  0
SECTION
  2
HEADER
  9
$ACADVER
  1
AC1024
  9
$ACADMAINTVER
 70
   226
  9
$DWGCODEPAGE
  3
ANSI_932
  9
$INSBASE
 10
0.0
 20
0.0
 30
0.0
  9
$EXTMIN
 10
1.000000000000000E+20
 20
1.000000000000000E+20
 30
1.000000000000000E+20
  9
$EXTMAX
 10
-1.000000000000000E+20
 20
-1.000000000000000E+20
 30
-1.000000000000000E+20
  9
$LIMMIN
 10
0.0
 20
0.0
  9
$LIMMAX
 10
12.0
 20
9.0
  9
$ORTHOMODE
 70
     0
  9
$REGENMODE
 70
     1
  9
$FILLMODE
 70
     1
  9
$QTEXTMODE
 70
     0
  9
$MIRRTEXT
 70
     0
  9
$LTSCALE
 40
1.0
  9
$ATTMODE
 70
     1
  9
$TEXTSIZE
 40
0.2
  9
$TRACEWID
 40
0.05
  9
$TEXTSTYLE
  7
Standard
  9
$CLAYER
  8
0
  9
$CELTYPE
  6
ByLayer
  9
$CECOLOR
 62
   256
  9
$CELTSCALE
 40
1.0
  9
$DISPSILH
 70
     0
  9
$DIMSCALE
 40
1.0
  9
$DIMASZ
 40
0.18
  9
$DIMEXO
 40
0.0625
  9
$DIMDLI
 40
0.38
  9
$DIMRND
 40
0.0
  9
$DIMDLE
 40
0.0
  9
$DIMEXE
 40
0.18
  9
$DIMTP
 40
0.0
  9
$DIMTM
 40
0.0
  9
$DIMTXT
 40
0.18
  9
$DIMCEN
 40
0.09
  9
$DIMTSZ
 40
0.0
  9
$DIMTOL
 70
     0
  9
$DIMLIM
 70
     0
  9
$DIMTIH
 70
     1
  9
$DIMTOH
 70
     1
  9
$DIMSE1
 70
     0
  9
$DIMSE2
 70
     0
  9
$DIMTAD
 70
     0
  9
$DIMZIN
 70
     0
  9
$DIMBLK
  1

  9
$DIMASO
 70
     1
  9
$DIMSHO
 70
     1
  9
$DIMPOST
  1

  9
$DIMAPOST
  1

  9
$DIMALT
 70
     0
  9
$DIMALTD
 70
     2
  9
$DIMALTF
 40
25.4
  9
$DIMLFAC
 40
1.0
  9
$DIMTOFL
 70
     0
  9
$DIMTVP
 40
0.0
  9
$DIMTIX
 70
     0
  9
$DIMSOXD
 70
     0
  9
$DIMSAH
 70
     0
  9
$DIMBLK1
  1

  9
$DIMBLK2
  1

  9
$DIMSTYLE
  2
Standard
  9
$DIMCLRD
 70
     0
  9
$DIMCLRE
 70
     0
  9
$DIMCLRT
 70
     0
  9
$DIMTFAC
 40
1.0
  9
$DIMGAP
 40
0.09
  9
$DIMJUST
 70
     0
  9
$DIMSD1
 70
     0
  9
$DIMSD2
 70
     0
  9
$DIMTOLJ
 70
     1
  9
$DIMTZIN
 70
     0
  9
$DIMALTZ
 70
     0
  9
$DIMALTTZ
 70
     0
  9
$DIMUPT
 70
     0
  9
$DIMDEC
 70
     4
  9
$DIMTDEC
 70
     4
  9
$DIMALTU
 70
     2
  9
$DIMALTTD
 70
     2
  9
$DIMTXSTY
  7
Standard
  9
$DIMAUNIT
 70
     0
  9
$DIMADEC
 70
     0
  9
$DIMALTRND
 40
0.0
  9
$DIMAZIN
 70
     0
  9
$DIMDSEP
 70
    46
  9
$DIMATFIT
 70
     3
  9
$DIMFRAC
 70
     0
  9
$DIMLDRBLK
  1

  9
$DIMLUNIT
 70
     2
  9
$DIMLWD
 70
    -2
  9
$DIMLWE
 70
    -2
  9
$DIMTMOVE
 70
     0
  9
$DIMFXL
 40
1.0
  9
$DIMFXLON
 70
     0
  9
$DIMJOGANG
 40
0.7853981633974483
  9
$DIMTFILL
 70
     0
  9
$DIMTFILLCLR
 70
     0
  9
$DIMARCSYM
 70
     0
  9
$DIMLTYPE
  6

  9
$DIMLTEX1
  6

  9
$DIMLTEX2
  6

  9
$DIMTXTDIRECTION
 70
     0
  9
$LUNITS
 70
     2
  9
$LUPREC
 70
     4
  9
$SKETCHINC
 40
0.1
  9
$FILLETRAD
 40
0.0
  9
$AUNITS
 70
     0
  9
$AUPREC
 70
     0
  9
$MENU
  1
.
  9
$ELEVATION
 40
0.0
  9
$PELEVATION
 40
0.0
  9
$THICKNESS
 40
0.0
  9
$LIMCHECK
 70
     0
  9
$CHAMFERA
 40
0.0
  9
$CHAMFERB
 40
0.0
  9
$CHAMFERC
 40
0.0
  9
$CHAMFERD
 40
0.0
  9
$SKPOLY
 70
     0
  9
$TDCREATE
 40
2459569.488715278
  9
$TDUCREATE
 40
2459569.113715278
  9
$TDUPDATE
 40
2459569.488715278
  9
$TDUUPDATE
 40
2459569.113715278
  9
$TDINDWG
 40
0.0000000000
  9
$TDUSRTIMER
 40
0.0000000000
  9
$USRTIMER
 70
     1
  9
$ANGBASE
 50
0.0
  9
$ANGDIR
 70
     0
  9
$PDMODE
 70
     0
  9
$PDSIZE
 40
0.0
  9
$PLINEWID
 40
0.0
  9
$SPLFRAME
 70
     0
  9
$SPLINETYPE
 70
     6
  9
$SPLINESEGS
 70
     8
  9
$HANDSEED
  5
1DF
  9
$SURFTAB1
 70
     6
  9
$SURFTAB2
 70
     6
  9
$SURFTYPE
 70
     6
  9
$SURFU
 70
     6
  9
$SURFV
 70
     6
  9
$UCSBASE
  2

  9
$UCSNAME
  2

  9
$UCSORG
 10
0.0
 20
0.0
 30
0.0
  9
$UCSXDIR
 10
1.0
 20
0.0
 30
0.0
  9
$UCSYDIR
 10
0.0
 20
1.0
 30
0.0
  9
$UCSORTHOREF
  2

  9
$UCSORTHOVIEW
 70
     0
  9
$UCSORGTOP
 10
0.0
 20
0.0
 30
0.0
  9
$UCSORGBOTTOM
 10
0.0
 20
0.0
 30
0.0
  9
$UCSORGLEFT
 10
0.0
 20
0.0
 30
0.0
  9
$UCSORGRIGHT
 10
0.0
 20
0.0
 30
0.0
  9
$UCSORGFRONT
 10
0.0
 20
0.0
 30
0.0
  9
$UCSORGBACK
 10
0.0
 20
0.0
 30
0.0
  9
$PUCSBASE
  2

  9
$PUCSNAME
  2

  9
$PUCSORG
 10
0.0
 20
0.0
 30
0.0
  9
$PUCSXDIR
 10
1.0
 20
0.0
 30
0.0
  9
$PUCSYDIR
 10
0.0
 20
1.0
 30
0.0
  9
$PUCSORTHOREF
  2

  9
$PUCSORTHOVIEW
 70
     0
  9
$PUCSORGTOP
 10
0.0
 20
0.0
 30
0.0
  9
$PUCSORGBOTTOM
 10
0.0
 20
0.0
 30
0.0
  9
$PUCSORGLEFT
 10
0.0
 20
0.0
 30
0.0
  9
$PUCSORGRIGHT
 10
0.0
 20
0.0
 30
0.0
  9
$PUCSORGFRONT
 10
0.0
 20
0.0
 30
0.0
  9
$PUCSORGBACK
 10
0.0
 20
0.0
 30
0.0
  9
$USERI1
 70
     0
  9
$USERI2
 70
     0
  9
$USERI3
 70
     0
  9
$USERI4
 70
     0
  9
$USERI5
 70
     0
  9
$USERR1
 40
0.0
  9
$USERR2
 40
0.0
  9
$USERR3
 40
0.0
  9
$USERR4
 40
0.0
  9
$USERR5
 40
0.0
  9
$WORLDVIEW
 70
     1
  9
$SHADEDGE
 70
     3
  9
$SHADEDIF
 70
    70
  9
$TILEMODE
 70
     1
  9
$MAXACTVP
 70
    64
  9
$PINSBASE
 10
0.0
 20
0.0
 30
0.0
  9
$PLIMCHECK
 70
     0
  9
$PEXTMIN
 10
1.000000000000000E+20
 20
1.000000000000000E+20
 30
1.000000000000000E+20
  9
$PEXTMAX
 10
-1.000000000000000E+20
 20
-1.000000000000000E+20
 30
-1.000000000000000E+20
  9
$PLIMMIN
 10
0.0
 20
0.0
  9
$PLIMMAX
 10
12.0
 20
9.0
  9
$UNITMODE
 70
     0
  9
$VISRETAIN
 70
     1
  9
$PLINEGEN
 70
     0
  9
$PSLTSCALE
 70
     1
  9
$TREEDEPTH
 70
  3020
  9
$CMLSTYLE
  2
Standard
  9
$CMLJUST
 70
     0
  9
$CMLSCALE
 40
1.0
  9
$PROXYGRAPHICS
 70
     1
  9
$MEASUREMENT
 70
     0
  9
$CELWEIGHT
370
    -1
  9
$ENDCAPS
280
     0
  9
$JOINSTYLE
280
     0
  9
$LWDISPLAY
290
     1
  9
$INSUNITS
 70
     4
  9
$HYPERLINKBASE
  1

  9
$STYLESHEET
  1

  9
$XEDIT
290
     1
  9
$CEPSNTYPE
380
     0
  9
$PSTYLEMODE
290
     1
  9
$FINGERPRINTGUID
  2
{F46C2CE2-CCA7-2F41-AD44-970EA48CCA52}
  9
$VERSIONGUID
  2
{80F132B2-2D2A-1C42-9CCD-9EBC2B6A4100}
  9
$EXTNAMES
290
     1
  9
$PSVPSCALE
 40
0.0
  9
$OLESTARTUP
290
     0
  9
$SORTENTS
280
   127
  9
$INDEXCTL
280
     0
  9
$HIDETEXT
280
     1
  9
$XCLIPFRAME
280
     2
  9
$HALOGAP
280
     0
  9
$OBSCOLOR
 70
   257
  9
$OBSLTYPE
280
     0
  9
$INTERSECTIONDISPLAY
280
     0
  9
$INTERSECTIONCOLOR
 70
   257
  9
$DIMASSOC
280
     2
  9
$PROJECTNAME
  1

  9
$CAMERADISPLAY
290
     0
  9
$LENSLENGTH
 40
50.0
  9
$CAMERAHEIGHT
 40
0.0
  9
$STEPSPERSEC
 40
2.0
  9
$STEPSIZE
 40
6.0
  9
$3DDWFPREC
 40
2.0
  9
$PSOLWIDTH
 40
0.25
  9
$PSOLHEIGHT
 40
4.0
  9
$LOFTANG1
 40
1.570796326794896
  9
$LOFTANG2
 40
1.570796326794896
  9
$LOFTMAG1
 40
0.0
  9
$LOFTMAG2
 40
0.0
  9
$LOFTPARAM
 70
     7
  9
$LOFTNORMALS
280
     1
  9
$LATITUDE
 40
37.795
  9
$LONGITUDE
 40
-122.394
  9
$NORTHDIRECTION
 40
0.0
  9
$TIMEZONE
 70
 -8000
  9
$LIGHTGLYPHDISPLAY
280
     1
  9
$TILEMODELIGHTSYNCH
280
     1
  9
$CMATERIAL
347
11
  9
$SOLIDHIST
280
     0
  9
$SHOWHIST
280
     1
  9
$DWFFRAME
280
     2
  9
$DGNFRAME
280
     0
  9
$REALWORLDSCALE
290
     1
  9
$INTERFERECOLOR
 62
     1
  9
$INTERFEREOBJVS
345
33
  9
$INTERFEREVPVS
346
30
  9
$CSHADOW
280
     0
  9
$SHADOWPLANELOCATION
 40
0.0
  0
ENDSEC
  0
SECTION
  2
CLASSES
  0
CLASS
  1
ACDBDICTIONARYWDFLT
  2
AcDbDictionaryWithDefault
  3
ObjectDBX Classes
 90
        0
 91
        1
280
     0
281
     0
  0
CLASS
  1
MATERIAL
  2
AcDbMaterial
  3
ObjectDBX Classes
 90
     1153
 91
        3
280
     0
281
     0
  0
CLASS
  1
VISUALSTYLE
  2
AcDbVisualStyle
  3
ObjectDBX Classes
 90
     4095
 91
       24
280
     0
281
     0
  0
CLASS
  1
SCALE
  2
AcDbScale
  3
ObjectDBX Classes
 90
     1153
 91
       17
280
     0
281
     0
  0
CLASS
  1
TABLESTYLE
  2
AcDbTableStyle
  3
ObjectDBX Classes
 90
     4095
 91
        1
280
     0
281
     0
  0
CLASS
  1
MLEADERSTYLE
  2
AcDbMLeaderStyle
  3
ACDB_MLEADERSTYLE_CLASS
 90
     4095
 91
        1
280
     0
281
     0
  0
CLASS
  1
ACDBSECTIONVIEWSTYLE
  2
AcDbSectionViewStyle
  3
ObjectDBX Classes
 90
     1025
 91
        1
280
     0
281
     0
  0
CLASS
  1
ACDBDETAILVIEWSTYLE
  2
AcDbDetailViewStyle
  3
ObjectDBX Classes
 90
     1025
 91
        1
280
     0
281
     0
  0
CLASS
  1
DICTIONARYVAR
  2
AcDbDictionaryVar
  3
ObjectDBX Classes
 90
        0
 91
        5
280
     0
281
     0
  0
CLASS
  1
CELLSTYLEMAP
  2
AcDbCellStyleMap
  3
ObjectDBX Classes
 90
     1152
 91
        1
280
     0
281
     0
  0
ENDSEC
  0
SECTION
  2
TABLES
  0
TABLE
  2
VPORT
  5
8
330
0
100
AcDbSymbolTable
 70
     1
  0
VPORT
  5
57
330
8
100
AcDbSymbolTableRecord
100
AcDbViewportTableRecord
  2
*Active
 70
     0
 10
0.0
 20
0.0
 11
1.0
 21
1.0
 12
0.0
 22
0.0
 13
0.0
 23
0.0
 14
1.0
 24
1.0
 15
0.0
 25
0.0
 16
0.0
 26
0.0
 36
1.0
 17
104.9999999737534
 27
-148.4999999628701
 37
0.0
 40
302.939999924255
 41
0.7070707070707534
 42
50.0
 43
0.0
 44
0.0
 50
0.0
 51
0.0
 71
     0
 72
   100
 73
     1
 74
     0
 75
     1
 76
     0
 77
     0
 78
     0
281
     0
 65
     1
110
0.0
120
0.0
130
0.0
111
1.0
121
0.0
131
0.0
112
0.0
122
1.0
132
0.0
 79
     0
146
0.0
 60
     3
 61
     5
292
     1
282
     1
141
0.0
142
0.0
 63
   250
421
  3355443
  0
ENDTAB
  0
TABLE
  2
LTYPE
  5
5
330
0
100
AcDbSymbolTable
 70
     1
  0
LTYPE
  5
5B
330
5
100
AcDbSymbolTableRecord
100
AcDbLinetypeTableRecord
  2
ByBlock
 70
     0
  3

 72
    65
 73
     0
 40
0.0
  0
LTYPE
  5
5C
330
5
100
AcDbSymbolTableRecord
100
AcDbLinetypeTableRecord
  2
ByLayer
 70
     0
  3

 72
    65
 73
     0
 40
0.0
  0
LTYPE
  5
5D
330
5
100
AcDbSymbolTableRecord
100
AcDbLinetypeTableRecord
  2
Continuous
 70
     0
  3
Solid line
 72
    65
 73
     0
 40
0.0
  0
ENDTAB
  0
TABLE
  2
LAYER
  5
2
330
0
100
AcDbSymbolTable
 70
     2
  0
LAYER
  5
54
330
2
100
AcDbSymbolTableRecord
100
AcDbLayerTableRecord
  2
0
 70
     0
 62
     7
  6
Continuous
370
    -3
390
F
347
21
  0
LAYER
  5
78
330
2
100
AcDbSymbolTableRecord
100
AcDbLayerTableRecord
  2
レイヤー 1
 70
     0
 62
     7
  6
Continuous
370
     0
390
F
347
21
  0
ENDTAB
  0
TABLE
  2
STYLE
  5
3
330
0
100
AcDbSymbolTable
 70
     2
  0
STYLE
  5
55
330
3
100
AcDbSymbolTableRecord
100
AcDbTextStyleTableRecord
  2
Standard
 70
     0
 40
0.0
 41
1.0
 50
0.0
 71
     0
 42
0.2
  3
txt
  4

  0
STYLE
  5
5A
330
3
100
AcDbSymbolTableRecord
100
AcDbTextStyleTableRecord
  2
Annotative
 70
     0
 40
0.0
 41
1.0
 50
0.0
 71
     0
 42
0.2
  3
txt
  4

1001
AcadAnnotative
1000
AnnotativeData
1002
{
1070
     1
1070
     1
1002
}
  0
ENDTAB
  0
TABLE
  2
VIEW
  5
6
330
0
100
AcDbSymbolTable
 70
     0
  0
ENDTAB
  0
TABLE
  2
UCS
  5
7
330
0
100
AcDbSymbolTable
 70
     0
  0
ENDTAB
  0
TABLE
  2
APPID
  5
9
330
0
100
AcDbSymbolTable
 70
     2
  0
APPID
  5
56
330
9
100
AcDbSymbolTableRecord
100
AcDbRegAppTableRecord
  2
ACAD
 70
     0
  0
APPID
  5
5E
330
9
100
AcDbSymbolTableRecord
100
AcDbRegAppTableRecord
  2
AcadAnnotative
 70
     0
  0
ENDTAB
  0
TABLE
  2
DIMSTYLE
  5
A
330
0
100
AcDbSymbolTable
 70
     2
100
AcDbDimStyleTable
 71
     0
  0
DIMSTYLE
105
58
330
A
100
AcDbSymbolTableRecord
100
AcDbDimStyleTableRecord
  2
Standard
 70
     0
340
55
  0
DIMSTYLE
105
59
330
A
100
AcDbSymbolTableRecord
100
AcDbDimStyleTableRecord
  2
Annotative
 70
     0
340
55
1001
AcadAnnotative
1000
AnnotativeData
1002
{
1070
     1
1070
     1
1002
}
  0
ENDTAB
  0
TABLE
  2
BLOCK_RECORD
  5
1
330
0
100
AcDbSymbolTable
 70
    36
  0
BLOCK_RECORD
  5
70
330
1
100
AcDbSymbolTableRecord
100
AcDbBlockTableRecord
  2
*Model_Space
340
73
 70
     0
280
     1
281
     0
  0
BLOCK_RECORD
  5
6C
330
1
100
AcDbSymbolTableRecord
100
AcDbBlockTableRecord
  2
*Paper_Space
340
6F
 70
     0
280
     1
281
     0
  0
BLOCK_RECORD
  5
74
330
1
100
AcDbSymbolTableRecord
100
AcDbBlockTableRecord
  2
*Paper_Space0
340
77
 70
     0
280
     1
281
     0
  0
BLOCK_RECORD
  5
A5
330
1
100
AcDbSymbolTableRecord
100
AcDbBlockTableRecord
  2
Block_0
340
0
102
{BLKREFS
331
A6
102
}
 70
     0
280
     1
281
     0
  0
BLOCK_RECORD
  5
A9
330
1
100
AcDbSymbolTableRecord
100
AcDbBlockTableRecord
  2
Block_1
340
0
102
{BLKREFS
331
AA
102
}
 70
     0
280
     1
281
     0
  0
BLOCK_RECORD
  5
BB
330
1
100
AcDbSymbolTableRecord
100
AcDbBlockTableRecord
  2
Block_2
340
0
102
{BLKREFS
331
BC
102
}
 70
     0
280
     1
281
     0
  0
BLOCK_RECORD
  5
C2
330
1
100
AcDbSymbolTableRecord
100
AcDbBlockTableRecord
  2
Block_3
340
0
102
{BLKREFS
331
C3
102
}
 70
     0
280
     1
281
     0
  0
BLOCK_RECORD
  5
C6
330
1
100
AcDbSymbolTableRecord
100
AcDbBlockTableRecord
  2
Block_4
340
0
102
{BLKREFS
331
C7
102
}
 70
     0
280
     1
281
     0
  0
BLOCK_RECORD
  5
CF
330
1
100
AcDbSymbolTableRecord
100
AcDbBlockTableRecord
  2
Block_5
340
0
102
{BLKREFS
331
D0
102
}
 70
     0
280
     1
281
     0
  0
BLOCK_RECORD
  5
D5
330
1
100
AcDbSymbolTableRecord
100
AcDbBlockTableRecord
  2
Block_6
340
0
102
{BLKREFS
331
D6
102
}
 70
     0
280
     1
281
     0
  0
BLOCK_RECORD
  5
D9
330
1
100
AcDbSymbolTableRecord
100
AcDbBlockTableRecord
  2
Block_7
340
0
102
{BLKREFS
331
DA
102
}
 70
     0
280
     1
281
     0
  0
BLOCK_RECORD
  5
E3
330
1
100
AcDbSymbolTableRecord
100
AcDbBlockTableRecord
  2
Block_8
340
0
102
{BLKREFS
331
E4
102
}
 70
     0
280
     1
281
     0
  0
BLOCK_RECORD
  5
E9
330
1
100
AcDbSymbolTableRecord
100
AcDbBlockTableRecord
  2
Block_9
340
0
102
{BLKREFS
331
EA
102
}
 70
     0
280
     1
281
     0
  0
BLOCK_RECORD
  5
ED
330
1
100
AcDbSymbolTableRecord
100
AcDbBlockTableRecord
  2
Block_10
340
0
102
{BLKREFS
331
EE
102
}
 70
     0
280
     1
281
     0
  0
BLOCK_RECORD
  5
F6
330
1
100
AcDbSymbolTableRecord
100
AcDbBlockTableRecord
  2
Block_11
340
0
102
{BLKREFS
331
F7
102
}
 70
     0
280
     1
281
     0
  0
BLOCK_RECORD
  5
FE
330
1
100
AcDbSymbolTableRecord
100
AcDbBlockTableRecord
  2
Block_12
340
0
102
{BLKREFS
331
FF
102
}
 70
     0
280
     1
281
     0
  0
BLOCK_RECORD
  5
102
330
1
100
AcDbSymbolTableRecord
100
AcDbBlockTableRecord
  2
Block_13
340
0
102
{BLKREFS
331
103
102
}
 70
     0
280
     1
281
     0
  0
BLOCK_RECORD
  5
10D
330
1
100
AcDbSymbolTableRecord
100
AcDbBlockTableRecord
  2
Block_14
340
0
102
{BLKREFS
331
10E
102
}
 70
     0
280
     1
281
     0
  0
BLOCK_RECORD
  5
114
330
1
100
AcDbSymbolTableRecord
100
AcDbBlockTableRecord
  2
Block_15
340
0
102
{BLKREFS
331
115
102
}
 70
     0
280
     1
281
     0
  0
BLOCK_RECORD
  5
118
330
1
100
AcDbSymbolTableRecord
100
AcDbBlockTableRecord
  2
Block_16
340
0
102
{BLKREFS
331
119
102
}
 70
     0
280
     1
281
     0
  0
BLOCK_RECORD
  5
121
330
1
100
AcDbSymbolTableRecord
100
AcDbBlockTableRecord
  2
Block_17
340
0
102
{BLKREFS
331
122
102
}
 70
     0
280
     1
281
     0
  0
BLOCK_RECORD
  5
127
330
1
100
AcDbSymbolTableRecord
100
AcDbBlockTableRecord
  2
Block_18
340
0
102
{BLKREFS
331
128
102
}
 70
     0
280
     1
281
     0
  0
BLOCK_RECORD
  5
12F
330
1
100
AcDbSymbolTableRecord
100
AcDbBlockTableRecord
  2
Block_19
340
0
102
{BLKREFS
331
130
102
}
 70
     0
280
     1
281
     0
  0
BLOCK_RECORD
  5
135
330
1
100
AcDbSymbolTableRecord
100
AcDbBlockTableRecord
  2
Block_20
340
0
102
{BLKREFS
331
136
102
}
 70
     0
280
     1
281
     0
  0
BLOCK_RECORD
  5
13D
330
1
100
AcDbSymbolTableRecord
100
AcDbBlockTableRecord
  2
Block_21
340
0
102
{BLKREFS
331
13E
102
}
 70
     0
280
     1
281
     0
  0
BLOCK_RECORD
  5
144
330
1
100
AcDbSymbolTableRecord
100
AcDbBlockTableRecord
  2
Block_22
340
0
102
{BLKREFS
331
145
102
}
 70
     0
280
     1
281
     0
  0
BLOCK_RECORD
  5
14B
330
1
100
AcDbSymbolTableRecord
100
AcDbBlockTableRecord
  2
Block_23
340
0
102
{BLKREFS
331
14C
102
}
 70
     0
280
     1
281
     0
  0
BLOCK_RECORD
  5
152
330
1
100
AcDbSymbolTableRecord
100
AcDbBlockTableRecord
  2
Block_24
340
0
102
{BLKREFS
331
153
102
}
 70
     0
280
     1
281
     0
  0
BLOCK_RECORD
  5
159
330
1
100
AcDbSymbolTableRecord
100
AcDbBlockTableRecord
  2
Block_25
340
0
102
{BLKREFS
331
15A
102
}
 70
     0
280
     1
281
     0
  0
BLOCK_RECORD
  5
15F
330
1
100
AcDbSymbolTableRecord
100
AcDbBlockTableRecord
  2
Block_26
340
0
102
{BLKREFS
331
160
102
}
 70
     0
280
     1
281
     0
  0
BLOCK_RECORD
  5
163
330
1
100
AcDbSymbolTableRecord
100
AcDbBlockTableRecord
  2
Block_27
340
0
102
{BLKREFS
331
164
102
}
 70
     0
280
     1
281
     0
  0
BLOCK_RECORD
  5
170
330
1
100
AcDbSymbolTableRecord
100
AcDbBlockTableRecord
  2
Block_28
340
0
102
{BLKREFS
331
171
102
}
 70
     0
280
     1
281
     0
  0
BLOCK_RECORD
  5
177
330
1
100
AcDbSymbolTableRecord
100
AcDbBlockTableRecord
  2
Block_29
340
0
102
{BLKREFS
331
178
102
}
 70
     0
280
     1
281
     0
  0
BLOCK_RECORD
  5
17E
330
1
100
AcDbSymbolTableRecord
100
AcDbBlockTableRecord
  2
Block_30
340
0
102
{BLKREFS
331
17F
102
}
 70
     0
280
     1
281
     0
  0
BLOCK_RECORD
  5
185
330
1
100
AcDbSymbolTableRecord
100
AcDbBlockTableRecord
  2
Block_31
340
0
102
{BLKREFS
331
186
102
}
 70
     0
280
     1
281
     0
  0
BLOCK_RECORD
  5
18C
330
1
100
AcDbSymbolTableRecord
100
AcDbBlockTableRecord
  2
Block_32
340
0
102
{BLKREFS
331
18D
102
}
 70
     0
280
     1
281
     0
  0
BLOCK_RECORD
  5
192
330
1
100
AcDbSymbolTableRecord
100
AcDbBlockTableRecord
  2
Block_33
340
0
102
{BLKREFS
331
193
102
}
 70
     0
280
     1
281
     0
  0
BLOCK_RECORD
  5
196
330
1
100
AcDbSymbolTableRecord
100
AcDbBlockTableRecord
  2
Block_34
340
0
102
{BLKREFS
331
197
102
}
 70
     0
280
     1
281
     0
  0
ENDTAB
  0
ENDSEC
  0
SECTION
  2
BLOCKS
  0
BLOCK
  5
71
330
70
100
AcDbEntity
  8
0
100
AcDbBlockBegin
  2
*Model_Space
 70
     0
 10
0.0
 20
0.0
 30
0.0
  3
*Model_Space
  1

  0
ENDBLK
  5
72
330
70
100
AcDbEntity
  8
0
100
AcDbBlockEnd
  0
BLOCK
  5
6D
330
6C
100
AcDbEntity
 67
     1
  8
0
100
AcDbBlockBegin
  2
*Paper_Space
 70
     0
 10
0.0
 20
0.0
 30
0.0
  3
*Paper_Space
  1

  0
ENDBLK
  5
6E
330
6C
100
AcDbEntity
 67
     1
  8
0
100
AcDbBlockEnd
  0
BLOCK
  5
75
330
74
100
AcDbEntity
 67
     1
  8
0
100
AcDbBlockBegin
  2
*Paper_Space0
 70
     0
 10
0.0
 20
0.0
 30
0.0
  3
*Paper_Space0
  1

  0
ENDBLK
  5
76
330
74
100
AcDbEntity
 67
     1
  8
0
100
AcDbBlockEnd
  0
BLOCK
  5
A7
330
A5
100
AcDbEntity
  8
0
100
AcDbBlockBegin
  2
Block_0
 70
     0
 10
0.0
 20
0.0
 30
0.0
  3
Block_0
  1

  0
INSERT
  5
AA
330
A5
100
AcDbEntity
  8
レイヤー 1
100
AcDbBlockReference
  2
Block_1
 10
0.0
 20
0.0
 30
0.0
  0
ENDBLK
  5
A8
330
A5
100
AcDbEntity
  8
0
100
AcDbBlockEnd
  0
BLOCK
  5
AB
330
A9
100
AcDbEntity
  8
0
100
AcDbBlockBegin
  2
Block_1
 70
     0
 10
0.0
 20
0.0
 30
0.0
  3
Block_1
  1

  0
SPLINE
  5
AD
330
A9
100
AcDbEntity
  8
レイヤー 1
100
AcDbSpline
210
0.0
220
0.0
230
1.0
 70
     9
 71
     3
 72
    41
 73
    37
 74
     0
 42
0.0000000001
 43
0.0000000001
 40
0.0
 40
0.0
 40
0.0
 40
0.0
 40
1.0
 40
1.0
 40
1.0
 40
2.0
 40
2.0
 40
2.0
 40
3.0
 40
3.0
 40
3.0
 40
4.0
 40
4.0
 40
4.0
 40
5.0
 40
5.0
 40
5.0
 40
6.0
 40
6.0
 40
6.0
 40
7.0
 40
7.0
 40
7.0
 40
8.0
 40
8.0
 40
8.0
 40
9.0
 40
9.0
 40
9.0
 40
10.0
 40
10.0
 40
10.0
 40
11.0
 40
11.0
 40
11.0
 40
12.0
 40
12.0
 40
12.0
 40
12.0
 10
108.1608398167098
 20
-151.5624972494357
 30
0.0
 10
107.9031466744131
 20
-151.4271049968654
 30
0.0
 10
107.7133219131758
 20
-151.1308267851339
 30
0.0
 10
107.6702582196102
 20
-151.0019802139856
 30
0.0
 10
107.5414116484618
 20
-151.2662190377042
 30
0.0
 10
107.3674343264567
 20
-151.4439859647431
 30
0.0
 10
107.1727864315401
 20
-151.5583631348534
 30
0.0
 10
107.1727864315401
 20
-151.5583631348534
 30
0.0
 10
106.9626356069399
 20
-151.420903824992
 30
0.0
 10
106.9626356069399
 20
-151.420903824992
 30
0.0
 10
107.0373941789698
 20
-151.3954101184011
 30
0.0
 10
107.1934570044516
 20
-151.3340874187637
 30
0.0
 10
107.3243706328911
 20
-151.1797471410245
 30
0.0
 10
107.4576958281703
 20
-151.0229952964456
 30
0.0
 10
107.5527804635632
 20
-150.7904513511913
 30
0.0
 10
107.5527804635632
 20
-150.5300021325064
 30
0.0
 10
107.5527804635632
 20
-150.42871632524
 30
0.0
 10
107.5393445911707
 20
-150.3567138295983
 30
0.0
 10
107.5279757760694
 20
-150.3102050405474
 30
0.0
 10
107.5279757760694
 20
-150.3102050405474
 30
0.0
 10
107.7470838489313
 20
-150.3312201230075
 30
0.0
 10
107.7470838489313
 20
-150.3312201230075
 30
0.0
 10
107.7698214791339
 20
-150.3332871802986
 30
0.0
 10
107.7925591093366
 20
-150.3353542375897
 30
0.0
 10
107.7925591093366
 20
-150.3567138295983
 30
0.0
 10
107.7925591093366
 20
-150.3756618547672
 30
0.0
 10
107.7811902942352
 20
-150.3842745934803
 30
0.0
 10
107.7450167916401
 20
-150.4052896759403
 30
0.0
 10
107.7360595433785
 20
-150.6061387427304
 30
0.0
 10
107.7970377334674
 20
-150.8497069935376
 30
0.0
 10
107.8624945476871
 20
-150.9702853355213
 30
0.0
 10
107.9596462403712
 20
-151.1456406957205
 30
0.0
 10
108.1677300076803
 20
-151.3254746800505
 30
0.0
 10
108.3124240180608
 20
-151.3826632651057
 30
0.0
 10
108.3124240180608
 20
-151.3826632651057
 30
0.0
 10
108.1608398167098
 20
-151.5624972494357
 30
0.0
 10
108.1608398167098
 20
-151.5624972494357
 30
0.0
  0
SPLINE
  5
AE
330
A9
100
AcDbEntity
  8
レイヤー 1
100
AcDbSpline
210
0.0
220
0.0
230
1.0
 70
    11
 71
     3
 72
    17
 73
    13
 74
     0
 42
0.0000000001
 43
0.0000000001
 40
0.0
 40
0.0
 40
0.0
 40
0.0
 40
1.0
 40
1.0
 40
1.0
 40
2.0
 40
2.0
 40
2.0
 40
3.0
 40
3.0
 40
3.0
 40
4.0
 40
4.0
 40
4.0
 40
4.0
 10
106.9967420522438
 20
-150.6040716854393
 30
0.0
 10
106.9967420522438
 20
-150.6040716854393
 30
0.0
 10
106.8248317875299
 20
-150.6040716854393
 30
0.0
 10
106.8248317875299
 20
-150.6040716854393
 30
0.0
 10
106.8248317875299
 20
-150.6040716854393
 30
0.0
 10
106.8248317875299
 20
-150.7332627661361
 30
0.0
 10
106.8248317875299
 20
-150.7332627661361
 30
0.0
 10
106.8248317875299
 20
-150.7332627661361
 30
0.0
 10
106.9967420522438
 20
-150.7332627661361
 30
0.0
 10
106.9967420522438
 20
-150.7332627661361
 30
0.0
 10
106.9967420522438
 20
-150.7332627661361
 30
0.0
 10
106.9967420522438
 20
-150.6040716854393
 30
0.0
 10
106.9967420522438
 20
-150.6040716854393
 30
0.0
  0
SPLINE
  5
AF
330
A9
100
AcDbEntity
  8
レイヤー 1
100
AcDbSpline
210
0.0
220
0.0
230
1.0
 70
    11
 71
     3
 72
    17
 73
    13
 74
     0
 42
0.0000000001
 43
0.0000000001
 40
0.0
 40
0.0
 40
0.0
 40
0.0
 40
1.0
 40
1.0
 40
1.0
 40
2.0
 40
2.0
 40
2.0
 40
3.0
 40
3.0
 40
3.0
 40
4.0
 40
4.0
 40
4.0
 40
4.0
 10
106.9967420522438
 20
-150.3312201230075
 30
0.0
 10
106.9967420522438
 20
-150.3312201230075
 30
0.0
 10
106.8248317875299
 20
-150.3312201230075
 30
0.0
 10
106.8248317875299
 20
-150.3312201230075
 30
0.0
 10
106.8248317875299
 20
-150.3312201230075
 30
0.0
 10
106.8248317875299
 20
-150.4604112037043
 30
0.0
 10
106.8248317875299
 20
-150.4604112037043
 30
0.0
 10
106.8248317875299
 20
-150.4604112037043
 30
0.0
 10
106.9967420522438
 20
-150.4604112037043
 30
0.0
 10
106.9967420522438
 20
-150.4604112037043
 30
0.0
 10
106.9967420522438
 20
-150.4604112037043
 30
0.0
 10
106.9967420522438
 20
-150.3312201230075
 30
0.0
 10
106.9967420522438
 20
-150.3312201230075
 30
0.0
  0
SPLINE
  5
B0
330
A9
100
AcDbEntity
  8
レイヤー 1
100
AcDbSpline
210
0.0
220
0.0
230
1.0
 70
    11
 71
     3
 72
    17
 73
    13
 74
     0
 42
0.0000000001
 43
0.0000000001
 40
0.0
 40
0.0
 40
0.0
 40
0.0
 40
1.0
 40
1.0
 40
1.0
 40
2.0
 40
2.0
 40
2.0
 40
3.0
 40
3.0
 40
3.0
 40
4.0
 40
4.0
 40
4.0
 40
4.0
 10
106.6415527077146
 20
-150.6040716854393
 30
0.0
 10
106.6415527077146
 20
-150.6040716854393
 30
0.0
 10
106.4720540098403
 20
-150.6040716854393
 30
0.0
 10
106.4720540098403
 20
-150.6040716854393
 30
0.0
 10
106.4720540098403
 20
-150.6040716854393
 30
0.0
 10
106.4720540098403
 20
-150.7332627661361
 30
0.0
 10
106.4720540098403
 20
-150.7332627661361
 30
0.0
 10
106.4720540098403
 20
-150.7332627661361
 30
0.0
 10
106.6415527077146
 20
-150.7332627661361
 30
0.0
 10
106.6415527077146
 20
-150.7332627661361
 30
0.0
 10
106.6415527077146
 20
-150.7332627661361
 30
0.0
 10
106.6415527077146
 20
-150.6040716854393
 30
0.0
 10
106.6415527077146
 20
-150.6040716854393
 30
0.0
  0
SPLINE
  5
B1
330
A9
100
AcDbEntity
  8
レイヤー 1
100
AcDbSpline
210
0.0
220
0.0
230
1.0
 70
    11
 71
     3
 72
    17
 73
    13
 74
     0
 42
0.0000000001
 43
0.0000000001
 40
0.0
 40
0.0
 40
0.0
 40
0.0
 40
1.0
 40
1.0
 40
1.0
 40
2.0
 40
2.0
 40
2.0
 40
3.0
 40
3.0
 40
3.0
 40
4.0
 40
4.0
 40
4.0
 40
4.0
 10
106.6415527077146
 20
-150.3312201230075
 30
0.0
 10
106.6415527077146
 20
-150.3312201230075
 30
0.0
 10
106.4720540098403
 20
-150.3312201230075
 30
0.0
 10
106.4720540098403
 20
-150.3312201230075
 30
0.0
 10
106.4720540098403
 20
-150.3312201230075
 30
0.0
 10
106.4720540098403
 20
-150.4604112037043
 30
0.0
 10
106.4720540098403
 20
-150.4604112037043
 30
0.0
 10
106.4720540098403
 20
-150.4604112037043
 30
0.0
 10
106.6415527077146
 20
-150.4604112037043
 30
0.0
 10
106.6415527077146
 20
-150.4604112037043
 30
0.0
 10
106.6415527077146
 20
-150.4604112037043
 30
0.0
 10
106.6415527077146
 20
-150.3312201230075
 30
0.0
 10
106.6415527077146
 20
-150.3312201230075
 30
0.0
  0
SPLINE
  5
B2
330
A9
100
AcDbEntity
  8
レイヤー 1
100
AcDbSpline
210
0.0
220
0.0
230
1.0
 70
     9
 71
     3
 72
   197
 73
   193
 74
     0
 42
0.0000000001
 43
0.0000000001
 40
0.0
 40
0.0
 40
0.0
 40
0.0
 40
1.0
 40
1.0
 40
1.0
 40
2.0
 40
2.0
 40
2.0
 40
3.0
 40
3.0
 40
3.0
 40
4.0
 40
4.0
 40
4.0
 40
5.0
 40
5.0
 40
5.0
 40
6.0
 40
6.0
 40
6.0
 40
7.0
 40
7.0
 40
7.0
 40
8.0
 40
8.0
 40
8.0
 40
9.0
 40
9.0
 40
9.0
 40
10.0
 40
10.0
 40
10.0
 40
11.0
 40
11.0
 40
11.0
 40
12.0
 40
12.0
 40
12.0
 40
13.0
 40
13.0
 40
13.0
 40
14.0
 40
14.0
 40
14.0
 40
15.0
 40
15.0
 40
15.0
 40
16.0
 40
16.0
 40
16.0
 40
17.0
 40
17.0
 40
17.0
 40
18.0
 40
18.0
 40
18.0
 40
19.0
 40
19.0
 40
19.0
 40
20.0
 40
20.0
 40
20.0
 40
21.0
 40
21.0
 40
21.0
 40
22.0
 40
22.0
 40
22.0
 40
23.0
 40
23.0
 40
23.0
 40
24.0
 40
24.0
 40
24.0
 40
25.0
 40
25.0
 40
25.0
 40
26.0
 40
26.0
 40
26.0
 40
27.0
 40
27.0
 40
27.0
 40
28.0
 40
28.0
 40
28.0
 40
29.0
 40
29.0
 40
29.0
 40
30.0
 40
30.0
 40
30.0
 40
31.0
 40
31.0
 40
31.0
 40
32.0
 40
32.0
 40
32.0
 40
33.0
 40
33.0
 40
33.0
 40
34.0
 40
34.0
 40
34.0
 40
35.0
 40
35.0
 40
35.0
 40
36.0
 40
36.0
 40
36.0
 40
37.0
 40
37.0
 40
37.0
 40
38.0
 40
38.0
 40
38.0
 40
39.0
 40
39.0
 40
39.0
 40
40.0
 40
40.0
 40
40.0
 40
41.0
 40
41.0
 40
41.0
 40
42.0
 40
42.0
 40
42.0
 40
43.0
 40
43.0
 40
43.0
 40
44.0
 40
44.0
 40
44.0
 40
45.0
 40
45.0
 40
45.0
 40
46.0
 40
46.0
 40
46.0
 40
47.0
 40
47.0
 40
47.0
 40
48.0
 40
48.0
 40
48.0
 40
49.0
 40
49.0
 40
49.0
 40
50.0
 40
50.0
 40
50.0
 40
51.0
 40
51.0
 40
51.0
 40
52.0
 40
52.0
 40
52.0
 40
53.0
 40
53.0
 40
53.0
 40
54.0
 40
54.0
 40
54.0
 40
55.0
 40
55.0
 40
55.0
 40
56.0
 40
56.0
 40
56.0
 40
57.0
 40
57.0
 40
57.0
 40
58.0
 40
58.0
 40
58.0
 40
59.0
 40
59.0
 40
59.0
 40
60.0
 40
60.0
 40
60.0
 40
61.0
 40
61.0
 40
61.0
 40
62.0
 40
62.0
 40
62.0
 40
63.0
 40
63.0
 40
63.0
 40
64.0
 40
64.0
 40
64.0
 40
64.0
 10
108.2514458279718
 20
-150.2065076664414
 30
0.0
 10
108.2400770128705
 20
-150.2361354876146
 30
0.0
 10
108.2152723253767
 20
-150.2826442766654
 30
0.0
 10
108.2039035102754
 20
-150.3102050405474
 30
0.0
 10
108.2039035102754
 20
-150.3102050405474
 30
0.0
 10
108.1384466960557
 20
-150.4624782609955
 30
0.0
 10
108.1384466960557
 20
-150.4624782609955
 30
0.0
 10
108.1270778809543
 20
-150.4879719675863
 30
0.0
 10
108.0750569391271
 20
-150.599937570857
 30
0.0
 10
108.0616210667346
 20
-150.6233642201566
 30
0.0
 10
108.0592094998949
 20
-150.6295653920301
 30
0.0
 10
108.0547308757641
 20
-150.6381781307432
 30
0.0
 10
108.0523193089244
 20
-150.6443793026167
 30
0.0
 10
108.0523193089244
 20
-150.6443793026167
 30
0.0
 10
107.8287326119317
 20
-150.5913248321438
 30
0.0
 10
107.8287326119317
 20
-150.5913248321438
 30
0.0
 10
107.9121039226747
 20
-150.4814262861644
 30
0.0
 10
107.977905246443
 20
-150.3460340335941
 30
0.0
 10
108.0116671821985
 20
-150.2361354876146
 30
0.0
 10
108.0116671821985
 20
-150.2361354876146
 30
0.0
 10
107.5141953941284
 20
-150.2361354876146
 30
0.0
 10
107.5141953941284
 20
-150.2361354876146
 30
0.0
 10
107.4284125165457
 20
-150.401155561358
 30
0.0
 10
107.3560655113554
 20
-150.4793592288732
 30
0.0
 10
107.3198920087603
 20
-150.5196668460506
 30
0.0
 10
107.3198920087603
 20
-150.5196668460506
 30
0.0
 10
107.1886338707723
 20
-150.4538655222823
 30
0.0
 10
107.1886338707723
 20
-150.4538655222823
 30
0.0
 10
107.1886338707723
 20
-150.4538655222823
 30
0.0
 10
107.1886338707723
 20
-150.6254312774478
 30
0.0
 10
107.1886338707723
 20
-150.6254312774478
 30
0.0
 10
107.1886338707723
 20
-150.7332627661361
 30
0.0
 10
107.1910454376119
 20
-150.7818386124782
 30
0.0
 10
107.2024142527133
 20
-150.8876030438753
 30
0.0
 10
107.1255886233922
 20
-150.8855359865842
 30
0.0
 10
107.1028509931895
 20
-150.8855359865842
 30
0.0
 10
106.8833984107791
 20
-150.8855359865842
 30
0.0
 10
106.8833984107791
 20
-150.8855359865842
 30
0.0
 10
106.8248317875299
 20
-150.8855359865842
 30
0.0
 10
106.8248317875299
 20
-150.8855359865842
 30
0.0
 10
106.8248317875299
 20
-150.8855359865842
 30
0.0
 10
106.8248317875299
 20
-151.0209282391545
 30
0.0
 10
106.8248317875299
 20
-151.0209282391545
 30
0.0
 10
106.8248317875299
 20
-151.0209282391545
 30
0.0
 10
106.901657416851
 20
-151.0209282391545
 30
0.0
 10
106.901657416851
 20
-151.0209282391545
 30
0.0
 10
106.9715928552015
 20
-151.0209282391545
 30
0.0
 10
107.1276556806834
 20
-151.0167941245722
 30
0.0
 10
107.2406548125995
 20
-151.008181385859
 30
0.0
 10
107.2406548125995
 20
-151.008181385859
 30
0.0
 10
107.2406548125995
 20
-151.1859483128979
 30
0.0
 10
107.2406548125995
 20
-151.1859483128979
 30
0.0
 10
107.136612928945
 20
-151.1797471410245
 30
0.0
 10
106.9671142310707
 20
-151.1752685168937
 30
0.0
 10
106.901657416851
 20
-151.1752685168937
 30
0.0
 10
106.901657416851
 20
-151.1752685168937
 30
0.0
 10
106.8248317875299
 20
-151.1752685168937
 30
0.0
 10
106.8248317875299
 20
-151.1752685168937
 30
0.0
 10
106.826898844821
 20
-151.2641519804131
 30
0.0
 10
106.8317219785004
 20
-151.5032416070894
 30
0.0
 10
106.8337890357915
 20
-151.5773111600223
 30
0.0
 10
106.8337890357915
 20
-151.5773111600223
 30
0.0
 10
106.6191595870605
 20
-151.5773111600223
 30
0.0
 10
106.6191595870605
 20
-151.5773111600223
 30
0.0
 10
106.632595459453
 20
-151.3637152399368
 30
0.0
 10
106.632595459453
 20
-151.3340874187637
 30
0.0
 10
106.6370740835838
 20
-151.1752685168937
 30
0.0
 10
106.6370740835838
 20
-151.1752685168937
 30
0.0
 10
106.5626600211024
 20
-151.1752685168937
 30
0.0
 10
106.5626600211024
 20
-151.1752685168937
 30
0.0
 10
106.5013373214649
 20
-151.1752685168937
 30
0.0
 10
106.3387288145611
 20
-151.1797471410245
 30
0.0
 10
106.2212510585141
 20
-151.1859483128979
 30
0.0
 10
106.2212510585141
 20
-151.1859483128979
 30
0.0
 10
106.2212510585141
 20
-151.008181385859
 30
0.0
 10
106.2212510585141
 20
-151.008181385859
 30
0.0
 10
106.3342501904303
 20
-151.0167941245722
 30
0.0
 10
106.4879014490724
 20
-151.0209282391545
 30
0.0
 10
106.5626600211024
 20
-151.0209282391545
 30
0.0
 10
106.5626600211024
 20
-151.0209282391545
 30
0.0
 10
106.6415527077146
 20
-151.0209282391545
 30
0.0
 10
106.6415527077146
 20
-151.0209282391545
 30
0.0
 10
106.6415527077146
 20
-151.0209282391545
 30
0.0
 10
106.6415527077146
 20
-150.8855359865842
 30
0.0
 10
106.6415527077146
 20
-150.8855359865842
 30
0.0
 10
106.6415527077146
 20
-150.8855359865842
 30
0.0
 10
106.5940103900181
 20
-150.8855359865842
 30
0.0
 10
106.5940103900181
 20
-150.8855359865842
 30
0.0
 10
106.5127061365662
 20
-150.8855359865842
 30
0.0
 10
106.3070339360968
 20
-150.8876030438753
 30
0.0
 10
106.2708604335017
 20
-150.8876030438753
 30
0.0
 10
106.2777506244722
 20
-150.8156005482336
 30
0.0
 10
106.2867078727339
 20
-150.7353298234273
 30
0.0
 10
106.2867078727339
 20
-150.6147514814435
 30
0.0
 10
106.2867078727339
 20
-150.6147514814435
 30
0.0
 10
106.2867078727339
 20
-150.4411186689869
 30
0.0
 10
106.2867078727339
 20
-150.4411186689869
 30
0.0
 10
106.2867078727339
 20
-150.3694606828937
 30
0.0
 10
106.2777506244722
 20
-150.24888234091
 30
0.0
 10
106.2708604335017
 20
-150.1682671065552
 30
0.0
 10
106.3545762537933
 20
-150.172745730686
 30
0.0
 10
106.3952283805192
 20
-150.1748127879771
 30
0.0
 10
106.5309651426381
 20
-150.1748127879771
 30
0.0
 10
106.5309651426381
 20
-150.1748127879771
 30
0.0
 10
106.6415527077146
 20
-150.1748127879771
 30
0.0
 10
106.6415527077146
 20
-150.1748127879771
 30
0.0
 10
106.6415527077146
 20
-150.1748127879771
 30
0.0
 10
106.6415527077146
 20
-150.0287407394025
 30
0.0
 10
106.6415527077146
 20
-150.0287407394025
 30
0.0
 10
106.6415527077146
 20
-150.0287407394025
 30
0.0
 10
106.557836887423
 20
-150.0287407394025
 30
0.0
 10
106.557836887423
 20
-150.0287407394025
 30
0.0
 10
106.4992702641738
 20
-150.0287407394025
 30
0.0
 10
106.3159911843585
 20
-150.0328748539848
 30
0.0
 10
106.2257296826449
 20
-150.0394205354068
 30
0.0
 10
106.2257296826449
 20
-150.0394205354068
 30
0.0
 10
106.2257296826449
 20
-149.8616536083679
 30
0.0
 10
106.2257296826449
 20
-149.8616536083679
 30
0.0
 10
106.3139241270673
 20
-149.8678547802414
 30
0.0
 10
106.4879014490724
 20
-149.8723334043722
 30
0.0
 10
106.557836887423
 20
-149.8723334043722
 30
0.0
 10
106.557836887423
 20
-149.8723334043722
 30
0.0
 10
106.6415527077146
 20
-149.8723334043722
 30
0.0
 10
106.6415527077146
 20
-149.8723334043722
 30
0.0
 10
106.6415527077146
 20
-149.8382269590682
 30
0.0
 10
106.6370740835838
 20
-149.683886681329
 30
0.0
 10
106.6370740835838
 20
-149.6521918028647
 30
0.0
 10
106.6370740835838
 20
-149.6521918028647
 30
0.0
 10
106.847224908184
 20
-149.6690727707425
 30
0.0
 10
106.847224908184
 20
-149.6690727707425
 30
0.0
 10
106.8654839142558
 20
-149.6711398280336
 30
0.0
 10
106.8882215444585
 20
-149.6732068853247
 30
0.0
 10
106.8882215444585
 20
-149.6945664773333
 30
0.0
 10
106.8882215444585
 20
-149.7176486170844
 30
0.0
 10
106.8654839142558
 20
-149.7262613557976
 30
0.0
 10
106.8362006026312
 20
-149.739008209093
 30
0.0
 10
106.8362006026312
 20
-149.760023291553
 30
0.0
 10
106.8337890357915
 20
-149.8554524364945
 30
0.0
 10
106.8337890357915
 20
-149.8723334043722
 30
0.0
 10
106.8337890357915
 20
-149.8723334043722
 30
0.0
 10
106.8971787927201
 20
-149.8723334043722
 30
0.0
 10
106.8971787927201
 20
-149.8723334043722
 30
0.0
 10
106.9695257979104
 20
-149.8723334043722
 30
0.0
 10
107.1231770565525
 20
-149.8678547802414
 30
0.0
 10
107.2361761884687
 20
-149.8616536083679
 30
0.0
 10
107.2361761884687
 20
-149.8616536083679
 30
0.0
 10
107.2361761884687
 20
-150.0394205354068
 30
0.0
 10
107.2361761884687
 20
-150.0394205354068
 30
0.0
 10
107.1321343048142
 20
-150.0328748539848
 30
0.0
 10
106.9650471737796
 20
-150.0287407394025
 30
0.0
 10
106.8971787927201
 20
-150.0287407394025
 30
0.0
 10
106.8971787927201
 20
-150.0287407394025
 30
0.0
 10
106.8248317875299
 20
-150.0287407394025
 30
0.0
 10
106.8248317875299
 20
-150.0287407394025
 30
0.0
 10
106.8248317875299
 20
-150.0287407394025
 30
0.0
 10
106.8248317875299
 20
-150.1748127879771
 30
0.0
 10
106.8248317875299
 20
-150.1748127879771
 30
0.0
 10
106.8248317875299
 20
-150.1748127879771
 30
0.0
 10
106.8992458500113
 20
-150.1748127879771
 30
0.0
 10
106.8992458500113
 20
-150.1748127879771
 30
0.0
 10
107.0597872996239
 20
-150.1748127879771
 30
0.0
 10
107.136612928945
 20
-150.1703341638463
 30
0.0
 10
107.2024142527133
 20
-150.1682671065552
 30
0.0
 10
107.1934570044516
 20
-150.2636962514966
 30
0.0
 10
107.1910454376119
 20
-150.3418999190117
 30
0.0
 10
107.1886338707723
 20
-150.3797959693495
 30
0.0
 10
107.3536539445157
 20
-150.1682671065552
 30
0.0
 10
107.4669975859805
 20
-149.9209092507142
 30
0.0
 10
107.4849120825038
 20
-149.6583929747381
 30
0.0
 10
107.4849120825038
 20
-149.6583929747381
 30
0.0
 10
107.715388970467
 20
-149.7093803879199
 30
0.0
 10
107.715388970467
 20
-149.7093803879199
 30
0.0
 10
107.7312364096991
 20
-149.7135145025022
 30
0.0
 10
107.7470838489313
 20
-149.7200601839241
 30
0.0
 10
107.7470838489313
 20
-149.7369411518019
 30
0.0
 10
107.7470838489313
 20
-149.7538221196796
 30
0.0
 10
107.7426052248005
 20
-149.7558891769707
 30
0.0
 10
107.688517225682
 20
-149.7769042594307
 30
0.0
 10
107.6702582196102
 20
-149.8530408696548
 30
0.0
 10
107.6430419652767
 20
-149.9439913904654
 30
0.0
 10
107.591365532998
 20
-150.0711154138711
 30
0.0
 10
107.591365532998
 20
-150.0711154138711
 30
0.0
 10
107.9531005589492
 20
-150.0711154138711
 30
0.0
 10
107.9531005589492
 20
-150.0711154138711
 30
0.0
 10
107.9937526856751
 20
-150.0711154138711
 30
0.0
 10
108.1315565050851
 20
-150.0669812992888
 30
0.0
 10
108.1835774469124
 20
-150.0604356178668
 30
0.0
 10
108.1835774469124
 20
-150.0604356178668
 30
0.0
 10
108.2831407064361
 20
-150.1303710562174
 30
0.0
 10
108.2831407064361
 20
-150.1303710562174
 30
0.0
 10
108.273838948626
 20
-150.1513861386774
 30
0.0
 10
108.267293267204
 20
-150.1703341638463
 30
0.0
 10
108.2514458279718
 20
-150.2065076664414
 30
0.0
  0
HATCH
  5
B3
330
A9
100
AcDbEntity
  8
レイヤー 1
 62
   250
420
  2299925
440
 33554687
100
AcDbHatch
 10
0.0
 20
0.0
 30
0.0
210
0.0
220
0.0
230
1.0
  2
SOLID
 70
     1
 71
     1
 91
        6
 92
        1
 93
        1
 72
     4
 94
        3
 73
     0
 74
     0
 95
       41
 96
       37
 40
0.0
 40
0.0
 40
0.0
 40
0.0
 40
1.0
 40
1.0
 40
1.0
 40
2.0
 40
2.0
 40
2.0
 40
3.0
 40
3.0
 40
3.0
 40
4.0
 40
4.0
 40
4.0
 40
5.0
 40
5.0
 40
5.0
 40
6.0
 40
6.0
 40
6.0
 40
7.0
 40
7.0
 40
7.0
 40
8.0
 40
8.0
 40
8.0
 40
9.0
 40
9.0
 40
9.0
 40
10.0
 40
10.0
 40
10.0
 40
11.0
 40
11.0
 40
11.0
 40
12.0
 40
12.0
 40
12.0
 40
12.0
 10
108.1608398167098
 20
-151.5624972494357
 10
107.9031466744131
 20
-151.4271049968654
 10
107.7133219131758
 20
-151.1308267851339
 10
107.6702582196102
 20
-151.0019802139856
 10
107.5414116484618
 20
-151.2662190377042
 10
107.3674343264567
 20
-151.4439859647431
 10
107.1727864315401
 20
-151.5583631348534
 10
107.1727864315401
 20
-151.5583631348534
 10
106.9626356069399
 20
-151.420903824992
 10
106.9626356069399
 20
-151.420903824992
 10
107.0373941789698
 20
-151.3954101184011
 10
107.1934570044516
 20
-151.3340874187637
 10
107.3243706328911
 20
-151.1797471410245
 10
107.4576958281703
 20
-151.0229952964456
 10
107.5527804635632
 20
-150.7904513511913
 10
107.5527804635632
 20
-150.5300021325064
 10
107.5527804635632
 20
-150.42871632524
 10
107.5393445911707
 20
-150.3567138295983
 10
107.5279757760694
 20
-150.3102050405474
 10
107.5279757760694
 20
-150.3102050405474
 10
107.7470838489313
 20
-150.3312201230075
 10
107.7470838489313
 20
-150.3312201230075
 10
107.7698214791339
 20
-150.3332871802986
 10
107.7925591093366
 20
-150.3353542375897
 10
107.7925591093366
 20
-150.3567138295983
 10
107.7925591093366
 20
-150.3756618547672
 10
107.7811902942352
 20
-150.3842745934803
 10
107.7450167916401
 20
-150.4052896759403
 10
107.7360595433785
 20
-150.6061387427304
 10
107.7970377334674
 20
-150.8497069935376
 10
107.8624945476871
 20
-150.9702853355213
 10
107.9596462403712
 20
-151.1456406957205
 10
108.1677300076803
 20
-151.3254746800505
 10
108.3124240180608
 20
-151.3826632651057
 10
108.3124240180608
 20
-151.3826632651057
 10
108.1608398167098
 20
-151.5624972494357
 10
108.1608398167098
 20
-151.5624972494357
 97
        0
 97
        1
330
AD
 92
        1
 93
        1
 72
     4
 94
        3
 73
     0
 74
     0
 95
       17
 96
       13
 40
0.0
 40
0.0
 40
0.0
 40
0.0
 40
1.0
 40
1.0
 40
1.0
 40
2.0
 40
2.0
 40
2.0
 40
3.0
 40
3.0
 40
3.0
 40
4.0
 40
4.0
 40
4.0
 40
4.0
 10
106.9967420522438
 20
-150.6040716854393
 10
106.9967420522438
 20
-150.6040716854393
 10
106.8248317875299
 20
-150.6040716854393
 10
106.8248317875299
 20
-150.6040716854393
 10
106.8248317875299
 20
-150.6040716854393
 10
106.8248317875299
 20
-150.7332627661361
 10
106.8248317875299
 20
-150.7332627661361
 10
106.8248317875299
 20
-150.7332627661361
 10
106.9967420522438
 20
-150.7332627661361
 10
106.9967420522438
 20
-150.7332627661361
 10
106.9967420522438
 20
-150.7332627661361
 10
106.9967420522438
 20
-150.6040716854393
 10
106.9967420522438
 20
-150.6040716854393
 97
        0
 97
        1
330
AE
 92
        1
 93
        1
 72
     4
 94
        3
 73
     0
 74
     0
 95
       17
 96
       13
 40
0.0
 40
0.0
 40
0.0
 40
0.0
 40
1.0
 40
1.0
 40
1.0
 40
2.0
 40
2.0
 40
2.0
 40
3.0
 40
3.0
 40
3.0
 40
4.0
 40
4.0
 40
4.0
 40
4.0
 10
106.9967420522438
 20
-150.3312201230075
 10
106.9967420522438
 20
-150.3312201230075
 10
106.8248317875299
 20
-150.3312201230075
 10
106.8248317875299
 20
-150.3312201230075
 10
106.8248317875299
 20
-150.3312201230075
 10
106.8248317875299
 20
-150.4604112037043
 10
106.8248317875299
 20
-150.4604112037043
 10
106.8248317875299
 20
-150.4604112037043
 10
106.9967420522438
 20
-150.4604112037043
 10
106.9967420522438
 20
-150.4604112037043
 10
106.9967420522438
 20
-150.4604112037043
 10
106.9967420522438
 20
-150.3312201230075
 10
106.9967420522438
 20
-150.3312201230075
 97
        0
 97
        1
330
AF
 92
        1
 93
        1
 72
     4
 94
        3
 73
     0
 74
     0
 95
       17
 96
       13
 40
0.0
 40
0.0
 40
0.0
 40
0.0
 40
1.0
 40
1.0
 40
1.0
 40
2.0
 40
2.0
 40
2.0
 40
3.0
 40
3.0
 40
3.0
 40
4.0
 40
4.0
 40
4.0
 40
4.0
 10
106.6415527077146
 20
-150.6040716854393
 10
106.6415527077146
 20
-150.6040716854393
 10
106.4720540098403
 20
-150.6040716854393
 10
106.4720540098403
 20
-150.6040716854393
 10
106.4720540098403
 20
-150.6040716854393
 10
106.4720540098403
 20
-150.7332627661361
 10
106.4720540098403
 20
-150.7332627661361
 10
106.4720540098403
 20
-150.7332627661361
 10
106.6415527077146
 20
-150.7332627661361
 10
106.6415527077146
 20
-150.7332627661361
 10
106.6415527077146
 20
-150.7332627661361
 10
106.6415527077146
 20
-150.6040716854393
 10
106.6415527077146
 20
-150.6040716854393
 97
        0
 97
        1
330
B0
 92
        1
 93
        1
 72
     4
 94
        3
 73
     0
 74
     0
 95
       17
 96
       13
 40
0.0
 40
0.0
 40
0.0
 40
0.0
 40
1.0
 40
1.0
 40
1.0
 40
2.0
 40
2.0
 40
2.0
 40
3.0
 40
3.0
 40
3.0
 40
4.0
 40
4.0
 40
4.0
 40
4.0
 10
106.6415527077146
 20
-150.3312201230075
 10
106.6415527077146
 20
-150.3312201230075
 10
106.4720540098403
 20
-150.3312201230075
 10
106.4720540098403
 20
-150.3312201230075
 10
106.4720540098403
 20
-150.3312201230075
 10
106.4720540098403
 20
-150.4604112037043
 10
106.4720540098403
 20
-150.4604112037043
 10
106.4720540098403
 20
-150.4604112037043
 10
106.6415527077146
 20
-150.4604112037043
 10
106.6415527077146
 20
-150.4604112037043
 10
106.6415527077146
 20
-150.4604112037043
 10
106.6415527077146
 20
-150.3312201230075
 10
106.6415527077146
 20
-150.3312201230075
 97
        0
 97
        1
330
B1
 92
        1
 93
        1
 72
     4
 94
        3
 73
     0
 74
     0
 95
      197
 96
      193
 40
0.0
 40
0.0
 40
0.0
 40
0.0
 40
1.0
 40
1.0
 40
1.0
 40
2.0
 40
2.0
 40
2.0
 40
3.0
 40
3.0
 40
3.0
 40
4.0
 40
4.0
 40
4.0
 40
5.0
 40
5.0
 40
5.0
 40
6.0
 40
6.0
 40
6.0
 40
7.0
 40
7.0
 40
7.0
 40
8.0
 40
8.0
 40
8.0
 40
9.0
 40
9.0
 40
9.0
 40
10.0
 40
10.0
 40
10.0
 40
11.0
 40
11.0
 40
11.0
 40
12.0
 40
12.0
 40
12.0
 40
13.0
 40
13.0
 40
13.0
 40
14.0
 40
14.0
 40
14.0
 40
15.0
 40
15.0
 40
15.0
 40
16.0
 40
16.0
 40
16.0
 40
17.0
 40
17.0
 40
17.0
 40
18.0
 40
18.0
 40
18.0
 40
19.0
 40
19.0
 40
19.0
 40
20.0
 40
20.0
 40
20.0
 40
21.0
 40
21.0
 40
21.0
 40
22.0
 40
22.0
 40
22.0
 40
23.0
 40
23.0
 40
23.0
 40
24.0
 40
24.0
 40
24.0
 40
25.0
 40
25.0
 40
25.0
 40
26.0
 40
26.0
 40
26.0
 40
27.0
 40
27.0
 40
27.0
 40
28.0
 40
28.0
 40
28.0
 40
29.0
 40
29.0
 40
29.0
 40
30.0
 40
30.0
 40
30.0
 40
31.0
 40
31.0
 40
31.0
 40
32.0
 40
32.0
 40
32.0
 40
33.0
 40
33.0
 40
33.0
 40
34.0
 40
34.0
 40
34.0
 40
35.0
 40
35.0
 40
35.0
 40
36.0
 40
36.0
 40
36.0
 40
37.0
 40
37.0
 40
37.0
 40
38.0
 40
38.0
 40
38.0
 40
39.0
 40
39.0
 40
39.0
 40
40.0
 40
40.0
 40
40.0
 40
41.0
 40
41.0
 40
41.0
 40
42.0
 40
42.0
 40
42.0
 40
43.0
 40
43.0
 40
43.0
 40
44.0
 40
44.0
 40
44.0
 40
45.0
 40
45.0
 40
45.0
 40
46.0
 40
46.0
 40
46.0
 40
47.0
 40
47.0
 40
47.0
 40
48.0
 40
48.0
 40
48.0
 40
49.0
 40
49.0
 40
49.0
 40
50.0
 40
50.0
 40
50.0
 40
51.0
 40
51.0
 40
51.0
 40
52.0
 40
52.0
 40
52.0
 40
53.0
 40
53.0
 40
53.0
 40
54.0
 40
54.0
 40
54.0
 40
55.0
 40
55.0
 40
55.0
 40
56.0
 40
56.0
 40
56.0
 40
57.0
 40
57.0
 40
57.0
 40
58.0
 40
58.0
 40
58.0
 40
59.0
 40
59.0
 40
59.0
 40
60.0
 40
60.0
 40
60.0
 40
61.0
 40
61.0
 40
61.0
 40
62.0
 40
62.0
 40
62.0
 40
63.0
 40
63.0
 40
63.0
 40
64.0
 40
64.0
 40
64.0
 40
64.0
 10
108.2514458279718
 20
-150.2065076664414
 10
108.2400770128705
 20
-150.2361354876146
 10
108.2152723253767
 20
-150.2826442766654
 10
108.2039035102754
 20
-150.3102050405474
 10
108.2039035102754
 20
-150.3102050405474
 10
108.1384466960557
 20
-150.4624782609955
 10
108.1384466960557
 20
-150.4624782609955
 10
108.1270778809543
 20
-150.4879719675863
 10
108.0750569391271
 20
-150.599937570857
 10
108.0616210667346
 20
-150.6233642201566
 10
108.0592094998949
 20
-150.6295653920301
 10
108.0547308757641
 20
-150.6381781307432
 10
108.0523193089244
 20
-150.6443793026167
 10
108.0523193089244
 20
-150.6443793026167
 10
107.8287326119317
 20
-150.5913248321438
 10
107.8287326119317
 20
-150.5913248321438
 10
107.9121039226747
 20
-150.4814262861644
 10
107.977905246443
 20
-150.3460340335941
 10
108.0116671821985
 20
-150.2361354876146
 10
108.0116671821985
 20
-150.2361354876146
 10
107.5141953941284
 20
-150.2361354876146
 10
107.5141953941284
 20
-150.2361354876146
 10
107.4284125165457
 20
-150.401155561358
 10
107.3560655113554
 20
-150.4793592288732
 10
107.3198920087603
 20
-150.5196668460506
 10
107.3198920087603
 20
-150.5196668460506
 10
107.1886338707723
 20
-150.4538655222823
 10
107.1886338707723
 20
-150.4538655222823
 10
107.1886338707723
 20
-150.4538655222823
 10
107.1886338707723
 20
-150.6254312774478
 10
107.1886338707723
 20
-150.6254312774478
 10
107.1886338707723
 20
-150.7332627661361
 10
107.1910454376119
 20
-150.7818386124782
 10
107.2024142527133
 20
-150.8876030438753
 10
107.1255886233922
 20
-150.8855359865842
 10
107.1028509931895
 20
-150.8855359865842
 10
106.8833984107791
 20
-150.8855359865842
 10
106.8833984107791
 20
-150.8855359865842
 10
106.8248317875299
 20
-150.8855359865842
 10
106.8248317875299
 20
-150.8855359865842
 10
106.8248317875299
 20
-150.8855359865842
 10
106.8248317875299
 20
-151.0209282391545
 10
106.8248317875299
 20
-151.0209282391545
 10
106.8248317875299
 20
-151.0209282391545
 10
106.901657416851
 20
-151.0209282391545
 10
106.901657416851
 20
-151.0209282391545
 10
106.9715928552015
 20
-151.0209282391545
 10
107.1276556806834
 20
-151.0167941245722
 10
107.2406548125995
 20
-151.008181385859
 10
107.2406548125995
 20
-151.008181385859
 10
107.2406548125995
 20
-151.1859483128979
 10
107.2406548125995
 20
-151.1859483128979
 10
107.136612928945
 20
-151.1797471410245
 10
106.9671142310707
 20
-151.1752685168937
 10
106.901657416851
 20
-151.1752685168937
 10
106.901657416851
 20
-151.1752685168937
 10
106.8248317875299
 20
-151.1752685168937
 10
106.8248317875299
 20
-151.1752685168937
 10
106.826898844821
 20
-151.2641519804131
 10
106.8317219785004
 20
-151.5032416070894
 10
106.8337890357915
 20
-151.5773111600223
 10
106.8337890357915
 20
-151.5773111600223
 10
106.6191595870605
 20
-151.5773111600223
 10
106.6191595870605
 20
-151.5773111600223
 10
106.632595459453
 20
-151.3637152399368
 10
106.632595459453
 20
-151.3340874187637
 10
106.6370740835838
 20
-151.1752685168937
 10
106.6370740835838
 20
-151.1752685168937
 10
106.5626600211024
 20
-151.1752685168937
 10
106.5626600211024
 20
-151.1752685168937
 10
106.5013373214649
 20
-151.1752685168937
 10
106.3387288145611
 20
-151.1797471410245
 10
106.2212510585141
 20
-151.1859483128979
 10
106.2212510585141
 20
-151.1859483128979
 10
106.2212510585141
 20
-151.008181385859
 10
106.2212510585141
 20
-151.008181385859
 10
106.3342501904303
 20
-151.0167941245722
 10
106.4879014490724
 20
-151.0209282391545
 10
106.5626600211024
 20
-151.0209282391545
 10
106.5626600211024
 20
-151.0209282391545
 10
106.6415527077146
 20
-151.0209282391545
 10
106.6415527077146
 20
-151.0209282391545
 10
106.6415527077146
 20
-151.0209282391545
 10
106.6415527077146
 20
-150.8855359865842
 10
106.6415527077146
 20
-150.8855359865842
 10
106.6415527077146
 20
-150.8855359865842
 10
106.5940103900181
 20
-150.8855359865842
 10
106.5940103900181
 20
-150.8855359865842
 10
106.5127061365662
 20
-150.8855359865842
 10
106.3070339360968
 20
-150.8876030438753
 10
106.2708604335017
 20
-150.8876030438753
 10
106.2777506244722
 20
-150.8156005482336
 10
106.2867078727339
 20
-150.7353298234273
 10
106.2867078727339
 20
-150.6147514814435
 10
106.2867078727339
 20
-150.6147514814435
 10
106.2867078727339
 20
-150.4411186689869
 10
106.2867078727339
 20
-150.4411186689869
 10
106.2867078727339
 20
-150.3694606828937
 10
106.2777506244722
 20
-150.24888234091
 10
106.2708604335017
 20
-150.1682671065552
 10
106.3545762537933
 20
-150.172745730686
 10
106.3952283805192
 20
-150.1748127879771
 10
106.5309651426381
 20
-150.1748127879771
 10
106.5309651426381
 20
-150.1748127879771
 10
106.6415527077146
 20
-150.1748127879771
 10
106.6415527077146
 20
-150.1748127879771
 10
106.6415527077146
 20
-150.1748127879771
 10
106.6415527077146
 20
-150.0287407394025
 10
106.6415527077146
 20
-150.0287407394025
 10
106.6415527077146
 20
-150.0287407394025
 10
106.557836887423
 20
-150.0287407394025
 10
106.557836887423
 20
-150.0287407394025
 10
106.4992702641738
 20
-150.0287407394025
 10
106.3159911843585
 20
-150.0328748539848
 10
106.2257296826449
 20
-150.0394205354068
 10
106.2257296826449
 20
-150.0394205354068
 10
106.2257296826449
 20
-149.8616536083679
 10
106.2257296826449
 20
-149.8616536083679
 10
106.3139241270673
 20
-149.8678547802414
 10
106.4879014490724
 20
-149.8723334043722
 10
106.557836887423
 20
-149.8723334043722
 10
106.557836887423
 20
-149.8723334043722
 10
106.6415527077146
 20
-149.8723334043722
 10
106.6415527077146
 20
-149.8723334043722
 10
106.6415527077146
 20
-149.8382269590682
 10
106.6370740835838
 20
-149.683886681329
 10
106.6370740835838
 20
-149.6521918028647
 10
106.6370740835838
 20
-149.6521918028647
 10
106.847224908184
 20
-149.6690727707425
 10
106.847224908184
 20
-149.6690727707425
 10
106.8654839142558
 20
-149.6711398280336
 10
106.8882215444585
 20
-149.6732068853247
 10
106.8882215444585
 20
-149.6945664773333
 10
106.8882215444585
 20
-149.7176486170844
 10
106.8654839142558
 20
-149.7262613557976
 10
106.8362006026312
 20
-149.739008209093
 10
106.8362006026312
 20
-149.760023291553
 10
106.8337890357915
 20
-149.8554524364945
 10
106.8337890357915
 20
-149.8723334043722
 10
106.8337890357915
 20
-149.8723334043722
 10
106.8971787927201
 20
-149.8723334043722
 10
106.8971787927201
 20
-149.8723334043722
 10
106.9695257979104
 20
-149.8723334043722
 10
107.1231770565525
 20
-149.8678547802414
 10
107.2361761884687
 20
-149.8616536083679
 10
107.2361761884687
 20
-149.8616536083679
 10
107.2361761884687
 20
-150.0394205354068
 10
107.2361761884687
 20
-150.0394205354068
 10
107.1321343048142
 20
-150.0328748539848
 10
106.9650471737796
 20
-150.0287407394025
 10
106.8971787927201
 20
-150.0287407394025
 10
106.8971787927201
 20
-150.0287407394025
 10
106.8248317875299
 20
-150.0287407394025
 10
106.8248317875299
 20
-150.0287407394025
 10
106.8248317875299
 20
-150.0287407394025
 10
106.8248317875299
 20
-150.1748127879771
 10
106.8248317875299
 20
-150.1748127879771
 10
106.8248317875299
 20
-150.1748127879771
 10
106.8992458500113
 20
-150.1748127879771
 10
106.8992458500113
 20
-150.1748127879771
 10
107.0597872996239
 20
-150.1748127879771
 10
107.136612928945
 20
-150.1703341638463
 10
107.2024142527133
 20
-150.1682671065552
 10
107.1934570044516
 20
-150.2636962514966
 10
107.1910454376119
 20
-150.3418999190117
 10
107.1886338707723
 20
-150.3797959693495
 10
107.3536539445157
 20
-150.1682671065552
 10
107.4669975859805
 20
-149.9209092507142
 10
107.4849120825038
 20
-149.6583929747381
 10
107.4849120825038
 20
-149.6583929747381
 10
107.715388970467
 20
-149.7093803879199
 10
107.715388970467
 20
-149.7093803879199
 10
107.7312364096991
 20
-149.7135145025022
 10
107.7470838489313
 20
-149.7200601839241
 10
107.7470838489313
 20
-149.7369411518019
 10
107.7470838489313
 20
-149.7538221196796
 10
107.7426052248005
 20
-149.7558891769707
 10
107.688517225682
 20
-149.7769042594307
 10
107.6702582196102
 20
-149.8530408696548
 10
107.6430419652767
 20
-149.9439913904654
 10
107.591365532998
 20
-150.0711154138711
 10
107.591365532998
 20
-150.0711154138711
 10
107.9531005589492
 20
-150.0711154138711
 10
107.9531005589492
 20
-150.0711154138711
 10
107.9937526856751
 20
-150.0711154138711
 10
108.1315565050851
 20
-150.0669812992888
 10
108.1835774469124
 20
-150.0604356178668
 10
108.1835774469124
 20
-150.0604356178668
 10
108.2831407064361
 20
-150.1303710562174
 10
108.2831407064361
 20
-150.1303710562174
 10
108.273838948626
 20
-150.1513861386774
 10
108.267293267204
 20
-150.1703341638463
 10
108.2514458279718
 20
-150.2065076664414
 97
        0
 97
        1
330
B2
 75
     2
 76
     1
 98
        1
 10
0.0
 20
0.0
450
        0
451
        0
460
0.0
461
0.0
452
        0
462
0.0
453
        0
470

  0
SPLINE
  5
B4
330
A9
100
AcDbEntity
  8
レイヤー 1
100
AcDbSpline
210
0.0
220
0.0
230
1.0
 70
     9
 71
     3
 72
    74
 73
    70
 74
     0
 42
0.0000000001
 43
0.0000000001
 40
0.0
 40
0.0
 40
0.0
 40
0.0
 40
1.0
 40
1.0
 40
1.0
 40
2.0
 40
2.0
 40
2.0
 40
3.0
 40
3.0
 40
3.0
 40
4.0
 40
4.0
 40
4.0
 40
5.0
 40
5.0
 40
5.0
 40
6.0
 40
6.0
 40
6.0
 40
7.0
 40
7.0
 40
7.0
 40
8.0
 40
8.0
 40
8.0
 40
9.0
 40
9.0
 40
9.0
 40
10.0
 40
10.0
 40
10.0
 40
11.0
 40
11.0
 40
11.0
 40
12.0
 40
12.0
 40
12.0
 40
13.0
 40
13.0
 40
13.0
 40
14.0
 40
14.0
 40
14.0
 40
15.0
 40
15.0
 40
15.0
 40
16.0
 40
16.0
 40
16.0
 40
17.0
 40
17.0
 40
17.0
 40
18.0
 40
18.0
 40
18.0
 40
19.0
 40
19.0
 40
19.0
 40
20.0
 40
20.0
 40
20.0
 40
21.0
 40
21.0
 40
21.0
 40
22.0
 40
22.0
 40
22.0
 40
23.0
 40
23.0
 40
23.0
 40
23.0
 10
110.3464083925523
 20
-150.1090114642089
 30
0.0
 10
110.3464083925523
 20
-150.1090114642089
 30
0.0
 10
110.1744981278383
 20
-150.1090114642089
 30
0.0
 10
110.1744981278383
 20
-150.1090114642089
 30
0.0
 10
110.1744981278383
 20
-150.1090114642089
 30
0.0
 10
110.1744981278383
 20
-150.2233886343191
 30
0.0
 10
110.1744981278383
 20
-150.2233886343191
 30
0.0
 10
110.1744981278383
 20
-150.2636962514966
 30
0.0
 10
110.1810438092603
 20
-150.3377658044295
 30
0.0
 10
110.1858669429396
 20
-150.3629150014718
 30
0.0
 10
110.1858669429396
 20
-150.3629150014718
 30
0.0
 10
109.9595241695587
 20
-150.3629150014718
 30
0.0
 10
109.9595241695587
 20
-150.3629150014718
 30
0.0
 10
109.97089298466
 20
-150.297458187252
 30
0.0
 10
109.9733045514997
 20
-150.2382025449057
 30
0.0
 10
109.9733045514997
 20
-150.2361354876146
 30
0.0
 10
109.9733045514997
 20
-150.2361354876146
 30
0.0
 10
109.9733045514997
 20
-150.1134900883397
 30
0.0
 10
109.9733045514997
 20
-150.1134900883397
 30
0.0
 10
109.9733045514997
 20
-150.1134900883397
 30
0.0
 10
109.7810682234228
 20
-150.1134900883397
 30
0.0
 10
109.7810682234228
 20
-150.1134900883397
 30
0.0
 10
109.7607421600598
 20
-150.172745730686
 30
0.0
 10
109.7107882755237
 20
-150.318473269712
 30
0.0
 10
109.5888318953458
 20
-150.401155561358
 30
0.0
 10
109.5888318953458
 20
-150.401155561358
 30
0.0
 10
109.4214002547627
 20
-150.2953911299609
 30
0.0
 10
109.4214002547627
 20
-150.2953911299609
 30
0.0
 10
109.5006374509234
 20
-150.24888234091
 30
0.0
 10
109.6250053979409
 20
-150.1748127879771
 30
0.0
 10
109.6250053979409
 20
-149.8530408696548
 30
0.0
 10
109.6250053979409
 20
-149.7982638514393
 30
0.0
 10
109.6205267738101
 20
-149.7538221196796
 30
0.0
 10
109.6181152069704
 20
-149.7155815597933
 30
0.0
 10
109.6997639699709
 20
-149.7241942985064
 30
0.0
 10
109.7786566565831
 20
-149.7303954703799
 30
0.0
 10
109.8465250376425
 20
-149.7303954703799
 30
0.0
 10
110.0363497988798
 20
-149.7303954703799
 30
0.0
 10
110.2489121903197
 20
-149.6711398280336
 30
0.0
 10
110.314713514088
 20
-149.6415120068604
 30
0.0
 10
110.314713514088
 20
-149.6415120068604
 30
0.0
 10
110.4501057666583
 20
-149.7769042594307
 30
0.0
 10
110.4501057666583
 20
-149.7769042594307
 30
0.0
 10
110.4549289003376
 20
-149.7813828835616
 30
0.0
 10
110.4569959576288
 20
-149.7896511127262
 30
0.0
 10
110.4569959576288
 20
-149.7961967941482
 30
0.0
 10
110.4569959576288
 20
-149.8172118766082
 30
0.0
 10
110.4411485183966
 20
-149.8234130484816
 30
0.0
 10
110.4232340218733
 20
-149.8234130484816
 30
0.0
 10
110.4004963916707
 20
-149.8234130484816
 30
0.0
 10
110.3846489524386
 20
-149.815144819317
 30
0.0
 10
110.3643228890756
 20
-149.8044650233128
 30
0.0
 10
110.1789767519691
 20
-149.8616536083679
 30
0.0
 10
109.9460882971662
 20
-149.8871473149588
 30
0.0
 10
109.8038058536254
 20
-149.8892143722499
 30
0.0
 10
109.8038058536254
 20
-149.8892143722499
 30
0.0
 10
109.7989827199461
 20
-149.9715521543474
 30
0.0
 10
109.7989827199461
 20
-149.9715521543474
 30
0.0
 10
109.7989827199461
 20
-149.9715521543474
 30
0.0
 10
110.0907823075467
 20
-149.9715521543474
 30
0.0
 10
110.0907823075467
 20
-149.9715521543474
 30
0.0
 10
110.1517604976357
 20
-149.9715521543474
 30
0.0
 10
110.432191270135
 20
-149.9526041291785
 30
0.0
 10
110.4797335878314
 20
-149.9464029573051
 30
0.0
 10
110.4797335878314
 20
-149.9464029573051
 30
0.0
 10
110.4797335878314
 20
-150.1155571456308
 30
0.0
 10
110.4797335878314
 20
-150.1155571456308
 30
0.0
 10
110.4435600852363
 20
-150.1114230310485
 30
0.0
 10
110.4297797032953
 20
-150.1090114642089
 30
0.0
 10
110.3464083925523
 20
-150.1090114642089
 30
0.0
  0
SPLINE
  5
B5
330
A9
100
AcDbEntity
  8
レイヤー 1
100
AcDbSpline
210
0.0
220
0.0
230
1.0
 70
    11
 71
     3
 72
    17
 73
    13
 74
     0
 42
0.0000000001
 43
0.0000000001
 40
0.0
 40
0.0
 40
0.0
 40
0.0
 40
1.0
 40
1.0
 40
1.0
 40
2.0
 40
2.0
 40
2.0
 40
3.0
 40
3.0
 40
3.0
 40
4.0
 40
4.0
 40
4.0
 40
4.0
 10
110.0070664872552
 20
-151.0526231176188
 30
0.0
 10
110.0070664872552
 20
-151.0526231176188
 30
0.0
 10
109.0327934840265
 20
-151.0526231176188
 30
0.0
 10
109.0327934840265
 20
-151.0526231176188
 30
0.0
 10
109.0327934840265
 20
-151.0526231176188
 30
0.0
 10
109.0327934840265
 20
-151.1604546063071
 30
0.0
 10
109.0327934840265
 20
-151.1604546063071
 30
0.0
 10
109.0327934840265
 20
-151.1604546063071
 30
0.0
 10
110.0070664872552
 20
-151.1604546063071
 30
0.0
 10
110.0070664872552
 20
-151.1604546063071
 30
0.0
 10
110.0070664872552
 20
-151.1604546063071
 30
0.0
 10
110.0070664872552
 20
-151.0526231176188
 30
0.0
 10
110.0070664872552
 20
-151.0526231176188
 30
0.0
  0
SPLINE
  5
B6
330
A9
100
AcDbEntity
  8
レイヤー 1
100
AcDbSpline
210
0.0
220
0.0
230
1.0
 70
    11
 71
     3
 72
    17
 73
    13
 74
     0
 42
0.0000000001
 43
0.0000000001
 40
0.0
 40
0.0
 40
0.0
 40
0.0
 40
1.0
 40
1.0
 40
1.0
 40
2.0
 40
2.0
 40
2.0
 40
3.0
 40
3.0
 40
3.0
 40
4.0
 40
4.0
 40
4.0
 40
4.0
 10
110.0070664872552
 20
-150.807332319069
 30
0.0
 10
110.0070664872552
 20
-150.807332319069
 30
0.0
 10
109.0327934840265
 20
-150.807332319069
 30
0.0
 10
109.0327934840265
 20
-150.807332319069
 30
0.0
 10
109.0327934840265
 20
-150.807332319069
 30
0.0
 10
109.0327934840265
 20
-150.9172308650485
 30
0.0
 10
109.0327934840265
 20
-150.9172308650485
 30
0.0
 10
109.0327934840265
 20
-150.9172308650485
 30
0.0
 10
110.0070664872552
 20
-150.9172308650485
 30
0.0
 10
110.0070664872552
 20
-150.9172308650485
 30
0.0
 10
110.0070664872552
 20
-150.9172308650485
 30
0.0
 10
110.0070664872552
 20
-150.807332319069
 30
0.0
 10
110.0070664872552
 20
-150.807332319069
 30
0.0
  0
SPLINE
  5
B7
330
A9
100
AcDbEntity
  8
レイヤー 1
100
AcDbSpline
210
0.0
220
0.0
230
1.0
 70
    11
 71
     3
 72
    17
 73
    13
 74
     0
 42
0.0000000001
 43
0.0000000001
 40
0.0
 40
0.0
 40
0.0
 40
0.0
 40
1.0
 40
1.0
 40
1.0
 40
2.0
 40
2.0
 40
2.0
 40
3.0
 40
3.0
 40
3.0
 40
4.0
 40
4.0
 40
4.0
 40
4.0
 10
110.0070664872552
 20
-150.5616970109707
 30
0.0
 10
110.0070664872552
 20
-150.5616970109707
 30
0.0
 10
109.0327934840265
 20
-150.5616970109707
 30
0.0
 10
109.0327934840265
 20
-150.5616970109707
 30
0.0
 10
109.0327934840265
 20
-150.5616970109707
 30
0.0
 10
109.0327934840265
 20
-150.6740071237898
 30
0.0
 10
109.0327934840265
 20
-150.6740071237898
 30
0.0
 10
109.0327934840265
 20
-150.6740071237898
 30
0.0
 10
110.0070664872552
 20
-150.6740071237898
 30
0.0
 10
110.0070664872552
 20
-150.6740071237898
 30
0.0
 10
110.0070664872552
 20
-150.6740071237898
 30
0.0
 10
110.0070664872552
 20
-150.5616970109707
 30
0.0
 10
110.0070664872552
 20
-150.5616970109707
 30
0.0
  0
SPLINE
  5
B8
330
A9
100
AcDbEntity
  8
レイヤー 1
100
AcDbSpline
210
0.0
220
0.0
230
1.0
 70
     9
 71
     3
 72
    74
 73
    70
 74
     0
 42
0.0000000001
 43
0.0000000001
 40
0.0
 40
0.0
 40
0.0
 40
0.0
 40
1.0
 40
1.0
 40
1.0
 40
2.0
 40
2.0
 40
2.0
 40
3.0
 40
3.0
 40
3.0
 40
4.0
 40
4.0
 40
4.0
 40
5.0
 40
5.0
 40
5.0
 40
6.0
 40
6.0
 40
6.0
 40
7.0
 40
7.0
 40
7.0
 40
8.0
 40
8.0
 40
8.0
 40
9.0
 40
9.0
 40
9.0
 40
10.0
 40
10.0
 40
10.0
 40
11.0
 40
11.0
 40
11.0
 40
12.0
 40
12.0
 40
12.0
 40
13.0
 40
13.0
 40
13.0
 40
14.0
 40
14.0
 40
14.0
 40
15.0
 40
15.0
 40
15.0
 40
16.0
 40
16.0
 40
16.0
 40
17.0
 40
17.0
 40
17.0
 40
18.0
 40
18.0
 40
18.0
 40
19.0
 40
19.0
 40
19.0
 40
20.0
 40
20.0
 40
20.0
 40
21.0
 40
21.0
 40
21.0
 40
22.0
 40
22.0
 40
22.0
 40
23.0
 40
23.0
 40
23.0
 40
23.0
 10
110.3326280106113
 20
-151.5962591851912
 30
0.0
 10
110.1042181799392
 20
-151.5859238987355
 30
0.0
 10
109.8895887312081
 20
-151.4991074925071
 30
0.0
 10
109.701831027262
 20
-151.3785291505234
 30
0.0
 10
109.701831027262
 20
-151.3785291505234
 30
0.0
 10
109.8058729109166
 20
-151.2917127442951
 30
0.0
 10
109.8058729109166
 20
-151.2917127442951
 30
0.0
 10
109.8058729109166
 20
-151.2917127442951
 30
0.0
 10
109.2157280542933
 20
-151.2917127442951
 30
0.0
 10
109.2157280542933
 20
-151.2917127442951
 30
0.0
 10
109.2157280542933
 20
-151.2917127442951
 30
0.0
 10
109.3018554414245
 20
-151.3551025012237
 30
0.0
 10
109.3018554414245
 20
-151.3551025012237
 30
0.0
 10
109.3084011228465
 20
-151.3595811253545
 30
0.0
 10
109.3197699379478
 20
-151.3699164118103
 30
0.0
 10
109.3197699379478
 20
-151.3847303223968
 30
0.0
 10
109.3197699379478
 20
-151.4250379395743
 30
0.0
 10
109.2405327417871
 20
-151.4184922581523
 30
0.0
 10
109.2250298121034
 20
-151.4164252008612
 30
0.0
 10
108.9783609753595
 20
-151.5562960775623
 30
0.0
 10
108.8247097167174
 20
-151.5879909560266
 30
0.0
 10
108.7137776420924
 20
-151.6048719239043
 30
0.0
 10
108.7137776420924
 20
-151.6048719239043
 30
0.0
 10
108.5759738226824
 20
-151.4271049968654
 30
0.0
 10
108.5759738226824
 20
-151.4271049968654
 30
0.0
 10
108.8405571559496
 20
-151.3954101184011
 30
0.0
 10
108.9490776637349
 20
-151.3489013293503
 30
0.0
 10
109.0441622991278
 20
-151.2958468588774
 30
0.0
 10
108.9649251029671
 20
-151.2979139161686
 30
0.0
 10
108.8426242132407
 20
-151.3003254830082
 30
0.0
 10
108.8088622774853
 20
-151.3023925402994
 30
0.0
 10
108.8247097167174
 20
-151.2135090767799
 30
0.0
 10
108.8271212835571
 20
-151.0843179960831
 30
0.0
 10
108.8271212835571
 20
-151.0102484431502
 30
0.0
 10
108.8271212835571
 20
-151.0102484431502
 30
0.0
 10
108.8271212835571
 20
-150.7098361168364
 30
0.0
 10
108.8271212835571
 20
-150.7098361168364
 30
0.0
 10
108.8271212835571
 20
-150.6106173668612
 30
0.0
 10
108.8202310925866
 20
-150.5110541073375
 30
0.0
 10
108.8088622774853
 20
-150.4139024146535
 30
0.0
 10
108.9173827852706
 20
-150.4201035865269
 30
0.0
 10
109.163707112466
 20
-150.4266492679489
 30
0.0
 10
109.2791178112219
 20
-150.4266492679489
 30
0.0
 10
109.2791178112219
 20
-150.4266492679489
 30
0.0
 10
109.7314588484352
 20
-150.4266492679489
 30
0.0
 10
109.7314588484352
 20
-150.4266492679489
 30
0.0
 10
109.8578938527438
 20
-150.4266492679489
 30
0.0
 10
109.9030246036006
 20
-150.4266492679489
 30
0.0
 10
109.991219048023
 20
-150.4221706438181
 30
0.0
 10
110.1496934403445
 20
-150.4159694719446
 30
0.0
 10
110.1676079368678
 20
-150.4159694719446
 30
0.0
 10
110.2172173118554
 20
-150.4139024146535
 30
0.0
 10
110.2082600635937
 20
-150.4941731394598
 30
0.0
 10
110.2037814394629
 20
-150.6529920413298
 30
0.0
 10
110.2037814394629
 20
-150.7353298234273
 30
0.0
 10
110.2037814394629
 20
-150.7353298234273
 30
0.0
 10
110.2037814394629
 20
-151.0209282391545
 30
0.0
 10
110.2037814394629
 20
-151.0209282391545
 30
0.0
 10
110.2037814394629
 20
-151.0929307347962
 30
0.0
 10
110.2061930063026
 20
-151.2241888727842
 30
0.0
 10
110.2172173118554
 20
-151.3023925402994
 30
0.0
 10
110.1403916825343
 20
-151.2979139161686
 30
0.0
 10
110.0094780540948
 20
-151.2958468588774
 30
0.0
 10
109.9257622338033
 20
-151.2937798015863
 30
0.0
 10
110.0432399898503
 20
-151.3616481826457
 30
0.0
 10
110.2061930063026
 20
-151.4122910862789
 30
0.0
 10
110.432191270135
 20
-151.4164252008612
 30
0.0
 10
110.432191270135
 20
-151.4164252008612
 30
0.0
 10
110.3326280106113
 20
-151.5962591851912
 30
0.0
 10
110.3326280106113
 20
-151.5962591851912
 30
0.0
  0
SPLINE
  5
B9
330
A9
100
AcDbEntity
  8
レイヤー 1
100
AcDbSpline
210
0.0
220
0.0
230
1.0
 70
    11
 71
     3
 72
    71
 73
    67
 74
     0
 42
0.0000000001
 43
0.0000000001
 40
0.0
 40
0.0
 40
0.0
 40
0.0
 40
1.0
 40
1.0
 40
1.0
 40
2.0
 40
2.0
 40
2.0
 40
3.0
 40
3.0
 40
3.0
 40
4.0
 40
4.0
 40
4.0
 40
5.0
 40
5.0
 40
5.0
 40
6.0
 40
6.0
 40
6.0
 40
7.0
 40
7.0
 40
7.0
 40
8.0
 40
8.0
 40
8.0
 40
9.0
 40
9.0
 40
9.0
 40
10.0
 40
10.0
 40
10.0
 40
11.0
 40
11.0
 40
11.0
 40
12.0
 40
12.0
 40
12.0
 40
13.0
 40
13.0
 40
13.0
 40
14.0
 40
14.0
 40
14.0
 40
15.0
 40
15.0
 40
15.0
 40
16.0
 40
16.0
 40
16.0
 40
17.0
 40
17.0
 40
17.0
 40
18.0
 40
18.0
 40
18.0
 40
19.0
 40
19.0
 40
19.0
 40
20.0
 40
20.0
 40
20.0
 40
21.0
 40
21.0
 40
21.0
 40
22.0
 40
22.0
 40
22.0
 40
22.0
 10
109.4372476939948
 20
-149.8299587299036
 30
0.0
 10
109.4214002547627
 20
-149.8299587299036
 30
0.0
 10
109.4079643823702
 20
-149.8258246153213
 30
0.0
 10
109.3807481280367
 20
-149.8172118766082
 30
0.0
 10
109.2295084362343
 20
-149.8637206656591
 30
0.0
 10
109.0441622991278
 20
-149.8806016335368
 30
0.0
 10
108.894645155068
 20
-149.8850802576676
 30
0.0
 10
108.894645155068
 20
-149.8850802576676
 30
0.0
 10
108.8925780977768
 20
-149.9736192116385
 30
0.0
 10
108.8925780977768
 20
-149.9736192116385
 30
0.0
 10
108.8925780977768
 20
-149.9736192116385
 30
0.0
 10
109.1705973034365
 20
-149.9736192116385
 30
0.0
 10
109.1705973034365
 20
-149.9736192116385
 30
0.0
 10
109.2270968693946
 20
-149.9736192116385
 30
0.0
 10
109.4214002547627
 20
-149.9653509824739
 30
0.0
 10
109.4689425724591
 20
-149.9588053010519
 30
0.0
 10
109.4689425724591
 20
-149.9588053010519
 30
0.0
 10
109.4689425724591
 20
-150.1196912602131
 30
0.0
 10
109.4689425724591
 20
-150.1196912602131
 30
0.0
 10
109.4103759492099
 20
-150.1134900883397
 30
0.0
 10
109.2767062443822
 20
-150.1114230310485
 30
0.0
 10
109.2360541176562
 20
-150.1134900883397
 30
0.0
 10
109.2360541176562
 20
-150.1134900883397
 30
0.0
 10
109.2360541176562
 20
-150.2233886343191
 30
0.0
 10
109.2360541176562
 20
-150.2233886343191
 30
0.0
 10
109.2360541176562
 20
-150.26989742337
 30
0.0
 10
109.2384656844959
 20
-150.3332871802986
 30
0.0
 10
109.2453558754664
 20
-150.3715277401849
 30
0.0
 10
109.2453558754664
 20
-150.3715277401849
 30
0.0
 10
109.0393391654485
 20
-150.3715277401849
 30
0.0
 10
109.0393391654485
 20
-150.3715277401849
 30
0.0
 10
109.046229356419
 20
-150.3312201230075
 30
0.0
 10
109.0531195473895
 20
-150.24888234091
 30
0.0
 10
109.0531195473895
 20
-150.2340684303234
 30
0.0
 10
109.0531195473895
 20
-150.2340684303234
 30
0.0
 10
109.0531195473895
 20
-150.1134900883397
 30
0.0
 10
109.0531195473895
 20
-150.1134900883397
 30
0.0
 10
109.0531195473895
 20
-150.1134900883397
 30
0.0
 10
108.8767306585447
 20
-150.1134900883397
 30
0.0
 10
108.8767306585447
 20
-150.1134900883397
 30
0.0
 10
108.8315999076879
 20
-150.3332871802986
 30
0.0
 10
108.7726887748901
 20
-150.4139024146535
 30
0.0
 10
108.6596896429739
 20
-150.5131211646286
 30
0.0
 10
108.6596896429739
 20
-150.5131211646286
 30
0.0
 10
108.4808891872895
 20
-150.3990885040669
 30
0.0
 10
108.4808891872895
 20
-150.3990885040669
 30
0.0
 10
108.5487575683489
 20
-150.3501681481763
 30
0.0
 10
108.7092990179616
 20
-150.2382025449057
 30
0.0
 10
108.7092990179616
 20
-149.8892143722499
 30
0.0
 10
108.7092990179616
 20
-149.8065320806039
 30
0.0
 10
108.7003417696999
 20
-149.760023291553
 30
0.0
 10
108.6913845214382
 20
-149.711447445211
 30
0.0
 10
108.8474473469201
 20
-149.7262613557976
 30
0.0
 10
108.8632947861522
 20
-149.7262613557976
 30
0.0
 10
108.9015353460385
 20
-149.7262613557976
 30
0.0
 10
109.0169460447944
 20
-149.7262613557976
 30
0.0
 10
109.1681857365968
 20
-149.7093803879199
 30
0.0
 10
109.3400960013108
 20
-149.6480576882824
 30
0.0
 10
109.3400960013108
 20
-149.6480576882824
 30
0.0
 10
109.4623968910372
 20
-149.7789713167219
 30
0.0
 10
109.4623968910372
 20
-149.7789713167219
 30
0.0
 10
109.4689425724591
 20
-149.7855169981439
 30
0.0
 10
109.47342119659
 20
-149.7937852273085
 30
0.0
 10
109.47342119659
 20
-149.8023979660216
 30
0.0
 10
109.47342119659
 20
-149.8258246153213
 30
0.0
 10
109.453095133227
 20
-149.8299587299036
 30
0.0
 10
109.4372476939948
 20
-149.8299587299036
 30
0.0
  0
HATCH
  5
BA
330
A9
100
AcDbEntity
  8
レイヤー 1
 62
   250
420
  2299925
440
 33554687
100
AcDbHatch
 10
0.0
 20
0.0
 30
0.0
210
0.0
220
0.0
230
1.0
  2
SOLID
 70
     1
 71
     1
 91
        6
 92
        1
 93
        1
 72
     4
 94
        3
 73
     0
 74
     0
 95
       74
 96
       70
 40
0.0
 40
0.0
 40
0.0
 40
0.0
 40
1.0
 40
1.0
 40
1.0
 40
2.0
 40
2.0
 40
2.0
 40
3.0
 40
3.0
 40
3.0
 40
4.0
 40
4.0
 40
4.0
 40
5.0
 40
5.0
 40
5.0
 40
6.0
 40
6.0
 40
6.0
 40
7.0
 40
7.0
 40
7.0
 40
8.0
 40
8.0
 40
8.0
 40
9.0
 40
9.0
 40
9.0
 40
10.0
 40
10.0
 40
10.0
 40
11.0
 40
11.0
 40
11.0
 40
12.0
 40
12.0
 40
12.0
 40
13.0
 40
13.0
 40
13.0
 40
14.0
 40
14.0
 40
14.0
 40
15.0
 40
15.0
 40
15.0
 40
16.0
 40
16.0
 40
16.0
 40
17.0
 40
17.0
 40
17.0
 40
18.0
 40
18.0
 40
18.0
 40
19.0
 40
19.0
 40
19.0
 40
20.0
 40
20.0
 40
20.0
 40
21.0
 40
21.0
 40
21.0
 40
22.0
 40
22.0
 40
22.0
 40
23.0
 40
23.0
 40
23.0
 40
23.0
 10
110.3464083925523
 20
-150.1090114642089
 10
110.3464083925523
 20
-150.1090114642089
 10
110.1744981278383
 20
-150.1090114642089
 10
110.1744981278383
 20
-150.1090114642089
 10
110.1744981278383
 20
-150.1090114642089
 10
110.1744981278383
 20
-150.2233886343191
 10
110.1744981278383
 20
-150.2233886343191
 10
110.1744981278383
 20
-150.2636962514966
 10
110.1810438092603
 20
-150.3377658044295
 10
110.1858669429396
 20
-150.3629150014718
 10
110.1858669429396
 20
-150.3629150014718
 10
109.9595241695587
 20
-150.3629150014718
 10
109.9595241695587
 20
-150.3629150014718
 10
109.97089298466
 20
-150.297458187252
 10
109.9733045514997
 20
-150.2382025449057
 10
109.9733045514997
 20
-150.2361354876146
 10
109.9733045514997
 20
-150.2361354876146
 10
109.9733045514997
 20
-150.1134900883397
 10
109.9733045514997
 20
-150.1134900883397
 10
109.9733045514997
 20
-150.1134900883397
 10
109.7810682234228
 20
-150.1134900883397
 10
109.7810682234228
 20
-150.1134900883397
 10
109.7607421600598
 20
-150.172745730686
 10
109.7107882755237
 20
-150.318473269712
 10
109.5888318953458
 20
-150.401155561358
 10
109.5888318953458
 20
-150.401155561358
 10
109.4214002547627
 20
-150.2953911299609
 10
109.4214002547627
 20
-150.2953911299609
 10
109.5006374509234
 20
-150.24888234091
 10
109.6250053979409
 20
-150.1748127879771
 10
109.6250053979409
 20
-149.8530408696548
 10
109.6250053979409
 20
-149.7982638514393
 10
109.6205267738101
 20
-149.7538221196796
 10
109.6181152069704
 20
-149.7155815597933
 10
109.6997639699709
 20
-149.7241942985064
 10
109.7786566565831
 20
-149.7303954703799
 10
109.8465250376425
 20
-149.7303954703799
 10
110.0363497988798
 20
-149.7303954703799
 10
110.2489121903197
 20
-149.6711398280336
 10
110.314713514088
 20
-149.6415120068604
 10
110.314713514088
 20
-149.6415120068604
 10
110.4501057666583
 20
-149.7769042594307
 10
110.4501057666583
 20
-149.7769042594307
 10
110.4549289003376
 20
-149.7813828835616
 10
110.4569959576288
 20
-149.7896511127262
 10
110.4569959576288
 20
-149.7961967941482
 10
110.4569959576288
 20
-149.8172118766082
 10
110.4411485183966
 20
-149.8234130484816
 10
110.4232340218733
 20
-149.8234130484816
 10
110.4004963916707
 20
-149.8234130484816
 10
110.3846489524386
 20
-149.815144819317
 10
110.3643228890756
 20
-149.8044650233128
 10
110.1789767519691
 20
-149.8616536083679
 10
109.9460882971662
 20
-149.8871473149588
 10
109.8038058536254
 20
-149.8892143722499
 10
109.8038058536254
 20
-149.8892143722499
 10
109.7989827199461
 20
-149.9715521543474
 10
109.7989827199461
 20
-149.9715521543474
 10
109.7989827199461
 20
-149.9715521543474
 10
110.0907823075467
 20
-149.9715521543474
 10
110.0907823075467
 20
-149.9715521543474
 10
110.1517604976357
 20
-149.9715521543474
 10
110.432191270135
 20
-149.9526041291785
 10
110.4797335878314
 20
-149.9464029573051
 10
110.4797335878314
 20
-149.9464029573051
 10
110.4797335878314
 20
-150.1155571456308
 10
110.4797335878314
 20
-150.1155571456308
 10
110.4435600852363
 20
-150.1114230310485
 10
110.4297797032953
 20
-150.1090114642089
 10
110.3464083925523
 20
-150.1090114642089
 97
        0
 97
        1
330
B4
 92
        1
 93
        1
 72
     4
 94
        3
 73
     0
 74
     0
 95
       17
 96
       13
 40
0.0
 40
0.0
 40
0.0
 40
0.0
 40
1.0
 40
1.0
 40
1.0
 40
2.0
 40
2.0
 40
2.0
 40
3.0
 40
3.0
 40
3.0
 40
4.0
 40
4.0
 40
4.0
 40
4.0
 10
110.0070664872552
 20
-151.0526231176188
 10
110.0070664872552
 20
-151.0526231176188
 10
109.0327934840265
 20
-151.0526231176188
 10
109.0327934840265
 20
-151.0526231176188
 10
109.0327934840265
 20
-151.0526231176188
 10
109.0327934840265
 20
-151.1604546063071
 10
109.0327934840265
 20
-151.1604546063071
 10
109.0327934840265
 20
-151.1604546063071
 10
110.0070664872552
 20
-151.1604546063071
 10
110.0070664872552
 20
-151.1604546063071
 10
110.0070664872552
 20
-151.1604546063071
 10
110.0070664872552
 20
-151.0526231176188
 10
110.0070664872552
 20
-151.0526231176188
 97
        0
 97
        1
330
B5
 92
        1
 93
        1
 72
     4
 94
        3
 73
     0
 74
     0
 95
       17
 96
       13
 40
0.0
 40
0.0
 40
0.0
 40
0.0
 40
1.0
 40
1.0
 40
1.0
 40
2.0
 40
2.0
 40
2.0
 40
3.0
 40
3.0
 40
3.0
 40
4.0
 40
4.0
 40
4.0
 40
4.0
 10
110.0070664872552
 20
-150.807332319069
 10
110.0070664872552
 20
-150.807332319069
 10
109.0327934840265
 20
-150.807332319069
 10
109.0327934840265
 20
-150.807332319069
 10
109.0327934840265
 20
-150.807332319069
 10
109.0327934840265
 20
-150.9172308650485
 10
109.0327934840265
 20
-150.9172308650485
 10
109.0327934840265
 20
-150.9172308650485
 10
110.0070664872552
 20
-150.9172308650485
 10
110.0070664872552
 20
-150.9172308650485
 10
110.0070664872552
 20
-150.9172308650485
 10
110.0070664872552
 20
-150.807332319069
 10
110.0070664872552
 20
-150.807332319069
 97
        0
 97
        1
330
B6
 92
        1
 93
        1
 72
     4
 94
        3
 73
     0
 74
     0
 95
       17
 96
       13
 40
0.0
 40
0.0
 40
0.0
 40
0.0
 40
1.0
 40
1.0
 40
1.0
 40
2.0
 40
2.0
 40
2.0
 40
3.0
 40
3.0
 40
3.0
 40
4.0
 40
4.0
 40
4.0
 40
4.0
 10
110.0070664872552
 20
-150.5616970109707
 10
110.0070664872552
 20
-150.5616970109707
 10
109.0327934840265
 20
-150.5616970109707
 10
109.0327934840265
 20
-150.5616970109707
 10
109.0327934840265
 20
-150.5616970109707
 10
109.0327934840265
 20
-150.6740071237898
 10
109.0327934840265
 20
-150.6740071237898
 10
109.0327934840265
 20
-150.6740071237898
 10
110.0070664872552
 20
-150.6740071237898
 10
110.0070664872552
 20
-150.6740071237898
 10
110.0070664872552
 20
-150.6740071237898
 10
110.0070664872552
 20
-150.5616970109707
 10
110.0070664872552
 20
-150.5616970109707
 97
        0
 97
        1
330
B7
 92
        1
 93
        1
 72
     4
 94
        3
 73
     0
 74
     0
 95
       74
 96
       70
 40
0.0
 40
0.0
 40
0.0
 40
0.0
 40
1.0
 40
1.0
 40
1.0
 40
2.0
 40
2.0
 40
2.0
 40
3.0
 40
3.0
 40
3.0
 40
4.0
 40
4.0
 40
4.0
 40
5.0
 40
5.0
 40
5.0
 40
6.0
 40
6.0
 40
6.0
 40
7.0
 40
7.0
 40
7.0
 40
8.0
 40
8.0
 40
8.0
 40
9.0
 40
9.0
 40
9.0
 40
10.0
 40
10.0
 40
10.0
 40
11.0
 40
11.0
 40
11.0
 40
12.0
 40
12.0
 40
12.0
 40
13.0
 40
13.0
 40
13.0
 40
14.0
 40
14.0
 40
14.0
 40
15.0
 40
15.0
 40
15.0
 40
16.0
 40
16.0
 40
16.0
 40
17.0
 40
17.0
 40
17.0
 40
18.0
 40
18.0
 40
18.0
 40
19.0
 40
19.0
 40
19.0
 40
20.0
 40
20.0
 40
20.0
 40
21.0
 40
21.0
 40
21.0
 40
22.0
 40
22.0
 40
22.0
 40
23.0
 40
23.0
 40
23.0
 40
23.0
 10
110.3326280106113
 20
-151.5962591851912
 10
110.1042181799392
 20
-151.5859238987355
 10
109.8895887312081
 20
-151.4991074925071
 10
109.701831027262
 20
-151.3785291505234
 10
109.701831027262
 20
-151.3785291505234
 10
109.8058729109166
 20
-151.2917127442951
 10
109.8058729109166
 20
-151.2917127442951
 10
109.8058729109166
 20
-151.2917127442951
 10
109.2157280542933
 20
-151.2917127442951
 10
109.2157280542933
 20
-151.2917127442951
 10
109.2157280542933
 20
-151.2917127442951
 10
109.3018554414245
 20
-151.3551025012237
 10
109.3018554414245
 20
-151.3551025012237
 10
109.3084011228465
 20
-151.3595811253545
 10
109.3197699379478
 20
-151.3699164118103
 10
109.3197699379478
 20
-151.3847303223968
 10
109.3197699379478
 20
-151.4250379395743
 10
109.2405327417871
 20
-151.4184922581523
 10
109.2250298121034
 20
-151.4164252008612
 10
108.9783609753595
 20
-151.5562960775623
 10
108.8247097167174
 20
-151.5879909560266
 10
108.7137776420924
 20
-151.6048719239043
 10
108.7137776420924
 20
-151.6048719239043
 10
108.5759738226824
 20
-151.4271049968654
 10
108.5759738226824
 20
-151.4271049968654
 10
108.8405571559496
 20
-151.3954101184011
 10
108.9490776637349
 20
-151.3489013293503
 10
109.0441622991278
 20
-151.2958468588774
 10
108.9649251029671
 20
-151.2979139161686
 10
108.8426242132407
 20
-151.3003254830082
 10
108.8088622774853
 20
-151.3023925402994
 10
108.8247097167174
 20
-151.2135090767799
 10
108.8271212835571
 20
-151.0843179960831
 10
108.8271212835571
 20
-151.0102484431502
 10
108.8271212835571
 20
-151.0102484431502
 10
108.8271212835571
 20
-150.7098361168364
 10
108.8271212835571
 20
-150.7098361168364
 10
108.8271212835571
 20
-150.6106173668612
 10
108.8202310925866
 20
-150.5110541073375
 10
108.8088622774853
 20
-150.4139024146535
 10
108.9173827852706
 20
-150.4201035865269
 10
109.163707112466
 20
-150.4266492679489
 10
109.2791178112219
 20
-150.4266492679489
 10
109.2791178112219
 20
-150.4266492679489
 10
109.7314588484352
 20
-150.4266492679489
 10
109.7314588484352
 20
-150.4266492679489
 10
109.8578938527438
 20
-150.4266492679489
 10
109.9030246036006
 20
-150.4266492679489
 10
109.991219048023
 20
-150.4221706438181
 10
110.1496934403445
 20
-150.4159694719446
 10
110.1676079368678
 20
-150.4159694719446
 10
110.2172173118554
 20
-150.4139024146535
 10
110.2082600635937
 20
-150.4941731394598
 10
110.2037814394629
 20
-150.6529920413298
 10
110.2037814394629
 20
-150.7353298234273
 10
110.2037814394629
 20
-150.7353298234273
 10
110.2037814394629
 20
-151.0209282391545
 10
110.2037814394629
 20
-151.0209282391545
 10
110.2037814394629
 20
-151.0929307347962
 10
110.2061930063026
 20
-151.2241888727842
 10
110.2172173118554
 20
-151.3023925402994
 10
110.1403916825343
 20
-151.2979139161686
 10
110.0094780540948
 20
-151.2958468588774
 10
109.9257622338033
 20
-151.2937798015863
 10
110.0432399898503
 20
-151.3616481826457
 10
110.2061930063026
 20
-151.4122910862789
 10
110.432191270135
 20
-151.4164252008612
 10
110.432191270135
 20
-151.4164252008612
 10
110.3326280106113
 20
-151.5962591851912
 10
110.3326280106113
 20
-151.5962591851912
 97
        0
 97
        1
330
B8
 92
        1
 93
        1
 72
     4
 94
        3
 73
     0
 74
     0
 95
       71
 96
       67
 40
0.0
 40
0.0
 40
0.0
 40
0.0
 40
1.0
 40
1.0
 40
1.0
 40
2.0
 40
2.0
 40
2.0
 40
3.0
 40
3.0
 40
3.0
 40
4.0
 40
4.0
 40
4.0
 40
5.0
 40
5.0
 40
5.0
 40
6.0
 40
6.0
 40
6.0
 40
7.0
 40
7.0
 40
7.0
 40
8.0
 40
8.0
 40
8.0
 40
9.0
 40
9.0
 40
9.0
 40
10.0
 40
10.0
 40
10.0
 40
11.0
 40
11.0
 40
11.0
 40
12.0
 40
12.0
 40
12.0
 40
13.0
 40
13.0
 40
13.0
 40
14.0
 40
14.0
 40
14.0
 40
15.0
 40
15.0
 40
15.0
 40
16.0
 40
16.0
 40
16.0
 40
17.0
 40
17.0
 40
17.0
 40
18.0
 40
18.0
 40
18.0
 40
19.0
 40
19.0
 40
19.0
 40
20.0
 40
20.0
 40
20.0
 40
21.0
 40
21.0
 40
21.0
 40
22.0
 40
22.0
 40
22.0
 40
22.0
 10
109.4372476939948
 20
-149.8299587299036
 10
109.4214002547627
 20
-149.8299587299036
 10
109.4079643823702
 20
-149.8258246153213
 10
109.3807481280367
 20
-149.8172118766082
 10
109.2295084362343
 20
-149.8637206656591
 10
109.0441622991278
 20
-149.8806016335368
 10
108.894645155068
 20
-149.8850802576676
 10
108.894645155068
 20
-149.8850802576676
 10
108.8925780977768
 20
-149.9736192116385
 10
108.8925780977768
 20
-149.9736192116385
 10
108.8925780977768
 20
-149.9736192116385
 10
109.1705973034365
 20
-149.9736192116385
 10
109.1705973034365
 20
-149.9736192116385
 10
109.2270968693946
 20
-149.9736192116385
 10
109.4214002547627
 20
-149.9653509824739
 10
109.4689425724591
 20
-149.9588053010519
 10
109.4689425724591
 20
-149.9588053010519
 10
109.4689425724591
 20
-150.1196912602131
 10
109.4689425724591
 20
-150.1196912602131
 10
109.4103759492099
 20
-150.1134900883397
 10
109.2767062443822
 20
-150.1114230310485
 10
109.2360541176562
 20
-150.1134900883397
 10
109.2360541176562
 20
-150.1134900883397
 10
109.2360541176562
 20
-150.2233886343191
 10
109.2360541176562
 20
-150.2233886343191
 10
109.2360541176562
 20
-150.26989742337
 10
109.2384656844959
 20
-150.3332871802986
 10
109.2453558754664
 20
-150.3715277401849
 10
109.2453558754664
 20
-150.3715277401849
 10
109.0393391654485
 20
-150.3715277401849
 10
109.0393391654485
 20
-150.3715277401849
 10
109.046229356419
 20
-150.3312201230075
 10
109.0531195473895
 20
-150.24888234091
 10
109.0531195473895
 20
-150.2340684303234
 10
109.0531195473895
 20
-150.2340684303234
 10
109.0531195473895
 20
-150.1134900883397
 10
109.0531195473895
 20
-150.1134900883397
 10
109.0531195473895
 20
-150.1134900883397
 10
108.8767306585447
 20
-150.1134900883397
 10
108.8767306585447
 20
-150.1134900883397
 10
108.8315999076879
 20
-150.3332871802986
 10
108.7726887748901
 20
-150.4139024146535
 10
108.6596896429739
 20
-150.5131211646286
 10
108.6596896429739
 20
-150.5131211646286
 10
108.4808891872895
 20
-150.3990885040669
 10
108.4808891872895
 20
-150.3990885040669
 10
108.5487575683489
 20
-150.3501681481763
 10
108.7092990179616
 20
-150.2382025449057
 10
108.7092990179616
 20
-149.8892143722499
 10
108.7092990179616
 20
-149.8065320806039
 10
108.7003417696999
 20
-149.760023291553
 10
108.6913845214382
 20
-149.711447445211
 10
108.8474473469201
 20
-149.7262613557976
 10
108.8632947861522
 20
-149.7262613557976
 10
108.9015353460385
 20
-149.7262613557976
 10
109.0169460447944
 20
-149.7262613557976
 10
109.1681857365968
 20
-149.7093803879199
 10
109.3400960013108
 20
-149.6480576882824
 10
109.3400960013108
 20
-149.6480576882824
 10
109.4623968910372
 20
-149.7789713167219
 10
109.4623968910372
 20
-149.7789713167219
 10
109.4689425724591
 20
-149.7855169981439
 10
109.47342119659
 20
-149.7937852273085
 10
109.47342119659
 20
-149.8023979660216
 10
109.47342119659
 20
-149.8258246153213
 10
109.453095133227
 20
-149.8299587299036
 10
109.4372476939948
 20
-149.8299587299036
 97
        0
 97
        1
330
B9
 75
     2
 76
     1
 98
        1
 10
0.0
 20
0.0
450
        0
451
        0
460
0.0
461
0.0
452
        0
462
0.0
453
        0
470

  0
ENDBLK
  5
AC
330
A9
100
AcDbEntity
  8
0
100
AcDbBlockEnd
  0
BLOCK
  5
BD
330
BB
100
AcDbEntity
  8
0
100
AcDbBlockBegin
  2
Block_2
 70
     0
 10
0.0
 20
0.0
 30
0.0
  3
Block_2
  1

  0
LINE
  5
BF
330
BB
100
AcDbEntity
  8
レイヤー 1
 62
   250
420
  2299925
370
     9
100
AcDbLine
 10
100.8178293318683
 20
-135.2758871784772
 30
0.0
 11
78.81762042737474
 21
-135.2758871784772
 31
0.0
  0
LINE
  5
C0
330
BB
100
AcDbEntity
  8
レイヤー 1
 62
   250
420
  2299925
370
     9
100
AcDbLine
 10
100.8178293318683
 20
-136.7359285301174
 30
0.0
 11
100.8178293318683
 21
-134.2757974817691
 31
0.0
  0
LINE
  5
C1
330
BB
100
AcDbEntity
  8
レイヤー 1
 62
   250
420
  2299925
370
     9
100
AcDbLine
 10
78.81762042737474
 20
-136.7359285301174
 30
0.0
 11
78.81762042737474
 21
-134.2757974817691
 31
0.0
  0
INSERT
  5
C3
330
BB
100
AcDbEntity
  8
レイヤー 1
100
AcDbBlockReference
  2
Block_3
 10
0.0
 20
0.0
 30
0.0
  0
SPLINE
  5
CE
330
BB
100
AcDbEntity
  8
レイヤー 1
 62
   250
420
  2299925
370
     9
100
AcDbSpline
210
0.0
220
0.0
230
1.0
 70
     9
 71
     3
 72
    17
 73
    13
 74
     0
 42
0.0000000001
 43
0.0000000001
 40
0.0
 40
0.0
 40
0.0
 40
0.0
 40
1.0
 40
1.0
 40
1.0
 40
2.0
 40
2.0
 40
2.0
 40
3.0
 40
3.0
 40
3.0
 40
4.0
 40
4.0
 40
4.0
 40
4.0
 10
78.85346264958798
 20
-135.2758871784772
 30
0.0
 10
78.85346264958798
 20
-135.2955369001982
 30
0.0
 10
78.83762292736976
 20
-135.3110591220244
 30
0.0
 10
78.81762042737474
 20
-135.3110591220244
 30
0.0
 10
78.79832348293522
 20
-135.3110591220244
 30
0.0
 10
78.78248376071669
 20
-135.2955369001982
 30
0.0
 10
78.78248376071669
 20
-135.2758871784772
 30
0.0
 10
78.78248376071669
 20
-135.2562727345329
 30
0.0
 10
78.79832348293522
 20
-135.240750512707
 30
0.0
 10
78.81762042737474
 20
-135.240750512707
 30
0.0
 10
78.83762292736976
 20
-135.240750512707
 30
0.0
 10
78.85346264958798
 20
-135.2562727345329
 30
0.0
 10
78.85346264958798
 20
-135.2758871784772
 30
0.0
  0
ENDBLK
  5
BE
330
BB
100
AcDbEntity
  8
0
100
AcDbBlockEnd
  0
BLOCK
  5
C4
330
C2
100
AcDbEntity
  8
0
100
AcDbBlockBegin
  2
Block_3
 70
     0
 10
0.0
 20
0.0
 30
0.0
  3
Block_3
  1

  0
INSERT
  5
C7
330
C2
100
AcDbEntity
  8
レイヤー 1
100
AcDbBlockReference
  2
Block_4
 10
0.0
 20
0.0
 30
0.0
  0
ENDBLK
  5
C5
330
C2
100
AcDbEntity
  8
0
100
AcDbBlockEnd
  0
BLOCK
  5
C8
330
C6
100
AcDbEntity
  8
0
100
AcDbBlockBegin
  2
Block_4
 70
     0
 10
0.0
 20
0.0
 30
0.0
  3
Block_4
  1

  0
SPLINE
  5
CA
330
C6
100
AcDbEntity
  8
レイヤー 1
100
AcDbSpline
210
0.0
220
0.0
230
1.0
 70
     9
 71
     3
 72
    44
 73
    40
 74
     0
 42
0.0000000001
 43
0.0000000001
 40
0.0
 40
0.0
 40
0.0
 40
0.0
 40
1.0
 40
1.0
 40
1.0
 40
2.0
 40
2.0
 40
2.0
 40
3.0
 40
3.0
 40
3.0
 40
4.0
 40
4.0
 40
4.0
 40
5.0
 40
5.0
 40
5.0
 40
6.0
 40
6.0
 40
6.0
 40
7.0
 40
7.0
 40
7.0
 40
8.0
 40
8.0
 40
8.0
 40
9.0
 40
9.0
 40
9.0
 40
10.0
 40
10.0
 40
10.0
 40
11.0
 40
11.0
 40
11.0
 40
12.0
 40
12.0
 40
12.0
 40
13.0
 40
13.0
 40
13.0
 40
13.0
 10
89.28791772941414
 20
-134.3213446387287
 30
0.0
 10
89.05502927461125
 20
-134.4799912858244
 30
0.0
 10
88.9556382698618
 20
-134.5540608387573
 30
0.0
 10
88.90361732803452
 20
-134.6978935752665
 30
0.0
 10
88.90361732803452
 20
-134.6978935752665
 30
0.0
 10
89.73560788772235
 20
-134.6978935752665
 30
0.0
 10
89.73560788772235
 20
-134.6978935752665
 30
0.0
 10
89.73560788772235
 20
-134.6978935752665
 30
0.0
 10
89.73560788772235
 20
-134.9030490114131
 30
0.0
 10
89.73560788772235
 20
-134.9030490114131
 30
0.0
 10
89.73560788772235
 20
-134.9030490114131
 30
0.0
 10
88.63679468270191
 20
-134.9030490114131
 30
0.0
 10
88.63679468270191
 20
-134.9030490114131
 30
0.0
 10
88.67072887323162
 20
-134.5456203548184
 30
0.0
 10
88.74083656635646
 20
-134.467244432529
 30
0.0
 10
89.1521809672953
 20
-134.1690714182806
 30
0.0
 10
89.42589380359839
 20
-133.9701171540075
 30
0.0
 10
89.49582924194897
 20
-133.9024210277223
 30
0.0
 10
89.49582924194897
 20
-133.7649617178608
 30
0.0
 10
89.49582924194897
 20
-133.6464504331682
 30
0.0
 10
89.41900361262788
 20
-133.5153645499545
 30
0.0
 10
89.20885278802765
 20
-133.5153645499545
 30
0.0
 10
88.93066132759372
 20
-133.5153645499545
 30
0.0
 10
88.92170407933207
 20
-133.7458414379177
 30
0.0
 10
88.91705320042699
 20
-133.8622856653191
 30
0.0
 10
88.91705320042699
 20
-133.8622856653191
 30
0.0
 10
88.67744680942786
 20
-133.8622856653191
 30
0.0
 10
88.67744680942786
 20
-133.8622856653191
 30
0.0
 10
88.68657631246376
 20
-133.7353338966877
 30
0.0
 10
88.69777287279083
 20
-133.6231960386428
 30
0.0
 10
88.78372800514782
 20
-133.5046847539502
 30
0.0
 10
88.9013780159691
 20
-133.3439710495633
 30
0.0
 10
89.10033228024229
 20
-133.3100368590336
 30
0.0
 10
89.22452797248553
 20
-133.3100368590336
 30
0.0
 10
89.52080618421701
 20
-133.3100368590336
 30
0.0
 10
89.74232582391859
 20
-133.4941772127202
 30
0.0
 10
89.74232582391859
 20
-133.767028775152
 30
0.0
 10
89.74232582391859
 20
-133.9956108605983
 30
0.0
 10
89.61795787690107
 20
-134.0950018653478
 30
0.0
 10
89.28791772941414
 20
-134.3213446387287
 30
0.0
  0
HATCH
  5
CB
330
C6
100
AcDbEntity
  8
レイヤー 1
 62
   250
420
  2299925
440
 33554687
100
AcDbHatch
 10
0.0
 20
0.0
 30
0.0
210
0.0
220
0.0
230
1.0
  2
SOLID
 70
     1
 71
     1
 91
        1
 92
        1
 93
        1
 72
     4
 94
        3
 73
     0
 74
     0
 95
       44
 96
       40
 40
0.0
 40
0.0
 40
0.0
 40
0.0
 40
1.0
 40
1.0
 40
1.0
 40
2.0
 40
2.0
 40
2.0
 40
3.0
 40
3.0
 40
3.0
 40
4.0
 40
4.0
 40
4.0
 40
5.0
 40
5.0
 40
5.0
 40
6.0
 40
6.0
 40
6.0
 40
7.0
 40
7.0
 40
7.0
 40
8.0
 40
8.0
 40
8.0
 40
9.0
 40
9.0
 40
9.0
 40
10.0
 40
10.0
 40
10.0
 40
11.0
 40
11.0
 40
11.0
 40
12.0
 40
12.0
 40
12.0
 40
13.0
 40
13.0
 40
13.0
 40
13.0
 10
89.28791772941414
 20
-134.3213446387287
 10
89.05502927461125
 20
-134.4799912858244
 10
88.9556382698618
 20
-134.5540608387573
 10
88.90361732803452
 20
-134.6978935752665
 10
88.90361732803452
 20
-134.6978935752665
 10
89.73560788772235
 20
-134.6978935752665
 10
89.73560788772235
 20
-134.6978935752665
 10
89.73560788772235
 20
-134.6978935752665
 10
89.73560788772235
 20
-134.9030490114131
 10
89.73560788772235
 20
-134.9030490114131
 10
89.73560788772235
 20
-134.9030490114131
 10
88.63679468270191
 20
-134.9030490114131
 10
88.63679468270191
 20
-134.9030490114131
 10
88.67072887323162
 20
-134.5456203548184
 10
88.74083656635646
 20
-134.467244432529
 10
89.1521809672953
 20
-134.1690714182806
 10
89.42589380359839
 20
-133.9701171540075
 10
89.49582924194897
 20
-133.9024210277223
 10
89.49582924194897
 20
-133.7649617178608
 10
89.49582924194897
 20
-133.6464504331682
 10
89.41900361262788
 20
-133.5153645499545
 10
89.20885278802765
 20
-133.5153645499545
 10
88.93066132759372
 20
-133.5153645499545
 10
88.92170407933207
 20
-133.7458414379177
 10
88.91705320042699
 20
-133.8622856653191
 10
88.91705320042699
 20
-133.8622856653191
 10
88.67744680942786
 20
-133.8622856653191
 10
88.67744680942786
 20
-133.8622856653191
 10
88.68657631246376
 20
-133.7353338966877
 10
88.69777287279083
 20
-133.6231960386428
 10
88.78372800514782
 20
-133.5046847539502
 10
88.9013780159691
 20
-133.3439710495633
 10
89.10033228024229
 20
-133.3100368590336
 10
89.22452797248553
 20
-133.3100368590336
 10
89.52080618421701
 20
-133.3100368590336
 10
89.74232582391859
 20
-133.4941772127202
 10
89.74232582391859
 20
-133.767028775152
 10
89.74232582391859
 20
-133.9956108605983
 10
89.61795787690107
 20
-134.0950018653478
 10
89.28791772941414
 20
-134.3213446387287
 97
        0
 97
        1
330
CA
 75
     2
 76
     1
 98
        1
 10
0.0
 20
0.0
450
        0
451
        0
460
0.0
461
0.0
452
        0
462
0.0
453
        0
470

  0
SPLINE
  5
CC
330
C6
100
AcDbEntity
  8
レイヤー 1
100
AcDbSpline
210
0.0
220
0.0
230
1.0
 70
     9
 71
     3
 72
    44
 73
    40
 74
     0
 42
0.0000000001
 43
0.0000000001
 40
0.0
 40
0.0
 40
0.0
 40
0.0
 40
1.0
 40
1.0
 40
1.0
 40
2.0
 40
2.0
 40
2.0
 40
3.0
 40
3.0
 40
3.0
 40
4.0
 40
4.0
 40
4.0
 40
5.0
 40
5.0
 40
5.0
 40
6.0
 40
6.0
 40
6.0
 40
7.0
 40
7.0
 40
7.0
 40
8.0
 40
8.0
 40
8.0
 40
9.0
 40
9.0
 40
9.0
 40
10.0
 40
10.0
 40
10.0
 40
11.0
 40
11.0
 40
11.0
 40
12.0
 40
12.0
 40
12.0
 40
13.0
 40
13.0
 40
13.0
 40
13.0
 10
90.54572209107886
 20
-134.3213446387287
 30
0.0
 10
90.31283363627597
 20
-134.4799912858244
 30
0.0
 10
90.21327037675225
 20
-134.5540608387573
 30
0.0
 10
90.16124943492497
 20
-134.6978935752665
 30
0.0
 10
90.16124943492497
 20
-134.6978935752665
 30
0.0
 10
90.99323999461281
 20
-134.6978935752665
 30
0.0
 10
90.99323999461281
 20
-134.6978935752665
 30
0.0
 10
90.99323999461281
 20
-134.6978935752665
 30
0.0
 10
90.99323999461281
 20
-134.9030490114131
 30
0.0
 10
90.99323999461281
 20
-134.9030490114131
 30
0.0
 10
90.99323999461281
 20
-134.9030490114131
 30
0.0
 10
89.89459904436662
 20
-134.9030490114131
 30
0.0
 10
89.89459904436662
 20
-134.9030490114131
 30
0.0
 10
89.92853323489635
 20
-134.5456203548184
 30
0.0
 10
89.99864092802118
 20
-134.467244432529
 30
0.0
 10
90.40998532896001
 20
-134.1690714182806
 30
0.0
 10
90.68352591048883
 20
-133.9701171540075
 30
0.0
 10
90.75363360361368
 20
-133.9024210277223
 30
0.0
 10
90.75363360361368
 20
-133.7649617178608
 30
0.0
 10
90.75363360361368
 20
-133.6464504331682
 30
0.0
 10
90.67680797429261
 20
-133.5153645499545
 30
0.0
 10
90.46648489491811
 20
-133.5153645499545
 30
0.0
 10
90.18846568925845
 20
-133.5153645499545
 30
0.0
 10
90.17950844099679
 20
-133.7458414379177
 30
0.0
 10
90.1748575620917
 20
-133.8622856653191
 30
0.0
 10
90.1748575620917
 20
-133.8622856653191
 30
0.0
 10
89.93525117109257
 20
-133.8622856653191
 30
0.0
 10
89.93525117109257
 20
-133.8622856653191
 30
0.0
 10
89.94420841935422
 20
-133.7353338966877
 30
0.0
 10
89.95557723445555
 20
-133.6231960386428
 30
0.0
 10
90.04153236681252
 20
-133.5046847539502
 30
0.0
 10
90.15901012285956
 20
-133.3439710495633
 30
0.0
 10
90.35796438713274
 20
-133.3100368590336
 30
0.0
 10
90.48233233415025
 20
-133.3100368590336
 30
0.0
 10
90.77861054588174
 20
-133.3100368590336
 30
0.0
 10
91.0001301855833
 20
-133.4941772127202
 30
0.0
 10
91.0001301855833
 20
-133.767028775152
 30
0.0
 10
91.0001301855833
 20
-133.9956108605983
 30
0.0
 10
90.87576223856578
 20
-134.0950018653478
 30
0.0
 10
90.54572209107886
 20
-134.3213446387287
 30
0.0
  0
HATCH
  5
CD
330
C6
100
AcDbEntity
  8
レイヤー 1
 62
   250
420
  2299925
440
 33554687
100
AcDbHatch
 10
0.0
 20
0.0
 30
0.0
210
0.0
220
0.0
230
1.0
  2
SOLID
 70
     1
 71
     1
 91
        1
 92
        1
 93
        1
 72
     4
 94
        3
 73
     0
 74
     0
 95
       44
 96
       40
 40
0.0
 40
0.0
 40
0.0
 40
0.0
 40
1.0
 40
1.0
 40
1.0
 40
2.0
 40
2.0
 40
2.0
 40
3.0
 40
3.0
 40
3.0
 40
4.0
 40
4.0
 40
4.0
 40
5.0
 40
5.0
 40
5.0
 40
6.0
 40
6.0
 40
6.0
 40
7.0
 40
7.0
 40
7.0
 40
8.0
 40
8.0
 40
8.0
 40
9.0
 40
9.0
 40
9.0
 40
10.0
 40
10.0
 40
10.0
 40
11.0
 40
11.0
 40
11.0
 40
12.0
 40
12.0
 40
12.0
 40
13.0
 40
13.0
 40
13.0
 40
13.0
 10
90.54572209107886
 20
-134.3213446387287
 10
90.31283363627597
 20
-134.4799912858244
 10
90.21327037675225
 20
-134.5540608387573
 10
90.16124943492497
 20
-134.6978935752665
 10
90.16124943492497
 20
-134.6978935752665
 10
90.99323999461281
 20
-134.6978935752665
 10
90.99323999461281
 20
-134.6978935752665
 10
90.99323999461281
 20
-134.6978935752665
 10
90.99323999461281
 20
-134.9030490114131
 10
90.99323999461281
 20
-134.9030490114131
 10
90.99323999461281
 20
-134.9030490114131
 10
89.89459904436662
 20
-134.9030490114131
 10
89.89459904436662
 20
-134.9030490114131
 10
89.92853323489635
 20
-134.5456203548184
 10
89.99864092802118
 20
-134.467244432529
 10
90.40998532896001
 20
-134.1690714182806
 10
90.68352591048883
 20
-133.9701171540075
 10
90.75363360361368
 20
-133.9024210277223
 10
90.75363360361368
 20
-133.7649617178608
 10
90.75363360361368
 20
-133.6464504331682
 10
90.67680797429261
 20
-133.5153645499545
 10
90.46648489491811
 20
-133.5153645499545
 10
90.18846568925845
 20
-133.5153645499545
 10
90.17950844099679
 20
-133.7458414379177
 10
90.1748575620917
 20
-133.8622856653191
 10
90.1748575620917
 20
-133.8622856653191
 10
89.93525117109257
 20
-133.8622856653191
 10
89.93525117109257
 20
-133.8622856653191
 10
89.94420841935422
 20
-133.7353338966877
 10
89.95557723445555
 20
-133.6231960386428
 10
90.04153236681252
 20
-133.5046847539502
 10
90.15901012285956
 20
-133.3439710495633
 10
90.35796438713274
 20
-133.3100368590336
 10
90.48233233415025
 20
-133.3100368590336
 10
90.77861054588174
 20
-133.3100368590336
 10
91.0001301855833
 20
-133.4941772127202
 10
91.0001301855833
 20
-133.767028775152
 10
91.0001301855833
 20
-133.9956108605983
 10
90.87576223856578
 20
-134.0950018653478
 10
90.54572209107886
 20
-134.3213446387287
 97
        0
 97
        1
330
CC
 75
     2
 76
     1
 98
        1
 10
0.0
 20
0.0
450
        0
451
        0
460
0.0
461
0.0
452
        0
462
0.0
453
        0
470

  0
ENDBLK
  5
C9
330
C6
100
AcDbEntity
  8
0
100
AcDbBlockEnd
  0
BLOCK
  5
D1
330
CF
100
AcDbEntity
  8
0
100
AcDbBlockBegin
  2
Block_5
 70
     0
 10
0.0
 20
0.0
 30
0.0
  3
Block_5
  1

  0
LINE
  5
D3
330
CF
100
AcDbEntity
  8
レイヤー 1
 62
   250
420
  2299925
370
     9
100
AcDbLine
 10
100.8178293318683
 20
-135.2758871784772
 30
0.0
 11
110.8182676878466
 21
-135.2758871784772
 31
0.0
  0
LINE
  5
D4
330
CF
100
AcDbEntity
  8
レイヤー 1
 62
   250
420
  2299925
370
     9
100
AcDbLine
 10
110.8182676878466
 20
-136.7359285301174
 30
0.0
 11
110.8182676878466
 21
-134.2757974817691
 31
0.0
  0
INSERT
  5
D6
330
CF
100
AcDbEntity
  8
レイヤー 1
100
AcDbBlockReference
  2
Block_6
 10
0.0
 20
0.0
 30
0.0
  0
SPLINE
  5
E2
330
CF
100
AcDbEntity
  8
レイヤー 1
 62
   250
420
  2299925
370
     9
100
AcDbSpline
210
0.0
220
0.0
230
1.0
 70
     9
 71
     3
 72
    17
 73
    13
 74
     0
 42
0.0000000001
 43
0.0000000001
 40
0.0
 40
0.0
 40
0.0
 40
0.0
 40
1.0
 40
1.0
 40
1.0
 40
2.0
 40
2.0
 40
2.0
 40
3.0
 40
3.0
 40
3.0
 40
4.0
 40
4.0
 40
4.0
 40
4.0
 10
110.8534043536169
 20
-135.2758871784772
 30
0.0
 10
110.8534043536169
 20
-135.2955369001982
 30
0.0
 10
110.8375646317987
 20
-135.3110591220244
 30
0.0
 10
110.8182676878466
 20
-135.3110591220244
 30
0.0
 10
110.7982651883569
 20
-135.3110591220244
 30
0.0
 10
110.7824268082725
 20
-135.2955369001982
 30
0.0
 10
110.7824268082725
 20
-135.2758871784772
 30
0.0
 10
110.7824268082725
 20
-135.2562727345329
 30
0.0
 10
110.7982651883569
 20
-135.240750512707
 30
0.0
 10
110.8182676878466
 20
-135.240750512707
 30
0.0
 10
110.8375646317987
 20
-135.240750512707
 30
0.0
 10
110.8534043536169
 20
-135.2562727345329
 30
0.0
 10
110.8534043536169
 20
-135.2758871784772
 30
0.0
  0
ENDBLK
  5
D2
330
CF
100
AcDbEntity
  8
0
100
AcDbBlockEnd
  0
BLOCK
  5
D7
330
D5
100
AcDbEntity
  8
0
100
AcDbBlockBegin
  2
Block_6
 70
     0
 10
0.0
 20
0.0
 30
0.0
  3
Block_6
  1

  0
INSERT
  5
DA
330
D5
100
AcDbEntity
  8
レイヤー 1
100
AcDbBlockReference
  2
Block_7
 10
0.0
 20
0.0
 30
0.0
  0
ENDBLK
  5
D8
330
D5
100
AcDbEntity
  8
0
100
AcDbBlockEnd
  0
BLOCK
  5
DB
330
D9
100
AcDbEntity
  8
0
100
AcDbBlockBegin
  2
Block_7
 70
     0
 10
0.0
 20
0.0
 30
0.0
  3
Block_7
  1

  0
SPLINE
  5
DD
330
D9
100
AcDbEntity
  8
レイヤー 1
100
AcDbSpline
210
0.0
220
0.0
230
1.0
 70
    11
 71
     3
 72
    26
 73
    22
 74
     0
 42
0.0000000001
 43
0.0000000001
 40
0.0
 40
0.0
 40
0.0
 40
0.0
 40
1.0
 40
1.0
 40
1.0
 40
2.0
 40
2.0
 40
2.0
 40
3.0
 40
3.0
 40
3.0
 40
4.0
 40
4.0
 40
4.0
 40
5.0
 40
5.0
 40
5.0
 40
6.0
 40
6.0
 40
6.0
 40
7.0
 40
7.0
 40
7.0
 40
7.0
 10
105.1362182354347
 20
-134.9030490114131
 30
0.0
 10
105.1362182354347
 20
-134.9030490114131
 30
0.0
 10
105.1362182354347
 20
-133.7987236536163
 30
0.0
 10
105.1362182354347
 20
-133.7987236536163
 30
0.0
 10
105.1362182354347
 20
-133.7987236536163
 30
0.0
 10
104.7834404577451
 20
-133.7987236536163
 30
0.0
 10
104.7834404577451
 20
-133.7987236536163
 30
0.0
 10
104.7834404577451
 20
-133.7987236536163
 30
0.0
 10
104.7834404577451
 20
-133.6507568025248
 30
0.0
 10
104.7834404577451
 20
-133.6507568025248
 30
0.0
 10
105.1384575475001
 20
-133.6359428919382
 30
0.0
 10
105.1880669224877
 20
-133.4729898754859
 30
0.0
 10
105.219761800952
 20
-133.3587849601499
 30
0.0
 10
105.219761800952
 20
-133.3587849601499
 30
0.0
 10
105.3758246264338
 20
-133.3587849601499
 30
0.0
 10
105.3758246264338
 20
-133.3587849601499
 30
0.0
 10
105.3758246264338
 20
-133.3587849601499
 30
0.0
 10
105.3758246264338
 20
-134.9030490114131
 30
0.0
 10
105.3758246264338
 20
-134.9030490114131
 30
0.0
 10
105.3758246264338
 20
-134.9030490114131
 30
0.0
 10
105.1362182354347
 20
-134.9030490114131
 30
0.0
 10
105.1362182354347
 20
-134.9030490114131
 30
0.0
  0
HATCH
  5
DE
330
D9
100
AcDbEntity
  8
レイヤー 1
 62
   250
420
  2299925
440
 33554687
100
AcDbHatch
 10
0.0
 20
0.0
 30
0.0
210
0.0
220
0.0
230
1.0
  2
SOLID
 70
     1
 71
     1
 91
        1
 92
        1
 93
        1
 72
     4
 94
        3
 73
     0
 74
     0
 95
       26
 96
       22
 40
0.0
 40
0.0
 40
0.0
 40
0.0
 40
1.0
 40
1.0
 40
1.0
 40
2.0
 40
2.0
 40
2.0
 40
3.0
 40
3.0
 40
3.0
 40
4.0
 40
4.0
 40
4.0
 40
5.0
 40
5.0
 40
5.0
 40
6.0
 40
6.0
 40
6.0
 40
7.0
 40
7.0
 40
7.0
 40
7.0
 10
105.1362182354347
 20
-134.9030490114131
 10
105.1362182354347
 20
-134.9030490114131
 10
105.1362182354347
 20
-133.7987236536163
 10
105.1362182354347
 20
-133.7987236536163
 10
105.1362182354347
 20
-133.7987236536163
 10
104.7834404577451
 20
-133.7987236536163
 10
104.7834404577451
 20
-133.7987236536163
 10
104.7834404577451
 20
-133.7987236536163
 10
104.7834404577451
 20
-133.6507568025248
 10
104.7834404577451
 20
-133.6507568025248
 10
105.1384575475001
 20
-133.6359428919382
 10
105.1880669224877
 20
-133.4729898754859
 10
105.219761800952
 20
-133.3587849601499
 10
105.219761800952
 20
-133.3587849601499
 10
105.3758246264338
 20
-133.3587849601499
 10
105.3758246264338
 20
-133.3587849601499
 10
105.3758246264338
 20
-133.3587849601499
 10
105.3758246264338
 20
-134.9030490114131
 10
105.3758246264338
 20
-134.9030490114131
 10
105.3758246264338
 20
-134.9030490114131
 10
105.1362182354347
 20
-134.9030490114131
 10
105.1362182354347
 20
-134.9030490114131
 97
        0
 97
        1
330
DD
 75
     2
 76
     1
 98
        1
 10
0.0
 20
0.0
450
        0
451
        0
460
0.0
461
0.0
452
        0
462
0.0
453
        0
470

  0
SPLINE
  5
DF
330
D9
100
AcDbEntity
  8
レイヤー 1
100
AcDbSpline
210
0.0
220
0.0
230
1.0
 70
     9
 71
     3
 72
    17
 73
    13
 74
     0
 42
0.0000000001
 43
0.0000000001
 40
0.0
 40
0.0
 40
0.0
 40
0.0
 40
1.0
 40
1.0
 40
1.0
 40
2.0
 40
2.0
 40
2.0
 40
3.0
 40
3.0
 40
3.0
 40
4.0
 40
4.0
 40
4.0
 40
4.0
 10
106.4458712841524
 20
-133.5026176966591
 30
0.0
 10
106.1792208935941
 20
-133.5026176966591
 30
0.0
 10
106.129267009058
 20
-133.7861490550951
 30
0.0
 10
106.129267009058
 20
-134.1310031131686
 30
0.0
 10
106.129267009058
 20
-134.4503634646513
 30
0.0
 10
106.1678520784927
 20
-134.7592162749039
 30
0.0
 10
106.4458712841524
 20
-134.7592162749039
 30
0.0
 10
106.7104546174196
 20
-134.7592162749039
 30
0.0
 10
106.7624755592468
 20
-134.4779242285333
 30
0.0
 10
106.7624755592468
 20
-134.1310031131686
 30
0.0
 10
106.7624755592468
 20
-133.8114705069117
 30
0.0
 10
106.7218234325209
 20
-133.5026176966591
 30
0.0
 10
106.4458712841524
 20
-133.5026176966591
 30
0.0
  0
SPLINE
  5
E0
330
D9
100
AcDbEntity
  8
レイヤー 1
100
AcDbSpline
210
0.0
220
0.0
230
1.0
 70
     9
 71
     3
 72
    29
 73
    25
 74
     0
 42
0.0000000001
 43
0.0000000001
 40
0.0
 40
0.0
 40
0.0
 40
0.0
 40
1.0
 40
1.0
 40
1.0
 40
2.0
 40
2.0
 40
2.0
 40
3.0
 40
3.0
 40
3.0
 40
4.0
 40
4.0
 40
4.0
 40
5.0
 40
5.0
 40
5.0
 40
6.0
 40
6.0
 40
6.0
 40
7.0
 40
7.0
 40
7.0
 40
8.0
 40
8.0
 40
8.0
 40
8.0
 10
106.8709960670322
 20
-134.7254543391485
 30
0.0
 10
106.7555853682764
 20
-134.9347438898774
 30
0.0
 10
106.5702392311699
 20
-134.9538641698206
 30
0.0
 10
106.4458712841524
 20
-134.9538641698206
 30
0.0
 10
106.2739610194384
 20
-134.9538641698206
 30
0.0
 10
106.122721327636
 20
-134.9073553807697
 30
0.0
 10
106.0207465012726
 20
-134.7254543391485
 30
0.0
 10
105.910158936196
 20
-134.5308064442319
 30
0.0
 10
105.8898328728331
 20
-134.2937838748467
 30
0.0
 10
105.8898328728331
 20
-134.1310031131686
 30
0.0
 10
105.8898328728331
 20
-133.9869981218852
 30
0.0
 10
105.9077473693564
 20
-133.7353338966877
 30
0.0
 10
106.0207465012726
 20
-133.5363796324145
 30
0.0
 10
106.1361572000284
 20
-133.3334635083333
 30
0.0
 10
106.3080674647424
 20
-133.3100368590336
 30
0.0
 10
106.4458712841524
 20
-133.3100368590336
 30
0.0
 10
106.6153699820267
 20
-133.3100368590336
 30
0.0
 10
106.7693657502174
 20
-133.3544785907933
 30
0.0
 10
106.8709960670322
 20
-133.5363796324145
 30
0.0
 10
106.9771050079779
 20
-133.72896047004
 30
0.0
 10
107.0019096954717
 20
-133.957370300712
 30
0.0
 10
107.0019096954717
 20
-134.1310031131686
 30
0.0
 10
107.0019096954717
 20
-134.3022243587855
 30
0.0
 10
106.9795165748176
 20
-134.532873501523
 30
0.0
 10
106.8709960670322
 20
-134.7254543391485
 30
0.0
  0
HATCH
  5
E1
330
D9
100
AcDbEntity
  8
レイヤー 1
 62
   250
420
  2299925
440
 33554687
100
AcDbHatch
 10
0.0
 20
0.0
 30
0.0
210
0.0
220
0.0
230
1.0
  2
SOLID
 70
     1
 71
     1
 91
        2
 92
        1
 93
        1
 72
     4
 94
        3
 73
     0
 74
     0
 95
       17
 96
       13
 40
0.0
 40
0.0
 40
0.0
 40
0.0
 40
1.0
 40
1.0
 40
1.0
 40
2.0
 40
2.0
 40
2.0
 40
3.0
 40
3.0
 40
3.0
 40
4.0
 40
4.0
 40
4.0
 40
4.0
 10
106.4458712841524
 20
-133.5026176966591
 10
106.1792208935941
 20
-133.5026176966591
 10
106.129267009058
 20
-133.7861490550951
 10
106.129267009058
 20
-134.1310031131686
 10
106.129267009058
 20
-134.4503634646513
 10
106.1678520784927
 20
-134.7592162749039
 10
106.4458712841524
 20
-134.7592162749039
 10
106.7104546174196
 20
-134.7592162749039
 10
106.7624755592468
 20
-134.4779242285333
 10
106.7624755592468
 20
-134.1310031131686
 10
106.7624755592468
 20
-133.8114705069117
 10
106.7218234325209
 20
-133.5026176966591
 10
106.4458712841524
 20
-133.5026176966591
 97
        0
 97
        1
330
DF
 92
        1
 93
        1
 72
     4
 94
        3
 73
     0
 74
     0
 95
       29
 96
       25
 40
0.0
 40
0.0
 40
0.0
 40
0.0
 40
1.0
 40
1.0
 40
1.0
 40
2.0
 40
2.0
 40
2.0
 40
3.0
 40
3.0
 40
3.0
 40
4.0
 40
4.0
 40
4.0
 40
5.0
 40
5.0
 40
5.0
 40
6.0
 40
6.0
 40
6.0
 40
7.0
 40
7.0
 40
7.0
 40
8.0
 40
8.0
 40
8.0
 40
8.0
 10
106.8709960670322
 20
-134.7254543391485
 10
106.7555853682764
 20
-134.9347438898774
 10
106.5702392311699
 20
-134.9538641698206
 10
106.4458712841524
 20
-134.9538641698206
 10
106.2739610194384
 20
-134.9538641698206
 10
106.122721327636
 20
-134.9073553807697
 10
106.0207465012726
 20
-134.7254543391485
 10
105.910158936196
 20
-134.5308064442319
 10
105.8898328728331
 20
-134.2937838748467
 10
105.8898328728331
 20
-134.1310031131686
 10
105.8898328728331
 20
-133.9869981218852
 10
105.9077473693564
 20
-133.7353338966877
 10
106.0207465012726
 20
-133.5363796324145
 10
106.1361572000284
 20
-133.3334635083333
 10
106.3080674647424
 20
-133.3100368590336
 10
106.4458712841524
 20
-133.3100368590336
 10
106.6153699820267
 20
-133.3100368590336
 10
106.7693657502174
 20
-133.3544785907933
 10
106.8709960670322
 20
-133.5363796324145
 10
106.9771050079779
 20
-133.72896047004
 10
107.0019096954717
 20
-133.957370300712
 10
107.0019096954717
 20
-134.1310031131686
 10
107.0019096954717
 20
-134.3022243587855
 10
106.9795165748176
 20
-134.532873501523
 10
106.8709960670322
 20
-134.7254543391485
 97
        0
 97
        1
330
E0
 75
     2
 76
     1
 98
        1
 10
0.0
 20
0.0
450
        0
451
        0
460
0.0
461
0.0
452
        0
462
0.0
453
        0
470

  0
ENDBLK
  5
DC
330
D9
100
AcDbEntity
  8
0
100
AcDbBlockEnd
  0
BLOCK
  5
E5
330
E3
100
AcDbEntity
  8
0
100
AcDbBlockBegin
  2
Block_8
 70
     0
 10
0.0
 20
0.0
 30
0.0
  3
Block_8
  1

  0
LINE
  5
E7
330
E3
100
AcDbEntity
  8
レイヤー 1
 62
   250
420
  2299925
370
     9
100
AcDbLine
 10
110.8182676878466
 20
-135.2758871784772
 30
0.0
 11
132.8179479599213
 21
-135.2758871784772
 31
0.0
  0
LINE
  5
E8
330
E3
100
AcDbEntity
  8
レイヤー 1
 62
   250
420
  2299925
370
     9
100
AcDbLine
 10
132.8179479599213
 20
-136.7359285301174
 30
0.0
 11
132.8179479599213
 21
-134.2757974817691
 31
0.0
  0
INSERT
  5
EA
330
E3
100
AcDbEntity
  8
レイヤー 1
100
AcDbBlockReference
  2
Block_9
 10
0.0
 20
0.0
 30
0.0
  0
SPLINE
  5
F5
330
E3
100
AcDbEntity
  8
レイヤー 1
 62
   250
420
  2299925
370
     9
100
AcDbSpline
210
0.0
220
0.0
230
1.0
 70
     9
 71
     3
 72
    17
 73
    13
 74
     0
 42
0.0000000001
 43
0.0000000001
 40
0.0
 40
0.0
 40
0.0
 40
0.0
 40
1.0
 40
1.0
 40
1.0
 40
2.0
 40
2.0
 40
2.0
 40
3.0
 40
3.0
 40
3.0
 40
4.0
 40
4.0
 40
4.0
 40
4.0
 10
132.8530846256916
 20
-135.2758871784772
 30
0.0
 10
132.8530846256916
 20
-135.2955369001982
 30
0.0
 10
132.8372449038735
 20
-135.3110591220244
 30
0.0
 10
132.8179479599213
 20
-135.3110591220244
 30
0.0
 10
132.7986510159692
 20
-135.3110591220244
 30
0.0
 10
132.7828112941511
 20
-135.2955369001982
 30
0.0
 10
132.7828112941511
 20
-135.2758871784772
 30
0.0
 10
132.7828112941511
 20
-135.2562727345329
 30
0.0
 10
132.7986510159692
 20
-135.240750512707
 30
0.0
 10
132.8179479599213
 20
-135.240750512707
 30
0.0
 10
132.8372449038735
 20
-135.240750512707
 30
0.0
 10
132.8530846256916
 20
-135.2562727345329
 30
0.0
 10
132.8530846256916
 20
-135.2758871784772
 30
0.0
  0
ENDBLK
  5
E6
330
E3
100
AcDbEntity
  8
0
100
AcDbBlockEnd
  0
BLOCK
  5
EB
330
E9
100
AcDbEntity
  8
0
100
AcDbBlockBegin
  2
Block_9
 70
     0
 10
0.0
 20
0.0
 30
0.0
  3
Block_9
  1

  0
INSERT
  5
EE
330
E9
100
AcDbEntity
  8
レイヤー 1
100
AcDbBlockReference
  2
Block_10
 10
0.0
 20
0.0
 30
0.0
  0
ENDBLK
  5
EC
330
E9
100
AcDbEntity
  8
0
100
AcDbBlockEnd
  0
BLOCK
  5
EF
330
ED
100
AcDbEntity
  8
0
100
AcDbBlockBegin
  2
Block_10
 70
     0
 10
0.0
 20
0.0
 30
0.0
  3
Block_10
  1

  0
SPLINE
  5
F1
330
ED
100
AcDbEntity
  8
レイヤー 1
100
AcDbSpline
210
0.0
220
0.0
230
1.0
 70
     9
 71
     3
 72
    44
 73
    40
 74
     0
 42
0.0000000001
 43
0.0000000001
 40
0.0
 40
0.0
 40
0.0
 40
0.0
 40
1.0
 40
1.0
 40
1.0
 40
2.0
 40
2.0
 40
2.0
 40
3.0
 40
3.0
 40
3.0
 40
4.0
 40
4.0
 40
4.0
 40
5.0
 40
5.0
 40
5.0
 40
6.0
 40
6.0
 40
6.0
 40
7.0
 40
7.0
 40
7.0
 40
8.0
 40
8.0
 40
8.0
 40
9.0
 40
9.0
 40
9.0
 40
10.0
 40
10.0
 40
10.0
 40
11.0
 40
11.0
 40
11.0
 40
12.0
 40
12.0
 40
12.0
 40
13.0
 40
13.0
 40
13.0
 40
13.0
 10
121.2873426346087
 20
-134.3213446387287
 30
0.0
 10
121.0544541798058
 20
-134.4799912858244
 30
0.0
 10
120.9548909202821
 20
-134.5540608387573
 30
0.0
 10
120.9028699784548
 20
-134.6978935752665
 30
0.0
 10
120.9028699784548
 20
-134.6978935752665
 30
0.0
 10
121.7348605381427
 20
-134.6978935752665
 30
0.0
 10
121.7348605381427
 20
-134.6978935752665
 30
0.0
 10
121.7348605381427
 20
-134.6978935752665
 30
0.0
 10
121.7348605381427
 20
-134.9030490114131
 30
0.0
 10
121.7348605381427
 20
-134.9030490114131
 30
0.0
 10
121.7348605381427
 20
-134.9030490114131
 30
0.0
 10
120.6362195878965
 20
-134.9030490114131
 30
0.0
 10
120.6362195878965
 20
-134.9030490114131
 30
0.0
 10
120.6699815236519
 20
-134.5456203548184
 30
0.0
 10
120.740261471551
 20
-134.467244432529
 30
0.0
 10
121.1516058724898
 20
-134.1690714182806
 30
0.0
 10
121.4251464540187
 20
-133.9701171540075
 30
0.0
 10
121.4950818923693
 20
-133.9024210277223
 30
0.0
 10
121.4950818923693
 20
-133.7649617178608
 30
0.0
 10
121.4950818923693
 20
-133.6464504331682
 30
0.0
 10
121.4182562630482
 20
-133.5153645499545
 30
0.0
 10
121.2081054384479
 20
-133.5153645499545
 30
0.0
 10
120.9300862327883
 20
-133.5153645499545
 30
0.0
 10
120.9211289845266
 20
-133.7458414379177
 30
0.0
 10
120.9163058508473
 20
-133.8622856653191
 30
0.0
 10
120.9163058508473
 20
-133.8622856653191
 30
0.0
 10
120.6768717146224
 20
-133.8622856653191
 30
0.0
 10
120.6768717146224
 20
-133.8622856653191
 30
0.0
 10
120.6858289628841
 20
-133.7353338966877
 30
0.0
 10
120.6971977779854
 20
-133.6231960386428
 30
0.0
 10
120.7829806555681
 20
-133.5046847539502
 30
0.0
 10
120.9008029211637
 20
-133.3439710495633
 30
0.0
 10
121.0995849306626
 20
-133.3100368590336
 30
0.0
 10
121.2239528776801
 20
-133.3100368590336
 30
0.0
 10
121.5202310894116
 20
-133.3100368590336
 30
0.0
 10
121.7417507291131
 20
-133.4941772127202
 30
0.0
 10
121.7417507291131
 20
-133.767028775152
 30
0.0
 10
121.7417507291131
 20
-133.9956108605983
 30
0.0
 10
121.6173827820956
 20
-134.0950018653478
 30
0.0
 10
121.2873426346087
 20
-134.3213446387287
 30
0.0
  0
HATCH
  5
F2
330
ED
100
AcDbEntity
  8
レイヤー 1
 62
   250
420
  2299925
440
 33554687
100
AcDbHatch
 10
0.0
 20
0.0
 30
0.0
210
0.0
220
0.0
230
1.0
  2
SOLID
 70
     1
 71
     1
 91
        1
 92
        1
 93
        1
 72
     4
 94
        3
 73
     0
 74
     0
 95
       44
 96
       40
 40
0.0
 40
0.0
 40
0.0
 40
0.0
 40
1.0
 40
1.0
 40
1.0
 40
2.0
 40
2.0
 40
2.0
 40
3.0
 40
3.0
 40
3.0
 40
4.0
 40
4.0
 40
4.0
 40
5.0
 40
5.0
 40
5.0
 40
6.0
 40
6.0
 40
6.0
 40
7.0
 40
7.0
 40
7.0
 40
8.0
 40
8.0
 40
8.0
 40
9.0
 40
9.0
 40
9.0
 40
10.0
 40
10.0
 40
10.0
 40
11.0
 40
11.0
 40
11.0
 40
12.0
 40
12.0
 40
12.0
 40
13.0
 40
13.0
 40
13.0
 40
13.0
 10
121.2873426346087
 20
-134.3213446387287
 10
121.0544541798058
 20
-134.4799912858244
 10
120.9548909202821
 20
-134.5540608387573
 10
120.9028699784548
 20
-134.6978935752665
 10
120.9028699784548
 20
-134.6978935752665
 10
121.7348605381427
 20
-134.6978935752665
 10
121.7348605381427
 20
-134.6978935752665
 10
121.7348605381427
 20
-134.6978935752665
 10
121.7348605381427
 20
-134.9030490114131
 10
121.7348605381427
 20
-134.9030490114131
 10
121.7348605381427
 20
-134.9030490114131
 10
120.6362195878965
 20
-134.9030490114131
 10
120.6362195878965
 20
-134.9030490114131
 10
120.6699815236519
 20
-134.5456203548184
 10
120.740261471551
 20
-134.467244432529
 10
121.1516058724898
 20
-134.1690714182806
 10
121.4251464540187
 20
-133.9701171540075
 10
121.4950818923693
 20
-133.9024210277223
 10
121.4950818923693
 20
-133.7649617178608
 10
121.4950818923693
 20
-133.6464504331682
 10
121.4182562630482
 20
-133.5153645499545
 10
121.2081054384479
 20
-133.5153645499545
 10
120.9300862327883
 20
-133.5153645499545
 10
120.9211289845266
 20
-133.7458414379177
 10
120.9163058508473
 20
-133.8622856653191
 10
120.9163058508473
 20
-133.8622856653191
 10
120.6768717146224
 20
-133.8622856653191
 10
120.6768717146224
 20
-133.8622856653191
 10
120.6858289628841
 20
-133.7353338966877
 10
120.6971977779854
 20
-133.6231960386428
 10
120.7829806555681
 20
-133.5046847539502
 10
120.9008029211637
 20
-133.3439710495633
 10
121.0995849306626
 20
-133.3100368590336
 10
121.2239528776801
 20
-133.3100368590336
 10
121.5202310894116
 20
-133.3100368590336
 10
121.7417507291131
 20
-133.4941772127202
 10
121.7417507291131
 20
-133.767028775152
 10
121.7417507291131
 20
-133.9956108605983
 10
121.6173827820956
 20
-134.0950018653478
 10
121.2873426346087
 20
-134.3213446387287
 97
        0
 97
        1
330
F1
 75
     2
 76
     1
 98
        1
 10
0.0
 20
0.0
450
        0
451
        0
460
0.0
461
0.0
452
        0
462
0.0
453
        0
470

  0
SPLINE
  5
F3
330
ED
100
AcDbEntity
  8
レイヤー 1
100
AcDbSpline
210
0.0
220
0.0
230
1.0
 70
     9
 71
     3
 72
    44
 73
    40
 74
     0
 42
0.0000000001
 43
0.0000000001
 40
0.0
 40
0.0
 40
0.0
 40
0.0
 40
1.0
 40
1.0
 40
1.0
 40
2.0
 40
2.0
 40
2.0
 40
3.0
 40
3.0
 40
3.0
 40
4.0
 40
4.0
 40
4.0
 40
5.0
 40
5.0
 40
5.0
 40
6.0
 40
6.0
 40
6.0
 40
7.0
 40
7.0
 40
7.0
 40
8.0
 40
8.0
 40
8.0
 40
9.0
 40
9.0
 40
9.0
 40
10.0
 40
10.0
 40
10.0
 40
11.0
 40
11.0
 40
11.0
 40
12.0
 40
12.0
 40
12.0
 40
13.0
 40
13.0
 40
13.0
 40
13.0
 10
122.5451469962734
 20
-134.3213446387287
 30
0.0
 10
122.3122585414705
 20
-134.4799912858244
 30
0.0
 10
122.2126952819468
 20
-134.5540608387573
 30
0.0
 10
122.1606743401195
 20
-134.6978935752665
 30
0.0
 10
122.1606743401195
 20
-134.6978935752665
 30
0.0
 10
122.9926648998074
 20
-134.6978935752665
 30
0.0
 10
122.9926648998074
 20
-134.6978935752665
 30
0.0
 10
122.9926648998074
 20
-134.6978935752665
 30
0.0
 10
122.9926648998074
 20
-134.9030490114131
 30
0.0
 10
122.9926648998074
 20
-134.9030490114131
 30
0.0
 10
122.9926648998074
 20
-134.9030490114131
 30
0.0
 10
121.8940239495612
 20
-134.9030490114131
 30
0.0
 10
121.8940239495612
 20
-134.9030490114131
 30
0.0
 10
121.9277858853166
 20
-134.5456203548184
 30
0.0
 10
121.9977213236672
 20
-134.467244432529
 30
0.0
 10
122.4094102341546
 20
-134.1690714182806
 30
0.0
 10
122.6829508156834
 20
-133.9701171540075
 30
0.0
 10
122.752886254034
 20
-133.9024210277223
 30
0.0
 10
122.752886254034
 20
-133.7649617178608
 30
0.0
 10
122.752886254034
 20
-133.6464504331682
 30
0.0
 10
122.6760606247129
 20
-133.5153645499545
 30
0.0
 10
122.4659098001127
 20
-133.5153645499545
 30
0.0
 10
122.187890594453
 20
-133.5153645499545
 30
0.0
 10
122.1789333461914
 20
-133.7458414379177
 30
0.0
 10
122.174110212512
 20
-133.8622856653191
 30
0.0
 10
122.174110212512
 20
-133.8622856653191
 30
0.0
 10
121.9346760762872
 20
-133.8622856653191
 30
0.0
 10
121.9346760762872
 20
-133.8622856653191
 30
0.0
 10
121.9436333245488
 20
-133.7353338966877
 30
0.0
 10
121.9550021396501
 20
-133.6231960386428
 30
0.0
 10
122.0407850172328
 20
-133.5046847539502
 30
0.0
 10
122.1582627732799
 20
-133.3439710495633
 30
0.0
 10
122.3573892923273
 20
-133.3100368590336
 30
0.0
 10
122.4817572393448
 20
-133.3100368590336
 30
0.0
 10
122.7780354510763
 20
-133.3100368590336
 30
0.0
 10
122.9995550907779
 20
-133.4941772127202
 30
0.0
 10
122.9995550907779
 20
-133.767028775152
 30
0.0
 10
122.9995550907779
 20
-133.9956108605983
 30
0.0
 10
122.8751871437604
 20
-134.0950018653478
 30
0.0
 10
122.5451469962734
 20
-134.3213446387287
 30
0.0
  0
HATCH
  5
F4
330
ED
100
AcDbEntity
  8
レイヤー 1
 62
   250
420
  2299925
440
 33554687
100
AcDbHatch
 10
0.0
 20
0.0
 30
0.0
210
0.0
220
0.0
230
1.0
  2
SOLID
 70
     1
 71
     1
 91
        1
 92
        1
 93
        1
 72
     4
 94
        3
 73
     0
 74
     0
 95
       44
 96
       40
 40
0.0
 40
0.0
 40
0.0
 40
0.0
 40
1.0
 40
1.0
 40
1.0
 40
2.0
 40
2.0
 40
2.0
 40
3.0
 40
3.0
 40
3.0
 40
4.0
 40
4.0
 40
4.0
 40
5.0
 40
5.0
 40
5.0
 40
6.0
 40
6.0
 40
6.0
 40
7.0
 40
7.0
 40
7.0
 40
8.0
 40
8.0
 40
8.0
 40
9.0
 40
9.0
 40
9.0
 40
10.0
 40
10.0
 40
10.0
 40
11.0
 40
11.0
 40
11.0
 40
12.0
 40
12.0
 40
12.0
 40
13.0
 40
13.0
 40
13.0
 40
13.0
 10
122.5451469962734
 20
-134.3213446387287
 10
122.3122585414705
 20
-134.4799912858244
 10
122.2126952819468
 20
-134.5540608387573
 10
122.1606743401195
 20
-134.6978935752665
 10
122.1606743401195
 20
-134.6978935752665
 10
122.9926648998074
 20
-134.6978935752665
 10
122.9926648998074
 20
-134.6978935752665
 10
122.9926648998074
 20
-134.6978935752665
 10
122.9926648998074
 20
-134.9030490114131
 10
122.9926648998074
 20
-134.9030490114131
 10
122.9926648998074
 20
-134.9030490114131
 10
121.8940239495612
 20
-134.9030490114131
 10
121.8940239495612
 20
-134.9030490114131
 10
121.9277858853166
 20
-134.5456203548184
 10
121.9977213236672
 20
-134.467244432529
 10
122.4094102341546
 20
-134.1690714182806
 10
122.6829508156834
 20
-133.9701171540075
 10
122.752886254034
 20
-133.9024210277223
 10
122.752886254034
 20
-133.7649617178608
 10
122.752886254034
 20
-133.6464504331682
 10
122.6760606247129
 20
-133.5153645499545
 10
122.4659098001127
 20
-133.5153645499545
 10
122.187890594453
 20
-133.5153645499545
 10
122.1789333461914
 20
-133.7458414379177
 10
122.174110212512
 20
-133.8622856653191
 10
122.174110212512
 20
-133.8622856653191
 10
121.9346760762872
 20
-133.8622856653191
 10
121.9346760762872
 20
-133.8622856653191
 10
121.9436333245488
 20
-133.7353338966877
 10
121.9550021396501
 20
-133.6231960386428
 10
122.0407850172328
 20
-133.5046847539502
 10
122.1582627732799
 20
-133.3439710495633
 10
122.3573892923273
 20
-133.3100368590336
 10
122.4817572393448
 20
-133.3100368590336
 10
122.7780354510763
 20
-133.3100368590336
 10
122.9995550907779
 20
-133.4941772127202
 10
122.9995550907779
 20
-133.767028775152
 10
122.9995550907779
 20
-133.9956108605983
 10
122.8751871437604
 20
-134.0950018653478
 10
122.5451469962734
 20
-134.3213446387287
 97
        0
 97
        1
330
F3
 75
     2
 76
     1
 98
        1
 10
0.0
 20
0.0
450
        0
451
        0
460
0.0
461
0.0
452
        0
462
0.0
453
        0
470

  0
ENDBLK
  5
F0
330
ED
100
AcDbEntity
  8
0
100
AcDbBlockEnd
  0
BLOCK
  5
F8
330
F6
100
AcDbEntity
  8
0
100
AcDbBlockBegin
  2
Block_11
 70
     0
 10
0.0
 20
0.0
 30
0.0
  3
Block_11
  1

  0
LINE
  5
FA
330
F6
100
AcDbEntity
  8
レイヤー 1
 62
   250
420
  2299925
370
     9
100
AcDbLine
 10
104.0679356378397
 20
-160.275942374006
 30
0.0
 11
94.40305949552238
 21
-160.275942374006
 31
0.0
  0
LINE
  5
FB
330
F6
100
AcDbEntity
  8
レイヤー 1
 62
   250
420
  2299925
370
     9
100
AcDbLine
 10
104.0679356378397
 20
-160.275942374006
 30
0.0
 11
107.5681613818748
 21
-160.275942374006
 31
0.0
  0
LINE
  5
FC
330
F6
100
AcDbEntity
  8
レイヤー 1
 62
   250
420
  2299925
370
     9
100
AcDbLine
 10
104.0679356378397
 20
-158.8159363001428
 30
0.0
 11
104.0679356378397
 21
-161.2760673484907
 31
0.0
  0
LINE
  5
FD
330
F6
100
AcDbEntity
  8
レイヤー 1
 62
   250
420
  2299925
370
     9
100
AcDbLine
 10
107.5681613818748
 20
-158.8159363001428
 30
0.0
 11
107.5681613818748
 21
-161.2760673484907
 31
0.0
  0
INSERT
  5
FF
330
F6
100
AcDbEntity
  8
レイヤー 1
100
AcDbBlockReference
  2
Block_12
 10
0.0
 20
0.0
 30
0.0
  0
SPLINE
  5
10C
330
F6
100
AcDbEntity
  8
レイヤー 1
 62
   250
420
  2299925
370
     9
100
AcDbSpline
210
0.0
220
0.0
230
1.0
 70
     9
 71
     3
 72
    17
 73
    13
 74
     0
 42
0.0000000001
 43
0.0000000001
 40
0.0
 40
0.0
 40
0.0
 40
0.0
 40
1.0
 40
1.0
 40
1.0
 40
2.0
 40
2.0
 40
2.0
 40
3.0
 40
3.0
 40
3.0
 40
4.0
 40
4.0
 40
4.0
 40
4.0
 10
107.6032980476451
 20
-160.275942374006
 30
0.0
 10
107.6032980476451
 20
-160.2952393179582
 30
0.0
 10
107.587458325827
 20
-160.3111143175532
 30
0.0
 10
107.5681613818748
 20
-160.3111143175532
 30
0.0
 10
107.5481601424138
 20
-160.3111143175532
 30
0.0
 10
107.532319160567
 20
-160.2952393179582
 30
0.0
 10
107.532319160567
 20
-160.275942374006
 30
0.0
 10
107.532319160567
 20
-160.256327930062
 30
0.0
 10
107.5481601424138
 20
-160.2404882082439
 30
0.0
 10
107.5681613818748
 20
-160.2404882082439
 30
0.0
 10
107.587458325827
 20
-160.2404882082439
 30
0.0
 10
107.6032980476451
 20
-160.256327930062
 30
0.0
 10
107.6032980476451
 20
-160.275942374006
 30
0.0
  0
ENDBLK
  5
F9
330
F6
100
AcDbEntity
  8
0
100
AcDbBlockEnd
  0
BLOCK
  5
100
330
FE
100
AcDbEntity
  8
0
100
AcDbBlockBegin
  2
Block_12
 70
     0
 10
0.0
 20
0.0
 30
0.0
  3
Block_12
  1

  0
INSERT
  5
103
330
FE
100
AcDbEntity
  8
レイヤー 1
100
AcDbBlockReference
  2
Block_13
 10
0.0
 20
0.0
 30
0.0
  0
ENDBLK
  5
101
330
FE
100
AcDbEntity
  8
0
100
AcDbBlockEnd
  0
BLOCK
  5
104
330
102
100
AcDbEntity
  8
0
100
AcDbBlockBegin
  2
Block_13
 70
     0
 10
0.0
 20
0.0
 30
0.0
  3
Block_13
  1

  0
SPLINE
  5
106
330
102
100
AcDbEntity
  8
レイヤー 1
100
AcDbSpline
210
0.0
220
0.0
230
1.0
 70
     9
 71
     3
 72
    62
 73
    58
 74
     0
 42
0.0000000001
 43
0.0000000001
 40
0.0
 40
0.0
 40
0.0
 40
0.0
 40
1.0
 40
1.0
 40
1.0
 40
2.0
 40
2.0
 40
2.0
 40
3.0
 40
3.0
 40
3.0
 40
4.0
 40
4.0
 40
4.0
 40
5.0
 40
5.0
 40
5.0
 40
6.0
 40
6.0
 40
6.0
 40
7.0
 40
7.0
 40
7.0
 40
8.0
 40
8.0
 40
8.0
 40
9.0
 40
9.0
 40
9.0
 40
10.0
 40
10.0
 40
10.0
 40
11.0
 40
11.0
 40
11.0
 40
12.0
 40
12.0
 40
12.0
 40
13.0
 40
13.0
 40
13.0
 40
14.0
 40
14.0
 40
14.0
 40
15.0
 40
15.0
 40
15.0
 40
16.0
 40
16.0
 40
16.0
 40
17.0
 40
17.0
 40
17.0
 40
18.0
 40
18.0
 40
18.0
 40
19.0
 40
19.0
 40
19.0
 40
19.0
 10
104.9017794876634
 20
-159.9540608324073
 30
0.0
 10
104.7999769160743
 20
-159.9540608324073
 30
0.0
 10
104.5670884612714
 20
-159.9330457499473
 30
0.0
 10
104.4337632659922
 20
-159.7466660841952
 30
0.0
 10
104.3546983246057
 20
-159.6347004809246
 30
0.0
 10
104.3500474457007
 20
-159.5351372214009
 30
0.0
 10
104.3455688215698
 20
-159.4507323820123
 30
0.0
 10
104.3455688215698
 20
-159.4507323820123
 30
0.0
 10
104.5806965884381
 20
-159.4507323820123
 30
0.0
 10
104.5806965884381
 20
-159.4507323820123
 30
0.0
 10
104.5829359005036
 20
-159.5244574253966
 30
0.0
 10
104.5943047156049
 20
-159.7594129374907
 30
0.0
 10
104.8973008635326
 20
-159.7594129374907
 30
0.0
 10
105.0442341859785
 20
-159.7594129374907
 30
0.0
 10
105.2070149476566
 20
-159.6894774991401
 30
0.0
 10
105.2070149476566
 20
-159.4610676684681
 30
0.0
 10
105.2070149476566
 20
-159.3446234410666
 30
0.0
 10
105.1661905661563
 20
-159.2960475947246
 30
0.0
 10
105.1324286304009
 20
-159.2643527162603
 30
0.0
 10
105.0531914342401
 20
-159.1902831633274
 30
0.0
 10
104.9288234872226
 20
-159.177536310032
 30
0.0
 10
104.8700846091991
 20
-159.177536310032
 30
0.0
 10
104.8497585458362
 20
-159.177536310032
 30
0.0
 10
104.8113457311756
 20
-159.1799478768717
 30
0.0
 10
104.7818901647767
 20
-159.184081991454
 30
0.0
 10
104.7818901647767
 20
-159.184081991454
 30
0.0
 10
104.7818901647767
 20
-158.9894340965373
 30
0.0
 10
104.7818901647767
 20
-158.9894340965373
 30
0.0
 10
104.8225422915027
 20
-158.9956352684108
 30
0.0
 10
104.8678452971337
 20
-158.9977023257019
 30
0.0
 10
104.8745632333299
 20
-158.9977023257019
 30
0.0
 10
104.9446709264548
 20
-158.9977023257019
 30
0.0
 10
105.1572333178947
 20
-158.9766872432419
 30
0.0
 10
105.1572333178947
 20
-158.7396646738567
 30
0.0
 10
105.1572333178947
 20
-158.5618977468178
 30
0.0
 10
105.017017931645
 20
-158.5071207286024
 30
0.0
 10
104.899540175598
 20
-158.5071207286024
 30
0.0
 10
104.6168700910333
 20
-158.5071207286024
 30
0.0
 10
104.6079128427716
 20
-158.7396646738567
 30
0.0
 10
104.6032619638665
 20
-158.8116671694985
 30
0.0
 10
104.6032619638665
 20
-158.8116671694985
 30
0.0
 10
104.3862209482958
 20
-158.8116671694985
 30
0.0
 10
104.3862209482958
 20
-158.8116671694985
 30
0.0
 10
104.3953504513317
 20
-158.6869547129324
 30
0.0
 10
104.4246337629563
 20
-158.3104057763946
 30
0.0
 10
104.9129760479905
 20
-158.3104057763946
 30
0.0
 10
105.1527546937639
 20
-158.3104057763946
 30
0.0
 10
105.4104478360606
 20
-158.4371852902518
 30
0.0
 10
105.4104478360606
 20
-158.7334635019833
 30
0.0
 10
105.4104478360606
 20
-158.9194986581868
 30
0.0
 10
105.3086452644714
 20
-159.0021809498328
 30
0.0
 10
105.2023640687515
 20
-159.0635036494702
 30
0.0
 10
105.2679931377455
 20
-159.0910644133522
 30
0.0
 10
105.4624687778878
 20
-159.1713351381585
 30
0.0
 10
105.4624687778878
 20
-159.4483208151726
 30
0.0
 10
105.4624687778878
 20
-159.7869737013727
 30
0.0
 10
105.1978854446206
 20
-159.9540608324073
 30
0.0
 10
104.9017794876634
 20
-159.9540608324073
 30
0.0
  0
HATCH
  5
107
330
102
100
AcDbEntity
  8
レイヤー 1
 62
   250
420
  2299925
440
 33554687
100
AcDbHatch
 10
0.0
 20
0.0
 30
0.0
210
0.0
220
0.0
230
1.0
  2
SOLID
 70
     1
 71
     1
 91
        1
 92
        1
 93
        1
 72
     4
 94
        3
 73
     0
 74
     0
 95
       62
 96
       58
 40
0.0
 40
0.0
 40
0.0
 40
0.0
 40
1.0
 40
1.0
 40
1.0
 40
2.0
 40
2.0
 40
2.0
 40
3.0
 40
3.0
 40
3.0
 40
4.0
 40
4.0
 40
4.0
 40
5.0
 40
5.0
 40
5.0
 40
6.0
 40
6.0
 40
6.0
 40
7.0
 40
7.0
 40
7.0
 40
8.0
 40
8.0
 40
8.0
 40
9.0
 40
9.0
 40
9.0
 40
10.0
 40
10.0
 40
10.0
 40
11.0
 40
11.0
 40
11.0
 40
12.0
 40
12.0
 40
12.0
 40
13.0
 40
13.0
 40
13.0
 40
14.0
 40
14.0
 40
14.0
 40
15.0
 40
15.0
 40
15.0
 40
16.0
 40
16.0
 40
16.0
 40
17.0
 40
17.0
 40
17.0
 40
18.0
 40
18.0
 40
18.0
 40
19.0
 40
19.0
 40
19.0
 40
19.0
 10
104.9017794876634
 20
-159.9540608324073
 10
104.7999769160743
 20
-159.9540608324073
 10
104.5670884612714
 20
-159.9330457499473
 10
104.4337632659922
 20
-159.7466660841952
 10
104.3546983246057
 20
-159.6347004809246
 10
104.3500474457007
 20
-159.5351372214009
 10
104.3455688215698
 20
-159.4507323820123
 10
104.3455688215698
 20
-159.4507323820123
 10
104.5806965884381
 20
-159.4507323820123
 10
104.5806965884381
 20
-159.4507323820123
 10
104.5829359005036
 20
-159.5244574253966
 10
104.5943047156049
 20
-159.7594129374907
 10
104.8973008635326
 20
-159.7594129374907
 10
105.0442341859785
 20
-159.7594129374907
 10
105.2070149476566
 20
-159.6894774991401
 10
105.2070149476566
 20
-159.4610676684681
 10
105.2070149476566
 20
-159.3446234410666
 10
105.1661905661563
 20
-159.2960475947246
 10
105.1324286304009
 20
-159.2643527162603
 10
105.0531914342401
 20
-159.1902831633274
 10
104.9288234872226
 20
-159.177536310032
 10
104.8700846091991
 20
-159.177536310032
 10
104.8497585458362
 20
-159.177536310032
 10
104.8113457311756
 20
-159.1799478768717
 10
104.7818901647767
 20
-159.184081991454
 10
104.7818901647767
 20
-159.184081991454
 10
104.7818901647767
 20
-158.9894340965373
 10
104.7818901647767
 20
-158.9894340965373
 10
104.8225422915027
 20
-158.9956352684108
 10
104.8678452971337
 20
-158.9977023257019
 10
104.8745632333299
 20
-158.9977023257019
 10
104.9446709264548
 20
-158.9977023257019
 10
105.1572333178947
 20
-158.9766872432419
 10
105.1572333178947
 20
-158.7396646738567
 10
105.1572333178947
 20
-158.5618977468178
 10
105.017017931645
 20
-158.5071207286024
 10
104.899540175598
 20
-158.5071207286024
 10
104.6168700910333
 20
-158.5071207286024
 10
104.6079128427716
 20
-158.7396646738567
 10
104.6032619638665
 20
-158.8116671694985
 10
104.6032619638665
 20
-158.8116671694985
 10
104.3862209482958
 20
-158.8116671694985
 10
104.3862209482958
 20
-158.8116671694985
 10
104.3953504513317
 20
-158.6869547129324
 10
104.4246337629563
 20
-158.3104057763946
 10
104.9129760479905
 20
-158.3104057763946
 10
105.1527546937639
 20
-158.3104057763946
 10
105.4104478360606
 20
-158.4371852902518
 10
105.4104478360606
 20
-158.7334635019833
 10
105.4104478360606
 20
-158.9194986581868
 10
105.3086452644714
 20
-159.0021809498328
 10
105.2023640687515
 20
-159.0635036494702
 10
105.2679931377455
 20
-159.0910644133522
 10
105.4624687778878
 20
-159.1713351381585
 10
105.4624687778878
 20
-159.4483208151726
 10
105.4624687778878
 20
-159.7869737013727
 10
105.1978854446206
 20
-159.9540608324073
 10
104.9017794876634
 20
-159.9540608324073
 97
        0
 97
        1
330
106
 75
     2
 76
     1
 98
        1
 10
0.0
 20
0.0
450
        0
451
        0
460
0.0
461
0.0
452
        0
462
0.0
453
        0
470

  0
SPLINE
  5
108
330
102
100
AcDbEntity
  8
レイヤー 1
100
AcDbSpline
210
0.0
220
0.0
230
1.0
 70
    11
 71
     3
 72
    17
 73
    13
 74
     0
 42
0.0000000001
 43
0.0000000001
 40
0.0
 40
0.0
 40
0.0
 40
0.0
 40
1.0
 40
1.0
 40
1.0
 40
2.0
 40
2.0
 40
2.0
 40
3.0
 40
3.0
 40
3.0
 40
4.0
 40
4.0
 40
4.0
 40
4.0
 10
105.6982855638532
 20
-159.9034179287741
 30
0.0
 10
105.6982855638532
 20
-159.9034179287741
 30
0.0
 10
105.6982855638532
 20
-159.6515814488024
 30
0.0
 10
105.6982855638532
 20
-159.6515814488024
 30
0.0
 10
105.6982855638532
 20
-159.6515814488024
 30
0.0
 10
105.9673475212512
 20
-159.6515814488024
 30
0.0
 10
105.9673475212512
 20
-159.6515814488024
 30
0.0
 10
105.9673475212512
 20
-159.6515814488024
 30
0.0
 10
105.9673475212512
 20
-159.9034179287741
 30
0.0
 10
105.9673475212512
 20
-159.9034179287741
 30
0.0
 10
105.9673475212512
 20
-159.9034179287741
 30
0.0
 10
105.6982855638532
 20
-159.9034179287741
 30
0.0
 10
105.6982855638532
 20
-159.9034179287741
 30
0.0
  0
HATCH
  5
109
330
102
100
AcDbEntity
  8
レイヤー 1
 62
   250
420
  2299925
440
 33554687
100
AcDbHatch
 10
0.0
 20
0.0
 30
0.0
210
0.0
220
0.0
230
1.0
  2
SOLID
 70
     1
 71
     1
 91
        1
 92
        1
 93
        1
 72
     4
 94
        3
 73
     0
 74
     0
 95
       17
 96
       13
 40
0.0
 40
0.0
 40
0.0
 40
0.0
 40
1.0
 40
1.0
 40
1.0
 40
2.0
 40
2.0
 40
2.0
 40
3.0
 40
3.0
 40
3.0
 40
4.0
 40
4.0
 40
4.0
 40
4.0
 10
105.6982855638532
 20
-159.9034179287741
 10
105.6982855638532
 20
-159.9034179287741
 10
105.6982855638532
 20
-159.6515814488024
 10
105.6982855638532
 20
-159.6515814488024
 10
105.6982855638532
 20
-159.6515814488024
 10
105.9673475212512
 20
-159.6515814488024
 10
105.9673475212512
 20
-159.6515814488024
 10
105.9673475212512
 20
-159.6515814488024
 10
105.9673475212512
 20
-159.9034179287741
 10
105.9673475212512
 20
-159.9034179287741
 10
105.9673475212512
 20
-159.9034179287741
 10
105.6982855638532
 20
-159.9034179287741
 10
105.6982855638532
 20
-159.9034179287741
 97
        0
 97
        1
330
108
 75
     2
 76
     1
 98
        1
 10
0.0
 20
0.0
450
        0
451
        0
460
0.0
461
0.0
452
        0
462
0.0
453
        0
470

  0
SPLINE
  5
10A
330
102
100
AcDbEntity
  8
レイヤー 1
100
AcDbSpline
210
0.0
220
0.0
230
1.0
 70
     9
 71
     3
 72
    53
 73
    49
 74
     0
 42
0.0000000001
 43
0.0000000001
 40
0.0
 40
0.0
 40
0.0
 40
0.0
 40
1.0
 40
1.0
 40
1.0
 40
2.0
 40
2.0
 40
2.0
 40
3.0
 40
3.0
 40
3.0
 40
4.0
 40
4.0
 40
4.0
 40
5.0
 40
5.0
 40
5.0
 40
6.0
 40
6.0
 40
6.0
 40
7.0
 40
7.0
 40
7.0
 40
8.0
 40
8.0
 40
8.0
 40
9.0
 40
9.0
 40
9.0
 40
10.0
 40
10.0
 40
10.0
 40
11.0
 40
11.0
 40
11.0
 40
12.0
 40
12.0
 40
12.0
 40
13.0
 40
13.0
 40
13.0
 40
14.0
 40
14.0
 40
14.0
 40
15.0
 40
15.0
 40
15.0
 40
16.0
 40
16.0
 40
16.0
 40
16.0
 10
106.7342257762678
 20
-159.9540608324073
 30
0.0
 10
106.6505099559762
 20
-159.9540608324073
 30
0.0
 10
106.5419894481909
 20
-159.9371798645296
 30
0.0
 10
106.4334689404055
 20
-159.873790107601
 30
0.0
 10
106.2481228032991
 20
-159.763547052073
 30
0.0
 10
106.2253851730964
 20
-159.6326334236335
 30
0.0
 10
106.2050591097335
 20
-159.5244574253966
 30
0.0
 10
106.2050591097335
 20
-159.5244574253966
 30
0.0
 10
106.4424261886671
 20
-159.5244574253966
 30
0.0
 10
106.4424261886671
 20
-159.5244574253966
 30
0.0
 10
106.5013373214649
 20
-159.7235839444441
 30
0.0
 10
106.6367295740352
 20
-159.7532117656172
 30
0.0
 10
106.736292833559
 20
-159.7532117656172
 30
0.0
 10
106.8854654680703
 20
-159.7532117656172
 30
0.0
 10
107.0484184845226
 20
-159.6536485060935
 30
0.0
 10
107.0484184845226
 20
-159.4211045608392
 30
0.0
 10
107.0484184845226
 20
-159.1651339662851
 30
0.0
 10
106.8561821564457
 20
-159.0951985279345
 30
0.0
 10
106.7273355852973
 20
-159.0951985279345
 30
0.0
 10
106.6932291399933
 20
-159.0951985279345
 30
0.0
 10
106.5419894481909
 20
-159.0951985279345
 30
0.0
 10
106.446904812798
 20
-159.2240450990829
 30
0.0
 10
106.446904812798
 20
-159.2240450990829
 30
0.0
 10
106.2591471088519
 20
-159.205097073914
 30
0.0
 10
106.2591471088519
 20
-159.205097073914
 30
0.0
 10
106.2591471088519
 20
-159.205097073914
 30
0.0
 10
106.3883381895487
 20
-158.3589816227366
 30
0.0
 10
106.3883381895487
 20
-158.3589816227366
 30
0.0
 10
106.3883381895487
 20
-158.3589816227366
 30
0.0
 10
107.2203287492366
 20
-158.3589816227366
 30
0.0
 10
107.2203287492366
 20
-158.3589816227366
 30
0.0
 10
107.2203287492366
 20
-158.3589816227366
 30
0.0
 10
107.2203287492366
 20
-158.5536295176532
 30
0.0
 10
107.2203287492366
 20
-158.5536295176532
 30
0.0
 10
107.2203287492366
 20
-158.5536295176532
 30
0.0
 10
106.5623155115539
 20
-158.5536295176532
 30
0.0
 10
106.5623155115539
 20
-158.5536295176532
 30
0.0
 10
106.5623155115539
 20
-158.5536295176532
 30
0.0
 10
106.4920355636547
 20
-158.9766872432419
 30
0.0
 10
106.4920355636547
 20
-158.9766872432419
 30
0.0
 10
106.557836887423
 20
-158.9429253074865
 30
0.0
 10
106.6460313318454
 20
-158.9026176903091
 30
0.0
 10
106.7724663361541
 20
-158.9026176903091
 30
0.0
 10
107.0439398603918
 20
-158.9026176903091
 30
0.0
 10
107.2971543785576
 20
-159.0886528465125
 30
0.0
 10
107.2971543785576
 20
-159.4018120261218
 30
0.0
 10
107.2971543785576
 20
-159.7191053203133
 30
0.0
 10
107.0573757327842
 20
-159.9540608324073
 30
0.0
 10
106.7342257762678
 20
-159.9540608324073
 30
0.0
  0
HATCH
  5
10B
330
102
100
AcDbEntity
  8
レイヤー 1
 62
   250
420
  2299925
440
 33554687
100
AcDbHatch
 10
0.0
 20
0.0
 30
0.0
210
0.0
220
0.0
230
1.0
  2
SOLID
 70
     1
 71
     1
 91
        1
 92
        1
 93
        1
 72
     4
 94
        3
 73
     0
 74
     0
 95
       53
 96
       49
 40
0.0
 40
0.0
 40
0.0
 40
0.0
 40
1.0
 40
1.0
 40
1.0
 40
2.0
 40
2.0
 40
2.0
 40
3.0
 40
3.0
 40
3.0
 40
4.0
 40
4.0
 40
4.0
 40
5.0
 40
5.0
 40
5.0
 40
6.0
 40
6.0
 40
6.0
 40
7.0
 40
7.0
 40
7.0
 40
8.0
 40
8.0
 40
8.0
 40
9.0
 40
9.0
 40
9.0
 40
10.0
 40
10.0
 40
10.0
 40
11.0
 40
11.0
 40
11.0
 40
12.0
 40
12.0
 40
12.0
 40
13.0
 40
13.0
 40
13.0
 40
14.0
 40
14.0
 40
14.0
 40
15.0
 40
15.0
 40
15.0
 40
16.0
 40
16.0
 40
16.0
 40
16.0
 10
106.7342257762678
 20
-159.9540608324073
 10
106.6505099559762
 20
-159.9540608324073
 10
106.5419894481909
 20
-159.9371798645296
 10
106.4334689404055
 20
-159.873790107601
 10
106.2481228032991
 20
-159.763547052073
 10
106.2253851730964
 20
-159.6326334236335
 10
106.2050591097335
 20
-159.5244574253966
 10
106.2050591097335
 20
-159.5244574253966
 10
106.4424261886671
 20
-159.5244574253966
 10
106.4424261886671
 20
-159.5244574253966
 10
106.5013373214649
 20
-159.7235839444441
 10
106.6367295740352
 20
-159.7532117656172
 10
106.736292833559
 20
-159.7532117656172
 10
106.8854654680703
 20
-159.7532117656172
 10
107.0484184845226
 20
-159.6536485060935
 10
107.0484184845226
 20
-159.4211045608392
 10
107.0484184845226
 20
-159.1651339662851
 10
106.8561821564457
 20
-159.0951985279345
 10
106.7273355852973
 20
-159.0951985279345
 10
106.6932291399933
 20
-159.0951985279345
 10
106.5419894481909
 20
-159.0951985279345
 10
106.446904812798
 20
-159.2240450990829
 10
106.446904812798
 20
-159.2240450990829
 10
106.2591471088519
 20
-159.205097073914
 10
106.2591471088519
 20
-159.205097073914
 10
106.2591471088519
 20
-159.205097073914
 10
106.3883381895487
 20
-158.3589816227366
 10
106.3883381895487
 20
-158.3589816227366
 10
106.3883381895487
 20
-158.3589816227366
 10
107.2203287492366
 20
-158.3589816227366
 10
107.2203287492366
 20
-158.3589816227366
 10
107.2203287492366
 20
-158.3589816227366
 10
107.2203287492366
 20
-158.5536295176532
 10
107.2203287492366
 20
-158.5536295176532
 10
107.2203287492366
 20
-158.5536295176532
 10
106.5623155115539
 20
-158.5536295176532
 10
106.5623155115539
 20
-158.5536295176532
 10
106.5623155115539
 20
-158.5536295176532
 10
106.4920355636547
 20
-158.9766872432419
 10
106.4920355636547
 20
-158.9766872432419
 10
106.557836887423
 20
-158.9429253074865
 10
106.6460313318454
 20
-158.9026176903091
 10
106.7724663361541
 20
-158.9026176903091
 10
107.0439398603918
 20
-158.9026176903091
 10
107.2971543785576
 20
-159.0886528465125
 10
107.2971543785576
 20
-159.4018120261218
 10
107.2971543785576
 20
-159.7191053203133
 10
107.0573757327842
 20
-159.9540608324073
 10
106.7342257762678
 20
-159.9540608324073
 97
        0
 97
        1
330
10A
 75
     2
 76
     1
 98
        1
 10
0.0
 20
0.0
450
        0
451
        0
460
0.0
461
0.0
452
        0
462
0.0
453
        0
470

  0
ENDBLK
  5
105
330
102
100
AcDbEntity
  8
0
100
AcDbBlockEnd
  0
BLOCK
  5
10F
330
10D
100
AcDbEntity
  8
0
100
AcDbBlockBegin
  2
Block_14
 70
     0
 10
0.0
 20
0.0
 30
0.0
  3
Block_14
  1

  0
LINE
  5
111
330
10D
100
AcDbEntity
  8
レイヤー 1
 62
   250
420
  2299925
370
     9
100
AcDbLine
 10
99.81805713515205
 20
-164.2760542163991
 30
0.0
 11
111.8180398845625
 21
-164.2760542163991
 31
0.0
  0
LINE
  5
112
330
10D
100
AcDbEntity
  8
レイヤー 1
 62
   250
420
  2299925
370
     9
100
AcDbLine
 10
99.81805713515205
 20
-157.8158113256581
 30
0.0
 11
99.81805713515205
 21
-165.275826413115
 31
0.0
  0
LINE
  5
113
330
10D
100
AcDbEntity
  8
レイヤー 1
 62
   250
420
  2299925
370
     9
100
AcDbLine
 10
111.8180398845625
 20
-157.8158113256581
 30
0.0
 11
111.8180398845625
 21
-165.275826413115
 31
0.0
  0
INSERT
  5
115
330
10D
100
AcDbEntity
  8
レイヤー 1
100
AcDbBlockReference
  2
Block_15
 10
0.0
 20
0.0
 30
0.0
  0
SPLINE
  5
120
330
10D
100
AcDbEntity
  8
レイヤー 1
 62
   250
420
  2299925
370
     9
100
AcDbSpline
210
0.0
220
0.0
230
1.0
 70
     9
 71
     3
 72
    17
 73
    13
 74
     0
 42
0.0000000001
 43
0.0000000001
 40
0.0
 40
0.0
 40
0.0
 40
0.0
 40
1.0
 40
1.0
 40
1.0
 40
2.0
 40
2.0
 40
2.0
 40
3.0
 40
3.0
 40
3.0
 40
4.0
 40
4.0
 40
4.0
 40
4.0
 10
111.8531765503328
 20
-164.2760542163991
 30
0.0
 10
111.8531765503328
 20
-164.2953478586287
 30
0.0
 10
111.8373368285147
 20
-164.3111908821694
 30
0.0
 10
111.8180398845625
 20
-164.3111908821694
 30
0.0
 10
111.7987429406104
 20
-164.3111908821694
 30
0.0
 10
111.7829045857999
 20
-164.2953478586287
 30
0.0
 10
111.7829045857999
 20
-164.2760542163991
 30
0.0
 10
111.7829045857999
 20
-164.2564397724551
 30
0.0
 10
111.7987429406104
 20
-164.2405647728601
 30
0.0
 10
111.8180398845625
 20
-164.2405647728601
 30
0.0
 10
111.8373368285147
 20
-164.2405647728601
 30
0.0
 10
111.8531765503328
 20
-164.2564397724551
 30
0.0
 10
111.8531765503328
 20
-164.2760542163991
 30
0.0
  0
ENDBLK
  5
110
330
10D
100
AcDbEntity
  8
0
100
AcDbBlockEnd
  0
BLOCK
  5
116
330
114
100
AcDbEntity
  8
0
100
AcDbBlockBegin
  2
Block_15
 70
     0
 10
0.0
 20
0.0
 30
0.0
  3
Block_15
  1

  0
INSERT
  5
119
330
114
100
AcDbEntity
  8
レイヤー 1
100
AcDbBlockReference
  2
Block_16
 10
0.0
 20
0.0
 30
0.0
  0
ENDBLK
  5
117
330
114
100
AcDbEntity
  8
0
100
AcDbBlockEnd
  0
BLOCK
  5
11A
330
118
100
AcDbEntity
  8
0
100
AcDbBlockBegin
  2
Block_16
 70
     0
 10
0.0
 20
0.0
 30
0.0
  3
Block_16
  1

  0
SPLINE
  5
11C
330
118
100
AcDbEntity
  8
レイヤー 1
100
AcDbSpline
210
0.0
220
0.0
230
1.0
 70
    11
 71
     3
 72
    26
 73
    22
 74
     0
 42
0.0000000001
 43
0.0000000001
 40
0.0
 40
0.0
 40
0.0
 40
0.0
 40
1.0
 40
1.0
 40
1.0
 40
2.0
 40
2.0
 40
2.0
 40
3.0
 40
3.0
 40
3.0
 40
4.0
 40
4.0
 40
4.0
 40
5.0
 40
5.0
 40
5.0
 40
6.0
 40
6.0
 40
6.0
 40
7.0
 40
7.0
 40
7.0
 40
7.0
 10
105.1362182354347
 20
-163.9031737871492
 30
0.0
 10
105.1362182354347
 20
-163.9031737871492
 30
0.0
 10
105.1362182354347
 20
-162.7986761745781
 30
0.0
 10
105.1362182354347
 20
-162.7986761745781
 30
0.0
 10
105.1362182354347
 20
-162.7986761745781
 30
0.0
 10
104.7834404577451
 20
-162.7986761745781
 30
0.0
 10
104.7834404577451
 20
-162.7986761745781
 30
0.0
 10
104.7834404577451
 20
-162.7986761745781
 30
0.0
 10
104.7834404577451
 20
-162.6505370687123
 30
0.0
 10
104.7834404577451
 20
-162.6505370687123
 30
0.0
 10
105.1384575475001
 20
-162.6357231581257
 30
0.0
 10
105.1880669224877
 20
-162.473114651222
 30
0.0
 10
105.219761800952
 20
-162.3587374811117
 30
0.0
 10
105.219761800952
 20
-162.3587374811117
 30
0.0
 10
105.3758246264338
 20
-162.3587374811117
 30
0.0
 10
105.3758246264338
 20
-162.3587374811117
 30
0.0
 10
105.3758246264338
 20
-162.3587374811117
 30
0.0
 10
105.3758246264338
 20
-163.9031737871492
 30
0.0
 10
105.3758246264338
 20
-163.9031737871492
 30
0.0
 10
105.3758246264338
 20
-163.9031737871492
 30
0.0
 10
105.1362182354347
 20
-163.9031737871492
 30
0.0
 10
105.1362182354347
 20
-163.9031737871492
 30
0.0
  0
HATCH
  5
11D
330
118
100
AcDbEntity
  8
レイヤー 1
 62
   250
420
  2299925
440
 33554687
100
AcDbHatch
 10
0.0
 20
0.0
 30
0.0
210
0.0
220
0.0
230
1.0
  2
SOLID
 70
     1
 71
     1
 91
        1
 92
        1
 93
        1
 72
     4
 94
        3
 73
     0
 74
     0
 95
       26
 96
       22
 40
0.0
 40
0.0
 40
0.0
 40
0.0
 40
1.0
 40
1.0
 40
1.0
 40
2.0
 40
2.0
 40
2.0
 40
3.0
 40
3.0
 40
3.0
 40
4.0
 40
4.0
 40
4.0
 40
5.0
 40
5.0
 40
5.0
 40
6.0
 40
6.0
 40
6.0
 40
7.0
 40
7.0
 40
7.0
 40
7.0
 10
105.1362182354347
 20
-163.9031737871492
 10
105.1362182354347
 20
-163.9031737871492
 10
105.1362182354347
 20
-162.7986761745781
 10
105.1362182354347
 20
-162.7986761745781
 10
105.1362182354347
 20
-162.7986761745781
 10
104.7834404577451
 20
-162.7986761745781
 10
104.7834404577451
 20
-162.7986761745781
 10
104.7834404577451
 20
-162.7986761745781
 10
104.7834404577451
 20
-162.6505370687123
 10
104.7834404577451
 20
-162.6505370687123
 10
105.1384575475001
 20
-162.6357231581257
 10
105.1880669224877
 20
-162.473114651222
 10
105.219761800952
 20
-162.3587374811117
 10
105.219761800952
 20
-162.3587374811117
 10
105.3758246264338
 20
-162.3587374811117
 10
105.3758246264338
 20
-162.3587374811117
 10
105.3758246264338
 20
-162.3587374811117
 10
105.3758246264338
 20
-163.9031737871492
 10
105.3758246264338
 20
-163.9031737871492
 10
105.3758246264338
 20
-163.9031737871492
 10
105.1362182354347
 20
-163.9031737871492
 10
105.1362182354347
 20
-163.9031737871492
 97
        0
 97
        1
330
11C
 75
     2
 76
     1
 98
        1
 10
0.0
 20
0.0
450
        0
451
        0
460
0.0
461
0.0
452
        0
462
0.0
453
        0
470

  0
SPLINE
  5
11E
330
118
100
AcDbEntity
  8
レイヤー 1
100
AcDbSpline
210
0.0
220
0.0
230
1.0
 70
     9
 71
     3
 72
    44
 73
    40
 74
     0
 42
0.0000000001
 43
0.0000000001
 40
0.0
 40
0.0
 40
0.0
 40
0.0
 40
1.0
 40
1.0
 40
1.0
 40
2.0
 40
2.0
 40
2.0
 40
3.0
 40
3.0
 40
3.0
 40
4.0
 40
4.0
 40
4.0
 40
5.0
 40
5.0
 40
5.0
 40
6.0
 40
6.0
 40
6.0
 40
7.0
 40
7.0
 40
7.0
 40
8.0
 40
8.0
 40
8.0
 40
9.0
 40
9.0
 40
9.0
 40
10.0
 40
10.0
 40
10.0
 40
11.0
 40
11.0
 40
11.0
 40
12.0
 40
12.0
 40
12.0
 40
13.0
 40
13.0
 40
13.0
 40
13.0
 10
106.5454345436761
 20
-163.3212971596905
 30
0.0
 10
106.3125460888732
 20
-163.479771552012
 30
0.0
 10
106.2129828293495
 20
-163.5538411049449
 30
0.0
 10
106.1609618875222
 20
-163.6978460962283
 30
0.0
 10
106.1609618875222
 20
-163.6978460962283
 30
0.0
 10
106.9929524472101
 20
-163.6978460962283
 30
0.0
 10
106.9929524472101
 20
-163.6978460962283
 30
0.0
 10
106.9929524472101
 20
-163.6978460962283
 30
0.0
 10
106.9929524472101
 20
-163.9031737871492
 30
0.0
 10
106.9929524472101
 20
-163.9031737871492
 30
0.0
 10
106.9929524472101
 20
-163.9031737871492
 30
0.0
 10
105.8943114969639
 20
-163.9031737871492
 30
0.0
 10
105.8943114969639
 20
-163.9031737871492
 30
0.0
 10
105.9280734327193
 20
-163.5455728757803
 30
0.0
 10
105.9983533806184
 20
-163.4673692082651
 30
0.0
 10
106.4096977815573
 20
-163.1690239392424
 30
0.0
 10
106.6832383630861
 20
-162.9702419297435
 30
0.0
 10
106.7535183109852
 20
-162.9023735486841
 30
0.0
 10
106.7535183109852
 20
-162.7649142388226
 30
0.0
 10
106.7535183109852
 20
-162.6464029541301
 30
0.0
 10
106.6766926816641
 20
-162.515144816142
 30
0.0
 10
106.4661973475154
 20
-162.515144816142
 30
0.0
 10
106.1881781418557
 20
-162.515144816142
 30
0.0
 10
106.1792208935941
 20
-162.7459662136538
 30
0.0
 10
106.1747422694632
 20
-162.8620659315067
 30
0.0
 10
106.1747422694632
 20
-162.8620659315067
 30
0.0
 10
105.9349636236899
 20
-162.8620659315067
 30
0.0
 10
105.9349636236899
 20
-162.8620659315067
 30
0.0
 10
105.9439208719515
 20
-162.7352864176495
 30
0.0
 10
105.9552896870528
 20
-162.6233208143789
 30
0.0
 10
106.0410725646355
 20
-162.5048095296863
 30
0.0
 10
106.1588948302311
 20
-162.3439235705251
 30
0.0
 10
106.35767683973
 20
-162.3101616347697
 30
0.0
 10
106.4820447867475
 20
-162.3101616347697
 30
0.0
 10
106.778322998479
 20
-162.3101616347697
 30
0.0
 10
106.9998426381806
 20
-162.494129733682
 30
0.0
 10
106.9998426381806
 20
-162.7669812961138
 30
0.0
 10
106.9998426381806
 20
-162.9953911267858
 30
0.0
 10
106.875474691163
 20
-163.0949543863096
 30
0.0
 10
106.5454345436761
 20
-163.3212971596905
 30
0.0
  0
HATCH
  5
11F
330
118
100
AcDbEntity
  8
レイヤー 1
 62
   250
420
  2299925
440
 33554687
100
AcDbHatch
 10
0.0
 20
0.0
 30
0.0
210
0.0
220
0.0
230
1.0
  2
SOLID
 70
     1
 71
     1
 91
        1
 92
        1
 93
        1
 72
     4
 94
        3
 73
     0
 74
     0
 95
       44
 96
       40
 40
0.0
 40
0.0
 40
0.0
 40
0.0
 40
1.0
 40
1.0
 40
1.0
 40
2.0
 40
2.0
 40
2.0
 40
3.0
 40
3.0
 40
3.0
 40
4.0
 40
4.0
 40
4.0
 40
5.0
 40
5.0
 40
5.0
 40
6.0
 40
6.0
 40
6.0
 40
7.0
 40
7.0
 40
7.0
 40
8.0
 40
8.0
 40
8.0
 40
9.0
 40
9.0
 40
9.0
 40
10.0
 40
10.0
 40
10.0
 40
11.0
 40
11.0
 40
11.0
 40
12.0
 40
12.0
 40
12.0
 40
13.0
 40
13.0
 40
13.0
 40
13.0
 10
106.5454345436761
 20
-163.3212971596905
 10
106.3125460888732
 20
-163.479771552012
 10
106.2129828293495
 20
-163.5538411049449
 10
106.1609618875222
 20
-163.6978460962283
 10
106.1609618875222
 20
-163.6978460962283
 10
106.9929524472101
 20
-163.6978460962283
 10
106.9929524472101
 20
-163.6978460962283
 10
106.9929524472101
 20
-163.6978460962283
 10
106.9929524472101
 20
-163.9031737871492
 10
106.9929524472101
 20
-163.9031737871492
 10
106.9929524472101
 20
-163.9031737871492
 10
105.8943114969639
 20
-163.9031737871492
 10
105.8943114969639
 20
-163.9031737871492
 10
105.9280734327193
 20
-163.5455728757803
 10
105.9983533806184
 20
-163.4673692082651
 10
106.4096977815573
 20
-163.1690239392424
 10
106.6832383630861
 20
-162.9702419297435
 10
106.7535183109852
 20
-162.9023735486841
 10
106.7535183109852
 20
-162.7649142388226
 10
106.7535183109852
 20
-162.6464029541301
 10
106.6766926816641
 20
-162.515144816142
 10
106.4661973475154
 20
-162.515144816142
 10
106.1881781418557
 20
-162.515144816142
 10
106.1792208935941
 20
-162.7459662136538
 10
106.1747422694632
 20
-162.8620659315067
 10
106.1747422694632
 20
-162.8620659315067
 10
105.9349636236899
 20
-162.8620659315067
 10
105.9349636236899
 20
-162.8620659315067
 10
105.9439208719515
 20
-162.7352864176495
 10
105.9552896870528
 20
-162.6233208143789
 10
106.0410725646355
 20
-162.5048095296863
 10
106.1588948302311
 20
-162.3439235705251
 10
106.35767683973
 20
-162.3101616347697
 10
106.4820447867475
 20
-162.3101616347697
 10
106.778322998479
 20
-162.3101616347697
 10
106.9998426381806
 20
-162.494129733682
 10
106.9998426381806
 20
-162.7669812961138
 10
106.9998426381806
 20
-162.9953911267858
 10
106.875474691163
 20
-163.0949543863096
 10
106.5454345436761
 20
-163.3212971596905
 97
        0
 97
        1
330
11E
 75
     2
 76
     1
 98
        1
 10
0.0
 20
0.0
450
        0
451
        0
460
0.0
461
0.0
452
        0
462
0.0
453
        0
470

  0
ENDBLK
  5
11B
330
118
100
AcDbEntity
  8
0
100
AcDbBlockEnd
  0
BLOCK
  5
123
330
121
100
AcDbEntity
  8
0
100
AcDbBlockBegin
  2
Block_17
 70
     0
 10
0.0
 20
0.0
 30
0.0
  3
Block_17
  1

  0
LINE
  5
125
330
121
100
AcDbEntity
  8
レイヤー 1
 62
   250
420
  2299925
370
     9
100
AcDbLine
 10
111.8180398845625
 20
-164.2760542163991
 30
0.0
 11
120.8180004882877
 21
-164.2760542163991
 31
0.0
  0
LINE
  5
126
330
121
100
AcDbEntity
  8
レイヤー 1
 62
   250
420
  2299925
370
     9
100
AcDbLine
 10
120.8180004882877
 20
-158.8159363001428
 30
0.0
 11
120.8180004882877
 21
-165.275826413115
 31
0.0
  0
INSERT
  5
128
330
121
100
AcDbEntity
  8
レイヤー 1
100
AcDbBlockReference
  2
Block_18
 10
0.0
 20
0.0
 30
0.0
  0
SPLINE
  5
12E
330
121
100
AcDbEntity
  8
レイヤー 1
 62
   250
420
  2299925
370
     9
100
AcDbSpline
210
0.0
220
0.0
230
1.0
 70
     9
 71
     3
 72
    17
 73
    13
 74
     0
 42
0.0000000001
 43
0.0000000001
 40
0.0
 40
0.0
 40
0.0
 40
0.0
 40
1.0
 40
1.0
 40
1.0
 40
2.0
 40
2.0
 40
2.0
 40
3.0
 40
3.0
 40
3.0
 40
4.0
 40
4.0
 40
4.0
 40
4.0
 10
120.853137154058
 20
-164.2760542163991
 30
0.0
 10
120.853137154058
 20
-164.2953478586287
 30
0.0
 10
120.8372990279811
 20
-164.3111908821694
 30
0.0
 10
120.8180004882877
 20
-164.3111908821694
 30
0.0
 10
120.7987035443356
 20
-164.3111908821694
 30
0.0
 10
120.7828638225175
 20
-164.2953478586287
 30
0.0
 10
120.7828638225175
 20
-164.2760542163991
 30
0.0
 10
120.7828638225175
 20
-164.2564397724551
 30
0.0
 10
120.7987035443356
 20
-164.2405647728601
 30
0.0
 10
120.8180004882877
 20
-164.2405647728601
 30
0.0
 10
120.8372990279811
 20
-164.2405647728601
 30
0.0
 10
120.853137154058
 20
-164.2564397724551
 30
0.0
 10
120.853137154058
 20
-164.2760542163991
 30
0.0
  0
ENDBLK
  5
124
330
121
100
AcDbEntity
  8
0
100
AcDbBlockEnd
  0
BLOCK
  5
129
330
127
100
AcDbEntity
  8
0
100
AcDbBlockBegin
  2
Block_18
 70
     0
 10
0.0
 20
0.0
 30
0.0
  3
Block_18
  1

  0
SPLINE
  5
12B
330
127
100
AcDbEntity
  8
レイヤー 1
100
AcDbSpline
210
0.0
220
0.0
230
1.0
 70
     9
 71
     3
 72
    17
 73
    13
 74
     0
 42
0.0000000001
 43
0.0000000001
 40
0.0
 40
0.0
 40
0.0
 40
0.0
 40
1.0
 40
1.0
 40
1.0
 40
2.0
 40
2.0
 40
2.0
 40
3.0
 40
3.0
 40
3.0
 40
4.0
 40
4.0
 40
4.0
 40
4.0
 10
116.3143473016506
 20
-162.5023979628466
 30
0.0
 10
116.1875677877934
 20
-162.5023979628466
 30
0.0
 10
116.0001545933958
 20
-162.5595865479017
 30
0.0
 10
116.0001545933958
 20
-162.845184963629
 30
0.0
 10
116.0001545933958
 20
-163.0715277370099
 30
0.0
 10
116.1493272279071
 20
-163.1669568819513
 30
0.0
 10
116.2940212382876
 20
-163.1669568819513
 30
0.0
 10
116.5744520107869
 20
-163.1669568819513
 30
0.0
 10
116.6151041375129
 20
-162.9574950764481
 30
0.0
 10
116.6151041375129
 20
-162.8410508490467
 30
0.0
 10
116.6151041375129
 20
-162.6653509792989
 30
0.0
 10
116.5131293111495
 20
-162.5023979628466
 30
0.0
 10
116.3143473016506
 20
-162.5023979628466
 30
0.0
  0
SPLINE
  5
12C
330
127
100
AcDbEntity
  8
レイヤー 1
100
AcDbSpline
210
0.0
220
0.0
230
1.0
 70
     9
 71
     3
 72
    32
 73
    28
 74
     0
 42
0.0000000001
 43
0.0000000001
 40
0.0
 40
0.0
 40
0.0
 40
0.0
 40
1.0
 40
1.0
 40
1.0
 40
2.0
 40
2.0
 40
2.0
 40
3.0
 40
3.0
 40
3.0
 40
4.0
 40
4.0
 40
4.0
 40
5.0
 40
5.0
 40
5.0
 40
6.0
 40
6.0
 40
6.0
 40
7.0
 40
7.0
 40
7.0
 40
8.0
 40
8.0
 40
8.0
 40
9.0
 40
9.0
 40
9.0
 40
9.0
 10
116.2712836080849
 20
-163.9538166907824
 30
0.0
 10
116.0859374709785
 20
-163.9538166907824
 30
0.0
 10
115.823765704551
 20
-163.8838812524318
 30
0.0
 10
115.783113577825
 20
-163.5517740476537
 30
0.0
 10
115.783113577825
 20
-163.5517740476537
 30
0.0
 10
116.0111788989486
 20
-163.5517740476537
 30
0.0
 10
116.0111788989486
 20
-163.5517740476537
 30
0.0
 10
116.0225477140499
 20
-163.61102969
 30
0.0
 10
116.0566541593539
 20
-163.7591687958658
 30
0.0
 10
116.2736951749246
 20
-163.7591687958658
 30
0.0
 10
116.5854763163397
 20
-163.7591687958658
 30
0.0
 10
116.6261284430657
 20
-163.4291286483788
 30
0.0
 10
116.6399088250067
 20
-163.2238009574579
 30
0.0
 10
116.5427571323226
 20
-163.3044161918128
 30
0.0
 10
116.4704101271324
 20
-163.3616047768679
 30
0.0
 10
116.2757622322158
 20
-163.3616047768679
 30
0.0
 10
116.0835259041388
 20
-163.3616047768679
 30
0.0
 10
115.7603759476224
 20
-163.2558403454708
 30
0.0
 10
115.7603759476224
 20
-162.8496635877598
 30
0.0
 10
115.7603759476224
 20
-162.5299587267286
 30
0.0
 10
115.9729383390623
 20
-162.3101616347697
 30
0.0
 10
116.3119357348109
 20
-162.3101616347697
 30
0.0
 10
116.8614284647082
 20
-162.3101616347697
 30
0.0
 10
116.8727972798096
 20
-162.8644774983464
 30
0.0
 10
116.8727972798096
 20
-163.0780734184319
 30
0.0
 10
116.8727972798096
 20
-163.3085503063951
 30
0.0
 10
116.8524712164466
 20
-163.9538166907824
 30
0.0
 10
116.2712836080849
 20
-163.9538166907824
 30
0.0
  0
HATCH
  5
12D
330
127
100
AcDbEntity
  8
レイヤー 1
 62
   250
420
  2299925
440
 33554687
100
AcDbHatch
 10
0.0
 20
0.0
 30
0.0
210
0.0
220
0.0
230
1.0
  2
SOLID
 70
     1
 71
     1
 91
        2
 92
        1
 93
        1
 72
     4
 94
        3
 73
     0
 74
     0
 95
       17
 96
       13
 40
0.0
 40
0.0
 40
0.0
 40
0.0
 40
1.0
 40
1.0
 40
1.0
 40
2.0
 40
2.0
 40
2.0
 40
3.0
 40
3.0
 40
3.0
 40
4.0
 40
4.0
 40
4.0
 40
4.0
 10
116.3143473016506
 20
-162.5023979628466
 10
116.1875677877934
 20
-162.5023979628466
 10
116.0001545933958
 20
-162.5595865479017
 10
116.0001545933958
 20
-162.845184963629
 10
116.0001545933958
 20
-163.0715277370099
 10
116.1493272279071
 20
-163.1669568819513
 10
116.2940212382876
 20
-163.1669568819513
 10
116.5744520107869
 20
-163.1669568819513
 10
116.6151041375129
 20
-162.9574950764481
 10
116.6151041375129
 20
-162.8410508490467
 10
116.6151041375129
 20
-162.6653509792989
 10
116.5131293111495
 20
-162.5023979628466
 10
116.3143473016506
 20
-162.5023979628466
 97
        0
 97
        1
330
12B
 92
        1
 93
        1
 72
     4
 94
        3
 73
     0
 74
     0
 95
       32
 96
       28
 40
0.0
 40
0.0
 40
0.0
 40
0.0
 40
1.0
 40
1.0
 40
1.0
 40
2.0
 40
2.0
 40
2.0
 40
3.0
 40
3.0
 40
3.0
 40
4.0
 40
4.0
 40
4.0
 40
5.0
 40
5.0
 40
5.0
 40
6.0
 40
6.0
 40
6.0
 40
7.0
 40
7.0
 40
7.0
 40
8.0
 40
8.0
 40
8.0
 40
9.0
 40
9.0
 40
9.0
 40
9.0
 10
116.2712836080849
 20
-163.9538166907824
 10
116.0859374709785
 20
-163.9538166907824
 10
115.823765704551
 20
-163.8838812524318
 10
115.783113577825
 20
-163.5517740476537
 10
115.783113577825
 20
-163.5517740476537
 10
116.0111788989486
 20
-163.5517740476537
 10
116.0111788989486
 20
-163.5517740476537
 10
116.0225477140499
 20
-163.61102969
 10
116.0566541593539
 20
-163.7591687958658
 10
116.2736951749246
 20
-163.7591687958658
 10
116.5854763163397
 20
-163.7591687958658
 10
116.6261284430657
 20
-163.4291286483788
 10
116.6399088250067
 20
-163.2238009574579
 10
116.5427571323226
 20
-163.3044161918128
 10
116.4704101271324
 20
-163.3616047768679
 10
116.2757622322158
 20
-163.3616047768679
 10
116.0835259041388
 20
-163.3616047768679
 10
115.7603759476224
 20
-163.2558403454708
 10
115.7603759476224
 20
-162.8496635877598
 10
115.7603759476224
 20
-162.5299587267286
 10
115.9729383390623
 20
-162.3101616347697
 10
116.3119357348109
 20
-162.3101616347697
 10
116.8614284647082
 20
-162.3101616347697
 10
116.8727972798096
 20
-162.8644774983464
 10
116.8727972798096
 20
-163.0780734184319
 10
116.8727972798096
 20
-163.3085503063951
 10
116.8524712164466
 20
-163.9538166907824
 10
116.2712836080849
 20
-163.9538166907824
 97
        0
 97
        1
330
12C
 75
     2
 76
     1
 98
        1
 10
0.0
 20
0.0
450
        0
451
        0
460
0.0
461
0.0
452
        0
462
0.0
453
        0
470

  0
ENDBLK
  5
12A
330
127
100
AcDbEntity
  8
0
100
AcDbBlockEnd
  0
BLOCK
  5
131
330
12F
100
AcDbEntity
  8
0
100
AcDbBlockBegin
  2
Block_19
 70
     0
 10
0.0
 20
0.0
 30
0.0
  3
Block_19
  1

  0
LINE
  5
133
330
12F
100
AcDbEntity
  8
レイヤー 1
 62
   250
420
  2299925
370
     9
100
AcDbLine
 10
99.81805713515205
 20
-164.2760542163991
 30
0.0
 11
90.81809736881906
 21
-164.2760542163991
 31
0.0
  0
LINE
  5
134
330
12F
100
AcDbEntity
  8
レイヤー 1
 62
   250
420
  2299925
370
     9
100
AcDbLine
 10
90.81809736881906
 20
-158.8159363001428
 30
0.0
 11
90.81809736881906
 21
-165.275826413115
 31
0.0
  0
INSERT
  5
136
330
12F
100
AcDbEntity
  8
レイヤー 1
100
AcDbBlockReference
  2
Block_20
 10
0.0
 20
0.0
 30
0.0
  0
SPLINE
  5
13C
330
12F
100
AcDbEntity
  8
レイヤー 1
 62
   250
420
  2299925
370
     9
100
AcDbSpline
210
0.0
220
0.0
230
1.0
 70
     9
 71
     3
 72
    17
 73
    13
 74
     0
 42
0.0000000001
 43
0.0000000001
 40
0.0
 40
0.0
 40
0.0
 40
0.0
 40
1.0
 40
1.0
 40
1.0
 40
2.0
 40
2.0
 40
2.0
 40
3.0
 40
3.0
 40
3.0
 40
4.0
 40
4.0
 40
4.0
 40
4.0
 10
90.85323403547679
 20
-164.2760542163991
 30
0.0
 10
90.85323403547679
 20
-164.2953478586287
 30
0.0
 10
90.83739431325858
 20
-164.3111908821694
 30
0.0
 10
90.81809736881906
 20
-164.3111908821694
 30
0.0
 10
90.79813014660187
 20
-164.3111908821694
 30
0.0
 10
90.78229042438366
 20
-164.2953478586287
 30
0.0
 10
90.78229042438366
 20
-164.2760542163991
 30
0.0
 10
90.78229042438366
 20
-164.2564397724551
 30
0.0
 10
90.79813014660187
 20
-164.2405647728601
 30
0.0
 10
90.81809736881906
 20
-164.2405647728601
 30
0.0
 10
90.83739431325858
 20
-164.2405647728601
 30
0.0
 10
90.85323403547679
 20
-164.2564397724551
 30
0.0
 10
90.85323403547679
 20
-164.2760542163991
 30
0.0
  0
ENDBLK
  5
132
330
12F
100
AcDbEntity
  8
0
100
AcDbBlockEnd
  0
BLOCK
  5
137
330
135
100
AcDbEntity
  8
0
100
AcDbBlockBegin
  2
Block_20
 70
     0
 10
0.0
 20
0.0
 30
0.0
  3
Block_20
  1

  0
SPLINE
  5
139
330
135
100
AcDbEntity
  8
レイヤー 1
100
AcDbSpline
210
0.0
220
0.0
230
1.0
 70
     9
 71
     3
 72
    17
 73
    13
 74
     0
 42
0.0000000001
 43
0.0000000001
 40
0.0
 40
0.0
 40
0.0
 40
0.0
 40
1.0
 40
1.0
 40
1.0
 40
2.0
 40
2.0
 40
2.0
 40
3.0
 40
3.0
 40
3.0
 40
4.0
 40
4.0
 40
4.0
 40
4.0
 10
95.31511228085873
 20
-162.5023979628466
 30
0.0
 10
95.18850502177579
 20
-162.5023979628466
 30
0.0
 10
95.00091957260394
 20
-162.5595865479017
 30
0.0
 10
95.00091957260394
 20
-162.845184963629
 30
0.0
 10
95.00091957260394
 20
-163.0715277370099
 30
0.0
 10
95.15009220711526
 20
-163.1669568819513
 30
0.0
 10
95.29478621749575
 20
-163.1669568819513
 30
0.0
 10
95.57521698999508
 20
-163.1669568819513
 30
0.0
 10
95.61586911672105
 20
-162.9574950764481
 30
0.0
 10
95.61586911672105
 20
-162.8410508490467
 30
0.0
 10
95.61586911672105
 20
-162.6653509792989
 30
0.0
 10
95.51406654513192
 20
-162.5023979628466
 30
0.0
 10
95.31511228085873
 20
-162.5023979628466
 30
0.0
  0
SPLINE
  5
13A
330
135
100
AcDbEntity
  8
レイヤー 1
100
AcDbSpline
210
0.0
220
0.0
230
1.0
 70
     9
 71
     3
 72
    32
 73
    28
 74
     0
 42
0.0000000001
 43
0.0000000001
 40
0.0
 40
0.0
 40
0.0
 40
0.0
 40
1.0
 40
1.0
 40
1.0
 40
2.0
 40
2.0
 40
2.0
 40
3.0
 40
3.0
 40
3.0
 40
4.0
 40
4.0
 40
4.0
 40
5.0
 40
5.0
 40
5.0
 40
6.0
 40
6.0
 40
6.0
 40
7.0
 40
7.0
 40
7.0
 40
8.0
 40
8.0
 40
8.0
 40
9.0
 40
9.0
 40
9.0
 40
9.0
 10
95.27222084206737
 20
-163.9538166907824
 30
0.0
 10
95.08687470496091
 20
-163.9538166907824
 30
0.0
 10
94.82453068375916
 20
-163.8838812524318
 30
0.0
 10
94.78387855703321
 20
-163.5517740476537
 30
0.0
 10
94.78387855703321
 20
-163.5517740476537
 30
0.0
 10
95.01211613293099
 20
-163.5517740476537
 30
0.0
 10
95.01211613293099
 20
-163.5517740476537
 30
0.0
 10
95.02348494803234
 20
-163.61102969
 30
0.0
 10
95.05741913856203
 20
-163.7591687958658
 30
0.0
 10
95.27446015413278
 20
-163.7591687958658
 30
0.0
 10
95.58641355032214
 20
-163.7591687958658
 30
0.0
 10
95.62706567704809
 20
-163.4291286483788
 30
0.0
 10
95.64067380421484
 20
-163.2238009574579
 30
0.0
 10
95.54352211153078
 20
-163.3044161918128
 30
0.0
 10
95.47117510634054
 20
-163.3616047768679
 30
0.0
 10
95.2766994661982
 20
-163.3616047768679
 30
0.0
 10
95.08446313812125
 20
-163.3616047768679
 30
0.0
 10
94.76131318160481
 20
-163.2558403454708
 30
0.0
 10
94.76131318160481
 20
-162.8496635877598
 30
0.0
 10
94.76131318160481
 20
-162.5299587267286
 30
0.0
 10
94.97370331827047
 20
-162.3101616347697
 30
0.0
 10
95.31287296879332
 20
-162.3101616347697
 30
0.0
 10
95.8621934439164
 20
-162.3101616347697
 30
0.0
 10
95.87356225901773
 20
-162.8644774983464
 30
0.0
 10
95.87356225901773
 20
-163.0780734184319
 30
0.0
 10
95.87356225901773
 20
-163.3085503063951
 30
0.0
 10
95.85323619565475
 20
-163.9538166907824
 30
0.0
 10
95.27222084206737
 20
-163.9538166907824
 30
0.0
  0
HATCH
  5
13B
330
135
100
AcDbEntity
  8
レイヤー 1
 62
   250
420
  2299925
440
 33554687
100
AcDbHatch
 10
0.0
 20
0.0
 30
0.0
210
0.0
220
0.0
230
1.0
  2
SOLID
 70
     1
 71
     1
 91
        2
 92
        1
 93
        1
 72
     4
 94
        3
 73
     0
 74
     0
 95
       17
 96
       13
 40
0.0
 40
0.0
 40
0.0
 40
0.0
 40
1.0
 40
1.0
 40
1.0
 40
2.0
 40
2.0
 40
2.0
 40
3.0
 40
3.0
 40
3.0
 40
4.0
 40
4.0
 40
4.0
 40
4.0
 10
95.31511228085873
 20
-162.5023979628466
 10
95.18850502177579
 20
-162.5023979628466
 10
95.00091957260394
 20
-162.5595865479017
 10
95.00091957260394
 20
-162.845184963629
 10
95.00091957260394
 20
-163.0715277370099
 10
95.15009220711526
 20
-163.1669568819513
 10
95.29478621749575
 20
-163.1669568819513
 10
95.57521698999508
 20
-163.1669568819513
 10
95.61586911672105
 20
-162.9574950764481
 10
95.61586911672105
 20
-162.8410508490467
 10
95.61586911672105
 20
-162.6653509792989
 10
95.51406654513192
 20
-162.5023979628466
 10
95.31511228085873
 20
-162.5023979628466
 97
        0
 97
        1
330
139
 92
        1
 93
        1
 72
     4
 94
        3
 73
     0
 74
     0
 95
       32
 96
       28
 40
0.0
 40
0.0
 40
0.0
 40
0.0
 40
1.0
 40
1.0
 40
1.0
 40
2.0
 40
2.0
 40
2.0
 40
3.0
 40
3.0
 40
3.0
 40
4.0
 40
4.0
 40
4.0
 40
5.0
 40
5.0
 40
5.0
 40
6.0
 40
6.0
 40
6.0
 40
7.0
 40
7.0
 40
7.0
 40
8.0
 40
8.0
 40
8.0
 40
9.0
 40
9.0
 40
9.0
 40
9.0
 10
95.27222084206737
 20
-163.9538166907824
 10
95.08687470496091
 20
-163.9538166907824
 10
94.82453068375916
 20
-163.8838812524318
 10
94.78387855703321
 20
-163.5517740476537
 10
94.78387855703321
 20
-163.5517740476537
 10
95.01211613293099
 20
-163.5517740476537
 10
95.01211613293099
 20
-163.5517740476537
 10
95.02348494803234
 20
-163.61102969
 10
95.05741913856203
 20
-163.7591687958658
 10
95.27446015413278
 20
-163.7591687958658
 10
95.58641355032214
 20
-163.7591687958658
 10
95.62706567704809
 20
-163.4291286483788
 10
95.64067380421484
 20
-163.2238009574579
 10
95.54352211153078
 20
-163.3044161918128
 10
95.47117510634054
 20
-163.3616047768679
 10
95.2766994661982
 20
-163.3616047768679
 10
95.08446313812125
 20
-163.3616047768679
 10
94.76131318160481
 20
-163.2558403454708
 10
94.76131318160481
 20
-162.8496635877598
 10
94.76131318160481
 20
-162.5299587267286
 10
94.97370331827047
 20
-162.3101616347697
 10
95.31287296879332
 20
-162.3101616347697
 10
95.8621934439164
 20
-162.3101616347697
 10
95.87356225901773
 20
-162.8644774983464
 10
95.87356225901773
 20
-163.0780734184319
 10
95.87356225901773
 20
-163.3085503063951
 10
95.85323619565475
 20
-163.9538166907824
 10
95.27222084206737
 20
-163.9538166907824
 97
        0
 97
        1
330
13A
 75
     2
 76
     1
 98
        1
 10
0.0
 20
0.0
450
        0
451
        0
460
0.0
461
0.0
452
        0
462
0.0
453
        0
470

  0
ENDBLK
  5
138
330
135
100
AcDbEntity
  8
0
100
AcDbBlockEnd
  0
BLOCK
  5
13F
330
13D
100
AcDbEntity
  8
0
100
AcDbBlockBegin
  2
Block_21
 70
     0
 10
0.0
 20
0.0
 30
0.0
  3
Block_21
  1

  0
LINE
  5
141
330
13D
100
AcDbEntity
  8
レイヤー 1
 62
   250
420
  2299925
370
     9
100
AcDbLine
 10
136.8177070245456
 20
-153.2758789414814
 30
0.0
 11
136.8177070245456
 21
-156.2758658093898
 31
0.0
  0
LINE
  5
142
330
13D
100
AcDbEntity
  8
レイヤー 1
 62
   250
420
  2299925
370
     9
100
AcDbLine
 10
123.3577182012719
 20
-153.2758789414814
 30
0.0
 11
137.8181494990222
 21
-153.2758789414814
 31
0.0
  0
LINE
  5
143
330
13D
100
AcDbEntity
  8
レイヤー 1
 62
   250
420
  2299925
370
     9
100
AcDbLine
 10
123.3577182012719
 20
-156.2758658093898
 30
0.0
 11
137.8181494990222
 21
-156.2758658093898
 31
0.0
  0
INSERT
  5
145
330
13D
100
AcDbEntity
  8
レイヤー 1
100
AcDbBlockReference
  2
Block_22
 10
0.0
 20
0.0
 30
0.0
  0
SPLINE
  5
14A
330
13D
100
AcDbEntity
  8
レイヤー 1
 62
   250
420
  2299925
370
     9
100
AcDbSpline
210
0.0
220
0.0
230
1.0
 70
     9
 71
     3
 72
    17
 73
    13
 74
     0
 42
0.0000000001
 43
0.0000000001
 40
0.0
 40
0.0
 40
0.0
 40
0.0
 40
1.0
 40
1.0
 40
1.0
 40
2.0
 40
2.0
 40
2.0
 40
3.0
 40
3.0
 40
3.0
 40
4.0
 40
4.0
 40
4.0
 40
4.0
 10
136.8535492458535
 20
-156.2758658093898
 30
0.0
 10
136.8535492458535
 20
-156.2954802533338
 30
0.0
 10
136.8376742462585
 20
-156.3113552529288
 30
0.0
 10
136.8177070245456
 20
-156.3113552529288
 30
0.0
 10
136.7984100805935
 20
-156.3113552529288
 30
0.0
 10
136.7825703587754
 20
-156.2954802533338
 30
0.0
 10
136.7825703587754
 20
-156.2758658093898
 30
0.0
 10
136.7825703587754
 20
-156.2565688654377
 30
0.0
 10
136.7984100805935
 20
-156.2407256384201
 30
0.0
 10
136.8177070245456
 20
-156.2407256384201
 30
0.0
 10
136.8376742462585
 20
-156.2407256384201
 30
0.0
 10
136.8535492458535
 20
-156.2565688654377
 30
0.0
 10
136.8535492458535
 20
-156.2758658093898
 30
0.0
  0
ENDBLK
  5
140
330
13D
100
AcDbEntity
  8
0
100
AcDbBlockEnd
  0
BLOCK
  5
146
330
144
100
AcDbEntity
  8
0
100
AcDbBlockBegin
  2
Block_22
 70
     0
 10
0.0
 20
0.0
 30
0.0
  3
Block_22
  1

  0
SPLINE
  5
148
330
144
100
AcDbEntity
  8
レイヤー 1
100
AcDbSpline
210
0.0
220
0.0
230
1.0
 70
     9
 71
     3
 72
    62
 73
    58
 74
     0
 42
0.0000000001
 43
0.0000000001
 40
0.0
 40
0.0
 40
0.0
 40
0.0
 40
1.0
 40
1.0
 40
1.0
 40
2.0
 40
2.0
 40
2.0
 40
3.0
 40
3.0
 40
3.0
 40
4.0
 40
4.0
 40
4.0
 40
5.0
 40
5.0
 40
5.0
 40
6.0
 40
6.0
 40
6.0
 40
7.0
 40
7.0
 40
7.0
 40
8.0
 40
8.0
 40
8.0
 40
9.0
 40
9.0
 40
9.0
 40
10.0
 40
10.0
 40
10.0
 40
11.0
 40
11.0
 40
11.0
 40
12.0
 40
12.0
 40
12.0
 40
13.0
 40
13.0
 40
13.0
 40
14.0
 40
14.0
 40
14.0
 40
15.0
 40
15.0
 40
15.0
 40
16.0
 40
16.0
 40
16.0
 40
17.0
 40
17.0
 40
17.0
 40
18.0
 40
18.0
 40
18.0
 40
19.0
 40
19.0
 40
19.0
 40
19.0
 10
136.4953721446956
 20
-154.785384075887
 30
0.0
 10
136.4953721446956
 20
-154.8870143927018
 30
0.0
 10
136.4743570622356
 20
-155.1199028475047
 30
0.0
 10
136.2879773964835
 20
-155.2532280427839
 30
0.0
 10
136.1760117932129
 20
-155.3324652389447
 30
0.0
 10
136.0764485336892
 20
-155.3369438630755
 30
0.0
 10
135.9916991847521
 20
-155.3414224872063
 30
0.0
 10
135.9916991847521
 20
-155.3414224872063
 30
0.0
 10
135.9916991847521
 20
-155.1061224655637
 30
0.0
 10
135.9916991847521
 20
-155.1061224655637
 30
0.0
 10
136.0657687376849
 20
-155.1040554082726
 30
0.0
 10
136.300724249779
 20
-155.0926865931713
 30
0.0
 10
136.300724249779
 20
-154.7898627000178
 30
0.0
 10
136.300724249779
 20
-154.6427571227976
 30
0.0
 10
136.2307888114284
 20
-154.4801486158938
 30
0.0
 10
136.0023789807563
 20
-154.4801486158938
 30
0.0
 10
135.8859347533549
 20
-154.4801486158938
 30
0.0
 10
135.8373589070129
 20
-154.5208007426198
 30
0.0
 10
135.8056640285486
 20
-154.5545626783752
 30
0.0
 10
135.7315944756157
 20
-154.633799874536
 30
0.0
 10
135.7188476223203
 20
-154.7581678215535
 30
0.0
 10
135.7188476223203
 20
-154.8167344448027
 30
0.0
 10
135.7188476223203
 20
-154.8374050177143
 30
0.0
 10
135.7209146796114
 20
-154.8756455776005
 30
0.0
 10
135.7253933037422
 20
-154.9049288892252
 30
0.0
 10
135.7253933037422
 20
-154.9049288892252
 30
0.0
 10
135.5307454088256
 20
-154.9049288892252
 30
0.0
 10
135.5307454088256
 20
-154.9049288892252
 30
0.0
 10
135.5369465806991
 20
-154.8642767624992
 30
0.0
 10
135.5390136379902
 20
-154.8191460116424
 30
0.0
 10
135.5390136379902
 20
-154.8122558206719
 30
0.0
 10
135.5390136379902
 20
-154.7423203823213
 30
0.0
 10
135.5179985555302
 20
-154.5297579908814
 30
0.0
 10
135.280975986145
 20
-154.5297579908814
 30
0.0
 10
135.1032090591061
 20
-154.5297579908814
 30
0.0
 10
135.0484320408906
 20
-154.6699733771311
 30
0.0
 10
135.0484320408906
 20
-154.7874511331781
 30
0.0
 10
135.0484320408906
 20
-155.0699489629686
 30
0.0
 10
135.280975986145
 20
-155.0792507207788
 30
0.0
 10
135.3529784817867
 20
-155.0837293449096
 30
0.0
 10
135.3529784817867
 20
-155.0837293449096
 30
0.0
 10
135.3529784817867
 20
-155.3007703604803
 30
0.0
 10
135.3529784817867
 20
-155.3007703604803
 30
0.0
 10
135.2282660252207
 20
-155.2918131122187
 30
0.0
 10
134.8517170886829
 20
-155.2621852910455
 30
0.0
 10
134.8517170886829
 20
-154.7740152607856
 30
0.0
 10
134.8517170886829
 20
-154.5342366150123
 30
0.0
 10
134.9784966025401
 20
-154.2765434727156
 30
0.0
 10
135.2747748142716
 20
-154.2765434727156
 30
0.0
 10
135.4608099704751
 20
-154.2765434727156
 30
0.0
 10
135.5434922621211
 20
-154.3781737895304
 30
0.0
 10
135.6048149617585
 20
-154.4846272400246
 30
0.0
 10
135.6323757256405
 20
-154.4188259162564
 30
0.0
 10
135.7126464504468
 20
-154.2245225308883
 30
0.0
 10
135.9896321274609
 20
-154.2245225308883
 30
0.0
 10
136.328285013661
 20
-154.2245225308883
 30
0.0
 10
136.4953721446956
 20
-154.4891058641555
 30
0.0
 10
136.4953721446956
 20
-154.785384075887
 30
0.0
  0
HATCH
  5
149
330
144
100
AcDbEntity
  8
レイヤー 1
 62
   250
420
  2299925
440
 33554687
100
AcDbHatch
 10
0.0
 20
0.0
 30
0.0
210
0.0
220
0.0
230
1.0
  2
SOLID
 70
     1
 71
     1
 91
        1
 92
        1
 93
        1
 72
     4
 94
        3
 73
     0
 74
     0
 95
       62
 96
       58
 40
0.0
 40
0.0
 40
0.0
 40
0.0
 40
1.0
 40
1.0
 40
1.0
 40
2.0
 40
2.0
 40
2.0
 40
3.0
 40
3.0
 40
3.0
 40
4.0
 40
4.0
 40
4.0
 40
5.0
 40
5.0
 40
5.0
 40
6.0
 40
6.0
 40
6.0
 40
7.0
 40
7.0
 40
7.0
 40
8.0
 40
8.0
 40
8.0
 40
9.0
 40
9.0
 40
9.0
 40
10.0
 40
10.0
 40
10.0
 40
11.0
 40
11.0
 40
11.0
 40
12.0
 40
12.0
 40
12.0
 40
13.0
 40
13.0
 40
13.0
 40
14.0
 40
14.0
 40
14.0
 40
15.0
 40
15.0
 40
15.0
 40
16.0
 40
16.0
 40
16.0
 40
17.0
 40
17.0
 40
17.0
 40
18.0
 40
18.0
 40
18.0
 40
19.0
 40
19.0
 40
19.0
 40
19.0
 10
136.4953721446956
 20
-154.785384075887
 10
136.4953721446956
 20
-154.8870143927018
 10
136.4743570622356
 20
-155.1199028475047
 10
136.2879773964835
 20
-155.2532280427839
 10
136.1760117932129
 20
-155.3324652389447
 10
136.0764485336892
 20
-155.3369438630755
 10
135.9916991847521
 20
-155.3414224872063
 10
135.9916991847521
 20
-155.3414224872063
 10
135.9916991847521
 20
-155.1061224655637
 10
135.9916991847521
 20
-155.1061224655637
 10
136.0657687376849
 20
-155.1040554082726
 10
136.300724249779
 20
-155.0926865931713
 10
136.300724249779
 20
-154.7898627000178
 10
136.300724249779
 20
-154.6427571227976
 10
136.2307888114284
 20
-154.4801486158938
 10
136.0023789807563
 20
-154.4801486158938
 10
135.8859347533549
 20
-154.4801486158938
 10
135.8373589070129
 20
-154.5208007426198
 10
135.8056640285486
 20
-154.5545626783752
 10
135.7315944756157
 20
-154.633799874536
 10
135.7188476223203
 20
-154.7581678215535
 10
135.7188476223203
 20
-154.8167344448027
 10
135.7188476223203
 20
-154.8374050177143
 10
135.7209146796114
 20
-154.8756455776005
 10
135.7253933037422
 20
-154.9049288892252
 10
135.7253933037422
 20
-154.9049288892252
 10
135.5307454088256
 20
-154.9049288892252
 10
135.5307454088256
 20
-154.9049288892252
 10
135.5369465806991
 20
-154.8642767624992
 10
135.5390136379902
 20
-154.8191460116424
 10
135.5390136379902
 20
-154.8122558206719
 10
135.5390136379902
 20
-154.7423203823213
 10
135.5179985555302
 20
-154.5297579908814
 10
135.280975986145
 20
-154.5297579908814
 10
135.1032090591061
 20
-154.5297579908814
 10
135.0484320408906
 20
-154.6699733771311
 10
135.0484320408906
 20
-154.7874511331781
 10
135.0484320408906
 20
-155.0699489629686
 10
135.280975986145
 20
-155.0792507207788
 10
135.3529784817867
 20
-155.0837293449096
 10
135.3529784817867
 20
-155.0837293449096
 10
135.3529784817867
 20
-155.3007703604803
 10
135.3529784817867
 20
-155.3007703604803
 10
135.2282660252207
 20
-155.2918131122187
 10
134.8517170886829
 20
-155.2621852910455
 10
134.8517170886829
 20
-154.7740152607856
 10
134.8517170886829
 20
-154.5342366150123
 10
134.9784966025401
 20
-154.2765434727156
 10
135.2747748142716
 20
-154.2765434727156
 10
135.4608099704751
 20
-154.2765434727156
 10
135.5434922621211
 20
-154.3781737895304
 10
135.6048149617585
 20
-154.4846272400246
 10
135.6323757256405
 20
-154.4188259162564
 10
135.7126464504468
 20
-154.2245225308883
 10
135.9896321274609
 20
-154.2245225308883
 10
136.328285013661
 20
-154.2245225308883
 10
136.4953721446956
 20
-154.4891058641555
 10
136.4953721446956
 20
-154.785384075887
 97
        0
 97
        1
330
148
 75
     2
 76
     1
 98
        1
 10
0.0
 20
0.0
450
        0
451
        0
460
0.0
461
0.0
452
        0
462
0.0
453
        0
470

  0
ENDBLK
  5
147
330
144
100
AcDbEntity
  8
0
100
AcDbBlockEnd
  0
BLOCK
  5
14D
330
14B
100
AcDbEntity
  8
0
100
AcDbBlockBegin
  2
Block_23
 70
     0
 10
0.0
 20
0.0
 30
0.0
  3
Block_23
  1

  0
LINE
  5
14F
330
14B
100
AcDbEntity
  8
レイヤー 1
 62
   250
420
  2299925
370
     9
100
AcDbLine
 10
136.8177070245456
 20
-139.275995087106
 30
0.0
 11
136.8177070245456
 21
-135.505686617059
 31
0.0
  0
LINE
  5
150
330
14B
100
AcDbEntity
  8
レイヤー 1
 62
   250
420
  2299925
370
     9
100
AcDbLine
 10
136.8177070245456
 20
-140.2757673090782
 30
0.0
 11
136.8177070245456
 21
-139.275995087106
 31
0.0
  0
LINE
  5
151
330
14B
100
AcDbEntity
  8
レイヤー 1
 62
   250
420
  2299925
370
     9
100
AcDbLine
 10
135.3576656729055
 20
-139.275995087106
 30
0.0
 11
137.8181494990222
 21
-139.275995087106
 31
0.0
  0
INSERT
  5
153
330
14B
100
AcDbEntity
  8
レイヤー 1
100
AcDbBlockReference
  2
Block_24
 10
0.0
 20
0.0
 30
0.0
  0
SPLINE
  5
158
330
14B
100
AcDbEntity
  8
レイヤー 1
 62
   250
420
  2299925
370
     9
100
AcDbSpline
210
0.0
220
0.0
230
1.0
 70
     9
 71
     3
 72
    17
 73
    13
 74
     0
 42
0.0000000001
 43
0.0000000001
 40
0.0
 40
0.0
 40
0.0
 40
0.0
 40
1.0
 40
1.0
 40
1.0
 40
2.0
 40
2.0
 40
2.0
 40
3.0
 40
3.0
 40
3.0
 40
4.0
 40
4.0
 40
4.0
 40
4.0
 10
136.8535492458535
 20
-139.275995087106
 30
0.0
 10
136.8535492458535
 20
-139.2952959648225
 30
0.0
 10
136.8376742462585
 20
-139.3111356866406
 30
0.0
 10
136.8177070245456
 20
-139.3111356866406
 30
0.0
 10
136.7984100805935
 20
-139.3111356866406
 30
0.0
 10
136.7825703587754
 20
-139.2952959648225
 30
0.0
 10
136.7825703587754
 20
-139.275995087106
 30
0.0
 10
136.7825703587754
 20
-139.2563492991494
 30
0.0
 10
136.7984100805935
 20
-139.2405095773313
 30
0.0
 10
136.8177070245456
 20
-139.2405095773313
 30
0.0
 10
136.8376742462585
 20
-139.2405095773313
 30
0.0
 10
136.8535492458535
 20
-139.2563492991494
 30
0.0
 10
136.8535492458535
 20
-139.275995087106
 30
0.0
  0
ENDBLK
  5
14E
330
14B
100
AcDbEntity
  8
0
100
AcDbBlockEnd
  0
BLOCK
  5
154
330
152
100
AcDbEntity
  8
0
100
AcDbBlockBegin
  2
Block_24
 70
     0
 10
0.0
 20
0.0
 30
0.0
  3
Block_24
  1

  0
SPLINE
  5
156
330
152
100
AcDbEntity
  8
レイヤー 1
100
AcDbSpline
210
0.0
220
0.0
230
1.0
 70
    11
 71
     3
 72
    26
 73
    22
 74
     0
 42
0.0000000001
 43
0.0000000001
 40
0.0
 40
0.0
 40
0.0
 40
0.0
 40
1.0
 40
1.0
 40
1.0
 40
2.0
 40
2.0
 40
2.0
 40
3.0
 40
3.0
 40
3.0
 40
4.0
 40
4.0
 40
4.0
 40
5.0
 40
5.0
 40
5.0
 40
6.0
 40
6.0
 40
6.0
 40
7.0
 40
7.0
 40
7.0
 40
7.0
 10
136.4440402219654
 20
-136.328285013661
 30
0.0
 10
136.4440402219654
 20
-136.328285013661
 30
0.0
 10
135.3395426093943
 20
-136.328285013661
 30
0.0
 10
135.3395426093943
 20
-136.328285013661
 30
0.0
 10
135.3395426093943
 20
-136.328285013661
 30
0.0
 10
135.3395426093943
 20
-136.6808905365763
 30
0.0
 10
135.3395426093943
 20
-136.6808905365763
 30
0.0
 10
135.3395426093943
 20
-136.6808905365763
 30
0.0
 10
135.1914035035285
 20
-136.6808905365763
 30
0.0
 10
135.1914035035285
 20
-136.6808905365763
 30
0.0
 10
135.176589592942
 20
-136.3258734468213
 30
0.0
 10
135.0139810860381
 20
-136.2762640718337
 30
0.0
 10
134.8996039159279
 20
-136.2445691933694
 30
0.0
 10
134.8996039159279
 20
-136.2445691933694
 30
0.0
 10
134.8996039159279
 20
-136.0885063678876
 30
0.0
 10
134.8996039159279
 20
-136.0885063678876
 30
0.0
 10
134.8996039159279
 20
-136.0885063678876
 30
0.0
 10
136.4440402219654
 20
-136.0885063678876
 30
0.0
 10
136.4440402219654
 20
-136.0885063678876
 30
0.0
 10
136.4440402219654
 20
-136.0885063678876
 30
0.0
 10
136.4440402219654
 20
-136.328285013661
 30
0.0
 10
136.4440402219654
 20
-136.328285013661
 30
0.0
  0
HATCH
  5
157
330
152
100
AcDbEntity
  8
レイヤー 1
 62
   250
420
  2299925
440
 33554687
100
AcDbHatch
 10
0.0
 20
0.0
 30
0.0
210
0.0
220
0.0
230
1.0
  2
SOLID
 70
     1
 71
     1
 91
        1
 92
        1
 93
        1
 72
     4
 94
        3
 73
     0
 74
     0
 95
       26
 96
       22
 40
0.0
 40
0.0
 40
0.0
 40
0.0
 40
1.0
 40
1.0
 40
1.0
 40
2.0
 40
2.0
 40
2.0
 40
3.0
 40
3.0
 40
3.0
 40
4.0
 40
4.0
 40
4.0
 40
5.0
 40
5.0
 40
5.0
 40
6.0
 40
6.0
 40
6.0
 40
7.0
 40
7.0
 40
7.0
 40
7.0
 10
136.4440402219654
 20
-136.328285013661
 10
136.4440402219654
 20
-136.328285013661
 10
135.3395426093943
 20
-136.328285013661
 10
135.3395426093943
 20
-136.328285013661
 10
135.3395426093943
 20
-136.328285013661
 10
135.3395426093943
 20
-136.6808905365763
 10
135.3395426093943
 20
-136.6808905365763
 10
135.3395426093943
 20
-136.6808905365763
 10
135.1914035035285
 20
-136.6808905365763
 10
135.1914035035285
 20
-136.6808905365763
 10
135.176589592942
 20
-136.3258734468213
 10
135.0139810860381
 20
-136.2762640718337
 10
134.8996039159279
 20
-136.2445691933694
 10
134.8996039159279
 20
-136.2445691933694
 10
134.8996039159279
 20
-136.0885063678876
 10
134.8996039159279
 20
-136.0885063678876
 10
134.8996039159279
 20
-136.0885063678876
 10
136.4440402219654
 20
-136.0885063678876
 10
136.4440402219654
 20
-136.0885063678876
 10
136.4440402219654
 20
-136.0885063678876
 10
136.4440402219654
 20
-136.328285013661
 10
136.4440402219654
 20
-136.328285013661
 97
        0
 97
        1
330
156
 75
     2
 76
     1
 98
        1
 10
0.0
 20
0.0
450
        0
451
        0
460
0.0
461
0.0
452
        0
462
0.0
453
        0
470

  0
ENDBLK
  5
155
330
152
100
AcDbEntity
  8
0
100
AcDbBlockEnd
  0
BLOCK
  5
15B
330
159
100
AcDbEntity
  8
0
100
AcDbBlockBegin
  2
Block_25
 70
     0
 10
0.0
 20
0.0
 30
0.0
  3
Block_25
  1

  0
LINE
  5
15D
330
159
100
AcDbEntity
  8
レイヤー 1
 62
   250
420
  2299925
370
     9
100
AcDbLine
 10
136.8177070245456
 20
-140.2757673090782
 30
0.0
 11
136.8177070245456
 21
-153.2758789414814
 31
0.0
  0
LINE
  5
15E
330
159
100
AcDbEntity
  8
レイヤー 1
 62
   250
420
  2299925
370
     9
100
AcDbLine
 10
135.3576656729055
 20
-140.2757673090782
 30
0.0
 11
137.8181494990222
 21
-140.2757673090782
 31
0.0
  0
INSERT
  5
160
330
159
100
AcDbEntity
  8
レイヤー 1
100
AcDbBlockReference
  2
Block_26
 10
0.0
 20
0.0
 30
0.0
  0
SPLINE
  5
16B
330
159
100
AcDbEntity
  8
レイヤー 1
 62
   250
420
  2299925
370
     9
100
AcDbSpline
210
0.0
220
0.0
230
1.0
 70
     9
 71
     3
 72
    17
 73
    13
 74
     0
 42
0.0000000001
 43
0.0000000001
 40
0.0
 40
0.0
 40
0.0
 40
0.0
 40
1.0
 40
1.0
 40
1.0
 40
2.0
 40
2.0
 40
2.0
 40
3.0
 40
3.0
 40
3.0
 40
4.0
 40
4.0
 40
4.0
 40
4.0
 10
136.8535492458535
 20
-153.2758789414814
 30
0.0
 10
136.8535492458535
 20
-153.2954933854254
 30
0.0
 10
136.8376742462585
 20
-153.3113683850205
 30
0.0
 10
136.8177070245456
 20
-153.3113683850205
 30
0.0
 10
136.7984100805935
 20
-153.3113683850205
 30
0.0
 10
136.7825703587754
 20
-153.2954933854254
 30
0.0
 10
136.7825703587754
 20
-153.2758789414814
 30
0.0
 10
136.7825703587754
 20
-153.2565784169443
 30
0.0
 10
136.7984100805935
 20
-153.2407422757112
 30
0.0
 10
136.8177070245456
 20
-153.2407422757112
 30
0.0
 10
136.8376742462585
 20
-153.2407422757112
 30
0.0
 10
136.8535492458535
 20
-153.2565784169443
 30
0.0
 10
136.8535492458535
 20
-153.2758789414814
 30
0.0
  0
ENDBLK
  5
15C
330
159
100
AcDbEntity
  8
0
100
AcDbBlockEnd
  0
BLOCK
  5
161
330
15F
100
AcDbEntity
  8
0
100
AcDbBlockBegin
  2
Block_26
 70
     0
 10
0.0
 20
0.0
 30
0.0
  3
Block_26
  1

  0
INSERT
  5
164
330
15F
100
AcDbEntity
  8
レイヤー 1
100
AcDbBlockReference
  2
Block_27
 10
0.0
 20
0.0
 30
0.0
  0
ENDBLK
  5
162
330
15F
100
AcDbEntity
  8
0
100
AcDbBlockEnd
  0
BLOCK
  5
165
330
163
100
AcDbEntity
  8
0
100
AcDbBlockBegin
  2
Block_27
 70
     0
 10
0.0
 20
0.0
 30
0.0
  3
Block_27
  1

  0
SPLINE
  5
167
330
163
100
AcDbEntity
  8
レイヤー 1
100
AcDbSpline
210
0.0
220
0.0
230
1.0
 70
    11
 71
     3
 72
    26
 73
    22
 74
     0
 42
0.0000000001
 43
0.0000000001
 40
0.0
 40
0.0
 40
0.0
 40
0.0
 40
1.0
 40
1.0
 40
1.0
 40
2.0
 40
2.0
 40
2.0
 40
3.0
 40
3.0
 40
3.0
 40
4.0
 40
4.0
 40
4.0
 40
5.0
 40
5.0
 40
5.0
 40
6.0
 40
6.0
 40
6.0
 40
7.0
 40
7.0
 40
7.0
 40
7.0
 10
136.4440402219654
 20
-147.4573214692121
 30
0.0
 10
136.4440402219654
 20
-147.4573214692121
 30
0.0
 10
135.3395426093943
 20
-147.4573214692121
 30
0.0
 10
135.3395426093943
 20
-147.4573214692121
 30
0.0
 10
135.3395426093943
 20
-147.4573214692121
 30
0.0
 10
135.3395426093943
 20
-147.8099269921274
 30
0.0
 10
135.3395426093943
 20
-147.8099269921274
 30
0.0
 10
135.3395426093943
 20
-147.8099269921274
 30
0.0
 10
135.1914035035285
 20
-147.8099269921274
 30
0.0
 10
135.1914035035285
 20
-147.8099269921274
 30
0.0
 10
135.176589592942
 20
-147.4550821571466
 30
0.0
 10
135.0139810860381
 20
-147.4053005273848
 30
0.0
 10
134.8996039159279
 20
-147.3736056489205
 30
0.0
 10
134.8996039159279
 20
-147.3736056489205
 30
0.0
 10
134.8996039159279
 20
-147.2177150782129
 30
0.0
 10
134.8996039159279
 20
-147.2177150782129
 30
0.0
 10
134.8996039159279
 20
-147.2177150782129
 30
0.0
 10
136.4440402219654
 20
-147.2177150782129
 30
0.0
 10
136.4440402219654
 20
-147.2177150782129
 30
0.0
 10
136.4440402219654
 20
-147.2177150782129
 30
0.0
 10
136.4440402219654
 20
-147.4573214692121
 30
0.0
 10
136.4440402219654
 20
-147.4573214692121
 30
0.0
  0
HATCH
  5
168
330
163
100
AcDbEntity
  8
レイヤー 1
 62
   250
420
  2299925
440
 33554687
100
AcDbHatch
 10
0.0
 20
0.0
 30
0.0
210
0.0
220
0.0
230
1.0
  2
SOLID
 70
     1
 71
     1
 91
        1
 92
        1
 93
        1
 72
     4
 94
        3
 73
     0
 74
     0
 95
       26
 96
       22
 40
0.0
 40
0.0
 40
0.0
 40
0.0
 40
1.0
 40
1.0
 40
1.0
 40
2.0
 40
2.0
 40
2.0
 40
3.0
 40
3.0
 40
3.0
 40
4.0
 40
4.0
 40
4.0
 40
5.0
 40
5.0
 40
5.0
 40
6.0
 40
6.0
 40
6.0
 40
7.0
 40
7.0
 40
7.0
 40
7.0
 10
136.4440402219654
 20
-147.4573214692121
 10
136.4440402219654
 20
-147.4573214692121
 10
135.3395426093943
 20
-147.4573214692121
 10
135.3395426093943
 20
-147.4573214692121
 10
135.3395426093943
 20
-147.4573214692121
 10
135.3395426093943
 20
-147.8099269921274
 10
135.3395426093943
 20
-147.8099269921274
 10
135.3395426093943
 20
-147.8099269921274
 10
135.1914035035285
 20
-147.8099269921274
 10
135.1914035035285
 20
-147.8099269921274
 10
135.176589592942
 20
-147.4550821571466
 10
135.0139810860381
 20
-147.4053005273848
 10
134.8996039159279
 20
-147.3736056489205
 10
134.8996039159279
 20
-147.3736056489205
 10
134.8996039159279
 20
-147.2177150782129
 10
134.8996039159279
 20
-147.2177150782129
 10
134.8996039159279
 20
-147.2177150782129
 10
136.4440402219654
 20
-147.2177150782129
 10
136.4440402219654
 20
-147.2177150782129
 10
136.4440402219654
 20
-147.2177150782129
 10
136.4440402219654
 20
-147.4573214692121
 10
136.4440402219654
 20
-147.4573214692121
 97
        0
 97
        1
330
167
 75
     2
 76
     1
 98
        1
 10
0.0
 20
0.0
450
        0
451
        0
460
0.0
461
0.0
452
        0
462
0.0
453
        0
470

  0
SPLINE
  5
169
330
163
100
AcDbEntity
  8
レイヤー 1
100
AcDbSpline
210
0.0
220
0.0
230
1.0
 70
     9
 71
     3
 72
    62
 73
    58
 74
     0
 42
0.0000000001
 43
0.0000000001
 40
0.0
 40
0.0
 40
0.0
 40
0.0
 40
1.0
 40
1.0
 40
1.0
 40
2.0
 40
2.0
 40
2.0
 40
3.0
 40
3.0
 40
3.0
 40
4.0
 40
4.0
 40
4.0
 40
5.0
 40
5.0
 40
5.0
 40
6.0
 40
6.0
 40
6.0
 40
7.0
 40
7.0
 40
7.0
 40
8.0
 40
8.0
 40
8.0
 40
9.0
 40
9.0
 40
9.0
 40
10.0
 40
10.0
 40
10.0
 40
11.0
 40
11.0
 40
11.0
 40
12.0
 40
12.0
 40
12.0
 40
13.0
 40
13.0
 40
13.0
 40
14.0
 40
14.0
 40
14.0
 40
15.0
 40
15.0
 40
15.0
 40
16.0
 40
16.0
 40
16.0
 40
17.0
 40
17.0
 40
17.0
 40
18.0
 40
18.0
 40
18.0
 40
19.0
 40
19.0
 40
19.0
 40
19.0
 10
136.4946831255985
 20
-146.156625668756
 30
0.0
 10
136.4946831255985
 20
-146.2582559855708
 30
0.0
 10
136.4736680431385
 20
-146.4911444403737
 30
0.0
 10
136.2872883773865
 20
-146.6246418904271
 30
0.0
 10
136.1753227741159
 20
-146.7037068318136
 30
0.0
 10
136.0757595145921
 20
-146.7081854559445
 30
0.0
 10
135.991010165655
 20
-146.7128363348496
 30
0.0
 10
135.991010165655
 20
-146.7128363348496
 30
0.0
 10
135.991010165655
 20
-146.477536313207
 30
0.0
 10
135.991010165655
 20
-146.477536313207
 30
0.0
 10
136.0650797185879
 20
-146.4752970011416
 30
0.0
 10
136.3000352306819
 20
-146.4641004408145
 30
0.0
 10
136.3000352306819
 20
-146.1611042928868
 30
0.0
 10
136.3000352306819
 20
-146.0141709704409
 30
0.0
 10
136.2300997923314
 20
-145.8513902087628
 30
0.0
 10
136.0016899616593
 20
-145.8513902087628
 30
0.0
 10
135.8852457342578
 20
-145.8513902087628
 30
0.0
 10
135.8366698879158
 20
-145.8920423354888
 30
0.0
 10
135.8049750094515
 20
-145.9259765260185
 30
0.0
 10
135.7309054565186
 20
-146.005041467405
 30
0.0
 10
135.7181586032232
 20
-146.1294094144225
 30
0.0
 10
135.7181586032232
 20
-146.188148292446
 30
0.0
 10
135.7181586032232
 20
-146.2086466105832
 30
0.0
 10
135.7202256605144
 20
-146.2470594252438
 30
0.0
 10
135.7247042846452
 20
-146.2763427368684
 30
0.0
 10
135.7247042846452
 20
-146.2763427368684
 30
0.0
 10
135.5300563897286
 20
-146.2763427368684
 30
0.0
 10
135.5300563897286
 20
-146.2763427368684
 30
0.0
 10
135.536257561602
 20
-146.2356906101424
 30
0.0
 10
135.5383246188932
 20
-146.1905598592857
 30
0.0
 10
135.5383246188932
 20
-146.1836696683152
 30
0.0
 10
135.5383246188932
 20
-146.1135619751904
 30
0.0
 10
135.5173095364331
 20
-145.9011718385247
 30
0.0
 10
135.280286967048
 20
-145.9011718385247
 30
0.0
 10
135.1025200400091
 20
-145.9011718385247
 30
0.0
 10
135.0477430217936
 20
-146.0412149700001
 30
0.0
 10
135.0477430217936
 20
-146.1588649808214
 30
0.0
 10
135.0477430217936
 20
-146.4413628106119
 30
0.0
 10
135.280286967048
 20
-146.4504923136478
 30
0.0
 10
135.3522894626897
 20
-146.4549709377786
 30
0.0
 10
135.3522894626897
 20
-146.4549709377786
 30
0.0
 10
135.3522894626897
 20
-146.6720119533493
 30
0.0
 10
135.3522894626897
 20
-146.6720119533493
 30
0.0
 10
135.2275770061237
 20
-146.6630547050877
 30
0.0
 10
134.8510280695858
 20
-146.6335991386888
 30
0.0
 10
134.8510280695858
 20
-146.1452568536546
 30
0.0
 10
134.8510280695858
 20
-145.9056504626555
 30
0.0
 10
134.977807583443
 20
-145.6479573203588
 30
0.0
 10
135.2740857951745
 20
-145.6479573203588
 30
0.0
 10
135.460120951378
 20
-145.6479573203588
 30
0.0
 10
135.542803243024
 20
-145.7495876371737
 30
0.0
 10
135.6041259426615
 20
-145.8558688328937
 30
0.0
 10
135.6316867065434
 20
-145.7902397638997
 30
0.0
 10
135.7119574313498
 20
-145.5959363785316
 30
0.0
 10
135.9889431083639
 20
-145.5959363785316
 30
0.0
 10
136.3275959945639
 20
-145.5959363785316
 30
0.0
 10
136.4946831255985
 20
-145.8603474570245
 30
0.0
 10
136.4946831255985
 20
-146.156625668756
 30
0.0
  0
HATCH
  5
16A
330
163
100
AcDbEntity
  8
レイヤー 1
 62
   250
420
  2299925
440
 33554687
100
AcDbHatch
 10
0.0
 20
0.0
 30
0.0
210
0.0
220
0.0
230
1.0
  2
SOLID
 70
     1
 71
     1
 91
        1
 92
        1
 93
        1
 72
     4
 94
        3
 73
     0
 74
     0
 95
       62
 96
       58
 40
0.0
 40
0.0
 40
0.0
 40
0.0
 40
1.0
 40
1.0
 40
1.0
 40
2.0
 40
2.0
 40
2.0
 40
3.0
 40
3.0
 40
3.0
 40
4.0
 40
4.0
 40
4.0
 40
5.0
 40
5.0
 40
5.0
 40
6.0
 40
6.0
 40
6.0
 40
7.0
 40
7.0
 40
7.0
 40
8.0
 40
8.0
 40
8.0
 40
9.0
 40
9.0
 40
9.0
 40
10.0
 40
10.0
 40
10.0
 40
11.0
 40
11.0
 40
11.0
 40
12.0
 40
12.0
 40
12.0
 40
13.0
 40
13.0
 40
13.0
 40
14.0
 40
14.0
 40
14.0
 40
15.0
 40
15.0
 40
15.0
 40
16.0
 40
16.0
 40
16.0
 40
17.0
 40
17.0
 40
17.0
 40
18.0
 40
18.0
 40
18.0
 40
19.0
 40
19.0
 40
19.0
 40
19.0
 10
136.4946831255985
 20
-146.156625668756
 10
136.4946831255985
 20
-146.2582559855708
 10
136.4736680431385
 20
-146.4911444403737
 10
136.2872883773865
 20
-146.6246418904271
 10
136.1753227741159
 20
-146.7037068318136
 10
136.0757595145921
 20
-146.7081854559445
 10
135.991010165655
 20
-146.7128363348496
 10
135.991010165655
 20
-146.7128363348496
 10
135.991010165655
 20
-146.477536313207
 10
135.991010165655
 20
-146.477536313207
 10
136.0650797185879
 20
-146.4752970011416
 10
136.3000352306819
 20
-146.4641004408145
 10
136.3000352306819
 20
-146.1611042928868
 10
136.3000352306819
 20
-146.0141709704409
 10
136.2300997923314
 20
-145.8513902087628
 10
136.0016899616593
 20
-145.8513902087628
 10
135.8852457342578
 20
-145.8513902087628
 10
135.8366698879158
 20
-145.8920423354888
 10
135.8049750094515
 20
-145.9259765260185
 10
135.7309054565186
 20
-146.005041467405
 10
135.7181586032232
 20
-146.1294094144225
 10
135.7181586032232
 20
-146.188148292446
 10
135.7181586032232
 20
-146.2086466105832
 10
135.7202256605144
 20
-146.2470594252438
 10
135.7247042846452
 20
-146.2763427368684
 10
135.7247042846452
 20
-146.2763427368684
 10
135.5300563897286
 20
-146.2763427368684
 10
135.5300563897286
 20
-146.2763427368684
 10
135.536257561602
 20
-146.2356906101424
 10
135.5383246188932
 20
-146.1905598592857
 10
135.5383246188932
 20
-146.1836696683152
 10
135.5383246188932
 20
-146.1135619751904
 10
135.5173095364331
 20
-145.9011718385247
 10
135.280286967048
 20
-145.9011718385247
 10
135.1025200400091
 20
-145.9011718385247
 10
135.0477430217936
 20
-146.0412149700001
 10
135.0477430217936
 20
-146.1588649808214
 10
135.0477430217936
 20
-146.4413628106119
 10
135.280286967048
 20
-146.4504923136478
 10
135.3522894626897
 20
-146.4549709377786
 10
135.3522894626897
 20
-146.4549709377786
 10
135.3522894626897
 20
-146.6720119533493
 10
135.3522894626897
 20
-146.6720119533493
 10
135.2275770061237
 20
-146.6630547050877
 10
134.8510280695858
 20
-146.6335991386888
 10
134.8510280695858
 20
-146.1452568536546
 10
134.8510280695858
 20
-145.9056504626555
 10
134.977807583443
 20
-145.6479573203588
 10
135.2740857951745
 20
-145.6479573203588
 10
135.460120951378
 20
-145.6479573203588
 10
135.542803243024
 20
-145.7495876371737
 10
135.6041259426615
 20
-145.8558688328937
 10
135.6316867065434
 20
-145.7902397638997
 10
135.7119574313498
 20
-145.5959363785316
 10
135.9889431083639
 20
-145.5959363785316
 10
136.3275959945639
 20
-145.5959363785316
 10
136.4946831255985
 20
-145.8603474570245
 10
136.4946831255985
 20
-146.156625668756
 97
        0
 97
        1
330
169
 75
     2
 76
     1
 98
        1
 10
0.0
 20
0.0
450
        0
451
        0
460
0.0
461
0.0
452
        0
462
0.0
453
        0
470

  0
ENDBLK
  5
166
330
163
100
AcDbEntity
  8
0
100
AcDbBlockEnd
  0
BLOCK
  5
172
330
170
100
AcDbEntity
  8
0
100
AcDbBlockBegin
  2
Block_28
 70
     0
 10
0.0
 20
0.0
 30
0.0
  3
Block_28
  1

  0
LINE
  5
174
330
170
100
AcDbEntity
  8
レイヤー 1
 62
   250
420
  2299925
370
     9
100
AcDbLine
 10
75.61877265039655
 20
-153.2758789414814
 30
0.0
 11
75.61877265039655
 21
-156.2758658093898
 31
0.0
  0
LINE
  5
175
330
170
100
AcDbEntity
  8
レイヤー 1
 62
   250
420
  2299925
370
     9
100
AcDbLine
 10
88.43201431385988
 20
-153.2758789414814
 30
0.0
 11
74.61833015064664
 21
-153.2758789414814
 31
0.0
  0
LINE
  5
176
330
170
100
AcDbEntity
  8
レイヤー 1
 62
   250
420
  2299925
370
     9
100
AcDbLine
 10
88.43201431385988
 20
-156.2758658093898
 30
0.0
 11
74.61833015064664
 21
-156.2758658093898
 31
0.0
  0
INSERT
  5
178
330
170
100
AcDbEntity
  8
レイヤー 1
100
AcDbBlockReference
  2
Block_29
 10
0.0
 20
0.0
 30
0.0
  0
SPLINE
  5
17D
330
170
100
AcDbEntity
  8
レイヤー 1
 62
   250
420
  2299925
370
     9
100
AcDbSpline
210
0.0
220
0.0
230
1.0
 70
     9
 71
     3
 72
    17
 73
    13
 74
     0
 42
0.0000000001
 43
0.0000000001
 40
0.0
 40
0.0
 40
0.0
 40
0.0
 40
1.0
 40
1.0
 40
1.0
 40
2.0
 40
2.0
 40
2.0
 40
3.0
 40
3.0
 40
3.0
 40
4.0
 40
4.0
 40
4.0
 40
4.0
 10
75.58293042818331
 20
-156.2758658093898
 30
0.0
 10
75.58293042818331
 20
-156.2954802533338
 30
0.0
 10
75.59880542817936
 20
-156.3113552529288
 30
0.0
 10
75.61877265039655
 20
-156.3113552529288
 30
0.0
 10
75.63806959483638
 20
-156.3113552529288
 30
0.0
 10
75.6539093170546
 20
-156.2954802533338
 30
0.0
 10
75.6539093170546
 20
-156.2758658093898
 30
0.0
 10
75.6539093170546
 20
-156.2565688654377
 30
0.0
 10
75.63806959483638
 20
-156.2407256384201
 30
0.0
 10
75.61877265039655
 20
-156.2407256384201
 30
0.0
 10
75.59880542817936
 20
-156.2407256384201
 30
0.0
 10
75.58293042818331
 20
-156.2565688654377
 30
0.0
 10
75.58293042818331
 20
-156.2758658093898
 30
0.0
  0
ENDBLK
  5
173
330
170
100
AcDbEntity
  8
0
100
AcDbBlockEnd
  0
BLOCK
  5
179
330
177
100
AcDbEntity
  8
0
100
AcDbBlockBegin
  2
Block_29
 70
     0
 10
0.0
 20
0.0
 30
0.0
  3
Block_29
  1

  0
SPLINE
  5
17B
330
177
100
AcDbEntity
  8
レイヤー 1
100
AcDbSpline
210
0.0
220
0.0
230
1.0
 70
     9
 71
     3
 72
    62
 73
    58
 74
     0
 42
0.0000000001
 43
0.0000000001
 40
0.0
 40
0.0
 40
0.0
 40
0.0
 40
1.0
 40
1.0
 40
1.0
 40
2.0
 40
2.0
 40
2.0
 40
3.0
 40
3.0
 40
3.0
 40
4.0
 40
4.0
 40
4.0
 40
5.0
 40
5.0
 40
5.0
 40
6.0
 40
6.0
 40
6.0
 40
7.0
 40
7.0
 40
7.0
 40
8.0
 40
8.0
 40
8.0
 40
9.0
 40
9.0
 40
9.0
 40
10.0
 40
10.0
 40
10.0
 40
11.0
 40
11.0
 40
11.0
 40
12.0
 40
12.0
 40
12.0
 40
13.0
 40
13.0
 40
13.0
 40
14.0
 40
14.0
 40
14.0
 40
15.0
 40
15.0
 40
15.0
 40
16.0
 40
16.0
 40
16.0
 40
17.0
 40
17.0
 40
17.0
 40
18.0
 40
18.0
 40
18.0
 40
19.0
 40
19.0
 40
19.0
 40
19.0
 10
75.26465655670468
 20
-154.785384075887
 30
0.0
 10
75.26465655670468
 20
-154.8870143927018
 30
0.0
 10
75.24346921947039
 20
-155.1199028475047
 30
0.0
 10
75.05726180849262
 20
-155.2532280427839
 30
0.0
 10
74.94512395044775
 20
-155.3324652389447
 30
0.0
 10
74.84573294569829
 20
-155.3369438630755
 30
0.0
 10
74.7611558515354
 20
-155.3414224872063
 30
0.0
 10
74.7611558515354
 20
-155.3414224872063
 30
0.0
 10
74.7611558515354
 20
-155.1061224655637
 30
0.0
 10
74.7611558515354
 20
-155.1061224655637
 30
0.0
 10
74.83522540446827
 20
-155.1040554082726
 30
0.0
 10
75.07000866178805
 20
-155.0926865931713
 30
0.0
 10
75.07000866178805
 20
-154.7898627000178
 30
0.0
 10
75.07000866178805
 20
-154.6427571227976
 30
0.0
 10
75.00024547821175
 20
-154.4801486158938
 30
0.0
 10
74.77166339276542
 20
-154.4801486158938
 30
0.0
 10
74.65539142013824
 20
-154.4801486158938
 30
0.0
 10
74.60664331902195
 20
-154.5208007426198
 30
0.0
 10
74.57494844055765
 20
-154.5545626783752
 30
0.0
 10
74.50087888762478
 20
-154.633799874536
 30
0.0
 10
74.48830428910362
 20
-154.7581678215535
 30
0.0
 10
74.48830428910362
 20
-154.8167344448027
 30
0.0
 10
74.48830428910362
 20
-154.8374050177143
 30
0.0
 10
74.49037134639477
 20
-154.8756455776005
 30
0.0
 10
74.49467771575133
 20
-154.9049288892252
 30
0.0
 10
74.49467771575133
 20
-154.9049288892252
 30
0.0
 10
74.30002982083472
 20
-154.9049288892252
 30
0.0
 10
74.30002982083472
 20
-154.9049288892252
 30
0.0
 10
74.30640324748243
 20
-154.8642767624992
 30
0.0
 10
74.30847030477358
 20
-154.8191460116424
 30
0.0
 10
74.30847030477358
 20
-154.8122558206719
 30
0.0
 10
74.30847030477358
 20
-154.7423203823213
 30
0.0
 10
74.2872829675393
 20
-154.5297579908814
 30
0.0
 10
74.0502603981541
 20
-154.5297579908814
 30
0.0
 10
73.87266572588948
 20
-154.5297579908814
 30
0.0
 10
73.81771645289974
 20
-154.6699733771311
 30
0.0
 10
73.81771645289974
 20
-154.7874511331781
 30
0.0
 10
73.81771645289974
 20
-155.0699489629686
 30
0.0
 10
74.0502603981541
 20
-155.0792507207788
 30
0.0
 10
74.12226289379582
 20
-155.0837293449096
 30
0.0
 10
74.12226289379582
 20
-155.0837293449096
 30
0.0
 10
74.12226289379582
 20
-155.3007703604803
 30
0.0
 10
74.12226289379582
 20
-155.3007703604803
 30
0.0
 10
73.99737818245552
 20
-155.2918131122187
 30
0.0
 10
73.62082924591772
 20
-155.2621852910455
 30
0.0
 10
73.62082924591772
 20
-154.7740152607856
 30
0.0
 10
73.62082924591772
 20
-154.5342366150123
 30
0.0
 10
73.74778101454918
 20
-154.2765434727156
 30
0.0
 10
74.04405922628065
 20
-154.2765434727156
 30
0.0
 10
74.23009438248413
 20
-154.2765434727156
 30
0.0
 10
74.31260441935588
 20
-154.3781737895304
 30
0.0
 10
74.37409937376759
 20
-154.4846272400246
 30
0.0
 10
74.40148788287533
 20
-154.4188259162564
 30
0.0
 10
74.48193086245591
 20
-154.2245225308883
 30
0.0
 10
74.75908879424427
 20
-154.2245225308883
 30
0.0
 10
75.09756942567006
 20
-154.2245225308883
 30
0.0
 10
75.26465655670468
 20
-154.4891058641555
 30
0.0
 10
75.26465655670468
 20
-154.785384075887
 30
0.0
  0
HATCH
  5
17C
330
177
100
AcDbEntity
  8
レイヤー 1
 62
   250
420
  2299925
440
 33554687
100
AcDbHatch
 10
0.0
 20
0.0
 30
0.0
210
0.0
220
0.0
230
1.0
  2
SOLID
 70
     1
 71
     1
 91
        1
 92
        1
 93
        1
 72
     4
 94
        3
 73
     0
 74
     0
 95
       62
 96
       58
 40
0.0
 40
0.0
 40
0.0
 40
0.0
 40
1.0
 40
1.0
 40
1.0
 40
2.0
 40
2.0
 40
2.0
 40
3.0
 40
3.0
 40
3.0
 40
4.0
 40
4.0
 40
4.0
 40
5.0
 40
5.0
 40
5.0
 40
6.0
 40
6.0
 40
6.0
 40
7.0
 40
7.0
 40
7.0
 40
8.0
 40
8.0
 40
8.0
 40
9.0
 40
9.0
 40
9.0
 40
10.0
 40
10.0
 40
10.0
 40
11.0
 40
11.0
 40
11.0
 40
12.0
 40
12.0
 40
12.0
 40
13.0
 40
13.0
 40
13.0
 40
14.0
 40
14.0
 40
14.0
 40
15.0
 40
15.0
 40
15.0
 40
16.0
 40
16.0
 40
16.0
 40
17.0
 40
17.0
 40
17.0
 40
18.0
 40
18.0
 40
18.0
 40
19.0
 40
19.0
 40
19.0
 40
19.0
 10
75.26465655670468
 20
-154.785384075887
 10
75.26465655670468
 20
-154.8870143927018
 10
75.24346921947039
 20
-155.1199028475047
 10
75.05726180849262
 20
-155.2532280427839
 10
74.94512395044775
 20
-155.3324652389447
 10
74.84573294569829
 20
-155.3369438630755
 10
74.7611558515354
 20
-155.3414224872063
 10
74.7611558515354
 20
-155.3414224872063
 10
74.7611558515354
 20
-155.1061224655637
 10
74.7611558515354
 20
-155.1061224655637
 10
74.83522540446827
 20
-155.1040554082726
 10
75.07000866178805
 20
-155.0926865931713
 10
75.07000866178805
 20
-154.7898627000178
 10
75.07000866178805
 20
-154.6427571227976
 10
75.00024547821175
 20
-154.4801486158938
 10
74.77166339276542
 20
-154.4801486158938
 10
74.65539142013824
 20
-154.4801486158938
 10
74.60664331902195
 20
-154.5208007426198
 10
74.57494844055765
 20
-154.5545626783752
 10
74.50087888762478
 20
-154.633799874536
 10
74.48830428910362
 20
-154.7581678215535
 10
74.48830428910362
 20
-154.8167344448027
 10
74.48830428910362
 20
-154.8374050177143
 10
74.49037134639477
 20
-154.8756455776005
 10
74.49467771575133
 20
-154.9049288892252
 10
74.49467771575133
 20
-154.9049288892252
 10
74.30002982083472
 20
-154.9049288892252
 10
74.30002982083472
 20
-154.9049288892252
 10
74.30640324748243
 20
-154.8642767624992
 10
74.30847030477358
 20
-154.8191460116424
 10
74.30847030477358
 20
-154.8122558206719
 10
74.30847030477358
 20
-154.7423203823213
 10
74.2872829675393
 20
-154.5297579908814
 10
74.0502603981541
 20
-154.5297579908814
 10
73.87266572588948
 20
-154.5297579908814
 10
73.81771645289974
 20
-154.6699733771311
 10
73.81771645289974
 20
-154.7874511331781
 10
73.81771645289974
 20
-155.0699489629686
 10
74.0502603981541
 20
-155.0792507207788
 10
74.12226289379582
 20
-155.0837293449096
 10
74.12226289379582
 20
-155.0837293449096
 10
74.12226289379582
 20
-155.3007703604803
 10
74.12226289379582
 20
-155.3007703604803
 10
73.99737818245552
 20
-155.2918131122187
 10
73.62082924591772
 20
-155.2621852910455
 10
73.62082924591772
 20
-154.7740152607856
 10
73.62082924591772
 20
-154.5342366150123
 10
73.74778101454918
 20
-154.2765434727156
 10
74.04405922628065
 20
-154.2765434727156
 10
74.23009438248413
 20
-154.2765434727156
 10
74.31260441935588
 20
-154.3781737895304
 10
74.37409937376759
 20
-154.4846272400246
 10
74.40148788287533
 20
-154.4188259162564
 10
74.48193086245591
 20
-154.2245225308883
 10
74.75908879424427
 20
-154.2245225308883
 10
75.09756942567006
 20
-154.2245225308883
 10
75.26465655670468
 20
-154.4891058641555
 10
75.26465655670468
 20
-154.785384075887
 97
        0
 97
        1
330
17B
 75
     2
 76
     1
 98
        1
 10
0.0
 20
0.0
450
        0
451
        0
460
0.0
461
0.0
452
        0
462
0.0
453
        0
470

  0
ENDBLK
  5
17A
330
177
100
AcDbEntity
  8
0
100
AcDbBlockEnd
  0
BLOCK
  5
180
330
17E
100
AcDbEntity
  8
0
100
AcDbBlockBegin
  2
Block_30
 70
     0
 10
0.0
 20
0.0
 30
0.0
  3
Block_30
  1

  0
LINE
  5
182
330
17E
100
AcDbEntity
  8
レイヤー 1
 62
   250
420
  2299925
370
     9
100
AcDbLine
 10
75.61877265039655
 20
-142.2760173085782
 30
0.0
 11
75.61877265039655
 21
-138.5057087627443
 31
0.0
  0
LINE
  5
183
330
17E
100
AcDbEntity
  8
レイヤー 1
 62
   250
420
  2299925
370
     9
100
AcDbLine
 10
75.61877265039655
 20
-143.2757895305504
 30
0.0
 11
75.61877265039655
 21
-142.2760173085782
 31
0.0
  0
LINE
  5
184
330
17E
100
AcDbEntity
  8
レイヤー 1
 62
   250
420
  2299925
370
     9
100
AcDbLine
 10
77.07881403892058
 20
-142.2760173085782
 30
0.0
 11
74.61833015064664
 21
-142.2760173085782
 31
0.0
  0
INSERT
  5
186
330
17E
100
AcDbEntity
  8
レイヤー 1
100
AcDbBlockReference
  2
Block_31
 10
0.0
 20
0.0
 30
0.0
  0
SPLINE
  5
18B
330
17E
100
AcDbEntity
  8
レイヤー 1
 62
   250
420
  2299925
370
     9
100
AcDbSpline
210
0.0
220
0.0
230
1.0
 70
     9
 71
     3
 72
    17
 73
    13
 74
     0
 42
0.0000000001
 43
0.0000000001
 40
0.0
 40
0.0
 40
0.0
 40
0.0
 40
1.0
 40
1.0
 40
1.0
 40
2.0
 40
2.0
 40
2.0
 40
3.0
 40
3.0
 40
3.0
 40
4.0
 40
4.0
 40
4.0
 40
4.0
 10
75.58293042818331
 20
-142.2760173085782
 30
0.0
 10
75.58293042818331
 20
-142.2953181105078
 30
0.0
 10
75.59880542817936
 20
-142.3111578323259
 30
0.0
 10
75.61877265039655
 20
-142.3111578323259
 30
0.0
 10
75.63806959483638
 20
-142.3111578323259
 30
0.0
 10
75.6539093170546
 20
-142.2953181105078
 30
0.0
 10
75.6539093170546
 20
-142.2760173085782
 30
0.0
 10
75.6539093170546
 20
-142.2563714448347
 30
0.0
 10
75.63806959483638
 20
-142.2405317230166
 30
0.0
 10
75.61877265039655
 20
-142.2405317230166
 30
0.0
 10
75.59880542817936
 20
-142.2405317230166
 30
0.0
 10
75.58293042818331
 20
-142.2563714448347
 30
0.0
 10
75.58293042818331
 20
-142.2760173085782
 30
0.0
  0
ENDBLK
  5
181
330
17E
100
AcDbEntity
  8
0
100
AcDbBlockEnd
  0
BLOCK
  5
187
330
185
100
AcDbEntity
  8
0
100
AcDbBlockBegin
  2
Block_31
 70
     0
 10
0.0
 20
0.0
 30
0.0
  3
Block_31
  1

  0
SPLINE
  5
189
330
185
100
AcDbEntity
  8
レイヤー 1
100
AcDbSpline
210
0.0
220
0.0
230
1.0
 70
    11
 71
     3
 72
    26
 73
    22
 74
     0
 42
0.0000000001
 43
0.0000000001
 40
0.0
 40
0.0
 40
0.0
 40
0.0
 40
1.0
 40
1.0
 40
1.0
 40
2.0
 40
2.0
 40
2.0
 40
3.0
 40
3.0
 40
3.0
 40
4.0
 40
4.0
 40
4.0
 40
5.0
 40
5.0
 40
5.0
 40
6.0
 40
6.0
 40
6.0
 40
7.0
 40
7.0
 40
7.0
 40
7.0
 10
75.21315237920018
 20
-139.3282741622165
 30
0.0
 10
75.21315237920018
 20
-139.3282741622165
 30
0.0
 10
74.10882702140336
 20
-139.3282741622165
 30
0.0
 10
74.10882702140336
 20
-139.3282741622165
 30
0.0
 10
74.10882702140336
 20
-139.3282741622165
 30
0.0
 10
74.10882702140336
 20
-139.6808796851318
 30
0.0
 10
74.10882702140336
 20
-139.6808796851318
 30
0.0
 10
74.10882702140336
 20
-139.6808796851318
 30
0.0
 10
73.96086017031187
 20
-139.6808796851318
 30
0.0
 10
73.96086017031187
 20
-139.6808796851318
 30
0.0
 10
73.94604625972529
 20
-139.3258625953768
 30
0.0
 10
73.78309324327299
 20
-139.2762532203892
 30
0.0
 10
73.66888832793695
 20
-139.2445583419249
 30
0.0
 10
73.66888832793695
 20
-139.2445583419249
 30
0.0
 10
73.66888832793695
 20
-139.0884955164431
 30
0.0
 10
73.66888832793695
 20
-139.0884955164431
 30
0.0
 10
73.66888832793695
 20
-139.0884955164431
 30
0.0
 10
75.21315237920018
 20
-139.0884955164431
 30
0.0
 10
75.21315237920018
 20
-139.0884955164431
 30
0.0
 10
75.21315237920018
 20
-139.0884955164431
 30
0.0
 10
75.21315237920018
 20
-139.3282741622165
 30
0.0
 10
75.21315237920018
 20
-139.3282741622165
 30
0.0
  0
HATCH
  5
18A
330
185
100
AcDbEntity
  8
レイヤー 1
 62
   250
420
  2299925
440
 33554687
100
AcDbHatch
 10
0.0
 20
0.0
 30
0.0
210
0.0
220
0.0
230
1.0
  2
SOLID
 70
     1
 71
     1
 91
        1
 92
        1
 93
        1
 72
     4
 94
        3
 73
     0
 74
     0
 95
       26
 96
       22
 40
0.0
 40
0.0
 40
0.0
 40
0.0
 40
1.0
 40
1.0
 40
1.0
 40
2.0
 40
2.0
 40
2.0
 40
3.0
 40
3.0
 40
3.0
 40
4.0
 40
4.0
 40
4.0
 40
5.0
 40
5.0
 40
5.0
 40
6.0
 40
6.0
 40
6.0
 40
7.0
 40
7.0
 40
7.0
 40
7.0
 10
75.21315237920018
 20
-139.3282741622165
 10
75.21315237920018
 20
-139.3282741622165
 10
74.10882702140336
 20
-139.3282741622165
 10
74.10882702140336
 20
-139.3282741622165
 10
74.10882702140336
 20
-139.3282741622165
 10
74.10882702140336
 20
-139.6808796851318
 10
74.10882702140336
 20
-139.6808796851318
 10
74.10882702140336
 20
-139.6808796851318
 10
73.96086017031187
 20
-139.6808796851318
 10
73.96086017031187
 20
-139.6808796851318
 10
73.94604625972529
 20
-139.3258625953768
 10
73.78309324327299
 20
-139.2762532203892
 10
73.66888832793695
 20
-139.2445583419249
 10
73.66888832793695
 20
-139.2445583419249
 10
73.66888832793695
 20
-139.0884955164431
 10
73.66888832793695
 20
-139.0884955164431
 10
73.66888832793695
 20
-139.0884955164431
 10
75.21315237920018
 20
-139.0884955164431
 10
75.21315237920018
 20
-139.0884955164431
 10
75.21315237920018
 20
-139.0884955164431
 10
75.21315237920018
 20
-139.3282741622165
 10
75.21315237920018
 20
-139.3282741622165
 97
        0
 97
        1
330
189
 75
     2
 76
     1
 98
        1
 10
0.0
 20
0.0
450
        0
451
        0
460
0.0
461
0.0
452
        0
462
0.0
453
        0
470

  0
ENDBLK
  5
188
330
185
100
AcDbEntity
  8
0
100
AcDbBlockEnd
  0
BLOCK
  5
18E
330
18C
100
AcDbEntity
  8
0
100
AcDbBlockBegin
  2
Block_32
 70
     0
 10
0.0
 20
0.0
 30
0.0
  3
Block_32
  1

  0
LINE
  5
190
330
18C
100
AcDbEntity
  8
レイヤー 1
 62
   250
420
  2299925
370
     9
100
AcDbLine
 10
75.61877265039655
 20
-143.2757895305504
 30
0.0
 11
75.61877265039655
 21
-153.2758789414814
 31
0.0
  0
LINE
  5
191
330
18C
100
AcDbEntity
  8
レイヤー 1
 62
   250
420
  2299925
370
     9
100
AcDbLine
 10
77.07881403892058
 20
-143.2757895305504
 30
0.0
 11
74.61833015064664
 21
-143.2757895305504
 31
0.0
  0
INSERT
  5
193
330
18C
100
AcDbEntity
  8
レイヤー 1
100
AcDbBlockReference
  2
Block_33
 10
0.0
 20
0.0
 30
0.0
  0
SPLINE
  5
19F
330
18C
100
AcDbEntity
  8
レイヤー 1
 62
   250
420
  2299925
370
     9
100
AcDbSpline
210
0.0
220
0.0
230
1.0
 70
     9
 71
     3
 72
    17
 73
    13
 74
     0
 42
0.0000000001
 43
0.0000000001
 40
0.0
 40
0.0
 40
0.0
 40
0.0
 40
1.0
 40
1.0
 40
1.0
 40
2.0
 40
2.0
 40
2.0
 40
3.0
 40
3.0
 40
3.0
 40
4.0
 40
4.0
 40
4.0
 40
4.0
 10
75.58293042818331
 20
-153.2758789414814
 30
0.0
 10
75.58293042818331
 20
-153.2954933854254
 30
0.0
 10
75.59880542817936
 20
-153.3113683850205
 30
0.0
 10
75.61877265039655
 20
-153.3113683850205
 30
0.0
 10
75.63806959483638
 20
-153.3113683850205
 30
0.0
 10
75.6539093170546
 20
-153.2954933854254
 30
0.0
 10
75.6539093170546
 20
-153.2758789414814
 30
0.0
 10
75.6539093170546
 20
-153.2565784169443
 30
0.0
 10
75.63806959483638
 20
-153.2407422757112
 30
0.0
 10
75.61877265039655
 20
-153.2407422757112
 30
0.0
 10
75.59880542817936
 20
-153.2407422757112
 30
0.0
 10
75.58293042818331
 20
-153.2565784169443
 30
0.0
 10
75.58293042818331
 20
-153.2758789414814
 30
0.0
  0
ENDBLK
  5
18F
330
18C
100
AcDbEntity
  8
0
100
AcDbBlockEnd
  0
BLOCK
  5
194
330
192
100
AcDbEntity
  8
0
100
AcDbBlockBegin
  2
Block_33
 70
     0
 10
0.0
 20
0.0
 30
0.0
  3
Block_33
  1

  0
INSERT
  5
197
330
192
100
AcDbEntity
  8
レイヤー 1
100
AcDbBlockReference
  2
Block_34
 10
0.0
 20
0.0
 30
0.0
  0
ENDBLK
  5
195
330
192
100
AcDbEntity
  8
0
100
AcDbBlockEnd
  0
BLOCK
  5
198
330
196
100
AcDbEntity
  8
0
100
AcDbBlockBegin
  2
Block_34
 70
     0
 10
0.0
 20
0.0
 30
0.0
  3
Block_34
  1

  0
SPLINE
  5
19A
330
196
100
AcDbEntity
  8
レイヤー 1
100
AcDbSpline
210
0.0
220
0.0
230
1.0
 70
    11
 71
     3
 72
    26
 73
    22
 74
     0
 42
0.0000000001
 43
0.0000000001
 40
0.0
 40
0.0
 40
0.0
 40
0.0
 40
1.0
 40
1.0
 40
1.0
 40
2.0
 40
2.0
 40
2.0
 40
3.0
 40
3.0
 40
3.0
 40
4.0
 40
4.0
 40
4.0
 40
5.0
 40
5.0
 40
5.0
 40
6.0
 40
6.0
 40
6.0
 40
7.0
 40
7.0
 40
7.0
 40
7.0
 10
75.21332463397445
 20
-148.9573160434898
 30
0.0
 10
75.21332463397445
 20
-148.9573160434898
 30
0.0
 10
74.10899927617761
 20
-148.9573160434898
 30
0.0
 10
74.10899927617761
 20
-148.9573160434898
 30
0.0
 10
74.10899927617761
 20
-148.9573160434898
 30
0.0
 10
74.10899927617761
 20
-149.3100938211794
 30
0.0
 10
74.10899927617761
 20
-149.3100938211794
 30
0.0
 10
74.10899927617761
 20
-149.3100938211794
 30
0.0
 10
73.96103242508613
 20
-149.3100938211794
 30
0.0
 10
73.96103242508613
 20
-149.3100938211794
 30
0.0
 10
73.94621851449956
 20
-148.9549044766501
 30
0.0
 10
73.78326549804724
 20
-148.9052951016625
 30
0.0
 10
73.66906058271121
 20
-148.8736002231983
 30
0.0
 10
73.66906058271121
 20
-148.8736002231983
 30
0.0
 10
73.66906058271121
 20
-148.7177096524907
 30
0.0
 10
73.66906058271121
 20
-148.7177096524907
 30
0.0
 10
73.66906058271121
 20
-148.7177096524907
 30
0.0
 10
75.21332463397445
 20
-148.7177096524907
 30
0.0
 10
75.21332463397445
 20
-148.7177096524907
 30
0.0
 10
75.21332463397445
 20
-148.7177096524907
 30
0.0
 10
75.21332463397445
 20
-148.9573160434898
 30
0.0
 10
75.21332463397445
 20
-148.9573160434898
 30
0.0
  0
HATCH
  5
19B
330
196
100
AcDbEntity
  8
レイヤー 1
 62
   250
420
  2299925
440
 33554687
100
AcDbHatch
 10
0.0
 20
0.0
 30
0.0
210
0.0
220
0.0
230
1.0
  2
SOLID
 70
     1
 71
     1
 91
        1
 92
        1
 93
        1
 72
     4
 94
        3
 73
     0
 74
     0
 95
       26
 96
       22
 40
0.0
 40
0.0
 40
0.0
 40
0.0
 40
1.0
 40
1.0
 40
1.0
 40
2.0
 40
2.0
 40
2.0
 40
3.0
 40
3.0
 40
3.0
 40
4.0
 40
4.0
 40
4.0
 40
5.0
 40
5.0
 40
5.0
 40
6.0
 40
6.0
 40
6.0
 40
7.0
 40
7.0
 40
7.0
 40
7.0
 10
75.21332463397445
 20
-148.9573160434898
 10
75.21332463397445
 20
-148.9573160434898
 10
74.10899927617761
 20
-148.9573160434898
 10
74.10899927617761
 20
-148.9573160434898
 10
74.10899927617761
 20
-148.9573160434898
 10
74.10899927617761
 20
-149.3100938211794
 10
74.10899927617761
 20
-149.3100938211794
 10
74.10899927617761
 20
-149.3100938211794
 10
73.96103242508613
 20
-149.3100938211794
 10
73.96103242508613
 20
-149.3100938211794
 10
73.94621851449956
 20
-148.9549044766501
 10
73.78326549804724
 20
-148.9052951016625
 10
73.66906058271121
 20
-148.8736002231983
 10
73.66906058271121
 20
-148.8736002231983
 10
73.66906058271121
 20
-148.7177096524907
 10
73.66906058271121
 20
-148.7177096524907
 10
73.66906058271121
 20
-148.7177096524907
 10
75.21332463397445
 20
-148.7177096524907
 10
75.21332463397445
 20
-148.7177096524907
 10
75.21332463397445
 20
-148.7177096524907
 10
75.21332463397445
 20
-148.9573160434898
 10
75.21332463397445
 20
-148.9573160434898
 97
        0
 97
        1
330
19A
 75
     2
 76
     1
 98
        1
 10
0.0
 20
0.0
450
        0
451
        0
460
0.0
461
0.0
452
        0
462
0.0
453
        0
470

  0
SPLINE
  5
19C
330
196
100
AcDbEntity
  8
レイヤー 1
100
AcDbSpline
210
0.0
220
0.0
230
1.0
 70
     9
 71
     3
 72
    17
 73
    13
 74
     0
 42
0.0000000001
 43
0.0000000001
 40
0.0
 40
0.0
 40
0.0
 40
0.0
 40
1.0
 40
1.0
 40
1.0
 40
2.0
 40
2.0
 40
2.0
 40
3.0
 40
3.0
 40
3.0
 40
4.0
 40
4.0
 40
4.0
 40
4.0
 10
73.81289331922039
 20
-147.6474907399978
 30
0.0
 10
73.81289331922039
 20
-147.9143133853304
 30
0.0
 10
74.09642467765646
 20
-147.9640950150923
 30
0.0
 10
74.44127873572996
 20
-147.9640950150923
 30
0.0
 10
74.76063908721262
 20
-147.9640950150923
 30
0.0
 10
75.06949189746527
 20
-147.9256822004318
 30
0.0
 10
75.06949189746527
 20
-147.6474907399978
 30
0.0
 10
75.06949189746527
 20
-147.3830796615049
 30
0.0
 10
74.78819985109462
 20
-147.3310587196776
 30
0.0
 10
74.44127873572996
 20
-147.3310587196776
 30
0.0
 10
74.12174612947303
 20
-147.3310587196776
 30
0.0
 10
73.81289331922039
 20
-147.3717108464036
 30
0.0
 10
73.81289331922039
 20
-147.6474907399978
 30
0.0
  0
SPLINE
  5
19D
330
196
100
AcDbEntity
  8
レイヤー 1
100
AcDbSpline
210
0.0
220
0.0
230
1.0
 70
     9
 71
     3
 72
    29
 73
    25
 74
     0
 42
0.0000000001
 43
0.0000000001
 40
0.0
 40
0.0
 40
0.0
 40
0.0
 40
1.0
 40
1.0
 40
1.0
 40
2.0
 40
2.0
 40
2.0
 40
3.0
 40
3.0
 40
3.0
 40
4.0
 40
4.0
 40
4.0
 40
5.0
 40
5.0
 40
5.0
 40
6.0
 40
6.0
 40
6.0
 40
7.0
 40
7.0
 40
7.0
 40
8.0
 40
8.0
 40
8.0
 40
8.0
 10
75.03572996170982
 20
-147.2225382118923
 30
0.0
 10
75.24501951243874
 20
-147.3377766558739
 30
0.0
 10
75.26413979238189
 20
-147.5231227929803
 30
0.0
 10
75.26413979238189
 20
-147.6474907399978
 30
0.0
 10
75.26413979238189
 20
-147.8194010047118
 30
0.0
 10
75.217631003331
 20
-147.9708129512886
 30
0.0
 10
75.03572996170982
 20
-148.0726155228777
 30
0.0
 10
74.8410820667932
 20
-148.1833753427284
 30
0.0
 10
74.60405949740802
 20
-148.2037014060914
 30
0.0
 10
74.44127873572996
 20
-148.2037014060914
 30
0.0
 10
74.29727374444651
 20
-148.2037014060914
 30
0.0
 10
74.04560951924901
 20
-148.1856146547938
 30
0.0
 10
73.84682750975009
 20
-148.0726155228777
 30
0.0
 10
73.64373913089463
 20
-147.9572048241218
 30
0.0
 10
73.62031248159492
 20
-147.7854668141821
 30
0.0
 10
73.62031248159492
 20
-147.6474907399978
 30
0.0
 10
73.62031248159492
 20
-147.4779920421235
 30
0.0
 10
73.66475421335465
 20
-147.3241685287071
 30
0.0
 10
73.84682750975009
 20
-147.2225382118923
 30
0.0
 10
74.0392360926013
 20
-147.1162570161723
 30
0.0
 10
74.26764592327336
 20
-147.0914523286785
 30
0.0
 10
74.44127873572996
 20
-147.0914523286785
 30
0.0
 10
74.61249998134687
 20
-147.0914523286785
 30
0.0
 10
74.84314912408435
 20
-147.1140177041069
 30
0.0
 10
75.03572996170982
 20
-147.2225382118923
 30
0.0
  0
HATCH
  5
19E
330
196
100
AcDbEntity
  8
レイヤー 1
 62
   250
420
  2299925
440
 33554687
100
AcDbHatch
 10
0.0
 20
0.0
 30
0.0
210
0.0
220
0.0
230
1.0
  2
SOLID
 70
     1
 71
     1
 91
        2
 92
        1
 93
        1
 72
     4
 94
        3
 73
     0
 74
     0
 95
       17
 96
       13
 40
0.0
 40
0.0
 40
0.0
 40
0.0
 40
1.0
 40
1.0
 40
1.0
 40
2.0
 40
2.0
 40
2.0
 40
3.0
 40
3.0
 40
3.0
 40
4.0
 40
4.0
 40
4.0
 40
4.0
 10
73.81289331922039
 20
-147.6474907399978
 10
73.81289331922039
 20
-147.9143133853304
 10
74.09642467765646
 20
-147.9640950150923
 10
74.44127873572996
 20
-147.9640950150923
 10
74.76063908721262
 20
-147.9640950150923
 10
75.06949189746527
 20
-147.9256822004318
 10
75.06949189746527
 20
-147.6474907399978
 10
75.06949189746527
 20
-147.3830796615049
 10
74.78819985109462
 20
-147.3310587196776
 10
74.44127873572996
 20
-147.3310587196776
 10
74.12174612947303
 20
-147.3310587196776
 10
73.81289331922039
 20
-147.3717108464036
 10
73.81289331922039
 20
-147.6474907399978
 97
        0
 97
        1
330
19C
 92
        1
 93
        1
 72
     4
 94
        3
 73
     0
 74
     0
 95
       29
 96
       25
 40
0.0
 40
0.0
 40
0.0
 40
0.0
 40
1.0
 40
1.0
 40
1.0
 40
2.0
 40
2.0
 40
2.0
 40
3.0
 40
3.0
 40
3.0
 40
4.0
 40
4.0
 40
4.0
 40
5.0
 40
5.0
 40
5.0
 40
6.0
 40
6.0
 40
6.0
 40
7.0
 40
7.0
 40
7.0
 40
8.0
 40
8.0
 40
8.0
 40
8.0
 10
75.03572996170982
 20
-147.2225382118923
 10
75.24501951243874
 20
-147.3377766558739
 10
75.26413979238189
 20
-147.5231227929803
 10
75.26413979238189
 20
-147.6474907399978
 10
75.26413979238189
 20
-147.8194010047118
 10
75.217631003331
 20
-147.9708129512886
 10
75.03572996170982
 20
-148.0726155228777
 10
74.8410820667932
 20
-148.1833753427284
 10
74.60405949740802
 20
-148.2037014060914
 10
74.44127873572996
 20
-148.2037014060914
 10
74.29727374444651
 20
-148.2037014060914
 10
74.04560951924901
 20
-148.1856146547938
 10
73.84682750975009
 20
-148.0726155228777
 10
73.64373913089463
 20
-147.9572048241218
 10
73.62031248159492
 20
-147.7854668141821
 10
73.62031248159492
 20
-147.6474907399978
 10
73.62031248159492
 20
-147.4779920421235
 10
73.66475421335465
 20
-147.3241685287071
 10
73.84682750975009
 20
-147.2225382118923
 10
74.0392360926013
 20
-147.1162570161723
 10
74.26764592327336
 20
-147.0914523286785
 10
74.44127873572996
 20
-147.0914523286785
 10
74.61249998134687
 20
-147.0914523286785
 10
74.84314912408435
 20
-147.1140177041069
 10
75.03572996170982
 20
-147.2225382118923
 97
        0
 97
        1
330
19D
 75
     2
 76
     1
 98
        1
 10
0.0
 20
0.0
450
        0
451
        0
460
0.0
461
0.0
452
        0
462
0.0
453
        0
470

  0
ENDBLK
  5
199
330
196
100
AcDbEntity
  8
0
100
AcDbBlockEnd
  0
ENDSEC
  0
SECTION
  2
ENTITIES
  0
LINE
  5
79
330
70
100
AcDbEntity
  8
レイヤー 1
 62
   250
420
  2299925
370
    25
100
AcDbLine
 10
90.81809736881906
 20
-156.2758658093898
 30
0.0
 11
120.8180004882877
 21
-156.2758658093898
 31
0.0
  0
LINE
  5
7A
330
70
100
AcDbEntity
  8
レイヤー 1
 62
   250
420
  2299925
370
     9
100
AcDbLine
 10
106.578726809323
 20
-151.9367698089783
 30
0.0
 11
110.2160407587662
 21
-151.9367698089783
 31
0.0
  0
LINE
  5
7B
330
70
100
AcDbEntity
  8
レイヤー 1
 62
   250
420
  2299925
370
     9
100
AcDbLine
 10
105.8180661487457
 20
-154.7758547365472
 30
0.0
 11
106.3175994693349
 21
-153.9097500364211
 31
0.0
  0
LINE
  5
7C
330
70
100
AcDbEntity
  8
レイヤー 1
 62
   250
420
  2299925
370
     9
100
AcDbLine
 10
105.8180661487457
 20
-154.7758547365472
 30
0.0
 11
105.8180661487457
 21
-153.7757650398394
 31
0.0
  0
LINE
  5
7D
330
70
100
AcDbEntity
  8
レイヤー 1
 62
   250
420
  2299925
370
     9
100
AcDbLine
 10
105.8180661487457
 20
-154.7758547365472
 30
0.0
 11
106.578726809323
 21
-151.9367698089783
 31
0.0
  0
LINE
  5
7E
330
70
100
AcDbEntity
  8
レイヤー 1
 62
   250
420
  2299925
370
    25
100
AcDbLine
 10
100.8178293318683
 20
-142.2760173085782
 30
0.0
 11
100.8178293318683
 21
-155.2757408349051
 31
0.0
  0
LINE
  5
7F
330
70
100
AcDbEntity
  8
レイヤー 1
 62
   250
420
  2299925
370
    25
100
AcDbLine
 10
78.81762042737474
 20
-142.2760173085782
 30
0.0
 11
78.81762042737474
 21
-143.2757895305504
 31
0.0
  0
LINE
  5
80
330
70
100
AcDbEntity
  8
レイヤー 1
 62
   250
420
  2299925
370
    25
100
AcDbLine
 10
90.81809736881906
 20
-153.2758789414814
 30
0.0
 11
94.81785559605084
 21
-153.2758789414814
 31
0.0
  0
LINE
  5
81
330
70
100
AcDbEntity
  8
レイヤー 1
 62
   250
420
  2299925
370
    25
100
AcDbLine
 10
78.81762042737474
 20
-143.2757895305504
 30
0.0
 11
99.81805713515205
 21
-143.2757895305504
 31
0.0
  0
LINE
  5
82
330
70
100
AcDbEntity
  8
レイヤー 1
 62
   250
420
  2299925
370
    25
100
AcDbLine
 10
78.81762042737474
 20
-142.2760173085782
 30
0.0
 11
100.8178293318683
 21
-142.2760173085782
 31
0.0
  0
LINE
  5
83
330
70
100
AcDbEntity
  8
レイヤー 1
 62
   250
420
  2299925
370
    25
100
AcDbLine
 10
90.81809736881906
 20
-153.2758789414814
 30
0.0
 11
90.81809736881906
 21
-156.2758658093898
 31
0.0
  0
LINE
  5
84
330
70
100
AcDbEntity
  8
レイヤー 1
 62
   250
420
  2299925
370
    25
100
AcDbLine
 10
99.81805713515205
 20
-143.2757895305504
 30
0.0
 11
99.81805713515205
 21
-155.2757408349051
 31
0.0
  0
LINE
  5
85
330
70
100
AcDbEntity
  8
レイヤー 1
 62
   250
420
  2299925
370
    25
100
AcDbLine
 10
91.81786959079129
 20
-155.2757408349051
 30
0.0
 11
99.81805713515205
 21
-155.2757408349051
 31
0.0
  0
LINE
  5
86
330
70
100
AcDbEntity
  8
レイヤー 1
 62
   250
420
  2299925
370
    25
100
AcDbLine
 10
91.81786959079129
 20
-154.2759686381892
 30
0.0
 11
94.81785559605084
 21
-154.2759686381892
 31
0.0
  0
LINE
  5
87
330
70
100
AcDbEntity
  8
レイヤー 1
 62
   250
420
  2299925
370
    25
100
AcDbLine
 10
91.81786959079129
 20
-154.2759686381892
 30
0.0
 11
91.81786959079129
 21
-155.2757408349051
 31
0.0
  0
LINE
  5
88
330
70
100
AcDbEntity
  8
レイヤー 1
 62
   250
420
  2299925
370
    25
100
AcDbLine
 10
94.81785559605084
 20
-153.2758789414814
 30
0.0
 11
94.81785559605084
 21
-154.2759686381892
 31
0.0
  0
LINE
  5
89
330
70
100
AcDbEntity
  8
レイヤー 1
 62
   250
420
  2299925
370
    25
100
AcDbLine
 10
100.8178293318683
 20
-155.2757408349051
 30
0.0
 11
110.8182676878466
 21
-155.2757408349051
 31
0.0
  0
LINE
  5
8A
330
70
100
AcDbEntity
  8
レイヤー 1
 62
   250
420
  2299925
370
    25
100
AcDbLine
 10
104.0679356378397
 20
-155.2757408349051
 30
0.0
 11
104.0679356378397
 21
-156.2758658093898
 31
0.0
  0
LINE
  5
8B
330
70
100
AcDbEntity
  8
レイヤー 1
 62
   250
420
  2299925
370
    25
100
AcDbLine
 10
107.5681613818748
 20
-155.2757408349051
 30
0.0
 11
107.5681613818748
 21
-156.2758658093898
 31
0.0
  0
LINE
  5
8C
330
70
100
AcDbEntity
  8
レイヤー 1
 62
   250
420
  2299925
370
    25
100
AcDbLine
 10
119.8182282915718
 20
-154.2759686381892
 30
0.0
 11
119.8182282915718
 21
-155.2757408349051
 31
0.0
  0
LINE
  5
8D
330
70
100
AcDbEntity
  8
レイヤー 1
 62
   250
420
  2299925
370
    25
100
AcDbLine
 10
116.8182414236634
 20
-153.2758789414814
 30
0.0
 11
116.8182414236634
 21
-154.2759686381892
 31
0.0
  0
LINE
  5
8E
330
70
100
AcDbEntity
  8
レイヤー 1
 62
   250
420
  2299925
370
    25
100
AcDbLine
 10
119.8182282915718
 20
-154.2759686381892
 30
0.0
 11
116.8182414236634
 21
-154.2759686381892
 31
0.0
  0
LINE
  5
8F
330
70
100
AcDbEntity
  8
レイヤー 1
 62
   250
420
  2299925
370
    25
100
AcDbLine
 10
119.8182282915718
 20
-155.2757408349051
 30
0.0
 11
111.8180398845625
 21
-155.2757408349051
 31
0.0
  0
LINE
  5
90
330
70
100
AcDbEntity
  8
レイヤー 1
 62
   250
420
  2299925
370
    25
100
AcDbLine
 10
111.8180398845625
 20
-140.2757673090782
 30
0.0
 11
111.8180398845625
 21
-155.2757408349051
 31
0.0
  0
LINE
  5
91
330
70
100
AcDbEntity
  8
レイヤー 1
 62
   250
420
  2299925
370
    25
100
AcDbLine
 10
120.8180004882877
 20
-153.2758789414814
 30
0.0
 11
116.8182414236634
 21
-153.2758789414814
 31
0.0
  0
LINE
  5
92
330
70
100
AcDbEntity
  8
レイヤー 1
 62
   250
420
  2299925
370
    25
100
AcDbLine
 10
132.8179479599213
 20
-140.2757673090782
 30
0.0
 11
111.8180398845625
 21
-140.2757673090782
 31
0.0
  0
LINE
  5
93
330
70
100
AcDbEntity
  8
レイヤー 1
 62
   250
420
  2299925
370
    25
100
AcDbLine
 10
132.8179479599213
 20
-139.275995087106
 30
0.0
 11
110.8182676878466
 21
-139.275995087106
 31
0.0
  0
LINE
  5
94
330
70
100
AcDbEntity
  8
レイヤー 1
 62
   250
420
  2299925
370
    25
100
AcDbLine
 10
120.8180004882877
 20
-153.2758789414814
 30
0.0
 11
120.8180004882877
 21
-156.2758658093898
 31
0.0
  0
LINE
  5
95
330
70
100
AcDbEntity
  8
レイヤー 1
 62
   250
420
  2299925
370
    25
100
AcDbLine
 10
132.8179479599213
 20
-139.275995087106
 30
0.0
 11
132.8179479599213
 21
-140.2757673090782
 31
0.0
  0
LINE
  5
96
330
70
100
AcDbEntity
  8
レイヤー 1
 62
   250
420
  2299925
370
    25
100
AcDbLine
 10
110.8182676878466
 20
-139.275995087106
 30
0.0
 11
110.8182676878466
 21
-155.2757408349051
 31
0.0
  0
SPLINE
  5
97
330
70
100
AcDbEntity
  8
レイヤー 1
 62
   250
420
  2299925
370
     9
100
AcDbSpline
210
0.0
220
0.0
230
1.0
 70
     9
 71
     3
 72
    17
 73
    13
 74
     0
 42
0.0000000001
 43
0.0000000001
 40
0.0
 40
0.0
 40
0.0
 40
0.0
 40
1.0
 40
1.0
 40
1.0
 40
2.0
 40
2.0
 40
2.0
 40
3.0
 40
3.0
 40
3.0
 40
4.0
 40
4.0
 40
4.0
 40
4.0
 10
78.91823264957189
 20
-135.2758871784772
 30
0.0
 10
78.91823264957189
 20
-135.2207832909942
 30
0.0
 10
78.87342987180517
 20
-135.1759805143594
 30
0.0
 10
78.81762042737474
 20
-135.1759805143594
 30
0.0
 10
78.76251653849948
 20
-135.1759805143594
 30
0.0
 10
78.71771376073276
 20
-135.2207832909942
 30
0.0
 10
78.71771376073276
 20
-135.2758871784772
 30
0.0
 10
78.71771376073276
 20
-135.3310263437372
 30
0.0
 10
78.76251653849948
 20
-135.3757938425951
 30
0.0
 10
78.81762042737474
 20
-135.3757938425951
 30
0.0
 10
78.87342987180517
 20
-135.3757938425951
 30
0.0
 10
78.91823264957189
 20
-135.3310263437372
 30
0.0
 10
78.91823264957189
 20
-135.2758871784772
 30
0.0
  0
CIRCLE
  5
98
330
70
100
AcDbEntity
  8
レイヤー 1
 62
   250
420
  2299925
370
     9
100
AcDbCircle
 10
100.8178293318682
 20
-135.2758871784772
 30
0.0
 40
0.0999066641177952
  0
SPLINE
  5
99
330
70
100
AcDbEntity
  8
レイヤー 1
 62
   250
420
  2299925
370
     9
100
AcDbSpline
210
0.0
220
0.0
230
1.0
 70
     9
 71
     3
 72
    17
 73
    13
 74
     0
 42
0.0000000001
 43
0.0000000001
 40
0.0
 40
0.0
 40
0.0
 40
0.0
 40
1.0
 40
1.0
 40
1.0
 40
2.0
 40
2.0
 40
2.0
 40
3.0
 40
3.0
 40
3.0
 40
4.0
 40
4.0
 40
4.0
 40
4.0
 10
110.9181743519644
 20
-135.2758871784772
 30
0.0
 10
110.9181743519644
 20
-135.2207832909942
 30
0.0
 10
110.8733715753297
 20
-135.1759805143594
 30
0.0
 10
110.8182676878466
 20
-135.1759805143594
 30
0.0
 10
110.762458244826
 20
-135.1759805143594
 30
0.0
 10
110.7176554681912
 20
-135.2207832909942
 30
0.0
 10
110.7176554681912
 20
-135.2758871784772
 30
0.0
 10
110.7176554681912
 20
-135.3310263437372
 30
0.0
 10
110.762458244826
 20
-135.3757938425951
 30
0.0
 10
110.8182676878466
 20
-135.3757938425951
 30
0.0
 10
110.8733715753297
 20
-135.3757938425951
 30
0.0
 10
110.9181743519644
 20
-135.3310263437372
 30
0.0
 10
110.9181743519644
 20
-135.2758871784772
 30
0.0
  0
CIRCLE
  5
9A
330
70
100
AcDbEntity
  8
レイヤー 1
 62
   250
420
  2299925
370
     9
100
AcDbCircle
 10
132.8179479599213
 20
-135.2758871784772
 30
0.0
 40
0.0999066641178353
  0
SPLINE
  5
9B
330
70
100
AcDbEntity
  8
レイヤー 1
 62
   250
420
  2299925
370
     9
100
AcDbSpline
210
0.0
220
0.0
230
1.0
 70
     9
 71
     3
 72
    17
 73
    13
 74
     0
 42
0.0000000001
 43
0.0000000001
 40
0.0
 40
0.0
 40
0.0
 40
0.0
 40
1.0
 40
1.0
 40
1.0
 40
2.0
 40
2.0
 40
2.0
 40
3.0
 40
3.0
 40
3.0
 40
4.0
 40
4.0
 40
4.0
 40
4.0
 10
136.9176156906272
 20
-139.275995087106
 30
0.0
 10
136.9176156906272
 20
-139.2205423556185
 30
0.0
 10
136.8728129128604
 20
-139.1757395789837
 30
0.0
 10
136.8177070245456
 20
-139.1757395789837
 30
0.0
 10
136.7625678592857
 20
-139.1757395789837
 30
0.0
 10
136.7178003604278
 20
-139.2205423556185
 30
0.0
 10
136.7178003604278
 20
-139.275995087106
 30
0.0
 10
136.7178003604278
 20
-139.3311381861303
 30
0.0
 10
136.7625678592857
 20
-139.3759056849882
 30
0.0
 10
136.8177070245456
 20
-139.3759056849882
 30
0.0
 10
136.8728129128604
 20
-139.3759056849882
 30
0.0
 10
136.9176156906272
 20
-139.3311381861303
 30
0.0
 10
136.9176156906272
 20
-139.275995087106
 30
0.0
  0
SPLINE
  5
9C
330
70
100
AcDbEntity
  8
レイヤー 1
 62
   250
420
  2299925
370
     9
100
AcDbSpline
210
0.0
220
0.0
230
1.0
 70
     9
 71
     3
 72
    17
 73
    13
 74
     0
 42
0.0000000001
 43
0.0000000001
 40
0.0
 40
0.0
 40
0.0
 40
0.0
 40
1.0
 40
1.0
 40
1.0
 40
2.0
 40
2.0
 40
2.0
 40
3.0
 40
3.0
 40
3.0
 40
4.0
 40
4.0
 40
4.0
 40
4.0
 10
136.9176156906272
 20
-140.2757673090782
 30
0.0
 10
136.9176156906272
 20
-140.2206320523263
 30
0.0
 10
136.8728129128604
 20
-140.1758645534684
 30
0.0
 10
136.8177070245456
 20
-140.1758645534684
 30
0.0
 10
136.7625678592857
 20
-140.1758645534684
 30
0.0
 10
136.7178003604278
 20
-140.2206320523263
 30
0.0
 10
136.7178003604278
 20
-140.2757673090782
 30
0.0
 10
136.7178003604278
 20
-140.3312278828381
 30
0.0
 10
136.7625678592857
 20
-140.3760306594728
 30
0.0
 10
136.8177070245456
 20
-140.3760306594728
 30
0.0
 10
136.8728129128604
 20
-140.3760306594728
 30
0.0
 10
136.9176156906272
 20
-140.3312278828381
 30
0.0
 10
136.9176156906272
 20
-140.2757673090782
 30
0.0
  0
SPLINE
  5
9D
330
70
100
AcDbEntity
  8
レイヤー 1
 62
   250
420
  2299925
370
     9
100
AcDbSpline
210
0.0
220
0.0
230
1.0
 70
     9
 71
     3
 72
    17
 73
    13
 74
     0
 42
0.0000000001
 43
0.0000000001
 40
0.0
 40
0.0
 40
0.0
 40
0.0
 40
1.0
 40
1.0
 40
1.0
 40
2.0
 40
2.0
 40
2.0
 40
3.0
 40
3.0
 40
3.0
 40
4.0
 40
4.0
 40
4.0
 40
4.0
 10
136.9176156906272
 20
-153.2758789414814
 30
0.0
 10
136.9176156906272
 20
-153.2207397762214
 30
0.0
 10
136.8728129128604
 20
-153.1759722773636
 30
0.0
 10
136.8177070245456
 20
-153.1759722773636
 30
0.0
 10
136.7625678592857
 20
-153.1759722773636
 30
0.0
 10
136.7178003604278
 20
-153.2207397762214
 30
0.0
 10
136.7178003604278
 20
-153.2758789414814
 30
0.0
 10
136.7178003604278
 20
-153.3309828289645
 30
0.0
 10
136.7625678592857
 20
-153.3757856055992
 30
0.0
 10
136.8177070245456
 20
-153.3757856055992
 30
0.0
 10
136.8728129128604
 20
-153.3757856055992
 30
0.0
 10
136.9176156906272
 20
-153.3309828289645
 30
0.0
 10
136.9176156906272
 20
-153.2758789414814
 30
0.0
  0
SPLINE
  5
9E
330
70
100
AcDbEntity
  8
レイヤー 1
 62
   250
420
  2299925
370
     9
100
AcDbSpline
210
0.0
220
0.0
230
1.0
 70
     9
 71
     3
 72
    17
 73
    13
 74
     0
 42
0.0000000001
 43
0.0000000001
 40
0.0
 40
0.0
 40
0.0
 40
0.0
 40
1.0
 40
1.0
 40
1.0
 40
2.0
 40
2.0
 40
2.0
 40
3.0
 40
3.0
 40
3.0
 40
4.0
 40
4.0
 40
4.0
 40
4.0
 10
136.9176156906272
 20
-156.2758658093898
 30
0.0
 10
136.9176156906272
 20
-156.2207266441299
 30
0.0
 10
136.8728129128604
 20
-156.175959145272
 30
0.0
 10
136.8177070245456
 20
-156.175959145272
 30
0.0
 10
136.7625678592857
 20
-156.175959145272
 30
0.0
 10
136.7178003604278
 20
-156.2207266441299
 30
0.0
 10
136.7178003604278
 20
-156.2758658093898
 30
0.0
 10
136.7178003604278
 20
-156.3309696968729
 30
0.0
 10
136.7625678592857
 20
-156.3757724735077
 30
0.0
 10
136.8177070245456
 20
-156.3757724735077
 30
0.0
 10
136.8728129128604
 20
-156.3757724735077
 30
0.0
 10
136.9176156906272
 20
-156.3309696968729
 30
0.0
 10
136.9176156906272
 20
-156.2758658093898
 30
0.0
  0
SPLINE
  5
9F
330
70
100
AcDbEntity
  8
レイヤー 1
 62
   250
420
  2299925
370
     9
100
AcDbSpline
210
0.0
220
0.0
230
1.0
 70
     9
 71
     3
 72
    17
 73
    13
 74
     0
 42
0.0000000001
 43
0.0000000001
 40
0.0
 40
0.0
 40
0.0
 40
0.0
 40
1.0
 40
1.0
 40
1.0
 40
2.0
 40
2.0
 40
2.0
 40
3.0
 40
3.0
 40
3.0
 40
4.0
 40
4.0
 40
4.0
 40
4.0
 10
120.9179071524056
 20
-164.2760542163991
 30
0.0
 10
120.9179071524056
 20
-164.2205975511473
 30
0.0
 10
120.8731043757708
 20
-164.1757947745125
 30
0.0
 10
120.8180004882877
 20
-164.1757947745125
 30
0.0
 10
120.7628629168882
 20
-164.1757947745125
 30
0.0
 10
120.7180938241699
 20
-164.2205975511473
 30
0.0
 10
120.7180938241699
 20
-164.2760542163991
 30
0.0
 10
120.7180938241699
 20
-164.3311933816591
 30
0.0
 10
120.7628629168882
 20
-164.375960880517
 30
0.0
 10
120.8180004882877
 20
-164.375960880517
 30
0.0
 10
120.8731043757708
 20
-164.375960880517
 30
0.0
 10
120.9179071524056
 20
-164.3311933816591
 30
0.0
 10
120.9179071524056
 20
-164.2760542163991
 30
0.0
  0
SPLINE
  5
A0
330
70
100
AcDbEntity
  8
レイヤー 1
 62
   250
420
  2299925
370
     9
100
AcDbSpline
210
0.0
220
0.0
230
1.0
 70
     9
 71
     3
 72
    17
 73
    13
 74
     0
 42
0.0000000001
 43
0.0000000001
 40
0.0
 40
0.0
 40
0.0
 40
0.0
 40
1.0
 40
1.0
 40
1.0
 40
2.0
 40
2.0
 40
2.0
 40
3.0
 40
3.0
 40
3.0
 40
4.0
 40
4.0
 40
4.0
 40
4.0
 10
111.9179465486803
 20
-164.2760542163991
 30
0.0
 10
111.9179465486803
 20
-164.2205975511473
 30
0.0
 10
111.8731437720456
 20
-164.1757947745125
 30
0.0
 10
111.8180398845625
 20
-164.1757947745125
 30
0.0
 10
111.7629007193026
 20
-164.1757947745125
 30
0.0
 10
111.7181332204447
 20
-164.2205975511473
 30
0.0
 10
111.7181332204447
 20
-164.2760542163991
 30
0.0
 10
111.7181332204447
 20
-164.3311933816591
 30
0.0
 10
111.7629007193026
 20
-164.375960880517
 30
0.0
 10
111.8180398845625
 20
-164.375960880517
 30
0.0
 10
111.8731437720456
 20
-164.375960880517
 30
0.0
 10
111.9179465486803
 20
-164.3311933816591
 30
0.0
 10
111.9179465486803
 20
-164.2760542163991
 30
0.0
  0
SPLINE
  5
A1
330
70
100
AcDbEntity
  8
レイヤー 1
 62
   250
420
  2299925
370
     9
100
AcDbSpline
210
0.0
220
0.0
230
1.0
 70
     9
 71
     3
 72
    17
 73
    13
 74
     0
 42
0.0000000001
 43
0.0000000001
 40
0.0
 40
0.0
 40
0.0
 40
0.0
 40
1.0
 40
1.0
 40
1.0
 40
2.0
 40
2.0
 40
2.0
 40
3.0
 40
3.0
 40
3.0
 40
4.0
 40
4.0
 40
4.0
 40
4.0
 10
99.91796379926988
 20
-164.2760542163991
 30
0.0
 10
99.91796379926988
 20
-164.2205975511473
 30
0.0
 10
99.873196300412
 20
-164.1757947745125
 30
0.0
 10
99.81805713515205
 20
-164.1757947745125
 30
0.0
 10
99.76224769213143
 20
-164.1757947745125
 30
0.0
 10
99.71748019327355
 20
-164.2205975511473
 30
0.0
 10
99.71748019327355
 20
-164.2760542163991
 30
0.0
 10
99.71748019327355
 20
-164.3311933816591
 30
0.0
 10
99.76224769213143
 20
-164.375960880517
 30
0.0
 10
99.81805713515205
 20
-164.375960880517
 30
0.0
 10
99.873196300412
 20
-164.375960880517
 30
0.0
 10
99.91796379926988
 20
-164.3311933816591
 30
0.0
 10
99.91796379926988
 20
-164.2760542163991
 30
0.0
  0
SPLINE
  5
A2
330
70
100
AcDbEntity
  8
レイヤー 1
 62
   250
420
  2299925
370
     9
100
AcDbSpline
210
0.0
220
0.0
230
1.0
 70
     9
 71
     3
 72
    17
 73
    13
 74
     0
 42
0.0000000001
 43
0.0000000001
 40
0.0
 40
0.0
 40
0.0
 40
0.0
 40
1.0
 40
1.0
 40
1.0
 40
2.0
 40
2.0
 40
2.0
 40
3.0
 40
3.0
 40
3.0
 40
4.0
 40
4.0
 40
4.0
 40
4.0
 10
90.9180040354607
 20
-164.2760542163991
 30
0.0
 10
90.9180040354607
 20
-164.2205975511473
 30
0.0
 10
90.87323653547182
 20
-164.1757947745125
 30
0.0
 10
90.81809736881906
 20
-164.1757947745125
 30
0.0
 10
90.76228792438895
 20
-164.1757947745125
 30
0.0
 10
90.71752042439973
 20
-164.2205975511473
 30
0.0
 10
90.71752042439973
 20
-164.2760542163991
 30
0.0
 10
90.71752042439973
 20
-164.3311933816591
 30
0.0
 10
90.76228792438895
 20
-164.375960880517
 30
0.0
 10
90.81809736881906
 20
-164.375960880517
 30
0.0
 10
90.87323653547182
 20
-164.375960880517
 30
0.0
 10
90.9180040354607
 20
-164.3311933816591
 30
0.0
 10
90.9180040354607
 20
-164.2760542163991
 30
0.0
  0
SPLINE
  5
A3
330
70
100
AcDbEntity
  8
レイヤー 1
 62
   250
420
  2299925
370
     9
100
AcDbSpline
210
0.0
220
0.0
230
1.0
 70
     9
 71
     3
 72
    17
 73
    13
 74
     0
 42
0.0000000001
 43
0.0000000001
 40
0.0
 40
0.0
 40
0.0
 40
0.0
 40
1.0
 40
1.0
 40
1.0
 40
2.0
 40
2.0
 40
2.0
 40
3.0
 40
3.0
 40
3.0
 40
4.0
 40
4.0
 40
4.0
 40
4.0
 10
104.1678434765931
 20
-160.275942374006
 30
0.0
 10
104.1678434765931
 20
-160.2208384865229
 30
0.0
 10
104.1230748030997
 20
-160.1760357098882
 30
0.0
 10
104.0679356378397
 20
-160.1760357098882
 30
0.0
 10
104.0128317503566
 20
-160.1760357098882
 30
0.0
 10
103.9680289737219
 20
-160.2208384865229
 30
0.0
 10
103.9680289737219
 20
-160.275942374006
 30
0.0
 10
103.9680289737219
 20
-160.331081539266
 30
0.0
 10
104.0128317503566
 20
-160.3758843159007
 30
0.0
 10
104.0679356378397
 20
-160.3758843159007
 30
0.0
 10
104.1230748030997
 20
-160.3758843159007
 30
0.0
 10
104.1678434765931
 20
-160.331081539266
 30
0.0
 10
104.1678434765931
 20
-160.275942374006
 30
0.0
  0
SPLINE
  5
A4
330
70
100
AcDbEntity
  8
レイヤー 1
 62
   250
420
  2299925
370
     9
100
AcDbSpline
210
0.0
220
0.0
230
1.0
 70
     9
 71
     3
 72
    17
 73
    13
 74
     0
 42
0.0000000001
 43
0.0000000001
 40
0.0
 40
0.0
 40
0.0
 40
0.0
 40
1.0
 40
1.0
 40
1.0
 40
2.0
 40
2.0
 40
2.0
 40
3.0
 40
3.0
 40
3.0
 40
4.0
 40
4.0
 40
4.0
 40
4.0
 10
107.6680680459927
 20
-160.275942374006
 30
0.0
 10
107.6680680459927
 20
-160.2208384865229
 30
0.0
 10
107.6232652693579
 20
-160.1760357098882
 30
0.0
 10
107.5681613818748
 20
-160.1760357098882
 30
0.0
 10
107.5130222166149
 20
-160.1760357098882
 30
0.0
 10
107.468254717757
 20
-160.2208384865229
 30
0.0
 10
107.468254717757
 20
-160.275942374006
 30
0.0
 10
107.468254717757
 20
-160.331081539266
 30
0.0
 10
107.5130222166149
 20
-160.3758843159007
 30
0.0
 10
107.5681613818748
 20
-160.3758843159007
 30
0.0
 10
107.6232652693579
 20
-160.3758843159007
 30
0.0
 10
107.6680680459927
 20
-160.331081539266
 30
0.0
 10
107.6680680459927
 20
-160.275942374006
 30
0.0
  0
INSERT
  5
A6
330
70
100
AcDbEntity
  8
レイヤー 1
100
AcDbBlockReference
  2
Block_0
 10
0.0
 20
0.0
 30
0.0
  0
INSERT
  5
BC
330
70
100
AcDbEntity
  8
レイヤー 1
100
AcDbBlockReference
  2
Block_2
 10
0.0
 20
0.0
 30
0.0
  0
INSERT
  5
D0
330
70
100
AcDbEntity
  8
レイヤー 1
100
AcDbBlockReference
  2
Block_5
 10
0.0
 20
0.0
 30
0.0
  0
INSERT
  5
E4
330
70
100
AcDbEntity
  8
レイヤー 1
100
AcDbBlockReference
  2
Block_8
 10
0.0
 20
0.0
 30
0.0
  0
INSERT
  5
F7
330
70
100
AcDbEntity
  8
レイヤー 1
100
AcDbBlockReference
  2
Block_11
 10
0.0
 20
0.0
 30
0.0
  0
INSERT
  5
10E
330
70
100
AcDbEntity
  8
レイヤー 1
100
AcDbBlockReference
  2
Block_14
 10
0.0
 20
0.0
 30
0.0
  0
INSERT
  5
122
330
70
100
AcDbEntity
  8
レイヤー 1
100
AcDbBlockReference
  2
Block_17
 10
0.0
 20
0.0
 30
0.0
  0
INSERT
  5
130
330
70
100
AcDbEntity
  8
レイヤー 1
100
AcDbBlockReference
  2
Block_19
 10
0.0
 20
0.0
 30
0.0
  0
INSERT
  5
13E
330
70
100
AcDbEntity
  8
レイヤー 1
100
AcDbBlockReference
  2
Block_21
 10
0.0
 20
0.0
 30
0.0
  0
INSERT
  5
14C
330
70
100
AcDbEntity
  8
レイヤー 1
100
AcDbBlockReference
  2
Block_23
 10
0.0
 20
0.0
 30
0.0
  0
INSERT
  5
15A
330
70
100
AcDbEntity
  8
レイヤー 1
100
AcDbBlockReference
  2
Block_25
 10
0.0
 20
0.0
 30
0.0
  0
SPLINE
  5
16C
330
70
100
AcDbEntity
  8
レイヤー 1
 62
   250
420
  2299925
370
     9
100
AcDbSpline
210
0.0
220
0.0
230
1.0
 70
     9
 71
     3
 72
    17
 73
    13
 74
     0
 42
0.0000000001
 43
0.0000000001
 40
0.0
 40
0.0
 40
0.0
 40
0.0
 40
1.0
 40
1.0
 40
1.0
 40
2.0
 40
2.0
 40
2.0
 40
3.0
 40
3.0
 40
3.0
 40
4.0
 40
4.0
 40
4.0
 40
4.0
 10
75.51886598375492
 20
-142.2760173085782
 30
0.0
 10
75.51886598375492
 20
-142.2205645013038
 30
0.0
 10
75.56366876152195
 20
-142.175761724669
 30
0.0
 10
75.61877265039655
 20
-142.175761724669
 30
0.0
 10
75.67391181704995
 20
-142.175761724669
 30
0.0
 10
75.71867931703819
 20
-142.2205645013038
 30
0.0
 10
75.71867931703819
 20
-142.2760173085782
 30
0.0
 10
75.71867931703819
 20
-142.3311603318155
 30
0.0
 10
75.67391181704995
 20
-142.3759278306734
 30
0.0
 10
75.61877265039655
 20
-142.3759278306734
 30
0.0
 10
75.56366876152195
 20
-142.3759278306734
 30
0.0
 10
75.51886598375492
 20
-142.3311603318155
 30
0.0
 10
75.51886598375492
 20
-142.2760173085782
 30
0.0
  0
SPLINE
  5
16D
330
70
100
AcDbEntity
  8
レイヤー 1
 62
   250
420
  2299925
370
     9
100
AcDbSpline
210
0.0
220
0.0
230
1.0
 70
     9
 71
     3
 72
    17
 73
    13
 74
     0
 42
0.0000000001
 43
0.0000000001
 40
0.0
 40
0.0
 40
0.0
 40
0.0
 40
1.0
 40
1.0
 40
1.0
 40
2.0
 40
2.0
 40
2.0
 40
3.0
 40
3.0
 40
3.0
 40
4.0
 40
4.0
 40
4.0
 40
4.0
 10
75.51886598375492
 20
-143.2757895305504
 30
0.0
 10
75.51886598375492
 20
-143.2206541980116
 30
0.0
 10
75.56366876152195
 20
-143.1758866991537
 30
0.0
 10
75.61877265039655
 20
-143.1758866991537
 30
0.0
 10
75.67391181704995
 20
-143.1758866991537
 30
0.0
 10
75.71867931703819
 20
-143.2206541980116
 30
0.0
 10
75.71867931703819
 20
-143.2757895305504
 30
0.0
 10
75.71867931703819
 20
-143.3312500285234
 30
0.0
 10
75.67391181704995
 20
-143.3760528051581
 30
0.0
 10
75.61877265039655
 20
-143.3760528051581
 30
0.0
 10
75.56366876152195
 20
-143.3760528051581
 30
0.0
 10
75.51886598375492
 20
-143.3312500285234
 30
0.0
 10
75.51886598375492
 20
-143.2757895305504
 30
0.0
  0
CIRCLE
  5
16E
330
70
100
AcDbEntity
  8
レイヤー 1
 62
   250
420
  2299925
370
     9
100
AcDbCircle
 10
75.61877265039655
 20
-153.2758789414814
 30
0.0
 40
0.0999066653797365
  0
CIRCLE
  5
16F
330
70
100
AcDbEntity
  8
レイヤー 1
 62
   250
420
  2299925
370
     9
100
AcDbCircle
 10
75.61877265039655
 20
-156.2758658093898
 30
0.0
 40
0.0999066653797365
  0
INSERT
  5
171
330
70
100
AcDbEntity
  8
レイヤー 1
100
AcDbBlockReference
  2
Block_28
 10
0.0
 20
0.0
 30
0.0
  0
INSERT
  5
17F
330
70
100
AcDbEntity
  8
レイヤー 1
100
AcDbBlockReference
  2
Block_30
 10
0.0
 20
0.0
 30
0.0
  0
INSERT
  5
18D
330
70
100
AcDbEntity
  8
レイヤー 1
100
AcDbBlockReference
  2
Block_32
 10
0.0
 20
0.0
 30
0.0
  0
ENDSEC
  0
SECTION
  2
OBJECTS
  0
DICTIONARY
  5
C
330
0
100
AcDbDictionary
281
     1
  3
ACAD_COLOR
350
63
  3
ACAD_DETAILVIEWSTYLE
350
6A
  3
ACAD_GROUP
350
D
  3
ACAD_LAYOUT
350
62
  3
ACAD_MATERIAL
350
10
  3
ACAD_MLEADERSTYLE
350
66
  3
ACAD_MLINESTYLE
350
5F
  3
ACAD_PLOTSETTINGS
350
61
  3
ACAD_PLOTSTYLENAME
350
E
  3
ACAD_SCALELIST
350
42
  3
ACAD_SECTIONVIEWSTYLE
350
68
  3
ACAD_TABLESTYLE
350
64
  3
ACAD_VISUALSTYLE
350
29
  3
ACDB_RECOMPOSE_DATA
350
1A8
  3
AcDbVariableDictionary
350
1A0
  0
DICTIONARY
  5
63
102
{ACAD_REACTORS
330
C
102
}
330
C
100
AcDbDictionary
281
     1
  0
DICTIONARY
  5
6A
102
{ACAD_REACTORS
330
C
102
}
330
C
100
AcDbDictionary
281
     1
  3
Imperial24
350
6B
  0
DICTIONARY
  5
D
102
{ACAD_REACTORS
330
C
102
}
330
C
100
AcDbDictionary
281
     1
  0
DICTIONARY
  5
62
102
{ACAD_REACTORS
330
C
102
}
330
C
100
AcDbDictionary
281
     1
  3
Layout1
350
6F
  3
Layout2
350
77
  3
Model
350
73
  0
DICTIONARY
  5
10
102
{ACAD_REACTORS
330
C
102
}
330
C
100
AcDbDictionary
281
     1
  3
ByBlock
350
19
  3
ByLayer
350
11
  3
Global
350
21
  0
DICTIONARY
  5
66
102
{ACAD_REACTORS
330
C
102
}
330
C
100
AcDbDictionary
281
     1
  3
Standard
350
67
  0
DICTIONARY
  5
5F
102
{ACAD_REACTORS
330
C
102
}
330
C
100
AcDbDictionary
281
     1
  3
Standard
350
60
  0
DICTIONARY
  5
61
102
{ACAD_REACTORS
330
C
102
}
330
C
100
AcDbDictionary
281
     1
  0
ACDBDICTIONARYWDFLT
  5
E
102
{ACAD_REACTORS
330
C
102
}
330
C
100
AcDbDictionary
281
     1
  3
Normal
350
F
100
AcDbDictionaryWithDefault
340
F
  0
DICTIONARY
  5
42
102
{ACAD_REACTORS
330
C
102
}
330
C
100
AcDbDictionary
281
     1
  3
A0
350
43
  3
A1
350
44
  3
A2
350
45
  3
A3
350
46
  3
A4
350
47
  3
A5
350
48
  3
A6
350
49
  3
A7
350
4A
  3
A8
350
4B
  3
A9
350
4C
  3
B0
350
4D
  3
B1
350
4E
  3
B2
350
4F
  3
B3
350
50
  3
B4
350
51
  3
B5
350
52
  3
B6
350
53
  0
DICTIONARY
  5
68
102
{ACAD_REACTORS
330
C
102
}
330
C
100
AcDbDictionary
281
     1
  3
Imperial24
350
69
  0
DICTIONARY
  5
64
102
{ACAD_REACTORS
330
C
102
}
330
C
100
AcDbDictionary
281
     1
  3
Standard
350
65
  0
DICTIONARY
  5
29
102
{ACAD_REACTORS
330
C
102
}
330
C
100
AcDbDictionary
281
     1
  3
2dWireframe
350
2F
  3
Basic
350
2E
  3
Brighten
350
35
  3
ColorChange
350
39
  3
Conceptual
350
32
  3
Dim
350
34
  3
EdgeColorOff
350
41
  3
Facepattern
350
38
  3
Flat
350
2A
  3
FlatWithEdges
350
2B
  3
Gouraud
350
2C
  3
GouraudWithEdges
350
2D
  3
Hidden
350
31
  3
JitterOff
350
3F
  3
Linepattern
350
37
  3
OverhangOff
350
40
  3
Realistic
350
33
  3
Shaded
350
3E
  3
Shaded with edges
350
3D
  3
Shades of Gray
350
3A
  3
Sketchy
350
3B
  3
Thicken
350
36
  3
Wireframe
350
30
  3
X-Ray
350
3C
  0
XRECORD
  5
1A8
102
{ACAD_REACTORS
330
C
102
}
330
C
100
AcDbXrecord
280
     1
 90
        1
330
65
  0
DICTIONARY
  5
1A0
102
{ACAD_REACTORS
330
C
102
}
330
C
100
AcDbDictionary
281
     1
  3
CANNOSCALE
350
1A5
  3
CMLEADERSTYLE
350
1A2
  3
CTABLESTYLE
350
1A1
  3
CVIEWDETAILSTYLE
350
1A3
  3
CVIEWSECTIONSTYLE
350
1A4
  0
ACDBDETAILVIEWSTYLE
  5
6B
102
{ACAD_XDICTIONARY
360
1DD
102
}
102
{ACAD_REACTORS
330
6A
102
}
330
6A
100
AcDbModelDocViewStyle
 70
     0
  3
Imperial24
290
     0
100
AcDbDetailViewStyle
 70
     0
 71
     0
 90
        3
 71
     1
340
55
 62
   256
 40
0.24
340
0
 62
   256
 40
0.24
300

 40
0.36
280
     3
 71
     2
340
5D
 90
       25
 62
   256
 71
     3
340
55
 62
   256
 40
0.24
 90
        1
 40
0.75
 90
        1
300
%<\AcVar ViewType \f "%tc1">% %<\AcVar ViewDetailId>%\PSCALE %<\AcVar ViewScale \f "%sn">%
 71
     4
340
5D
 90
       25
 62
   256
340
5D
 90
       25
 62
   256
280
     0
  0
LAYOUT
  5
6F
102
{ACAD_REACTORS
330
62
102
}
330
62
100
AcDbPlotSettings
  1

  2

  4

  6

 40
0.0
 41
0.0
 42
0.0
 43
0.0
 44
0.0
 45
0.0
 46
0.0
 47
0.0
 48
0.0
 49
0.0
140
0.0
141
0.0
142
1.0
143
1.0
 70
   688
 72
     0
 73
     0
 74
     5
  7

 75
    16
147
1.0
 76
     0
 77
     2
 78
   300
148
0.0
149
0.0
100
AcDbLayout
  1
Layout1
 70
     1
 71
     1
 10
0.0
 20
0.0
 11
12.0
 21
9.0
 12
0.0
 22
0.0
 32
0.0
 14
0.0
 24
0.0
 34
0.0
 15
0.0
 25
0.0
 35
0.0
146
0.0
 13
0.0
 23
0.0
 33
0.0
 16
1.0
 26
0.0
 36
0.0
 17
0.0
 27
1.0
 37
0.0
 76
     0
330
6C
  0
LAYOUT
  5
77
102
{ACAD_REACTORS
330
62
102
}
330
62
100
AcDbPlotSettings
  1

  2

  4

  6

 40
0.0
 41
0.0
 42
0.0
 43
0.0
 44
0.0
 45
0.0
 46
0.0
 47
0.0
 48
0.0
 49
0.0
140
0.0
141
0.0
142
1.0
143
1.0
 70
   688
 72
     0
 73
     0
 74
     5
  7

 75
    16
147
1.0
 76
     0
 77
     2
 78
   300
148
0.0
149
0.0
100
AcDbLayout
  1
Layout2
 70
     1
 71
     2
 10
0.0
 20
0.0
 11
12.0
 21
9.0
 12
0.0
 22
0.0
 32
0.0
 14
0.0
 24
0.0
 34
0.0
 15
0.0
 25
0.0
 35
0.0
146
0.0
 13
0.0
 23
0.0
 33
0.0
 16
1.0
 26
0.0
 36
0.0
 17
0.0
 27
1.0
 37
0.0
 76
     0
330
74
  0
LAYOUT
  5
73
102
{ACAD_REACTORS
330
62
102
}
330
62
100
AcDbPlotSettings
  1

  2

  4

  6

 40
0.0
 41
0.0
 42
0.0
 43
0.0
 44
0.0
 45
0.0
 46
0.0
 47
0.0
 48
0.0
 49
0.0
140
0.0
141
0.0
142
1.0
143
1.0
 70
  1712
 72
     0
 73
     0
 74
     0
  7

 75
     0
147
1.0
 76
     0
 77
     2
 78
   300
148
0.0
149
0.0
100
AcDbLayout
  1
Model
 70
     1
 71
     0
 10
0.0
 20
0.0
 11
12.0
 21
9.0
 12
0.0
 22
0.0
 32
0.0
 14
0.0
 24
0.0
 34
0.0
 15
0.0
 25
0.0
 35
0.0
146
0.0
 13
0.0
 23
0.0
 33
0.0
 16
1.0
 26
0.0
 36
0.0
 17
0.0
 27
1.0
 37
0.0
 76
     0
330
70
  0
MATERIAL
  5
19
102
{ACAD_XDICTIONARY
360
1A
102
}
102
{ACAD_REACTORS
330
10
102
}
330
10
100
AcDbMaterial
  1
ByBlock
 72
     0
 43
0.0208333333333333
 43
0.0
 43
0.0
 43
0.0
 43
0.0
 43
0.0208333333333333
 43
0.0
 43
0.0
 43
0.0
 43
0.0
 43
1.0
 43
0.0
 43
0.0
 43
0.0
 43
0.0
 43
1.0
 77
     0
 47
0.0208333333333333
 47
0.0
 47
0.0
 47
0.0
 47
0.0
 47
0.0208333333333333
 47
0.0
 47
0.0
 47
0.0
 47
0.0
 47
1.0
 47
0.0
 47
0.0
 47
0.0
 47
0.0
 47
1.0
171
     0
 49
0.0208333333333333
 49
0.0
 49
0.0
 49
0.0
 49
0.0
 49
0.0208333333333333
 49
0.0
 49
0.0
 49
0.0
 49
0.0
 49
1.0
 49
0.0
 49
0.0
 49
0.0
 49
0.0
 49
1.0
175
     0
142
0.0208333333333333
142
0.0
142
0.0
142
0.0
142
0.0
142
0.0208333333333333
142
0.0
142
0.0
142
0.0
142
0.0
142
1.0
142
0.0
142
0.0
142
0.0
142
0.0
142
1.0
179
     0
144
0.0208333333333333
144
0.0
144
0.0
144
0.0
144
0.0
144
0.0208333333333333
144
0.0
144
0.0
144
0.0
144
0.0
144
1.0
144
0.0
144
0.0
144
0.0
144
0.0
144
1.0
147
0.0208333333333333
147
0.0
147
0.0
147
0.0
147
0.0
147
0.0208333333333333
147
0.0
147
0.0
147
0.0
147
0.0
147
1.0
147
0.0
147
0.0
147
0.0
147
0.0
147
1.0
  0
MATERIAL
  5
11
102
{ACAD_XDICTIONARY
360
12
102
}
102
{ACAD_REACTORS
330
10
102
}
330
10
100
AcDbMaterial
  1
ByLayer
 72
     0
 43
0.0208333333333333
 43
0.0
 43
0.0
 43
0.0
 43
0.0
 43
0.0208333333333333
 43
0.0
 43
0.0
 43
0.0
 43
0.0
 43
1.0
 43
0.0
 43
0.0
 43
0.0
 43
0.0
 43
1.0
 77
     0
 47
0.0208333333333333
 47
0.0
 47
0.0
 47
0.0
 47
0.0
 47
0.0208333333333333
 47
0.0
 47
0.0
 47
0.0
 47
0.0
 47
1.0
 47
0.0
 47
0.0
 47
0.0
 47
0.0
 47
1.0
171
     0
 49
0.0208333333333333
 49
0.0
 49
0.0
 49
0.0
 49
0.0
 49
0.0208333333333333
 49
0.0
 49
0.0
 49
0.0
 49
0.0
 49
1.0
 49
0.0
 49
0.0
 49
0.0
 49
0.0
 49
1.0
175
     0
142
0.0208333333333333
142
0.0
142
0.0
142
0.0
142
0.0
142
0.0208333333333333
142
0.0
142
0.0
142
0.0
142
0.0
142
1.0
142
0.0
142
0.0
142
0.0
142
0.0
142
1.0
179
     0
144
0.0208333333333333
144
0.0
144
0.0
144
0.0
144
0.0
144
0.0208333333333333
144
0.0
144
0.0
144
0.0
144
0.0
144
1.0
144
0.0
144
0.0
144
0.0
144
0.0
144
1.0
147
0.0208333333333333
147
0.0
147
0.0
147
0.0
147
0.0
147
0.0208333333333333
147
0.0
147
0.0
147
0.0
147
0.0
147
1.0
147
0.0
147
0.0
147
0.0
147
0.0
147
1.0
  0
MATERIAL
  5
21
102
{ACAD_XDICTIONARY
360
22
102
}
102
{ACAD_REACTORS
330
10
102
}
330
10
100
AcDbMaterial
  1
Global
 72
     0
 43
0.0208333333333333
 43
0.0
 43
0.0
 43
0.0
 43
0.0
 43
0.0208333333333333
 43
0.0
 43
0.0
 43
0.0
 43
0.0
 43
1.0
 43
0.0
 43
0.0
 43
0.0
 43
0.0
 43
1.0
 77
     0
 47
0.0208333333333333
 47
0.0
 47
0.0
 47
0.0
 47
0.0
 47
0.0208333333333333
 47
0.0
 47
0.0
 47
0.0
 47
0.0
 47
1.0
 47
0.0
 47
0.0
 47
0.0
 47
0.0
 47
1.0
171
     0
 49
0.0208333333333333
 49
0.0
 49
0.0
 49
0.0
 49
0.0
 49
0.0208333333333333
 49
0.0
 49
0.0
 49
0.0
 49
0.0
 49
1.0
 49
0.0
 49
0.0
 49
0.0
 49
0.0
 49
1.0
175
     0
142
0.0208333333333333
142
0.0
142
0.0
142
0.0
142
0.0
142
0.0208333333333333
142
0.0
142
0.0
142
0.0
142
0.0
142
1.0
142
0.0
142
0.0
142
0.0
142
0.0
142
1.0
179
     0
144
0.0208333333333333
144
0.0
144
0.0
144
0.0
144
0.0
144
0.0208333333333333
144
0.0
144
0.0
144
0.0
144
0.0
144
1.0
144
0.0
144
0.0
144
0.0
144
0.0
144
1.0
147
0.0208333333333333
147
0.0
147
0.0
147
0.0
147
0.0
147
0.0208333333333333
147
0.0
147
0.0
147
0.0
147
0.0
147
1.0
147
0.0
147
0.0
147
0.0
147
0.0
147
1.0
  0
MLEADERSTYLE
  5
67
102
{ACAD_XDICTIONARY
360
1D9
102
}
102
{ACAD_REACTORS
330
66
102
}
330
66
100
AcDbMLeaderStyle
179
     2
170
     2
171
     1
172
     0
 90
        2
 40
0.0
 41
0.0
173
     1
 91
-1056964608
340
5B
 92
       -2
290
     1
 42
0.09
291
     1
 43
0.36
  3
Standard
 44
0.18
300

342
55
174
     1
178
     6
175
     1
176
     0
 93
-1056964608
 45
0.18
292
     0
297
     0
 46
0.18
 94
-1056964608
 47
1.0
 49
1.0
140
1.0
293
     1
141
0.0
294
     1
177
     0
142
1.0
295
     0
296
     0
143
0.125
271
     0
272
     9
273
     9
  0
MLINESTYLE
  5
60
102
{ACAD_REACTORS
330
5F
102
}
330
5F
100
AcDbMlineStyle
  2
STANDARD
 70
     0
  3

 62
   256
 51
90.0
 52
90.0
 71
     2
 49
0.5
 62
   256
  6
BYLAYER
 49
-0.5
 62
   256
  6
BYLAYER
  0
ACDBPLACEHOLDER
  5
F
102
{ACAD_REACTORS
330
E
102
}
330
E
  0
SCALE
  5
43
102
{ACAD_REACTORS
330
42
102
}
330
42
100
AcDbScale
 70
     0
300
1:1
140
1.0
141
1.0
290
     1
  0
SCALE
  5
44
102
{ACAD_REACTORS
330
42
102
}
330
42
100
AcDbScale
 70
     0
300
1/128" = 1'-0"
140
0.0078125
141
12.0
290
     0
  0
SCALE
  5
45
102
{ACAD_REACTORS
330
42
102
}
330
42
100
AcDbScale
 70
     0
300
1/64" = 1'-0"
140
0.015625
141
12.0
290
     0
  0
SCALE
  5
46
102
{ACAD_REACTORS
330
42
102
}
330
42
100
AcDbScale
 70
     0
300
1/32" = 1'-0"
140
0.03125
141
12.0
290
     0
  0
SCALE
  5
47
102
{ACAD_REACTORS
330
42
102
}
330
42
100
AcDbScale
 70
     0
300
1/16" = 1'-0"
140
0.0625
141
12.0
290
     0
  0
SCALE
  5
48
102
{ACAD_REACTORS
330
42
102
}
330
42
100
AcDbScale
 70
     0
300
3/32" = 1'-0"
140
0.09375
141
12.0
290
     0
  0
SCALE
  5
49
102
{ACAD_REACTORS
330
42
102
}
330
42
100
AcDbScale
 70
     0
300
1/8" = 1'-0"
140
0.125
141
12.0
290
     0
  0
SCALE
  5
4A
102
{ACAD_REACTORS
330
42
102
}
330
42
100
AcDbScale
 70
     0
300
3/16" = 1'-0"
140
0.1875
141
12.0
290
     0
  0
SCALE
  5
4B
102
{ACAD_REACTORS
330
42
102
}
330
42
100
AcDbScale
 70
     0
300
1/4" = 1'-0"
140
0.25
141
12.0
290
     0
  0
SCALE
  5
4C
102
{ACAD_REACTORS
330
42
102
}
330
42
100
AcDbScale
 70
     0
300
3/8" = 1'-0"
140
0.375
141
12.0
290
     0
  0
SCALE
  5
4D
102
{ACAD_REACTORS
330
42
102
}
330
42
100
AcDbScale
 70
     0
300
1/2" = 1'-0"
140
0.5
141
12.0
290
     0
  0
SCALE
  5
4E
102
{ACAD_REACTORS
330
42
102
}
330
42
100
AcDbScale
 70
     0
300
3/4" = 1'-0"
140
0.75
141
12.0
290
     0
  0
SCALE
  5
4F
102
{ACAD_REACTORS
330
42
102
}
330
42
100
AcDbScale
 70
     0
300
1" = 1'-0"
140
1.0
141
12.0
290
     0
  0
SCALE
  5
50
102
{ACAD_REACTORS
330
42
102
}
330
42
100
AcDbScale
 70
     0
300
1-1/2" = 1'-0"
140
1.5
141
12.0
290
     0
  0
SCALE
  5
51
102
{ACAD_REACTORS
330
42
102
}
330
42
100
AcDbScale
 70
     0
300
3" = 1'-0"
140
3.0
141
12.0
290
     0
  0
SCALE
  5
52
102
{ACAD_REACTORS
330
42
102
}
330
42
100
AcDbScale
 70
     0
300
6" = 1'-0"
140
6.0
141
12.0
290
     0
  0
SCALE
  5
53
102
{ACAD_REACTORS
330
42
102
}
330
42
100
AcDbScale
 70
     0
300
1'-0" = 1'-0"
140
12.0
141
12.0
290
     0
  0
ACDBSECTIONVIEWSTYLE
  5
69
102
{ACAD_XDICTIONARY
360
1DB
102
}
102
{ACAD_REACTORS
330
68
102
}
330
68
100
AcDbModelDocViewStyle
 70
     0
  3
Imperial24
290
     0
100
AcDbSectionViewStyle
 70
     0
 71
     0
 90
       78
 71
     1
340
55
 62
   256
 40
0.24
340
0
340
0
 62
   256
 40
0.24
300
I, O, Q, S, X, Z
 40
0.48
 90
        3
 40
0.18
 90
        1
 71
     2
340
5D
 90
       25
 62
   256
340
5D
 90
       50
 62
   256
 40
0.24
 40
0.0
 40
0.24
 71
     3
340
55
 62
   256
 40
0.24
 90
        1
 40
0.75
 90
        1
300
%<\AcVar ViewType \f "%tc1">% %<\AcVar ViewSectionStartId>%-%<\AcVar ViewSectionEndId>%\PSCALE %<\AcVar ViewScale \f "%sn">%
 71
     4
 62
   256
 62
   257
300
ANSI31
 40
1.0
 90
        0
290
     0
290
     0
 90
        6
 40
0.0
 40
1.570796326794896
 40
0.2617993877991494
 40
1.308996938995747
 40
-0.2617993877991494
 40
1.832595714594046
  0
TABLESTYLE
  5
65
102
{ACAD_XDICTIONARY
360
1A6
102
}
102
{ACAD_REACTORS
330
64
102
}
330
64
100
AcDbTableStyle
280
     0
  3
Standard
 70
     0
 71
     0
 40
0.06
 41
0.06
280
     0
281
     0
  7
Standard
140
0.18
170
     2
 62
     0
 63
     7
283
     0
 90
      512
 91
        0
  1

274
    -2
284
     1
 64
     0
275
    -2
285
     1
 65
     0
276
    -2
286
     1
 66
     0
277
    -2
287
     1
 67
     0
278
    -2
288
     1
 68
     0
279
    -2
289
     1
 69
     0
  7
Standard
140
0.25
170
     5
 62
     0
 63
     7
283
     0
 90
      512
 91
        0
  1

274
    -2
284
     1
 64
     0
275
    -2
285
     1
 65
     0
276
    -2
286
     1
 66
     0
277
    -2
287
     1
 67
     0
278
    -2
288
     1
 68
     0
279
    -2
289
     1
 69
     0
  7
Standard
140
0.18
170
     5
 62
     0
 63
     7
283
     0
 90
      512
 91
        0
  1

274
    -2
284
     1
 64
     0
275
    -2
285
     1
 65
     0
276
    -2
286
     1
 66
     0
277
    -2
287
     1
 67
     0
278
    -2
288
     1
 68
     0
279
    -2
289
     1
 69
     0
  0
VISUALSTYLE
  5
2F
102
{ACAD_XDICTIONARY
360
1B3
102
}
102
{ACAD_REACTORS
330
29
102
}
330
29
100
AcDbVisualStyle
  2
2dWireframe
 70
     4
177
     2
291
     0
 71
     0
176
     1
 72
     2
176
     1
 73
     0
176
     1
 90
        0
176
     1
 40
0.6
176
     1
 41
30.0
176
     1
 63
     7
421
 16777215
176
     1
 74
     1
176
     1
 91
        4
176
     1
 64
     7
176
     1
 65
   257
176
     1
 75
     1
176
     1
175
     1
176
     1
 42
1.0
176
     1
 92
        0
176
     1
 66
   257
176
     1
 43
1.0
176
     1
 76
     1
176
     1
 77
     6
176
     1
 78
     2
176
     1
 67
     7
176
     1
 79
     5
176
     1
170
     0
176
     1
171
     0
176
     1
290
     0
176
     1
 93
        1
176
     1
 44
0.0
176
     1
173
     0
176
     1
1001
ACAD
1000
AcDbSavedByObjectVersion
1070
     0
  0
VISUALSTYLE
  5
2E
102
{ACAD_XDICTIONARY
360
1B1
102
}
102
{ACAD_REACTORS
330
29
102
}
330
29
100
AcDbVisualStyle
  2
Basic
 70
     7
177
     2
291
     1
 71
     1
176
     1
 72
     0
176
     1
 73
     1
176
     1
 90
        0
176
     1
 40
0.6
176
     1
 41
30.0
176
     1
 63
     7
421
 16777215
176
     1
 74
     0
176
     1
 91
        4
176
     1
 64
     7
176
     1
 65
   257
176
     1
 75
     1
176
     1
175
     1
176
     1
 42
1.0
176
     1
 92
        8
176
     1
 66
     7
176
     1
 43
1.0
176
     1
 76
     1
176
     1
 77
     6
176
     1
 78
     2
176
     1
 67
     7
176
     1
 79
     5
176
     1
170
     0
176
     1
171
     0
176
     1
290
     0
176
     1
 93
        1
176
     1
 44
0.0
176
     1
173
     0
176
     1
1001
ACAD
1000
AcDbSavedByObjectVersion
1070
     0
  0
VISUALSTYLE
  5
35
102
{ACAD_XDICTIONARY
360
1BF
102
}
102
{ACAD_REACTORS
330
29
102
}
330
29
100
AcDbVisualStyle
  2
Brighten
 70
    12
177
     2
291
     1
 71
     2
176
     1
 72
     2
176
     1
 73
     0
176
     1
 90
        0
176
     1
 40
0.6
176
     1
 41
30.0
176
     1
 63
     7
421
 16777215
176
     1
 74
     1
176
     1
 91
        4
176
     1
 64
     7
176
     1
 65
   257
176
     1
 75
     1
176
     1
175
     1
176
     1
 42
1.0
176
     1
 92
        8
176
     1
 66
     7
176
     1
 43
1.0
176
     1
 76
     1
176
     1
 77
     6
176
     1
 78
     2
176
     1
 67
     7
176
     1
 79
     5
176
     1
170
     0
176
     1
171
     0
176
     1
290
     0
176
     1
 93
        1
176
     1
 44
50.0
176
     1
173
     0
176
     1
1001
ACAD
1000
AcDbSavedByObjectVersion
1070
     0
  0
VISUALSTYLE
  5
39
102
{ACAD_XDICTIONARY
360
1C7
102
}
102
{ACAD_REACTORS
330
29
102
}
330
29
100
AcDbVisualStyle
  2
ColorChange
 70
    16
177
     2
291
     1
 71
     2
176
     1
 72
     2
176
     1
 73
     3
176
     1
 90
        0
176
     1
 40
0.6
176
     1
 41
30.0
176
     1
 63
     8
421
  8421504
176
     1
 74
     1
176
     1
 91
        4
176
     1
 64
     7
176
     1
 65
   257
176
     1
 75
     1
176
     1
175
     1
176
     1
 42
1.0
176
     1
 92
        8
176
     1
 66
     8
424
  8421504
176
     1
 43
1.0
176
     1
 76
     1
176
     1
 77
     6
176
     1
 78
     2
176
     1
 67
     7
176
     1
 79
     5
176
     1
170
     0
176
     1
171
     0
176
     1
290
     0
176
     1
 93
        1
176
     1
 44
0.0
176
     1
173
     0
176
     1
1001
ACAD
1000
AcDbSavedByObjectVersion
1070
     0
  0
VISUALSTYLE
  5
32
102
{ACAD_XDICTIONARY
360
1B9
102
}
102
{ACAD_REACTORS
330
29
102
}
330
29
100
AcDbVisualStyle
  2
Conceptual
 70
     9
177
     2
291
     0
 71
     3
176
     1
 72
     2
176
     1
 73
     0
176
     1
 90
        0
176
     1
 40
0.6
176
     1
 41
30.0
176
     1
 63
     7
421
 16777215
176
     1
 74
     2
176
     1
 91
        2
176
     1
 64
     7
176
     1
 65
   257
176
     1
 75
     1
176
     1
175
     1
176
     1
 42
179.0
176
     1
 92
        8
176
     1
 66
     7
176
     1
 43
1.0
176
     1
 76
     1
176
     1
 77
     6
176
     1
 78
     2
176
     1
 67
     7
176
     1
 79
     3
176
     1
170
     0
176
     1
171
     0
176
     1
290
     0
176
     1
 93
        1
176
     1
 44
0.0
176
     1
173
     0
176
     1
1001
ACAD
1000
AcDbSavedByObjectVersion
1070
     0
  0
VISUALSTYLE
  5
34
102
{ACAD_XDICTIONARY
360
1BD
102
}
102
{ACAD_REACTORS
330
29
102
}
330
29
100
AcDbVisualStyle
  2
Dim
 70
    11
177
     2
291
     1
 71
     2
176
     1
 72
     2
176
     1
 73
     0
176
     1
 90
        0
176
     1
 40
0.6
176
     1
 41
30.0
176
     1
 63
     7
421
 16777215
176
     1
 74
     1
176
     1
 91
        4
176
     1
 64
     7
176
     1
 65
   257
176
     1
 75
     1
176
     1
175
     1
176
     1
 42
1.0
176
     1
 92
        8
176
     1
 66
     7
176
     1
 43
1.0
176
     1
 76
     1
176
     1
 77
     6
176
     1
 78
     2
176
     1
 67
     7
176
     1
 79
     5
176
     1
170
     0
176
     1
171
     0
176
     1
290
     0
176
     1
 93
        1
176
     1
 44
-50.0
176
     1
173
     0
176
     1
1001
ACAD
1000
AcDbSavedByObjectVersion
1070
     0
  0
VISUALSTYLE
  5
41
102
{ACAD_XDICTIONARY
360
1D7
102
}
102
{ACAD_REACTORS
330
29
102
}
330
29
100
AcDbVisualStyle
  2
EdgeColorOff
 70
    22
177
     2
291
     1
 71
     2
176
     0
 72
     2
176
     0
 73
     0
176
     0
 90
        0
176
     0
 40
0.6
176
     0
 41
30.0
176
     0
 63
     7
421
 16777215
176
     0
 74
     1
176
     0
 91
        4
176
     0
 64
     7
176
     0
 65
   257
176
     0
 75
     1
176
     0
175
     1
176
     0
 42
1.0
176
     0
 92
        8
176
     2
 66
     7
176
     0
 43
1.0
176
     0
 76
     1
176
     0
 77
     6
176
     0
 78
     2
176
     0
 67
     7
176
     0
 79
     5
176
     0
170
     0
176
     0
171
     0
176
     0
290
     0
176
     0
 93
        1
176
     0
 44
0.0
176
     0
173
     0
176
     0
1001
ACAD
1000
AcDbSavedByObjectVersion
1070
     0
  0
VISUALSTYLE
  5
38
102
{ACAD_XDICTIONARY
360
1C5
102
}
102
{ACAD_REACTORS
330
29
102
}
330
29
100
AcDbVisualStyle
  2
Facepattern
 70
    15
177
     2
291
     1
 71
     2
176
     1
 72
     2
176
     1
 73
     0
176
     1
 90
        0
176
     1
 40
0.6
176
     1
 41
30.0
176
     1
 63
     7
421
 16777215
176
     1
 74
     1
176
     1
 91
        4
176
     1
 64
     7
176
     1
 65
   257
176
     1
 75
     1
176
     1
175
     1
176
     1
 42
1.0
176
     1
 92
        8
176
     1
 66
     7
176
     1
 43
1.0
176
     1
 76
     1
176
     1
 77
     6
176
     1
 78
     2
176
     1
 67
     7
176
     1
 79
     5
176
     1
170
     0
176
     1
171
     0
176
     1
290
     0
176
     1
 93
        1
176
     1
 44
0.0
176
     1
173
     0
176
     1
1001
ACAD
1000
AcDbSavedByObjectVersion
1070
     0
  0
VISUALSTYLE
  5
2A
102
{ACAD_XDICTIONARY
360
1A9
102
}
102
{ACAD_REACTORS
330
29
102
}
330
29
100
AcDbVisualStyle
  2
Flat
 70
     0
177
     2
291
     1
 71
     2
176
     1
 72
     1
176
     1
 73
     1
176
     1
 90
        2
176
     1
 40
0.6
176
     1
 41
30.0
176
     1
 63
     7
421
 16777215
176
     1
 74
     0
176
     1
 91
        0
176
     1
 64
     7
176
     1
 65
   257
176
     1
 75
     1
176
     1
175
     1
176
     1
 42
1.0
176
     1
 92
        8
176
     1
 66
     7
176
     1
 43
1.0
176
     1
 76
     1
176
     1
 77
     6
176
     1
 78
     2
176
     1
 67
     7
176
     1
 79
     5
176
     1
170
     0
176
     1
171
     0
176
     1
290
     0
176
     1
 93
       13
176
     1
 44
0.0
176
     1
173
     0
176
     1
1001
ACAD
1000
AcDbSavedByObjectVersion
1070
     0
  0
VISUALSTYLE
  5
2B
102
{ACAD_XDICTIONARY
360
1AB
102
}
102
{ACAD_REACTORS
330
29
102
}
330
29
100
AcDbVisualStyle
  2
FlatWithEdges
 70
     1
177
     2
291
     1
 71
     2
176
     1
 72
     1
176
     1
 73
     1
176
     1
 90
        2
176
     1
 40
0.6
176
     1
 41
30.0
176
     1
 63
     7
421
 16777215
176
     1
 74
     1
176
     1
 91
        0
176
     1
 64
     7
176
     1
 65
   257
176
     1
 75
     1
176
     1
175
     1
176
     1
 42
1.0
176
     1
 92
        0
176
     1
 66
   257
176
     1
 43
1.0
176
     1
 76
     1
176
     1
 77
     6
176
     1
 78
     2
176
     1
 67
     7
176
     1
 79
     5
176
     1
170
     0
176
     1
171
     0
176
     1
290
     0
176
     1
 93
       13
176
     1
 44
0.0
176
     1
173
     0
176
     1
1001
ACAD
1000
AcDbSavedByObjectVersion
1070
     0
  0
VISUALSTYLE
  5
2C
102
{ACAD_XDICTIONARY
360
1AD
102
}
102
{ACAD_REACTORS
330
29
102
}
330
29
100
AcDbVisualStyle
  2
Gouraud
 70
     2
177
     2
291
     1
 71
     2
176
     1
 72
     2
176
     1
 73
     1
176
     1
 90
        2
176
     1
 40
0.6
176
     1
 41
30.0
176
     1
 63
     7
421
 16777215
176
     1
 74
     0
176
     1
 91
        0
176
     1
 64
     7
176
     1
 65
   257
176
     1
 75
     1
176
     1
175
     1
176
     1
 42
1.0
176
     1
 92
        0
176
     1
 66
     7
176
     1
 43
1.0
176
     1
 76
     1
176
     1
 77
     6
176
     1
 78
     2
176
     1
 67
     7
176
     1
 79
     5
176
     1
170
     0
176
     1
171
     0
176
     1
290
     0
176
     1
 93
       13
176
     1
 44
0.0
176
     1
173
     0
176
     1
1001
ACAD
1000
AcDbSavedByObjectVersion
1070
     0
  0
VISUALSTYLE
  5
2D
102
{ACAD_XDICTIONARY
360
1AF
102
}
102
{ACAD_REACTORS
330
29
102
}
330
29
100
AcDbVisualStyle
  2
GouraudWithEdges
 70
     3
177
     2
291
     1
 71
     2
176
     1
 72
     2
176
     1
 73
     1
176
     1
 90
        2
176
     1
 40
0.6
176
     1
 41
30.0
176
     1
 63
     7
421
 16777215
176
     1
 74
     1
176
     1
 91
        0
176
     1
 64
     7
176
     1
 65
   257
176
     1
 75
     1
176
     1
175
     1
176
     1
 42
1.0
176
     1
 92
        0
176
     1
 66
   257
176
     1
 43
1.0
176
     1
 76
     1
176
     1
 77
     6
176
     1
 78
     2
176
     1
 67
     7
176
     1
 79
     5
176
     1
170
     0
176
     1
171
     0
176
     1
290
     0
176
     1
 93
       13
176
     1
 44
0.0
176
     1
173
     0
176
     1
1001
ACAD
1000
AcDbSavedByObjectVersion
1070
     0
  0
VISUALSTYLE
  5
31
102
{ACAD_XDICTIONARY
360
1B7
102
}
102
{ACAD_REACTORS
330
29
102
}
330
29
100
AcDbVisualStyle
  2
Hidden
 70
     6
177
     2
291
     0
 71
     1
176
     1
 72
     2
176
     1
 73
     2
176
     1
 90
        0
176
     1
 40
0.6
176
     1
 41
30.0
176
     1
 63
     7
421
 16777215
176
     1
 74
     2
176
     1
 91
        2
176
     1
 64
     7
176
     1
 65
   257
176
     1
 75
     2
176
     1
175
     1
176
     1
 42
40.0
176
     1
 92
        0
176
     1
 66
   257
176
     1
 43
1.0
176
     1
 76
     1
176
     1
 77
     6
176
     1
 78
     2
176
     1
 67
     7
176
     1
 79
     3
176
     1
170
     0
176
     1
171
     0
176
     1
290
     0
176
     1
 93
        1
176
     1
 44
0.0
176
     1
173
     0
176
     1
1001
ACAD
1000
AcDbSavedByObjectVersion
1070
     0
  0
VISUALSTYLE
  5
3F
102
{ACAD_XDICTIONARY
360
1D3
102
}
102
{ACAD_REACTORS
330
29
102
}
330
29
100
AcDbVisualStyle
  2
JitterOff
 70
    20
177
     2
291
     1
 71
     2
176
     0
 72
     2
176
     0
 73
     0
176
     0
 90
        0
176
     0
 40
0.6
176
     0
 41
30.0
176
     0
 63
     7
421
 16777215
176
     0
 74
     1
176
     0
 91
        4
176
     0
 64
     7
176
     0
 65
   257
176
     0
 75
     1
176
     0
175
     1
176
     0
 42
1.0
176
     0
 92
       10
176
     2
 66
     7
176
     0
 43
1.0
176
     0
 76
     1
176
     0
 77
     6
176
     0
 78
     2
176
     0
 67
     7
176
     0
 79
     5
176
     0
170
     0
176
     0
171
     0
176
     0
290
     0
176
     0
 93
        1
176
     0
 44
0.0
176
     0
173
     0
176
     0
1001
ACAD
1000
AcDbSavedByObjectVersion
1070
     0
  0
VISUALSTYLE
  5
37
102
{ACAD_XDICTIONARY
360
1C3
102
}
102
{ACAD_REACTORS
330
29
102
}
330
29
100
AcDbVisualStyle
  2
Linepattern
 70
    14
177
     2
291
     1
 71
     2
176
     1
 72
     2
176
     1
 73
     0
176
     1
 90
        0
176
     1
 40
0.6
176
     1
 41
30.0
176
     1
 63
     7
421
 16777215
176
     1
 74
     1
176
     1
 91
        4
176
     1
 64
     7
176
     1
 65
   257
176
     1
 75
     7
176
     1
175
     7
176
     1
 42
1.0
176
     1
 92
        8
176
     1
 66
     7
176
     1
 43
1.0
176
     1
 76
     1
176
     1
 77
     6
176
     1
 78
     2
176
     1
 67
     7
176
     1
 79
     5
176
     1
170
     0
176
     1
171
     0
176
     1
290
     0
176
     1
 93
        1
176
     1
 44
0.0
176
     1
173
     0
176
     1
1001
ACAD
1000
AcDbSavedByObjectVersion
1070
     0
  0
VISUALSTYLE
  5
40
102
{ACAD_XDICTIONARY
360
1D5
102
}
102
{ACAD_REACTORS
330
29
102
}
330
29
100
AcDbVisualStyle
  2
OverhangOff
 70
    21
177
     2
291
     1
 71
     2
176
     0
 72
     2
176
     0
 73
     0
176
     0
 90
        0
176
     0
 40
0.6
176
     0
 41
30.0
176
     0
 63
     7
421
 16777215
176
     0
 74
     1
176
     0
 91
        4
176
     0
 64
     7
176
     0
 65
   257
176
     0
 75
     1
176
     0
175
     1
176
     0
 42
1.0
176
     0
 92
        9
176
     2
 66
     7
176
     0
 43
1.0
176
     0
 76
     1
176
     0
 77
     6
176
     0
 78
     2
176
     0
 67
     7
176
     0
 79
     5
176
     0
170
     0
176
     0
171
     0
176
     0
290
     0
176
     0
 93
        1
176
     0
 44
0.0
176
     0
173
     0
176
     0
1001
ACAD
1000
AcDbSavedByObjectVersion
1070
     0
  0
VISUALSTYLE
  5
33
102
{ACAD_XDICTIONARY
360
1BB
102
}
102
{ACAD_REACTORS
330
29
102
}
330
29
100
AcDbVisualStyle
  2
Realistic
 70
     8
177
     2
291
     0
 71
     2
176
     1
 72
     3
176
     1
 73
     0
176
     1
 90
        2
176
     1
 40
0.6
176
     1
 41
30.0
176
     1
 63
     7
421
 16777215
176
     1
 74
     0
176
     1
 91
        0
176
     1
 64
     7
176
     1
 65
   257
176
     1
 75
     1
176
     1
175
     1
176
     1
 42
1.0
176
     1
 92
        8
176
     1
 66
   257
176
     1
 43
1.0
176
     1
 76
     1
176
     1
 77
     6
176
     1
 78
     2
176
     1
 67
     7
176
     1
 79
     3
176
     1
170
     0
176
     1
171
     0
176
     1
290
     0
176
     1
 93
       13
176
     1
 44
0.0
176
     1
173
     0
176
     1
1001
ACAD
1000
AcDbSavedByObjectVersion
1070
     0
  0
VISUALSTYLE
  5
3E
102
{ACAD_XDICTIONARY
360
1D1
102
}
102
{ACAD_REACTORS
330
29
102
}
330
29
100
AcDbVisualStyle
  2
Shaded
 70
    27
177
     2
291
     0
 71
     2
176
     1
 72
     2
176
     1
 73
     1
176
     1
 90
        2
176
     1
 40
0.6
176
     1
 41
30.0
176
     1
 63
     7
421
 16777215
176
     1
 74
     0
176
     1
 91
        4
176
     1
 64
     7
176
     1
 65
   257
176
     1
 75
     1
176
     1
175
     1
176
     1
 42
1.0
176
     1
 92
        8
176
     1
 66
   257
176
     1
 43
1.0
176
     1
 76
     1
176
     1
 77
     6
176
     1
 78
     2
176
     1
 67
     8
425
  7895160
176
     1
 79
     3
176
     1
170
     0
176
     1
171
     0
176
     1
290
     0
176
     1
 93
        5
176
     1
 44
0.0
176
     1
173
     0
176
     1
1001
ACAD
1000
AcDbSavedByObjectVersion
1070
     0
  0
VISUALSTYLE
  5
3D
102
{ACAD_XDICTIONARY
360
1CF
102
}
102
{ACAD_REACTORS
330
29
102
}
330
29
100
AcDbVisualStyle
  2
Shaded with edges
 70
    26
177
     2
291
     0
 71
     2
176
     1
 72
     2
176
     1
 73
     1
176
     1
 90
        2
176
     1
 40
0.6
176
     1
 41
30.0
176
     1
 63
     7
421
 16777215
176
     1
 74
     1
176
     1
 91
        2
176
     1
 64
     7
176
     1
 65
   257
176
     1
 75
     2
176
     1
175
     1
176
     1
 42
1.0
176
     1
 92
        8
176
     1
 66
   257
176
     1
 43
1.0
176
     1
 76
     1
176
     1
 77
     6
176
     1
 78
     2
176
     1
 67
     7
176
     1
 79
     3
176
     1
170
     0
176
     1
171
     0
176
     1
290
     0
176
     1
 93
        5
176
     1
 44
0.0
176
     1
173
     0
176
     1
1001
ACAD
1000
AcDbSavedByObjectVersion
1070
     0
  0
VISUALSTYLE
  5
3A
102
{ACAD_XDICTIONARY
360
1C9
102
}
102
{ACAD_REACTORS
330
29
102
}
330
29
100
AcDbVisualStyle
  2
Shades of Gray
 70
    23
177
     2
291
     0
 71
     2
176
     1
 72
     2
176
     1
 73
     3
176
     1
 90
        0
176
     1
 40
0.6
176
     1
 41
30.0
176
     1
 63
     7
421
 16777215
176
     1
 74
     2
176
     1
 91
        2
176
     1
 64
     7
176
     1
 65
     7
176
     1
 75
     1
176
     1
175
     1
176
     1
 42
40.0
176
     1
 92
        8
176
     1
 66
     7
176
     1
 43
1.0
176
     1
 76
     1
176
     1
 77
     6
176
     1
 78
     2
176
     1
 67
     7
176
     1
 79
     3
176
     1
170
     0
176
     1
171
     0
176
     1
290
     0
176
     1
 93
        1
176
     1
 44
0.0
176
     1
173
     0
176
     1
1001
ACAD
1000
AcDbSavedByObjectVersion
1070
     0
  0
VISUALSTYLE
  5
3B
102
{ACAD_XDICTIONARY
360
1CB
102
}
102
{ACAD_REACTORS
330
29
102
}
330
29
100
AcDbVisualStyle
  2
Sketchy
 70
    24
177
     2
291
     0
 71
     1
176
     1
 72
     2
176
     1
 73
     2
176
     1
 90
        0
176
     1
 40
0.6
176
     1
 41
30.0
176
     1
 63
     7
421
 16777215
176
     1
 74
     2
176
     1
 91
        2
176
     1
 64
     7
176
     1
 65
     7
176
     1
 75
     1
176
     1
175
     1
176
     1
 42
40.0
176
     1
 92
       11
176
     1
 66
     7
176
     1
 43
1.0
176
     1
 76
     1
176
     1
 77
     6
176
     1
 78
     2
176
     1
 67
     7
176
     1
 79
     6
176
     1
170
     0
176
     1
171
     0
176
     1
290
     0
176
     1
 93
        1
176
     1
 44
0.0
176
     1
173
     0
176
     1
1001
ACAD
1000
AcDbSavedByObjectVersion
1070
     0
  0
VISUALSTYLE
  5
36
102
{ACAD_XDICTIONARY
360
1C1
102
}
102
{ACAD_REACTORS
330
29
102
}
330
29
100
AcDbVisualStyle
  2
Thicken
 70
    13
177
     2
291
     1
 71
     2
176
     1
 72
     2
176
     1
 73
     0
176
     1
 90
        0
176
     1
 40
0.6
176
     1
 41
30.0
176
     1
 63
     7
421
 16777215
176
     1
 74
     1
176
     1
 91
        4
176
     1
 64
     7
176
     1
 65
   257
176
     1
 75
     1
176
     1
175
     1
176
     1
 42
1.0
176
     1
 92
       12
176
     1
 66
     7
176
     1
 43
1.0
176
     1
 76
     1
176
     1
 77
     6
176
     1
 78
     2
176
     1
 67
     7
176
     1
 79
     5
176
     1
170
     0
176
     1
171
     0
176
     1
290
     0
176
     1
 93
        1
176
     1
 44
0.0
176
     1
173
     0
176
     1
1001
ACAD
1000
AcDbSavedByObjectVersion
1070
     0
  0
VISUALSTYLE
  5
30
102
{ACAD_XDICTIONARY
360
1B5
102
}
102
{ACAD_REACTORS
330
29
102
}
330
29
100
AcDbVisualStyle
  2
Wireframe
 70
     5
177
     2
291
     0
 71
     0
176
     1
 72
     2
176
     1
 73
     0
176
     1
 90
        0
176
     1
 40
0.6
176
     1
 41
30.0
176
     1
 63
     7
421
 16777215
176
     1
 74
     1
176
     1
 91
        4
176
     1
 64
     7
176
     1
 65
   257
176
     1
 75
     1
176
     1
175
     1
176
     1
 42
1.0
176
     1
 92
        0
176
     1
 66
   257
176
     1
 43
1.0
176
     1
 76
     1
176
     1
 77
     6
176
     1
 78
     2
176
     1
 67
     7
176
     1
 79
     3
176
     1
170
     0
176
     1
171
     0
176
     1
290
     0
176
     1
 93
        1
176
     1
 44
0.0
176
     1
173
     0
176
     1
1001
ACAD
1000
AcDbSavedByObjectVersion
1070
     0
  0
VISUALSTYLE
  5
3C
102
{ACAD_XDICTIONARY
360
1CD
102
}
102
{ACAD_REACTORS
330
29
102
}
330
29
100
AcDbVisualStyle
  2
X-Ray
 70
    25
177
     2
291
     0
 71
     2
176
     1
 72
     2
176
     1
 73
     1
176
     1
 90
        1
176
     1
 40
0.5
176
     1
 41
30.0
176
     1
 63
     7
421
 16777215
176
     1
 74
     1
176
     1
 91
        0
176
     1
 64
     7
176
     1
 65
   257
176
     1
 75
     1
176
     1
175
     1
176
     1
 42
1.0
176
     1
 92
        8
176
     1
 66
     7
176
     1
 43
1.0
176
     1
 76
     1
176
     1
 77
     6
176
     1
 78
     2
176
     1
 67
     7
176
     1
 79
     3
176
     1
170
     0
176
     1
171
     0
176
     1
290
     0
176
     1
 93
       13
176
     1
 44
0.0
176
     1
173
     0
176
     1
1001
ACAD
1000
AcDbSavedByObjectVersion
1070
     0
  0
DICTIONARYVAR
  5
1A5
102
{ACAD_REACTORS
330
1A0
102
}
330
1A0
100
DictionaryVariables
280
     0
  1
1:1
  0
DICTIONARYVAR
  5
1A2
102
{ACAD_REACTORS
330
1A0
102
}
330
1A0
100
DictionaryVariables
280
     0
  1
STANDARD
  0
DICTIONARYVAR
  5
1A1
102
{ACAD_REACTORS
330
1A0
102
}
330
1A0
100
DictionaryVariables
280
     0
  1
STANDARD
  0
DICTIONARYVAR
  5
1A3
102
{ACAD_REACTORS
330
1A0
102
}
330
1A0
100
DictionaryVariables
280
     0
  1
Imperial24
  0
DICTIONARYVAR
  5
1A4
102
{ACAD_REACTORS
330
1A0
102
}
330
1A0
100
DictionaryVariables
280
     0
  1
Imperial24
  0
DICTIONARY
  5
1DD
330
6B
100
AcDbDictionary
280
     1
281
     1
  3
ACAD_XREC_ROUNDTRIP
360
1DE
  0
DICTIONARY
  5
1A
330
19
100
AcDbDictionary
280
     1
281
     1
  3
BUMPTILE
360
1C
  3
DIFFUSETILE
360
1B
  3
OPACITYTILE
360
1F
  3
REFLECTIONTILE
360
1E
  3
REFRACTIONTILE
360
20
  3
SPECULARTILE
360
1D
  0
DICTIONARY
  5
12
330
11
100
AcDbDictionary
280
     1
281
     1
  3
BUMPTILE
360
14
  3
DIFFUSETILE
360
13
  3
OPACITYTILE
360
17
  3
REFLECTIONTILE
360
16
  3
REFRACTIONTILE
360
18
  3
SPECULARTILE
360
15
  0
DICTIONARY
  5
22
330
21
100
AcDbDictionary
280
     1
281
     1
  3
BUMPTILE
360
24
  3
DIFFUSETILE
360
23
  3
OPACITYTILE
360
27
  3
REFLECTIONTILE
360
26
  3
REFRACTIONTILE
360
28
  3
SPECULARTILE
360
25
  0
DICTIONARY
  5
1D9
330
67
100
AcDbDictionary
280
     1
281
     1
  3
ACAD_XREC_ROUNDTRIP
360
1DA
  0
DICTIONARY
  5
1DB
330
69
100
AcDbDictionary
280
     1
281
     1
  3
ACAD_XREC_ROUNDTRIP
360
1DC
  0
DICTIONARY
  5
1A6
330
65
100
AcDbDictionary
280
     1
281
     1
  3
ACAD_ROUNDTRIP_2008_TABLESTYLE_CELLSTYLEMAP
360
1A7
  0
DICTIONARY
  5
1B3
330
2F
100
AcDbDictionary
280
     1
281
     1
  3
ACAD_XREC_ROUNDTRIP
360
1B4
  0
DICTIONARY
  5
1B1
330
2E
100
AcDbDictionary
280
     1
281
     1
  3
ACAD_XREC_ROUNDTRIP
360
1B2
  0
DICTIONARY
  5
1BF
330
35
100
AcDbDictionary
280
     1
281
     1
  3
ACAD_XREC_ROUNDTRIP
360
1C0
  0
DICTIONARY
  5
1C7
330
39
100
AcDbDictionary
280
     1
281
     1
  3
ACAD_XREC_ROUNDTRIP
360
1C8
  0
DICTIONARY
  5
1B9
330
32
100
AcDbDictionary
280
     1
281
     1
  3
ACAD_XREC_ROUNDTRIP
360
1BA
  0
DICTIONARY
  5
1BD
330
34
100
AcDbDictionary
280
     1
281
     1
  3
ACAD_XREC_ROUNDTRIP
360
1BE
  0
DICTIONARY
  5
1D7
330
41
100
AcDbDictionary
280
     1
281
     1
  3
ACAD_XREC_ROUNDTRIP
360
1D8
  0
DICTIONARY
  5
1C5
330
38
100
AcDbDictionary
280
     1
281
     1
  3
ACAD_XREC_ROUNDTRIP
360
1C6
  0
DICTIONARY
  5
1A9
330
2A
100
AcDbDictionary
280
     1
281
     1
  3
ACAD_XREC_ROUNDTRIP
360
1AA
  0
DICTIONARY
  5
1AB
330
2B
100
AcDbDictionary
280
     1
281
     1
  3
ACAD_XREC_ROUNDTRIP
360
1AC
  0
DICTIONARY
  5
1AD
330
2C
100
AcDbDictionary
280
     1
281
     1
  3
ACAD_XREC_ROUNDTRIP
360
1AE
  0
DICTIONARY
  5
1AF
330
2D
100
AcDbDictionary
280
     1
281
     1
  3
ACAD_XREC_ROUNDTRIP
360
1B0
  0
DICTIONARY
  5
1B7
330
31
100
AcDbDictionary
280
     1
281
     1
  3
ACAD_XREC_ROUNDTRIP
360
1B8
  0
DICTIONARY
  5
1D3
330
3F
100
AcDbDictionary
280
     1
281
     1
  3
ACAD_XREC_ROUNDTRIP
360
1D4
  0
DICTIONARY
  5
1C3
330
37
100
AcDbDictionary
280
     1
281
     1
  3
ACAD_XREC_ROUNDTRIP
360
1C4
  0
DICTIONARY
  5
1D5
330
40
100
AcDbDictionary
280
     1
281
     1
  3
ACAD_XREC_ROUNDTRIP
360
1D6
  0
DICTIONARY
  5
1BB
330
33
100
AcDbDictionary
280
     1
281
     1
  3
ACAD_XREC_ROUNDTRIP
360
1BC
  0
DICTIONARY
  5
1D1
330
3E
100
AcDbDictionary
280
     1
281
     1
  3
ACAD_XREC_ROUNDTRIP
360
1D2
  0
DICTIONARY
  5
1CF
330
3D
100
AcDbDictionary
280
     1
281
     1
  3
ACAD_XREC_ROUNDTRIP
360
1D0
  0
DICTIONARY
  5
1C9
330
3A
100
AcDbDictionary
280
     1
281
     1
  3
ACAD_XREC_ROUNDTRIP
360
1CA
  0
DICTIONARY
  5
1CB
330
3B
100
AcDbDictionary
280
     1
281
     1
  3
ACAD_XREC_ROUNDTRIP
360
1CC
  0
DICTIONARY
  5
1C1
330
36
100
AcDbDictionary
280
     1
281
     1
  3
ACAD_XREC_ROUNDTRIP
360
1C2
  0
DICTIONARY
  5
1B5
330
30
100
AcDbDictionary
280
     1
281
     1
  3
ACAD_XREC_ROUNDTRIP
360
1B6
  0
DICTIONARY
  5
1CD
330
3C
100
AcDbDictionary
280
     1
281
     1
  3
ACAD_XREC_ROUNDTRIP
360
1CE
  0
XRECORD
  5
1DE
102
{ACAD_REACTORS
330
1DD
102
}
330
1DD
100
AcDbXrecord
280
     1
102
DISPLAYNAME
  1
Imperial24
102
FLAGS
 90
        0
  0
XRECORD
  5
1C
102
{ACAD_REACTORS
330
1A
102
}
330
1A
100
AcDbXrecord
280
     1
270
     1
271
     1
  0
XRECORD
  5
1B
102
{ACAD_REACTORS
330
1A
102
}
330
1A
100
AcDbXrecord
280
     1
270
     1
271
     1
  0
XRECORD
  5
1F
102
{ACAD_REACTORS
330
1A
102
}
330
1A
100
AcDbXrecord
280
     1
270
     1
271
     1
  0
XRECORD
  5
1E
102
{ACAD_REACTORS
330
1A
102
}
330
1A
100
AcDbXrecord
280
     1
270
     1
271
     1
  0
XRECORD
  5
20
102
{ACAD_REACTORS
330
1A
102
}
330
1A
100
AcDbXrecord
280
     1
270
     1
271
     1
  0
XRECORD
  5
1D
102
{ACAD_REACTORS
330
1A
102
}
330
1A
100
AcDbXrecord
280
     1
270
     1
271
     1
  0
XRECORD
  5
14
102
{ACAD_REACTORS
330
12
102
}
330
12
100
AcDbXrecord
280
     1
270
     1
271
     1
  0
XRECORD
  5
13
102
{ACAD_REACTORS
330
12
102
}
330
12
100
AcDbXrecord
280
     1
270
     1
271
     1
  0
XRECORD
  5
17
102
{ACAD_REACTORS
330
12
102
}
330
12
100
AcDbXrecord
280
     1
270
     1
271
     1
  0
XRECORD
  5
16
102
{ACAD_REACTORS
330
12
102
}
330
12
100
AcDbXrecord
280
     1
270
     1
271
     1
  0
XRECORD
  5
18
102
{ACAD_REACTORS
330
12
102
}
330
12
100
AcDbXrecord
280
     1
270
     1
271
     1
  0
XRECORD
  5
15
102
{ACAD_REACTORS
330
12
102
}
330
12
100
AcDbXrecord
280
     1
270
     1
271
     1
  0
XRECORD
  5
24
102
{ACAD_REACTORS
330
22
102
}
330
22
100
AcDbXrecord
280
     1
270
     1
271
     1
  0
XRECORD
  5
23
102
{ACAD_REACTORS
330
22
102
}
330
22
100
AcDbXrecord
280
     1
270
     1
271
     1
  0
XRECORD
  5
27
102
{ACAD_REACTORS
330
22
102
}
330
22
100
AcDbXrecord
280
     1
270
     1
271
     1
  0
XRECORD
  5
26
102
{ACAD_REACTORS
330
22
102
}
330
22
100
AcDbXrecord
280
     1
270
     1
271
     1
  0
XRECORD
  5
28
102
{ACAD_REACTORS
330
22
102
}
330
22
100
AcDbXrecord
280
     1
270
     1
271
     1
  0
XRECORD
  5
25
102
{ACAD_REACTORS
330
22
102
}
330
22
100
AcDbXrecord
280
     1
270
     1
271
     1
  0
XRECORD
  5
1DA
102
{ACAD_REACTORS
330
1D9
102
}
330
1D9
100
AcDbXrecord
280
     1
102
ACAD_ROUNDTRIP_2012_MLEADER_STYLE
298
     1
  0
XRECORD
  5
1DC
102
{ACAD_REACTORS
330
1DB
102
}
330
1DB
100
AcDbXrecord
280
     1
102
DISPLAYNAME
  1
Imperial24
102
FLAGS
 90
        0
  0
CELLSTYLEMAP
  5
1A7
102
{ACAD_REACTORS
330
1A6
102
}
330
1A6
100
AcDbCellStyleMap
 90
        3
300
CELLSTYLE
  1
TABLEFORMAT_BEGIN
 90
        5
170
     1
 91
        0
 92
    32768
 62
   257
 93
        1
300
CONTENTFORMAT
  1
CONTENTFORMAT_BEGIN
 90
        0
 91
        0
 92
      512
 93
        0
300

 40
0.0
140
1.0
 94
        5
 62
     0
340
55
144
0.25
309
CONTENTFORMAT_END
171
     0
 94
        0
309
TABLEFORMAT_END
  1
CELLSTYLE_BEGIN
 90
        1
 91
        1
300
_TITLE
309
CELLSTYLE_END
300
CELLSTYLE
  1
TABLEFORMAT_BEGIN
 90
        5
170
     1
 91
        0
 92
        0
 62
   257
 93
        1
300
CONTENTFORMAT
  1
CONTENTFORMAT_BEGIN
 90
        0
 91
        0
 92
      512
 93
        0
300

 40
0.0
140
1.0
 94
        5
 62
     0
340
55
144
0.18
309
CONTENTFORMAT_END
171
     0
 94
        0
309
TABLEFORMAT_END
  1
CELLSTYLE_BEGIN
 90
        2
 91
        1
300
_HEADER
309
CELLSTYLE_END
300
CELLSTYLE
  1
TABLEFORMAT_BEGIN
 90
        5
170
     1
 91
        0
 92
        0
 62
   257
 93
        1
300
CONTENTFORMAT
  1
CONTENTFORMAT_BEGIN
 90
        0
 91
        0
 92
      512
 93
        0
300

 40
0.0
140
1.0
 94
        2
 62
     0
340
55
144
0.18
309
CONTENTFORMAT_END
171
     0
 94
        0
309
TABLEFORMAT_END
  1
CELLSTYLE_BEGIN
 90
        3
 91
        2
300
_DATA
309
CELLSTYLE_END
  0
XRECORD
  5
1B4
102
{ACAD_REACTORS
330
1B3
102
}
330
1B3
100
AcDbXrecord
280
     1
102
RTVSPost2010Prop28
280
     1
102
RTVSPost2010PropOp28
 70
     1
102
RTVSPost2010Prop29
280
     1
102
RTVSPost2010PropOp29
 70
     1
102
RTVSPost2010Prop30
280
     0
102
RTVSPost2010PropOp30
 70
     1
102
RTVSPost2010Prop31
280
     0
102
RTVSPost2010PropOp31
 70
     1
102
RTVSPost2010Prop32
280
     0
102
RTVSPost2010PropOp32
 70
     1
102
RTVSPost2010Prop33
280
     0
102
RTVSPost2010PropOp33
 70
     1
102
RTVSPost2010Prop34
280
     0
102
RTVSPost2010PropOp34
 70
     1
102
RTVSPost2010Prop35
280
     0
102
RTVSPost2010PropOp35
 70
     1
102
RTVSPost2010Prop36
280
     0
102
RTVSPost2010PropOp36
 70
     1
102
RTVSPost2010Prop37
 90
       50
102
RTVSPost2010PropOp37
 70
     1
102
RTVSPost2010Prop38
140
0.0
102
RTVSPost2010PropOp38
 70
     1
102
RTVSPost2010Prop39
140
1.0
102
RTVSPost2010PropOp39
 70
     1
102
RTVSPost2010Prop40
 90
        0
102
RTVSPost2010PropOp40
 70
     1
102
RTVSPost2010Prop41ColorIndex
 90
       18
102
RTVSPost2010Prop41ColorRGB
 90
        0
102
RTVSPost2010PropOp41
 70
     1
102
RTVSPost2010Prop42
 90
       50
102
RTVSPost2010PropOp42
 70
     1
102
RTVSPost2010Prop43
 90
        3
102
RTVSPost2010PropOp43
 70
     1
102
RTVSPost2010Prop44ColorIndex
 90
        5
102
RTVSPost2010Prop44ColorRGB
 90
      255
102
RTVSPost2010PropOp44
 70
     1
102
RTVSPost2010Prop45
280
     0
102
RTVSPost2010PropOp45
 70
     1
102
RTVSPost2010Prop46
 90
       50
102
RTVSPost2010PropOp46
 70
     1
102
RTVSPost2010Prop47
 90
       50
102
RTVSPost2010PropOp47
 70
     1
102
RTVSPost2010Prop48
 90
       50
102
RTVSPost2010PropOp48
 70
     1
102
RTVSPost2010Prop49
280
     0
102
RTVSPost2010PropOp49
 70
     1
102
RTVSPost2010Prop50
 90
       50
102
RTVSPost2010PropOp50
 70
     1
102
RTVSPost2010Prop51ColorIndex
 90
      256
102
RTVSPost2010Prop51ColorRGB
 90
-16777216
102
RTVSPost2010PropOp51
 70
     0
102
RTVSPost2010Prop52
140
1.0
102
RTVSPost2010PropOp52
 70
     0
102
RTVSPost2010Prop53
 90
        2
102
RTVSPost2010PropOp53
 70
     1
102
RTVSPost2010Prop54
  1
strokes_ogs.tif
102
RTVSPost2010PropOp54
 70
     1
102
RTVSPost2010Prop55
280
     0
102
RTVSPost2010PropOp55
 70
     1
102
RTVSPost2010Prop56
140
1.0
102
RTVSPost2010PropOp56
 70
     1
102
RTVSPost2010Prop57
140
1.0
102
RTVSPost2010PropOp57
 70
     1
  0
XRECORD
  5
1B2
102
{ACAD_REACTORS
330
1B1
102
}
330
1B1
100
AcDbXrecord
280
     1
102
RTVSPost2010Prop28
280
     0
102
RTVSPost2010PropOp28
 70
     1
102
RTVSPost2010Prop29
280
     1
102
RTVSPost2010PropOp29
 70
     1
102
RTVSPost2010Prop30
280
     1
102
RTVSPost2010PropOp30
 70
     1
102
RTVSPost2010Prop31
280
     0
102
RTVSPost2010PropOp31
 70
     1
102
RTVSPost2010Prop32
280
     0
102
RTVSPost2010PropOp32
 70
     1
102
RTVSPost2010Prop33
280
     0
102
RTVSPost2010PropOp33
 70
     1
102
RTVSPost2010Prop34
280
     0
102
RTVSPost2010PropOp34
 70
     1
102
RTVSPost2010Prop35
280
     0
102
RTVSPost2010PropOp35
 70
     1
102
RTVSPost2010Prop36
280
     0
102
RTVSPost2010PropOp36
 70
     1
102
RTVSPost2010Prop37
 90
       50
102
RTVSPost2010PropOp37
 70
     1
102
RTVSPost2010Prop38
140
0.0
102
RTVSPost2010PropOp38
 70
     1
102
RTVSPost2010Prop39
140
1.0
102
RTVSPost2010PropOp39
 70
     1
102
RTVSPost2010Prop40
 90
        0
102
RTVSPost2010PropOp40
 70
     1
102
RTVSPost2010Prop41ColorIndex
 90
       18
102
RTVSPost2010Prop41ColorRGB
 90
        0
102
RTVSPost2010PropOp41
 70
     1
102
RTVSPost2010Prop42
 90
       50
102
RTVSPost2010PropOp42
 70
     1
102
RTVSPost2010Prop43
 90
        3
102
RTVSPost2010PropOp43
 70
     1
102
RTVSPost2010Prop44ColorIndex
 90
        5
102
RTVSPost2010Prop44ColorRGB
 90
      255
102
RTVSPost2010PropOp44
 70
     1
102
RTVSPost2010Prop45
280
     0
102
RTVSPost2010PropOp45
 70
     1
102
RTVSPost2010Prop46
 90
       50
102
RTVSPost2010PropOp46
 70
     1
102
RTVSPost2010Prop47
 90
       50
102
RTVSPost2010PropOp47
 70
     1
102
RTVSPost2010Prop48
 90
       50
102
RTVSPost2010PropOp48
 70
     1
102
RTVSPost2010Prop49
280
     0
102
RTVSPost2010PropOp49
 70
     1
102
RTVSPost2010Prop50
 90
       50
102
RTVSPost2010PropOp50
 70
     1
102
RTVSPost2010Prop51ColorIndex
 90
      256
102
RTVSPost2010Prop51ColorRGB
 90
-16777216
102
RTVSPost2010PropOp51
 70
     0
102
RTVSPost2010Prop52
140
1.0
102
RTVSPost2010PropOp52
 70
     0
102
RTVSPost2010Prop53
 90
        2
102
RTVSPost2010PropOp53
 70
     1
102
RTVSPost2010Prop54
  1
strokes_ogs.tif
102
RTVSPost2010PropOp54
 70
     1
102
RTVSPost2010Prop55
280
     0
102
RTVSPost2010PropOp55
 70
     1
102
RTVSPost2010Prop56
140
1.0
102
RTVSPost2010PropOp56
 70
     1
102
RTVSPost2010Prop57
140
1.0
102
RTVSPost2010PropOp57
 70
     1
  0
XRECORD
  5
1C0
102
{ACAD_REACTORS
330
1BF
102
}
330
1BF
100
AcDbXrecord
280
     1
102
RTVSPost2010Prop28
280
     0
102
RTVSPost2010PropOp28
 70
     1
102
RTVSPost2010Prop29
280
     1
102
RTVSPost2010PropOp29
 70
     1
102
RTVSPost2010Prop30
280
     1
102
RTVSPost2010PropOp30
 70
     1
102
RTVSPost2010Prop31
280
     0
102
RTVSPost2010PropOp31
 70
     1
102
RTVSPost2010Prop32
280
     0
102
RTVSPost2010PropOp32
 70
     1
102
RTVSPost2010Prop33
280
     0
102
RTVSPost2010PropOp33
 70
     1
102
RTVSPost2010Prop34
280
     0
102
RTVSPost2010PropOp34
 70
     1
102
RTVSPost2010Prop35
280
     0
102
RTVSPost2010PropOp35
 70
     1
102
RTVSPost2010Prop36
280
     0
102
RTVSPost2010PropOp36
 70
     1
102
RTVSPost2010Prop37
 90
       50
102
RTVSPost2010PropOp37
 70
     1
102
RTVSPost2010Prop38
140
0.0
102
RTVSPost2010PropOp38
 70
     1
102
RTVSPost2010Prop39
140
1.0
102
RTVSPost2010PropOp39
 70
     1
102
RTVSPost2010Prop40
 90
        0
102
RTVSPost2010PropOp40
 70
     1
102
RTVSPost2010Prop41ColorIndex
 90
       18
102
RTVSPost2010Prop41ColorRGB
 90
        0
102
RTVSPost2010PropOp41
 70
     1
102
RTVSPost2010Prop42
 90
       50
102
RTVSPost2010PropOp42
 70
     1
102
RTVSPost2010Prop43
 90
        3
102
RTVSPost2010PropOp43
 70
     1
102
RTVSPost2010Prop44ColorIndex
 90
        5
102
RTVSPost2010Prop44ColorRGB
 90
      255
102
RTVSPost2010PropOp44
 70
     1
102
RTVSPost2010Prop45
280
     0
102
RTVSPost2010PropOp45
 70
     1
102
RTVSPost2010Prop46
 90
       50
102
RTVSPost2010PropOp46
 70
     1
102
RTVSPost2010Prop47
 90
       50
102
RTVSPost2010PropOp47
 70
     1
102
RTVSPost2010Prop48
 90
       50
102
RTVSPost2010PropOp48
 70
     1
102
RTVSPost2010Prop49
280
     0
102
RTVSPost2010PropOp49
 70
     1
102
RTVSPost2010Prop50
 90
       50
102
RTVSPost2010PropOp50
 70
     1
102
RTVSPost2010Prop51ColorIndex
 90
      256
102
RTVSPost2010Prop51ColorRGB
 90
-16777216
102
RTVSPost2010PropOp51
 70
     0
102
RTVSPost2010Prop52
140
1.0
102
RTVSPost2010PropOp52
 70
     0
102
RTVSPost2010Prop53
 90
        2
102
RTVSPost2010PropOp53
 70
     1
102
RTVSPost2010Prop54
  1
strokes_ogs.tif
102
RTVSPost2010PropOp54
 70
     1
102
RTVSPost2010Prop55
280
     0
102
RTVSPost2010PropOp55
 70
     1
102
RTVSPost2010Prop56
140
1.0
102
RTVSPost2010PropOp56
 70
     1
102
RTVSPost2010Prop57
140
1.0
102
RTVSPost2010PropOp57
 70
     1
  0
XRECORD
  5
1C8
102
{ACAD_REACTORS
330
1C7
102
}
330
1C7
100
AcDbXrecord
280
     1
102
RTVSPost2010Prop28
280
     0
102
RTVSPost2010PropOp28
 70
     1
102
RTVSPost2010Prop29
280
     1
102
RTVSPost2010PropOp29
 70
     1
102
RTVSPost2010Prop30
280
     1
102
RTVSPost2010PropOp30
 70
     1
102
RTVSPost2010Prop31
280
     0
102
RTVSPost2010PropOp31
 70
     1
102
RTVSPost2010Prop32
280
     0
102
RTVSPost2010PropOp32
 70
     1
102
RTVSPost2010Prop33
280
     0
102
RTVSPost2010PropOp33
 70
     1
102
RTVSPost2010Prop34
280
     0
102
RTVSPost2010PropOp34
 70
     1
102
RTVSPost2010Prop35
280
     0
102
RTVSPost2010PropOp35
 70
     1
102
RTVSPost2010Prop36
280
     0
102
RTVSPost2010PropOp36
 70
     1
102
RTVSPost2010Prop37
 90
       50
102
RTVSPost2010PropOp37
 70
     1
102
RTVSPost2010Prop38
140
0.0
102
RTVSPost2010PropOp38
 70
     1
102
RTVSPost2010Prop39
140
1.0
102
RTVSPost2010PropOp39
 70
     1
102
RTVSPost2010Prop40
 90
        0
102
RTVSPost2010PropOp40
 70
     1
102
RTVSPost2010Prop41ColorIndex
 90
       18
102
RTVSPost2010Prop41ColorRGB
 90
        0
102
RTVSPost2010PropOp41
 70
     1
102
RTVSPost2010Prop42
 90
       50
102
RTVSPost2010PropOp42
 70
     1
102
RTVSPost2010Prop43
 90
        3
102
RTVSPost2010PropOp43
 70
     1
102
RTVSPost2010Prop44ColorIndex
 90
        5
102
RTVSPost2010Prop44ColorRGB
 90
      255
102
RTVSPost2010PropOp44
 70
     1
102
RTVSPost2010Prop45
280
     0
102
RTVSPost2010PropOp45
 70
     1
102
RTVSPost2010Prop46
 90
       50
102
RTVSPost2010PropOp46
 70
     1
102
RTVSPost2010Prop47
 90
       50
102
RTVSPost2010PropOp47
 70
     1
102
RTVSPost2010Prop48
 90
       50
102
RTVSPost2010PropOp48
 70
     1
102
RTVSPost2010Prop49
280
     0
102
RTVSPost2010PropOp49
 70
     1
102
RTVSPost2010Prop50
 90
       50
102
RTVSPost2010PropOp50
 70
     1
102
RTVSPost2010Prop51ColorIndex
 90
      256
102
RTVSPost2010Prop51ColorRGB
 90
-16777216
102
RTVSPost2010PropOp51
 70
     0
102
RTVSPost2010Prop52
140
1.0
102
RTVSPost2010PropOp52
 70
     0
102
RTVSPost2010Prop53
 90
        2
102
RTVSPost2010PropOp53
 70
     1
102
RTVSPost2010Prop54
  1
strokes_ogs.tif
102
RTVSPost2010PropOp54
 70
     1
102
RTVSPost2010Prop55
280
     0
102
RTVSPost2010PropOp55
 70
     1
102
RTVSPost2010Prop56
140
1.0
102
RTVSPost2010PropOp56
 70
     1
102
RTVSPost2010Prop57
140
1.0
102
RTVSPost2010PropOp57
 70
     1
  0
XRECORD
  5
1BA
102
{ACAD_REACTORS
330
1B9
102
}
330
1B9
100
AcDbXrecord
280
     1
102
RTVSPost2010Prop28
280
     0
102
RTVSPost2010PropOp28
 70
     1
102
RTVSPost2010Prop29
280
     1
102
RTVSPost2010PropOp29
 70
     1
102
RTVSPost2010Prop30
280
     1
102
RTVSPost2010PropOp30
 70
     1
102
RTVSPost2010Prop31
280
     0
102
RTVSPost2010PropOp31
 70
     1
102
RTVSPost2010Prop32
280
     0
102
RTVSPost2010PropOp32
 70
     1
102
RTVSPost2010Prop33
280
     0
102
RTVSPost2010PropOp33
 70
     1
102
RTVSPost2010Prop34
280
     0
102
RTVSPost2010PropOp34
 70
     1
102
RTVSPost2010Prop35
280
     0
102
RTVSPost2010PropOp35
 70
     1
102
RTVSPost2010Prop36
280
     0
102
RTVSPost2010PropOp36
 70
     1
102
RTVSPost2010Prop37
 90
       50
102
RTVSPost2010PropOp37
 70
     1
102
RTVSPost2010Prop38
140
0.0
102
RTVSPost2010PropOp38
 70
     1
102
RTVSPost2010Prop39
140
1.0
102
RTVSPost2010PropOp39
 70
     1
102
RTVSPost2010Prop40
 90
        0
102
RTVSPost2010PropOp40
 70
     1
102
RTVSPost2010Prop41ColorIndex
 90
       18
102
RTVSPost2010Prop41ColorRGB
 90
        0
102
RTVSPost2010PropOp41
 70
     1
102
RTVSPost2010Prop42
 90
       50
102
RTVSPost2010PropOp42
 70
     1
102
RTVSPost2010Prop43
 90
        3
102
RTVSPost2010PropOp43
 70
     1
102
RTVSPost2010Prop44ColorIndex
 90
        5
102
RTVSPost2010Prop44ColorRGB
 90
      255
102
RTVSPost2010PropOp44
 70
     1
102
RTVSPost2010Prop45
280
     0
102
RTVSPost2010PropOp45
 70
     1
102
RTVSPost2010Prop46
 90
       50
102
RTVSPost2010PropOp46
 70
     1
102
RTVSPost2010Prop47
 90
       50
102
RTVSPost2010PropOp47
 70
     1
102
RTVSPost2010Prop48
 90
       50
102
RTVSPost2010PropOp48
 70
     1
102
RTVSPost2010Prop49
280
     0
102
RTVSPost2010PropOp49
 70
     1
102
RTVSPost2010Prop50
 90
       50
102
RTVSPost2010PropOp50
 70
     1
102
RTVSPost2010Prop51ColorIndex
 90
      256
102
RTVSPost2010Prop51ColorRGB
 90
-16777216
102
RTVSPost2010PropOp51
 70
     0
102
RTVSPost2010Prop52
140
1.0
102
RTVSPost2010PropOp52
 70
     0
102
RTVSPost2010Prop53
 90
        2
102
RTVSPost2010PropOp53
 70
     1
102
RTVSPost2010Prop54
  1
strokes_ogs.tif
102
RTVSPost2010PropOp54
 70
     1
102
RTVSPost2010Prop55
280
     0
102
RTVSPost2010PropOp55
 70
     1
102
RTVSPost2010Prop56
140
1.0
102
RTVSPost2010PropOp56
 70
     1
102
RTVSPost2010Prop57
140
1.0
102
RTVSPost2010PropOp57
 70
     1
  0
XRECORD
  5
1BE
102
{ACAD_REACTORS
330
1BD
102
}
330
1BD
100
AcDbXrecord
280
     1
102
RTVSPost2010Prop28
280
     0
102
RTVSPost2010PropOp28
 70
     1
102
RTVSPost2010Prop29
280
     1
102
RTVSPost2010PropOp29
 70
     1
102
RTVSPost2010Prop30
280
     1
102
RTVSPost2010PropOp30
 70
     1
102
RTVSPost2010Prop31
280
     0
102
RTVSPost2010PropOp31
 70
     1
102
RTVSPost2010Prop32
280
     0
102
RTVSPost2010PropOp32
 70
     1
102
RTVSPost2010Prop33
280
     0
102
RTVSPost2010PropOp33
 70
     1
102
RTVSPost2010Prop34
280
     0
102
RTVSPost2010PropOp34
 70
     1
102
RTVSPost2010Prop35
280
     0
102
RTVSPost2010PropOp35
 70
     1
102
RTVSPost2010Prop36
280
     0
102
RTVSPost2010PropOp36
 70
     1
102
RTVSPost2010Prop37
 90
       50
102
RTVSPost2010PropOp37
 70
     1
102
RTVSPost2010Prop38
140
0.0
102
RTVSPost2010PropOp38
 70
     1
102
RTVSPost2010Prop39
140
1.0
102
RTVSPost2010PropOp39
 70
     1
102
RTVSPost2010Prop40
 90
        0
102
RTVSPost2010PropOp40
 70
     1
102
RTVSPost2010Prop41ColorIndex
 90
       18
102
RTVSPost2010Prop41ColorRGB
 90
        0
102
RTVSPost2010PropOp41
 70
     1
102
RTVSPost2010Prop42
 90
       50
102
RTVSPost2010PropOp42
 70
     1
102
RTVSPost2010Prop43
 90
        3
102
RTVSPost2010PropOp43
 70
     1
102
RTVSPost2010Prop44ColorIndex
 90
        5
102
RTVSPost2010Prop44ColorRGB
 90
      255
102
RTVSPost2010PropOp44
 70
     1
102
RTVSPost2010Prop45
280
     0
102
RTVSPost2010PropOp45
 70
     1
102
RTVSPost2010Prop46
 90
       50
102
RTVSPost2010PropOp46
 70
     1
102
RTVSPost2010Prop47
 90
       50
102
RTVSPost2010PropOp47
 70
     1
102
RTVSPost2010Prop48
 90
       50
102
RTVSPost2010PropOp48
 70
     1
102
RTVSPost2010Prop49
280
     0
102
RTVSPost2010PropOp49
 70
     1
102
RTVSPost2010Prop50
 90
       50
102
RTVSPost2010PropOp50
 70
     1
102
RTVSPost2010Prop51ColorIndex
 90
      256
102
RTVSPost2010Prop51ColorRGB
 90
-16777216
102
RTVSPost2010PropOp51
 70
     0
102
RTVSPost2010Prop52
140
1.0
102
RTVSPost2010PropOp52
 70
     0
102
RTVSPost2010Prop53
 90
        2
102
RTVSPost2010PropOp53
 70
     1
102
RTVSPost2010Prop54
  1
strokes_ogs.tif
102
RTVSPost2010PropOp54
 70
     1
102
RTVSPost2010Prop55
280
     0
102
RTVSPost2010PropOp55
 70
     1
102
RTVSPost2010Prop56
140
1.0
102
RTVSPost2010PropOp56
 70
     1
102
RTVSPost2010Prop57
140
1.0
102
RTVSPost2010PropOp57
 70
     1
  0
XRECORD
  5
1D8
102
{ACAD_REACTORS
330
1D7
102
}
330
1D7
100
AcDbXrecord
280
     1
102
RTVSPost2010Prop28
280
     0
102
RTVSPost2010PropOp28
 70
     0
102
RTVSPost2010Prop29
280
     1
102
RTVSPost2010PropOp29
 70
     0
102
RTVSPost2010Prop30
280
     1
102
RTVSPost2010PropOp30
 70
     0
102
RTVSPost2010Prop31
280
     0
102
RTVSPost2010PropOp31
 70
     0
102
RTVSPost2010Prop32
280
     0
102
RTVSPost2010PropOp32
 70
     0
102
RTVSPost2010Prop33
280
     0
102
RTVSPost2010PropOp33
 70
     0
102
RTVSPost2010Prop34
280
     0
102
RTVSPost2010PropOp34
 70
     0
102
RTVSPost2010Prop35
280
     0
102
RTVSPost2010PropOp35
 70
     0
102
RTVSPost2010Prop36
280
     0
102
RTVSPost2010PropOp36
 70
     0
102
RTVSPost2010Prop37
 90
       50
102
RTVSPost2010PropOp37
 70
     0
102
RTVSPost2010Prop38
140
0.0
102
RTVSPost2010PropOp38
 70
     0
102
RTVSPost2010Prop39
140
1.0
102
RTVSPost2010PropOp39
 70
     0
102
RTVSPost2010Prop40
 90
        0
102
RTVSPost2010PropOp40
 70
     0
102
RTVSPost2010Prop41ColorIndex
 90
       18
102
RTVSPost2010Prop41ColorRGB
 90
        0
102
RTVSPost2010PropOp41
 70
     0
102
RTVSPost2010Prop42
 90
       50
102
RTVSPost2010PropOp42
 70
     0
102
RTVSPost2010Prop43
 90
        3
102
RTVSPost2010PropOp43
 70
     0
102
RTVSPost2010Prop44ColorIndex
 90
        5
102
RTVSPost2010Prop44ColorRGB
 90
      255
102
RTVSPost2010PropOp44
 70
     0
102
RTVSPost2010Prop45
280
     0
102
RTVSPost2010PropOp45
 70
     0
102
RTVSPost2010Prop46
 90
       50
102
RTVSPost2010PropOp46
 70
     0
102
RTVSPost2010Prop47
 90
       50
102
RTVSPost2010PropOp47
 70
     0
102
RTVSPost2010Prop48
 90
       50
102
RTVSPost2010PropOp48
 70
     0
102
RTVSPost2010Prop49
280
     0
102
RTVSPost2010PropOp49
 70
     0
102
RTVSPost2010Prop50
 90
       50
102
RTVSPost2010PropOp50
 70
     0
102
RTVSPost2010Prop51ColorIndex
 90
      256
102
RTVSPost2010Prop51ColorRGB
 90
-16777216
102
RTVSPost2010PropOp51
 70
     0
102
RTVSPost2010Prop52
140
1.0
102
RTVSPost2010PropOp52
 70
     0
102
RTVSPost2010Prop53
 90
        2
102
RTVSPost2010PropOp53
 70
     0
102
RTVSPost2010Prop54
  1
strokes_ogs.tif
102
RTVSPost2010PropOp54
 70
     0
102
RTVSPost2010Prop55
280
     0
102
RTVSPost2010PropOp55
 70
     0
102
RTVSPost2010Prop56
140
1.0
102
RTVSPost2010PropOp56
 70
     0
102
RTVSPost2010Prop57
140
1.0
102
RTVSPost2010PropOp57
 70
     0
  0
XRECORD
  5
1C6
102
{ACAD_REACTORS
330
1C5
102
}
330
1C5
100
AcDbXrecord
280
     1
102
RTVSPost2010Prop28
280
     0
102
RTVSPost2010PropOp28
 70
     1
102
RTVSPost2010Prop29
280
     1
102
RTVSPost2010PropOp29
 70
     1
102
RTVSPost2010Prop30
280
     1
102
RTVSPost2010PropOp30
 70
     1
102
RTVSPost2010Prop31
280
     0
102
RTVSPost2010PropOp31
 70
     1
102
RTVSPost2010Prop32
280
     0
102
RTVSPost2010PropOp32
 70
     1
102
RTVSPost2010Prop33
280
     0
102
RTVSPost2010PropOp33
 70
     1
102
RTVSPost2010Prop34
280
     0
102
RTVSPost2010PropOp34
 70
     1
102
RTVSPost2010Prop35
280
     0
102
RTVSPost2010PropOp35
 70
     1
102
RTVSPost2010Prop36
280
     0
102
RTVSPost2010PropOp36
 70
     1
102
RTVSPost2010Prop37
 90
       50
102
RTVSPost2010PropOp37
 70
     1
102
RTVSPost2010Prop38
140
0.0
102
RTVSPost2010PropOp38
 70
     1
102
RTVSPost2010Prop39
140
1.0
102
RTVSPost2010PropOp39
 70
     1
102
RTVSPost2010Prop40
 90
        0
102
RTVSPost2010PropOp40
 70
     1
102
RTVSPost2010Prop41ColorIndex
 90
       18
102
RTVSPost2010Prop41ColorRGB
 90
        0
102
RTVSPost2010PropOp41
 70
     1
102
RTVSPost2010Prop42
 90
       50
102
RTVSPost2010PropOp42
 70
     1
102
RTVSPost2010Prop43
 90
        3
102
RTVSPost2010PropOp43
 70
     1
102
RTVSPost2010Prop44ColorIndex
 90
        5
102
RTVSPost2010Prop44ColorRGB
 90
      255
102
RTVSPost2010PropOp44
 70
     1
102
RTVSPost2010Prop45
280
     0
102
RTVSPost2010PropOp45
 70
     1
102
RTVSPost2010Prop46
 90
       50
102
RTVSPost2010PropOp46
 70
     1
102
RTVSPost2010Prop47
 90
       50
102
RTVSPost2010PropOp47
 70
     1
102
RTVSPost2010Prop48
 90
       50
102
RTVSPost2010PropOp48
 70
     1
102
RTVSPost2010Prop49
280
     0
102
RTVSPost2010PropOp49
 70
     1
102
RTVSPost2010Prop50
 90
       50
102
RTVSPost2010PropOp50
 70
     1
102
RTVSPost2010Prop51ColorIndex
 90
      256
102
RTVSPost2010Prop51ColorRGB
 90
-16777216
102
RTVSPost2010PropOp51
 70
     0
102
RTVSPost2010Prop52
140
1.0
102
RTVSPost2010PropOp52
 70
     0
102
RTVSPost2010Prop53
 90
        2
102
RTVSPost2010PropOp53
 70
     1
102
RTVSPost2010Prop54
  1
strokes_ogs.tif
102
RTVSPost2010PropOp54
 70
     1
102
RTVSPost2010Prop55
280
     0
102
RTVSPost2010PropOp55
 70
     1
102
RTVSPost2010Prop56
140
1.0
102
RTVSPost2010PropOp56
 70
     1
102
RTVSPost2010Prop57
140
1.0
102
RTVSPost2010PropOp57
 70
     1
  0
XRECORD
  5
1AA
102
{ACAD_REACTORS
330
1A9
102
}
330
1A9
100
AcDbXrecord
280
     1
102
RTVSPost2010Prop28
280
     0
102
RTVSPost2010PropOp28
 70
     1
102
RTVSPost2010Prop29
280
     1
102
RTVSPost2010PropOp29
 70
     1
102
RTVSPost2010Prop30
280
     1
102
RTVSPost2010PropOp30
 70
     1
102
RTVSPost2010Prop31
280
     0
102
RTVSPost2010PropOp31
 70
     1
102
RTVSPost2010Prop32
280
     0
102
RTVSPost2010PropOp32
 70
     1
102
RTVSPost2010Prop33
280
     0
102
RTVSPost2010PropOp33
 70
     1
102
RTVSPost2010Prop34
280
     0
102
RTVSPost2010PropOp34
 70
     1
102
RTVSPost2010Prop35
280
     0
102
RTVSPost2010PropOp35
 70
     1
102
RTVSPost2010Prop36
280
     0
102
RTVSPost2010PropOp36
 70
     1
102
RTVSPost2010Prop37
 90
       50
102
RTVSPost2010PropOp37
 70
     1
102
RTVSPost2010Prop38
140
0.0
102
RTVSPost2010PropOp38
 70
     1
102
RTVSPost2010Prop39
140
1.0
102
RTVSPost2010PropOp39
 70
     1
102
RTVSPost2010Prop40
 90
        0
102
RTVSPost2010PropOp40
 70
     1
102
RTVSPost2010Prop41ColorIndex
 90
       18
102
RTVSPost2010Prop41ColorRGB
 90
        0
102
RTVSPost2010PropOp41
 70
     1
102
RTVSPost2010Prop42
 90
       50
102
RTVSPost2010PropOp42
 70
     1
102
RTVSPost2010Prop43
 90
        3
102
RTVSPost2010PropOp43
 70
     1
102
RTVSPost2010Prop44ColorIndex
 90
        5
102
RTVSPost2010Prop44ColorRGB
 90
      255
102
RTVSPost2010PropOp44
 70
     1
102
RTVSPost2010Prop45
280
     0
102
RTVSPost2010PropOp45
 70
     1
102
RTVSPost2010Prop46
 90
       50
102
RTVSPost2010PropOp46
 70
     1
102
RTVSPost2010Prop47
 90
       50
102
RTVSPost2010PropOp47
 70
     1
102
RTVSPost2010Prop48
 90
       50
102
RTVSPost2010PropOp48
 70
     1
102
RTVSPost2010Prop49
280
     0
102
RTVSPost2010PropOp49
 70
     1
102
RTVSPost2010Prop50
 90
       50
102
RTVSPost2010PropOp50
 70
     1
102
RTVSPost2010Prop51ColorIndex
 90
      256
102
RTVSPost2010Prop51ColorRGB
 90
-16777216
102
RTVSPost2010PropOp51
 70
     0
102
RTVSPost2010Prop52
140
1.0
102
RTVSPost2010PropOp52
 70
     0
102
RTVSPost2010Prop53
 90
        2
102
RTVSPost2010PropOp53
 70
     1
102
RTVSPost2010Prop54
  1
strokes_ogs.tif
102
RTVSPost2010PropOp54
 70
     1
102
RTVSPost2010Prop55
280
     0
102
RTVSPost2010PropOp55
 70
     1
102
RTVSPost2010Prop56
140
1.0
102
RTVSPost2010PropOp56
 70
     1
102
RTVSPost2010Prop57
140
1.0
102
RTVSPost2010PropOp57
 70
     1
  0
XRECORD
  5
1AC
102
{ACAD_REACTORS
330
1AB
102
}
330
1AB
100
AcDbXrecord
280
     1
102
RTVSPost2010Prop28
280
     0
102
RTVSPost2010PropOp28
 70
     1
102
RTVSPost2010Prop29
280
     1
102
RTVSPost2010PropOp29
 70
     1
102
RTVSPost2010Prop30
280
     1
102
RTVSPost2010PropOp30
 70
     1
102
RTVSPost2010Prop31
280
     0
102
RTVSPost2010PropOp31
 70
     1
102
RTVSPost2010Prop32
280
     0
102
RTVSPost2010PropOp32
 70
     1
102
RTVSPost2010Prop33
280
     0
102
RTVSPost2010PropOp33
 70
     1
102
RTVSPost2010Prop34
280
     0
102
RTVSPost2010PropOp34
 70
     1
102
RTVSPost2010Prop35
280
     0
102
RTVSPost2010PropOp35
 70
     1
102
RTVSPost2010Prop36
280
     0
102
RTVSPost2010PropOp36
 70
     1
102
RTVSPost2010Prop37
 90
       50
102
RTVSPost2010PropOp37
 70
     1
102
RTVSPost2010Prop38
140
0.0
102
RTVSPost2010PropOp38
 70
     1
102
RTVSPost2010Prop39
140
1.0
102
RTVSPost2010PropOp39
 70
     1
102
RTVSPost2010Prop40
 90
        0
102
RTVSPost2010PropOp40
 70
     1
102
RTVSPost2010Prop41ColorIndex
 90
       18
102
RTVSPost2010Prop41ColorRGB
 90
        0
102
RTVSPost2010PropOp41
 70
     1
102
RTVSPost2010Prop42
 90
       50
102
RTVSPost2010PropOp42
 70
     1
102
RTVSPost2010Prop43
 90
        3
102
RTVSPost2010PropOp43
 70
     1
102
RTVSPost2010Prop44ColorIndex
 90
        5
102
RTVSPost2010Prop44ColorRGB
 90
      255
102
RTVSPost2010PropOp44
 70
     1
102
RTVSPost2010Prop45
280
     0
102
RTVSPost2010PropOp45
 70
     1
102
RTVSPost2010Prop46
 90
       50
102
RTVSPost2010PropOp46
 70
     1
102
RTVSPost2010Prop47
 90
       50
102
RTVSPost2010PropOp47
 70
     1
102
RTVSPost2010Prop48
 90
       50
102
RTVSPost2010PropOp48
 70
     1
102
RTVSPost2010Prop49
280
     0
102
RTVSPost2010PropOp49
 70
     1
102
RTVSPost2010Prop50
 90
       50
102
RTVSPost2010PropOp50
 70
     1
102
RTVSPost2010Prop51ColorIndex
 90
      256
102
RTVSPost2010Prop51ColorRGB
 90
-16777216
102
RTVSPost2010PropOp51
 70
     0
102
RTVSPost2010Prop52
140
1.0
102
RTVSPost2010PropOp52
 70
     0
102
RTVSPost2010Prop53
 90
        2
102
RTVSPost2010PropOp53
 70
     1
102
RTVSPost2010Prop54
  1
strokes_ogs.tif
102
RTVSPost2010PropOp54
 70
     1
102
RTVSPost2010Prop55
280
     0
102
RTVSPost2010PropOp55
 70
     1
102
RTVSPost2010Prop56
140
1.0
102
RTVSPost2010PropOp56
 70
     1
102
RTVSPost2010Prop57
140
1.0
102
RTVSPost2010PropOp57
 70
     1
  0
XRECORD
  5
1AE
102
{ACAD_REACTORS
330
1AD
102
}
330
1AD
100
AcDbXrecord
280
     1
102
RTVSPost2010Prop28
280
     0
102
RTVSPost2010PropOp28
 70
     1
102
RTVSPost2010Prop29
280
     1
102
RTVSPost2010PropOp29
 70
     1
102
RTVSPost2010Prop30
280
     1
102
RTVSPost2010PropOp30
 70
     1
102
RTVSPost2010Prop31
280
     0
102
RTVSPost2010PropOp31
 70
     1
102
RTVSPost2010Prop32
280
     0
102
RTVSPost2010PropOp32
 70
     1
102
RTVSPost2010Prop33
280
     0
102
RTVSPost2010PropOp33
 70
     1
102
RTVSPost2010Prop34
280
     0
102
RTVSPost2010PropOp34
 70
     1
102
RTVSPost2010Prop35
280
     0
102
RTVSPost2010PropOp35
 70
     1
102
RTVSPost2010Prop36
280
     0
102
RTVSPost2010PropOp36
 70
     1
102
RTVSPost2010Prop37
 90
       50
102
RTVSPost2010PropOp37
 70
     1
102
RTVSPost2010Prop38
140
0.0
102
RTVSPost2010PropOp38
 70
     1
102
RTVSPost2010Prop39
140
1.0
102
RTVSPost2010PropOp39
 70
     1
102
RTVSPost2010Prop40
 90
        0
102
RTVSPost2010PropOp40
 70
     1
102
RTVSPost2010Prop41ColorIndex
 90
       18
102
RTVSPost2010Prop41ColorRGB
 90
        0
102
RTVSPost2010PropOp41
 70
     1
102
RTVSPost2010Prop42
 90
       50
102
RTVSPost2010PropOp42
 70
     1
102
RTVSPost2010Prop43
 90
        3
102
RTVSPost2010PropOp43
 70
     1
102
RTVSPost2010Prop44ColorIndex
 90
        5
102
RTVSPost2010Prop44ColorRGB
 90
      255
102
RTVSPost2010PropOp44
 70
     1
102
RTVSPost2010Prop45
280
     0
102
RTVSPost2010PropOp45
 70
     1
102
RTVSPost2010Prop46
 90
       50
102
RTVSPost2010PropOp46
 70
     1
102
RTVSPost2010Prop47
 90
       50
102
RTVSPost2010PropOp47
 70
     1
102
RTVSPost2010Prop48
 90
       50
102
RTVSPost2010PropOp48
 70
     1
102
RTVSPost2010Prop49
280
     0
102
RTVSPost2010PropOp49
 70
     1
102
RTVSPost2010Prop50
 90
       50
102
RTVSPost2010PropOp50
 70
     1
102
RTVSPost2010Prop51ColorIndex
 90
      256
102
RTVSPost2010Prop51ColorRGB
 90
-16777216
102
RTVSPost2010PropOp51
 70
     0
102
RTVSPost2010Prop52
140
1.0
102
RTVSPost2010PropOp52
 70
     0
102
RTVSPost2010Prop53
 90
        2
102
RTVSPost2010PropOp53
 70
     1
102
RTVSPost2010Prop54
  1
strokes_ogs.tif
102
RTVSPost2010PropOp54
 70
     1
102
RTVSPost2010Prop55
280
     0
102
RTVSPost2010PropOp55
 70
     1
102
RTVSPost2010Prop56
140
1.0
102
RTVSPost2010PropOp56
 70
     1
102
RTVSPost2010Prop57
140
1.0
102
RTVSPost2010PropOp57
 70
     1
  0
XRECORD
  5
1B0
102
{ACAD_REACTORS
330
1AF
102
}
330
1AF
100
AcDbXrecord
280
     1
102
RTVSPost2010Prop28
280
     0
102
RTVSPost2010PropOp28
 70
     1
102
RTVSPost2010Prop29
280
     1
102
RTVSPost2010PropOp29
 70
     1
102
RTVSPost2010Prop30
280
     1
102
RTVSPost2010PropOp30
 70
     1
102
RTVSPost2010Prop31
280
     0
102
RTVSPost2010PropOp31
 70
     1
102
RTVSPost2010Prop32
280
     0
102
RTVSPost2010PropOp32
 70
     1
102
RTVSPost2010Prop33
280
     0
102
RTVSPost2010PropOp33
 70
     1
102
RTVSPost2010Prop34
280
     0
102
RTVSPost2010PropOp34
 70
     1
102
RTVSPost2010Prop35
280
     0
102
RTVSPost2010PropOp35
 70
     1
102
RTVSPost2010Prop36
280
     0
102
RTVSPost2010PropOp36
 70
     1
102
RTVSPost2010Prop37
 90
       50
102
RTVSPost2010PropOp37
 70
     1
102
RTVSPost2010Prop38
140
0.0
102
RTVSPost2010PropOp38
 70
     1
102
RTVSPost2010Prop39
140
1.0
102
RTVSPost2010PropOp39
 70
     1
102
RTVSPost2010Prop40
 90
        0
102
RTVSPost2010PropOp40
 70
     1
102
RTVSPost2010Prop41ColorIndex
 90
       18
102
RTVSPost2010Prop41ColorRGB
 90
        0
102
RTVSPost2010PropOp41
 70
     1
102
RTVSPost2010Prop42
 90
       50
102
RTVSPost2010PropOp42
 70
     1
102
RTVSPost2010Prop43
 90
        3
102
RTVSPost2010PropOp43
 70
     1
102
RTVSPost2010Prop44ColorIndex
 90
        5
102
RTVSPost2010Prop44ColorRGB
 90
      255
102
RTVSPost2010PropOp44
 70
     1
102
RTVSPost2010Prop45
280
     0
102
RTVSPost2010PropOp45
 70
     1
102
RTVSPost2010Prop46
 90
       50
102
RTVSPost2010PropOp46
 70
     1
102
RTVSPost2010Prop47
 90
       50
102
RTVSPost2010PropOp47
 70
     1
102
RTVSPost2010Prop48
 90
       50
102
RTVSPost2010PropOp48
 70
     1
102
RTVSPost2010Prop49
280
     0
102
RTVSPost2010PropOp49
 70
     1
102
RTVSPost2010Prop50
 90
       50
102
RTVSPost2010PropOp50
 70
     1
102
RTVSPost2010Prop51ColorIndex
 90
      256
102
RTVSPost2010Prop51ColorRGB
 90
-16777216
102
RTVSPost2010PropOp51
 70
     0
102
RTVSPost2010Prop52
140
1.0
102
RTVSPost2010PropOp52
 70
     0
102
RTVSPost2010Prop53
 90
        2
102
RTVSPost2010PropOp53
 70
     1
102
RTVSPost2010Prop54
  1
strokes_ogs.tif
102
RTVSPost2010PropOp54
 70
     1
102
RTVSPost2010Prop55
280
     0
102
RTVSPost2010PropOp55
 70
     1
102
RTVSPost2010Prop56
140
1.0
102
RTVSPost2010PropOp56
 70
     1
102
RTVSPost2010Prop57
140
1.0
102
RTVSPost2010PropOp57
 70
     1
  0
XRECORD
  5
1B8
102
{ACAD_REACTORS
330
1B7
102
}
330
1B7
100
AcDbXrecord
280
     1
102
RTVSPost2010Prop28
280
     0
102
RTVSPost2010PropOp28
 70
     1
102
RTVSPost2010Prop29
280
     1
102
RTVSPost2010PropOp29
 70
     1
102
RTVSPost2010Prop30
280
     1
102
RTVSPost2010PropOp30
 70
     1
102
RTVSPost2010Prop31
280
     0
102
RTVSPost2010PropOp31
 70
     1
102
RTVSPost2010Prop32
280
     0
102
RTVSPost2010PropOp32
 70
     1
102
RTVSPost2010Prop33
280
     0
102
RTVSPost2010PropOp33
 70
     1
102
RTVSPost2010Prop34
280
     0
102
RTVSPost2010PropOp34
 70
     1
102
RTVSPost2010Prop35
280
     0
102
RTVSPost2010PropOp35
 70
     1
102
RTVSPost2010Prop36
280
     0
102
RTVSPost2010PropOp36
 70
     1
102
RTVSPost2010Prop37
 90
       50
102
RTVSPost2010PropOp37
 70
     1
102
RTVSPost2010Prop38
140
0.0
102
RTVSPost2010PropOp38
 70
     1
102
RTVSPost2010Prop39
140
1.0
102
RTVSPost2010PropOp39
 70
     1
102
RTVSPost2010Prop40
 90
        0
102
RTVSPost2010PropOp40
 70
     1
102
RTVSPost2010Prop41ColorIndex
 90
       18
102
RTVSPost2010Prop41ColorRGB
 90
        0
102
RTVSPost2010PropOp41
 70
     1
102
RTVSPost2010Prop42
 90
       50
102
RTVSPost2010PropOp42
 70
     1
102
RTVSPost2010Prop43
 90
        3
102
RTVSPost2010PropOp43
 70
     1
102
RTVSPost2010Prop44ColorIndex
 90
        5
102
RTVSPost2010Prop44ColorRGB
 90
      255
102
RTVSPost2010PropOp44
 70
     1
102
RTVSPost2010Prop45
280
     0
102
RTVSPost2010PropOp45
 70
     1
102
RTVSPost2010Prop46
 90
       50
102
RTVSPost2010PropOp46
 70
     1
102
RTVSPost2010Prop47
 90
       50
102
RTVSPost2010PropOp47
 70
     1
102
RTVSPost2010Prop48
 90
       50
102
RTVSPost2010PropOp48
 70
     1
102
RTVSPost2010Prop49
280
     0
102
RTVSPost2010PropOp49
 70
     1
102
RTVSPost2010Prop50
 90
       50
102
RTVSPost2010PropOp50
 70
     1
102
RTVSPost2010Prop51ColorIndex
 90
      256
102
RTVSPost2010Prop51ColorRGB
 90
-16777216
102
RTVSPost2010PropOp51
 70
     0
102
RTVSPost2010Prop52
140
1.0
102
RTVSPost2010PropOp52
 70
     0
102
RTVSPost2010Prop53
 90
        2
102
RTVSPost2010PropOp53
 70
     1
102
RTVSPost2010Prop54
  1
strokes_ogs.tif
102
RTVSPost2010PropOp54
 70
     1
102
RTVSPost2010Prop55
280
     0
102
RTVSPost2010PropOp55
 70
     1
102
RTVSPost2010Prop56
140
1.0
102
RTVSPost2010PropOp56
 70
     1
102
RTVSPost2010Prop57
140
1.0
102
RTVSPost2010PropOp57
 70
     1
  0
XRECORD
  5
1D4
102
{ACAD_REACTORS
330
1D3
102
}
330
1D3
100
AcDbXrecord
280
     1
102
RTVSPost2010Prop28
280
     0
102
RTVSPost2010PropOp28
 70
     0
102
RTVSPost2010Prop29
280
     1
102
RTVSPost2010PropOp29
 70
     0
102
RTVSPost2010Prop30
280
     1
102
RTVSPost2010PropOp30
 70
     0
102
RTVSPost2010Prop31
280
     0
102
RTVSPost2010PropOp31
 70
     0
102
RTVSPost2010Prop32
280
     0
102
RTVSPost2010PropOp32
 70
     0
102
RTVSPost2010Prop33
280
     0
102
RTVSPost2010PropOp33
 70
     0
102
RTVSPost2010Prop34
280
     0
102
RTVSPost2010PropOp34
 70
     0
102
RTVSPost2010Prop35
280
     0
102
RTVSPost2010PropOp35
 70
     0
102
RTVSPost2010Prop36
280
     0
102
RTVSPost2010PropOp36
 70
     0
102
RTVSPost2010Prop37
 90
       50
102
RTVSPost2010PropOp37
 70
     0
102
RTVSPost2010Prop38
140
0.0
102
RTVSPost2010PropOp38
 70
     0
102
RTVSPost2010Prop39
140
1.0
102
RTVSPost2010PropOp39
 70
     0
102
RTVSPost2010Prop40
 90
        0
102
RTVSPost2010PropOp40
 70
     0
102
RTVSPost2010Prop41ColorIndex
 90
       18
102
RTVSPost2010Prop41ColorRGB
 90
        0
102
RTVSPost2010PropOp41
 70
     0
102
RTVSPost2010Prop42
 90
       50
102
RTVSPost2010PropOp42
 70
     0
102
RTVSPost2010Prop43
 90
        3
102
RTVSPost2010PropOp43
 70
     0
102
RTVSPost2010Prop44ColorIndex
 90
        5
102
RTVSPost2010Prop44ColorRGB
 90
      255
102
RTVSPost2010PropOp44
 70
     0
102
RTVSPost2010Prop45
280
     0
102
RTVSPost2010PropOp45
 70
     0
102
RTVSPost2010Prop46
 90
       50
102
RTVSPost2010PropOp46
 70
     0
102
RTVSPost2010Prop47
 90
       50
102
RTVSPost2010PropOp47
 70
     0
102
RTVSPost2010Prop48
 90
       50
102
RTVSPost2010PropOp48
 70
     0
102
RTVSPost2010Prop49
280
     0
102
RTVSPost2010PropOp49
 70
     0
102
RTVSPost2010Prop50
 90
       50
102
RTVSPost2010PropOp50
 70
     0
102
RTVSPost2010Prop51ColorIndex
 90
      256
102
RTVSPost2010Prop51ColorRGB
 90
-16777216
102
RTVSPost2010PropOp51
 70
     0
102
RTVSPost2010Prop52
140
1.0
102
RTVSPost2010PropOp52
 70
     0
102
RTVSPost2010Prop53
 90
        2
102
RTVSPost2010PropOp53
 70
     0
102
RTVSPost2010Prop54
  1
strokes_ogs.tif
102
RTVSPost2010PropOp54
 70
     0
102
RTVSPost2010Prop55
280
     0
102
RTVSPost2010PropOp55
 70
     0
102
RTVSPost2010Prop56
140
1.0
102
RTVSPost2010PropOp56
 70
     0
102
RTVSPost2010Prop57
140
1.0
102
RTVSPost2010PropOp57
 70
     0
  0
XRECORD
  5
1C4
102
{ACAD_REACTORS
330
1C3
102
}
330
1C3
100
AcDbXrecord
280
     1
102
RTVSPost2010Prop28
280
     0
102
RTVSPost2010PropOp28
 70
     1
102
RTVSPost2010Prop29
280
     1
102
RTVSPost2010PropOp29
 70
     1
102
RTVSPost2010Prop30
280
     1
102
RTVSPost2010PropOp30
 70
     1
102
RTVSPost2010Prop31
280
     0
102
RTVSPost2010PropOp31
 70
     1
102
RTVSPost2010Prop32
280
     0
102
RTVSPost2010PropOp32
 70
     1
102
RTVSPost2010Prop33
280
     0
102
RTVSPost2010PropOp33
 70
     1
102
RTVSPost2010Prop34
280
     0
102
RTVSPost2010PropOp34
 70
     1
102
RTVSPost2010Prop35
280
     0
102
RTVSPost2010PropOp35
 70
     1
102
RTVSPost2010Prop36
280
     0
102
RTVSPost2010PropOp36
 70
     1
102
RTVSPost2010Prop37
 90
       50
102
RTVSPost2010PropOp37
 70
     1
102
RTVSPost2010Prop38
140
0.0
102
RTVSPost2010PropOp38
 70
     1
102
RTVSPost2010Prop39
140
1.0
102
RTVSPost2010PropOp39
 70
     1
102
RTVSPost2010Prop40
 90
        0
102
RTVSPost2010PropOp40
 70
     1
102
RTVSPost2010Prop41ColorIndex
 90
       18
102
RTVSPost2010Prop41ColorRGB
 90
        0
102
RTVSPost2010PropOp41
 70
     1
102
RTVSPost2010Prop42
 90
       50
102
RTVSPost2010PropOp42
 70
     1
102
RTVSPost2010Prop43
 90
        3
102
RTVSPost2010PropOp43
 70
     1
102
RTVSPost2010Prop44ColorIndex
 90
        5
102
RTVSPost2010Prop44ColorRGB
 90
      255
102
RTVSPost2010PropOp44
 70
     1
102
RTVSPost2010Prop45
280
     0
102
RTVSPost2010PropOp45
 70
     1
102
RTVSPost2010Prop46
 90
       50
102
RTVSPost2010PropOp46
 70
     1
102
RTVSPost2010Prop47
 90
       50
102
RTVSPost2010PropOp47
 70
     1
102
RTVSPost2010Prop48
 90
       50
102
RTVSPost2010PropOp48
 70
     1
102
RTVSPost2010Prop49
280
     0
102
RTVSPost2010PropOp49
 70
     1
102
RTVSPost2010Prop50
 90
       50
102
RTVSPost2010PropOp50
 70
     1
102
RTVSPost2010Prop51ColorIndex
 90
      256
102
RTVSPost2010Prop51ColorRGB
 90
-16777216
102
RTVSPost2010PropOp51
 70
     0
102
RTVSPost2010Prop52
140
1.0
102
RTVSPost2010PropOp52
 70
     0
102
RTVSPost2010Prop53
 90
        2
102
RTVSPost2010PropOp53
 70
     1
102
RTVSPost2010Prop54
  1
strokes_ogs.tif
102
RTVSPost2010PropOp54
 70
     1
102
RTVSPost2010Prop55
280
     0
102
RTVSPost2010PropOp55
 70
     1
102
RTVSPost2010Prop56
140
1.0
102
RTVSPost2010PropOp56
 70
     1
102
RTVSPost2010Prop57
140
1.0
102
RTVSPost2010PropOp57
 70
     1
  0
XRECORD
  5
1D6
102
{ACAD_REACTORS
330
1D5
102
}
330
1D5
100
AcDbXrecord
280
     1
102
RTVSPost2010Prop28
280
     0
102
RTVSPost2010PropOp28
 70
     0
102
RTVSPost2010Prop29
280
     1
102
RTVSPost2010PropOp29
 70
     0
102
RTVSPost2010Prop30
280
     1
102
RTVSPost2010PropOp30
 70
     0
102
RTVSPost2010Prop31
280
     0
102
RTVSPost2010PropOp31
 70
     0
102
RTVSPost2010Prop32
280
     0
102
RTVSPost2010PropOp32
 70
     0
102
RTVSPost2010Prop33
280
     0
102
RTVSPost2010PropOp33
 70
     0
102
RTVSPost2010Prop34
280
     0
102
RTVSPost2010PropOp34
 70
     0
102
RTVSPost2010Prop35
280
     0
102
RTVSPost2010PropOp35
 70
     0
102
RTVSPost2010Prop36
280
     0
102
RTVSPost2010PropOp36
 70
     0
102
RTVSPost2010Prop37
 90
       50
102
RTVSPost2010PropOp37
 70
     0
102
RTVSPost2010Prop38
140
0.0
102
RTVSPost2010PropOp38
 70
     0
102
RTVSPost2010Prop39
140
1.0
102
RTVSPost2010PropOp39
 70
     0
102
RTVSPost2010Prop40
 90
        0
102
RTVSPost2010PropOp40
 70
     0
102
RTVSPost2010Prop41ColorIndex
 90
       18
102
RTVSPost2010Prop41ColorRGB
 90
        0
102
RTVSPost2010PropOp41
 70
     0
102
RTVSPost2010Prop42
 90
       50
102
RTVSPost2010PropOp42
 70
     0
102
RTVSPost2010Prop43
 90
        3
102
RTVSPost2010PropOp43
 70
     0
102
RTVSPost2010Prop44ColorIndex
 90
        5
102
RTVSPost2010Prop44ColorRGB
 90
      255
102
RTVSPost2010PropOp44
 70
     0
102
RTVSPost2010Prop45
280
     0
102
RTVSPost2010PropOp45
 70
     0
102
RTVSPost2010Prop46
 90
       50
102
RTVSPost2010PropOp46
 70
     0
102
RTVSPost2010Prop47
 90
       50
102
RTVSPost2010PropOp47
 70
     0
102
RTVSPost2010Prop48
 90
       50
102
RTVSPost2010PropOp48
 70
     0
102
RTVSPost2010Prop49
280
     0
102
RTVSPost2010PropOp49
 70
     0
102
RTVSPost2010Prop50
 90
       50
102
RTVSPost2010PropOp50
 70
     0
102
RTVSPost2010Prop51ColorIndex
 90
      256
102
RTVSPost2010Prop51ColorRGB
 90
-16777216
102
RTVSPost2010PropOp51
 70
     0
102
RTVSPost2010Prop52
140
1.0
102
RTVSPost2010PropOp52
 70
     0
102
RTVSPost2010Prop53
 90
        2
102
RTVSPost2010PropOp53
 70
     0
102
RTVSPost2010Prop54
  1
strokes_ogs.tif
102
RTVSPost2010PropOp54
 70
     0
102
RTVSPost2010Prop55
280
     0
102
RTVSPost2010PropOp55
 70
     0
102
RTVSPost2010Prop56
140
1.0
102
RTVSPost2010PropOp56
 70
     0
102
RTVSPost2010Prop57
140
1.0
102
RTVSPost2010PropOp57
 70
     0
  0
XRECORD
  5
1BC
102
{ACAD_REACTORS
330
1BB
102
}
330
1BB
100
AcDbXrecord
280
     1
102
RTVSPost2010Prop28
280
     0
102
RTVSPost2010PropOp28
 70
     1
102
RTVSPost2010Prop29
280
     1
102
RTVSPost2010PropOp29
 70
     1
102
RTVSPost2010Prop30
280
     1
102
RTVSPost2010PropOp30
 70
     1
102
RTVSPost2010Prop31
280
     0
102
RTVSPost2010PropOp31
 70
     1
102
RTVSPost2010Prop32
280
     0
102
RTVSPost2010PropOp32
 70
     1
102
RTVSPost2010Prop33
280
     0
102
RTVSPost2010PropOp33
 70
     1
102
RTVSPost2010Prop34
280
     0
102
RTVSPost2010PropOp34
 70
     1
102
RTVSPost2010Prop35
280
     0
102
RTVSPost2010PropOp35
 70
     1
102
RTVSPost2010Prop36
280
     0
102
RTVSPost2010PropOp36
 70
     1
102
RTVSPost2010Prop37
 90
       50
102
RTVSPost2010PropOp37
 70
     1
102
RTVSPost2010Prop38
140
0.0
102
RTVSPost2010PropOp38
 70
     1
102
RTVSPost2010Prop39
140
1.0
102
RTVSPost2010PropOp39
 70
     1
102
RTVSPost2010Prop40
 90
        0
102
RTVSPost2010PropOp40
 70
     1
102
RTVSPost2010Prop41ColorIndex
 90
       18
102
RTVSPost2010Prop41ColorRGB
 90
        0
102
RTVSPost2010PropOp41
 70
     1
102
RTVSPost2010Prop42
 90
       50
102
RTVSPost2010PropOp42
 70
     1
102
RTVSPost2010Prop43
 90
        3
102
RTVSPost2010PropOp43
 70
     1
102
RTVSPost2010Prop44ColorIndex
 90
        5
102
RTVSPost2010Prop44ColorRGB
 90
      255
102
RTVSPost2010PropOp44
 70
     1
102
RTVSPost2010Prop45
280
     0
102
RTVSPost2010PropOp45
 70
     1
102
RTVSPost2010Prop46
 90
       50
102
RTVSPost2010PropOp46
 70
     1
102
RTVSPost2010Prop47
 90
       50
102
RTVSPost2010PropOp47
 70
     1
102
RTVSPost2010Prop48
 90
       50
102
RTVSPost2010PropOp48
 70
     1
102
RTVSPost2010Prop49
280
     0
102
RTVSPost2010PropOp49
 70
     1
102
RTVSPost2010Prop50
 90
       50
102
RTVSPost2010PropOp50
 70
     1
102
RTVSPost2010Prop51ColorIndex
 90
      256
102
RTVSPost2010Prop51ColorRGB
 90
-16777216
102
RTVSPost2010PropOp51
 70
     0
102
RTVSPost2010Prop52
140
1.0
102
RTVSPost2010PropOp52
 70
     0
102
RTVSPost2010Prop53
 90
        2
102
RTVSPost2010PropOp53
 70
     1
102
RTVSPost2010Prop54
  1
strokes_ogs.tif
102
RTVSPost2010PropOp54
 70
     1
102
RTVSPost2010Prop55
280
     0
102
RTVSPost2010PropOp55
 70
     1
102
RTVSPost2010Prop56
140
1.0
102
RTVSPost2010PropOp56
 70
     1
102
RTVSPost2010Prop57
140
1.0
102
RTVSPost2010PropOp57
 70
     1
  0
XRECORD
  5
1D2
102
{ACAD_REACTORS
330
1D1
102
}
330
1D1
100
AcDbXrecord
280
     1
102
RTVSPost2010Prop28
280
     0
102
RTVSPost2010PropOp28
 70
     1
102
RTVSPost2010Prop29
280
     1
102
RTVSPost2010PropOp29
 70
     1
102
RTVSPost2010Prop30
280
     1
102
RTVSPost2010PropOp30
 70
     1
102
RTVSPost2010Prop31
280
     0
102
RTVSPost2010PropOp31
 70
     1
102
RTVSPost2010Prop32
280
     0
102
RTVSPost2010PropOp32
 70
     1
102
RTVSPost2010Prop33
280
     0
102
RTVSPost2010PropOp33
 70
     1
102
RTVSPost2010Prop34
280
     0
102
RTVSPost2010PropOp34
 70
     1
102
RTVSPost2010Prop35
280
     0
102
RTVSPost2010PropOp35
 70
     1
102
RTVSPost2010Prop36
280
     0
102
RTVSPost2010PropOp36
 70
     1
102
RTVSPost2010Prop37
 90
       50
102
RTVSPost2010PropOp37
 70
     1
102
RTVSPost2010Prop38
140
0.0
102
RTVSPost2010PropOp38
 70
     1
102
RTVSPost2010Prop39
140
1.0
102
RTVSPost2010PropOp39
 70
     1
102
RTVSPost2010Prop40
 90
        0
102
RTVSPost2010PropOp40
 70
     1
102
RTVSPost2010Prop41ColorIndex
 90
       18
102
RTVSPost2010Prop41ColorRGB
 90
        0
102
RTVSPost2010PropOp41
 70
     1
102
RTVSPost2010Prop42
 90
       50
102
RTVSPost2010PropOp42
 70
     1
102
RTVSPost2010Prop43
 90
        3
102
RTVSPost2010PropOp43
 70
     1
102
RTVSPost2010Prop44ColorIndex
 90
        5
102
RTVSPost2010Prop44ColorRGB
 90
      255
102
RTVSPost2010PropOp44
 70
     1
102
RTVSPost2010Prop45
280
     0
102
RTVSPost2010PropOp45
 70
     1
102
RTVSPost2010Prop46
 90
       50
102
RTVSPost2010PropOp46
 70
     1
102
RTVSPost2010Prop47
 90
       50
102
RTVSPost2010PropOp47
 70
     1
102
RTVSPost2010Prop48
 90
       50
102
RTVSPost2010PropOp48
 70
     1
102
RTVSPost2010Prop49
280
     0
102
RTVSPost2010PropOp49
 70
     1
102
RTVSPost2010Prop50
 90
       50
102
RTVSPost2010PropOp50
 70
     1
102
RTVSPost2010Prop51ColorIndex
 90
      256
102
RTVSPost2010Prop51ColorRGB
 90
-16777216
102
RTVSPost2010PropOp51
 70
     0
102
RTVSPost2010Prop52
140
1.0
102
RTVSPost2010PropOp52
 70
     0
102
RTVSPost2010Prop53
 90
        2
102
RTVSPost2010PropOp53
 70
     1
102
RTVSPost2010Prop54
  1
strokes_ogs.tif
102
RTVSPost2010PropOp54
 70
     1
102
RTVSPost2010Prop55
280
     0
102
RTVSPost2010PropOp55
 70
     1
102
RTVSPost2010Prop56
140
1.0
102
RTVSPost2010PropOp56
 70
     1
102
RTVSPost2010Prop57
140
1.0
102
RTVSPost2010PropOp57
 70
     1
  0
XRECORD
  5
1D0
102
{ACAD_REACTORS
330
1CF
102
}
330
1CF
100
AcDbXrecord
280
     1
102
RTVSPost2010Prop28
280
     0
102
RTVSPost2010PropOp28
 70
     1
102
RTVSPost2010Prop29
280
     1
102
RTVSPost2010PropOp29
 70
     1
102
RTVSPost2010Prop30
280
     1
102
RTVSPost2010PropOp30
 70
     1
102
RTVSPost2010Prop31
280
     0
102
RTVSPost2010PropOp31
 70
     1
102
RTVSPost2010Prop32
280
     0
102
RTVSPost2010PropOp32
 70
     1
102
RTVSPost2010Prop33
280
     0
102
RTVSPost2010PropOp33
 70
     1
102
RTVSPost2010Prop34
280
     0
102
RTVSPost2010PropOp34
 70
     1
102
RTVSPost2010Prop35
280
     0
102
RTVSPost2010PropOp35
 70
     1
102
RTVSPost2010Prop36
280
     0
102
RTVSPost2010PropOp36
 70
     1
102
RTVSPost2010Prop37
 90
       50
102
RTVSPost2010PropOp37
 70
     1
102
RTVSPost2010Prop38
140
0.0
102
RTVSPost2010PropOp38
 70
     1
102
RTVSPost2010Prop39
140
1.0
102
RTVSPost2010PropOp39
 70
     1
102
RTVSPost2010Prop40
 90
        0
102
RTVSPost2010PropOp40
 70
     1
102
RTVSPost2010Prop41ColorIndex
 90
       18
102
RTVSPost2010Prop41ColorRGB
 90
        0
102
RTVSPost2010PropOp41
 70
     1
102
RTVSPost2010Prop42
 90
       50
102
RTVSPost2010PropOp42
 70
     1
102
RTVSPost2010Prop43
 90
        3
102
RTVSPost2010PropOp43
 70
     1
102
RTVSPost2010Prop44ColorIndex
 90
        5
102
RTVSPost2010Prop44ColorRGB
 90
      255
102
RTVSPost2010PropOp44
 70
     1
102
RTVSPost2010Prop45
280
     0
102
RTVSPost2010PropOp45
 70
     1
102
RTVSPost2010Prop46
 90
       50
102
RTVSPost2010PropOp46
 70
     1
102
RTVSPost2010Prop47
 90
       50
102
RTVSPost2010PropOp47
 70
     1
102
RTVSPost2010Prop48
 90
       50
102
RTVSPost2010PropOp48
 70
     1
102
RTVSPost2010Prop49
280
     0
102
RTVSPost2010PropOp49
 70
     1
102
RTVSPost2010Prop50
 90
       50
102
RTVSPost2010PropOp50
 70
     1
102
RTVSPost2010Prop51ColorIndex
 90
      256
102
RTVSPost2010Prop51ColorRGB
 90
-16777216
102
RTVSPost2010PropOp51
 70
     0
102
RTVSPost2010Prop52
140
1.0
102
RTVSPost2010PropOp52
 70
     0
102
RTVSPost2010Prop53
 90
        2
102
RTVSPost2010PropOp53
 70
     1
102
RTVSPost2010Prop54
  1
strokes_ogs.tif
102
RTVSPost2010PropOp54
 70
     1
102
RTVSPost2010Prop55
280
     0
102
RTVSPost2010PropOp55
 70
     1
102
RTVSPost2010Prop56
140
1.0
102
RTVSPost2010PropOp56
 70
     1
102
RTVSPost2010Prop57
140
1.0
102
RTVSPost2010PropOp57
 70
     1
  0
XRECORD
  5
1CA
102
{ACAD_REACTORS
330
1C9
102
}
330
1C9
100
AcDbXrecord
280
     1
102
RTVSPost2010Prop28
280
     0
102
RTVSPost2010PropOp28
 70
     1
102
RTVSPost2010Prop29
280
     1
102
RTVSPost2010PropOp29
 70
     1
102
RTVSPost2010Prop30
280
     1
102
RTVSPost2010PropOp30
 70
     1
102
RTVSPost2010Prop31
280
     0
102
RTVSPost2010PropOp31
 70
     1
102
RTVSPost2010Prop32
280
     0
102
RTVSPost2010PropOp32
 70
     1
102
RTVSPost2010Prop33
280
     0
102
RTVSPost2010PropOp33
 70
     1
102
RTVSPost2010Prop34
280
     0
102
RTVSPost2010PropOp34
 70
     1
102
RTVSPost2010Prop35
280
     0
102
RTVSPost2010PropOp35
 70
     1
102
RTVSPost2010Prop36
280
     0
102
RTVSPost2010PropOp36
 70
     1
102
RTVSPost2010Prop37
 90
       50
102
RTVSPost2010PropOp37
 70
     1
102
RTVSPost2010Prop38
140
0.0
102
RTVSPost2010PropOp38
 70
     1
102
RTVSPost2010Prop39
140
1.0
102
RTVSPost2010PropOp39
 70
     1
102
RTVSPost2010Prop40
 90
        0
102
RTVSPost2010PropOp40
 70
     1
102
RTVSPost2010Prop41ColorIndex
 90
       18
102
RTVSPost2010Prop41ColorRGB
 90
        0
102
RTVSPost2010PropOp41
 70
     1
102
RTVSPost2010Prop42
 90
       50
102
RTVSPost2010PropOp42
 70
     1
102
RTVSPost2010Prop43
 90
        3
102
RTVSPost2010PropOp43
 70
     1
102
RTVSPost2010Prop44ColorIndex
 90
        5
102
RTVSPost2010Prop44ColorRGB
 90
      255
102
RTVSPost2010PropOp44
 70
     1
102
RTVSPost2010Prop45
280
     0
102
RTVSPost2010PropOp45
 70
     1
102
RTVSPost2010Prop46
 90
       50
102
RTVSPost2010PropOp46
 70
     1
102
RTVSPost2010Prop47
 90
       50
102
RTVSPost2010PropOp47
 70
     1
102
RTVSPost2010Prop48
 90
       50
102
RTVSPost2010PropOp48
 70
     1
102
RTVSPost2010Prop49
280
     0
102
RTVSPost2010PropOp49
 70
     1
102
RTVSPost2010Prop50
 90
       50
102
RTVSPost2010PropOp50
 70
     1
102
RTVSPost2010Prop51ColorIndex
 90
      256
102
RTVSPost2010Prop51ColorRGB
 90
-16777216
102
RTVSPost2010PropOp51
 70
     0
102
RTVSPost2010Prop52
140
1.0
102
RTVSPost2010PropOp52
 70
     0
102
RTVSPost2010Prop53
 90
        2
102
RTVSPost2010PropOp53
 70
     1
102
RTVSPost2010Prop54
  1
strokes_ogs.tif
102
RTVSPost2010PropOp54
 70
     1
102
RTVSPost2010Prop55
280
     0
102
RTVSPost2010PropOp55
 70
     1
102
RTVSPost2010Prop56
140
1.0
102
RTVSPost2010PropOp56
 70
     1
102
RTVSPost2010Prop57
140
1.0
102
RTVSPost2010PropOp57
 70
     1
  0
XRECORD
  5
1CC
102
{ACAD_REACTORS
330
1CB
102
}
330
1CB
100
AcDbXrecord
280
     1
102
RTVSPost2010Prop28
280
     0
102
RTVSPost2010PropOp28
 70
     1
102
RTVSPost2010Prop29
280
     1
102
RTVSPost2010PropOp29
 70
     1
102
RTVSPost2010Prop30
280
     1
102
RTVSPost2010PropOp30
 70
     1
102
RTVSPost2010Prop31
280
     0
102
RTVSPost2010PropOp31
 70
     1
102
RTVSPost2010Prop32
280
     0
102
RTVSPost2010PropOp32
 70
     1
102
RTVSPost2010Prop33
280
     0
102
RTVSPost2010PropOp33
 70
     1
102
RTVSPost2010Prop34
280
     0
102
RTVSPost2010PropOp34
 70
     1
102
RTVSPost2010Prop35
280
     0
102
RTVSPost2010PropOp35
 70
     1
102
RTVSPost2010Prop36
280
     0
102
RTVSPost2010PropOp36
 70
     1
102
RTVSPost2010Prop37
 90
       50
102
RTVSPost2010PropOp37
 70
     1
102
RTVSPost2010Prop38
140
0.0
102
RTVSPost2010PropOp38
 70
     1
102
RTVSPost2010Prop39
140
1.0
102
RTVSPost2010PropOp39
 70
     1
102
RTVSPost2010Prop40
 90
        0
102
RTVSPost2010PropOp40
 70
     1
102
RTVSPost2010Prop41ColorIndex
 90
       18
102
RTVSPost2010Prop41ColorRGB
 90
        0
102
RTVSPost2010PropOp41
 70
     1
102
RTVSPost2010Prop42
 90
       50
102
RTVSPost2010PropOp42
 70
     1
102
RTVSPost2010Prop43
 90
        3
102
RTVSPost2010PropOp43
 70
     1
102
RTVSPost2010Prop44ColorIndex
 90
        5
102
RTVSPost2010Prop44ColorRGB
 90
      255
102
RTVSPost2010PropOp44
 70
     1
102
RTVSPost2010Prop45
280
     0
102
RTVSPost2010PropOp45
 70
     1
102
RTVSPost2010Prop46
 90
       50
102
RTVSPost2010PropOp46
 70
     1
102
RTVSPost2010Prop47
 90
       50
102
RTVSPost2010PropOp47
 70
     1
102
RTVSPost2010Prop48
 90
       50
102
RTVSPost2010PropOp48
 70
     1
102
RTVSPost2010Prop49
280
     0
102
RTVSPost2010PropOp49
 70
     1
102
RTVSPost2010Prop50
 90
       50
102
RTVSPost2010PropOp50
 70
     1
102
RTVSPost2010Prop51ColorIndex
 90
      256
102
RTVSPost2010Prop51ColorRGB
 90
-16777216
102
RTVSPost2010PropOp51
 70
     0
102
RTVSPost2010Prop52
140
1.0
102
RTVSPost2010PropOp52
 70
     0
102
RTVSPost2010Prop53
 90
        2
102
RTVSPost2010PropOp53
 70
     1
102
RTVSPost2010Prop54
  1
strokes_ogs.tif
102
RTVSPost2010PropOp54
 70
     1
102
RTVSPost2010Prop55
280
     0
102
RTVSPost2010PropOp55
 70
     1
102
RTVSPost2010Prop56
140
1.0
102
RTVSPost2010PropOp56
 70
     1
102
RTVSPost2010Prop57
140
1.0
102
RTVSPost2010PropOp57
 70
     1
  0
XRECORD
  5
1C2
102
{ACAD_REACTORS
330
1C1
102
}
330
1C1
100
AcDbXrecord
280
     1
102
RTVSPost2010Prop28
280
     0
102
RTVSPost2010PropOp28
 70
     1
102
RTVSPost2010Prop29
280
     1
102
RTVSPost2010PropOp29
 70
     1
102
RTVSPost2010Prop30
280
     1
102
RTVSPost2010PropOp30
 70
     1
102
RTVSPost2010Prop31
280
     0
102
RTVSPost2010PropOp31
 70
     1
102
RTVSPost2010Prop32
280
     0
102
RTVSPost2010PropOp32
 70
     1
102
RTVSPost2010Prop33
280
     0
102
RTVSPost2010PropOp33
 70
     1
102
RTVSPost2010Prop34
280
     0
102
RTVSPost2010PropOp34
 70
     1
102
RTVSPost2010Prop35
280
     0
102
RTVSPost2010PropOp35
 70
     1
102
RTVSPost2010Prop36
280
     0
102
RTVSPost2010PropOp36
 70
     1
102
RTVSPost2010Prop37
 90
       50
102
RTVSPost2010PropOp37
 70
     1
102
RTVSPost2010Prop38
140
0.0
102
RTVSPost2010PropOp38
 70
     1
102
RTVSPost2010Prop39
140
1.0
102
RTVSPost2010PropOp39
 70
     1
102
RTVSPost2010Prop40
 90
        0
102
RTVSPost2010PropOp40
 70
     1
102
RTVSPost2010Prop41ColorIndex
 90
       18
102
RTVSPost2010Prop41ColorRGB
 90
        0
102
RTVSPost2010PropOp41
 70
     1
102
RTVSPost2010Prop42
 90
       50
102
RTVSPost2010PropOp42
 70
     1
102
RTVSPost2010Prop43
 90
        3
102
RTVSPost2010PropOp43
 70
     1
102
RTVSPost2010Prop44ColorIndex
 90
        5
102
RTVSPost2010Prop44ColorRGB
 90
      255
102
RTVSPost2010PropOp44
 70
     1
102
RTVSPost2010Prop45
280
     0
102
RTVSPost2010PropOp45
 70
     1
102
RTVSPost2010Prop46
 90
       50
102
RTVSPost2010PropOp46
 70
     1
102
RTVSPost2010Prop47
 90
       50
102
RTVSPost2010PropOp47
 70
     1
102
RTVSPost2010Prop48
 90
       50
102
RTVSPost2010PropOp48
 70
     1
102
RTVSPost2010Prop49
280
     0
102
RTVSPost2010PropOp49
 70
     1
102
RTVSPost2010Prop50
 90
       50
102
RTVSPost2010PropOp50
 70
     1
102
RTVSPost2010Prop51ColorIndex
 90
      256
102
RTVSPost2010Prop51ColorRGB
 90
-16777216
102
RTVSPost2010PropOp51
 70
     0
102
RTVSPost2010Prop52
140
1.0
102
RTVSPost2010PropOp52
 70
     0
102
RTVSPost2010Prop53
 90
        2
102
RTVSPost2010PropOp53
 70
     1
102
RTVSPost2010Prop54
  1
strokes_ogs.tif
102
RTVSPost2010PropOp54
 70
     1
102
RTVSPost2010Prop55
280
     0
102
RTVSPost2010PropOp55
 70
     1
102
RTVSPost2010Prop56
140
1.0
102
RTVSPost2010PropOp56
 70
     1
102
RTVSPost2010Prop57
140
1.0
102
RTVSPost2010PropOp57
 70
     1
  0
XRECORD
  5
1B6
102
{ACAD_REACTORS
330
1B5
102
}
330
1B5
100
AcDbXrecord
280
     1
102
RTVSPost2010Prop28
280
     0
102
RTVSPost2010PropOp28
 70
     1
102
RTVSPost2010Prop29
280
     1
102
RTVSPost2010PropOp29
 70
     1
102
RTVSPost2010Prop30
280
     1
102
RTVSPost2010PropOp30
 70
     1
102
RTVSPost2010Prop31
280
     0
102
RTVSPost2010PropOp31
 70
     1
102
RTVSPost2010Prop32
280
     0
102
RTVSPost2010PropOp32
 70
     1
102
RTVSPost2010Prop33
280
     0
102
RTVSPost2010PropOp33
 70
     1
102
RTVSPost2010Prop34
280
     0
102
RTVSPost2010PropOp34
 70
     1
102
RTVSPost2010Prop35
280
     0
102
RTVSPost2010PropOp35
 70
     1
102
RTVSPost2010Prop36
280
     0
102
RTVSPost2010PropOp36
 70
     1
102
RTVSPost2010Prop37
 90
       50
102
RTVSPost2010PropOp37
 70
     1
102
RTVSPost2010Prop38
140
0.0
102
RTVSPost2010PropOp38
 70
     1
102
RTVSPost2010Prop39
140
1.0
102
RTVSPost2010PropOp39
 70
     1
102
RTVSPost2010Prop40
 90
        0
102
RTVSPost2010PropOp40
 70
     1
102
RTVSPost2010Prop41ColorIndex
 90
       18
102
RTVSPost2010Prop41ColorRGB
 90
        0
102
RTVSPost2010PropOp41
 70
     1
102
RTVSPost2010Prop42
 90
       50
102
RTVSPost2010PropOp42
 70
     1
102
RTVSPost2010Prop43
 90
        3
102
RTVSPost2010PropOp43
 70
     1
102
RTVSPost2010Prop44ColorIndex
 90
        5
102
RTVSPost2010Prop44ColorRGB
 90
      255
102
RTVSPost2010PropOp44
 70
     1
102
RTVSPost2010Prop45
280
     0
102
RTVSPost2010PropOp45
 70
     1
102
RTVSPost2010Prop46
 90
       50
102
RTVSPost2010PropOp46
 70
     1
102
RTVSPost2010Prop47
 90
       50
102
RTVSPost2010PropOp47
 70
     1
102
RTVSPost2010Prop48
 90
       50
102
RTVSPost2010PropOp48
 70
     1
102
RTVSPost2010Prop49
280
     0
102
RTVSPost2010PropOp49
 70
     1
102
RTVSPost2010Prop50
 90
       50
102
RTVSPost2010PropOp50
 70
     1
102
RTVSPost2010Prop51ColorIndex
 90
      256
102
RTVSPost2010Prop51ColorRGB
 90
-16777216
102
RTVSPost2010PropOp51
 70
     0
102
RTVSPost2010Prop52
140
1.0
102
RTVSPost2010PropOp52
 70
     0
102
RTVSPost2010Prop53
 90
        2
102
RTVSPost2010PropOp53
 70
     1
102
RTVSPost2010Prop54
  1
strokes_ogs.tif
102
RTVSPost2010PropOp54
 70
     1
102
RTVSPost2010Prop55
280
     0
102
RTVSPost2010PropOp55
 70
     1
102
RTVSPost2010Prop56
140
1.0
102
RTVSPost2010PropOp56
 70
     1
102
RTVSPost2010Prop57
140
1.0
102
RTVSPost2010PropOp57
 70
     1
  0
XRECORD
  5
1CE
102
{ACAD_REACTORS
330
1CD
102
}
330
1CD
100
AcDbXrecord
280
     1
102
RTVSPost2010Prop28
280
     0
102
RTVSPost2010PropOp28
 70
     1
102
RTVSPost2010Prop29
280
     1
102
RTVSPost2010PropOp29
 70
     1
102
RTVSPost2010Prop30
280
     1
102
RTVSPost2010PropOp30
 70
     1
102
RTVSPost2010Prop31
280
     0
102
RTVSPost2010PropOp31
 70
     1
102
RTVSPost2010Prop32
280
     0
102
RTVSPost2010PropOp32
 70
     1
102
RTVSPost2010Prop33
280
     0
102
RTVSPost2010PropOp33
 70
     1
102
RTVSPost2010Prop34
280
     0
102
RTVSPost2010PropOp34
 70
     1
102
RTVSPost2010Prop35
280
     0
102
RTVSPost2010PropOp35
 70
     1
102
RTVSPost2010Prop36
280
     0
102
RTVSPost2010PropOp36
 70
     1
102
RTVSPost2010Prop37
 90
       50
102
RTVSPost2010PropOp37
 70
     1
102
RTVSPost2010Prop38
140
0.0
102
RTVSPost2010PropOp38
 70
     1
102
RTVSPost2010Prop39
140
1.0
102
RTVSPost2010PropOp39
 70
     1
102
RTVSPost2010Prop40
 90
        0
102
RTVSPost2010PropOp40
 70
     1
102
RTVSPost2010Prop41ColorIndex
 90
       18
102
RTVSPost2010Prop41ColorRGB
 90
        0
102
RTVSPost2010PropOp41
 70
     1
102
RTVSPost2010Prop42
 90
       50
102
RTVSPost2010PropOp42
 70
     1
102
RTVSPost2010Prop43
 90
        3
102
RTVSPost2010PropOp43
 70
     1
102
RTVSPost2010Prop44ColorIndex
 90
        5
102
RTVSPost2010Prop44ColorRGB
 90
      255
102
RTVSPost2010PropOp44
 70
     1
102
RTVSPost2010Prop45
280
     0
102
RTVSPost2010PropOp45
 70
     1
102
RTVSPost2010Prop46
 90
       50
102
RTVSPost2010PropOp46
 70
     1
102
RTVSPost2010Prop47
 90
       50
102
RTVSPost2010PropOp47
 70
     1
102
RTVSPost2010Prop48
 90
       50
102
RTVSPost2010PropOp48
 70
     1
102
RTVSPost2010Prop49
280
     0
102
RTVSPost2010PropOp49
 70
     1
102
RTVSPost2010Prop50
 90
       50
102
RTVSPost2010PropOp50
 70
     1
102
RTVSPost2010Prop51ColorIndex
 90
      256
102
RTVSPost2010Prop51ColorRGB
 90
-16777216
102
RTVSPost2010PropOp51
 70
     0
102
RTVSPost2010Prop52
140
1.0
102
RTVSPost2010PropOp52
 70
     0
102
RTVSPost2010Prop53
 90
        2
102
RTVSPost2010PropOp53
 70
     1
102
RTVSPost2010Prop54
  1
strokes_ogs.tif
102
RTVSPost2010PropOp54
 70
     1
102
RTVSPost2010Prop55
280
     0
102
RTVSPost2010PropOp55
 70
     1
102
RTVSPost2010Prop56
140
1.0
102
RTVSPost2010PropOp56
 70
     1
102
RTVSPost2010Prop57
140
1.0
102
RTVSPost2010PropOp57
 70
     1
  0
ENDSEC
  0
EOF
