  0
SECTION
  2
HEADER
  9
$ACADVER
  1
AC1024
  9
$ACADMAINTVER
 70
   226
  9
$DWGCODEPAGE
  3
ANSI_932
  9
$INSBASE
 10
0.0
 20
0.0
 30
0.0
  9
$EXTMIN
 10
1.000000000000000E+20
 20
1.000000000000000E+20
 30
1.000000000000000E+20
  9
$EXTMAX
 10
-1.000000000000000E+20
 20
-1.000000000000000E+20
 30
-1.000000000000000E+20
  9
$LIMMIN
 10
0.0
 20
0.0
  9
$LIMMAX
 10
12.0
 20
9.0
  9
$ORTHOMODE
 70
     0
  9
$REGENMODE
 70
     1
  9
$FILLMODE
 70
     1
  9
$QTEXTMODE
 70
     0
  9
$MIRRTEXT
 70
     0
  9
$LTSCALE
 40
1.0
  9
$ATTMODE
 70
     1
  9
$TEXTSIZE
 40
0.2
  9
$TRACEWID
 40
0.05
  9
$TEXTSTYLE
  7
Standard
  9
$CLAYER
  8
0
  9
$CELTYPE
  6
ByLayer
  9
$CECOLOR
 62
   256
  9
$CELTSCALE
 40
1.0
  9
$DISPSILH
 70
     0
  9
$DIMSCALE
 40
1.0
  9
$DIMASZ
 40
0.18
  9
$DIMEXO
 40
0.0625
  9
$DIMDLI
 40
0.38
  9
$DIMRND
 40
0.0
  9
$DIMDLE
 40
0.0
  9
$DIMEXE
 40
0.18
  9
$DIMTP
 40
0.0
  9
$DIMTM
 40
0.0
  9
$DIMTXT
 40
0.18
  9
$DIMCEN
 40
0.09
  9
$DIMTSZ
 40
0.0
  9
$DIMTOL
 70
     0
  9
$DIMLIM
 70
     0
  9
$DIMTIH
 70
     1
  9
$DIMTOH
 70
     1
  9
$DIMSE1
 70
     0
  9
$DIMSE2
 70
     0
  9
$DIMTAD
 70
     0
  9
$DIMZIN
 70
     0
  9
$DIMBLK
  1

  9
$DIMASO
 70
     1
  9
$DIMSHO
 70
     1
  9
$DIMPOST
  1

  9
$DIMAPOST
  1

  9
$DIMALT
 70
     0
  9
$DIMALTD
 70
     2
  9
$DIMALTF
 40
25.4
  9
$DIMLFAC
 40
1.0
  9
$DIMTOFL
 70
     0
  9
$DIMTVP
 40
0.0
  9
$DIMTIX
 70
     0
  9
$DIMSOXD
 70
     0
  9
$DIMSAH
 70
     0
  9
$DIMBLK1
  1

  9
$DIMBLK2
  1

  9
$DIMSTYLE
  2
Standard
  9
$DIMCLRD
 70
     0
  9
$DIMCLRE
 70
     0
  9
$DIMCLRT
 70
     0
  9
$DIMTFAC
 40
1.0
  9
$DIMGAP
 40
0.09
  9
$DIMJUST
 70
     0
  9
$DIMSD1
 70
     0
  9
$DIMSD2
 70
     0
  9
$DIMTOLJ
 70
     1
  9
$DIMTZIN
 70
     0
  9
$DIMALTZ
 70
     0
  9
$DIMALTTZ
 70
     0
  9
$DIMUPT
 70
     0
  9
$DIMDEC
 70
     4
  9
$DIMTDEC
 70
     4
  9
$DIMALTU
 70
     2
  9
$DIMALTTD
 70
     2
  9
$DIMTXSTY
  7
Standard
  9
$DIMAUNIT
 70
     0
  9
$DIMADEC
 70
     0
  9
$DIMALTRND
 40
0.0
  9
$DIMAZIN
 70
     0
  9
$DIMDSEP
 70
    46
  9
$DIMATFIT
 70
     3
  9
$DIMFRAC
 70
     0
  9
$DIMLDRBLK
  1

  9
$DIMLUNIT
 70
     2
  9
$DIMLWD
 70
    -2
  9
$DIMLWE
 70
    -2
  9
$DIMTMOVE
 70
     0
  9
$DIMFXL
 40
1.0
  9
$DIMFXLON
 70
     0
  9
$DIMJOGANG
 40
0.7853981633974483
  9
$DIMTFILL
 70
     0
  9
$DIMTFILLCLR
 70
     0
  9
$DIMARCSYM
 70
     0
  9
$DIMLTYPE
  6

  9
$DIMLTEX1
  6

  9
$DIMLTEX2
  6

  9
$DIMTXTDIRECTION
 70
     0
  9
$LUNITS
 70
     2
  9
$LUPREC
 70
     4
  9
$SKETCHINC
 40
0.1
  9
$FILLETRAD
 40
0.0
  9
$AUNITS
 70
     0
  9
$AUPREC
 70
     0
  9
$MENU
  1
.
  9
$ELEVATION
 40
0.0
  9
$PELEVATION
 40
0.0
  9
$THICKNESS
 40
0.0
  9
$LIMCHECK
 70
     0
  9
$CHAMFERA
 40
0.0
  9
$CHAMFERB
 40
0.0
  9
$CHAMFERC
 40
0.0
  9
$CHAMFERD
 40
0.0
  9
$SKPOLY
 70
     0
  9
$TDCREATE
 40
2459569.488715278
  9
$TDUCREATE
 40
2459569.113715278
  9
$TDUPDATE
 40
2459569.488715278
  9
$TDUUPDATE
 40
2459569.113715278
  9
$TDINDWG
 40
0.0000000000
  9
$TDUSRTIMER
 40
0.0000000000
  9
$USRTIMER
 70
     1
  9
$ANGBASE
 50
0.0
  9
$ANGDIR
 70
     0
  9
$PDMODE
 70
     0
  9
$PDSIZE
 40
0.0
  9
$PLINEWID
 40
0.0
  9
$SPLFRAME
 70
     0
  9
$SPLINETYPE
 70
     6
  9
$SPLINESEGS
 70
     8
  9
$HANDSEED
  5
199
  9
$SURFTAB1
 70
     6
  9
$SURFTAB2
 70
     6
  9
$SURFTYPE
 70
     6
  9
$SURFU
 70
     6
  9
$SURFV
 70
     6
  9
$UCSBASE
  2

  9
$UCSNAME
  2

  9
$UCSORG
 10
0.0
 20
0.0
 30
0.0
  9
$UCSXDIR
 10
1.0
 20
0.0
 30
0.0
  9
$UCSYDIR
 10
0.0
 20
1.0
 30
0.0
  9
$UCSORTHOREF
  2

  9
$UCSORTHOVIEW
 70
     0
  9
$UCSORGTOP
 10
0.0
 20
0.0
 30
0.0
  9
$UCSORGBOTTOM
 10
0.0
 20
0.0
 30
0.0
  9
$UCSORGLEFT
 10
0.0
 20
0.0
 30
0.0
  9
$UCSORGRIGHT
 10
0.0
 20
0.0
 30
0.0
  9
$UCSORGFRONT
 10
0.0
 20
0.0
 30
0.0
  9
$UCSORGBACK
 10
0.0
 20
0.0
 30
0.0
  9
$PUCSBASE
  2

  9
$PUCSNAME
  2

  9
$PUCSORG
 10
0.0
 20
0.0
 30
0.0
  9
$PUCSXDIR
 10
1.0
 20
0.0
 30
0.0
  9
$PUCSYDIR
 10
0.0
 20
1.0
 30
0.0
  9
$PUCSORTHOREF
  2

  9
$PUCSORTHOVIEW
 70
     0
  9
$PUCSORGTOP
 10
0.0
 20
0.0
 30
0.0
  9
$PUCSORGBOTTOM
 10
0.0
 20
0.0
 30
0.0
  9
$PUCSORGLEFT
 10
0.0
 20
0.0
 30
0.0
  9
$PUCSORGRIGHT
 10
0.0
 20
0.0
 30
0.0
  9
$PUCSORGFRONT
 10
0.0
 20
0.0
 30
0.0
  9
$PUCSORGBACK
 10
0.0
 20
0.0
 30
0.0
  9
$USERI1
 70
     0
  9
$USERI2
 70
     0
  9
$USERI3
 70
     0
  9
$USERI4
 70
     0
  9
$USERI5
 70
     0
  9
$USERR1
 40
0.0
  9
$USERR2
 40
0.0
  9
$USERR3
 40
0.0
  9
$USERR4
 40
0.0
  9
$USERR5
 40
0.0
  9
$WORLDVIEW
 70
     1
  9
$SHADEDGE
 70
     3
  9
$SHADEDIF
 70
    70
  9
$TILEMODE
 70
     1
  9
$MAXACTVP
 70
    64
  9
$PINSBASE
 10
0.0
 20
0.0
 30
0.0
  9
$PLIMCHECK
 70
     0
  9
$PEXTMIN
 10
1.000000000000000E+20
 20
1.000000000000000E+20
 30
1.000000000000000E+20
  9
$PEXTMAX
 10
-1.000000000000000E+20
 20
-1.000000000000000E+20
 30
-1.000000000000000E+20
  9
$PLIMMIN
 10
0.0
 20
0.0
  9
$PLIMMAX
 10
12.0
 20
9.0
  9
$UNITMODE
 70
     0
  9
$VISRETAIN
 70
     1
  9
$PLINEGEN
 70
     0
  9
$PSLTSCALE
 70
     1
  9
$TREEDEPTH
 70
  3020
  9
$CMLSTYLE
  2
Standard
  9
$CMLJUST
 70
     0
  9
$CMLSCALE
 40
1.0
  9
$PROXYGRAPHICS
 70
     1
  9
$MEASUREMENT
 70
     0
  9
$CELWEIGHT
370
    -1
  9
$ENDCAPS
280
     0
  9
$JOINSTYLE
280
     0
  9
$LWDISPLAY
290
     1
  9
$INSUNITS
 70
     4
  9
$HYPERLINKBASE
  1

  9
$STYLESHEET
  1

  9
$XEDIT
290
     1
  9
$CEPSNTYPE
380
     0
  9
$PSTYLEMODE
290
     1
  9
$FINGERPRINTGUID
  2
{3C68637E-DE6D-244A-B8F2-231BC57C9E73}
  9
$VERSIONGUID
  2
{BD0070DC-A026-4948-9A33-C229F6304E5C}
  9
$EXTNAMES
290
     1
  9
$PSVPSCALE
 40
0.0
  9
$OLESTARTUP
290
     0
  9
$SORTENTS
280
   127
  9
$INDEXCTL
280
     0
  9
$HIDETEXT
280
     1
  9
$XCLIPFRAME
280
     2
  9
$HALOGAP
280
     0
  9
$OBSCOLOR
 70
   257
  9
$OBSLTYPE
280
     0
  9
$INTERSECTIONDISPLAY
280
     0
  9
$INTERSECTIONCOLOR
 70
   257
  9
$DIMASSOC
280
     2
  9
$PROJECTNAME
  1

  9
$CAMERADISPLAY
290
     0
  9
$LENSLENGTH
 40
50.0
  9
$CAMERAHEIGHT
 40
0.0
  9
$STEPSPERSEC
 40
2.0
  9
$STEPSIZE
 40
6.0
  9
$3DDWFPREC
 40
2.0
  9
$PSOLWIDTH
 40
0.25
  9
$PSOLHEIGHT
 40
4.0
  9
$LOFTANG1
 40
1.570796326794896
  9
$LOFTANG2
 40
1.570796326794896
  9
$LOFTMAG1
 40
0.0
  9
$LOFTMAG2
 40
0.0
  9
$LOFTPARAM
 70
     7
  9
$LOFTNORMALS
280
     1
  9
$LATITUDE
 40
37.795
  9
$LONGITUDE
 40
-122.394
  9
$NORTHDIRECTION
 40
0.0
  9
$TIMEZONE
 70
 -8000
  9
$LIGHTGLYPHDISPLAY
280
     1
  9
$TILEMODELIGHTSYNCH
280
     1
  9
$CMATERIAL
347
11
  9
$SOLIDHIST
280
     0
  9
$SHOWHIST
280
     1
  9
$DWFFRAME
280
     2
  9
$DGNFRAME
280
     0
  9
$REALWORLDSCALE
290
     1
  9
$INTERFERECOLOR
 62
     1
  9
$INTERFEREOBJVS
345
33
  9
$INTERFEREVPVS
346
30
  9
$CSHADOW
280
     0
  9
$SHADOWPLANELOCATION
 40
0.0
  0
ENDSEC
  0
SECTION
  2
CLASSES
  0
CLASS
  1
ACDBDICTIONARYWDFLT
  2
AcDbDictionaryWithDefault
  3
ObjectDBX Classes
 90
        0
 91
        1
280
     0
281
     0
  0
CLASS
  1
MATERIAL
  2
AcDbMaterial
  3
ObjectDBX Classes
 90
     1153
 91
        3
280
     0
281
     0
  0
CLASS
  1
VISUALSTYLE
  2
AcDbVisualStyle
  3
ObjectDBX Classes
 90
     4095
 91
       24
280
     0
281
     0
  0
CLASS
  1
SCALE
  2
AcDbScale
  3
ObjectDBX Classes
 90
     1153
 91
       17
280
     0
281
     0
  0
CLASS
  1
TABLESTYLE
  2
AcDbTableStyle
  3
ObjectDBX Classes
 90
     4095
 91
        1
280
     0
281
     0
  0
CLASS
  1
MLEADERSTYLE
  2
AcDbMLeaderStyle
  3
ACDB_MLEADERSTYLE_CLASS
 90
     4095
 91
        1
280
     0
281
     0
  0
CLASS
  1
ACDBSECTIONVIEWSTYLE
  2
AcDbSectionViewStyle
  3
ObjectDBX Classes
 90
     1025
 91
        1
280
     0
281
     0
  0
CLASS
  1
ACDBDETAILVIEWSTYLE
  2
AcDbDetailViewStyle
  3
ObjectDBX Classes
 90
     1025
 91
        1
280
     0
281
     0
  0
CLASS
  1
DICTIONARYVAR
  2
AcDbDictionaryVar
  3
ObjectDBX Classes
 90
        0
 91
        5
280
     0
281
     0
  0
CLASS
  1
CELLSTYLEMAP
  2
AcDbCellStyleMap
  3
ObjectDBX Classes
 90
     1152
 91
        1
280
     0
281
     0
  0
ENDSEC
  0
SECTION
  2
TABLES
  0
TABLE
  2
VPORT
  5
8
330
0
100
AcDbSymbolTable
 70
     1
  0
VPORT
  5
57
330
8
100
AcDbSymbolTableRecord
100
AcDbViewportTableRecord
  2
*Active
 70
     0
 10
0.0
 20
0.0
 11
1.0
 21
1.0
 12
0.0
 22
0.0
 13
0.0
 23
0.0
 14
1.0
 24
1.0
 15
0.0
 25
0.0
 16
0.0
 26
0.0
 36
1.0
 17
104.9999999737534
 27
-148.4999999628701
 37
0.0
 40
302.939999924255
 41
0.7070707070707534
 42
50.0
 43
0.0
 44
0.0
 50
0.0
 51
0.0
 71
     0
 72
   100
 73
     1
 74
     0
 75
     1
 76
     0
 77
     0
 78
     0
281
     0
 65
     1
110
0.0
120
0.0
130
0.0
111
1.0
121
0.0
131
0.0
112
0.0
122
1.0
132
0.0
 79
     0
146
0.0
 60
     3
 61
     5
292
     1
282
     1
141
0.0
142
0.0
 63
   250
421
  3355443
  0
ENDTAB
  0
TABLE
  2
LTYPE
  5
5
330
0
100
AcDbSymbolTable
 70
     1
  0
LTYPE
  5
5B
330
5
100
AcDbSymbolTableRecord
100
AcDbLinetypeTableRecord
  2
ByBlock
 70
     0
  3

 72
    65
 73
     0
 40
0.0
  0
LTYPE
  5
5C
330
5
100
AcDbSymbolTableRecord
100
AcDbLinetypeTableRecord
  2
ByLayer
 70
     0
  3

 72
    65
 73
     0
 40
0.0
  0
LTYPE
  5
5D
330
5
100
AcDbSymbolTableRecord
100
AcDbLinetypeTableRecord
  2
Continuous
 70
     0
  3
Solid line
 72
    65
 73
     0
 40
0.0
  0
ENDTAB
  0
TABLE
  2
LAYER
  5
2
330
0
100
AcDbSymbolTable
 70
     2
  0
LAYER
  5
54
330
2
100
AcDbSymbolTableRecord
100
AcDbLayerTableRecord
  2
0
 70
     0
 62
     7
  6
Continuous
370
    -3
390
F
347
21
  0
LAYER
  5
78
330
2
100
AcDbSymbolTableRecord
100
AcDbLayerTableRecord
  2
レイヤー 1
 70
     0
 62
     7
  6
Continuous
370
     0
390
F
347
21
  0
ENDTAB
  0
TABLE
  2
STYLE
  5
3
330
0
100
AcDbSymbolTable
 70
     2
  0
STYLE
  5
55
330
3
100
AcDbSymbolTableRecord
100
AcDbTextStyleTableRecord
  2
Standard
 70
     0
 40
0.0
 41
1.0
 50
0.0
 71
     0
 42
0.2
  3
txt
  4

  0
STYLE
  5
5A
330
3
100
AcDbSymbolTableRecord
100
AcDbTextStyleTableRecord
  2
Annotative
 70
     0
 40
0.0
 41
1.0
 50
0.0
 71
     0
 42
0.2
  3
txt
  4

1001
AcadAnnotative
1000
AnnotativeData
1002
{
1070
     1
1070
     1
1002
}
  0
ENDTAB
  0
TABLE
  2
VIEW
  5
6
330
0
100
AcDbSymbolTable
 70
     0
  0
ENDTAB
  0
TABLE
  2
UCS
  5
7
330
0
100
AcDbSymbolTable
 70
     0
  0
ENDTAB
  0
TABLE
  2
APPID
  5
9
330
0
100
AcDbSymbolTable
 70
     2
  0
APPID
  5
56
330
9
100
AcDbSymbolTableRecord
100
AcDbRegAppTableRecord
  2
ACAD
 70
     0
  0
APPID
  5
5E
330
9
100
AcDbSymbolTableRecord
100
AcDbRegAppTableRecord
  2
AcadAnnotative
 70
     0
  0
ENDTAB
  0
TABLE
  2
DIMSTYLE
  5
A
330
0
100
AcDbSymbolTable
 70
     2
100
AcDbDimStyleTable
 71
     0
  0
DIMSTYLE
105
58
330
A
100
AcDbSymbolTableRecord
100
AcDbDimStyleTableRecord
  2
Standard
 70
     0
340
55
  0
DIMSTYLE
105
59
330
A
100
AcDbSymbolTableRecord
100
AcDbDimStyleTableRecord
  2
Annotative
 70
     0
340
55
1001
AcadAnnotative
1000
AnnotativeData
1002
{
1070
     1
1070
     1
1002
}
  0
ENDTAB
  0
TABLE
  2
BLOCK_RECORD
  5
1
330
0
100
AcDbSymbolTable
 70
    30
  0
BLOCK_RECORD
  5
70
330
1
100
AcDbSymbolTableRecord
100
AcDbBlockTableRecord
  2
*Model_Space
340
73
 70
     0
280
     1
281
     0
  0
BLOCK_RECORD
  5
6C
330
1
100
AcDbSymbolTableRecord
100
AcDbBlockTableRecord
  2
*Paper_Space
340
6F
 70
     0
280
     1
281
     0
  0
BLOCK_RECORD
  5
74
330
1
100
AcDbSymbolTableRecord
100
AcDbBlockTableRecord
  2
*Paper_Space0
340
77
 70
     0
280
     1
281
     0
  0
BLOCK_RECORD
  5
79
330
1
100
AcDbSymbolTableRecord
100
AcDbBlockTableRecord
  2
Block_0
340
0
102
{BLKREFS
331
7A
102
}
 70
     0
280
     1
281
     0
  0
BLOCK_RECORD
  5
93
330
1
100
AcDbSymbolTableRecord
100
AcDbBlockTableRecord
  2
Block_1
340
0
102
{BLKREFS
331
94
102
}
 70
     0
280
     1
281
     0
  0
BLOCK_RECORD
  5
97
330
1
100
AcDbSymbolTableRecord
100
AcDbBlockTableRecord
  2
Block_2
340
0
102
{BLKREFS
331
98
102
}
 70
     0
280
     1
281
     0
  0
BLOCK_RECORD
  5
A9
330
1
100
AcDbSymbolTableRecord
100
AcDbBlockTableRecord
  2
Block_3
340
0
102
{BLKREFS
331
AA
102
}
 70
     0
280
     1
281
     0
  0
BLOCK_RECORD
  5
B0
330
1
100
AcDbSymbolTableRecord
100
AcDbBlockTableRecord
  2
Block_4
340
0
102
{BLKREFS
331
B1
102
}
 70
     0
280
     1
281
     0
  0
BLOCK_RECORD
  5
B4
330
1
100
AcDbSymbolTableRecord
100
AcDbBlockTableRecord
  2
Block_5
340
0
102
{BLKREFS
331
B5
102
}
 70
     0
280
     1
281
     0
  0
BLOCK_RECORD
  5
BD
330
1
100
AcDbSymbolTableRecord
100
AcDbBlockTableRecord
  2
Block_6
340
0
102
{BLKREFS
331
BE
102
}
 70
     0
280
     1
281
     0
  0
BLOCK_RECORD
  5
C3
330
1
100
AcDbSymbolTableRecord
100
AcDbBlockTableRecord
  2
Block_7
340
0
102
{BLKREFS
331
C4
102
}
 70
     0
280
     1
281
     0
  0
BLOCK_RECORD
  5
C7
330
1
100
AcDbSymbolTableRecord
100
AcDbBlockTableRecord
  2
Block_8
340
0
102
{BLKREFS
331
C8
102
}
 70
     0
280
     1
281
     0
  0
BLOCK_RECORD
  5
D1
330
1
100
AcDbSymbolTableRecord
100
AcDbBlockTableRecord
  2
Block_9
340
0
102
{BLKREFS
331
D2
102
}
 70
     0
280
     1
281
     0
  0
BLOCK_RECORD
  5
D7
330
1
100
AcDbSymbolTableRecord
100
AcDbBlockTableRecord
  2
Block_10
340
0
102
{BLKREFS
331
D8
102
}
 70
     0
280
     1
281
     0
  0
BLOCK_RECORD
  5
DB
330
1
100
AcDbSymbolTableRecord
100
AcDbBlockTableRecord
  2
Block_11
340
0
102
{BLKREFS
331
DC
102
}
 70
     0
280
     1
281
     0
  0
BLOCK_RECORD
  5
E4
330
1
100
AcDbSymbolTableRecord
100
AcDbBlockTableRecord
  2
Block_12
340
0
102
{BLKREFS
331
E5
102
}
 70
     0
280
     1
281
     0
  0
BLOCK_RECORD
  5
EC
330
1
100
AcDbSymbolTableRecord
100
AcDbBlockTableRecord
  2
Block_13
340
0
102
{BLKREFS
331
ED
102
}
 70
     0
280
     1
281
     0
  0
BLOCK_RECORD
  5
F0
330
1
100
AcDbSymbolTableRecord
100
AcDbBlockTableRecord
  2
Block_14
340
0
102
{BLKREFS
331
F1
102
}
 70
     0
280
     1
281
     0
  0
BLOCK_RECORD
  5
FB
330
1
100
AcDbSymbolTableRecord
100
AcDbBlockTableRecord
  2
Block_15
340
0
102
{BLKREFS
331
FC
102
}
 70
     0
280
     1
281
     0
  0
BLOCK_RECORD
  5
102
330
1
100
AcDbSymbolTableRecord
100
AcDbBlockTableRecord
  2
Block_16
340
0
102
{BLKREFS
331
103
102
}
 70
     0
280
     1
281
     0
  0
BLOCK_RECORD
  5
106
330
1
100
AcDbSymbolTableRecord
100
AcDbBlockTableRecord
  2
Block_17
340
0
102
{BLKREFS
331
107
102
}
 70
     0
280
     1
281
     0
  0
BLOCK_RECORD
  5
10F
330
1
100
AcDbSymbolTableRecord
100
AcDbBlockTableRecord
  2
Block_18
340
0
102
{BLKREFS
331
110
102
}
 70
     0
280
     1
281
     0
  0
BLOCK_RECORD
  5
115
330
1
100
AcDbSymbolTableRecord
100
AcDbBlockTableRecord
  2
Block_19
340
0
102
{BLKREFS
331
116
102
}
 70
     0
280
     1
281
     0
  0
BLOCK_RECORD
  5
11D
330
1
100
AcDbSymbolTableRecord
100
AcDbBlockTableRecord
  2
Block_20
340
0
102
{BLKREFS
331
11E
102
}
 70
     0
280
     1
281
     0
  0
BLOCK_RECORD
  5
123
330
1
100
AcDbSymbolTableRecord
100
AcDbBlockTableRecord
  2
Block_21
340
0
102
{BLKREFS
331
124
102
}
 70
     0
280
     1
281
     0
  0
BLOCK_RECORD
  5
12B
330
1
100
AcDbSymbolTableRecord
100
AcDbBlockTableRecord
  2
Block_22
340
0
102
{BLKREFS
331
12C
102
}
 70
     0
280
     1
281
     0
  0
BLOCK_RECORD
  5
132
330
1
100
AcDbSymbolTableRecord
100
AcDbBlockTableRecord
  2
Block_23
340
0
102
{BLKREFS
331
133
102
}
 70
     0
280
     1
281
     0
  0
BLOCK_RECORD
  5
139
330
1
100
AcDbSymbolTableRecord
100
AcDbBlockTableRecord
  2
Block_24
340
0
102
{BLKREFS
331
13A
102
}
 70
     0
280
     1
281
     0
  0
BLOCK_RECORD
  5
140
330
1
100
AcDbSymbolTableRecord
100
AcDbBlockTableRecord
  2
Block_25
340
0
102
{BLKREFS
331
141
102
}
 70
     0
280
     1
281
     0
  0
BLOCK_RECORD
  5
147
330
1
100
AcDbSymbolTableRecord
100
AcDbBlockTableRecord
  2
Block_26
340
0
102
{BLKREFS
331
148
102
}
 70
     0
280
     1
281
     0
  0
BLOCK_RECORD
  5
14D
330
1
100
AcDbSymbolTableRecord
100
AcDbBlockTableRecord
  2
Block_27
340
0
102
{BLKREFS
331
14E
102
}
 70
     0
280
     1
281
     0
  0
BLOCK_RECORD
  5
151
330
1
100
AcDbSymbolTableRecord
100
AcDbBlockTableRecord
  2
Block_28
340
0
102
{BLKREFS
331
152
102
}
 70
     0
280
     1
281
     0
  0
ENDTAB
  0
ENDSEC
  0
SECTION
  2
BLOCKS
  0
BLOCK
  5
71
330
70
100
AcDbEntity
  8
0
100
AcDbBlockBegin
  2
*Model_Space
 70
     0
 10
0.0
 20
0.0
 30
0.0
  3
*Model_Space
  1

  0
ENDBLK
  5
72
330
70
100
AcDbEntity
  8
0
100
AcDbBlockEnd
  0
BLOCK
  5
6D
330
6C
100
AcDbEntity
 67
     1
  8
0
100
AcDbBlockBegin
  2
*Paper_Space
 70
     0
 10
0.0
 20
0.0
 30
0.0
  3
*Paper_Space
  1

  0
ENDBLK
  5
6E
330
6C
100
AcDbEntity
 67
     1
  8
0
100
AcDbBlockEnd
  0
BLOCK
  5
75
330
74
100
AcDbEntity
 67
     1
  8
0
100
AcDbBlockBegin
  2
*Paper_Space0
 70
     0
 10
0.0
 20
0.0
 30
0.0
  3
*Paper_Space0
  1

  0
ENDBLK
  5
76
330
74
100
AcDbEntity
 67
     1
  8
0
100
AcDbBlockEnd
  0
BLOCK
  5
7B
330
79
100
AcDbEntity
  8
0
100
AcDbBlockBegin
  2
Block_0
 70
     0
 10
0.0
 20
0.0
 30
0.0
  3
Block_0
  1

  0
LWPOLYLINE
  5
7D
330
79
100
AcDbEntity
  8
レイヤー 1
 62
   250
420
  2299925
370
    25
100
AcDbPolyline
 90
       24
 70
     1
 43
0.0
 10
108.1022830392639
 20
-140.2760466865888
 10
129.1022229453508
 20
-140.2760466865888
 10
129.1022229453508
 20
-139.2762744898726
 10
107.102510817292
 20
-139.2762744898726
 10
107.102510817292
 20
-155.2759810261308
 10
97.10210431729743
 20
-155.2759810261308
 10
97.10210431729743
 20
-139.2762744898726
 10
75.10224765633863
 20
-139.2762744898726
 10
75.10224765633863
 20
-140.2760466865888
 10
96.10233212058153
 20
-140.2760466865888
 10
96.10233212058153
 20
-155.2759810261308
 10
88.10214371357222
 20
-155.2759810261308
 10
88.10214371357222
 20
-154.2762088294149
 10
91.10213058148062
 20
-154.2762088294149
 10
91.10213058148062
 20
-153.2757663549383
 10
87.10237151685632
 20
-153.2757663549383
 10
87.10237151685632
 20
-156.2757532228467
 10
117.1022401959403
 20
-156.2757532228467
 10
117.1022401959403
 20
-153.2757663549383
 10
113.102481131316
 20
-153.2757663549383
 10
113.102481131316
 20
-154.2762088294149
 10
116.1025032770013
 20
-154.2762088294149
 10
116.1025032770013
 20
-155.2759810261308
 10
108.1022830392639
 20
-155.2759810261308
  0
HATCH
  5
7E
330
79
100
AcDbEntity
  8
レイヤー 1
 62
     9
420
 13158858
440
 33554687
100
AcDbHatch
 10
0.0
 20
0.0
 30
0.0
210
0.0
220
0.0
230
1.0
  2
SOLID
 70
     1
 71
     1
 91
        1
 92
        1
 93
       24
 72
     1
 10
108.1022830392639
 20
-140.2760466865888
 11
129.1022229453508
 21
-140.2760466865888
 72
     1
 10
129.1022229453508
 20
-140.2760466865888
 11
129.1022229453508
 21
-139.2762744898726
 72
     1
 10
129.1022229453508
 20
-139.2762744898726
 11
107.102510817292
 21
-139.2762744898726
 72
     1
 10
107.102510817292
 20
-139.2762744898726
 11
107.102510817292
 21
-155.2759810261308
 72
     1
 10
107.102510817292
 20
-155.2759810261308
 11
97.10210431729743
 21
-155.2759810261308
 72
     1
 10
97.10210431729743
 20
-155.2759810261308
 11
97.10210431729743
 21
-139.2762744898726
 72
     1
 10
97.10210431729743
 20
-139.2762744898726
 11
75.10224765633863
 21
-139.2762744898726
 72
     1
 10
75.10224765633863
 20
-139.2762744898726
 11
75.10224765633863
 21
-140.2760466865888
 72
     1
 10
75.10224765633863
 20
-140.2760466865888
 11
96.10233212058153
 21
-140.2760466865888
 72
     1
 10
96.10233212058153
 20
-140.2760466865888
 11
96.10233212058153
 21
-155.2759810261308
 72
     1
 10
96.10233212058153
 20
-155.2759810261308
 11
88.10214371357222
 21
-155.2759810261308
 72
     1
 10
88.10214371357222
 20
-155.2759810261308
 11
88.10214371357222
 21
-154.2762088294149
 72
     1
 10
88.10214371357222
 20
-154.2762088294149
 11
91.10213058148062
 21
-154.2762088294149
 72
     1
 10
91.10213058148062
 20
-154.2762088294149
 11
91.10213058148062
 21
-153.2757663549383
 72
     1
 10
91.10213058148062
 20
-153.2757663549383
 11
87.10237151685632
 21
-153.2757663549383
 72
     1
 10
87.10237151685632
 20
-153.2757663549383
 11
87.10237151685632
 21
-156.2757532228467
 72
     1
 10
87.10237151685632
 20
-156.2757532228467
 11
117.1022401959403
 21
-156.2757532228467
 72
     1
 10
117.1022401959403
 20
-156.2757532228467
 11
117.1022401959403
 21
-153.2757663549383
 72
     1
 10
117.1022401959403
 20
-153.2757663549383
 11
113.102481131316
 21
-153.2757663549383
 72
     1
 10
113.102481131316
 20
-153.2757663549383
 11
113.102481131316
 21
-154.2762088294149
 72
     1
 10
113.102481131316
 20
-154.2762088294149
 11
116.1025032770013
 21
-154.2762088294149
 72
     1
 10
116.1025032770013
 20
-154.2762088294149
 11
116.1025032770013
 21
-155.2759810261308
 72
     1
 10
116.1025032770013
 20
-155.2759810261308
 11
108.1022830392639
 21
-155.2759810261308
 72
     1
 10
108.1022830392639
 20
-155.2759810261308
 11
108.1022830392639
 21
-140.2760466865888
 97
        1
330
7D
 75
     2
 76
     1
 98
        1
 10
0.0
 20
0.0
450
        0
451
        0
460
0.0
461
0.0
452
        0
462
0.0
453
        0
470

  0
LINE
  5
7F
330
79
100
AcDbEntity
  8
レイヤー 1
 62
   250
420
  2299925
370
     9
100
AcDbLine
 10
102.8630005592136
 20
-151.9369747224271
 30
0.0
 11
106.5003191507757
 21
-151.9369747224271
 31
0.0
  0
LINE
  5
80
330
79
100
AcDbEntity
  8
レイヤー 1
 62
   250
420
  2299925
370
     9
100
AcDbLine
 10
102.1023058563983
 20
-154.7757421500041
 30
0.0
 11
102.602544732525
 21
-153.9096374498774
 31
0.0
  0
LINE
  5
81
330
79
100
AcDbEntity
  8
レイヤー 1
 62
   250
420
  2299925
370
     9
100
AcDbLine
 10
102.1023058563983
 20
-154.7757421500041
 30
0.0
 11
102.1023058563983
 21
-153.7759699532882
 31
0.0
  0
LINE
  5
82
330
79
100
AcDbEntity
  8
レイヤー 1
 62
   250
420
  2299925
370
     9
100
AcDbLine
 10
102.1023058563983
 20
-154.7757421500041
 30
0.0
 11
102.8630005592136
 21
-151.9369747224271
 31
0.0
  0
LINE
  5
83
330
79
100
AcDbEntity
  8
レイヤー 1
 62
   250
420
  2299925
370
    25
100
AcDbLine
 10
100.3522106232692
 20
-155.2759810261308
 30
0.0
 11
100.3522106232692
 21
-156.2757532228467
 31
0.0
  0
LINE
  5
84
330
79
100
AcDbEntity
  8
レイヤー 1
 62
   250
420
  2299925
370
    25
100
AcDbLine
 10
103.8524010895274
 20
-155.2759810261308
 30
0.0
 11
103.8524010895274
 21
-156.2757532228467
 31
0.0
  0
CIRCLE
  5
85
330
79
100
AcDbEntity
  8
レイヤー 1
 62
   250
420
  2299925
370
     9
100
AcDbCircle
 10
75.10224765633847
 20
-135.2758098697109
 30
0.0
 40
0.0999066641178353
  0
CIRCLE
  5
86
330
79
100
AcDbEntity
  8
レイヤー 1
 62
   250
420
  2299925
370
     9
100
AcDbCircle
 10
97.10210431729743
 20
-135.2758098697109
 30
0.0
 40
0.0999066641177551
  0
SPLINE
  5
87
330
79
100
AcDbEntity
  8
レイヤー 1
 62
   250
420
  2299925
370
     9
100
AcDbSpline
210
0.0
220
0.0
230
1.0
 70
     9
 71
     3
 72
    17
 73
    13
 74
     0
 42
0.0000000001
 43
0.0000000001
 40
0.0
 40
0.0
 40
0.0
 40
0.0
 40
1.0
 40
1.0
 40
1.0
 40
2.0
 40
2.0
 40
2.0
 40
3.0
 40
3.0
 40
3.0
 40
4.0
 40
4.0
 40
4.0
 40
4.0
 10
107.2024140596171
 20
-135.2758098697107
 30
0.0
 10
107.2024140596171
 20
-135.2207059822279
 30
0.0
 10
107.1576465607591
 20
-135.1759032055932
 30
0.0
 10
107.102510817292
 20
-135.1759032055932
 30
0.0
 10
107.0466979524786
 20
-135.1759032055932
 30
0.0
 10
107.0019304536207
 20
-135.2207059822279
 30
0.0
 10
107.0019304536207
 20
-135.2758098697107
 30
0.0
 10
107.0019304536207
 20
-135.330949034971
 30
0.0
 10
107.0466979524786
 20
-135.3757165338289
 30
0.0
 10
107.102510817292
 20
-135.3757165338289
 30
0.0
 10
107.1576465607591
 20
-135.3757165338289
 30
0.0
 10
107.2024140596171
 20
-135.330949034971
 30
0.0
 10
107.2024140596171
 20
-135.2758098697107
 30
0.0
  0
CIRCLE
  5
88
330
79
100
AcDbEntity
  8
レイヤー 1
 62
   250
420
  2299925
370
     9
100
AcDbCircle
 10
129.1022229453508
 20
-135.2758098697109
 30
0.0
 40
0.0999066641177551
  0
SPLINE
  5
89
330
79
100
AcDbEntity
  8
レイヤー 1
 62
   250
420
  2299925
370
     9
100
AcDbSpline
210
0.0
220
0.0
230
1.0
 70
     9
 71
     3
 72
    17
 73
    13
 74
     0
 42
0.0000000001
 43
0.0000000001
 40
0.0
 40
0.0
 40
0.0
 40
0.0
 40
1.0
 40
1.0
 40
1.0
 40
2.0
 40
2.0
 40
2.0
 40
3.0
 40
3.0
 40
3.0
 40
4.0
 40
4.0
 40
4.0
 40
4.0
 10
133.201888674093
 20
-139.2762744898726
 30
0.0
 10
133.201888674093
 20
-139.2204650468523
 30
0.0
 10
133.1570858974582
 20
-139.1756622702175
 30
0.0
 10
133.1019820099751
 20
-139.1756622702175
 30
0.0
 10
133.0468469219169
 20
-139.1756622702175
 30
0.0
 10
133.0020441441501
 20
-139.2204650468523
 30
0.0
 10
133.0020441441501
 20
-139.2762744898726
 30
0.0
 10
133.0020441441501
 20
-139.331378377356
 30
0.0
 10
133.0468469219169
 20
-139.3761811539907
 30
0.0
 10
133.1019820099751
 20
-139.3761811539907
 30
0.0
 10
133.1570858974582
 20
-139.3761811539907
 30
0.0
 10
133.201888674093
 20
-139.331378377356
 30
0.0
 10
133.201888674093
 20
-139.2762744898726
 30
0.0
  0
SPLINE
  5
8A
330
79
100
AcDbEntity
  8
レイヤー 1
 62
   250
420
  2299925
370
     9
100
AcDbSpline
210
0.0
220
0.0
230
1.0
 70
     9
 71
     3
 72
    17
 73
    13
 74
     0
 42
0.0000000001
 43
0.0000000001
 40
0.0
 40
0.0
 40
0.0
 40
0.0
 40
1.0
 40
1.0
 40
1.0
 40
2.0
 40
2.0
 40
2.0
 40
3.0
 40
3.0
 40
3.0
 40
4.0
 40
4.0
 40
4.0
 40
4.0
 10
133.201888674093
 20
-140.2760466865888
 30
0.0
 10
133.201888674093
 20
-140.2209022342277
 30
0.0
 10
133.1570858974582
 20
-140.176140022471
 30
0.0
 10
133.1019820099751
 20
-140.176140022471
 30
0.0
 10
133.0468469219169
 20
-140.176140022471
 30
0.0
 10
133.0020441441501
 20
-140.2209022342277
 30
0.0
 10
133.0020441441501
 20
-140.2760466865888
 30
0.0
 10
133.0020441441501
 20
-140.3311505740719
 30
0.0
 10
133.0468469219169
 20
-140.3759533507066
 30
0.0
 10
133.1019820099751
 20
-140.3759533507066
 30
0.0
 10
133.1570858974582
 20
-140.3759533507066
 30
0.0
 10
133.201888674093
 20
-140.3311505740719
 30
0.0
 10
133.201888674093
 20
-140.2760466865888
 30
0.0
  0
SPLINE
  5
8B
330
79
100
AcDbEntity
  8
レイヤー 1
 62
   250
420
  2299925
370
     9
100
AcDbSpline
210
0.0
220
0.0
230
1.0
 70
     9
 71
     3
 72
    17
 73
    13
 74
     0
 42
0.0000000001
 43
0.0000000001
 40
0.0
 40
0.0
 40
0.0
 40
0.0
 40
1.0
 40
1.0
 40
1.0
 40
2.0
 40
2.0
 40
2.0
 40
3.0
 40
3.0
 40
3.0
 40
4.0
 40
4.0
 40
4.0
 40
4.0
 10
133.201888674093
 20
-153.2757663549383
 30
0.0
 10
133.201888674093
 20
-153.2206271896784
 30
0.0
 10
133.1570858974582
 20
-153.1758596908205
 30
0.0
 10
133.1019820099751
 20
-153.1758596908205
 30
0.0
 10
133.0468469219169
 20
-153.1758596908205
 30
0.0
 10
133.0020441441501
 20
-153.2206271896784
 30
0.0
 10
133.0020441441501
 20
-153.2757663549383
 30
0.0
 10
133.0020441441501
 20
-153.3308702424214
 30
0.0
 10
133.0468469219169
 20
-153.3756730190562
 30
0.0
 10
133.1019820099751
 20
-153.3756730190562
 30
0.0
 10
133.1570858974582
 20
-153.3756730190562
 30
0.0
 10
133.201888674093
 20
-153.3308702424214
 30
0.0
 10
133.201888674093
 20
-153.2757663549383
 30
0.0
  0
SPLINE
  5
8C
330
79
100
AcDbEntity
  8
レイヤー 1
 62
   250
420
  2299925
370
     9
100
AcDbSpline
210
0.0
220
0.0
230
1.0
 70
     9
 71
     3
 72
    17
 73
    13
 74
     0
 42
0.0000000001
 43
0.0000000001
 40
0.0
 40
0.0
 40
0.0
 40
0.0
 40
1.0
 40
1.0
 40
1.0
 40
2.0
 40
2.0
 40
2.0
 40
3.0
 40
3.0
 40
3.0
 40
4.0
 40
4.0
 40
4.0
 40
4.0
 10
133.201888674093
 20
-156.2757532228467
 30
0.0
 10
133.201888674093
 20
-156.2206140575868
 30
0.0
 10
133.1570858974582
 20
-156.1758465587289
 30
0.0
 10
133.1019820099751
 20
-156.1758465587289
 30
0.0
 10
133.0468469219169
 20
-156.1758465587289
 30
0.0
 10
133.0020441441501
 20
-156.2206140575868
 30
0.0
 10
133.0020441441501
 20
-156.2757532228467
 30
0.0
 10
133.0020441441501
 20
-156.3308522302003
 30
0.0
 10
133.0468469219169
 20
-156.3756550079664
 30
0.0
 10
133.1019820099751
 20
-156.3756550079664
 30
0.0
 10
133.1570858974582
 20
-156.3756550079664
 30
0.0
 10
133.201888674093
 20
-156.3308522302003
 30
0.0
 10
133.201888674093
 20
-156.2757532228467
 30
0.0
  0
CIRCLE
  5
8D
330
79
100
AcDbEntity
  8
レイヤー 1
 62
   250
420
  2299925
370
     9
100
AcDbCircle
 10
117.1022401959403
 20
-164.275941629856
 30
0.0
 40
0.0999066641178353
  0
SPLINE
  5
8E
330
79
100
AcDbEntity
  8
レイヤー 1
 62
   250
420
  2299925
370
     9
100
AcDbSpline
210
0.0
220
0.0
230
1.0
 70
     9
 71
     3
 72
    17
 73
    13
 74
     0
 42
0.0000000001
 43
0.0000000001
 40
0.0
 40
0.0
 40
0.0
 40
0.0
 40
1.0
 40
1.0
 40
1.0
 40
2.0
 40
2.0
 40
2.0
 40
3.0
 40
3.0
 40
3.0
 40
4.0
 40
4.0
 40
4.0
 40
4.0
 10
108.202186256333
 20
-164.275941629856
 30
0.0
 10
108.202186256333
 20
-164.2208377423729
 30
0.0
 10
108.1574187574751
 20
-164.1760349657382
 30
0.0
 10
108.1022830392639
 20
-164.1760349657382
 30
0.0
 10
108.0471757047321
 20
-164.1760349657382
 30
0.0
 10
108.0023729280973
 20
-164.2208377423729
 30
0.0
 10
108.0023729280973
 20
-164.275941629856
 30
0.0
 10
108.0023729280973
 20
-164.331080795116
 30
0.0
 10
108.0471757047321
 20
-164.3758482939739
 30
0.0
 10
108.1022830392639
 20
-164.3758482939739
 30
0.0
 10
108.1574187574751
 20
-164.3758482939739
 30
0.0
 10
108.202186256333
 20
-164.331080795116
 30
0.0
 10
108.202186256333
 20
-164.275941629856
 30
0.0
  0
CIRCLE
  5
8F
330
79
100
AcDbEntity
  8
レイヤー 1
 62
   250
420
  2299925
370
     9
100
AcDbCircle
 10
96.10233212058153
 20
-164.275941629856
 30
0.0
 40
0.0999066641178353
  0
CIRCLE
  5
90
330
79
100
AcDbEntity
  8
レイヤー 1
 62
   250
420
  2299925
370
     9
100
AcDbCircle
 10
87.10237151685632
 20
-164.275941629856
 30
0.0
 40
0.0999066641178353
  0
CIRCLE
  5
91
330
79
100
AcDbEntity
  8
レイヤー 1
 62
   250
420
  2299925
370
     9
100
AcDbCircle
 10
100.3522106232692
 20
-160.2761825652317
 30
0.0
 40
0.0999066641178353
  0
CIRCLE
  5
92
330
79
100
AcDbEntity
  8
レイヤー 1
 62
   250
420
  2299925
370
     9
100
AcDbCircle
 10
103.8524010895274
 20
-160.2761825652317
 30
0.0
 40
0.0999066641178353
  0
INSERT
  5
94
330
79
100
AcDbEntity
  8
レイヤー 1
100
AcDbBlockReference
  2
Block_1
 10
0.0
 20
0.0
 30
0.0
  0
INSERT
  5
AA
330
79
100
AcDbEntity
  8
レイヤー 1
100
AcDbBlockReference
  2
Block_3
 10
0.0
 20
0.0
 30
0.0
  0
INSERT
  5
BE
330
79
100
AcDbEntity
  8
レイヤー 1
100
AcDbBlockReference
  2
Block_6
 10
0.0
 20
0.0
 30
0.0
  0
INSERT
  5
D2
330
79
100
AcDbEntity
  8
レイヤー 1
100
AcDbBlockReference
  2
Block_9
 10
0.0
 20
0.0
 30
0.0
  0
INSERT
  5
E5
330
79
100
AcDbEntity
  8
レイヤー 1
100
AcDbBlockReference
  2
Block_12
 10
0.0
 20
0.0
 30
0.0
  0
INSERT
  5
FC
330
79
100
AcDbEntity
  8
レイヤー 1
100
AcDbBlockReference
  2
Block_15
 10
0.0
 20
0.0
 30
0.0
  0
INSERT
  5
110
330
79
100
AcDbEntity
  8
レイヤー 1
100
AcDbBlockReference
  2
Block_18
 10
0.0
 20
0.0
 30
0.0
  0
INSERT
  5
11E
330
79
100
AcDbEntity
  8
レイヤー 1
100
AcDbBlockReference
  2
Block_20
 10
0.0
 20
0.0
 30
0.0
  0
INSERT
  5
12C
330
79
100
AcDbEntity
  8
レイヤー 1
100
AcDbBlockReference
  2
Block_22
 10
0.0
 20
0.0
 30
0.0
  0
INSERT
  5
13A
330
79
100
AcDbEntity
  8
レイヤー 1
100
AcDbBlockReference
  2
Block_24
 10
0.0
 20
0.0
 30
0.0
  0
INSERT
  5
148
330
79
100
AcDbEntity
  8
レイヤー 1
100
AcDbBlockReference
  2
Block_26
 10
0.0
 20
0.0
 30
0.0
  0
ENDBLK
  5
7C
330
79
100
AcDbEntity
  8
0
100
AcDbBlockEnd
  0
BLOCK
  5
95
330
93
100
AcDbEntity
  8
0
100
AcDbBlockBegin
  2
Block_1
 70
     0
 10
0.0
 20
0.0
 30
0.0
  3
Block_1
  1

  0
INSERT
  5
98
330
93
100
AcDbEntity
  8
レイヤー 1
100
AcDbBlockReference
  2
Block_2
 10
0.0
 20
0.0
 30
0.0
  0
ENDBLK
  5
96
330
93
100
AcDbEntity
  8
0
100
AcDbBlockEnd
  0
BLOCK
  5
99
330
97
100
AcDbEntity
  8
0
100
AcDbBlockBegin
  2
Block_2
 70
     0
 10
0.0
 20
0.0
 30
0.0
  3
Block_2
  1

  0
SPLINE
  5
9B
330
97
100
AcDbEntity
  8
レイヤー 1
100
AcDbSpline
210
0.0
220
0.0
230
1.0
 70
     9
 71
     3
 72
    41
 73
    37
 74
     0
 42
0.0000000001
 43
0.0000000001
 40
0.0
 40
0.0
 40
0.0
 40
0.0
 40
1.0
 40
1.0
 40
1.0
 40
2.0
 40
2.0
 40
2.0
 40
3.0
 40
3.0
 40
3.0
 40
4.0
 40
4.0
 40
4.0
 40
5.0
 40
5.0
 40
5.0
 40
6.0
 40
6.0
 40
6.0
 40
7.0
 40
7.0
 40
7.0
 40
8.0
 40
8.0
 40
8.0
 40
9.0
 40
9.0
 40
9.0
 40
10.0
 40
10.0
 40
10.0
 40
11.0
 40
11.0
 40
11.0
 40
12.0
 40
12.0
 40
12.0
 40
12.0
 10
104.4446153167708
 20
-151.5624972494357
 30
0.0
 10
104.1867499196998
 20
-151.4271049968654
 30
0.0
 10
103.9969251584625
 20
-151.1308267851339
 30
0.0
 10
103.9538614648969
 20
-151.0019802139856
 30
0.0
 10
103.8250148937486
 20
-151.2662190377042
 30
0.0
 10
103.6510375717435
 20
-151.4439859647431
 30
0.0
 10
103.4565619316011
 20
-151.5583631348534
 30
0.0
 10
103.4565619316011
 20
-151.5583631348534
 30
0.0
 10
103.2462388522266
 20
-151.420903824992
 30
0.0
 10
103.2462388522266
 20
-151.420903824992
 30
0.0
 10
103.3208251694823
 20
-151.3954101184011
 30
0.0
 10
103.4768879949641
 20
-151.3340874187637
 30
0.0
 10
103.6079738781779
 20
-151.1797471410245
 30
0.0
 10
103.7414713282313
 20
-151.0229952964456
 30
0.0
 10
103.8363837088499
 20
-150.7904513511913
 30
0.0
 10
103.8363837088499
 20
-150.5300021325064
 30
0.0
 10
103.8363837088499
 20
-150.42871632524
 30
0.0
 10
103.8227755816832
 20
-150.3567138295983
 30
0.0
 10
103.8115790213561
 20
-150.3102050405474
 30
0.0
 10
103.8115790213561
 20
-150.3102050405474
 30
0.0
 10
104.0308593489923
 20
-150.3312201230075
 30
0.0
 10
104.0308593489923
 20
-150.3312201230075
 30
0.0
 10
104.0534247244206
 20
-150.3332871802986
 30
0.0
 10
104.075990099849
 20
-150.3353542375897
 30
0.0
 10
104.075990099849
 20
-150.3567138295983
 30
0.0
 10
104.075990099849
 20
-150.3756618547672
 30
0.0
 10
104.064793539522
 20
-150.3842745934803
 30
0.0
 10
104.0286200369268
 20
-150.4052896759403
 30
0.0
 10
104.0194905338909
 20
-150.6061387427304
 30
0.0
 10
104.0804687239799
 20
-150.8497069935376
 30
0.0
 10
104.1460977929739
 20
-150.9702853355213
 30
0.0
 10
104.2432494856579
 20
-151.1456406957205
 30
0.0
 10
104.451333252967
 20
-151.3254746800505
 30
0.0
 10
104.5960272633475
 20
-151.3826632651057
 30
0.0
 10
104.5960272633475
 20
-151.3826632651057
 30
0.0
 10
104.4446153167708
 20
-151.5624972494357
 30
0.0
 10
104.4446153167708
 20
-151.5624972494357
 30
0.0
  0
SPLINE
  5
9C
330
97
100
AcDbEntity
  8
レイヤー 1
100
AcDbSpline
210
0.0
220
0.0
230
1.0
 70
    11
 71
     3
 72
    17
 73
    13
 74
     0
 42
0.0000000001
 43
0.0000000001
 40
0.0
 40
0.0
 40
0.0
 40
0.0
 40
1.0
 40
1.0
 40
1.0
 40
2.0
 40
2.0
 40
2.0
 40
3.0
 40
3.0
 40
3.0
 40
4.0
 40
4.0
 40
4.0
 40
4.0
 10
103.2801730427563
 20
-150.6040716854393
 30
0.0
 10
103.2801730427563
 20
-150.6040716854393
 30
0.0
 10
103.1084350328166
 20
-150.6040716854393
 30
0.0
 10
103.1084350328166
 20
-150.6040716854393
 30
0.0
 10
103.1084350328166
 20
-150.6040716854393
 30
0.0
 10
103.1084350328166
 20
-150.7332627661361
 30
0.0
 10
103.1084350328166
 20
-150.7332627661361
 30
0.0
 10
103.1084350328166
 20
-150.7332627661361
 30
0.0
 10
103.2801730427563
 20
-150.7332627661361
 30
0.0
 10
103.2801730427563
 20
-150.7332627661361
 30
0.0
 10
103.2801730427563
 20
-150.7332627661361
 30
0.0
 10
103.2801730427563
 20
-150.6040716854393
 30
0.0
 10
103.2801730427563
 20
-150.6040716854393
 30
0.0
  0
SPLINE
  5
9D
330
97
100
AcDbEntity
  8
レイヤー 1
100
AcDbSpline
210
0.0
220
0.0
230
1.0
 70
    11
 71
     3
 72
    17
 73
    13
 74
     0
 42
0.0000000001
 43
0.0000000001
 40
0.0
 40
0.0
 40
0.0
 40
0.0
 40
1.0
 40
1.0
 40
1.0
 40
2.0
 40
2.0
 40
2.0
 40
3.0
 40
3.0
 40
3.0
 40
4.0
 40
4.0
 40
4.0
 40
4.0
 10
103.2801730427563
 20
-150.3312201230075
 30
0.0
 10
103.2801730427563
 20
-150.3312201230075
 30
0.0
 10
103.1084350328166
 20
-150.3312201230075
 30
0.0
 10
103.1084350328166
 20
-150.3312201230075
 30
0.0
 10
103.1084350328166
 20
-150.3312201230075
 30
0.0
 10
103.1084350328166
 20
-150.4604112037043
 30
0.0
 10
103.1084350328166
 20
-150.4604112037043
 30
0.0
 10
103.1084350328166
 20
-150.4604112037043
 30
0.0
 10
103.2801730427563
 20
-150.4604112037043
 30
0.0
 10
103.2801730427563
 20
-150.4604112037043
 30
0.0
 10
103.2801730427563
 20
-150.4604112037043
 30
0.0
 10
103.2801730427563
 20
-150.3312201230075
 30
0.0
 10
103.2801730427563
 20
-150.3312201230075
 30
0.0
  0
SPLINE
  5
9E
330
97
100
AcDbEntity
  8
レイヤー 1
100
AcDbSpline
210
0.0
220
0.0
230
1.0
 70
    11
 71
     3
 72
    17
 73
    13
 74
     0
 42
0.0000000001
 43
0.0000000001
 40
0.0
 40
0.0
 40
0.0
 40
0.0
 40
1.0
 40
1.0
 40
1.0
 40
2.0
 40
2.0
 40
2.0
 40
3.0
 40
3.0
 40
3.0
 40
4.0
 40
4.0
 40
4.0
 40
4.0
 10
102.9253282077756
 20
-150.6040716854393
 30
0.0
 10
102.9253282077756
 20
-150.6040716854393
 30
0.0
 10
102.755657255127
 20
-150.6040716854393
 30
0.0
 10
102.755657255127
 20
-150.6040716854393
 30
0.0
 10
102.755657255127
 20
-150.6040716854393
 30
0.0
 10
102.755657255127
 20
-150.7332627661361
 30
0.0
 10
102.755657255127
 20
-150.7332627661361
 30
0.0
 10
102.755657255127
 20
-150.7332627661361
 30
0.0
 10
102.9253282077756
 20
-150.7332627661361
 30
0.0
 10
102.9253282077756
 20
-150.7332627661361
 30
0.0
 10
102.9253282077756
 20
-150.7332627661361
 30
0.0
 10
102.9253282077756
 20
-150.6040716854393
 30
0.0
 10
102.9253282077756
 20
-150.6040716854393
 30
0.0
  0
SPLINE
  5
9F
330
97
100
AcDbEntity
  8
レイヤー 1
100
AcDbSpline
210
0.0
220
0.0
230
1.0
 70
    11
 71
     3
 72
    17
 73
    13
 74
     0
 42
0.0000000001
 43
0.0000000001
 40
0.0
 40
0.0
 40
0.0
 40
0.0
 40
1.0
 40
1.0
 40
1.0
 40
2.0
 40
2.0
 40
2.0
 40
3.0
 40
3.0
 40
3.0
 40
4.0
 40
4.0
 40
4.0
 40
4.0
 10
102.9253282077756
 20
-150.3312201230075
 30
0.0
 10
102.9253282077756
 20
-150.3312201230075
 30
0.0
 10
102.755657255127
 20
-150.3312201230075
 30
0.0
 10
102.755657255127
 20
-150.3312201230075
 30
0.0
 10
102.755657255127
 20
-150.3312201230075
 30
0.0
 10
102.755657255127
 20
-150.4604112037043
 30
0.0
 10
102.755657255127
 20
-150.4604112037043
 30
0.0
 10
102.755657255127
 20
-150.4604112037043
 30
0.0
 10
102.9253282077756
 20
-150.4604112037043
 30
0.0
 10
102.9253282077756
 20
-150.4604112037043
 30
0.0
 10
102.9253282077756
 20
-150.4604112037043
 30
0.0
 10
102.9253282077756
 20
-150.3312201230075
 30
0.0
 10
102.9253282077756
 20
-150.3312201230075
 30
0.0
  0
SPLINE
  5
A0
330
97
100
AcDbEntity
  8
レイヤー 1
100
AcDbSpline
210
0.0
220
0.0
230
1.0
 70
     9
 71
     3
 72
   197
 73
   193
 74
     0
 42
0.0000000001
 43
0.0000000001
 40
0.0
 40
0.0
 40
0.0
 40
0.0
 40
1.0
 40
1.0
 40
1.0
 40
2.0
 40
2.0
 40
2.0
 40
3.0
 40
3.0
 40
3.0
 40
4.0
 40
4.0
 40
4.0
 40
5.0
 40
5.0
 40
5.0
 40
6.0
 40
6.0
 40
6.0
 40
7.0
 40
7.0
 40
7.0
 40
8.0
 40
8.0
 40
8.0
 40
9.0
 40
9.0
 40
9.0
 40
10.0
 40
10.0
 40
10.0
 40
11.0
 40
11.0
 40
11.0
 40
12.0
 40
12.0
 40
12.0
 40
13.0
 40
13.0
 40
13.0
 40
14.0
 40
14.0
 40
14.0
 40
15.0
 40
15.0
 40
15.0
 40
16.0
 40
16.0
 40
16.0
 40
17.0
 40
17.0
 40
17.0
 40
18.0
 40
18.0
 40
18.0
 40
19.0
 40
19.0
 40
19.0
 40
20.0
 40
20.0
 40
20.0
 40
21.0
 40
21.0
 40
21.0
 40
22.0
 40
22.0
 40
22.0
 40
23.0
 40
23.0
 40
23.0
 40
24.0
 40
24.0
 40
24.0
 40
25.0
 40
25.0
 40
25.0
 40
26.0
 40
26.0
 40
26.0
 40
27.0
 40
27.0
 40
27.0
 40
28.0
 40
28.0
 40
28.0
 40
29.0
 40
29.0
 40
29.0
 40
30.0
 40
30.0
 40
30.0
 40
31.0
 40
31.0
 40
31.0
 40
32.0
 40
32.0
 40
32.0
 40
33.0
 40
33.0
 40
33.0
 40
34.0
 40
34.0
 40
34.0
 40
35.0
 40
35.0
 40
35.0
 40
36.0
 40
36.0
 40
36.0
 40
37.0
 40
37.0
 40
37.0
 40
38.0
 40
38.0
 40
38.0
 40
39.0
 40
39.0
 40
39.0
 40
40.0
 40
40.0
 40
40.0
 40
41.0
 40
41.0
 40
41.0
 40
42.0
 40
42.0
 40
42.0
 40
43.0
 40
43.0
 40
43.0
 40
44.0
 40
44.0
 40
44.0
 40
45.0
 40
45.0
 40
45.0
 40
46.0
 40
46.0
 40
46.0
 40
47.0
 40
47.0
 40
47.0
 40
48.0
 40
48.0
 40
48.0
 40
49.0
 40
49.0
 40
49.0
 40
50.0
 40
50.0
 40
50.0
 40
51.0
 40
51.0
 40
51.0
 40
52.0
 40
52.0
 40
52.0
 40
53.0
 40
53.0
 40
53.0
 40
54.0
 40
54.0
 40
54.0
 40
55.0
 40
55.0
 40
55.0
 40
56.0
 40
56.0
 40
56.0
 40
57.0
 40
57.0
 40
57.0
 40
58.0
 40
58.0
 40
58.0
 40
59.0
 40
59.0
 40
59.0
 40
60.0
 40
60.0
 40
60.0
 40
61.0
 40
61.0
 40
61.0
 40
62.0
 40
62.0
 40
62.0
 40
63.0
 40
63.0
 40
63.0
 40
64.0
 40
64.0
 40
64.0
 40
64.0
 10
104.5350490732586
 20
-150.2065076664414
 30
0.0
 10
104.5236802581573
 20
-150.2361354876146
 30
0.0
 10
104.4988755706635
 20
-150.2826442766654
 30
0.0
 10
104.4875067555621
 20
-150.3102050405474
 30
0.0
 10
104.4875067555621
 20
-150.3102050405474
 30
0.0
 10
104.4218776865681
 20
-150.4624782609955
 30
0.0
 10
104.4218776865681
 20
-150.4624782609955
 30
0.0
 10
104.4106811262411
 20
-150.4879719675863
 30
0.0
 10
104.3586601844138
 20
-150.599937570857
 30
0.0
 10
104.345052057247
 20
-150.6233642201566
 30
0.0
 10
104.3428127451816
 20
-150.6295653920301
 30
0.0
 10
104.3383341210508
 20
-150.6381781307432
 30
0.0
 10
104.3360948089854
 20
-150.6443793026167
 30
0.0
 10
104.3360948089854
 20
-150.6443793026167
 30
0.0
 10
104.1121636024442
 20
-150.5913248321438
 30
0.0
 10
104.1121636024442
 20
-150.5913248321438
 30
0.0
 10
104.1958794227357
 20
-150.4814262861644
 30
0.0
 10
104.2613362369555
 20
-150.3460340335941
 30
0.0
 10
104.2952704274852
 20
-150.2361354876146
 30
0.0
 10
104.2952704274852
 20
-150.2361354876146
 30
0.0
 10
103.7979708941894
 20
-150.2361354876146
 30
0.0
 10
103.7979708941894
 20
-150.2361354876146
 30
0.0
 10
103.7120157618324
 20
-150.401155561358
 30
0.0
 10
103.6396687566421
 20
-150.4793592288732
 30
0.0
 10
103.603495254047
 20
-150.5196668460506
 30
0.0
 10
103.603495254047
 20
-150.5196668460506
 30
0.0
 10
103.4724093708333
 20
-150.4538655222823
 30
0.0
 10
103.4724093708333
 20
-150.4538655222823
 30
0.0
 10
103.4724093708333
 20
-150.4538655222823
 30
0.0
 10
103.4724093708333
 20
-150.6254312774478
 30
0.0
 10
103.4724093708333
 20
-150.6254312774478
 30
0.0
 10
103.4724093708333
 20
-150.7332627661361
 30
0.0
 10
103.4746486828987
 20
-150.7818386124782
 30
0.0
 10
103.486017498
 20
-150.8876030438753
 30
0.0
 10
103.4090196139047
 20
-150.8855359865842
 30
0.0
 10
103.3864542384763
 20
-150.8855359865842
 30
0.0
 10
103.1671739108401
 20
-150.8855359865842
 30
0.0
 10
103.1671739108401
 20
-150.8855359865842
 30
0.0
 10
103.1084350328166
 20
-150.8855359865842
 30
0.0
 10
103.1084350328166
 20
-150.8855359865842
 30
0.0
 10
103.1084350328166
 20
-150.8855359865842
 30
0.0
 10
103.1084350328166
 20
-151.0209282391545
 30
0.0
 10
103.1084350328166
 20
-151.0209282391545
 30
0.0
 10
103.1084350328166
 20
-151.0209282391545
 30
0.0
 10
103.1852606621377
 20
-151.0209282391545
 30
0.0
 10
103.1852606621377
 20
-151.0209282391545
 30
0.0
 10
103.2553683552625
 20
-151.0209282391545
 30
0.0
 10
103.4112589259701
 20
-151.0167941245722
 30
0.0
 10
103.5244303126605
 20
-151.008181385859
 30
0.0
 10
103.5244303126605
 20
-151.008181385859
 30
0.0
 10
103.5244303126605
 20
-151.1859483128979
 30
0.0
 10
103.5244303126605
 20
-151.1859483128979
 30
0.0
 10
103.420388429006
 20
-151.1797471410245
 30
0.0
 10
103.2508897311317
 20
-151.1752685168937
 30
0.0
 10
103.1852606621377
 20
-151.1752685168937
 30
0.0
 10
103.1852606621377
 20
-151.1752685168937
 30
0.0
 10
103.1084350328166
 20
-151.1752685168937
 30
0.0
 10
103.1084350328166
 20
-151.1752685168937
 30
0.0
 10
103.110674344882
 20
-151.2641519804131
 30
0.0
 10
103.1151529690129
 20
-151.5032416070894
 30
0.0
 10
103.1173922810783
 20
-151.5773111600223
 30
0.0
 10
103.1173922810783
 20
-151.5773111600223
 30
0.0
 10
102.9025905775729
 20
-151.5773111600223
 30
0.0
 10
102.9025905775729
 20
-151.5773111600223
 30
0.0
 10
102.9161987047397
 20
-151.3637152399368
 30
0.0
 10
102.9161987047397
 20
-151.3340874187637
 30
0.0
 10
102.9206773288705
 20
-151.1752685168937
 30
0.0
 10
102.9206773288705
 20
-151.1752685168937
 30
0.0
 10
102.8460910116149
 20
-151.1752685168937
 30
0.0
 10
102.8460910116149
 20
-151.1752685168937
 30
0.0
 10
102.7851128215259
 20
-151.1752685168937
 30
0.0
 10
102.6223320598479
 20
-151.1797471410245
 30
0.0
 10
102.5046820490266
 20
-151.1859483128979
 30
0.0
 10
102.5046820490266
 20
-151.1859483128979
 30
0.0
 10
102.5046820490266
 20
-151.008181385859
 30
0.0
 10
102.5046820490266
 20
-151.008181385859
 30
0.0
 10
102.617853435717
 20
-151.0167941245722
 30
0.0
 10
102.7715046943592
 20
-151.0209282391545
 30
0.0
 10
102.8460910116149
 20
-151.0209282391545
 30
0.0
 10
102.8460910116149
 20
-151.0209282391545
 30
0.0
 10
102.9253282077756
 20
-151.0209282391545
 30
0.0
 10
102.9253282077756
 20
-151.0209282391545
 30
0.0
 10
102.9253282077756
 20
-151.0209282391545
 30
0.0
 10
102.9253282077756
 20
-150.8855359865842
 30
0.0
 10
102.9253282077756
 20
-150.8855359865842
 30
0.0
 10
102.9253282077756
 20
-150.8855359865842
 30
0.0
 10
102.8777858900791
 20
-150.8855359865842
 30
0.0
 10
102.8777858900791
 20
-150.8855359865842
 30
0.0
 10
102.796309381853
 20
-150.8855359865842
 30
0.0
 10
102.5906371813836
 20
-150.8876030438753
 30
0.0
 10
102.5544636787884
 20
-150.8876030438753
 30
0.0
 10
102.5611816149847
 20
-150.8156005482336
 30
0.0
 10
102.5703111180206
 20
-150.7353298234273
 30
0.0
 10
102.5703111180206
 20
-150.6147514814435
 30
0.0
 10
102.5703111180206
 20
-150.6147514814435
 30
0.0
 10
102.5703111180206
 20
-150.4411186689869
 30
0.0
 10
102.5703111180206
 20
-150.4411186689869
 30
0.0
 10
102.5703111180206
 20
-150.3694606828937
 30
0.0
 10
102.5611816149847
 20
-150.24888234091
 30
0.0
 10
102.5544636787884
 20
-150.1682671065552
 30
0.0
 10
102.63817949908
 20
-150.172745730686
 30
0.0
 10
102.678831625806
 20
-150.1748127879771
 30
0.0
 10
102.8143961331505
 20
-150.1748127879771
 30
0.0
 10
102.8143961331505
 20
-150.1748127879771
 30
0.0
 10
102.9253282077756
 20
-150.1748127879771
 30
0.0
 10
102.9253282077756
 20
-150.1748127879771
 30
0.0
 10
102.9253282077756
 20
-150.1748127879771
 30
0.0
 10
102.9253282077756
 20
-150.0287407394025
 30
0.0
 10
102.9253282077756
 20
-150.0287407394025
 30
0.0
 10
102.9253282077756
 20
-150.0287407394025
 30
0.0
 10
102.841612387484
 20
-150.0287407394025
 30
0.0
 10
102.841612387484
 20
-150.0287407394025
 30
0.0
 10
102.7828735094605
 20
-150.0287407394025
 30
0.0
 10
102.5997666844195
 20
-150.0328748539848
 30
0.0
 10
102.5093329279317
 20
-150.0394205354068
 30
0.0
 10
102.5093329279317
 20
-150.0394205354068
 30
0.0
 10
102.5093329279317
 20
-149.8616536083679
 30
0.0
 10
102.5093329279317
 20
-149.8616536083679
 30
0.0
 10
102.5973551175798
 20
-149.8678547802414
 30
0.0
 10
102.7715046943592
 20
-149.8723334043722
 30
0.0
 10
102.841612387484
 20
-149.8723334043722
 30
0.0
 10
102.841612387484
 20
-149.8723334043722
 30
0.0
 10
102.9253282077756
 20
-149.8723334043722
 30
0.0
 10
102.9253282077756
 20
-149.8723334043722
 30
0.0
 10
102.9253282077756
 20
-149.8382269590682
 30
0.0
 10
102.9206773288705
 20
-149.683886681329
 30
0.0
 10
102.9206773288705
 20
-149.6521918028647
 30
0.0
 10
102.9206773288705
 20
-149.6521918028647
 30
0.0
 10
103.131000408245
 20
-149.6690727707425
 30
0.0
 10
103.131000408245
 20
-149.6690727707425
 30
0.0
 10
103.1490871595426
 20
-149.6711398280336
 30
0.0
 10
103.171652534971
 20
-149.6732068853247
 30
0.0
 10
103.171652534971
 20
-149.6945664773333
 30
0.0
 10
103.171652534971
 20
-149.7176486170844
 30
0.0
 10
103.1490871595426
 20
-149.7262613557976
 30
0.0
 10
103.1196315931437
 20
-149.739008209093
 30
0.0
 10
103.1196315931437
 20
-149.760023291553
 30
0.0
 10
103.1173922810783
 20
-149.8554524364945
 30
0.0
 10
103.1173922810783
 20
-149.8723334043722
 30
0.0
 10
103.1173922810783
 20
-149.8723334043722
 30
0.0
 10
103.1807820380069
 20
-149.8723334043722
 30
0.0
 10
103.1807820380069
 20
-149.8723334043722
 30
0.0
 10
103.2531290431971
 20
-149.8723334043722
 30
0.0
 10
103.4067803018392
 20
-149.8678547802414
 30
0.0
 10
103.5197794337554
 20
-149.8616536083679
 30
0.0
 10
103.5197794337554
 20
-149.8616536083679
 30
0.0
 10
103.5197794337554
 20
-150.0394205354068
 30
0.0
 10
103.5197794337554
 20
-150.0394205354068
 30
0.0
 10
103.4159098048752
 20
-150.0328748539848
 30
0.0
 10
103.248478164292
 20
-150.0287407394025
 30
0.0
 10
103.1807820380069
 20
-150.0287407394025
 30
0.0
 10
103.1807820380069
 20
-150.0287407394025
 30
0.0
 10
103.1084350328166
 20
-150.0287407394025
 30
0.0
 10
103.1084350328166
 20
-150.0287407394025
 30
0.0
 10
103.1084350328166
 20
-150.0287407394025
 30
0.0
 10
103.1084350328166
 20
-150.1748127879771
 30
0.0
 10
103.1084350328166
 20
-150.1748127879771
 30
0.0
 10
103.1084350328166
 20
-150.1748127879771
 30
0.0
 10
103.1830213500723
 20
-150.1748127879771
 30
0.0
 10
103.1830213500723
 20
-150.1748127879771
 30
0.0
 10
103.3435627996849
 20
-150.1748127879771
 30
0.0
 10
103.420388429006
 20
-150.1703341638463
 30
0.0
 10
103.486017498
 20
-150.1682671065552
 30
0.0
 10
103.4768879949641
 20
-150.2636962514966
 30
0.0
 10
103.4746486828987
 20
-150.3418999190117
 30
0.0
 10
103.4724093708333
 20
-150.3797959693495
 30
0.0
 10
103.6374294445767
 20
-150.1682671065552
 30
0.0
 10
103.7504285764929
 20
-149.9209092507142
 30
0.0
 10
103.7685153277905
 20
-149.6583929747381
 30
0.0
 10
103.7685153277905
 20
-149.6583929747381
 30
0.0
 10
103.999164470528
 20
-149.7093803879199
 30
0.0
 10
103.999164470528
 20
-149.7093803879199
 30
0.0
 10
104.0150119097601
 20
-149.7135145025022
 30
0.0
 10
104.0308593489923
 20
-149.7200601839241
 30
0.0
 10
104.0308593489923
 20
-149.7369411518019
 30
0.0
 10
104.0308593489923
 20
-149.7538221196796
 30
0.0
 10
104.0262084700872
 20
-149.7558891769707
 30
0.0
 10
103.9719482161945
 20
-149.7769042594307
 30
0.0
 10
103.9538614648969
 20
-149.8530408696548
 30
0.0
 10
103.9268174653377
 20
-149.9439913904654
 30
0.0
 10
103.8747965235104
 20
-150.0711154138711
 30
0.0
 10
103.8747965235104
 20
-150.0711154138711
 30
0.0
 10
104.2365315494617
 20
-150.0711154138711
 30
0.0
 10
104.2365315494617
 20
-150.0711154138711
 30
0.0
 10
104.2771836761876
 20
-150.0711154138711
 30
0.0
 10
104.4151597503719
 20
-150.0669812992888
 30
0.0
 10
104.4671806921992
 20
-150.0604356178668
 30
0.0
 10
104.4671806921992
 20
-150.0604356178668
 30
0.0
 10
104.5665716969486
 20
-150.1303710562174
 30
0.0
 10
104.5665716969486
 20
-150.1303710562174
 30
0.0
 10
104.557614448687
 20
-150.1513861386774
 30
0.0
 10
104.5507242577165
 20
-150.1703341638463
 30
0.0
 10
104.5350490732586
 20
-150.2065076664414
 30
0.0
  0
HATCH
  5
A1
330
97
100
AcDbEntity
  8
レイヤー 1
 62
   250
420
  2299925
440
 33554687
100
AcDbHatch
 10
0.0
 20
0.0
 30
0.0
210
0.0
220
0.0
230
1.0
  2
SOLID
 70
     1
 71
     1
 91
        6
 92
        1
 93
        1
 72
     4
 94
        3
 73
     0
 74
     0
 95
       41
 96
       37
 40
0.0
 40
0.0
 40
0.0
 40
0.0
 40
1.0
 40
1.0
 40
1.0
 40
2.0
 40
2.0
 40
2.0
 40
3.0
 40
3.0
 40
3.0
 40
4.0
 40
4.0
 40
4.0
 40
5.0
 40
5.0
 40
5.0
 40
6.0
 40
6.0
 40
6.0
 40
7.0
 40
7.0
 40
7.0
 40
8.0
 40
8.0
 40
8.0
 40
9.0
 40
9.0
 40
9.0
 40
10.0
 40
10.0
 40
10.0
 40
11.0
 40
11.0
 40
11.0
 40
12.0
 40
12.0
 40
12.0
 40
12.0
 10
104.4446153167708
 20
-151.5624972494357
 10
104.1867499196998
 20
-151.4271049968654
 10
103.9969251584625
 20
-151.1308267851339
 10
103.9538614648969
 20
-151.0019802139856
 10
103.8250148937486
 20
-151.2662190377042
 10
103.6510375717435
 20
-151.4439859647431
 10
103.4565619316011
 20
-151.5583631348534
 10
103.4565619316011
 20
-151.5583631348534
 10
103.2462388522266
 20
-151.420903824992
 10
103.2462388522266
 20
-151.420903824992
 10
103.3208251694823
 20
-151.3954101184011
 10
103.4768879949641
 20
-151.3340874187637
 10
103.6079738781779
 20
-151.1797471410245
 10
103.7414713282313
 20
-151.0229952964456
 10
103.8363837088499
 20
-150.7904513511913
 10
103.8363837088499
 20
-150.5300021325064
 10
103.8363837088499
 20
-150.42871632524
 10
103.8227755816832
 20
-150.3567138295983
 10
103.8115790213561
 20
-150.3102050405474
 10
103.8115790213561
 20
-150.3102050405474
 10
104.0308593489923
 20
-150.3312201230075
 10
104.0308593489923
 20
-150.3312201230075
 10
104.0534247244206
 20
-150.3332871802986
 10
104.075990099849
 20
-150.3353542375897
 10
104.075990099849
 20
-150.3567138295983
 10
104.075990099849
 20
-150.3756618547672
 10
104.064793539522
 20
-150.3842745934803
 10
104.0286200369268
 20
-150.4052896759403
 10
104.0194905338909
 20
-150.6061387427304
 10
104.0804687239799
 20
-150.8497069935376
 10
104.1460977929739
 20
-150.9702853355213
 10
104.2432494856579
 20
-151.1456406957205
 10
104.451333252967
 20
-151.3254746800505
 10
104.5960272633475
 20
-151.3826632651057
 10
104.5960272633475
 20
-151.3826632651057
 10
104.4446153167708
 20
-151.5624972494357
 10
104.4446153167708
 20
-151.5624972494357
 97
        0
 97
        1
330
9B
 92
        1
 93
        1
 72
     4
 94
        3
 73
     0
 74
     0
 95
       17
 96
       13
 40
0.0
 40
0.0
 40
0.0
 40
0.0
 40
1.0
 40
1.0
 40
1.0
 40
2.0
 40
2.0
 40
2.0
 40
3.0
 40
3.0
 40
3.0
 40
4.0
 40
4.0
 40
4.0
 40
4.0
 10
103.2801730427563
 20
-150.6040716854393
 10
103.2801730427563
 20
-150.6040716854393
 10
103.1084350328166
 20
-150.6040716854393
 10
103.1084350328166
 20
-150.6040716854393
 10
103.1084350328166
 20
-150.6040716854393
 10
103.1084350328166
 20
-150.7332627661361
 10
103.1084350328166
 20
-150.7332627661361
 10
103.1084350328166
 20
-150.7332627661361
 10
103.2801730427563
 20
-150.7332627661361
 10
103.2801730427563
 20
-150.7332627661361
 10
103.2801730427563
 20
-150.7332627661361
 10
103.2801730427563
 20
-150.6040716854393
 10
103.2801730427563
 20
-150.6040716854393
 97
        0
 97
        1
330
9C
 92
        1
 93
        1
 72
     4
 94
        3
 73
     0
 74
     0
 95
       17
 96
       13
 40
0.0
 40
0.0
 40
0.0
 40
0.0
 40
1.0
 40
1.0
 40
1.0
 40
2.0
 40
2.0
 40
2.0
 40
3.0
 40
3.0
 40
3.0
 40
4.0
 40
4.0
 40
4.0
 40
4.0
 10
103.2801730427563
 20
-150.3312201230075
 10
103.2801730427563
 20
-150.3312201230075
 10
103.1084350328166
 20
-150.3312201230075
 10
103.1084350328166
 20
-150.3312201230075
 10
103.1084350328166
 20
-150.3312201230075
 10
103.1084350328166
 20
-150.4604112037043
 10
103.1084350328166
 20
-150.4604112037043
 10
103.1084350328166
 20
-150.4604112037043
 10
103.2801730427563
 20
-150.4604112037043
 10
103.2801730427563
 20
-150.4604112037043
 10
103.2801730427563
 20
-150.4604112037043
 10
103.2801730427563
 20
-150.3312201230075
 10
103.2801730427563
 20
-150.3312201230075
 97
        0
 97
        1
330
9D
 92
        1
 93
        1
 72
     4
 94
        3
 73
     0
 74
     0
 95
       17
 96
       13
 40
0.0
 40
0.0
 40
0.0
 40
0.0
 40
1.0
 40
1.0
 40
1.0
 40
2.0
 40
2.0
 40
2.0
 40
3.0
 40
3.0
 40
3.0
 40
4.0
 40
4.0
 40
4.0
 40
4.0
 10
102.9253282077756
 20
-150.6040716854393
 10
102.9253282077756
 20
-150.6040716854393
 10
102.755657255127
 20
-150.6040716854393
 10
102.755657255127
 20
-150.6040716854393
 10
102.755657255127
 20
-150.6040716854393
 10
102.755657255127
 20
-150.7332627661361
 10
102.755657255127
 20
-150.7332627661361
 10
102.755657255127
 20
-150.7332627661361
 10
102.9253282077756
 20
-150.7332627661361
 10
102.9253282077756
 20
-150.7332627661361
 10
102.9253282077756
 20
-150.7332627661361
 10
102.9253282077756
 20
-150.6040716854393
 10
102.9253282077756
 20
-150.6040716854393
 97
        0
 97
        1
330
9E
 92
        1
 93
        1
 72
     4
 94
        3
 73
     0
 74
     0
 95
       17
 96
       13
 40
0.0
 40
0.0
 40
0.0
 40
0.0
 40
1.0
 40
1.0
 40
1.0
 40
2.0
 40
2.0
 40
2.0
 40
3.0
 40
3.0
 40
3.0
 40
4.0
 40
4.0
 40
4.0
 40
4.0
 10
102.9253282077756
 20
-150.3312201230075
 10
102.9253282077756
 20
-150.3312201230075
 10
102.755657255127
 20
-150.3312201230075
 10
102.755657255127
 20
-150.3312201230075
 10
102.755657255127
 20
-150.3312201230075
 10
102.755657255127
 20
-150.4604112037043
 10
102.755657255127
 20
-150.4604112037043
 10
102.755657255127
 20
-150.4604112037043
 10
102.9253282077756
 20
-150.4604112037043
 10
102.9253282077756
 20
-150.4604112037043
 10
102.9253282077756
 20
-150.4604112037043
 10
102.9253282077756
 20
-150.3312201230075
 10
102.9253282077756
 20
-150.3312201230075
 97
        0
 97
        1
330
9F
 92
        1
 93
        1
 72
     4
 94
        3
 73
     0
 74
     0
 95
      197
 96
      193
 40
0.0
 40
0.0
 40
0.0
 40
0.0
 40
1.0
 40
1.0
 40
1.0
 40
2.0
 40
2.0
 40
2.0
 40
3.0
 40
3.0
 40
3.0
 40
4.0
 40
4.0
 40
4.0
 40
5.0
 40
5.0
 40
5.0
 40
6.0
 40
6.0
 40
6.0
 40
7.0
 40
7.0
 40
7.0
 40
8.0
 40
8.0
 40
8.0
 40
9.0
 40
9.0
 40
9.0
 40
10.0
 40
10.0
 40
10.0
 40
11.0
 40
11.0
 40
11.0
 40
12.0
 40
12.0
 40
12.0
 40
13.0
 40
13.0
 40
13.0
 40
14.0
 40
14.0
 40
14.0
 40
15.0
 40
15.0
 40
15.0
 40
16.0
 40
16.0
 40
16.0
 40
17.0
 40
17.0
 40
17.0
 40
18.0
 40
18.0
 40
18.0
 40
19.0
 40
19.0
 40
19.0
 40
20.0
 40
20.0
 40
20.0
 40
21.0
 40
21.0
 40
21.0
 40
22.0
 40
22.0
 40
22.0
 40
23.0
 40
23.0
 40
23.0
 40
24.0
 40
24.0
 40
24.0
 40
25.0
 40
25.0
 40
25.0
 40
26.0
 40
26.0
 40
26.0
 40
27.0
 40
27.0
 40
27.0
 40
28.0
 40
28.0
 40
28.0
 40
29.0
 40
29.0
 40
29.0
 40
30.0
 40
30.0
 40
30.0
 40
31.0
 40
31.0
 40
31.0
 40
32.0
 40
32.0
 40
32.0
 40
33.0
 40
33.0
 40
33.0
 40
34.0
 40
34.0
 40
34.0
 40
35.0
 40
35.0
 40
35.0
 40
36.0
 40
36.0
 40
36.0
 40
37.0
 40
37.0
 40
37.0
 40
38.0
 40
38.0
 40
38.0
 40
39.0
 40
39.0
 40
39.0
 40
40.0
 40
40.0
 40
40.0
 40
41.0
 40
41.0
 40
41.0
 40
42.0
 40
42.0
 40
42.0
 40
43.0
 40
43.0
 40
43.0
 40
44.0
 40
44.0
 40
44.0
 40
45.0
 40
45.0
 40
45.0
 40
46.0
 40
46.0
 40
46.0
 40
47.0
 40
47.0
 40
47.0
 40
48.0
 40
48.0
 40
48.0
 40
49.0
 40
49.0
 40
49.0
 40
50.0
 40
50.0
 40
50.0
 40
51.0
 40
51.0
 40
51.0
 40
52.0
 40
52.0
 40
52.0
 40
53.0
 40
53.0
 40
53.0
 40
54.0
 40
54.0
 40
54.0
 40
55.0
 40
55.0
 40
55.0
 40
56.0
 40
56.0
 40
56.0
 40
57.0
 40
57.0
 40
57.0
 40
58.0
 40
58.0
 40
58.0
 40
59.0
 40
59.0
 40
59.0
 40
60.0
 40
60.0
 40
60.0
 40
61.0
 40
61.0
 40
61.0
 40
62.0
 40
62.0
 40
62.0
 40
63.0
 40
63.0
 40
63.0
 40
64.0
 40
64.0
 40
64.0
 40
64.0
 10
104.5350490732586
 20
-150.2065076664414
 10
104.5236802581573
 20
-150.2361354876146
 10
104.4988755706635
 20
-150.2826442766654
 10
104.4875067555621
 20
-150.3102050405474
 10
104.4875067555621
 20
-150.3102050405474
 10
104.4218776865681
 20
-150.4624782609955
 10
104.4218776865681
 20
-150.4624782609955
 10
104.4106811262411
 20
-150.4879719675863
 10
104.3586601844138
 20
-150.599937570857
 10
104.345052057247
 20
-150.6233642201566
 10
104.3428127451816
 20
-150.6295653920301
 10
104.3383341210508
 20
-150.6381781307432
 10
104.3360948089854
 20
-150.6443793026167
 10
104.3360948089854
 20
-150.6443793026167
 10
104.1121636024442
 20
-150.5913248321438
 10
104.1121636024442
 20
-150.5913248321438
 10
104.1958794227357
 20
-150.4814262861644
 10
104.2613362369555
 20
-150.3460340335941
 10
104.2952704274852
 20
-150.2361354876146
 10
104.2952704274852
 20
-150.2361354876146
 10
103.7979708941894
 20
-150.2361354876146
 10
103.7979708941894
 20
-150.2361354876146
 10
103.7120157618324
 20
-150.401155561358
 10
103.6396687566421
 20
-150.4793592288732
 10
103.603495254047
 20
-150.5196668460506
 10
103.603495254047
 20
-150.5196668460506
 10
103.4724093708333
 20
-150.4538655222823
 10
103.4724093708333
 20
-150.4538655222823
 10
103.4724093708333
 20
-150.4538655222823
 10
103.4724093708333
 20
-150.6254312774478
 10
103.4724093708333
 20
-150.6254312774478
 10
103.4724093708333
 20
-150.7332627661361
 10
103.4746486828987
 20
-150.7818386124782
 10
103.486017498
 20
-150.8876030438753
 10
103.4090196139047
 20
-150.8855359865842
 10
103.3864542384763
 20
-150.8855359865842
 10
103.1671739108401
 20
-150.8855359865842
 10
103.1671739108401
 20
-150.8855359865842
 10
103.1084350328166
 20
-150.8855359865842
 10
103.1084350328166
 20
-150.8855359865842
 10
103.1084350328166
 20
-150.8855359865842
 10
103.1084350328166
 20
-151.0209282391545
 10
103.1084350328166
 20
-151.0209282391545
 10
103.1084350328166
 20
-151.0209282391545
 10
103.1852606621377
 20
-151.0209282391545
 10
103.1852606621377
 20
-151.0209282391545
 10
103.2553683552625
 20
-151.0209282391545
 10
103.4112589259701
 20
-151.0167941245722
 10
103.5244303126605
 20
-151.008181385859
 10
103.5244303126605
 20
-151.008181385859
 10
103.5244303126605
 20
-151.1859483128979
 10
103.5244303126605
 20
-151.1859483128979
 10
103.420388429006
 20
-151.1797471410245
 10
103.2508897311317
 20
-151.1752685168937
 10
103.1852606621377
 20
-151.1752685168937
 10
103.1852606621377
 20
-151.1752685168937
 10
103.1084350328166
 20
-151.1752685168937
 10
103.1084350328166
 20
-151.1752685168937
 10
103.110674344882
 20
-151.2641519804131
 10
103.1151529690129
 20
-151.5032416070894
 10
103.1173922810783
 20
-151.5773111600223
 10
103.1173922810783
 20
-151.5773111600223
 10
102.9025905775729
 20
-151.5773111600223
 10
102.9025905775729
 20
-151.5773111600223
 10
102.9161987047397
 20
-151.3637152399368
 10
102.9161987047397
 20
-151.3340874187637
 10
102.9206773288705
 20
-151.1752685168937
 10
102.9206773288705
 20
-151.1752685168937
 10
102.8460910116149
 20
-151.1752685168937
 10
102.8460910116149
 20
-151.1752685168937
 10
102.7851128215259
 20
-151.1752685168937
 10
102.6223320598479
 20
-151.1797471410245
 10
102.5046820490266
 20
-151.1859483128979
 10
102.5046820490266
 20
-151.1859483128979
 10
102.5046820490266
 20
-151.008181385859
 10
102.5046820490266
 20
-151.008181385859
 10
102.617853435717
 20
-151.0167941245722
 10
102.7715046943592
 20
-151.0209282391545
 10
102.8460910116149
 20
-151.0209282391545
 10
102.8460910116149
 20
-151.0209282391545
 10
102.9253282077756
 20
-151.0209282391545
 10
102.9253282077756
 20
-151.0209282391545
 10
102.9253282077756
 20
-151.0209282391545
 10
102.9253282077756
 20
-150.8855359865842
 10
102.9253282077756
 20
-150.8855359865842
 10
102.9253282077756
 20
-150.8855359865842
 10
102.8777858900791
 20
-150.8855359865842
 10
102.8777858900791
 20
-150.8855359865842
 10
102.796309381853
 20
-150.8855359865842
 10
102.5906371813836
 20
-150.8876030438753
 10
102.5544636787884
 20
-150.8876030438753
 10
102.5611816149847
 20
-150.8156005482336
 10
102.5703111180206
 20
-150.7353298234273
 10
102.5703111180206
 20
-150.6147514814435
 10
102.5703111180206
 20
-150.6147514814435
 10
102.5703111180206
 20
-150.4411186689869
 10
102.5703111180206
 20
-150.4411186689869
 10
102.5703111180206
 20
-150.3694606828937
 10
102.5611816149847
 20
-150.24888234091
 10
102.5544636787884
 20
-150.1682671065552
 10
102.63817949908
 20
-150.172745730686
 10
102.678831625806
 20
-150.1748127879771
 10
102.8143961331505
 20
-150.1748127879771
 10
102.8143961331505
 20
-150.1748127879771
 10
102.9253282077756
 20
-150.1748127879771
 10
102.9253282077756
 20
-150.1748127879771
 10
102.9253282077756
 20
-150.1748127879771
 10
102.9253282077756
 20
-150.0287407394025
 10
102.9253282077756
 20
-150.0287407394025
 10
102.9253282077756
 20
-150.0287407394025
 10
102.841612387484
 20
-150.0287407394025
 10
102.841612387484
 20
-150.0287407394025
 10
102.7828735094605
 20
-150.0287407394025
 10
102.5997666844195
 20
-150.0328748539848
 10
102.5093329279317
 20
-150.0394205354068
 10
102.5093329279317
 20
-150.0394205354068
 10
102.5093329279317
 20
-149.8616536083679
 10
102.5093329279317
 20
-149.8616536083679
 10
102.5973551175798
 20
-149.8678547802414
 10
102.7715046943592
 20
-149.8723334043722
 10
102.841612387484
 20
-149.8723334043722
 10
102.841612387484
 20
-149.8723334043722
 10
102.9253282077756
 20
-149.8723334043722
 10
102.9253282077756
 20
-149.8723334043722
 10
102.9253282077756
 20
-149.8382269590682
 10
102.9206773288705
 20
-149.683886681329
 10
102.9206773288705
 20
-149.6521918028647
 10
102.9206773288705
 20
-149.6521918028647
 10
103.131000408245
 20
-149.6690727707425
 10
103.131000408245
 20
-149.6690727707425
 10
103.1490871595426
 20
-149.6711398280336
 10
103.171652534971
 20
-149.6732068853247
 10
103.171652534971
 20
-149.6945664773333
 10
103.171652534971
 20
-149.7176486170844
 10
103.1490871595426
 20
-149.7262613557976
 10
103.1196315931437
 20
-149.739008209093
 10
103.1196315931437
 20
-149.760023291553
 10
103.1173922810783
 20
-149.8554524364945
 10
103.1173922810783
 20
-149.8723334043722
 10
103.1173922810783
 20
-149.8723334043722
 10
103.1807820380069
 20
-149.8723334043722
 10
103.1807820380069
 20
-149.8723334043722
 10
103.2531290431971
 20
-149.8723334043722
 10
103.4067803018392
 20
-149.8678547802414
 10
103.5197794337554
 20
-149.8616536083679
 10
103.5197794337554
 20
-149.8616536083679
 10
103.5197794337554
 20
-150.0394205354068
 10
103.5197794337554
 20
-150.0394205354068
 10
103.4159098048752
 20
-150.0328748539848
 10
103.248478164292
 20
-150.0287407394025
 10
103.1807820380069
 20
-150.0287407394025
 10
103.1807820380069
 20
-150.0287407394025
 10
103.1084350328166
 20
-150.0287407394025
 10
103.1084350328166
 20
-150.0287407394025
 10
103.1084350328166
 20
-150.0287407394025
 10
103.1084350328166
 20
-150.1748127879771
 10
103.1084350328166
 20
-150.1748127879771
 10
103.1084350328166
 20
-150.1748127879771
 10
103.1830213500723
 20
-150.1748127879771
 10
103.1830213500723
 20
-150.1748127879771
 10
103.3435627996849
 20
-150.1748127879771
 10
103.420388429006
 20
-150.1703341638463
 10
103.486017498
 20
-150.1682671065552
 10
103.4768879949641
 20
-150.2636962514966
 10
103.4746486828987
 20
-150.3418999190117
 10
103.4724093708333
 20
-150.3797959693495
 10
103.6374294445767
 20
-150.1682671065552
 10
103.7504285764929
 20
-149.9209092507142
 10
103.7685153277905
 20
-149.6583929747381
 10
103.7685153277905
 20
-149.6583929747381
 10
103.999164470528
 20
-149.7093803879199
 10
103.999164470528
 20
-149.7093803879199
 10
104.0150119097601
 20
-149.7135145025022
 10
104.0308593489923
 20
-149.7200601839241
 10
104.0308593489923
 20
-149.7369411518019
 10
104.0308593489923
 20
-149.7538221196796
 10
104.0262084700872
 20
-149.7558891769707
 10
103.9719482161945
 20
-149.7769042594307
 10
103.9538614648969
 20
-149.8530408696548
 10
103.9268174653377
 20
-149.9439913904654
 10
103.8747965235104
 20
-150.0711154138711
 10
103.8747965235104
 20
-150.0711154138711
 10
104.2365315494617
 20
-150.0711154138711
 10
104.2365315494617
 20
-150.0711154138711
 10
104.2771836761876
 20
-150.0711154138711
 10
104.4151597503719
 20
-150.0669812992888
 10
104.4671806921992
 20
-150.0604356178668
 10
104.4671806921992
 20
-150.0604356178668
 10
104.5665716969486
 20
-150.1303710562174
 10
104.5665716969486
 20
-150.1303710562174
 10
104.557614448687
 20
-150.1513861386774
 10
104.5507242577165
 20
-150.1703341638463
 10
104.5350490732586
 20
-150.2065076664414
 97
        0
 97
        1
330
A0
 75
     2
 76
     1
 98
        1
 10
0.0
 20
0.0
450
        0
451
        0
460
0.0
461
0.0
452
        0
462
0.0
453
        0
470

  0
SPLINE
  5
A2
330
97
100
AcDbEntity
  8
レイヤー 1
100
AcDbSpline
210
0.0
220
0.0
230
1.0
 70
     9
 71
     3
 72
    74
 73
    70
 74
     0
 42
0.0000000001
 43
0.0000000001
 40
0.0
 40
0.0
 40
0.0
 40
0.0
 40
1.0
 40
1.0
 40
1.0
 40
2.0
 40
2.0
 40
2.0
 40
3.0
 40
3.0
 40
3.0
 40
4.0
 40
4.0
 40
4.0
 40
5.0
 40
5.0
 40
5.0
 40
6.0
 40
6.0
 40
6.0
 40
7.0
 40
7.0
 40
7.0
 40
8.0
 40
8.0
 40
8.0
 40
9.0
 40
9.0
 40
9.0
 40
10.0
 40
10.0
 40
10.0
 40
11.0
 40
11.0
 40
11.0
 40
12.0
 40
12.0
 40
12.0
 40
13.0
 40
13.0
 40
13.0
 40
14.0
 40
14.0
 40
14.0
 40
15.0
 40
15.0
 40
15.0
 40
16.0
 40
16.0
 40
16.0
 40
17.0
 40
17.0
 40
17.0
 40
18.0
 40
18.0
 40
18.0
 40
19.0
 40
19.0
 40
19.0
 40
20.0
 40
20.0
 40
20.0
 40
21.0
 40
21.0
 40
21.0
 40
22.0
 40
22.0
 40
22.0
 40
23.0
 40
23.0
 40
23.0
 40
23.0
 10
106.6298393830647
 20
-150.1090114642089
 30
0.0
 10
106.6298393830647
 20
-150.1090114642089
 30
0.0
 10
106.4579291183508
 20
-150.1090114642089
 30
0.0
 10
106.4579291183508
 20
-150.1090114642089
 30
0.0
 10
106.4579291183508
 20
-150.1090114642089
 30
0.0
 10
106.4579291183508
 20
-150.2233886343191
 30
0.0
 10
106.4579291183508
 20
-150.2233886343191
 30
0.0
 10
106.4579291183508
 20
-150.2636962514966
 30
0.0
 10
106.4648193093213
 20
-150.3377658044295
 30
0.0
 10
106.4692979334521
 20
-150.3629150014718
 30
0.0
 10
106.4692979334521
 20
-150.3629150014718
 30
0.0
 10
106.2432996696197
 20
-150.3629150014718
 30
0.0
 10
106.2432996696197
 20
-150.3629150014718
 30
0.0
 10
106.254668484721
 20
-150.297458187252
 30
0.0
 10
106.2567355420122
 20
-150.2382025449057
 30
0.0
 10
106.2567355420122
 20
-150.2361354876146
 30
0.0
 10
106.2567355420122
 20
-150.2361354876146
 30
0.0
 10
106.2567355420122
 20
-150.1134900883397
 30
0.0
 10
106.2567355420122
 20
-150.1134900883397
 30
0.0
 10
106.2567355420122
 20
-150.1134900883397
 30
0.0
 10
106.0644992139352
 20
-150.1134900883397
 30
0.0
 10
106.0644992139352
 20
-150.1134900883397
 30
0.0
 10
106.0441731505723
 20
-150.172745730686
 30
0.0
 10
105.9945637755847
 20
-150.318473269712
 30
0.0
 10
105.8726073954068
 20
-150.401155561358
 30
0.0
 10
105.8726073954068
 20
-150.401155561358
 30
0.0
 10
105.7051757548237
 20
-150.2953911299609
 30
0.0
 10
105.7051757548237
 20
-150.2953911299609
 30
0.0
 10
105.7844129509844
 20
-150.24888234091
 30
0.0
 10
105.9087808980019
 20
-150.1748127879771
 30
0.0
 10
105.9087808980019
 20
-149.8530408696548
 30
0.0
 10
105.9087808980019
 20
-149.7982638514393
 30
0.0
 10
105.9039577643226
 20
-149.7538221196796
 30
0.0
 10
105.9018907070314
 20
-149.7155815597933
 30
0.0
 10
105.9831949604834
 20
-149.7241942985064
 30
0.0
 10
106.0624321566441
 20
-149.7303954703799
 30
0.0
 10
106.1303005377035
 20
-149.7303954703799
 30
0.0
 10
106.3201252989408
 20
-149.7303954703799
 30
0.0
 10
106.5326876903807
 20
-149.6711398280336
 30
0.0
 10
106.5981445046005
 20
-149.6415120068604
 30
0.0
 10
106.5981445046005
 20
-149.6415120068604
 30
0.0
 10
106.7338812667193
 20
-149.7769042594307
 30
0.0
 10
106.7338812667193
 20
-149.7769042594307
 30
0.0
 10
106.7383598908501
 20
-149.7813828835616
 30
0.0
 10
106.7407714576898
 20
-149.7896511127262
 30
0.0
 10
106.7407714576898
 20
-149.7961967941482
 30
0.0
 10
106.7407714576898
 20
-149.8172118766082
 30
0.0
 10
106.7249240184576
 20
-149.8234130484816
 30
0.0
 10
106.7066650123858
 20
-149.8234130484816
 30
0.0
 10
106.6842718917317
 20
-149.8234130484816
 30
0.0
 10
106.6684244524995
 20
-149.815144819317
 30
0.0
 10
106.6480983891366
 20
-149.8044650233128
 30
0.0
 10
106.4624077424816
 20
-149.8616536083679
 30
0.0
 10
106.2295192876787
 20
-149.8871473149588
 30
0.0
 10
106.0872368441379
 20
-149.8892143722499
 30
0.0
 10
106.0872368441379
 20
-149.8892143722499
 30
0.0
 10
106.0827582200071
 20
-149.9715521543474
 30
0.0
 10
106.0827582200071
 20
-149.9715521543474
 30
0.0
 10
106.0827582200071
 20
-149.9715521543474
 30
0.0
 10
106.3742132980592
 20
-149.9715521543474
 30
0.0
 10
106.3742132980592
 20
-149.9715521543474
 30
0.0
 10
106.4355359976967
 20
-149.9715521543474
 30
0.0
 10
106.7156222606475
 20
-149.9526041291785
 30
0.0
 10
106.7631645783439
 20
-149.9464029573051
 30
0.0
 10
106.7631645783439
 20
-149.9464029573051
 30
0.0
 10
106.7631645783439
 20
-150.1155571456308
 30
0.0
 10
106.7631645783439
 20
-150.1155571456308
 30
0.0
 10
106.7269910757488
 20
-150.1114230310485
 30
0.0
 10
106.7135552033563
 20
-150.1090114642089
 30
0.0
 10
106.6298393830647
 20
-150.1090114642089
 30
0.0
  0
SPLINE
  5
A3
330
97
100
AcDbEntity
  8
レイヤー 1
100
AcDbSpline
210
0.0
220
0.0
230
1.0
 70
    11
 71
     3
 72
    17
 73
    13
 74
     0
 42
0.0000000001
 43
0.0000000001
 40
0.0
 40
0.0
 40
0.0
 40
0.0
 40
1.0
 40
1.0
 40
1.0
 40
2.0
 40
2.0
 40
2.0
 40
3.0
 40
3.0
 40
3.0
 40
4.0
 40
4.0
 40
4.0
 40
4.0
 10
106.2908419873161
 20
-151.0526231176188
 30
0.0
 10
106.2908419873161
 20
-151.0526231176188
 30
0.0
 10
105.316224474539
 20
-151.0526231176188
 30
0.0
 10
105.316224474539
 20
-151.0526231176188
 30
0.0
 10
105.316224474539
 20
-151.0526231176188
 30
0.0
 10
105.316224474539
 20
-151.1604546063071
 30
0.0
 10
105.316224474539
 20
-151.1604546063071
 30
0.0
 10
105.316224474539
 20
-151.1604546063071
 30
0.0
 10
106.2908419873161
 20
-151.1604546063071
 30
0.0
 10
106.2908419873161
 20
-151.1604546063071
 30
0.0
 10
106.2908419873161
 20
-151.1604546063071
 30
0.0
 10
106.2908419873161
 20
-151.0526231176188
 30
0.0
 10
106.2908419873161
 20
-151.0526231176188
 30
0.0
  0
SPLINE
  5
A4
330
97
100
AcDbEntity
  8
レイヤー 1
100
AcDbSpline
210
0.0
220
0.0
230
1.0
 70
    11
 71
     3
 72
    17
 73
    13
 74
     0
 42
0.0000000001
 43
0.0000000001
 40
0.0
 40
0.0
 40
0.0
 40
0.0
 40
1.0
 40
1.0
 40
1.0
 40
2.0
 40
2.0
 40
2.0
 40
3.0
 40
3.0
 40
3.0
 40
4.0
 40
4.0
 40
4.0
 40
4.0
 10
106.2908419873161
 20
-150.807332319069
 30
0.0
 10
106.2908419873161
 20
-150.807332319069
 30
0.0
 10
105.316224474539
 20
-150.807332319069
 30
0.0
 10
105.316224474539
 20
-150.807332319069
 30
0.0
 10
105.316224474539
 20
-150.807332319069
 30
0.0
 10
105.316224474539
 20
-150.9172308650485
 30
0.0
 10
105.316224474539
 20
-150.9172308650485
 30
0.0
 10
105.316224474539
 20
-150.9172308650485
 30
0.0
 10
106.2908419873161
 20
-150.9172308650485
 30
0.0
 10
106.2908419873161
 20
-150.9172308650485
 30
0.0
 10
106.2908419873161
 20
-150.9172308650485
 30
0.0
 10
106.2908419873161
 20
-150.807332319069
 30
0.0
 10
106.2908419873161
 20
-150.807332319069
 30
0.0
  0
SPLINE
  5
A5
330
97
100
AcDbEntity
  8
レイヤー 1
100
AcDbSpline
210
0.0
220
0.0
230
1.0
 70
    11
 71
     3
 72
    17
 73
    13
 74
     0
 42
0.0000000001
 43
0.0000000001
 40
0.0
 40
0.0
 40
0.0
 40
0.0
 40
1.0
 40
1.0
 40
1.0
 40
2.0
 40
2.0
 40
2.0
 40
3.0
 40
3.0
 40
3.0
 40
4.0
 40
4.0
 40
4.0
 40
4.0
 10
106.2908419873161
 20
-150.5616970109707
 30
0.0
 10
106.2908419873161
 20
-150.5616970109707
 30
0.0
 10
105.316224474539
 20
-150.5616970109707
 30
0.0
 10
105.316224474539
 20
-150.5616970109707
 30
0.0
 10
105.316224474539
 20
-150.5616970109707
 30
0.0
 10
105.316224474539
 20
-150.6740071237898
 30
0.0
 10
105.316224474539
 20
-150.6740071237898
 30
0.0
 10
105.316224474539
 20
-150.6740071237898
 30
0.0
 10
106.2908419873161
 20
-150.6740071237898
 30
0.0
 10
106.2908419873161
 20
-150.6740071237898
 30
0.0
 10
106.2908419873161
 20
-150.6740071237898
 30
0.0
 10
106.2908419873161
 20
-150.5616970109707
 30
0.0
 10
106.2908419873161
 20
-150.5616970109707
 30
0.0
  0
SPLINE
  5
A6
330
97
100
AcDbEntity
  8
レイヤー 1
100
AcDbSpline
210
0.0
220
0.0
230
1.0
 70
     9
 71
     3
 72
    74
 73
    70
 74
     0
 42
0.0000000001
 43
0.0000000001
 40
0.0
 40
0.0
 40
0.0
 40
0.0
 40
1.0
 40
1.0
 40
1.0
 40
2.0
 40
2.0
 40
2.0
 40
3.0
 40
3.0
 40
3.0
 40
4.0
 40
4.0
 40
4.0
 40
5.0
 40
5.0
 40
5.0
 40
6.0
 40
6.0
 40
6.0
 40
7.0
 40
7.0
 40
7.0
 40
8.0
 40
8.0
 40
8.0
 40
9.0
 40
9.0
 40
9.0
 40
10.0
 40
10.0
 40
10.0
 40
11.0
 40
11.0
 40
11.0
 40
12.0
 40
12.0
 40
12.0
 40
13.0
 40
13.0
 40
13.0
 40
14.0
 40
14.0
 40
14.0
 40
15.0
 40
15.0
 40
15.0
 40
16.0
 40
16.0
 40
16.0
 40
17.0
 40
17.0
 40
17.0
 40
18.0
 40
18.0
 40
18.0
 40
19.0
 40
19.0
 40
19.0
 40
20.0
 40
20.0
 40
20.0
 40
21.0
 40
21.0
 40
21.0
 40
22.0
 40
22.0
 40
22.0
 40
23.0
 40
23.0
 40
23.0
 40
23.0
 10
106.6164035106723
 20
-151.5962591851912
 30
0.0
 10
106.3879936800002
 20
-151.5859238987355
 30
0.0
 10
106.1730197217206
 20
-151.4991074925071
 30
0.0
 10
105.985606527323
 20
-151.3785291505234
 30
0.0
 10
105.985606527323
 20
-151.3785291505234
 30
0.0
 10
106.0896484109776
 20
-151.2917127442951
 30
0.0
 10
106.0896484109776
 20
-151.2917127442951
 30
0.0
 10
106.0896484109776
 20
-151.2917127442951
 30
0.0
 10
105.4995035543543
 20
-151.2917127442951
 30
0.0
 10
105.4995035543543
 20
-151.2917127442951
 30
0.0
 10
105.4995035543543
 20
-151.2917127442951
 30
0.0
 10
105.585286431937
 20
-151.3551025012237
 30
0.0
 10
105.585286431937
 20
-151.3551025012237
 30
0.0
 10
105.5921766229075
 20
-151.3595811253545
 30
0.0
 10
105.6035454380088
 20
-151.3699164118103
 30
0.0
 10
105.6035454380088
 20
-151.3847303223968
 30
0.0
 10
105.6035454380088
 20
-151.4250379395743
 30
0.0
 10
105.5243082418481
 20
-151.4184922581523
 30
0.0
 10
105.5084608026159
 20
-151.4164252008612
 30
0.0
 10
105.2619642206463
 20
-151.5562960775623
 30
0.0
 10
105.1083129620042
 20
-151.5879909560266
 30
0.0
 10
104.9975531421534
 20
-151.6048719239043
 30
0.0
 10
104.9975531421534
 20
-151.6048719239043
 30
0.0
 10
104.8595770679691
 20
-151.4271049968654
 30
0.0
 10
104.8595770679691
 20
-151.4271049968654
 30
0.0
 10
105.1241604012363
 20
-151.3954101184011
 30
0.0
 10
105.2326809090217
 20
-151.3489013293503
 30
0.0
 10
105.3275932896403
 20
-151.2958468588774
 30
0.0
 10
105.2485283482538
 20
-151.2979139161686
 30
0.0
 10
105.1263997133017
 20
-151.3003254830082
 30
0.0
 10
105.092465522772
 20
-151.3023925402994
 30
0.0
 10
105.1083129620042
 20
-151.2135090767799
 30
0.0
 10
105.1105522740696
 20
-151.0843179960831
 30
0.0
 10
105.1105522740696
 20
-151.0102484431502
 30
0.0
 10
105.1105522740696
 20
-151.0102484431502
 30
0.0
 10
105.1105522740696
 20
-150.7098361168364
 30
0.0
 10
105.1105522740696
 20
-150.7098361168364
 30
0.0
 10
105.1105522740696
 20
-150.6106173668612
 30
0.0
 10
105.1038343378733
 20
-150.5110541073375
 30
0.0
 10
105.092465522772
 20
-150.4139024146535
 30
0.0
 10
105.2009860305574
 20
-150.4201035865269
 30
0.0
 10
105.447482612527
 20
-150.4266492679489
 30
0.0
 10
105.5628933112829
 20
-150.4266492679489
 30
0.0
 10
105.5628933112829
 20
-150.4266492679489
 30
0.0
 10
106.0148898389476
 20
-150.4266492679489
 30
0.0
 10
106.0148898389476
 20
-150.4266492679489
 30
0.0
 10
106.1416693528048
 20
-150.4266492679489
 30
0.0
 10
106.1868001036616
 20
-150.4266492679489
 30
0.0
 10
106.274994548084
 20
-150.4221706438181
 30
0.0
 10
106.433124430857
 20
-150.4159694719446
 30
0.0
 10
106.4513834369288
 20
-150.4159694719446
 30
0.0
 10
106.5009928119164
 20
-150.4139024146535
 30
0.0
 10
106.4920355636547
 20
-150.4941731394598
 30
0.0
 10
106.4875569395239
 20
-150.6529920413298
 30
0.0
 10
106.4875569395239
 20
-150.7353298234273
 30
0.0
 10
106.4875569395239
 20
-150.7353298234273
 30
0.0
 10
106.4875569395239
 20
-151.0209282391545
 30
0.0
 10
106.4875569395239
 20
-151.0209282391545
 30
0.0
 10
106.4875569395239
 20
-151.0929307347962
 30
0.0
 10
106.4896239968151
 20
-151.2241888727842
 30
0.0
 10
106.5009928119164
 20
-151.3023925402994
 30
0.0
 10
106.4241671825953
 20
-151.2979139161686
 30
0.0
 10
106.2929090446073
 20
-151.2958468588774
 30
0.0
 10
106.2091932243157
 20
-151.2937798015863
 30
0.0
 10
106.3270154899113
 20
-151.3616481826457
 30
0.0
 10
106.4896239968151
 20
-151.4122910862789
 30
0.0
 10
106.7156222606475
 20
-151.4164252008612
 30
0.0
 10
106.7156222606475
 20
-151.4164252008612
 30
0.0
 10
106.6164035106723
 20
-151.5962591851912
 30
0.0
 10
106.6164035106723
 20
-151.5962591851912
 30
0.0
  0
SPLINE
  5
A7
330
97
100
AcDbEntity
  8
レイヤー 1
100
AcDbSpline
210
0.0
220
0.0
230
1.0
 70
    11
 71
     3
 72
    71
 73
    67
 74
     0
 42
0.0000000001
 43
0.0000000001
 40
0.0
 40
0.0
 40
0.0
 40
0.0
 40
1.0
 40
1.0
 40
1.0
 40
2.0
 40
2.0
 40
2.0
 40
3.0
 40
3.0
 40
3.0
 40
4.0
 40
4.0
 40
4.0
 40
5.0
 40
5.0
 40
5.0
 40
6.0
 40
6.0
 40
6.0
 40
7.0
 40
7.0
 40
7.0
 40
8.0
 40
8.0
 40
8.0
 40
9.0
 40
9.0
 40
9.0
 40
10.0
 40
10.0
 40
10.0
 40
11.0
 40
11.0
 40
11.0
 40
12.0
 40
12.0
 40
12.0
 40
13.0
 40
13.0
 40
13.0
 40
14.0
 40
14.0
 40
14.0
 40
15.0
 40
15.0
 40
15.0
 40
16.0
 40
16.0
 40
16.0
 40
17.0
 40
17.0
 40
17.0
 40
18.0
 40
18.0
 40
18.0
 40
19.0
 40
19.0
 40
19.0
 40
20.0
 40
20.0
 40
20.0
 40
21.0
 40
21.0
 40
21.0
 40
22.0
 40
22.0
 40
22.0
 40
22.0
 10
105.7210231940558
 20
-149.8299587299036
 30
0.0
 10
105.7051757548237
 20
-149.8299587299036
 30
0.0
 10
105.6917398824312
 20
-149.8258246153213
 30
0.0
 10
105.6645236280977
 20
-149.8172118766082
 30
0.0
 10
105.5129394267467
 20
-149.8637206656591
 30
0.0
 10
105.3275932896403
 20
-149.8806016335368
 30
0.0
 10
105.178420655129
 20
-149.8850802576676
 30
0.0
 10
105.178420655129
 20
-149.8850802576676
 30
0.0
 10
105.1761813430636
 20
-149.9736192116385
 30
0.0
 10
105.1761813430636
 20
-149.9736192116385
 30
0.0
 10
105.1761813430636
 20
-149.9736192116385
 30
0.0
 10
105.4542005487232
 20
-149.9736192116385
 30
0.0
 10
105.4542005487232
 20
-149.9736192116385
 30
0.0
 10
105.5108723694556
 20
-149.9736192116385
 30
0.0
 10
105.7051757548237
 20
-149.9653509824739
 30
0.0
 10
105.7527180725201
 20
-149.9588053010519
 30
0.0
 10
105.7527180725201
 20
-149.9588053010519
 30
0.0
 10
105.7527180725201
 20
-150.1196912602131
 30
0.0
 10
105.7527180725201
 20
-150.1196912602131
 30
0.0
 10
105.6938069397224
 20
-150.1134900883397
 30
0.0
 10
105.5604817444432
 20
-150.1114230310485
 30
0.0
 10
105.5198296177172
 20
-150.1134900883397
 30
0.0
 10
105.5198296177172
 20
-150.1134900883397
 30
0.0
 10
105.5198296177172
 20
-150.2233886343191
 30
0.0
 10
105.5198296177172
 20
-150.2233886343191
 30
0.0
 10
105.5198296177172
 20
-150.26989742337
 30
0.0
 10
105.5218966750084
 20
-150.3332871802986
 30
0.0
 10
105.5287868659789
 20
-150.3715277401849
 30
0.0
 10
105.5287868659789
 20
-150.3715277401849
 30
0.0
 10
105.3231146655095
 20
-150.3715277401849
 30
0.0
 10
105.3231146655095
 20
-150.3715277401849
 30
0.0
 10
105.3298326017057
 20
-150.3312201230075
 30
0.0
 10
105.3367227926762
 20
-150.24888234091
 30
0.0
 10
105.3367227926762
 20
-150.2340684303234
 30
0.0
 10
105.3367227926762
 20
-150.2340684303234
 30
0.0
 10
105.3367227926762
 20
-150.1134900883397
 30
0.0
 10
105.3367227926762
 20
-150.1134900883397
 30
0.0
 10
105.3367227926762
 20
-150.1134900883397
 30
0.0
 10
105.1603339038314
 20
-150.1134900883397
 30
0.0
 10
105.1603339038314
 20
-150.1134900883397
 30
0.0
 10
105.1150308982004
 20
-150.3332871802986
 30
0.0
 10
105.0562920201769
 20
-150.4139024146535
 30
0.0
 10
104.9432928882607
 20
-150.5131211646286
 30
0.0
 10
104.9432928882607
 20
-150.5131211646286
 30
0.0
 10
104.7646646873505
 20
-150.3990885040669
 30
0.0
 10
104.7646646873505
 20
-150.3990885040669
 30
0.0
 10
104.8325330684099
 20
-150.3501681481763
 30
0.0
 10
104.9930745180225
 20
-150.2382025449057
 30
0.0
 10
104.9930745180225
 20
-149.8892143722499
 30
0.0
 10
104.9930745180225
 20
-149.8065320806039
 30
0.0
 10
104.9839450149866
 20
-149.760023291553
 30
0.0
 10
104.974987766725
 20
-149.711447445211
 30
0.0
 10
105.1308783374325
 20
-149.7262613557976
 30
0.0
 10
105.1467257766647
 20
-149.7262613557976
 30
0.0
 10
105.1851385913252
 20
-149.7262613557976
 30
0.0
 10
105.3005492900811
 20
-149.7262613557976
 30
0.0
 10
105.4519612366578
 20
-149.7093803879199
 30
0.0
 10
105.6238715013718
 20
-149.6480576882824
 30
0.0
 10
105.6238715013718
 20
-149.6480576882824
 30
0.0
 10
105.7458278815496
 20
-149.7789713167219
 30
0.0
 10
105.7458278815496
 20
-149.7789713167219
 30
0.0
 10
105.7527180725201
 20
-149.7855169981439
 30
0.0
 10
105.757196696651
 20
-149.7937852273085
 30
0.0
 10
105.757196696651
 20
-149.8023979660216
 30
0.0
 10
105.757196696651
 20
-149.8258246153213
 30
0.0
 10
105.736870633288
 20
-149.8299587299036
 30
0.0
 10
105.7210231940558
 20
-149.8299587299036
 30
0.0
  0
HATCH
  5
A8
330
97
100
AcDbEntity
  8
レイヤー 1
 62
   250
420
  2299925
440
 33554687
100
AcDbHatch
 10
0.0
 20
0.0
 30
0.0
210
0.0
220
0.0
230
1.0
  2
SOLID
 70
     1
 71
     1
 91
        6
 92
        1
 93
        1
 72
     4
 94
        3
 73
     0
 74
     0
 95
       74
 96
       70
 40
0.0
 40
0.0
 40
0.0
 40
0.0
 40
1.0
 40
1.0
 40
1.0
 40
2.0
 40
2.0
 40
2.0
 40
3.0
 40
3.0
 40
3.0
 40
4.0
 40
4.0
 40
4.0
 40
5.0
 40
5.0
 40
5.0
 40
6.0
 40
6.0
 40
6.0
 40
7.0
 40
7.0
 40
7.0
 40
8.0
 40
8.0
 40
8.0
 40
9.0
 40
9.0
 40
9.0
 40
10.0
 40
10.0
 40
10.0
 40
11.0
 40
11.0
 40
11.0
 40
12.0
 40
12.0
 40
12.0
 40
13.0
 40
13.0
 40
13.0
 40
14.0
 40
14.0
 40
14.0
 40
15.0
 40
15.0
 40
15.0
 40
16.0
 40
16.0
 40
16.0
 40
17.0
 40
17.0
 40
17.0
 40
18.0
 40
18.0
 40
18.0
 40
19.0
 40
19.0
 40
19.0
 40
20.0
 40
20.0
 40
20.0
 40
21.0
 40
21.0
 40
21.0
 40
22.0
 40
22.0
 40
22.0
 40
23.0
 40
23.0
 40
23.0
 40
23.0
 10
106.6298393830647
 20
-150.1090114642089
 10
106.6298393830647
 20
-150.1090114642089
 10
106.4579291183508
 20
-150.1090114642089
 10
106.4579291183508
 20
-150.1090114642089
 10
106.4579291183508
 20
-150.1090114642089
 10
106.4579291183508
 20
-150.2233886343191
 10
106.4579291183508
 20
-150.2233886343191
 10
106.4579291183508
 20
-150.2636962514966
 10
106.4648193093213
 20
-150.3377658044295
 10
106.4692979334521
 20
-150.3629150014718
 10
106.4692979334521
 20
-150.3629150014718
 10
106.2432996696197
 20
-150.3629150014718
 10
106.2432996696197
 20
-150.3629150014718
 10
106.254668484721
 20
-150.297458187252
 10
106.2567355420122
 20
-150.2382025449057
 10
106.2567355420122
 20
-150.2361354876146
 10
106.2567355420122
 20
-150.2361354876146
 10
106.2567355420122
 20
-150.1134900883397
 10
106.2567355420122
 20
-150.1134900883397
 10
106.2567355420122
 20
-150.1134900883397
 10
106.0644992139352
 20
-150.1134900883397
 10
106.0644992139352
 20
-150.1134900883397
 10
106.0441731505723
 20
-150.172745730686
 10
105.9945637755847
 20
-150.318473269712
 10
105.8726073954068
 20
-150.401155561358
 10
105.8726073954068
 20
-150.401155561358
 10
105.7051757548237
 20
-150.2953911299609
 10
105.7051757548237
 20
-150.2953911299609
 10
105.7844129509844
 20
-150.24888234091
 10
105.9087808980019
 20
-150.1748127879771
 10
105.9087808980019
 20
-149.8530408696548
 10
105.9087808980019
 20
-149.7982638514393
 10
105.9039577643226
 20
-149.7538221196796
 10
105.9018907070314
 20
-149.7155815597933
 10
105.9831949604834
 20
-149.7241942985064
 10
106.0624321566441
 20
-149.7303954703799
 10
106.1303005377035
 20
-149.7303954703799
 10
106.3201252989408
 20
-149.7303954703799
 10
106.5326876903807
 20
-149.6711398280336
 10
106.5981445046005
 20
-149.6415120068604
 10
106.5981445046005
 20
-149.6415120068604
 10
106.7338812667193
 20
-149.7769042594307
 10
106.7338812667193
 20
-149.7769042594307
 10
106.7383598908501
 20
-149.7813828835616
 10
106.7407714576898
 20
-149.7896511127262
 10
106.7407714576898
 20
-149.7961967941482
 10
106.7407714576898
 20
-149.8172118766082
 10
106.7249240184576
 20
-149.8234130484816
 10
106.7066650123858
 20
-149.8234130484816
 10
106.6842718917317
 20
-149.8234130484816
 10
106.6684244524995
 20
-149.815144819317
 10
106.6480983891366
 20
-149.8044650233128
 10
106.4624077424816
 20
-149.8616536083679
 10
106.2295192876787
 20
-149.8871473149588
 10
106.0872368441379
 20
-149.8892143722499
 10
106.0872368441379
 20
-149.8892143722499
 10
106.0827582200071
 20
-149.9715521543474
 10
106.0827582200071
 20
-149.9715521543474
 10
106.0827582200071
 20
-149.9715521543474
 10
106.3742132980592
 20
-149.9715521543474
 10
106.3742132980592
 20
-149.9715521543474
 10
106.4355359976967
 20
-149.9715521543474
 10
106.7156222606475
 20
-149.9526041291785
 10
106.7631645783439
 20
-149.9464029573051
 10
106.7631645783439
 20
-149.9464029573051
 10
106.7631645783439
 20
-150.1155571456308
 10
106.7631645783439
 20
-150.1155571456308
 10
106.7269910757488
 20
-150.1114230310485
 10
106.7135552033563
 20
-150.1090114642089
 10
106.6298393830647
 20
-150.1090114642089
 97
        0
 97
        1
330
A2
 92
        1
 93
        1
 72
     4
 94
        3
 73
     0
 74
     0
 95
       17
 96
       13
 40
0.0
 40
0.0
 40
0.0
 40
0.0
 40
1.0
 40
1.0
 40
1.0
 40
2.0
 40
2.0
 40
2.0
 40
3.0
 40
3.0
 40
3.0
 40
4.0
 40
4.0
 40
4.0
 40
4.0
 10
106.2908419873161
 20
-151.0526231176188
 10
106.2908419873161
 20
-151.0526231176188
 10
105.316224474539
 20
-151.0526231176188
 10
105.316224474539
 20
-151.0526231176188
 10
105.316224474539
 20
-151.0526231176188
 10
105.316224474539
 20
-151.1604546063071
 10
105.316224474539
 20
-151.1604546063071
 10
105.316224474539
 20
-151.1604546063071
 10
106.2908419873161
 20
-151.1604546063071
 10
106.2908419873161
 20
-151.1604546063071
 10
106.2908419873161
 20
-151.1604546063071
 10
106.2908419873161
 20
-151.0526231176188
 10
106.2908419873161
 20
-151.0526231176188
 97
        0
 97
        1
330
A3
 92
        1
 93
        1
 72
     4
 94
        3
 73
     0
 74
     0
 95
       17
 96
       13
 40
0.0
 40
0.0
 40
0.0
 40
0.0
 40
1.0
 40
1.0
 40
1.0
 40
2.0
 40
2.0
 40
2.0
 40
3.0
 40
3.0
 40
3.0
 40
4.0
 40
4.0
 40
4.0
 40
4.0
 10
106.2908419873161
 20
-150.807332319069
 10
106.2908419873161
 20
-150.807332319069
 10
105.316224474539
 20
-150.807332319069
 10
105.316224474539
 20
-150.807332319069
 10
105.316224474539
 20
-150.807332319069
 10
105.316224474539
 20
-150.9172308650485
 10
105.316224474539
 20
-150.9172308650485
 10
105.316224474539
 20
-150.9172308650485
 10
106.2908419873161
 20
-150.9172308650485
 10
106.2908419873161
 20
-150.9172308650485
 10
106.2908419873161
 20
-150.9172308650485
 10
106.2908419873161
 20
-150.807332319069
 10
106.2908419873161
 20
-150.807332319069
 97
        0
 97
        1
330
A4
 92
        1
 93
        1
 72
     4
 94
        3
 73
     0
 74
     0
 95
       17
 96
       13
 40
0.0
 40
0.0
 40
0.0
 40
0.0
 40
1.0
 40
1.0
 40
1.0
 40
2.0
 40
2.0
 40
2.0
 40
3.0
 40
3.0
 40
3.0
 40
4.0
 40
4.0
 40
4.0
 40
4.0
 10
106.2908419873161
 20
-150.5616970109707
 10
106.2908419873161
 20
-150.5616970109707
 10
105.316224474539
 20
-150.5616970109707
 10
105.316224474539
 20
-150.5616970109707
 10
105.316224474539
 20
-150.5616970109707
 10
105.316224474539
 20
-150.6740071237898
 10
105.316224474539
 20
-150.6740071237898
 10
105.316224474539
 20
-150.6740071237898
 10
106.2908419873161
 20
-150.6740071237898
 10
106.2908419873161
 20
-150.6740071237898
 10
106.2908419873161
 20
-150.6740071237898
 10
106.2908419873161
 20
-150.5616970109707
 10
106.2908419873161
 20
-150.5616970109707
 97
        0
 97
        1
330
A5
 92
        1
 93
        1
 72
     4
 94
        3
 73
     0
 74
     0
 95
       74
 96
       70
 40
0.0
 40
0.0
 40
0.0
 40
0.0
 40
1.0
 40
1.0
 40
1.0
 40
2.0
 40
2.0
 40
2.0
 40
3.0
 40
3.0
 40
3.0
 40
4.0
 40
4.0
 40
4.0
 40
5.0
 40
5.0
 40
5.0
 40
6.0
 40
6.0
 40
6.0
 40
7.0
 40
7.0
 40
7.0
 40
8.0
 40
8.0
 40
8.0
 40
9.0
 40
9.0
 40
9.0
 40
10.0
 40
10.0
 40
10.0
 40
11.0
 40
11.0
 40
11.0
 40
12.0
 40
12.0
 40
12.0
 40
13.0
 40
13.0
 40
13.0
 40
14.0
 40
14.0
 40
14.0
 40
15.0
 40
15.0
 40
15.0
 40
16.0
 40
16.0
 40
16.0
 40
17.0
 40
17.0
 40
17.0
 40
18.0
 40
18.0
 40
18.0
 40
19.0
 40
19.0
 40
19.0
 40
20.0
 40
20.0
 40
20.0
 40
21.0
 40
21.0
 40
21.0
 40
22.0
 40
22.0
 40
22.0
 40
23.0
 40
23.0
 40
23.0
 40
23.0
 10
106.6164035106723
 20
-151.5962591851912
 10
106.3879936800002
 20
-151.5859238987355
 10
106.1730197217206
 20
-151.4991074925071
 10
105.985606527323
 20
-151.3785291505234
 10
105.985606527323
 20
-151.3785291505234
 10
106.0896484109776
 20
-151.2917127442951
 10
106.0896484109776
 20
-151.2917127442951
 10
106.0896484109776
 20
-151.2917127442951
 10
105.4995035543543
 20
-151.2917127442951
 10
105.4995035543543
 20
-151.2917127442951
 10
105.4995035543543
 20
-151.2917127442951
 10
105.585286431937
 20
-151.3551025012237
 10
105.585286431937
 20
-151.3551025012237
 10
105.5921766229075
 20
-151.3595811253545
 10
105.6035454380088
 20
-151.3699164118103
 10
105.6035454380088
 20
-151.3847303223968
 10
105.6035454380088
 20
-151.4250379395743
 10
105.5243082418481
 20
-151.4184922581523
 10
105.5084608026159
 20
-151.4164252008612
 10
105.2619642206463
 20
-151.5562960775623
 10
105.1083129620042
 20
-151.5879909560266
 10
104.9975531421534
 20
-151.6048719239043
 10
104.9975531421534
 20
-151.6048719239043
 10
104.8595770679691
 20
-151.4271049968654
 10
104.8595770679691
 20
-151.4271049968654
 10
105.1241604012363
 20
-151.3954101184011
 10
105.2326809090217
 20
-151.3489013293503
 10
105.3275932896403
 20
-151.2958468588774
 10
105.2485283482538
 20
-151.2979139161686
 10
105.1263997133017
 20
-151.3003254830082
 10
105.092465522772
 20
-151.3023925402994
 10
105.1083129620042
 20
-151.2135090767799
 10
105.1105522740696
 20
-151.0843179960831
 10
105.1105522740696
 20
-151.0102484431502
 10
105.1105522740696
 20
-151.0102484431502
 10
105.1105522740696
 20
-150.7098361168364
 10
105.1105522740696
 20
-150.7098361168364
 10
105.1105522740696
 20
-150.6106173668612
 10
105.1038343378733
 20
-150.5110541073375
 10
105.092465522772
 20
-150.4139024146535
 10
105.2009860305574
 20
-150.4201035865269
 10
105.447482612527
 20
-150.4266492679489
 10
105.5628933112829
 20
-150.4266492679489
 10
105.5628933112829
 20
-150.4266492679489
 10
106.0148898389476
 20
-150.4266492679489
 10
106.0148898389476
 20
-150.4266492679489
 10
106.1416693528048
 20
-150.4266492679489
 10
106.1868001036616
 20
-150.4266492679489
 10
106.274994548084
 20
-150.4221706438181
 10
106.433124430857
 20
-150.4159694719446
 10
106.4513834369288
 20
-150.4159694719446
 10
106.5009928119164
 20
-150.4139024146535
 10
106.4920355636547
 20
-150.4941731394598
 10
106.4875569395239
 20
-150.6529920413298
 10
106.4875569395239
 20
-150.7353298234273
 10
106.4875569395239
 20
-150.7353298234273
 10
106.4875569395239
 20
-151.0209282391545
 10
106.4875569395239
 20
-151.0209282391545
 10
106.4875569395239
 20
-151.0929307347962
 10
106.4896239968151
 20
-151.2241888727842
 10
106.5009928119164
 20
-151.3023925402994
 10
106.4241671825953
 20
-151.2979139161686
 10
106.2929090446073
 20
-151.2958468588774
 10
106.2091932243157
 20
-151.2937798015863
 10
106.3270154899113
 20
-151.3616481826457
 10
106.4896239968151
 20
-151.4122910862789
 10
106.7156222606475
 20
-151.4164252008612
 10
106.7156222606475
 20
-151.4164252008612
 10
106.6164035106723
 20
-151.5962591851912
 10
106.6164035106723
 20
-151.5962591851912
 97
        0
 97
        1
330
A6
 92
        1
 93
        1
 72
     4
 94
        3
 73
     0
 74
     0
 95
       71
 96
       67
 40
0.0
 40
0.0
 40
0.0
 40
0.0
 40
1.0
 40
1.0
 40
1.0
 40
2.0
 40
2.0
 40
2.0
 40
3.0
 40
3.0
 40
3.0
 40
4.0
 40
4.0
 40
4.0
 40
5.0
 40
5.0
 40
5.0
 40
6.0
 40
6.0
 40
6.0
 40
7.0
 40
7.0
 40
7.0
 40
8.0
 40
8.0
 40
8.0
 40
9.0
 40
9.0
 40
9.0
 40
10.0
 40
10.0
 40
10.0
 40
11.0
 40
11.0
 40
11.0
 40
12.0
 40
12.0
 40
12.0
 40
13.0
 40
13.0
 40
13.0
 40
14.0
 40
14.0
 40
14.0
 40
15.0
 40
15.0
 40
15.0
 40
16.0
 40
16.0
 40
16.0
 40
17.0
 40
17.0
 40
17.0
 40
18.0
 40
18.0
 40
18.0
 40
19.0
 40
19.0
 40
19.0
 40
20.0
 40
20.0
 40
20.0
 40
21.0
 40
21.0
 40
21.0
 40
22.0
 40
22.0
 40
22.0
 40
22.0
 10
105.7210231940558
 20
-149.8299587299036
 10
105.7051757548237
 20
-149.8299587299036
 10
105.6917398824312
 20
-149.8258246153213
 10
105.6645236280977
 20
-149.8172118766082
 10
105.5129394267467
 20
-149.8637206656591
 10
105.3275932896403
 20
-149.8806016335368
 10
105.178420655129
 20
-149.8850802576676
 10
105.178420655129
 20
-149.8850802576676
 10
105.1761813430636
 20
-149.9736192116385
 10
105.1761813430636
 20
-149.9736192116385
 10
105.1761813430636
 20
-149.9736192116385
 10
105.4542005487232
 20
-149.9736192116385
 10
105.4542005487232
 20
-149.9736192116385
 10
105.5108723694556
 20
-149.9736192116385
 10
105.7051757548237
 20
-149.9653509824739
 10
105.7527180725201
 20
-149.9588053010519
 10
105.7527180725201
 20
-149.9588053010519
 10
105.7527180725201
 20
-150.1196912602131
 10
105.7527180725201
 20
-150.1196912602131
 10
105.6938069397224
 20
-150.1134900883397
 10
105.5604817444432
 20
-150.1114230310485
 10
105.5198296177172
 20
-150.1134900883397
 10
105.5198296177172
 20
-150.1134900883397
 10
105.5198296177172
 20
-150.2233886343191
 10
105.5198296177172
 20
-150.2233886343191
 10
105.5198296177172
 20
-150.26989742337
 10
105.5218966750084
 20
-150.3332871802986
 10
105.5287868659789
 20
-150.3715277401849
 10
105.5287868659789
 20
-150.3715277401849
 10
105.3231146655095
 20
-150.3715277401849
 10
105.3231146655095
 20
-150.3715277401849
 10
105.3298326017057
 20
-150.3312201230075
 10
105.3367227926762
 20
-150.24888234091
 10
105.3367227926762
 20
-150.2340684303234
 10
105.3367227926762
 20
-150.2340684303234
 10
105.3367227926762
 20
-150.1134900883397
 10
105.3367227926762
 20
-150.1134900883397
 10
105.3367227926762
 20
-150.1134900883397
 10
105.1603339038314
 20
-150.1134900883397
 10
105.1603339038314
 20
-150.1134900883397
 10
105.1150308982004
 20
-150.3332871802986
 10
105.0562920201769
 20
-150.4139024146535
 10
104.9432928882607
 20
-150.5131211646286
 10
104.9432928882607
 20
-150.5131211646286
 10
104.7646646873505
 20
-150.3990885040669
 10
104.7646646873505
 20
-150.3990885040669
 10
104.8325330684099
 20
-150.3501681481763
 10
104.9930745180225
 20
-150.2382025449057
 10
104.9930745180225
 20
-149.8892143722499
 10
104.9930745180225
 20
-149.8065320806039
 10
104.9839450149866
 20
-149.760023291553
 10
104.974987766725
 20
-149.711447445211
 10
105.1308783374325
 20
-149.7262613557976
 10
105.1467257766647
 20
-149.7262613557976
 10
105.1851385913252
 20
-149.7262613557976
 10
105.3005492900811
 20
-149.7262613557976
 10
105.4519612366578
 20
-149.7093803879199
 10
105.6238715013718
 20
-149.6480576882824
 10
105.6238715013718
 20
-149.6480576882824
 10
105.7458278815496
 20
-149.7789713167219
 10
105.7458278815496
 20
-149.7789713167219
 10
105.7527180725201
 20
-149.7855169981439
 10
105.757196696651
 20
-149.7937852273085
 10
105.757196696651
 20
-149.8023979660216
 10
105.757196696651
 20
-149.8258246153213
 10
105.736870633288
 20
-149.8299587299036
 10
105.7210231940558
 20
-149.8299587299036
 97
        0
 97
        1
330
A7
 75
     2
 76
     1
 98
        1
 10
0.0
 20
0.0
450
        0
451
        0
460
0.0
461
0.0
452
        0
462
0.0
453
        0
470

  0
ENDBLK
  5
9A
330
97
100
AcDbEntity
  8
0
100
AcDbBlockEnd
  0
BLOCK
  5
AB
330
A9
100
AcDbEntity
  8
0
100
AcDbBlockBegin
  2
Block_3
 70
     0
 10
0.0
 20
0.0
 30
0.0
  3
Block_3
  1

  0
LINE
  5
AD
330
A9
100
AcDbEntity
  8
レイヤー 1
 62
   250
420
  2299925
370
     9
100
AcDbLine
 10
97.10210431729743
 20
-135.2758098697107
 30
0.0
 11
75.10224765633863
 21
-135.2758098697107
 31
0.0
  0
LINE
  5
AE
330
A9
100
AcDbEntity
  8
レイヤー 1
 62
   250
420
  2299925
370
     9
100
AcDbLine
 10
97.10210431729743
 20
-136.7358512213511
 30
0.0
 11
97.10210431729743
 21
-134.2760376729951
 31
0.0
  0
LINE
  5
AF
330
A9
100
AcDbEntity
  8
レイヤー 1
 62
   250
420
  2299925
370
     9
100
AcDbLine
 10
75.10224765633863
 20
-136.7358512213511
 30
0.0
 11
75.10224765633863
 21
-134.2760376729951
 31
0.0
  0
INSERT
  5
B1
330
A9
100
AcDbEntity
  8
レイヤー 1
100
AcDbBlockReference
  2
Block_4
 10
0.0
 20
0.0
 30
0.0
  0
SPLINE
  5
BC
330
A9
100
AcDbEntity
  8
レイヤー 1
 62
   250
420
  2299925
370
     9
100
AcDbSpline
210
0.0
220
0.0
230
1.0
 70
     9
 71
     3
 72
    17
 73
    13
 74
     0
 42
0.0000000001
 43
0.0000000001
 40
0.0
 40
0.0
 40
0.0
 40
0.0
 40
1.0
 40
1.0
 40
1.0
 40
2.0
 40
2.0
 40
2.0
 40
3.0
 40
3.0
 40
3.0
 40
4.0
 40
4.0
 40
4.0
 40
4.0
 10
75.13738432210857
 20
-135.2758098697107
 30
0.0
 10
75.13738432210857
 20
-135.2951068136632
 30
0.0
 10
75.12150932251357
 20
-135.3109411243439
 30
0.0
 10
75.10224765633863
 20
-135.3109411243439
 30
0.0
 10
75.08224515684862
 20
-135.3109411243439
 30
0.0
 10
75.06640804752334
 20
-135.2951068136632
 30
0.0
 10
75.06640804752334
 20
-135.2758098697107
 30
0.0
 10
75.06640804752334
 20
-135.2565129257592
 30
0.0
 10
75.08224515684862
 20
-135.2406732039408
 30
0.0
 10
75.10224765633863
 20
-135.2406732039408
 30
0.0
 10
75.12150932251357
 20
-135.2406732039408
 30
0.0
 10
75.13738432210857
 20
-135.2565129257592
 30
0.0
 10
75.13738432210857
 20
-135.2758098697107
 30
0.0
  0
ENDBLK
  5
AC
330
A9
100
AcDbEntity
  8
0
100
AcDbBlockEnd
  0
BLOCK
  5
B2
330
B0
100
AcDbEntity
  8
0
100
AcDbBlockBegin
  2
Block_4
 70
     0
 10
0.0
 20
0.0
 30
0.0
  3
Block_4
  1

  0
INSERT
  5
B5
330
B0
100
AcDbEntity
  8
レイヤー 1
100
AcDbBlockReference
  2
Block_5
 10
0.0
 20
0.0
 30
0.0
  0
ENDBLK
  5
B3
330
B0
100
AcDbEntity
  8
0
100
AcDbBlockEnd
  0
BLOCK
  5
B6
330
B4
100
AcDbEntity
  8
0
100
AcDbBlockBegin
  2
Block_5
 70
     0
 10
0.0
 20
0.0
 30
0.0
  3
Block_5
  1

  0
SPLINE
  5
B8
330
B4
100
AcDbEntity
  8
レイヤー 1
100
AcDbSpline
210
0.0
220
0.0
230
1.0
 70
     9
 71
     3
 72
    44
 73
    40
 74
     0
 42
0.0000000001
 43
0.0000000001
 40
0.0
 40
0.0
 40
0.0
 40
0.0
 40
1.0
 40
1.0
 40
1.0
 40
2.0
 40
2.0
 40
2.0
 40
3.0
 40
3.0
 40
3.0
 40
4.0
 40
4.0
 40
4.0
 40
5.0
 40
5.0
 40
5.0
 40
6.0
 40
6.0
 40
6.0
 40
7.0
 40
7.0
 40
7.0
 40
8.0
 40
8.0
 40
8.0
 40
9.0
 40
9.0
 40
9.0
 40
10.0
 40
10.0
 40
10.0
 40
11.0
 40
11.0
 40
11.0
 40
12.0
 40
12.0
 40
12.0
 40
13.0
 40
13.0
 40
13.0
 40
13.0
 10
85.57152097470087
 20
-134.3213446387287
 30
0.0
 10
85.33863251989798
 20
-134.4799912858244
 30
0.0
 10
85.23924151514853
 20
-134.5540608387573
 30
0.0
 10
85.18722057332125
 20
-134.6978935752665
 30
0.0
 10
85.18722057332125
 20
-134.6978935752665
 30
0.0
 10
86.01921113300909
 20
-134.6978935752665
 30
0.0
 10
86.01921113300909
 20
-134.6978935752665
 30
0.0
 10
86.01921113300909
 20
-134.6978935752665
 30
0.0
 10
86.01921113300909
 20
-134.9030490114131
 30
0.0
 10
86.01921113300909
 20
-134.9030490114131
 30
0.0
 10
86.01921113300909
 20
-134.9030490114131
 30
0.0
 10
84.92039792798866
 20
-134.9030490114131
 30
0.0
 10
84.92039792798866
 20
-134.9030490114131
 30
0.0
 10
84.95433211851837
 20
-134.5456203548184
 30
0.0
 10
85.0244398116432
 20
-134.467244432529
 30
0.0
 10
85.43578421258203
 20
-134.1690714182806
 30
0.0
 10
85.70949704888512
 20
-133.9701171540075
 30
0.0
 10
85.77943248723569
 20
-133.9024210277223
 30
0.0
 10
85.77943248723569
 20
-133.7649617178608
 30
0.0
 10
85.77943248723569
 20
-133.6464504331682
 30
0.0
 10
85.70260685791463
 20
-133.5153645499545
 30
0.0
 10
85.49245603331439
 20
-133.5153645499545
 30
0.0
 10
85.21426457288047
 20
-133.5153645499545
 30
0.0
 10
85.20530732461882
 20
-133.7458414379177
 30
0.0
 10
85.20065644571372
 20
-133.8622856653191
 30
0.0
 10
85.20065644571372
 20
-133.8622856653191
 30
0.0
 10
84.96105005471461
 20
-133.8622856653191
 30
0.0
 10
84.96105005471461
 20
-133.8622856653191
 30
0.0
 10
84.97017955775051
 20
-133.7353338966877
 30
0.0
 10
84.98137611807758
 20
-133.6231960386428
 30
0.0
 10
85.06733125043457
 20
-133.5046847539502
 30
0.0
 10
85.18498126125583
 20
-133.3439710495633
 30
0.0
 10
85.38393552552902
 20
-133.3100368590336
 30
0.0
 10
85.50813121777228
 20
-133.3100368590336
 30
0.0
 10
85.80440942950376
 20
-133.3100368590336
 30
0.0
 10
86.02592906920532
 20
-133.4941772127202
 30
0.0
 10
86.02592906920532
 20
-133.767028775152
 30
0.0
 10
86.02592906920532
 20
-133.9956108605983
 30
0.0
 10
85.90156112218782
 20
-134.0950018653478
 30
0.0
 10
85.57152097470087
 20
-134.3213446387287
 30
0.0
  0
HATCH
  5
B9
330
B4
100
AcDbEntity
  8
レイヤー 1
 62
   250
420
  2299925
440
 33554687
100
AcDbHatch
 10
0.0
 20
0.0
 30
0.0
210
0.0
220
0.0
230
1.0
  2
SOLID
 70
     1
 71
     1
 91
        1
 92
        1
 93
        1
 72
     4
 94
        3
 73
     0
 74
     0
 95
       44
 96
       40
 40
0.0
 40
0.0
 40
0.0
 40
0.0
 40
1.0
 40
1.0
 40
1.0
 40
2.0
 40
2.0
 40
2.0
 40
3.0
 40
3.0
 40
3.0
 40
4.0
 40
4.0
 40
4.0
 40
5.0
 40
5.0
 40
5.0
 40
6.0
 40
6.0
 40
6.0
 40
7.0
 40
7.0
 40
7.0
 40
8.0
 40
8.0
 40
8.0
 40
9.0
 40
9.0
 40
9.0
 40
10.0
 40
10.0
 40
10.0
 40
11.0
 40
11.0
 40
11.0
 40
12.0
 40
12.0
 40
12.0
 40
13.0
 40
13.0
 40
13.0
 40
13.0
 10
85.57152097470087
 20
-134.3213446387287
 10
85.33863251989798
 20
-134.4799912858244
 10
85.23924151514853
 20
-134.5540608387573
 10
85.18722057332125
 20
-134.6978935752665
 10
85.18722057332125
 20
-134.6978935752665
 10
86.01921113300909
 20
-134.6978935752665
 10
86.01921113300909
 20
-134.6978935752665
 10
86.01921113300909
 20
-134.6978935752665
 10
86.01921113300909
 20
-134.9030490114131
 10
86.01921113300909
 20
-134.9030490114131
 10
86.01921113300909
 20
-134.9030490114131
 10
84.92039792798866
 20
-134.9030490114131
 10
84.92039792798866
 20
-134.9030490114131
 10
84.95433211851837
 20
-134.5456203548184
 10
85.0244398116432
 20
-134.467244432529
 10
85.43578421258203
 20
-134.1690714182806
 10
85.70949704888512
 20
-133.9701171540075
 10
85.77943248723569
 20
-133.9024210277223
 10
85.77943248723569
 20
-133.7649617178608
 10
85.77943248723569
 20
-133.6464504331682
 10
85.70260685791463
 20
-133.5153645499545
 10
85.49245603331439
 20
-133.5153645499545
 10
85.21426457288047
 20
-133.5153645499545
 10
85.20530732461882
 20
-133.7458414379177
 10
85.20065644571372
 20
-133.8622856653191
 10
85.20065644571372
 20
-133.8622856653191
 10
84.96105005471461
 20
-133.8622856653191
 10
84.96105005471461
 20
-133.8622856653191
 10
84.97017955775051
 20
-133.7353338966877
 10
84.98137611807758
 20
-133.6231960386428
 10
85.06733125043457
 20
-133.5046847539502
 10
85.18498126125583
 20
-133.3439710495633
 10
85.38393552552902
 20
-133.3100368590336
 10
85.50813121777228
 20
-133.3100368590336
 10
85.80440942950376
 20
-133.3100368590336
 10
86.02592906920532
 20
-133.4941772127202
 10
86.02592906920532
 20
-133.767028775152
 10
86.02592906920532
 20
-133.9956108605983
 10
85.90156112218782
 20
-134.0950018653478
 10
85.57152097470087
 20
-134.3213446387287
 97
        0
 97
        1
330
B8
 75
     2
 76
     1
 98
        1
 10
0.0
 20
0.0
450
        0
451
        0
460
0.0
461
0.0
452
        0
462
0.0
453
        0
470

  0
SPLINE
  5
BA
330
B4
100
AcDbEntity
  8
レイヤー 1
100
AcDbSpline
210
0.0
220
0.0
230
1.0
 70
     9
 71
     3
 72
    44
 73
    40
 74
     0
 42
0.0000000001
 43
0.0000000001
 40
0.0
 40
0.0
 40
0.0
 40
0.0
 40
1.0
 40
1.0
 40
1.0
 40
2.0
 40
2.0
 40
2.0
 40
3.0
 40
3.0
 40
3.0
 40
4.0
 40
4.0
 40
4.0
 40
5.0
 40
5.0
 40
5.0
 40
6.0
 40
6.0
 40
6.0
 40
7.0
 40
7.0
 40
7.0
 40
8.0
 40
8.0
 40
8.0
 40
9.0
 40
9.0
 40
9.0
 40
10.0
 40
10.0
 40
10.0
 40
11.0
 40
11.0
 40
11.0
 40
12.0
 40
12.0
 40
12.0
 40
13.0
 40
13.0
 40
13.0
 40
13.0
 10
86.82932533636558
 20
-134.3213446387287
 30
0.0
 10
86.5964368815627
 20
-134.4799912858244
 30
0.0
 10
86.49687362203897
 20
-134.5540608387573
 30
0.0
 10
86.44502493498597
 20
-134.6978935752665
 30
0.0
 10
86.44502493498597
 20
-134.6978935752665
 30
0.0
 10
87.27701549467381
 20
-134.6978935752665
 30
0.0
 10
87.27701549467381
 20
-134.6978935752665
 30
0.0
 10
87.27701549467381
 20
-134.6978935752665
 30
0.0
 10
87.27701549467381
 20
-134.9030490114131
 30
0.0
 10
87.27701549467381
 20
-134.9030490114131
 30
0.0
 10
87.27701549467381
 20
-134.9030490114131
 30
0.0
 10
86.17820228965337
 20
-134.9030490114131
 30
0.0
 10
86.17820228965337
 20
-134.9030490114131
 30
0.0
 10
86.21213648018308
 20
-134.5456203548184
 30
0.0
 10
86.28207191853364
 20
-134.467244432529
 30
0.0
 10
86.69358857424674
 20
-134.1690714182806
 30
0.0
 10
86.96712915577558
 20
-133.9701171540075
 30
0.0
 10
87.03723684890041
 20
-133.9024210277223
 30
0.0
 10
87.03723684890041
 20
-133.7649617178608
 30
0.0
 10
87.03723684890041
 20
-133.6464504331682
 30
0.0
 10
86.96041121957934
 20
-133.5153645499545
 30
0.0
 10
86.75008814020484
 20
-133.5153645499545
 30
0.0
 10
86.47206893454518
 20
-133.5153645499545
 30
0.0
 10
86.46293943150928
 20
-133.7458414379177
 30
0.0
 10
86.45846080737845
 20
-133.8622856653191
 30
0.0
 10
86.45846080737845
 20
-133.8622856653191
 30
0.0
 10
86.21885441637932
 20
-133.8622856653191
 30
0.0
 10
86.21885441637932
 20
-133.8622856653191
 30
0.0
 10
86.22798391941522
 20
-133.7353338966877
 30
0.0
 10
86.23918047974228
 20
-133.6231960386428
 30
0.0
 10
86.32513561209927
 20
-133.5046847539502
 30
0.0
 10
86.44261336814629
 20
-133.3439710495633
 30
0.0
 10
86.64156763241946
 20
-133.3100368590336
 30
0.0
 10
86.765935579437
 20
-133.3100368590336
 30
0.0
 10
87.06221379116847
 20
-133.3100368590336
 30
0.0
 10
87.28373343087005
 20
-133.4941772127202
 30
0.0
 10
87.28373343087005
 20
-133.767028775152
 30
0.0
 10
87.28373343087005
 20
-133.9956108605983
 30
0.0
 10
87.15936548385252
 20
-134.0950018653478
 30
0.0
 10
86.82932533636558
 20
-134.3213446387287
 30
0.0
  0
HATCH
  5
BB
330
B4
100
AcDbEntity
  8
レイヤー 1
 62
   250
420
  2299925
440
 33554687
100
AcDbHatch
 10
0.0
 20
0.0
 30
0.0
210
0.0
220
0.0
230
1.0
  2
SOLID
 70
     1
 71
     1
 91
        1
 92
        1
 93
        1
 72
     4
 94
        3
 73
     0
 74
     0
 95
       44
 96
       40
 40
0.0
 40
0.0
 40
0.0
 40
0.0
 40
1.0
 40
1.0
 40
1.0
 40
2.0
 40
2.0
 40
2.0
 40
3.0
 40
3.0
 40
3.0
 40
4.0
 40
4.0
 40
4.0
 40
5.0
 40
5.0
 40
5.0
 40
6.0
 40
6.0
 40
6.0
 40
7.0
 40
7.0
 40
7.0
 40
8.0
 40
8.0
 40
8.0
 40
9.0
 40
9.0
 40
9.0
 40
10.0
 40
10.0
 40
10.0
 40
11.0
 40
11.0
 40
11.0
 40
12.0
 40
12.0
 40
12.0
 40
13.0
 40
13.0
 40
13.0
 40
13.0
 10
86.82932533636558
 20
-134.3213446387287
 10
86.5964368815627
 20
-134.4799912858244
 10
86.49687362203897
 20
-134.5540608387573
 10
86.44502493498597
 20
-134.6978935752665
 10
86.44502493498597
 20
-134.6978935752665
 10
87.27701549467381
 20
-134.6978935752665
 10
87.27701549467381
 20
-134.6978935752665
 10
87.27701549467381
 20
-134.6978935752665
 10
87.27701549467381
 20
-134.9030490114131
 10
87.27701549467381
 20
-134.9030490114131
 10
87.27701549467381
 20
-134.9030490114131
 10
86.17820228965337
 20
-134.9030490114131
 10
86.17820228965337
 20
-134.9030490114131
 10
86.21213648018308
 20
-134.5456203548184
 10
86.28207191853364
 20
-134.467244432529
 10
86.69358857424674
 20
-134.1690714182806
 10
86.96712915577558
 20
-133.9701171540075
 10
87.03723684890041
 20
-133.9024210277223
 10
87.03723684890041
 20
-133.7649617178608
 10
87.03723684890041
 20
-133.6464504331682
 10
86.96041121957934
 20
-133.5153645499545
 10
86.75008814020484
 20
-133.5153645499545
 10
86.47206893454518
 20
-133.5153645499545
 10
86.46293943150928
 20
-133.7458414379177
 10
86.45846080737845
 20
-133.8622856653191
 10
86.45846080737845
 20
-133.8622856653191
 10
86.21885441637932
 20
-133.8622856653191
 10
86.21885441637932
 20
-133.8622856653191
 10
86.22798391941522
 20
-133.7353338966877
 10
86.23918047974228
 20
-133.6231960386428
 10
86.32513561209927
 20
-133.5046847539502
 10
86.44261336814629
 20
-133.3439710495633
 10
86.64156763241946
 20
-133.3100368590336
 10
86.765935579437
 20
-133.3100368590336
 10
87.06221379116847
 20
-133.3100368590336
 10
87.28373343087005
 20
-133.4941772127202
 10
87.28373343087005
 20
-133.767028775152
 10
87.28373343087005
 20
-133.9956108605983
 10
87.15936548385252
 20
-134.0950018653478
 10
86.82932533636558
 20
-134.3213446387287
 97
        0
 97
        1
330
BA
 75
     2
 76
     1
 98
        1
 10
0.0
 20
0.0
450
        0
451
        0
460
0.0
461
0.0
452
        0
462
0.0
453
        0
470

  0
ENDBLK
  5
B7
330
B4
100
AcDbEntity
  8
0
100
AcDbBlockEnd
  0
BLOCK
  5
BF
330
BD
100
AcDbEntity
  8
0
100
AcDbBlockBegin
  2
Block_6
 70
     0
 10
0.0
 20
0.0
 30
0.0
  3
Block_6
  1

  0
LINE
  5
C1
330
BD
100
AcDbEntity
  8
レイヤー 1
 62
   250
420
  2299925
370
     9
100
AcDbLine
 10
97.10210431729743
 20
-135.2758098697107
 30
0.0
 11
107.102510817292
 21
-135.2758098697107
 31
0.0
  0
LINE
  5
C2
330
BD
100
AcDbEntity
  8
レイヤー 1
 62
   250
420
  2299925
370
     9
100
AcDbLine
 10
107.102510817292
 20
-136.7358512213511
 30
0.0
 11
107.102510817292
 21
-134.2760376729951
 31
0.0
  0
INSERT
  5
C4
330
BD
100
AcDbEntity
  8
レイヤー 1
100
AcDbBlockReference
  2
Block_7
 10
0.0
 20
0.0
 30
0.0
  0
SPLINE
  5
D0
330
BD
100
AcDbEntity
  8
レイヤー 1
 62
   250
420
  2299925
370
     9
100
AcDbSpline
210
0.0
220
0.0
230
1.0
 70
     9
 71
     3
 72
    17
 73
    13
 74
     0
 42
0.0000000001
 43
0.0000000001
 40
0.0
 40
0.0
 40
0.0
 40
0.0
 40
1.0
 40
1.0
 40
1.0
 40
2.0
 40
2.0
 40
2.0
 40
3.0
 40
3.0
 40
3.0
 40
4.0
 40
4.0
 40
4.0
 40
4.0
 10
107.1376440612695
 20
-135.2758098697107
 30
0.0
 10
107.1376440612695
 20
-135.2951068136632
 30
0.0
 10
107.1218043394513
 20
-135.3109411243439
 30
0.0
 10
107.102510817292
 20
-135.3109411243439
 30
0.0
 10
107.0825401737864
 20
-135.3109411243439
 30
0.0
 10
107.0667004519683
 20
-135.2951068136632
 30
0.0
 10
107.0667004519683
 20
-135.2758098697107
 30
0.0
 10
107.0667004519683
 20
-135.2565129257592
 30
0.0
 10
107.0825401737864
 20
-135.2406732039408
 30
0.0
 10
107.102510817292
 20
-135.2406732039408
 30
0.0
 10
107.1218043394513
 20
-135.2406732039408
 30
0.0
 10
107.1376440612695
 20
-135.2565129257592
 30
0.0
 10
107.1376440612695
 20
-135.2758098697107
 30
0.0
  0
ENDBLK
  5
C0
330
BD
100
AcDbEntity
  8
0
100
AcDbBlockEnd
  0
BLOCK
  5
C5
330
C3
100
AcDbEntity
  8
0
100
AcDbBlockBegin
  2
Block_7
 70
     0
 10
0.0
 20
0.0
 30
0.0
  3
Block_7
  1

  0
INSERT
  5
C8
330
C3
100
AcDbEntity
  8
レイヤー 1
100
AcDbBlockReference
  2
Block_8
 10
0.0
 20
0.0
 30
0.0
  0
ENDBLK
  5
C6
330
C3
100
AcDbEntity
  8
0
100
AcDbBlockEnd
  0
BLOCK
  5
C9
330
C7
100
AcDbEntity
  8
0
100
AcDbBlockBegin
  2
Block_8
 70
     0
 10
0.0
 20
0.0
 30
0.0
  3
Block_8
  1

  0
SPLINE
  5
CB
330
C7
100
AcDbEntity
  8
レイヤー 1
100
AcDbSpline
210
0.0
220
0.0
230
1.0
 70
    11
 71
     3
 72
    26
 73
    22
 74
     0
 42
0.0000000001
 43
0.0000000001
 40
0.0
 40
0.0
 40
0.0
 40
0.0
 40
1.0
 40
1.0
 40
1.0
 40
2.0
 40
2.0
 40
2.0
 40
3.0
 40
3.0
 40
3.0
 40
4.0
 40
4.0
 40
4.0
 40
5.0
 40
5.0
 40
5.0
 40
6.0
 40
6.0
 40
6.0
 40
7.0
 40
7.0
 40
7.0
 40
7.0
 10
101.4198214807214
 20
-134.9030490114131
 30
0.0
 10
101.4198214807214
 20
-134.9030490114131
 30
0.0
 10
101.4198214807214
 20
-133.7987236536163
 30
0.0
 10
101.4198214807214
 20
-133.7987236536163
 30
0.0
 10
101.4198214807214
 20
-133.7987236536163
 30
0.0
 10
101.0670437030318
 20
-133.7987236536163
 30
0.0
 10
101.0670437030318
 20
-133.7987236536163
 30
0.0
 10
101.0670437030318
 20
-133.7987236536163
 30
0.0
 10
101.0670437030318
 20
-133.6507568025248
 30
0.0
 10
101.0670437030318
 20
-133.6507568025248
 30
0.0
 10
101.4220607927868
 20
-133.6359428919382
 30
0.0
 10
101.4716701677744
 20
-133.4729898754859
 30
0.0
 10
101.5033650462387
 20
-133.3587849601499
 30
0.0
 10
101.5033650462387
 20
-133.3587849601499
 30
0.0
 10
101.6594278717205
 20
-133.3587849601499
 30
0.0
 10
101.6594278717205
 20
-133.3587849601499
 30
0.0
 10
101.6594278717205
 20
-133.3587849601499
 30
0.0
 10
101.6594278717205
 20
-134.9030490114131
 30
0.0
 10
101.6594278717205
 20
-134.9030490114131
 30
0.0
 10
101.6594278717205
 20
-134.9030490114131
 30
0.0
 10
101.4198214807214
 20
-134.9030490114131
 30
0.0
 10
101.4198214807214
 20
-134.9030490114131
 30
0.0
  0
HATCH
  5
CC
330
C7
100
AcDbEntity
  8
レイヤー 1
 62
   250
420
  2299925
440
 33554687
100
AcDbHatch
 10
0.0
 20
0.0
 30
0.0
210
0.0
220
0.0
230
1.0
  2
SOLID
 70
     1
 71
     1
 91
        1
 92
        1
 93
        1
 72
     4
 94
        3
 73
     0
 74
     0
 95
       26
 96
       22
 40
0.0
 40
0.0
 40
0.0
 40
0.0
 40
1.0
 40
1.0
 40
1.0
 40
2.0
 40
2.0
 40
2.0
 40
3.0
 40
3.0
 40
3.0
 40
4.0
 40
4.0
 40
4.0
 40
5.0
 40
5.0
 40
5.0
 40
6.0
 40
6.0
 40
6.0
 40
7.0
 40
7.0
 40
7.0
 40
7.0
 10
101.4198214807214
 20
-134.9030490114131
 10
101.4198214807214
 20
-134.9030490114131
 10
101.4198214807214
 20
-133.7987236536163
 10
101.4198214807214
 20
-133.7987236536163
 10
101.4198214807214
 20
-133.7987236536163
 10
101.0670437030318
 20
-133.7987236536163
 10
101.0670437030318
 20
-133.7987236536163
 10
101.0670437030318
 20
-133.7987236536163
 10
101.0670437030318
 20
-133.6507568025248
 10
101.0670437030318
 20
-133.6507568025248
 10
101.4220607927868
 20
-133.6359428919382
 10
101.4716701677744
 20
-133.4729898754859
 10
101.5033650462387
 20
-133.3587849601499
 10
101.5033650462387
 20
-133.3587849601499
 10
101.6594278717205
 20
-133.3587849601499
 10
101.6594278717205
 20
-133.3587849601499
 10
101.6594278717205
 20
-133.3587849601499
 10
101.6594278717205
 20
-134.9030490114131
 10
101.6594278717205
 20
-134.9030490114131
 10
101.6594278717205
 20
-134.9030490114131
 10
101.4198214807214
 20
-134.9030490114131
 10
101.4198214807214
 20
-134.9030490114131
 97
        0
 97
        1
330
CB
 75
     2
 76
     1
 98
        1
 10
0.0
 20
0.0
450
        0
451
        0
460
0.0
461
0.0
452
        0
462
0.0
453
        0
470

  0
SPLINE
  5
CD
330
C7
100
AcDbEntity
  8
レイヤー 1
100
AcDbSpline
210
0.0
220
0.0
230
1.0
 70
     9
 71
     3
 72
    17
 73
    13
 74
     0
 42
0.0000000001
 43
0.0000000001
 40
0.0
 40
0.0
 40
0.0
 40
0.0
 40
1.0
 40
1.0
 40
1.0
 40
2.0
 40
2.0
 40
2.0
 40
3.0
 40
3.0
 40
3.0
 40
4.0
 40
4.0
 40
4.0
 40
4.0
 10
102.7294745294391
 20
-133.5026176966591
 30
0.0
 10
102.4626518841065
 20
-133.5026176966591
 30
0.0
 10
102.413042509119
 20
-133.7861490550951
 30
0.0
 10
102.413042509119
 20
-134.1310031131686
 30
0.0
 10
102.413042509119
 20
-134.4503634646513
 30
0.0
 10
102.4514553237795
 20
-134.7592162749039
 30
0.0
 10
102.7294745294391
 20
-134.7592162749039
 30
0.0
 10
102.9940578627063
 20
-134.7592162749039
 30
0.0
 10
103.0460788045336
 20
-134.4779242285333
 30
0.0
 10
103.0460788045336
 20
-134.1310031131686
 30
0.0
 10
103.0460788045336
 20
-133.8114705069117
 30
0.0
 10
103.0052544230334
 20
-133.5026176966591
 30
0.0
 10
102.7294745294391
 20
-133.5026176966591
 30
0.0
  0
SPLINE
  5
CE
330
C7
100
AcDbEntity
  8
レイヤー 1
100
AcDbSpline
210
0.0
220
0.0
230
1.0
 70
     9
 71
     3
 72
    29
 73
    25
 74
     0
 42
0.0000000001
 43
0.0000000001
 40
0.0
 40
0.0
 40
0.0
 40
0.0
 40
1.0
 40
1.0
 40
1.0
 40
2.0
 40
2.0
 40
2.0
 40
3.0
 40
3.0
 40
3.0
 40
4.0
 40
4.0
 40
4.0
 40
5.0
 40
5.0
 40
5.0
 40
6.0
 40
6.0
 40
6.0
 40
7.0
 40
7.0
 40
7.0
 40
8.0
 40
8.0
 40
8.0
 40
8.0
 10
103.154599312319
 20
-134.7254543391485
 30
0.0
 10
103.0391886135631
 20
-134.9347438898774
 30
0.0
 10
102.8538424764567
 20
-134.9538641698206
 30
0.0
 10
102.7294745294391
 20
-134.9538641698206
 30
0.0
 10
102.5577365194994
 20
-134.9538641698206
 30
0.0
 10
102.4061523181484
 20
-134.9073553807697
 30
0.0
 10
102.3045220013336
 20
-134.7254543391485
 30
0.0
 10
102.1937621814828
 20
-134.5308064442319
 30
0.0
 10
102.1732638633455
 20
-134.2937838748467
 30
0.0
 10
102.1732638633455
 20
-134.1310031131686
 30
0.0
 10
102.1732638633455
 20
-133.9869981218852
 30
0.0
 10
102.1915228694174
 20
-133.7353338966877
 30
0.0
 10
102.3045220013336
 20
-133.5363796324145
 30
0.0
 10
102.4197604453152
 20
-133.3334635083333
 30
0.0
 10
102.5916707100291
 20
-133.3100368590336
 30
0.0
 10
102.7294745294391
 20
-133.3100368590336
 30
0.0
 10
102.8991454820877
 20
-133.3100368590336
 30
0.0
 10
103.0527967407298
 20
-133.3544785907933
 30
0.0
 10
103.154599312319
 20
-133.5363796324145
 30
0.0
 10
103.2608805080389
 20
-133.72896047004
 30
0.0
 10
103.2856851955327
 20
-133.957370300712
 30
0.0
 10
103.2856851955327
 20
-134.1310031131686
 30
0.0
 10
103.2856851955327
 20
-134.3022243587855
 30
0.0
 10
103.2631198201043
 20
-134.532873501523
 30
0.0
 10
103.154599312319
 20
-134.7254543391485
 30
0.0
  0
HATCH
  5
CF
330
C7
100
AcDbEntity
  8
レイヤー 1
 62
   250
420
  2299925
440
 33554687
100
AcDbHatch
 10
0.0
 20
0.0
 30
0.0
210
0.0
220
0.0
230
1.0
  2
SOLID
 70
     1
 71
     1
 91
        2
 92
        1
 93
        1
 72
     4
 94
        3
 73
     0
 74
     0
 95
       17
 96
       13
 40
0.0
 40
0.0
 40
0.0
 40
0.0
 40
1.0
 40
1.0
 40
1.0
 40
2.0
 40
2.0
 40
2.0
 40
3.0
 40
3.0
 40
3.0
 40
4.0
 40
4.0
 40
4.0
 40
4.0
 10
102.7294745294391
 20
-133.5026176966591
 10
102.4626518841065
 20
-133.5026176966591
 10
102.413042509119
 20
-133.7861490550951
 10
102.413042509119
 20
-134.1310031131686
 10
102.413042509119
 20
-134.4503634646513
 10
102.4514553237795
 20
-134.7592162749039
 10
102.7294745294391
 20
-134.7592162749039
 10
102.9940578627063
 20
-134.7592162749039
 10
103.0460788045336
 20
-134.4779242285333
 10
103.0460788045336
 20
-134.1310031131686
 10
103.0460788045336
 20
-133.8114705069117
 10
103.0052544230334
 20
-133.5026176966591
 10
102.7294745294391
 20
-133.5026176966591
 97
        0
 97
        1
330
CD
 92
        1
 93
        1
 72
     4
 94
        3
 73
     0
 74
     0
 95
       29
 96
       25
 40
0.0
 40
0.0
 40
0.0
 40
0.0
 40
1.0
 40
1.0
 40
1.0
 40
2.0
 40
2.0
 40
2.0
 40
3.0
 40
3.0
 40
3.0
 40
4.0
 40
4.0
 40
4.0
 40
5.0
 40
5.0
 40
5.0
 40
6.0
 40
6.0
 40
6.0
 40
7.0
 40
7.0
 40
7.0
 40
8.0
 40
8.0
 40
8.0
 40
8.0
 10
103.154599312319
 20
-134.7254543391485
 10
103.0391886135631
 20
-134.9347438898774
 10
102.8538424764567
 20
-134.9538641698206
 10
102.7294745294391
 20
-134.9538641698206
 10
102.5577365194994
 20
-134.9538641698206
 10
102.4061523181484
 20
-134.9073553807697
 10
102.3045220013336
 20
-134.7254543391485
 10
102.1937621814828
 20
-134.5308064442319
 10
102.1732638633455
 20
-134.2937838748467
 10
102.1732638633455
 20
-134.1310031131686
 10
102.1732638633455
 20
-133.9869981218852
 10
102.1915228694174
 20
-133.7353338966877
 10
102.3045220013336
 20
-133.5363796324145
 10
102.4197604453152
 20
-133.3334635083333
 10
102.5916707100291
 20
-133.3100368590336
 10
102.7294745294391
 20
-133.3100368590336
 10
102.8991454820877
 20
-133.3100368590336
 10
103.0527967407298
 20
-133.3544785907933
 10
103.154599312319
 20
-133.5363796324145
 10
103.2608805080389
 20
-133.72896047004
 10
103.2856851955327
 20
-133.957370300712
 10
103.2856851955327
 20
-134.1310031131686
 10
103.2856851955327
 20
-134.3022243587855
 10
103.2631198201043
 20
-134.532873501523
 10
103.154599312319
 20
-134.7254543391485
 97
        0
 97
        1
330
CE
 75
     2
 76
     1
 98
        1
 10
0.0
 20
0.0
450
        0
451
        0
460
0.0
461
0.0
452
        0
462
0.0
453
        0
470

  0
ENDBLK
  5
CA
330
C7
100
AcDbEntity
  8
0
100
AcDbBlockEnd
  0
BLOCK
  5
D3
330
D1
100
AcDbEntity
  8
0
100
AcDbBlockBegin
  2
Block_9
 70
     0
 10
0.0
 20
0.0
 30
0.0
  3
Block_9
  1

  0
LINE
  5
D5
330
D1
100
AcDbEntity
  8
レイヤー 1
 62
   250
420
  2299925
370
     9
100
AcDbLine
 10
107.102510817292
 20
-135.2758098697107
 30
0.0
 11
129.1022229453508
 21
-135.2758098697107
 31
0.0
  0
LINE
  5
D6
330
D1
100
AcDbEntity
  8
レイヤー 1
 62
   250
420
  2299925
370
     9
100
AcDbLine
 10
129.1022229453508
 20
-136.7358512213511
 30
0.0
 11
129.1022229453508
 21
-134.2760376729951
 31
0.0
  0
INSERT
  5
D8
330
D1
100
AcDbEntity
  8
レイヤー 1
100
AcDbBlockReference
  2
Block_10
 10
0.0
 20
0.0
 30
0.0
  0
SPLINE
  5
E3
330
D1
100
AcDbEntity
  8
レイヤー 1
 62
   250
420
  2299925
370
     9
100
AcDbSpline
210
0.0
220
0.0
230
1.0
 70
     9
 71
     3
 72
    17
 73
    13
 74
     0
 42
0.0000000001
 43
0.0000000001
 40
0.0
 40
0.0
 40
0.0
 40
0.0
 40
1.0
 40
1.0
 40
1.0
 40
2.0
 40
2.0
 40
2.0
 40
3.0
 40
3.0
 40
3.0
 40
4.0
 40
4.0
 40
4.0
 40
4.0
 10
129.1373635895608
 20
-135.2758098697107
 30
0.0
 10
129.1373635895608
 20
-135.2951068136632
 30
0.0
 10
129.1214885895647
 20
-135.3109411243439
 30
0.0
 10
129.1022229453508
 20
-135.3109411243439
 30
0.0
 10
129.0829260013987
 20
-135.3109411243439
 30
0.0
 10
129.0670862795806
 20
-135.2951068136632
 30
0.0
 10
129.0670862795806
 20
-135.2758098697107
 30
0.0
 10
129.0670862795806
 20
-135.2565129257592
 30
0.0
 10
129.0829260013987
 20
-135.2406732039408
 30
0.0
 10
129.1022229453508
 20
-135.2406732039408
 30
0.0
 10
129.1214885895647
 20
-135.2406732039408
 30
0.0
 10
129.1373635895608
 20
-135.2565129257592
 30
0.0
 10
129.1373635895608
 20
-135.2758098697107
 30
0.0
  0
ENDBLK
  5
D4
330
D1
100
AcDbEntity
  8
0
100
AcDbBlockEnd
  0
BLOCK
  5
D9
330
D7
100
AcDbEntity
  8
0
100
AcDbBlockBegin
  2
Block_10
 70
     0
 10
0.0
 20
0.0
 30
0.0
  3
Block_10
  1

  0
INSERT
  5
DC
330
D7
100
AcDbEntity
  8
レイヤー 1
100
AcDbBlockReference
  2
Block_11
 10
0.0
 20
0.0
 30
0.0
  0
ENDBLK
  5
DA
330
D7
100
AcDbEntity
  8
0
100
AcDbBlockEnd
  0
BLOCK
  5
DD
330
DB
100
AcDbEntity
  8
0
100
AcDbBlockBegin
  2
Block_11
 70
     0
 10
0.0
 20
0.0
 30
0.0
  3
Block_11
  1

  0
SPLINE
  5
DF
330
DB
100
AcDbEntity
  8
レイヤー 1
100
AcDbSpline
210
0.0
220
0.0
230
1.0
 70
     9
 71
     3
 72
    44
 73
    40
 74
     0
 42
0.0000000001
 43
0.0000000001
 40
0.0
 40
0.0
 40
0.0
 40
0.0
 40
1.0
 40
1.0
 40
1.0
 40
2.0
 40
2.0
 40
2.0
 40
3.0
 40
3.0
 40
3.0
 40
4.0
 40
4.0
 40
4.0
 40
5.0
 40
5.0
 40
5.0
 40
6.0
 40
6.0
 40
6.0
 40
7.0
 40
7.0
 40
7.0
 40
8.0
 40
8.0
 40
8.0
 40
9.0
 40
9.0
 40
9.0
 40
10.0
 40
10.0
 40
10.0
 40
11.0
 40
11.0
 40
11.0
 40
12.0
 40
12.0
 40
12.0
 40
13.0
 40
13.0
 40
13.0
 40
13.0
 10
117.5718071537668
 20
-134.3213446387287
 30
0.0
 10
117.3389186989639
 20
-134.4799912858244
 30
0.0
 10
117.2393554394401
 20
-134.5540608387573
 30
0.0
 10
117.1873344976129
 20
-134.6978935752665
 30
0.0
 10
117.1873344976129
 20
-134.6978935752665
 30
0.0
 10
118.0193250573007
 20
-134.6978935752665
 30
0.0
 10
118.0193250573007
 20
-134.6978935752665
 30
0.0
 10
118.0193250573007
 20
-134.6978935752665
 30
0.0
 10
118.0193250573007
 20
-134.9030490114131
 30
0.0
 10
118.0193250573007
 20
-134.9030490114131
 30
0.0
 10
118.0193250573007
 20
-134.9030490114131
 30
0.0
 10
116.9206841070545
 20
-134.9030490114131
 30
0.0
 10
116.9206841070545
 20
-134.9030490114131
 30
0.0
 10
116.95444604281
 20
-134.5456203548184
 30
0.0
 10
117.0247259907091
 20
-134.467244432529
 30
0.0
 10
117.4360703916479
 20
-134.1690714182806
 30
0.0
 10
117.7096109731767
 20
-133.9701171540075
 30
0.0
 10
117.7795464115273
 20
-133.9024210277223
 30
0.0
 10
117.7795464115273
 20
-133.7649617178608
 30
0.0
 10
117.7795464115273
 20
-133.6464504331682
 30
0.0
 10
117.7027207822062
 20
-133.5153645499545
 30
0.0
 10
117.492569957606
 20
-133.5153645499545
 30
0.0
 10
117.2145507519463
 20
-133.5153645499545
 30
0.0
 10
117.2055935036847
 20
-133.7458414379177
 30
0.0
 10
117.2007703700054
 20
-133.8622856653191
 30
0.0
 10
117.2007703700054
 20
-133.8622856653191
 30
0.0
 10
116.9613362337805
 20
-133.8622856653191
 30
0.0
 10
116.9613362337805
 20
-133.8622856653191
 30
0.0
 10
116.9702934820421
 20
-133.7353338966877
 30
0.0
 10
116.9816622971435
 20
-133.6231960386428
 30
0.0
 10
117.0674451747262
 20
-133.5046847539502
 30
0.0
 10
117.1852674403217
 20
-133.3439710495633
 30
0.0
 10
117.3840494498206
 20
-133.3100368590336
 30
0.0
 10
117.5084173968382
 20
-133.3100368590336
 30
0.0
 10
117.8046956085696
 20
-133.3100368590336
 30
0.0
 10
118.0262152482712
 20
-133.4941772127202
 30
0.0
 10
118.0262152482712
 20
-133.767028775152
 30
0.0
 10
118.0262152482712
 20
-133.9956108605983
 30
0.0
 10
117.9018473012537
 20
-134.0950018653478
 30
0.0
 10
117.5718071537668
 20
-134.3213446387287
 30
0.0
  0
HATCH
  5
E0
330
DB
100
AcDbEntity
  8
レイヤー 1
 62
   250
420
  2299925
440
 33554687
100
AcDbHatch
 10
0.0
 20
0.0
 30
0.0
210
0.0
220
0.0
230
1.0
  2
SOLID
 70
     1
 71
     1
 91
        1
 92
        1
 93
        1
 72
     4
 94
        3
 73
     0
 74
     0
 95
       44
 96
       40
 40
0.0
 40
0.0
 40
0.0
 40
0.0
 40
1.0
 40
1.0
 40
1.0
 40
2.0
 40
2.0
 40
2.0
 40
3.0
 40
3.0
 40
3.0
 40
4.0
 40
4.0
 40
4.0
 40
5.0
 40
5.0
 40
5.0
 40
6.0
 40
6.0
 40
6.0
 40
7.0
 40
7.0
 40
7.0
 40
8.0
 40
8.0
 40
8.0
 40
9.0
 40
9.0
 40
9.0
 40
10.0
 40
10.0
 40
10.0
 40
11.0
 40
11.0
 40
11.0
 40
12.0
 40
12.0
 40
12.0
 40
13.0
 40
13.0
 40
13.0
 40
13.0
 10
117.5718071537668
 20
-134.3213446387287
 10
117.3389186989639
 20
-134.4799912858244
 10
117.2393554394401
 20
-134.5540608387573
 10
117.1873344976129
 20
-134.6978935752665
 10
117.1873344976129
 20
-134.6978935752665
 10
118.0193250573007
 20
-134.6978935752665
 10
118.0193250573007
 20
-134.6978935752665
 10
118.0193250573007
 20
-134.6978935752665
 10
118.0193250573007
 20
-134.9030490114131
 10
118.0193250573007
 20
-134.9030490114131
 10
118.0193250573007
 20
-134.9030490114131
 10
116.9206841070545
 20
-134.9030490114131
 10
116.9206841070545
 20
-134.9030490114131
 10
116.95444604281
 20
-134.5456203548184
 10
117.0247259907091
 20
-134.467244432529
 10
117.4360703916479
 20
-134.1690714182806
 10
117.7096109731767
 20
-133.9701171540075
 10
117.7795464115273
 20
-133.9024210277223
 10
117.7795464115273
 20
-133.7649617178608
 10
117.7795464115273
 20
-133.6464504331682
 10
117.7027207822062
 20
-133.5153645499545
 10
117.492569957606
 20
-133.5153645499545
 10
117.2145507519463
 20
-133.5153645499545
 10
117.2055935036847
 20
-133.7458414379177
 10
117.2007703700054
 20
-133.8622856653191
 10
117.2007703700054
 20
-133.8622856653191
 10
116.9613362337805
 20
-133.8622856653191
 10
116.9613362337805
 20
-133.8622856653191
 10
116.9702934820421
 20
-133.7353338966877
 10
116.9816622971435
 20
-133.6231960386428
 10
117.0674451747262
 20
-133.5046847539502
 10
117.1852674403217
 20
-133.3439710495633
 10
117.3840494498206
 20
-133.3100368590336
 10
117.5084173968382
 20
-133.3100368590336
 10
117.8046956085696
 20
-133.3100368590336
 10
118.0262152482712
 20
-133.4941772127202
 10
118.0262152482712
 20
-133.767028775152
 10
118.0262152482712
 20
-133.9956108605983
 10
117.9018473012537
 20
-134.0950018653478
 10
117.5718071537668
 20
-134.3213446387287
 97
        0
 97
        1
330
DF
 75
     2
 76
     1
 98
        1
 10
0.0
 20
0.0
450
        0
451
        0
460
0.0
461
0.0
452
        0
462
0.0
453
        0
470

  0
SPLINE
  5
E1
330
DB
100
AcDbEntity
  8
レイヤー 1
100
AcDbSpline
210
0.0
220
0.0
230
1.0
 70
     9
 71
     3
 72
    44
 73
    40
 74
     0
 42
0.0000000001
 43
0.0000000001
 40
0.0
 40
0.0
 40
0.0
 40
0.0
 40
1.0
 40
1.0
 40
1.0
 40
2.0
 40
2.0
 40
2.0
 40
3.0
 40
3.0
 40
3.0
 40
4.0
 40
4.0
 40
4.0
 40
5.0
 40
5.0
 40
5.0
 40
6.0
 40
6.0
 40
6.0
 40
7.0
 40
7.0
 40
7.0
 40
8.0
 40
8.0
 40
8.0
 40
9.0
 40
9.0
 40
9.0
 40
10.0
 40
10.0
 40
10.0
 40
11.0
 40
11.0
 40
11.0
 40
12.0
 40
12.0
 40
12.0
 40
13.0
 40
13.0
 40
13.0
 40
13.0
 10
118.8296115154315
 20
-134.3213446387287
 30
0.0
 10
118.5967230606286
 20
-134.4799912858244
 30
0.0
 10
118.4971598011049
 20
-134.5540608387573
 30
0.0
 10
118.4451388592776
 20
-134.6978935752665
 30
0.0
 10
118.4451388592776
 20
-134.6978935752665
 30
0.0
 10
119.2771294189654
 20
-134.6978935752665
 30
0.0
 10
119.2771294189654
 20
-134.6978935752665
 30
0.0
 10
119.2771294189654
 20
-134.6978935752665
 30
0.0
 10
119.2771294189654
 20
-134.9030490114131
 30
0.0
 10
119.2771294189654
 20
-134.9030490114131
 30
0.0
 10
119.2771294189654
 20
-134.9030490114131
 30
0.0
 10
118.1784884687193
 20
-134.9030490114131
 30
0.0
 10
118.1784884687193
 20
-134.9030490114131
 30
0.0
 10
118.2122504044747
 20
-134.5456203548184
 30
0.0
 10
118.2825303523738
 20
-134.467244432529
 30
0.0
 10
118.6938747533126
 20
-134.1690714182806
 30
0.0
 10
118.9674153348415
 20
-133.9701171540075
 30
0.0
 10
119.037350773192
 20
-133.9024210277223
 30
0.0
 10
119.037350773192
 20
-133.7649617178608
 30
0.0
 10
119.037350773192
 20
-133.6464504331682
 30
0.0
 10
118.960525143871
 20
-133.5153645499545
 30
0.0
 10
118.7503743192707
 20
-133.5153645499545
 30
0.0
 10
118.4723551136111
 20
-133.5153645499545
 30
0.0
 10
118.4630533558009
 20
-133.7458414379177
 30
0.0
 10
118.4585747316701
 20
-133.8622856653191
 30
0.0
 10
118.4585747316701
 20
-133.8622856653191
 30
0.0
 10
118.2191405954452
 20
-133.8622856653191
 30
0.0
 10
118.2191405954452
 20
-133.8622856653191
 30
0.0
 10
118.2280978437068
 20
-133.7353338966877
 30
0.0
 10
118.2394666588082
 20
-133.6231960386428
 30
0.0
 10
118.3252495363909
 20
-133.5046847539502
 30
0.0
 10
118.4427272924379
 20
-133.3439710495633
 30
0.0
 10
118.6418538114853
 20
-133.3100368590336
 30
0.0
 10
118.7662217585029
 20
-133.3100368590336
 30
0.0
 10
119.0624999702344
 20
-133.3100368590336
 30
0.0
 10
119.2840196099359
 20
-133.4941772127202
 30
0.0
 10
119.2840196099359
 20
-133.767028775152
 30
0.0
 10
119.2840196099359
 20
-133.9956108605983
 30
0.0
 10
119.1596516629184
 20
-134.0950018653478
 30
0.0
 10
118.8296115154315
 20
-134.3213446387287
 30
0.0
  0
HATCH
  5
E2
330
DB
100
AcDbEntity
  8
レイヤー 1
 62
   250
420
  2299925
440
 33554687
100
AcDbHatch
 10
0.0
 20
0.0
 30
0.0
210
0.0
220
0.0
230
1.0
  2
SOLID
 70
     1
 71
     1
 91
        1
 92
        1
 93
        1
 72
     4
 94
        3
 73
     0
 74
     0
 95
       44
 96
       40
 40
0.0
 40
0.0
 40
0.0
 40
0.0
 40
1.0
 40
1.0
 40
1.0
 40
2.0
 40
2.0
 40
2.0
 40
3.0
 40
3.0
 40
3.0
 40
4.0
 40
4.0
 40
4.0
 40
5.0
 40
5.0
 40
5.0
 40
6.0
 40
6.0
 40
6.0
 40
7.0
 40
7.0
 40
7.0
 40
8.0
 40
8.0
 40
8.0
 40
9.0
 40
9.0
 40
9.0
 40
10.0
 40
10.0
 40
10.0
 40
11.0
 40
11.0
 40
11.0
 40
12.0
 40
12.0
 40
12.0
 40
13.0
 40
13.0
 40
13.0
 40
13.0
 10
118.8296115154315
 20
-134.3213446387287
 10
118.5967230606286
 20
-134.4799912858244
 10
118.4971598011049
 20
-134.5540608387573
 10
118.4451388592776
 20
-134.6978935752665
 10
118.4451388592776
 20
-134.6978935752665
 10
119.2771294189654
 20
-134.6978935752665
 10
119.2771294189654
 20
-134.6978935752665
 10
119.2771294189654
 20
-134.6978935752665
 10
119.2771294189654
 20
-134.9030490114131
 10
119.2771294189654
 20
-134.9030490114131
 10
119.2771294189654
 20
-134.9030490114131
 10
118.1784884687193
 20
-134.9030490114131
 10
118.1784884687193
 20
-134.9030490114131
 10
118.2122504044747
 20
-134.5456203548184
 10
118.2825303523738
 20
-134.467244432529
 10
118.6938747533126
 20
-134.1690714182806
 10
118.9674153348415
 20
-133.9701171540075
 10
119.037350773192
 20
-133.9024210277223
 10
119.037350773192
 20
-133.7649617178608
 10
119.037350773192
 20
-133.6464504331682
 10
118.960525143871
 20
-133.5153645499545
 10
118.7503743192707
 20
-133.5153645499545
 10
118.4723551136111
 20
-133.5153645499545
 10
118.4630533558009
 20
-133.7458414379177
 10
118.4585747316701
 20
-133.8622856653191
 10
118.4585747316701
 20
-133.8622856653191
 10
118.2191405954452
 20
-133.8622856653191
 10
118.2191405954452
 20
-133.8622856653191
 10
118.2280978437068
 20
-133.7353338966877
 10
118.2394666588082
 20
-133.6231960386428
 10
118.3252495363909
 20
-133.5046847539502
 10
118.4427272924379
 20
-133.3439710495633
 10
118.6418538114853
 20
-133.3100368590336
 10
118.7662217585029
 20
-133.3100368590336
 10
119.0624999702344
 20
-133.3100368590336
 10
119.2840196099359
 20
-133.4941772127202
 10
119.2840196099359
 20
-133.767028775152
 10
119.2840196099359
 20
-133.9956108605983
 10
119.1596516629184
 20
-134.0950018653478
 10
118.8296115154315
 20
-134.3213446387287
 97
        0
 97
        1
330
E1
 75
     2
 76
     1
 98
        1
 10
0.0
 20
0.0
450
        0
451
        0
460
0.0
461
0.0
452
        0
462
0.0
453
        0
470

  0
ENDBLK
  5
DE
330
DB
100
AcDbEntity
  8
0
100
AcDbBlockEnd
  0
BLOCK
  5
E6
330
E4
100
AcDbEntity
  8
0
100
AcDbBlockBegin
  2
Block_12
 70
     0
 10
0.0
 20
0.0
 30
0.0
  3
Block_12
  1

  0
LINE
  5
E8
330
E4
100
AcDbEntity
  8
レイヤー 1
 62
   250
420
  2299925
370
     9
100
AcDbLine
 10
100.3522106232692
 20
-160.2761825652317
 30
0.0
 11
90.68733448095185
 21
-160.2761825652317
 31
0.0
  0
LINE
  5
E9
330
E4
100
AcDbEntity
  8
レイヤー 1
 62
   250
420
  2299925
370
     9
100
AcDbLine
 10
100.3522106232692
 20
-160.2761825652317
 30
0.0
 11
103.8524010895274
 21
-160.2761825652317
 31
0.0
  0
LINE
  5
EA
330
E4
100
AcDbEntity
  8
レイヤー 1
 62
   250
420
  2299925
370
     9
100
AcDbLine
 10
100.3522106232692
 20
-158.8161412135916
 30
0.0
 11
100.3522106232692
 21
-161.2759547619476
 31
0.0
  0
LINE
  5
EB
330
E4
100
AcDbEntity
  8
レイヤー 1
 62
   250
420
  2299925
370
     9
100
AcDbLine
 10
103.8524010895274
 20
-158.8161412135916
 30
0.0
 11
103.8524010895274
 21
-161.2759547619476
 31
0.0
  0
INSERT
  5
ED
330
E4
100
AcDbEntity
  8
レイヤー 1
100
AcDbBlockReference
  2
Block_13
 10
0.0
 20
0.0
 30
0.0
  0
SPLINE
  5
FA
330
E4
100
AcDbEntity
  8
レイヤー 1
 62
   250
420
  2299925
370
     9
100
AcDbSpline
210
0.0
220
0.0
230
1.0
 70
     9
 71
     3
 72
    17
 73
    13
 74
     0
 42
0.0000000001
 43
0.0000000001
 40
0.0
 40
0.0
 40
0.0
 40
0.0
 40
1.0
 40
1.0
 40
1.0
 40
2.0
 40
2.0
 40
2.0
 40
3.0
 40
3.0
 40
3.0
 40
4.0
 40
4.0
 40
4.0
 40
4.0
 10
103.8875730330746
 20
-160.2761825652317
 30
0.0
 10
103.8875730330746
 20
-160.2954795091839
 30
0.0
 10
103.8716980334796
 20
-160.311319231002
 30
0.0
 10
103.8524010895274
 20
-160.311319231002
 30
0.0
 10
103.8324338678146
 20
-160.311319231002
 30
0.0
 10
103.8165941459965
 20
-160.2954795091839
 30
0.0
 10
103.8165941459965
 20
-160.2761825652317
 30
0.0
 10
103.8165941459965
 20
-160.2562105625518
 30
0.0
 10
103.8324338678146
 20
-160.2403756217008
 30
0.0
 10
103.8524010895274
 20
-160.2403756217008
 30
0.0
 10
103.8716980334796
 20
-160.2403756217008
 30
0.0
 10
103.8875730330746
 20
-160.2562105625518
 30
0.0
 10
103.8875730330746
 20
-160.2761825652317
 30
0.0
  0
ENDBLK
  5
E7
330
E4
100
AcDbEntity
  8
0
100
AcDbBlockEnd
  0
BLOCK
  5
EE
330
EC
100
AcDbEntity
  8
0
100
AcDbBlockBegin
  2
Block_13
 70
     0
 10
0.0
 20
0.0
 30
0.0
  3
Block_13
  1

  0
INSERT
  5
F1
330
EC
100
AcDbEntity
  8
レイヤー 1
100
AcDbBlockReference
  2
Block_14
 10
0.0
 20
0.0
 30
0.0
  0
ENDBLK
  5
EF
330
EC
100
AcDbEntity
  8
0
100
AcDbBlockEnd
  0
BLOCK
  5
F2
330
F0
100
AcDbEntity
  8
0
100
AcDbBlockBegin
  2
Block_14
 70
     0
 10
0.0
 20
0.0
 30
0.0
  3
Block_14
  1

  0
SPLINE
  5
F4
330
F0
100
AcDbEntity
  8
レイヤー 1
100
AcDbSpline
210
0.0
220
0.0
230
1.0
 70
     9
 71
     3
 72
    62
 73
    58
 74
     0
 42
0.0000000001
 43
0.0000000001
 40
0.0
 40
0.0
 40
0.0
 40
0.0
 40
1.0
 40
1.0
 40
1.0
 40
2.0
 40
2.0
 40
2.0
 40
3.0
 40
3.0
 40
3.0
 40
4.0
 40
4.0
 40
4.0
 40
5.0
 40
5.0
 40
5.0
 40
6.0
 40
6.0
 40
6.0
 40
7.0
 40
7.0
 40
7.0
 40
8.0
 40
8.0
 40
8.0
 40
9.0
 40
9.0
 40
9.0
 40
10.0
 40
10.0
 40
10.0
 40
11.0
 40
11.0
 40
11.0
 40
12.0
 40
12.0
 40
12.0
 40
13.0
 40
13.0
 40
13.0
 40
14.0
 40
14.0
 40
14.0
 40
15.0
 40
15.0
 40
15.0
 40
16.0
 40
16.0
 40
16.0
 40
17.0
 40
17.0
 40
17.0
 40
18.0
 40
18.0
 40
18.0
 40
19.0
 40
19.0
 40
19.0
 40
19.0
 10
101.1853827329502
 20
-159.9540608324073
 30
0.0
 10
101.083580161361
 20
-159.9540608324073
 30
0.0
 10
100.8506917065581
 20
-159.9330457499473
 30
0.0
 10
100.717366511279
 20
-159.7466660841952
 30
0.0
 10
100.6383015698925
 20
-159.6347004809246
 30
0.0
 10
100.6336506909874
 20
-159.5351372214009
 30
0.0
 10
100.6291720668566
 20
-159.4507323820123
 30
0.0
 10
100.6291720668566
 20
-159.4507323820123
 30
0.0
 10
100.8642998337249
 20
-159.4507323820123
 30
0.0
 10
100.8642998337249
 20
-159.4507323820123
 30
0.0
 10
100.8665391457903
 20
-159.5244574253966
 30
0.0
 10
100.8779079608916
 20
-159.7594129374907
 30
0.0
 10
101.1809041088193
 20
-159.7594129374907
 30
0.0
 10
101.3278374312652
 20
-159.7594129374907
 30
0.0
 10
101.4906181929433
 20
-159.6894774991401
 30
0.0
 10
101.4906181929433
 20
-159.4610676684681
 30
0.0
 10
101.4906181929433
 20
-159.3446234410666
 30
0.0
 10
101.4497938114431
 20
-159.2960475947246
 30
0.0
 10
101.4160318756876
 20
-159.2643527162603
 30
0.0
 10
101.3367946795269
 20
-159.1902831633274
 30
0.0
 10
101.2124267325094
 20
-159.177536310032
 30
0.0
 10
101.1536878544859
 20
-159.177536310032
 30
0.0
 10
101.1333617911229
 20
-159.177536310032
 30
0.0
 10
101.0949489764624
 20
-159.1799478768717
 30
0.0
 10
101.0654934100635
 20
-159.184081991454
 30
0.0
 10
101.0654934100635
 20
-159.184081991454
 30
0.0
 10
101.0654934100635
 20
-158.9894340965373
 30
0.0
 10
101.0654934100635
 20
-158.9894340965373
 30
0.0
 10
101.1061455367894
 20
-158.9956352684108
 30
0.0
 10
101.1514485424205
 20
-158.9977023257019
 30
0.0
 10
101.1581664786167
 20
-158.9977023257019
 30
0.0
 10
101.2282741717415
 20
-158.9977023257019
 30
0.0
 10
101.4408365631814
 20
-158.9766872432419
 30
0.0
 10
101.4408365631814
 20
-158.7396646738567
 30
0.0
 10
101.4408365631814
 20
-158.5618977468178
 30
0.0
 10
101.3006211769318
 20
-158.5071207286024
 30
0.0
 10
101.1831434208847
 20
-158.5071207286024
 30
0.0
 10
100.90047333632
 20
-158.5071207286024
 30
0.0
 10
100.8915160880583
 20
-158.7396646738567
 30
0.0
 10
100.8868652091533
 20
-158.8116671694985
 30
0.0
 10
100.8868652091533
 20
-158.8116671694985
 30
0.0
 10
100.6698241935825
 20
-158.8116671694985
 30
0.0
 10
100.6698241935825
 20
-158.8116671694985
 30
0.0
 10
100.6789536966184
 20
-158.6869547129324
 30
0.0
 10
100.7082370082431
 20
-158.3104057763946
 30
0.0
 10
101.1965792932772
 20
-158.3104057763946
 30
0.0
 10
101.4363579390506
 20
-158.3104057763946
 30
0.0
 10
101.6940510813473
 20
-158.4371852902518
 30
0.0
 10
101.6940510813473
 20
-158.7334635019833
 30
0.0
 10
101.6940510813473
 20
-158.9194986581868
 30
0.0
 10
101.5922485097582
 20
-159.0021809498328
 30
0.0
 10
101.4859673140382
 20
-159.0635036494702
 30
0.0
 10
101.5515963830322
 20
-159.0910644133522
 30
0.0
 10
101.7460720231746
 20
-159.1713351381585
 30
0.0
 10
101.7460720231746
 20
-159.4483208151726
 30
0.0
 10
101.7460720231746
 20
-159.7869737013727
 30
0.0
 10
101.4814886899074
 20
-159.9540608324073
 30
0.0
 10
101.1853827329502
 20
-159.9540608324073
 30
0.0
  0
HATCH
  5
F5
330
F0
100
AcDbEntity
  8
レイヤー 1
 62
   250
420
  2299925
440
 33554687
100
AcDbHatch
 10
0.0
 20
0.0
 30
0.0
210
0.0
220
0.0
230
1.0
  2
SOLID
 70
     1
 71
     1
 91
        1
 92
        1
 93
        1
 72
     4
 94
        3
 73
     0
 74
     0
 95
       62
 96
       58
 40
0.0
 40
0.0
 40
0.0
 40
0.0
 40
1.0
 40
1.0
 40
1.0
 40
2.0
 40
2.0
 40
2.0
 40
3.0
 40
3.0
 40
3.0
 40
4.0
 40
4.0
 40
4.0
 40
5.0
 40
5.0
 40
5.0
 40
6.0
 40
6.0
 40
6.0
 40
7.0
 40
7.0
 40
7.0
 40
8.0
 40
8.0
 40
8.0
 40
9.0
 40
9.0
 40
9.0
 40
10.0
 40
10.0
 40
10.0
 40
11.0
 40
11.0
 40
11.0
 40
12.0
 40
12.0
 40
12.0
 40
13.0
 40
13.0
 40
13.0
 40
14.0
 40
14.0
 40
14.0
 40
15.0
 40
15.0
 40
15.0
 40
16.0
 40
16.0
 40
16.0
 40
17.0
 40
17.0
 40
17.0
 40
18.0
 40
18.0
 40
18.0
 40
19.0
 40
19.0
 40
19.0
 40
19.0
 10
101.1853827329502
 20
-159.9540608324073
 10
101.083580161361
 20
-159.9540608324073
 10
100.8506917065581
 20
-159.9330457499473
 10
100.717366511279
 20
-159.7466660841952
 10
100.6383015698925
 20
-159.6347004809246
 10
100.6336506909874
 20
-159.5351372214009
 10
100.6291720668566
 20
-159.4507323820123
 10
100.6291720668566
 20
-159.4507323820123
 10
100.8642998337249
 20
-159.4507323820123
 10
100.8642998337249
 20
-159.4507323820123
 10
100.8665391457903
 20
-159.5244574253966
 10
100.8779079608916
 20
-159.7594129374907
 10
101.1809041088193
 20
-159.7594129374907
 10
101.3278374312652
 20
-159.7594129374907
 10
101.4906181929433
 20
-159.6894774991401
 10
101.4906181929433
 20
-159.4610676684681
 10
101.4906181929433
 20
-159.3446234410666
 10
101.4497938114431
 20
-159.2960475947246
 10
101.4160318756876
 20
-159.2643527162603
 10
101.3367946795269
 20
-159.1902831633274
 10
101.2124267325094
 20
-159.177536310032
 10
101.1536878544859
 20
-159.177536310032
 10
101.1333617911229
 20
-159.177536310032
 10
101.0949489764624
 20
-159.1799478768717
 10
101.0654934100635
 20
-159.184081991454
 10
101.0654934100635
 20
-159.184081991454
 10
101.0654934100635
 20
-158.9894340965373
 10
101.0654934100635
 20
-158.9894340965373
 10
101.1061455367894
 20
-158.9956352684108
 10
101.1514485424205
 20
-158.9977023257019
 10
101.1581664786167
 20
-158.9977023257019
 10
101.2282741717415
 20
-158.9977023257019
 10
101.4408365631814
 20
-158.9766872432419
 10
101.4408365631814
 20
-158.7396646738567
 10
101.4408365631814
 20
-158.5618977468178
 10
101.3006211769318
 20
-158.5071207286024
 10
101.1831434208847
 20
-158.5071207286024
 10
100.90047333632
 20
-158.5071207286024
 10
100.8915160880583
 20
-158.7396646738567
 10
100.8868652091533
 20
-158.8116671694985
 10
100.8868652091533
 20
-158.8116671694985
 10
100.6698241935825
 20
-158.8116671694985
 10
100.6698241935825
 20
-158.8116671694985
 10
100.6789536966184
 20
-158.6869547129324
 10
100.7082370082431
 20
-158.3104057763946
 10
101.1965792932772
 20
-158.3104057763946
 10
101.4363579390506
 20
-158.3104057763946
 10
101.6940510813473
 20
-158.4371852902518
 10
101.6940510813473
 20
-158.7334635019833
 10
101.6940510813473
 20
-158.9194986581868
 10
101.5922485097582
 20
-159.0021809498328
 10
101.4859673140382
 20
-159.0635036494702
 10
101.5515963830322
 20
-159.0910644133522
 10
101.7460720231746
 20
-159.1713351381585
 10
101.7460720231746
 20
-159.4483208151726
 10
101.7460720231746
 20
-159.7869737013727
 10
101.4814886899074
 20
-159.9540608324073
 10
101.1853827329502
 20
-159.9540608324073
 97
        0
 97
        1
330
F4
 75
     2
 76
     1
 98
        1
 10
0.0
 20
0.0
450
        0
451
        0
460
0.0
461
0.0
452
        0
462
0.0
453
        0
470

  0
SPLINE
  5
F6
330
F0
100
AcDbEntity
  8
レイヤー 1
100
AcDbSpline
210
0.0
220
0.0
230
1.0
 70
    11
 71
     3
 72
    17
 73
    13
 74
     0
 42
0.0000000001
 43
0.0000000001
 40
0.0
 40
0.0
 40
0.0
 40
0.0
 40
1.0
 40
1.0
 40
1.0
 40
2.0
 40
2.0
 40
2.0
 40
3.0
 40
3.0
 40
3.0
 40
4.0
 40
4.0
 40
4.0
 40
4.0
 10
101.9818888091399
 20
-159.9034179287741
 30
0.0
 10
101.9818888091399
 20
-159.9034179287741
 30
0.0
 10
101.9818888091399
 20
-159.6515814488024
 30
0.0
 10
101.9818888091399
 20
-159.6515814488024
 30
0.0
 10
101.9818888091399
 20
-159.6515814488024
 30
0.0
 10
102.2509507665379
 20
-159.6515814488024
 30
0.0
 10
102.2509507665379
 20
-159.6515814488024
 30
0.0
 10
102.2509507665379
 20
-159.6515814488024
 30
0.0
 10
102.2509507665379
 20
-159.9034179287741
 30
0.0
 10
102.2509507665379
 20
-159.9034179287741
 30
0.0
 10
102.2509507665379
 20
-159.9034179287741
 30
0.0
 10
101.9818888091399
 20
-159.9034179287741
 30
0.0
 10
101.9818888091399
 20
-159.9034179287741
 30
0.0
  0
HATCH
  5
F7
330
F0
100
AcDbEntity
  8
レイヤー 1
 62
   250
420
  2299925
440
 33554687
100
AcDbHatch
 10
0.0
 20
0.0
 30
0.0
210
0.0
220
0.0
230
1.0
  2
SOLID
 70
     1
 71
     1
 91
        1
 92
        1
 93
        1
 72
     4
 94
        3
 73
     0
 74
     0
 95
       17
 96
       13
 40
0.0
 40
0.0
 40
0.0
 40
0.0
 40
1.0
 40
1.0
 40
1.0
 40
2.0
 40
2.0
 40
2.0
 40
3.0
 40
3.0
 40
3.0
 40
4.0
 40
4.0
 40
4.0
 40
4.0
 10
101.9818888091399
 20
-159.9034179287741
 10
101.9818888091399
 20
-159.9034179287741
 10
101.9818888091399
 20
-159.6515814488024
 10
101.9818888091399
 20
-159.6515814488024
 10
101.9818888091399
 20
-159.6515814488024
 10
102.2509507665379
 20
-159.6515814488024
 10
102.2509507665379
 20
-159.6515814488024
 10
102.2509507665379
 20
-159.6515814488024
 10
102.2509507665379
 20
-159.9034179287741
 10
102.2509507665379
 20
-159.9034179287741
 10
102.2509507665379
 20
-159.9034179287741
 10
101.9818888091399
 20
-159.9034179287741
 10
101.9818888091399
 20
-159.9034179287741
 97
        0
 97
        1
330
F6
 75
     2
 76
     1
 98
        1
 10
0.0
 20
0.0
450
        0
451
        0
460
0.0
461
0.0
452
        0
462
0.0
453
        0
470

  0
SPLINE
  5
F8
330
F0
100
AcDbEntity
  8
レイヤー 1
100
AcDbSpline
210
0.0
220
0.0
230
1.0
 70
     9
 71
     3
 72
    53
 73
    49
 74
     0
 42
0.0000000001
 43
0.0000000001
 40
0.0
 40
0.0
 40
0.0
 40
0.0
 40
1.0
 40
1.0
 40
1.0
 40
2.0
 40
2.0
 40
2.0
 40
3.0
 40
3.0
 40
3.0
 40
4.0
 40
4.0
 40
4.0
 40
5.0
 40
5.0
 40
5.0
 40
6.0
 40
6.0
 40
6.0
 40
7.0
 40
7.0
 40
7.0
 40
8.0
 40
8.0
 40
8.0
 40
9.0
 40
9.0
 40
9.0
 40
10.0
 40
10.0
 40
10.0
 40
11.0
 40
11.0
 40
11.0
 40
12.0
 40
12.0
 40
12.0
 40
13.0
 40
13.0
 40
13.0
 40
14.0
 40
14.0
 40
14.0
 40
15.0
 40
15.0
 40
15.0
 40
16.0
 40
16.0
 40
16.0
 40
16.0
 10
103.0176567667803
 20
-159.9540608324073
 30
0.0
 10
102.934113201263
 20
-159.9540608324073
 30
0.0
 10
102.8255926934776
 20
-159.9371798645296
 30
0.0
 10
102.7170721856922
 20
-159.873790107601
 30
0.0
 10
102.5315537938115
 20
-159.763547052073
 30
0.0
 10
102.5089884183831
 20
-159.6326334236335
 30
0.0
 10
102.4886623550202
 20
-159.5244574253966
 30
0.0
 10
102.4886623550202
 20
-159.5244574253966
 30
0.0
 10
102.7260294339539
 20
-159.5244574253966
 30
0.0
 10
102.7260294339539
 20
-159.5244574253966
 30
0.0
 10
102.7847683119774
 20
-159.7235839444441
 30
0.0
 10
102.9205050740962
 20
-159.7532117656172
 30
0.0
 10
103.0198960788457
 20
-159.7532117656172
 30
0.0
 10
103.1692409681313
 20
-159.7532117656172
 30
0.0
 10
103.3320217298093
 20
-159.6536485060935
 30
0.0
 10
103.3320217298093
 20
-159.4211045608392
 30
0.0
 10
103.3320217298093
 20
-159.1651339662851
 30
0.0
 10
103.1397854017324
 20
-159.0951985279345
 30
0.0
 10
103.010938830584
 20
-159.0951985279345
 30
0.0
 10
102.9770046400543
 20
-159.0951985279345
 30
0.0
 10
102.8255926934776
 20
-159.0951985279345
 30
0.0
 10
102.7305080580847
 20
-159.2240450990829
 30
0.0
 10
102.7305080580847
 20
-159.2240450990829
 30
0.0
 10
102.5429226089129
 20
-159.205097073914
 30
0.0
 10
102.5429226089129
 20
-159.205097073914
 30
0.0
 10
102.5429226089129
 20
-159.205097073914
 30
0.0
 10
102.6717691800612
 20
-158.3589816227366
 30
0.0
 10
102.6717691800612
 20
-158.3589816227366
 30
0.0
 10
102.6717691800612
 20
-158.3589816227366
 30
0.0
 10
103.5037597397491
 20
-158.3589816227366
 30
0.0
 10
103.5037597397491
 20
-158.3589816227366
 30
0.0
 10
103.5037597397491
 20
-158.3589816227366
 30
0.0
 10
103.5037597397491
 20
-158.5536295176532
 30
0.0
 10
103.5037597397491
 20
-158.5536295176532
 30
0.0
 10
103.5037597397491
 20
-158.5536295176532
 30
0.0
 10
102.8459187568406
 20
-158.5536295176532
 30
0.0
 10
102.8459187568406
 20
-158.5536295176532
 30
0.0
 10
102.8459187568406
 20
-158.5536295176532
 30
0.0
 10
102.7758110637158
 20
-158.9766872432419
 30
0.0
 10
102.7758110637158
 20
-158.9766872432419
 30
0.0
 10
102.8412678779355
 20
-158.9429253074865
 30
0.0
 10
102.9294623223579
 20
-158.9026176903091
 30
0.0
 10
103.0560695814408
 20
-158.9026176903091
 30
0.0
 10
103.3273708509042
 20
-158.9026176903091
 30
0.0
 10
103.5805853690701
 20
-159.0886528465125
 30
0.0
 10
103.5805853690701
 20
-159.4018120261218
 30
0.0
 10
103.5805853690701
 20
-159.7191053203133
 30
0.0
 10
103.340978978071
 20
-159.9540608324073
 30
0.0
 10
103.0176567667803
 20
-159.9540608324073
 30
0.0
  0
HATCH
  5
F9
330
F0
100
AcDbEntity
  8
レイヤー 1
 62
   250
420
  2299925
440
 33554687
100
AcDbHatch
 10
0.0
 20
0.0
 30
0.0
210
0.0
220
0.0
230
1.0
  2
SOLID
 70
     1
 71
     1
 91
        1
 92
        1
 93
        1
 72
     4
 94
        3
 73
     0
 74
     0
 95
       53
 96
       49
 40
0.0
 40
0.0
 40
0.0
 40
0.0
 40
1.0
 40
1.0
 40
1.0
 40
2.0
 40
2.0
 40
2.0
 40
3.0
 40
3.0
 40
3.0
 40
4.0
 40
4.0
 40
4.0
 40
5.0
 40
5.0
 40
5.0
 40
6.0
 40
6.0
 40
6.0
 40
7.0
 40
7.0
 40
7.0
 40
8.0
 40
8.0
 40
8.0
 40
9.0
 40
9.0
 40
9.0
 40
10.0
 40
10.0
 40
10.0
 40
11.0
 40
11.0
 40
11.0
 40
12.0
 40
12.0
 40
12.0
 40
13.0
 40
13.0
 40
13.0
 40
14.0
 40
14.0
 40
14.0
 40
15.0
 40
15.0
 40
15.0
 40
16.0
 40
16.0
 40
16.0
 40
16.0
 10
103.0176567667803
 20
-159.9540608324073
 10
102.934113201263
 20
-159.9540608324073
 10
102.8255926934776
 20
-159.9371798645296
 10
102.7170721856922
 20
-159.873790107601
 10
102.5315537938115
 20
-159.763547052073
 10
102.5089884183831
 20
-159.6326334236335
 10
102.4886623550202
 20
-159.5244574253966
 10
102.4886623550202
 20
-159.5244574253966
 10
102.7260294339539
 20
-159.5244574253966
 10
102.7260294339539
 20
-159.5244574253966
 10
102.7847683119774
 20
-159.7235839444441
 10
102.9205050740962
 20
-159.7532117656172
 10
103.0198960788457
 20
-159.7532117656172
 10
103.1692409681313
 20
-159.7532117656172
 10
103.3320217298093
 20
-159.6536485060935
 10
103.3320217298093
 20
-159.4211045608392
 10
103.3320217298093
 20
-159.1651339662851
 10
103.1397854017324
 20
-159.0951985279345
 10
103.010938830584
 20
-159.0951985279345
 10
102.9770046400543
 20
-159.0951985279345
 10
102.8255926934776
 20
-159.0951985279345
 10
102.7305080580847
 20
-159.2240450990829
 10
102.7305080580847
 20
-159.2240450990829
 10
102.5429226089129
 20
-159.205097073914
 10
102.5429226089129
 20
-159.205097073914
 10
102.5429226089129
 20
-159.205097073914
 10
102.6717691800612
 20
-158.3589816227366
 10
102.6717691800612
 20
-158.3589816227366
 10
102.6717691800612
 20
-158.3589816227366
 10
103.5037597397491
 20
-158.3589816227366
 10
103.5037597397491
 20
-158.3589816227366
 10
103.5037597397491
 20
-158.3589816227366
 10
103.5037597397491
 20
-158.5536295176532
 10
103.5037597397491
 20
-158.5536295176532
 10
103.5037597397491
 20
-158.5536295176532
 10
102.8459187568406
 20
-158.5536295176532
 10
102.8459187568406
 20
-158.5536295176532
 10
102.8459187568406
 20
-158.5536295176532
 10
102.7758110637158
 20
-158.9766872432419
 10
102.7758110637158
 20
-158.9766872432419
 10
102.8412678779355
 20
-158.9429253074865
 10
102.9294623223579
 20
-158.9026176903091
 10
103.0560695814408
 20
-158.9026176903091
 10
103.3273708509042
 20
-158.9026176903091
 10
103.5805853690701
 20
-159.0886528465125
 10
103.5805853690701
 20
-159.4018120261218
 10
103.5805853690701
 20
-159.7191053203133
 10
103.340978978071
 20
-159.9540608324073
 10
103.0176567667803
 20
-159.9540608324073
 97
        0
 97
        1
330
F8
 75
     2
 76
     1
 98
        1
 10
0.0
 20
0.0
450
        0
451
        0
460
0.0
461
0.0
452
        0
462
0.0
453
        0
470

  0
ENDBLK
  5
F3
330
F0
100
AcDbEntity
  8
0
100
AcDbBlockEnd
  0
BLOCK
  5
FD
330
FB
100
AcDbEntity
  8
0
100
AcDbBlockBegin
  2
Block_15
 70
     0
 10
0.0
 20
0.0
 30
0.0
  3
Block_15
  1

  0
LINE
  5
FF
330
FB
100
AcDbEntity
  8
レイヤー 1
 62
   250
420
  2299925
370
     9
100
AcDbLine
 10
96.10233212058153
 20
-164.275941629856
 30
0.0
 11
108.1022830392639
 21
-164.275941629856
 31
0.0
  0
LINE
  5
100
330
FB
100
AcDbEntity
  8
レイヤー 1
 62
   250
420
  2299925
370
     9
100
AcDbLine
 10
96.10233212058153
 20
-157.8156938964953
 30
0.0
 11
96.10233212058153
 21
-165.2757138265719
 31
0.0
  0
LINE
  5
101
330
FB
100
AcDbEntity
  8
レイヤー 1
 62
   250
420
  2299925
370
     9
100
AcDbLine
 10
108.1022830392639
 20
-157.8156938964953
 30
0.0
 11
108.1022830392639
 21
-165.2757138265719
 31
0.0
  0
INSERT
  5
103
330
FB
100
AcDbEntity
  8
レイヤー 1
100
AcDbBlockReference
  2
Block_16
 10
0.0
 20
0.0
 30
0.0
  0
SPLINE
  5
10E
330
FB
100
AcDbEntity
  8
レイヤー 1
 62
   250
420
  2299925
370
     9
100
AcDbSpline
210
0.0
220
0.0
230
1.0
 70
    11
 71
     3
 72
    17
 73
    13
 74
     0
 42
0.0000000001
 43
0.0000000001
 40
0.0
 40
0.0
 40
0.0
 40
0.0
 40
1.0
 40
1.0
 40
1.0
 40
2.0
 40
2.0
 40
2.0
 40
3.0
 40
3.0
 40
3.0
 40
4.0
 40
4.0
 40
4.0
 40
4.0
 10
108.1374162579854
 20
-164.275941629856
 30
0.0
 10
108.1374162579854
 20
-164.2952385738082
 30
0.0
 10
108.1215765361672
 20
-164.3110782956263
 30
0.0
 10
108.1022830392639
 20
-164.3110782956263
 30
0.0
 10
108.082982648263
 20
-164.3110782956263
 30
0.0
 10
108.0671429264449
 20
-164.2952385738082
 30
0.0
 10
108.0671429264449
 20
-164.275941629856
 30
0.0
 10
108.0671429264449
 20
-164.2566446859039
 30
0.0
 10
108.082982648263
 20
-164.2408049640858
 30
0.0
 10
108.1022830392639
 20
-164.2408049640858
 30
0.0
 10
108.1215765361672
 20
-164.2408049640858
 30
0.0
 10
108.1374162579854
 20
-164.2566446859039
 30
0.0
 10
108.1374162579854
 20
-164.275941629856
 30
0.0
  0
ENDBLK
  5
FE
330
FB
100
AcDbEntity
  8
0
100
AcDbBlockEnd
  0
BLOCK
  5
104
330
102
100
AcDbEntity
  8
0
100
AcDbBlockBegin
  2
Block_16
 70
     0
 10
0.0
 20
0.0
 30
0.0
  3
Block_16
  1

  0
INSERT
  5
107
330
102
100
AcDbEntity
  8
レイヤー 1
100
AcDbBlockReference
  2
Block_17
 10
0.0
 20
0.0
 30
0.0
  0
ENDBLK
  5
105
330
102
100
AcDbEntity
  8
0
100
AcDbBlockEnd
  0
BLOCK
  5
108
330
106
100
AcDbEntity
  8
0
100
AcDbBlockBegin
  2
Block_17
 70
     0
 10
0.0
 20
0.0
 30
0.0
  3
Block_17
  1

  0
SPLINE
  5
10A
330
106
100
AcDbEntity
  8
レイヤー 1
100
AcDbSpline
210
0.0
220
0.0
230
1.0
 70
    11
 71
     3
 72
    26
 73
    22
 74
     0
 42
0.0000000001
 43
0.0000000001
 40
0.0
 40
0.0
 40
0.0
 40
0.0
 40
1.0
 40
1.0
 40
1.0
 40
2.0
 40
2.0
 40
2.0
 40
3.0
 40
3.0
 40
3.0
 40
4.0
 40
4.0
 40
4.0
 40
5.0
 40
5.0
 40
5.0
 40
6.0
 40
6.0
 40
6.0
 40
7.0
 40
7.0
 40
7.0
 40
7.0
 10
101.4198214807214
 20
-163.9031737871492
 30
0.0
 10
101.4198214807214
 20
-163.9031737871492
 30
0.0
 10
101.4198214807214
 20
-162.7986761745781
 30
0.0
 10
101.4198214807214
 20
-162.7986761745781
 30
0.0
 10
101.4198214807214
 20
-162.7986761745781
 30
0.0
 10
101.0670437030318
 20
-162.7986761745781
 30
0.0
 10
101.0670437030318
 20
-162.7986761745781
 30
0.0
 10
101.0670437030318
 20
-162.7986761745781
 30
0.0
 10
101.0670437030318
 20
-162.6505370687123
 30
0.0
 10
101.0670437030318
 20
-162.6505370687123
 30
0.0
 10
101.4220607927868
 20
-162.6357231581257
 30
0.0
 10
101.4716701677744
 20
-162.473114651222
 30
0.0
 10
101.5033650462387
 20
-162.3587374811117
 30
0.0
 10
101.5033650462387
 20
-162.3587374811117
 30
0.0
 10
101.6594278717205
 20
-162.3587374811117
 30
0.0
 10
101.6594278717205
 20
-162.3587374811117
 30
0.0
 10
101.6594278717205
 20
-162.3587374811117
 30
0.0
 10
101.6594278717205
 20
-163.9031737871492
 30
0.0
 10
101.6594278717205
 20
-163.9031737871492
 30
0.0
 10
101.6594278717205
 20
-163.9031737871492
 30
0.0
 10
101.4198214807214
 20
-163.9031737871492
 30
0.0
 10
101.4198214807214
 20
-163.9031737871492
 30
0.0
  0
HATCH
  5
10B
330
106
100
AcDbEntity
  8
レイヤー 1
 62
   250
420
  2299925
440
 33554687
100
AcDbHatch
 10
0.0
 20
0.0
 30
0.0
210
0.0
220
0.0
230
1.0
  2
SOLID
 70
     1
 71
     1
 91
        1
 92
        1
 93
        1
 72
     4
 94
        3
 73
     0
 74
     0
 95
       26
 96
       22
 40
0.0
 40
0.0
 40
0.0
 40
0.0
 40
1.0
 40
1.0
 40
1.0
 40
2.0
 40
2.0
 40
2.0
 40
3.0
 40
3.0
 40
3.0
 40
4.0
 40
4.0
 40
4.0
 40
5.0
 40
5.0
 40
5.0
 40
6.0
 40
6.0
 40
6.0
 40
7.0
 40
7.0
 40
7.0
 40
7.0
 10
101.4198214807214
 20
-163.9031737871492
 10
101.4198214807214
 20
-163.9031737871492
 10
101.4198214807214
 20
-162.7986761745781
 10
101.4198214807214
 20
-162.7986761745781
 10
101.4198214807214
 20
-162.7986761745781
 10
101.0670437030318
 20
-162.7986761745781
 10
101.0670437030318
 20
-162.7986761745781
 10
101.0670437030318
 20
-162.7986761745781
 10
101.0670437030318
 20
-162.6505370687123
 10
101.0670437030318
 20
-162.6505370687123
 10
101.4220607927868
 20
-162.6357231581257
 10
101.4716701677744
 20
-162.473114651222
 10
101.5033650462387
 20
-162.3587374811117
 10
101.5033650462387
 20
-162.3587374811117
 10
101.6594278717205
 20
-162.3587374811117
 10
101.6594278717205
 20
-162.3587374811117
 10
101.6594278717205
 20
-162.3587374811117
 10
101.6594278717205
 20
-163.9031737871492
 10
101.6594278717205
 20
-163.9031737871492
 10
101.6594278717205
 20
-163.9031737871492
 10
101.4198214807214
 20
-163.9031737871492
 10
101.4198214807214
 20
-163.9031737871492
 97
        0
 97
        1
330
10A
 75
     2
 76
     1
 98
        1
 10
0.0
 20
0.0
450
        0
451
        0
460
0.0
461
0.0
452
        0
462
0.0
453
        0
470

  0
SPLINE
  5
10C
330
106
100
AcDbEntity
  8
レイヤー 1
100
AcDbSpline
210
0.0
220
0.0
230
1.0
 70
     9
 71
     3
 72
    44
 73
    40
 74
     0
 42
0.0000000001
 43
0.0000000001
 40
0.0
 40
0.0
 40
0.0
 40
0.0
 40
1.0
 40
1.0
 40
1.0
 40
2.0
 40
2.0
 40
2.0
 40
3.0
 40
3.0
 40
3.0
 40
4.0
 40
4.0
 40
4.0
 40
5.0
 40
5.0
 40
5.0
 40
6.0
 40
6.0
 40
6.0
 40
7.0
 40
7.0
 40
7.0
 40
8.0
 40
8.0
 40
8.0
 40
9.0
 40
9.0
 40
9.0
 40
10.0
 40
10.0
 40
10.0
 40
11.0
 40
11.0
 40
11.0
 40
12.0
 40
12.0
 40
12.0
 40
13.0
 40
13.0
 40
13.0
 40
13.0
 10
102.8290377889629
 20
-163.3212971596905
 30
0.0
 10
102.59614933416
 20
-163.479771552012
 30
0.0
 10
102.4965860746362
 20
-163.5538411049449
 30
0.0
 10
102.4447373875832
 20
-163.6978460962283
 30
0.0
 10
102.4447373875832
 20
-163.6978460962283
 30
0.0
 10
103.2767279472711
 20
-163.6978460962283
 30
0.0
 10
103.2767279472711
 20
-163.6978460962283
 30
0.0
 10
103.2767279472711
 20
-163.6978460962283
 30
0.0
 10
103.2767279472711
 20
-163.9031737871492
 30
0.0
 10
103.2767279472711
 20
-163.9031737871492
 30
0.0
 10
103.2767279472711
 20
-163.9031737871492
 30
0.0
 10
102.1779147422506
 20
-163.9031737871492
 30
0.0
 10
102.1779147422506
 20
-163.9031737871492
 30
0.0
 10
102.2118489327803
 20
-163.5455728757803
 30
0.0
 10
102.2817843711309
 20
-163.4673692082651
 30
0.0
 10
102.693301026844
 20
-163.1690239392424
 30
0.0
 10
102.9668416083729
 20
-162.9702419297435
 30
0.0
 10
103.0369493014977
 20
-162.9023735486841
 30
0.0
 10
103.0369493014977
 20
-162.7649142388226
 30
0.0
 10
103.0369493014977
 20
-162.6464029541301
 30
0.0
 10
102.9601236721766
 20
-162.515144816142
 30
0.0
 10
102.7498005928021
 20
-162.515144816142
 30
0.0
 10
102.4717813871425
 20
-162.515144816142
 30
0.0
 10
102.4626518841065
 20
-162.7459662136538
 30
0.0
 10
102.4581732599757
 20
-162.8620659315067
 30
0.0
 10
102.4581732599757
 20
-162.8620659315067
 30
0.0
 10
102.2185668689766
 20
-162.8620659315067
 30
0.0
 10
102.2185668689766
 20
-162.8620659315067
 30
0.0
 10
102.2276963720125
 20
-162.7352864176495
 30
0.0
 10
102.2388929323396
 20
-162.6233208143789
 30
0.0
 10
102.3248480646965
 20
-162.5048095296863
 30
0.0
 10
102.4423258207436
 20
-162.3439235705251
 30
0.0
 10
102.6412800850168
 20
-162.3101616347697
 30
0.0
 10
102.7656480320343
 20
-162.3101616347697
 30
0.0
 10
103.0619262437658
 20
-162.3101616347697
 30
0.0
 10
103.2834458834673
 20
-162.494129733682
 30
0.0
 10
103.2834458834673
 20
-162.7669812961138
 30
0.0
 10
103.2834458834673
 20
-162.9953911267858
 30
0.0
 10
103.1590779364498
 20
-163.0949543863096
 30
0.0
 10
102.8290377889629
 20
-163.3212971596905
 30
0.0
  0
HATCH
  5
10D
330
106
100
AcDbEntity
  8
レイヤー 1
 62
   250
420
  2299925
440
 33554687
100
AcDbHatch
 10
0.0
 20
0.0
 30
0.0
210
0.0
220
0.0
230
1.0
  2
SOLID
 70
     1
 71
     1
 91
        1
 92
        1
 93
        1
 72
     4
 94
        3
 73
     0
 74
     0
 95
       44
 96
       40
 40
0.0
 40
0.0
 40
0.0
 40
0.0
 40
1.0
 40
1.0
 40
1.0
 40
2.0
 40
2.0
 40
2.0
 40
3.0
 40
3.0
 40
3.0
 40
4.0
 40
4.0
 40
4.0
 40
5.0
 40
5.0
 40
5.0
 40
6.0
 40
6.0
 40
6.0
 40
7.0
 40
7.0
 40
7.0
 40
8.0
 40
8.0
 40
8.0
 40
9.0
 40
9.0
 40
9.0
 40
10.0
 40
10.0
 40
10.0
 40
11.0
 40
11.0
 40
11.0
 40
12.0
 40
12.0
 40
12.0
 40
13.0
 40
13.0
 40
13.0
 40
13.0
 10
102.8290377889629
 20
-163.3212971596905
 10
102.59614933416
 20
-163.479771552012
 10
102.4965860746362
 20
-163.5538411049449
 10
102.4447373875832
 20
-163.6978460962283
 10
102.4447373875832
 20
-163.6978460962283
 10
103.2767279472711
 20
-163.6978460962283
 10
103.2767279472711
 20
-163.6978460962283
 10
103.2767279472711
 20
-163.6978460962283
 10
103.2767279472711
 20
-163.9031737871492
 10
103.2767279472711
 20
-163.9031737871492
 10
103.2767279472711
 20
-163.9031737871492
 10
102.1779147422506
 20
-163.9031737871492
 10
102.1779147422506
 20
-163.9031737871492
 10
102.2118489327803
 20
-163.5455728757803
 10
102.2817843711309
 20
-163.4673692082651
 10
102.693301026844
 20
-163.1690239392424
 10
102.9668416083729
 20
-162.9702419297435
 10
103.0369493014977
 20
-162.9023735486841
 10
103.0369493014977
 20
-162.7649142388226
 10
103.0369493014977
 20
-162.6464029541301
 10
102.9601236721766
 20
-162.515144816142
 10
102.7498005928021
 20
-162.515144816142
 10
102.4717813871425
 20
-162.515144816142
 10
102.4626518841065
 20
-162.7459662136538
 10
102.4581732599757
 20
-162.8620659315067
 10
102.4581732599757
 20
-162.8620659315067
 10
102.2185668689766
 20
-162.8620659315067
 10
102.2185668689766
 20
-162.8620659315067
 10
102.2276963720125
 20
-162.7352864176495
 10
102.2388929323396
 20
-162.6233208143789
 10
102.3248480646965
 20
-162.5048095296863
 10
102.4423258207436
 20
-162.3439235705251
 10
102.6412800850168
 20
-162.3101616347697
 10
102.7656480320343
 20
-162.3101616347697
 10
103.0619262437658
 20
-162.3101616347697
 10
103.2834458834673
 20
-162.494129733682
 10
103.2834458834673
 20
-162.7669812961138
 10
103.2834458834673
 20
-162.9953911267858
 10
103.1590779364498
 20
-163.0949543863096
 10
102.8290377889629
 20
-163.3212971596905
 97
        0
 97
        1
330
10C
 75
     2
 76
     1
 98
        1
 10
0.0
 20
0.0
450
        0
451
        0
460
0.0
461
0.0
452
        0
462
0.0
453
        0
470

  0
ENDBLK
  5
109
330
106
100
AcDbEntity
  8
0
100
AcDbBlockEnd
  0
BLOCK
  5
111
330
10F
100
AcDbEntity
  8
0
100
AcDbBlockBegin
  2
Block_18
 70
     0
 10
0.0
 20
0.0
 30
0.0
  3
Block_18
  1

  0
LINE
  5
113
330
10F
100
AcDbEntity
  8
レイヤー 1
 62
   250
420
  2299925
370
     9
100
AcDbLine
 10
108.1022830392639
 20
-164.275941629856
 30
0.0
 11
117.1022401959403
 21
-164.275941629856
 31
0.0
  0
LINE
  5
114
330
10F
100
AcDbEntity
  8
レイヤー 1
 62
   250
420
  2299925
370
     9
100
AcDbLine
 10
117.1022401959403
 20
-158.8161412135916
 30
0.0
 11
117.1022401959403
 21
-165.2757138265719
 31
0.0
  0
INSERT
  5
116
330
10F
100
AcDbEntity
  8
レイヤー 1
100
AcDbBlockReference
  2
Block_19
 10
0.0
 20
0.0
 30
0.0
  0
CIRCLE
  5
11C
330
10F
100
AcDbEntity
  8
レイヤー 1
 62
   250
420
  2299925
370
     9
100
AcDbCircle
 10
117.1022401959403
 20
-164.275941629856
 30
0.0
 40
0.0351366657702557
  0
ENDBLK
  5
112
330
10F
100
AcDbEntity
  8
0
100
AcDbBlockEnd
  0
BLOCK
  5
117
330
115
100
AcDbEntity
  8
0
100
AcDbBlockBegin
  2
Block_19
 70
     0
 10
0.0
 20
0.0
 30
0.0
  3
Block_19
  1

  0
SPLINE
  5
119
330
115
100
AcDbEntity
  8
レイヤー 1
100
AcDbSpline
210
0.0
220
0.0
230
1.0
 70
     9
 71
     3
 72
    17
 73
    13
 74
     0
 42
0.0000000001
 43
0.0000000001
 40
0.0
 40
0.0
 40
0.0
 40
0.0
 40
1.0
 40
1.0
 40
1.0
 40
2.0
 40
2.0
 40
2.0
 40
3.0
 40
3.0
 40
3.0
 40
4.0
 40
4.0
 40
4.0
 40
4.0
 10
112.5988118208086
 20
-162.5023979628466
 30
0.0
 10
112.4720323069514
 20
-162.5023979628466
 30
0.0
 10
112.2846191125538
 20
-162.5595865479017
 30
0.0
 10
112.2846191125538
 20
-162.845184963629
 30
0.0
 10
112.2846191125538
 20
-163.0715277370099
 30
0.0
 10
112.4337917470652
 20
-163.1669568819513
 30
0.0
 10
112.5784857574456
 20
-163.1669568819513
 30
0.0
 10
112.858916529945
 20
-163.1669568819513
 30
0.0
 10
112.8995686566709
 20
-162.9574950764481
 30
0.0
 10
112.8995686566709
 20
-162.8410508490467
 30
0.0
 10
112.8995686566709
 20
-162.6653509792989
 30
0.0
 10
112.7975938303075
 20
-162.5023979628466
 30
0.0
 10
112.5988118208086
 20
-162.5023979628466
 30
0.0
  0
SPLINE
  5
11A
330
115
100
AcDbEntity
  8
レイヤー 1
100
AcDbSpline
210
0.0
220
0.0
230
1.0
 70
     9
 71
     3
 72
    32
 73
    28
 74
     0
 42
0.0000000001
 43
0.0000000001
 40
0.0
 40
0.0
 40
0.0
 40
0.0
 40
1.0
 40
1.0
 40
1.0
 40
2.0
 40
2.0
 40
2.0
 40
3.0
 40
3.0
 40
3.0
 40
4.0
 40
4.0
 40
4.0
 40
5.0
 40
5.0
 40
5.0
 40
6.0
 40
6.0
 40
6.0
 40
7.0
 40
7.0
 40
7.0
 40
8.0
 40
8.0
 40
8.0
 40
9.0
 40
9.0
 40
9.0
 40
9.0
 10
112.555748127243
 20
-163.9538166907824
 30
0.0
 10
112.3704019901365
 20
-163.9538166907824
 30
0.0
 10
112.108230223709
 20
-163.8838812524318
 30
0.0
 10
112.0675780969831
 20
-163.5517740476537
 30
0.0
 10
112.0675780969831
 20
-163.5517740476537
 30
0.0
 10
112.2956434181066
 20
-163.5517740476537
 30
0.0
 10
112.2956434181066
 20
-163.5517740476537
 30
0.0
 10
112.307012233208
 20
-163.61102969
 30
0.0
 10
112.3411186785119
 20
-163.7591687958658
 30
0.0
 10
112.5581596940827
 20
-163.7591687958658
 30
0.0
 10
112.8699408354978
 20
-163.7591687958658
 30
0.0
 10
112.9105929622237
 20
-163.4291286483788
 30
0.0
 10
112.9243733441647
 20
-163.2238009574579
 30
0.0
 10
112.8272216514807
 20
-163.3044161918128
 30
0.0
 10
112.7548746462904
 20
-163.3616047768679
 30
0.0
 10
112.5602267513738
 20
-163.3616047768679
 30
0.0
 10
112.3679904232969
 20
-163.3616047768679
 30
0.0
 10
112.0448404667804
 20
-163.2558403454708
 30
0.0
 10
112.0448404667804
 20
-162.8496635877598
 30
0.0
 10
112.0448404667804
 20
-162.5299587267286
 30
0.0
 10
112.2574028582203
 20
-162.3101616347697
 30
0.0
 10
112.5964002539689
 20
-162.3101616347697
 30
0.0
 10
113.1458929838663
 20
-162.3101616347697
 30
0.0
 10
113.1572617989676
 20
-162.8644774983464
 30
0.0
 10
113.1572617989676
 20
-163.0780734184319
 30
0.0
 10
113.1572617989676
 20
-163.3085503063951
 30
0.0
 10
113.1369357356046
 20
-163.9538166907824
 30
0.0
 10
112.555748127243
 20
-163.9538166907824
 30
0.0
  0
HATCH
  5
11B
330
115
100
AcDbEntity
  8
レイヤー 1
 62
   250
420
  2299925
440
 33554687
100
AcDbHatch
 10
0.0
 20
0.0
 30
0.0
210
0.0
220
0.0
230
1.0
  2
SOLID
 70
     1
 71
     1
 91
        2
 92
        1
 93
        1
 72
     4
 94
        3
 73
     0
 74
     0
 95
       17
 96
       13
 40
0.0
 40
0.0
 40
0.0
 40
0.0
 40
1.0
 40
1.0
 40
1.0
 40
2.0
 40
2.0
 40
2.0
 40
3.0
 40
3.0
 40
3.0
 40
4.0
 40
4.0
 40
4.0
 40
4.0
 10
112.5988118208086
 20
-162.5023979628466
 10
112.4720323069514
 20
-162.5023979628466
 10
112.2846191125538
 20
-162.5595865479017
 10
112.2846191125538
 20
-162.845184963629
 10
112.2846191125538
 20
-163.0715277370099
 10
112.4337917470652
 20
-163.1669568819513
 10
112.5784857574456
 20
-163.1669568819513
 10
112.858916529945
 20
-163.1669568819513
 10
112.8995686566709
 20
-162.9574950764481
 10
112.8995686566709
 20
-162.8410508490467
 10
112.8995686566709
 20
-162.6653509792989
 10
112.7975938303075
 20
-162.5023979628466
 10
112.5988118208086
 20
-162.5023979628466
 97
        0
 97
        1
330
119
 92
        1
 93
        1
 72
     4
 94
        3
 73
     0
 74
     0
 95
       32
 96
       28
 40
0.0
 40
0.0
 40
0.0
 40
0.0
 40
1.0
 40
1.0
 40
1.0
 40
2.0
 40
2.0
 40
2.0
 40
3.0
 40
3.0
 40
3.0
 40
4.0
 40
4.0
 40
4.0
 40
5.0
 40
5.0
 40
5.0
 40
6.0
 40
6.0
 40
6.0
 40
7.0
 40
7.0
 40
7.0
 40
8.0
 40
8.0
 40
8.0
 40
9.0
 40
9.0
 40
9.0
 40
9.0
 10
112.555748127243
 20
-163.9538166907824
 10
112.3704019901365
 20
-163.9538166907824
 10
112.108230223709
 20
-163.8838812524318
 10
112.0675780969831
 20
-163.5517740476537
 10
112.0675780969831
 20
-163.5517740476537
 10
112.2956434181066
 20
-163.5517740476537
 10
112.2956434181066
 20
-163.5517740476537
 10
112.307012233208
 20
-163.61102969
 10
112.3411186785119
 20
-163.7591687958658
 10
112.5581596940827
 20
-163.7591687958658
 10
112.8699408354978
 20
-163.7591687958658
 10
112.9105929622237
 20
-163.4291286483788
 10
112.9243733441647
 20
-163.2238009574579
 10
112.8272216514807
 20
-163.3044161918128
 10
112.7548746462904
 20
-163.3616047768679
 10
112.5602267513738
 20
-163.3616047768679
 10
112.3679904232969
 20
-163.3616047768679
 10
112.0448404667804
 20
-163.2558403454708
 10
112.0448404667804
 20
-162.8496635877598
 10
112.0448404667804
 20
-162.5299587267286
 10
112.2574028582203
 20
-162.3101616347697
 10
112.5964002539689
 20
-162.3101616347697
 10
113.1458929838663
 20
-162.3101616347697
 10
113.1572617989676
 20
-162.8644774983464
 10
113.1572617989676
 20
-163.0780734184319
 10
113.1572617989676
 20
-163.3085503063951
 10
113.1369357356046
 20
-163.9538166907824
 10
112.555748127243
 20
-163.9538166907824
 97
        0
 97
        1
330
11A
 75
     2
 76
     1
 98
        1
 10
0.0
 20
0.0
450
        0
451
        0
460
0.0
461
0.0
452
        0
462
0.0
453
        0
470

  0
ENDBLK
  5
118
330
115
100
AcDbEntity
  8
0
100
AcDbBlockEnd
  0
BLOCK
  5
11F
330
11D
100
AcDbEntity
  8
0
100
AcDbBlockBegin
  2
Block_20
 70
     0
 10
0.0
 20
0.0
 30
0.0
  3
Block_20
  1

  0
LINE
  5
121
330
11D
100
AcDbEntity
  8
レイヤー 1
 62
   250
420
  2299925
370
     9
100
AcDbLine
 10
96.10233212058153
 20
-164.275941629856
 30
0.0
 11
87.10237151685632
 21
-164.275941629856
 31
0.0
  0
LINE
  5
122
330
11D
100
AcDbEntity
  8
レイヤー 1
 62
   250
420
  2299925
370
     9
100
AcDbLine
 10
87.10237151685632
 20
-158.8161412135916
 30
0.0
 11
87.10237151685632
 21
-165.2757138265719
 31
0.0
  0
INSERT
  5
124
330
11D
100
AcDbEntity
  8
レイヤー 1
100
AcDbBlockReference
  2
Block_21
 10
0.0
 20
0.0
 30
0.0
  0
CIRCLE
  5
12A
330
11D
100
AcDbEntity
  8
レイヤー 1
 62
   250
420
  2299925
370
     9
100
AcDbCircle
 10
87.10237151685632
 20
-164.275941629856
 30
0.0
 40
0.0351366657702557
  0
ENDBLK
  5
120
330
11D
100
AcDbEntity
  8
0
100
AcDbBlockEnd
  0
BLOCK
  5
125
330
123
100
AcDbEntity
  8
0
100
AcDbBlockBegin
  2
Block_21
 70
     0
 10
0.0
 20
0.0
 30
0.0
  3
Block_21
  1

  0
SPLINE
  5
127
330
123
100
AcDbEntity
  8
レイヤー 1
100
AcDbSpline
210
0.0
220
0.0
230
1.0
 70
     9
 71
     3
 72
    17
 73
    13
 74
     0
 42
0.0000000001
 43
0.0000000001
 40
0.0
 40
0.0
 40
0.0
 40
0.0
 40
1.0
 40
1.0
 40
1.0
 40
2.0
 40
2.0
 40
2.0
 40
3.0
 40
3.0
 40
3.0
 40
4.0
 40
4.0
 40
4.0
 40
4.0
 10
91.59871552614546
 20
-162.5023979628466
 30
0.0
 10
91.47210826706254
 20
-162.5023979628466
 30
0.0
 10
91.28452281789067
 20
-162.5595865479017
 30
0.0
 10
91.28452281789067
 20
-162.845184963629
 30
0.0
 10
91.28452281789067
 20
-163.0715277370099
 30
0.0
 10
91.43369545240199
 20
-163.1669568819513
 30
0.0
 10
91.5783894627825
 20
-163.1669568819513
 30
0.0
 10
91.85882023528183
 20
-163.1669568819513
 30
0.0
 10
91.89947236200778
 20
-162.9574950764481
 30
0.0
 10
91.89947236200778
 20
-162.8410508490467
 30
0.0
 10
91.89947236200778
 20
-162.6653509792989
 30
0.0
 10
91.79766979041863
 20
-162.5023979628466
 30
0.0
 10
91.59871552614546
 20
-162.5023979628466
 30
0.0
  0
SPLINE
  5
128
330
123
100
AcDbEntity
  8
レイヤー 1
100
AcDbSpline
210
0.0
220
0.0
230
1.0
 70
     9
 71
     3
 72
    32
 73
    28
 74
     0
 42
0.0000000001
 43
0.0000000001
 40
0.0
 40
0.0
 40
0.0
 40
0.0
 40
1.0
 40
1.0
 40
1.0
 40
2.0
 40
2.0
 40
2.0
 40
3.0
 40
3.0
 40
3.0
 40
4.0
 40
4.0
 40
4.0
 40
5.0
 40
5.0
 40
5.0
 40
6.0
 40
6.0
 40
6.0
 40
7.0
 40
7.0
 40
7.0
 40
8.0
 40
8.0
 40
8.0
 40
9.0
 40
9.0
 40
9.0
 40
9.0
 10
91.5558240873541
 20
-163.9538166907824
 30
0.0
 10
91.37047795024766
 20
-163.9538166907824
 30
0.0
 10
91.10813392904589
 20
-163.8838812524318
 30
0.0
 10
91.06748180231994
 20
-163.5517740476537
 30
0.0
 10
91.06748180231994
 20
-163.5517740476537
 30
0.0
 10
91.29571937821774
 20
-163.5517740476537
 30
0.0
 10
91.29571937821774
 20
-163.5517740476537
 30
0.0
 10
91.30708819331905
 20
-163.61102969
 30
0.0
 10
91.34102238384878
 20
-163.7591687958658
 30
0.0
 10
91.55806339941952
 20
-163.7591687958658
 30
0.0
 10
91.87001679560889
 20
-163.7591687958658
 30
0.0
 10
91.91066892233484
 20
-163.4291286483788
 30
0.0
 10
91.92427704950157
 20
-163.2238009574579
 30
0.0
 10
91.82712535681753
 20
-163.3044161918128
 30
0.0
 10
91.75477835162729
 20
-163.3616047768679
 30
0.0
 10
91.56030271148493
 20
-163.3616047768679
 30
0.0
 10
91.36806638340798
 20
-163.3616047768679
 30
0.0
 10
91.04491642689154
 20
-163.2558403454708
 30
0.0
 10
91.04491642689154
 20
-162.8496635877598
 30
0.0
 10
91.04491642689154
 20
-162.5299587267286
 30
0.0
 10
91.2573065635572
 20
-162.3101616347697
 30
0.0
 10
91.59647621408005
 20
-162.3101616347697
 30
0.0
 10
92.14579668920313
 20
-162.3101616347697
 30
0.0
 10
92.15716550430446
 20
-162.8644774983464
 30
0.0
 10
92.15716550430446
 20
-163.0780734184319
 30
0.0
 10
92.15716550430446
 20
-163.3085503063951
 30
0.0
 10
92.13683944094148
 20
-163.9538166907824
 30
0.0
 10
91.5558240873541
 20
-163.9538166907824
 30
0.0
  0
HATCH
  5
129
330
123
100
AcDbEntity
  8
レイヤー 1
 62
   250
420
  2299925
440
 33554687
100
AcDbHatch
 10
0.0
 20
0.0
 30
0.0
210
0.0
220
0.0
230
1.0
  2
SOLID
 70
     1
 71
     1
 91
        2
 92
        1
 93
        1
 72
     4
 94
        3
 73
     0
 74
     0
 95
       17
 96
       13
 40
0.0
 40
0.0
 40
0.0
 40
0.0
 40
1.0
 40
1.0
 40
1.0
 40
2.0
 40
2.0
 40
2.0
 40
3.0
 40
3.0
 40
3.0
 40
4.0
 40
4.0
 40
4.0
 40
4.0
 10
91.59871552614546
 20
-162.5023979628466
 10
91.47210826706254
 20
-162.5023979628466
 10
91.28452281789067
 20
-162.5595865479017
 10
91.28452281789067
 20
-162.845184963629
 10
91.28452281789067
 20
-163.0715277370099
 10
91.43369545240199
 20
-163.1669568819513
 10
91.5783894627825
 20
-163.1669568819513
 10
91.85882023528183
 20
-163.1669568819513
 10
91.89947236200778
 20
-162.9574950764481
 10
91.89947236200778
 20
-162.8410508490467
 10
91.89947236200778
 20
-162.6653509792989
 10
91.79766979041863
 20
-162.5023979628466
 10
91.59871552614546
 20
-162.5023979628466
 97
        0
 97
        1
330
127
 92
        1
 93
        1
 72
     4
 94
        3
 73
     0
 74
     0
 95
       32
 96
       28
 40
0.0
 40
0.0
 40
0.0
 40
0.0
 40
1.0
 40
1.0
 40
1.0
 40
2.0
 40
2.0
 40
2.0
 40
3.0
 40
3.0
 40
3.0
 40
4.0
 40
4.0
 40
4.0
 40
5.0
 40
5.0
 40
5.0
 40
6.0
 40
6.0
 40
6.0
 40
7.0
 40
7.0
 40
7.0
 40
8.0
 40
8.0
 40
8.0
 40
9.0
 40
9.0
 40
9.0
 40
9.0
 10
91.5558240873541
 20
-163.9538166907824
 10
91.37047795024766
 20
-163.9538166907824
 10
91.10813392904589
 20
-163.8838812524318
 10
91.06748180231994
 20
-163.5517740476537
 10
91.06748180231994
 20
-163.5517740476537
 10
91.29571937821774
 20
-163.5517740476537
 10
91.29571937821774
 20
-163.5517740476537
 10
91.30708819331905
 20
-163.61102969
 10
91.34102238384878
 20
-163.7591687958658
 10
91.55806339941952
 20
-163.7591687958658
 10
91.87001679560889
 20
-163.7591687958658
 10
91.91066892233484
 20
-163.4291286483788
 10
91.92427704950157
 20
-163.2238009574579
 10
91.82712535681753
 20
-163.3044161918128
 10
91.75477835162729
 20
-163.3616047768679
 10
91.56030271148493
 20
-163.3616047768679
 10
91.36806638340798
 20
-163.3616047768679
 10
91.04491642689154
 20
-163.2558403454708
 10
91.04491642689154
 20
-162.8496635877598
 10
91.04491642689154
 20
-162.5299587267286
 10
91.2573065635572
 20
-162.3101616347697
 10
91.59647621408005
 20
-162.3101616347697
 10
92.14579668920313
 20
-162.3101616347697
 10
92.15716550430446
 20
-162.8644774983464
 10
92.15716550430446
 20
-163.0780734184319
 10
92.15716550430446
 20
-163.3085503063951
 10
92.13683944094148
 20
-163.9538166907824
 10
91.5558240873541
 20
-163.9538166907824
 97
        0
 97
        1
330
128
 75
     2
 76
     1
 98
        1
 10
0.0
 20
0.0
450
        0
451
        0
460
0.0
461
0.0
452
        0
462
0.0
453
        0
470

  0
ENDBLK
  5
126
330
123
100
AcDbEntity
  8
0
100
AcDbBlockEnd
  0
BLOCK
  5
12D
330
12B
100
AcDbEntity
  8
0
100
AcDbBlockBegin
  2
Block_22
 70
     0
 10
0.0
 20
0.0
 30
0.0
  3
Block_22
  1

  0
LINE
  5
12F
330
12B
100
AcDbEntity
  8
レイヤー 1
 62
   250
420
  2299925
370
     9
100
AcDbLine
 10
133.1019820099751
 20
-153.2757663549383
 30
0.0
 11
133.1019820099751
 21
-156.2757532228467
 31
0.0
  0
LINE
  5
130
330
12B
100
AcDbEntity
  8
レイヤー 1
 62
   250
420
  2299925
370
     9
100
AcDbLine
 10
119.6419969252682
 20
-153.2757663549383
 30
0.0
 11
134.1024244844517
 21
-153.2757663549383
 31
0.0
  0
LINE
  5
131
330
12B
100
AcDbEntity
  8
レイヤー 1
 62
   250
420
  2299925
370
     9
100
AcDbLine
 10
119.6419969252682
 20
-156.2757532228467
 30
0.0
 11
134.1024244844517
 21
-156.2757532228467
 31
0.0
  0
INSERT
  5
133
330
12B
100
AcDbEntity
  8
レイヤー 1
100
AcDbBlockReference
  2
Block_23
 10
0.0
 20
0.0
 30
0.0
  0
SPLINE
  5
138
330
12B
100
AcDbEntity
  8
レイヤー 1
 62
   250
420
  2299925
370
     9
100
AcDbSpline
210
0.0
220
0.0
230
1.0
 70
     9
 71
     3
 72
    17
 73
    13
 74
     0
 42
0.0000000001
 43
0.0000000001
 40
0.0
 40
0.0
 40
0.0
 40
0.0
 40
1.0
 40
1.0
 40
1.0
 40
2.0
 40
2.0
 40
2.0
 40
3.0
 40
3.0
 40
3.0
 40
4.0
 40
4.0
 40
4.0
 40
4.0
 10
133.1377889535061
 20
-156.2757532228467
 30
0.0
 10
133.1377889535061
 20
-156.2957204445595
 30
0.0
 10
133.121949231688
 20
-156.3115601663777
 30
0.0
 10
133.1019820099751
 20
-156.3115601663777
 30
0.0
 10
133.082685066023
 20
-156.3115601663777
 30
0.0
 10
133.066810066428
 20
-156.2957204445595
 30
0.0
 10
133.066810066428
 20
-156.2757532228467
 30
0.0
 10
133.066810066428
 20
-156.2564562788946
 30
0.0
 10
133.082685066023
 20
-156.2406165570765
 30
0.0
 10
133.1019820099751
 20
-156.2406165570765
 30
0.0
 10
133.121949231688
 20
-156.2406165570765
 30
0.0
 10
133.1377889535061
 20
-156.2564562788946
 30
0.0
 10
133.1377889535061
 20
-156.2757532228467
 30
0.0
  0
ENDBLK
  5
12E
330
12B
100
AcDbEntity
  8
0
100
AcDbBlockEnd
  0
BLOCK
  5
134
330
132
100
AcDbEntity
  8
0
100
AcDbBlockBegin
  2
Block_23
 70
     0
 10
0.0
 20
0.0
 30
0.0
  3
Block_23
  1

  0
SPLINE
  5
136
330
132
100
AcDbEntity
  8
レイヤー 1
100
AcDbSpline
210
0.0
220
0.0
230
1.0
 70
     9
 71
     3
 72
    62
 73
    58
 74
     0
 42
0.0000000001
 43
0.0000000001
 40
0.0
 40
0.0
 40
0.0
 40
0.0
 40
1.0
 40
1.0
 40
1.0
 40
2.0
 40
2.0
 40
2.0
 40
3.0
 40
3.0
 40
3.0
 40
4.0
 40
4.0
 40
4.0
 40
5.0
 40
5.0
 40
5.0
 40
6.0
 40
6.0
 40
6.0
 40
7.0
 40
7.0
 40
7.0
 40
8.0
 40
8.0
 40
8.0
 40
9.0
 40
9.0
 40
9.0
 40
10.0
 40
10.0
 40
10.0
 40
11.0
 40
11.0
 40
11.0
 40
12.0
 40
12.0
 40
12.0
 40
13.0
 40
13.0
 40
13.0
 40
14.0
 40
14.0
 40
14.0
 40
15.0
 40
15.0
 40
15.0
 40
16.0
 40
16.0
 40
16.0
 40
17.0
 40
17.0
 40
17.0
 40
18.0
 40
18.0
 40
18.0
 40
19.0
 40
19.0
 40
19.0
 40
19.0
 10
132.7798366638536
 20
-154.785384075887
 30
0.0
 10
132.7798366638536
 20
-154.8870143927018
 30
0.0
 10
132.7588215813936
 20
-155.1199028475047
 30
0.0
 10
132.5724419156416
 20
-155.2532280427839
 30
0.0
 10
132.460476312371
 20
-155.3324652389447
 30
0.0
 10
132.3609130528472
 20
-155.3369438630755
 30
0.0
 10
132.2765082134586
 20
-155.3414224872063
 30
0.0
 10
132.2765082134586
 20
-155.3414224872063
 30
0.0
 10
132.2765082134586
 20
-155.1061224655637
 30
0.0
 10
132.2765082134586
 20
-155.1061224655637
 30
0.0
 10
132.350233256843
 20
-155.1040554082726
 30
0.0
 10
132.585188768937
 20
-155.0926865931713
 30
0.0
 10
132.585188768937
 20
-154.7898627000178
 30
0.0
 10
132.585188768937
 20
-154.6427571227976
 30
0.0
 10
132.5152533305864
 20
-154.4801486158938
 30
0.0
 10
132.2868434999144
 20
-154.4801486158938
 30
0.0
 10
132.1703992725129
 20
-154.4801486158938
 30
0.0
 10
132.1218234261709
 20
-154.5208007426198
 30
0.0
 10
132.0901285477066
 20
-154.5545626783752
 30
0.0
 10
132.0160589947737
 20
-154.633799874536
 30
0.0
 10
132.0033121414783
 20
-154.7581678215535
 30
0.0
 10
132.0033121414783
 20
-154.8167344448027
 30
0.0
 10
132.0033121414783
 20
-154.8374050177143
 30
0.0
 10
132.005723708318
 20
-154.8756455776005
 30
0.0
 10
132.0098578229003
 20
-154.9049288892252
 30
0.0
 10
132.0098578229003
 20
-154.9049288892252
 30
0.0
 10
131.8152099279837
 20
-154.9049288892252
 30
0.0
 10
131.8152099279837
 20
-154.9049288892252
 30
0.0
 10
131.8214110998571
 20
-154.8642767624992
 30
0.0
 10
131.8234781571483
 20
-154.8191460116424
 30
0.0
 10
131.8234781571483
 20
-154.8122558206719
 30
0.0
 10
131.8234781571483
 20
-154.7423203823213
 30
0.0
 10
131.8024630746883
 20
-154.5297579908814
 30
0.0
 10
131.5654405053031
 20
-154.5297579908814
 30
0.0
 10
131.3876735782642
 20
-154.5297579908814
 30
0.0
 10
131.3328965600487
 20
-154.6699733771311
 30
0.0
 10
131.3328965600487
 20
-154.7874511331781
 30
0.0
 10
131.3328965600487
 20
-155.0699489629686
 30
0.0
 10
131.5654405053031
 20
-155.0792507207788
 30
0.0
 10
131.6374430009448
 20
-155.0837293449096
 30
0.0
 10
131.6374430009448
 20
-155.0837293449096
 30
0.0
 10
131.6374430009448
 20
-155.3007703604803
 30
0.0
 10
131.6374430009448
 20
-155.3007703604803
 30
0.0
 10
131.5127305443787
 20
-155.2918131122187
 30
0.0
 10
131.1361816078409
 20
-155.2621852910455
 30
0.0
 10
131.1361816078409
 20
-154.7740152607856
 30
0.0
 10
131.1361816078409
 20
-154.5342366150123
 30
0.0
 10
131.2629611216981
 20
-154.2765434727156
 30
0.0
 10
131.5592393334296
 20
-154.2765434727156
 30
0.0
 10
131.7452744896331
 20
-154.2765434727156
 30
0.0
 10
131.8279567812791
 20
-154.3781737895304
 30
0.0
 10
131.8892794809165
 20
-154.4846272400246
 30
0.0
 10
131.9168402447985
 20
-154.4188259162564
 30
0.0
 10
131.9971109696049
 20
-154.2245225308883
 30
0.0
 10
132.2740966466189
 20
-154.2245225308883
 30
0.0
 10
132.612749532819
 20
-154.2245225308883
 30
0.0
 10
132.7798366638536
 20
-154.4891058641555
 30
0.0
 10
132.7798366638536
 20
-154.785384075887
 30
0.0
  0
HATCH
  5
137
330
132
100
AcDbEntity
  8
レイヤー 1
 62
   250
420
  2299925
440
 33554687
100
AcDbHatch
 10
0.0
 20
0.0
 30
0.0
210
0.0
220
0.0
230
1.0
  2
SOLID
 70
     1
 71
     1
 91
        1
 92
        1
 93
        1
 72
     4
 94
        3
 73
     0
 74
     0
 95
       62
 96
       58
 40
0.0
 40
0.0
 40
0.0
 40
0.0
 40
1.0
 40
1.0
 40
1.0
 40
2.0
 40
2.0
 40
2.0
 40
3.0
 40
3.0
 40
3.0
 40
4.0
 40
4.0
 40
4.0
 40
5.0
 40
5.0
 40
5.0
 40
6.0
 40
6.0
 40
6.0
 40
7.0
 40
7.0
 40
7.0
 40
8.0
 40
8.0
 40
8.0
 40
9.0
 40
9.0
 40
9.0
 40
10.0
 40
10.0
 40
10.0
 40
11.0
 40
11.0
 40
11.0
 40
12.0
 40
12.0
 40
12.0
 40
13.0
 40
13.0
 40
13.0
 40
14.0
 40
14.0
 40
14.0
 40
15.0
 40
15.0
 40
15.0
 40
16.0
 40
16.0
 40
16.0
 40
17.0
 40
17.0
 40
17.0
 40
18.0
 40
18.0
 40
18.0
 40
19.0
 40
19.0
 40
19.0
 40
19.0
 10
132.7798366638536
 20
-154.785384075887
 10
132.7798366638536
 20
-154.8870143927018
 10
132.7588215813936
 20
-155.1199028475047
 10
132.5724419156416
 20
-155.2532280427839
 10
132.460476312371
 20
-155.3324652389447
 10
132.3609130528472
 20
-155.3369438630755
 10
132.2765082134586
 20
-155.3414224872063
 10
132.2765082134586
 20
-155.3414224872063
 10
132.2765082134586
 20
-155.1061224655637
 10
132.2765082134586
 20
-155.1061224655637
 10
132.350233256843
 20
-155.1040554082726
 10
132.585188768937
 20
-155.0926865931713
 10
132.585188768937
 20
-154.7898627000178
 10
132.585188768937
 20
-154.6427571227976
 10
132.5152533305864
 20
-154.4801486158938
 10
132.2868434999144
 20
-154.4801486158938
 10
132.1703992725129
 20
-154.4801486158938
 10
132.1218234261709
 20
-154.5208007426198
 10
132.0901285477066
 20
-154.5545626783752
 10
132.0160589947737
 20
-154.633799874536
 10
132.0033121414783
 20
-154.7581678215535
 10
132.0033121414783
 20
-154.8167344448027
 10
132.0033121414783
 20
-154.8374050177143
 10
132.005723708318
 20
-154.8756455776005
 10
132.0098578229003
 20
-154.9049288892252
 10
132.0098578229003
 20
-154.9049288892252
 10
131.8152099279837
 20
-154.9049288892252
 10
131.8152099279837
 20
-154.9049288892252
 10
131.8214110998571
 20
-154.8642767624992
 10
131.8234781571483
 20
-154.8191460116424
 10
131.8234781571483
 20
-154.8122558206719
 10
131.8234781571483
 20
-154.7423203823213
 10
131.8024630746883
 20
-154.5297579908814
 10
131.5654405053031
 20
-154.5297579908814
 10
131.3876735782642
 20
-154.5297579908814
 10
131.3328965600487
 20
-154.6699733771311
 10
131.3328965600487
 20
-154.7874511331781
 10
131.3328965600487
 20
-155.0699489629686
 10
131.5654405053031
 20
-155.0792507207788
 10
131.6374430009448
 20
-155.0837293449096
 10
131.6374430009448
 20
-155.0837293449096
 10
131.6374430009448
 20
-155.3007703604803
 10
131.6374430009448
 20
-155.3007703604803
 10
131.5127305443787
 20
-155.2918131122187
 10
131.1361816078409
 20
-155.2621852910455
 10
131.1361816078409
 20
-154.7740152607856
 10
131.1361816078409
 20
-154.5342366150123
 10
131.2629611216981
 20
-154.2765434727156
 10
131.5592393334296
 20
-154.2765434727156
 10
131.7452744896331
 20
-154.2765434727156
 10
131.8279567812791
 20
-154.3781737895304
 10
131.8892794809165
 20
-154.4846272400246
 10
131.9168402447985
 20
-154.4188259162564
 10
131.9971109696049
 20
-154.2245225308883
 10
132.2740966466189
 20
-154.2245225308883
 10
132.612749532819
 20
-154.2245225308883
 10
132.7798366638536
 20
-154.4891058641555
 10
132.7798366638536
 20
-154.785384075887
 97
        0
 97
        1
330
136
 75
     2
 76
     1
 98
        1
 10
0.0
 20
0.0
450
        0
451
        0
460
0.0
461
0.0
452
        0
462
0.0
453
        0
470

  0
ENDBLK
  5
135
330
132
100
AcDbEntity
  8
0
100
AcDbBlockEnd
  0
BLOCK
  5
13B
330
139
100
AcDbEntity
  8
0
100
AcDbBlockBegin
  2
Block_24
 70
     0
 10
0.0
 20
0.0
 30
0.0
  3
Block_24
  1

  0
LINE
  5
13D
330
139
100
AcDbEntity
  8
レイヤー 1
 62
   250
420
  2299925
370
     9
100
AcDbLine
 10
133.1019820099751
 20
-139.2762744898726
 30
0.0
 11
133.1019820099751
 21
-135.5059620860613
 31
0.0
  0
LINE
  5
13E
330
139
100
AcDbEntity
  8
レイヤー 1
 62
   250
420
  2299925
370
     9
100
AcDbLine
 10
133.1019820099751
 20
-140.2760466865888
 30
0.0
 11
133.1019820099751
 21
-139.2762744898726
 31
0.0
  0
LINE
  5
13F
330
139
100
AcDbEntity
  8
レイヤー 1
 62
   250
420
  2299925
370
     9
100
AcDbLine
 10
131.641940658335
 20
-139.2762744898726
 30
0.0
 11
134.1024244844517
 21
-139.2762744898726
 31
0.0
  0
INSERT
  5
141
330
139
100
AcDbEntity
  8
レイヤー 1
100
AcDbBlockReference
  2
Block_25
 10
0.0
 20
0.0
 30
0.0
  0
SPLINE
  5
146
330
139
100
AcDbEntity
  8
レイヤー 1
 62
   250
420
  2299925
370
     9
100
AcDbSpline
210
0.0
220
0.0
230
1.0
 70
     9
 71
     3
 72
    17
 73
    13
 74
     0
 42
0.0000000001
 43
0.0000000001
 40
0.0
 40
0.0
 40
0.0
 40
0.0
 40
1.0
 40
1.0
 40
1.0
 40
2.0
 40
2.0
 40
2.0
 40
3.0
 40
3.0
 40
3.0
 40
4.0
 40
4.0
 40
4.0
 40
4.0
 10
133.1377889535061
 20
-139.2762744898726
 30
0.0
 10
133.1377889535061
 20
-139.2955661233477
 30
0.0
 10
133.121949231688
 20
-139.3114111556431
 30
0.0
 10
133.1019820099751
 20
-139.3114111556431
 30
0.0
 10
133.082685066023
 20
-139.3114111556431
 30
0.0
 10
133.066810066428
 20
-139.2955661233477
 30
0.0
 10
133.066810066428
 20
-139.2762744898726
 30
0.0
 10
133.066810066428
 20
-139.2562719903832
 30
0.0
 10
133.082685066023
 20
-139.2404322685651
 30
0.0
 10
133.1019820099751
 20
-139.2404322685651
 30
0.0
 10
133.121949231688
 20
-139.2404322685651
 30
0.0
 10
133.1377889535061
 20
-139.2562719903832
 30
0.0
 10
133.1377889535061
 20
-139.2762744898726
 30
0.0
  0
ENDBLK
  5
13C
330
139
100
AcDbEntity
  8
0
100
AcDbBlockEnd
  0
BLOCK
  5
142
330
140
100
AcDbEntity
  8
0
100
AcDbBlockBegin
  2
Block_25
 70
     0
 10
0.0
 20
0.0
 30
0.0
  3
Block_25
  1

  0
SPLINE
  5
144
330
140
100
AcDbEntity
  8
レイヤー 1
100
AcDbSpline
210
0.0
220
0.0
230
1.0
 70
    11
 71
     3
 72
    26
 73
    22
 74
     0
 42
0.0000000001
 43
0.0000000001
 40
0.0
 40
0.0
 40
0.0
 40
0.0
 40
1.0
 40
1.0
 40
1.0
 40
2.0
 40
2.0
 40
2.0
 40
3.0
 40
3.0
 40
3.0
 40
4.0
 40
4.0
 40
4.0
 40
5.0
 40
5.0
 40
5.0
 40
6.0
 40
6.0
 40
6.0
 40
7.0
 40
7.0
 40
7.0
 40
7.0
 10
132.7285047411234
 20
-136.328285013661
 30
0.0
 10
132.7285047411234
 20
-136.328285013661
 30
0.0
 10
131.6240071285523
 20
-136.328285013661
 30
0.0
 10
131.6240071285523
 20
-136.328285013661
 30
0.0
 10
131.6240071285523
 20
-136.328285013661
 30
0.0
 10
131.6240071285523
 20
-136.6808905365763
 30
0.0
 10
131.6240071285523
 20
-136.6808905365763
 30
0.0
 10
131.6240071285523
 20
-136.6808905365763
 30
0.0
 10
131.4758680226866
 20
-136.6808905365763
 30
0.0
 10
131.4758680226866
 20
-136.6808905365763
 30
0.0
 10
131.4610541121
 20
-136.3258734468213
 30
0.0
 10
131.2984456051962
 20
-136.2762640718337
 30
0.0
 10
131.1840684350859
 20
-136.2445691933694
 30
0.0
 10
131.1840684350859
 20
-136.2445691933694
 30
0.0
 10
131.1840684350859
 20
-136.0885063678876
 30
0.0
 10
131.1840684350859
 20
-136.0885063678876
 30
0.0
 10
131.1840684350859
 20
-136.0885063678876
 30
0.0
 10
132.7285047411234
 20
-136.0885063678876
 30
0.0
 10
132.7285047411234
 20
-136.0885063678876
 30
0.0
 10
132.7285047411234
 20
-136.0885063678876
 30
0.0
 10
132.7285047411234
 20
-136.328285013661
 30
0.0
 10
132.7285047411234
 20
-136.328285013661
 30
0.0
  0
HATCH
  5
145
330
140
100
AcDbEntity
  8
レイヤー 1
 62
   250
420
  2299925
440
 33554687
100
AcDbHatch
 10
0.0
 20
0.0
 30
0.0
210
0.0
220
0.0
230
1.0
  2
SOLID
 70
     1
 71
     1
 91
        1
 92
        1
 93
        1
 72
     4
 94
        3
 73
     0
 74
     0
 95
       26
 96
       22
 40
0.0
 40
0.0
 40
0.0
 40
0.0
 40
1.0
 40
1.0
 40
1.0
 40
2.0
 40
2.0
 40
2.0
 40
3.0
 40
3.0
 40
3.0
 40
4.0
 40
4.0
 40
4.0
 40
5.0
 40
5.0
 40
5.0
 40
6.0
 40
6.0
 40
6.0
 40
7.0
 40
7.0
 40
7.0
 40
7.0
 10
132.7285047411234
 20
-136.328285013661
 10
132.7285047411234
 20
-136.328285013661
 10
131.6240071285523
 20
-136.328285013661
 10
131.6240071285523
 20
-136.328285013661
 10
131.6240071285523
 20
-136.328285013661
 10
131.6240071285523
 20
-136.6808905365763
 10
131.6240071285523
 20
-136.6808905365763
 10
131.6240071285523
 20
-136.6808905365763
 10
131.4758680226866
 20
-136.6808905365763
 10
131.4758680226866
 20
-136.6808905365763
 10
131.4610541121
 20
-136.3258734468213
 10
131.2984456051962
 20
-136.2762640718337
 10
131.1840684350859
 20
-136.2445691933694
 10
131.1840684350859
 20
-136.2445691933694
 10
131.1840684350859
 20
-136.0885063678876
 10
131.1840684350859
 20
-136.0885063678876
 10
131.1840684350859
 20
-136.0885063678876
 10
132.7285047411234
 20
-136.0885063678876
 10
132.7285047411234
 20
-136.0885063678876
 10
132.7285047411234
 20
-136.0885063678876
 10
132.7285047411234
 20
-136.328285013661
 10
132.7285047411234
 20
-136.328285013661
 97
        0
 97
        1
330
144
 75
     2
 76
     1
 98
        1
 10
0.0
 20
0.0
450
        0
451
        0
460
0.0
461
0.0
452
        0
462
0.0
453
        0
470

  0
ENDBLK
  5
143
330
140
100
AcDbEntity
  8
0
100
AcDbBlockEnd
  0
BLOCK
  5
149
330
147
100
AcDbEntity
  8
0
100
AcDbBlockBegin
  2
Block_26
 70
     0
 10
0.0
 20
0.0
 30
0.0
  3
Block_26
  1

  0
LINE
  5
14B
330
147
100
AcDbEntity
  8
レイヤー 1
 62
   250
420
  2299925
370
     9
100
AcDbLine
 10
133.1019820099751
 20
-140.2760466865888
 30
0.0
 11
133.1019820099751
 21
-153.2757663549383
 31
0.0
  0
LINE
  5
14C
330
147
100
AcDbEntity
  8
レイヤー 1
 62
   250
420
  2299925
370
     9
100
AcDbLine
 10
131.641940658335
 20
-140.2760466865888
 30
0.0
 11
134.1024244844517
 21
-140.2760466865888
 31
0.0
  0
INSERT
  5
14E
330
147
100
AcDbEntity
  8
レイヤー 1
100
AcDbBlockReference
  2
Block_27
 10
0.0
 20
0.0
 30
0.0
  0
SPLINE
  5
159
330
147
100
AcDbEntity
  8
レイヤー 1
 62
   250
420
  2299925
370
     9
100
AcDbSpline
210
0.0
220
0.0
230
1.0
 70
     9
 71
     3
 72
    17
 73
    13
 74
     0
 42
0.0000000001
 43
0.0000000001
 40
0.0
 40
0.0
 40
0.0
 40
0.0
 40
1.0
 40
1.0
 40
1.0
 40
2.0
 40
2.0
 40
2.0
 40
3.0
 40
3.0
 40
3.0
 40
4.0
 40
4.0
 40
4.0
 40
4.0
 10
133.1377889535061
 20
-153.2757663549383
 30
0.0
 10
133.1377889535061
 20
-153.2957335766512
 30
0.0
 10
133.121949231688
 20
-153.3115732984693
 30
0.0
 10
133.1019820099751
 20
-153.3115732984693
 30
0.0
 10
133.082685066023
 20
-153.3115732984693
 30
0.0
 10
133.066810066428
 20
-153.2957335766512
 30
0.0
 10
133.066810066428
 20
-153.2757663549383
 30
0.0
 10
133.066810066428
 20
-153.2564694109862
 30
0.0
 10
133.082685066023
 20
-153.2406296891681
 30
0.0
 10
133.1019820099751
 20
-153.2406296891681
 30
0.0
 10
133.121949231688
 20
-153.2406296891681
 30
0.0
 10
133.1377889535061
 20
-153.2564694109862
 30
0.0
 10
133.1377889535061
 20
-153.2757663549383
 30
0.0
  0
ENDBLK
  5
14A
330
147
100
AcDbEntity
  8
0
100
AcDbBlockEnd
  0
BLOCK
  5
14F
330
14D
100
AcDbEntity
  8
0
100
AcDbBlockBegin
  2
Block_27
 70
     0
 10
0.0
 20
0.0
 30
0.0
  3
Block_27
  1

  0
INSERT
  5
152
330
14D
100
AcDbEntity
  8
レイヤー 1
100
AcDbBlockReference
  2
Block_28
 10
0.0
 20
0.0
 30
0.0
  0
ENDBLK
  5
150
330
14D
100
AcDbEntity
  8
0
100
AcDbBlockEnd
  0
BLOCK
  5
153
330
151
100
AcDbEntity
  8
0
100
AcDbBlockBegin
  2
Block_28
 70
     0
 10
0.0
 20
0.0
 30
0.0
  3
Block_28
  1

  0
SPLINE
  5
155
330
151
100
AcDbEntity
  8
レイヤー 1
100
AcDbSpline
210
0.0
220
0.0
230
1.0
 70
    11
 71
     3
 72
    26
 73
    22
 74
     0
 42
0.0000000001
 43
0.0000000001
 40
0.0
 40
0.0
 40
0.0
 40
0.0
 40
1.0
 40
1.0
 40
1.0
 40
2.0
 40
2.0
 40
2.0
 40
3.0
 40
3.0
 40
3.0
 40
4.0
 40
4.0
 40
4.0
 40
5.0
 40
5.0
 40
5.0
 40
6.0
 40
6.0
 40
6.0
 40
7.0
 40
7.0
 40
7.0
 40
7.0
 10
132.7285047411234
 20
-147.4573214692121
 30
0.0
 10
132.7285047411234
 20
-147.4573214692121
 30
0.0
 10
131.6240071285523
 20
-147.4573214692121
 30
0.0
 10
131.6240071285523
 20
-147.4573214692121
 30
0.0
 10
131.6240071285523
 20
-147.4573214692121
 30
0.0
 10
131.6240071285523
 20
-147.8099269921274
 30
0.0
 10
131.6240071285523
 20
-147.8099269921274
 30
0.0
 10
131.6240071285523
 20
-147.8099269921274
 30
0.0
 10
131.4758680226866
 20
-147.8099269921274
 30
0.0
 10
131.4758680226866
 20
-147.8099269921274
 30
0.0
 10
131.4610541121
 20
-147.4550821571466
 30
0.0
 10
131.2984456051962
 20
-147.4053005273848
 30
0.0
 10
131.1840684350859
 20
-147.3736056489205
 30
0.0
 10
131.1840684350859
 20
-147.3736056489205
 30
0.0
 10
131.1840684350859
 20
-147.2177150782129
 30
0.0
 10
131.1840684350859
 20
-147.2177150782129
 30
0.0
 10
131.1840684350859
 20
-147.2177150782129
 30
0.0
 10
132.7285047411234
 20
-147.2177150782129
 30
0.0
 10
132.7285047411234
 20
-147.2177150782129
 30
0.0
 10
132.7285047411234
 20
-147.2177150782129
 30
0.0
 10
132.7285047411234
 20
-147.4573214692121
 30
0.0
 10
132.7285047411234
 20
-147.4573214692121
 30
0.0
  0
HATCH
  5
156
330
151
100
AcDbEntity
  8
レイヤー 1
 62
   250
420
  2299925
440
 33554687
100
AcDbHatch
 10
0.0
 20
0.0
 30
0.0
210
0.0
220
0.0
230
1.0
  2
SOLID
 70
     1
 71
     1
 91
        1
 92
        1
 93
        1
 72
     4
 94
        3
 73
     0
 74
     0
 95
       26
 96
       22
 40
0.0
 40
0.0
 40
0.0
 40
0.0
 40
1.0
 40
1.0
 40
1.0
 40
2.0
 40
2.0
 40
2.0
 40
3.0
 40
3.0
 40
3.0
 40
4.0
 40
4.0
 40
4.0
 40
5.0
 40
5.0
 40
5.0
 40
6.0
 40
6.0
 40
6.0
 40
7.0
 40
7.0
 40
7.0
 40
7.0
 10
132.7285047411234
 20
-147.4573214692121
 10
132.7285047411234
 20
-147.4573214692121
 10
131.6240071285523
 20
-147.4573214692121
 10
131.6240071285523
 20
-147.4573214692121
 10
131.6240071285523
 20
-147.4573214692121
 10
131.6240071285523
 20
-147.8099269921274
 10
131.6240071285523
 20
-147.8099269921274
 10
131.6240071285523
 20
-147.8099269921274
 10
131.4758680226866
 20
-147.8099269921274
 10
131.4758680226866
 20
-147.8099269921274
 10
131.4610541121
 20
-147.4550821571466
 10
131.2984456051962
 20
-147.4053005273848
 10
131.1840684350859
 20
-147.3736056489205
 10
131.1840684350859
 20
-147.3736056489205
 10
131.1840684350859
 20
-147.2177150782129
 10
131.1840684350859
 20
-147.2177150782129
 10
131.1840684350859
 20
-147.2177150782129
 10
132.7285047411234
 20
-147.2177150782129
 10
132.7285047411234
 20
-147.2177150782129
 10
132.7285047411234
 20
-147.2177150782129
 10
132.7285047411234
 20
-147.4573214692121
 10
132.7285047411234
 20
-147.4573214692121
 97
        0
 97
        1
330
155
 75
     2
 76
     1
 98
        1
 10
0.0
 20
0.0
450
        0
451
        0
460
0.0
461
0.0
452
        0
462
0.0
453
        0
470

  0
SPLINE
  5
157
330
151
100
AcDbEntity
  8
レイヤー 1
100
AcDbSpline
210
0.0
220
0.0
230
1.0
 70
     9
 71
     3
 72
    62
 73
    58
 74
     0
 42
0.0000000001
 43
0.0000000001
 40
0.0
 40
0.0
 40
0.0
 40
0.0
 40
1.0
 40
1.0
 40
1.0
 40
2.0
 40
2.0
 40
2.0
 40
3.0
 40
3.0
 40
3.0
 40
4.0
 40
4.0
 40
4.0
 40
5.0
 40
5.0
 40
5.0
 40
6.0
 40
6.0
 40
6.0
 40
7.0
 40
7.0
 40
7.0
 40
8.0
 40
8.0
 40
8.0
 40
9.0
 40
9.0
 40
9.0
 40
10.0
 40
10.0
 40
10.0
 40
11.0
 40
11.0
 40
11.0
 40
12.0
 40
12.0
 40
12.0
 40
13.0
 40
13.0
 40
13.0
 40
14.0
 40
14.0
 40
14.0
 40
15.0
 40
15.0
 40
15.0
 40
16.0
 40
16.0
 40
16.0
 40
17.0
 40
17.0
 40
17.0
 40
18.0
 40
18.0
 40
18.0
 40
19.0
 40
19.0
 40
19.0
 40
19.0
 10
132.7791476447566
 20
-146.156625668756
 30
0.0
 10
132.7791476447566
 20
-146.2582559855708
 30
0.0
 10
132.7581325622966
 20
-146.4911444403737
 30
0.0
 10
132.5717528965446
 20
-146.6246418904271
 30
0.0
 10
132.4597872932739
 20
-146.7037068318136
 30
0.0
 10
132.3602240337502
 20
-146.7081854559445
 30
0.0
 10
132.2758191943616
 20
-146.7128363348496
 30
0.0
 10
132.2758191943616
 20
-146.7128363348496
 30
0.0
 10
132.2758191943616
 20
-146.477536313207
 30
0.0
 10
132.2758191943616
 20
-146.477536313207
 30
0.0
 10
132.3495442377459
 20
-146.4752970011416
 30
0.0
 10
132.58449974984
 20
-146.4641004408145
 30
0.0
 10
132.58449974984
 20
-146.1611042928868
 30
0.0
 10
132.58449974984
 20
-146.0141709704409
 30
0.0
 10
132.5145643114894
 20
-145.8513902087628
 30
0.0
 10
132.2861544808173
 20
-145.8513902087628
 30
0.0
 10
132.1697102534159
 20
-145.8513902087628
 30
0.0
 10
132.1211344070739
 20
-145.8920423354888
 30
0.0
 10
132.0894395286096
 20
-145.9259765260185
 30
0.0
 10
132.0153699756767
 20
-146.005041467405
 30
0.0
 10
132.0026231223813
 20
-146.1294094144225
 30
0.0
 10
132.0026231223813
 20
-146.188148292446
 30
0.0
 10
132.0026231223813
 20
-146.2086466105832
 30
0.0
 10
132.0050346892209
 20
-146.2470594252438
 30
0.0
 10
132.0091688038033
 20
-146.2763427368684
 30
0.0
 10
132.0091688038033
 20
-146.2763427368684
 30
0.0
 10
131.8145209088866
 20
-146.2763427368684
 30
0.0
 10
131.8145209088866
 20
-146.2763427368684
 30
0.0
 10
131.8207220807601
 20
-146.2356906101424
 30
0.0
 10
131.8227891380512
 20
-146.1905598592857
 30
0.0
 10
131.8227891380512
 20
-146.1836696683152
 30
0.0
 10
131.8227891380512
 20
-146.1135619751904
 30
0.0
 10
131.8017740555912
 20
-145.9011718385247
 30
0.0
 10
131.564751486206
 20
-145.9011718385247
 30
0.0
 10
131.3869845591671
 20
-145.9011718385247
 30
0.0
 10
131.3322075409517
 20
-146.0412149700001
 30
0.0
 10
131.3322075409517
 20
-146.1588649808214
 30
0.0
 10
131.3322075409517
 20
-146.4413628106119
 30
0.0
 10
131.564751486206
 20
-146.4504923136478
 30
0.0
 10
131.6367539818477
 20
-146.4549709377786
 30
0.0
 10
131.6367539818477
 20
-146.4549709377786
 30
0.0
 10
131.6367539818477
 20
-146.6720119533493
 30
0.0
 10
131.6367539818477
 20
-146.6720119533493
 30
0.0
 10
131.5120415252817
 20
-146.6630547050877
 30
0.0
 10
131.1354925887439
 20
-146.6335991386888
 30
0.0
 10
131.1354925887439
 20
-146.1452568536546
 30
0.0
 10
131.1354925887439
 20
-145.9056504626555
 30
0.0
 10
131.2622721026011
 20
-145.6479573203588
 30
0.0
 10
131.5585503143326
 20
-145.6479573203588
 30
0.0
 10
131.7445854705361
 20
-145.6479573203588
 30
0.0
 10
131.8272677621821
 20
-145.7495876371737
 30
0.0
 10
131.8885904618195
 20
-145.8558688328937
 30
0.0
 10
131.9161512257015
 20
-145.7902397638997
 30
0.0
 10
131.9964219505078
 20
-145.5959363785316
 30
0.0
 10
132.2734076275219
 20
-145.5959363785316
 30
0.0
 10
132.612060513722
 20
-145.5959363785316
 30
0.0
 10
132.7791476447566
 20
-145.8603474570245
 30
0.0
 10
132.7791476447566
 20
-146.156625668756
 30
0.0
  0
HATCH
  5
158
330
151
100
AcDbEntity
  8
レイヤー 1
 62
   250
420
  2299925
440
 33554687
100
AcDbHatch
 10
0.0
 20
0.0
 30
0.0
210
0.0
220
0.0
230
1.0
  2
SOLID
 70
     1
 71
     1
 91
        1
 92
        1
 93
        1
 72
     4
 94
        3
 73
     0
 74
     0
 95
       62
 96
       58
 40
0.0
 40
0.0
 40
0.0
 40
0.0
 40
1.0
 40
1.0
 40
1.0
 40
2.0
 40
2.0
 40
2.0
 40
3.0
 40
3.0
 40
3.0
 40
4.0
 40
4.0
 40
4.0
 40
5.0
 40
5.0
 40
5.0
 40
6.0
 40
6.0
 40
6.0
 40
7.0
 40
7.0
 40
7.0
 40
8.0
 40
8.0
 40
8.0
 40
9.0
 40
9.0
 40
9.0
 40
10.0
 40
10.0
 40
10.0
 40
11.0
 40
11.0
 40
11.0
 40
12.0
 40
12.0
 40
12.0
 40
13.0
 40
13.0
 40
13.0
 40
14.0
 40
14.0
 40
14.0
 40
15.0
 40
15.0
 40
15.0
 40
16.0
 40
16.0
 40
16.0
 40
17.0
 40
17.0
 40
17.0
 40
18.0
 40
18.0
 40
18.0
 40
19.0
 40
19.0
 40
19.0
 40
19.0
 10
132.7791476447566
 20
-146.156625668756
 10
132.7791476447566
 20
-146.2582559855708
 10
132.7581325622966
 20
-146.4911444403737
 10
132.5717528965446
 20
-146.6246418904271
 10
132.4597872932739
 20
-146.7037068318136
 10
132.3602240337502
 20
-146.7081854559445
 10
132.2758191943616
 20
-146.7128363348496
 10
132.2758191943616
 20
-146.7128363348496
 10
132.2758191943616
 20
-146.477536313207
 10
132.2758191943616
 20
-146.477536313207
 10
132.3495442377459
 20
-146.4752970011416
 10
132.58449974984
 20
-146.4641004408145
 10
132.58449974984
 20
-146.1611042928868
 10
132.58449974984
 20
-146.0141709704409
 10
132.5145643114894
 20
-145.8513902087628
 10
132.2861544808173
 20
-145.8513902087628
 10
132.1697102534159
 20
-145.8513902087628
 10
132.1211344070739
 20
-145.8920423354888
 10
132.0894395286096
 20
-145.9259765260185
 10
132.0153699756767
 20
-146.005041467405
 10
132.0026231223813
 20
-146.1294094144225
 10
132.0026231223813
 20
-146.188148292446
 10
132.0026231223813
 20
-146.2086466105832
 10
132.0050346892209
 20
-146.2470594252438
 10
132.0091688038033
 20
-146.2763427368684
 10
132.0091688038033
 20
-146.2763427368684
 10
131.8145209088866
 20
-146.2763427368684
 10
131.8145209088866
 20
-146.2763427368684
 10
131.8207220807601
 20
-146.2356906101424
 10
131.8227891380512
 20
-146.1905598592857
 10
131.8227891380512
 20
-146.1836696683152
 10
131.8227891380512
 20
-146.1135619751904
 10
131.8017740555912
 20
-145.9011718385247
 10
131.564751486206
 20
-145.9011718385247
 10
131.3869845591671
 20
-145.9011718385247
 10
131.3322075409517
 20
-146.0412149700001
 10
131.3322075409517
 20
-146.1588649808214
 10
131.3322075409517
 20
-146.4413628106119
 10
131.564751486206
 20
-146.4504923136478
 10
131.6367539818477
 20
-146.4549709377786
 10
131.6367539818477
 20
-146.4549709377786
 10
131.6367539818477
 20
-146.6720119533493
 10
131.6367539818477
 20
-146.6720119533493
 10
131.5120415252817
 20
-146.6630547050877
 10
131.1354925887439
 20
-146.6335991386888
 10
131.1354925887439
 20
-146.1452568536546
 10
131.1354925887439
 20
-145.9056504626555
 10
131.2622721026011
 20
-145.6479573203588
 10
131.5585503143326
 20
-145.6479573203588
 10
131.7445854705361
 20
-145.6479573203588
 10
131.8272677621821
 20
-145.7495876371737
 10
131.8885904618195
 20
-145.8558688328937
 10
131.9161512257015
 20
-145.7902397638997
 10
131.9964219505078
 20
-145.5959363785316
 10
132.2734076275219
 20
-145.5959363785316
 10
132.612060513722
 20
-145.5959363785316
 10
132.7791476447566
 20
-145.8603474570245
 10
132.7791476447566
 20
-146.156625668756
 97
        0
 97
        1
330
157
 75
     2
 76
     1
 98
        1
 10
0.0
 20
0.0
450
        0
451
        0
460
0.0
461
0.0
452
        0
462
0.0
453
        0
470

  0
ENDBLK
  5
154
330
151
100
AcDbEntity
  8
0
100
AcDbBlockEnd
  0
ENDSEC
  0
SECTION
  2
ENTITIES
  0
INSERT
  5
7A
330
70
100
AcDbEntity
  8
レイヤー 1
100
AcDbBlockReference
  2
Block_0
 10
0.0
 20
0.0
 30
0.0
  0
ENDSEC
  0
SECTION
  2
OBJECTS
  0
DICTIONARY
  5
C
330
0
100
AcDbDictionary
281
     1
  3
ACAD_COLOR
350
63
  3
ACAD_DETAILVIEWSTYLE
350
6A
  3
ACAD_GROUP
350
D
  3
ACAD_LAYOUT
350
62
  3
ACAD_MATERIAL
350
10
  3
ACAD_MLEADERSTYLE
350
66
  3
ACAD_MLINESTYLE
350
5F
  3
ACAD_PLOTSETTINGS
350
61
  3
ACAD_PLOTSTYLENAME
350
E
  3
ACAD_SCALELIST
350
42
  3
ACAD_SECTIONVIEWSTYLE
350
68
  3
ACAD_TABLESTYLE
350
64
  3
ACAD_VISUALSTYLE
350
29
  3
ACDB_RECOMPOSE_DATA
350
162
  3
AcDbVariableDictionary
350
15A
  0
DICTIONARY
  5
63
102
{ACAD_REACTORS
330
C
102
}
330
C
100
AcDbDictionary
281
     1
  0
DICTIONARY
  5
6A
102
{ACAD_REACTORS
330
C
102
}
330
C
100
AcDbDictionary
281
     1
  3
Imperial24
350
6B
  0
DICTIONARY
  5
D
102
{ACAD_REACTORS
330
C
102
}
330
C
100
AcDbDictionary
281
     1
  0
DICTIONARY
  5
62
102
{ACAD_REACTORS
330
C
102
}
330
C
100
AcDbDictionary
281
     1
  3
Layout1
350
6F
  3
Layout2
350
77
  3
Model
350
73
  0
DICTIONARY
  5
10
102
{ACAD_REACTORS
330
C
102
}
330
C
100
AcDbDictionary
281
     1
  3
ByBlock
350
19
  3
ByLayer
350
11
  3
Global
350
21
  0
DICTIONARY
  5
66
102
{ACAD_REACTORS
330
C
102
}
330
C
100
AcDbDictionary
281
     1
  3
Standard
350
67
  0
DICTIONARY
  5
5F
102
{ACAD_REACTORS
330
C
102
}
330
C
100
AcDbDictionary
281
     1
  3
Standard
350
60
  0
DICTIONARY
  5
61
102
{ACAD_REACTORS
330
C
102
}
330
C
100
AcDbDictionary
281
     1
  0
ACDBDICTIONARYWDFLT
  5
E
102
{ACAD_REACTORS
330
C
102
}
330
C
100
AcDbDictionary
281
     1
  3
Normal
350
F
100
AcDbDictionaryWithDefault
340
F
  0
DICTIONARY
  5
42
102
{ACAD_REACTORS
330
C
102
}
330
C
100
AcDbDictionary
281
     1
  3
A0
350
43
  3
A1
350
44
  3
A2
350
45
  3
A3
350
46
  3
A4
350
47
  3
A5
350
48
  3
A6
350
49
  3
A7
350
4A
  3
A8
350
4B
  3
A9
350
4C
  3
B0
350
4D
  3
B1
350
4E
  3
B2
350
4F
  3
B3
350
50
  3
B4
350
51
  3
B5
350
52
  3
B6
350
53
  0
DICTIONARY
  5
68
102
{ACAD_REACTORS
330
C
102
}
330
C
100
AcDbDictionary
281
     1
  3
Imperial24
350
69
  0
DICTIONARY
  5
64
102
{ACAD_REACTORS
330
C
102
}
330
C
100
AcDbDictionary
281
     1
  3
Standard
350
65
  0
DICTIONARY
  5
29
102
{ACAD_REACTORS
330
C
102
}
330
C
100
AcDbDictionary
281
     1
  3
2dWireframe
350
2F
  3
Basic
350
2E
  3
Brighten
350
35
  3
ColorChange
350
39
  3
Conceptual
350
32
  3
Dim
350
34
  3
EdgeColorOff
350
41
  3
Facepattern
350
38
  3
Flat
350
2A
  3
FlatWithEdges
350
2B
  3
Gouraud
350
2C
  3
GouraudWithEdges
350
2D
  3
Hidden
350
31
  3
JitterOff
350
3F
  3
Linepattern
350
37
  3
OverhangOff
350
40
  3
Realistic
350
33
  3
Shaded
350
3E
  3
Shaded with edges
350
3D
  3
Shades of Gray
350
3A
  3
Sketchy
350
3B
  3
Thicken
350
36
  3
Wireframe
350
30
  3
X-Ray
350
3C
  0
XRECORD
  5
162
102
{ACAD_REACTORS
330
C
102
}
330
C
100
AcDbXrecord
280
     1
 90
        1
330
65
  0
DICTIONARY
  5
15A
102
{ACAD_REACTORS
330
C
102
}
330
C
100
AcDbDictionary
281
     1
  3
CANNOSCALE
350
15F
  3
CMLEADERSTYLE
350
15C
  3
CTABLESTYLE
350
15B
  3
CVIEWDETAILSTYLE
350
15D
  3
CVIEWSECTIONSTYLE
350
15E
  0
ACDBDETAILVIEWSTYLE
  5
6B
102
{ACAD_XDICTIONARY
360
197
102
}
102
{ACAD_REACTORS
330
6A
102
}
330
6A
100
AcDbModelDocViewStyle
 70
     0
  3
Imperial24
290
     0
100
AcDbDetailViewStyle
 70
     0
 71
     0
 90
        3
 71
     1
340
55
 62
   256
 40
0.24
340
0
 62
   256
 40
0.24
300

 40
0.36
280
     3
 71
     2
340
5D
 90
       25
 62
   256
 71
     3
340
55
 62
   256
 40
0.24
 90
        1
 40
0.75
 90
        1
300
%<\AcVar ViewType \f "%tc1">% %<\AcVar ViewDetailId>%\PSCALE %<\AcVar ViewScale \f "%sn">%
 71
     4
340
5D
 90
       25
 62
   256
340
5D
 90
       25
 62
   256
280
     0
  0
LAYOUT
  5
6F
102
{ACAD_REACTORS
330
62
102
}
330
62
100
AcDbPlotSettings
  1

  2

  4

  6

 40
0.0
 41
0.0
 42
0.0
 43
0.0
 44
0.0
 45
0.0
 46
0.0
 47
0.0
 48
0.0
 49
0.0
140
0.0
141
0.0
142
1.0
143
1.0
 70
   688
 72
     0
 73
     0
 74
     5
  7

 75
    16
147
1.0
 76
     0
 77
     2
 78
   300
148
0.0
149
0.0
100
AcDbLayout
  1
Layout1
 70
     1
 71
     1
 10
0.0
 20
0.0
 11
12.0
 21
9.0
 12
0.0
 22
0.0
 32
0.0
 14
0.0
 24
0.0
 34
0.0
 15
0.0
 25
0.0
 35
0.0
146
0.0
 13
0.0
 23
0.0
 33
0.0
 16
1.0
 26
0.0
 36
0.0
 17
0.0
 27
1.0
 37
0.0
 76
     0
330
6C
  0
LAYOUT
  5
77
102
{ACAD_REACTORS
330
62
102
}
330
62
100
AcDbPlotSettings
  1

  2

  4

  6

 40
0.0
 41
0.0
 42
0.0
 43
0.0
 44
0.0
 45
0.0
 46
0.0
 47
0.0
 48
0.0
 49
0.0
140
0.0
141
0.0
142
1.0
143
1.0
 70
   688
 72
     0
 73
     0
 74
     5
  7

 75
    16
147
1.0
 76
     0
 77
     2
 78
   300
148
0.0
149
0.0
100
AcDbLayout
  1
Layout2
 70
     1
 71
     2
 10
0.0
 20
0.0
 11
12.0
 21
9.0
 12
0.0
 22
0.0
 32
0.0
 14
0.0
 24
0.0
 34
0.0
 15
0.0
 25
0.0
 35
0.0
146
0.0
 13
0.0
 23
0.0
 33
0.0
 16
1.0
 26
0.0
 36
0.0
 17
0.0
 27
1.0
 37
0.0
 76
     0
330
74
  0
LAYOUT
  5
73
102
{ACAD_REACTORS
330
62
102
}
330
62
100
AcDbPlotSettings
  1

  2

  4

  6

 40
0.0
 41
0.0
 42
0.0
 43
0.0
 44
0.0
 45
0.0
 46
0.0
 47
0.0
 48
0.0
 49
0.0
140
0.0
141
0.0
142
1.0
143
1.0
 70
  1712
 72
     0
 73
     0
 74
     0
  7

 75
     0
147
1.0
 76
     0
 77
     2
 78
   300
148
0.0
149
0.0
100
AcDbLayout
  1
Model
 70
     1
 71
     0
 10
0.0
 20
0.0
 11
12.0
 21
9.0
 12
0.0
 22
0.0
 32
0.0
 14
0.0
 24
0.0
 34
0.0
 15
0.0
 25
0.0
 35
0.0
146
0.0
 13
0.0
 23
0.0
 33
0.0
 16
1.0
 26
0.0
 36
0.0
 17
0.0
 27
1.0
 37
0.0
 76
     0
330
70
  0
MATERIAL
  5
19
102
{ACAD_XDICTIONARY
360
1A
102
}
102
{ACAD_REACTORS
330
10
102
}
330
10
100
AcDbMaterial
  1
ByBlock
 72
     0
 43
0.0208333333333333
 43
0.0
 43
0.0
 43
0.0
 43
0.0
 43
0.0208333333333333
 43
0.0
 43
0.0
 43
0.0
 43
0.0
 43
1.0
 43
0.0
 43
0.0
 43
0.0
 43
0.0
 43
1.0
 77
     0
 47
0.0208333333333333
 47
0.0
 47
0.0
 47
0.0
 47
0.0
 47
0.0208333333333333
 47
0.0
 47
0.0
 47
0.0
 47
0.0
 47
1.0
 47
0.0
 47
0.0
 47
0.0
 47
0.0
 47
1.0
171
     0
 49
0.0208333333333333
 49
0.0
 49
0.0
 49
0.0
 49
0.0
 49
0.0208333333333333
 49
0.0
 49
0.0
 49
0.0
 49
0.0
 49
1.0
 49
0.0
 49
0.0
 49
0.0
 49
0.0
 49
1.0
175
     0
142
0.0208333333333333
142
0.0
142
0.0
142
0.0
142
0.0
142
0.0208333333333333
142
0.0
142
0.0
142
0.0
142
0.0
142
1.0
142
0.0
142
0.0
142
0.0
142
0.0
142
1.0
179
     0
144
0.0208333333333333
144
0.0
144
0.0
144
0.0
144
0.0
144
0.0208333333333333
144
0.0
144
0.0
144
0.0
144
0.0
144
1.0
144
0.0
144
0.0
144
0.0
144
0.0
144
1.0
147
0.0208333333333333
147
0.0
147
0.0
147
0.0
147
0.0
147
0.0208333333333333
147
0.0
147
0.0
147
0.0
147
0.0
147
1.0
147
0.0
147
0.0
147
0.0
147
0.0
147
1.0
  0
MATERIAL
  5
11
102
{ACAD_XDICTIONARY
360
12
102
}
102
{ACAD_REACTORS
330
10
102
}
330
10
100
AcDbMaterial
  1
ByLayer
 72
     0
 43
0.0208333333333333
 43
0.0
 43
0.0
 43
0.0
 43
0.0
 43
0.0208333333333333
 43
0.0
 43
0.0
 43
0.0
 43
0.0
 43
1.0
 43
0.0
 43
0.0
 43
0.0
 43
0.0
 43
1.0
 77
     0
 47
0.0208333333333333
 47
0.0
 47
0.0
 47
0.0
 47
0.0
 47
0.0208333333333333
 47
0.0
 47
0.0
 47
0.0
 47
0.0
 47
1.0
 47
0.0
 47
0.0
 47
0.0
 47
0.0
 47
1.0
171
     0
 49
0.0208333333333333
 49
0.0
 49
0.0
 49
0.0
 49
0.0
 49
0.0208333333333333
 49
0.0
 49
0.0
 49
0.0
 49
0.0
 49
1.0
 49
0.0
 49
0.0
 49
0.0
 49
0.0
 49
1.0
175
     0
142
0.0208333333333333
142
0.0
142
0.0
142
0.0
142
0.0
142
0.0208333333333333
142
0.0
142
0.0
142
0.0
142
0.0
142
1.0
142
0.0
142
0.0
142
0.0
142
0.0
142
1.0
179
     0
144
0.0208333333333333
144
0.0
144
0.0
144
0.0
144
0.0
144
0.0208333333333333
144
0.0
144
0.0
144
0.0
144
0.0
144
1.0
144
0.0
144
0.0
144
0.0
144
0.0
144
1.0
147
0.0208333333333333
147
0.0
147
0.0
147
0.0
147
0.0
147
0.0208333333333333
147
0.0
147
0.0
147
0.0
147
0.0
147
1.0
147
0.0
147
0.0
147
0.0
147
0.0
147
1.0
  0
MATERIAL
  5
21
102
{ACAD_XDICTIONARY
360
22
102
}
102
{ACAD_REACTORS
330
10
102
}
330
10
100
AcDbMaterial
  1
Global
 72
     0
 43
0.0208333333333333
 43
0.0
 43
0.0
 43
0.0
 43
0.0
 43
0.0208333333333333
 43
0.0
 43
0.0
 43
0.0
 43
0.0
 43
1.0
 43
0.0
 43
0.0
 43
0.0
 43
0.0
 43
1.0
 77
     0
 47
0.0208333333333333
 47
0.0
 47
0.0
 47
0.0
 47
0.0
 47
0.0208333333333333
 47
0.0
 47
0.0
 47
0.0
 47
0.0
 47
1.0
 47
0.0
 47
0.0
 47
0.0
 47
0.0
 47
1.0
171
     0
 49
0.0208333333333333
 49
0.0
 49
0.0
 49
0.0
 49
0.0
 49
0.0208333333333333
 49
0.0
 49
0.0
 49
0.0
 49
0.0
 49
1.0
 49
0.0
 49
0.0
 49
0.0
 49
0.0
 49
1.0
175
     0
142
0.0208333333333333
142
0.0
142
0.0
142
0.0
142
0.0
142
0.0208333333333333
142
0.0
142
0.0
142
0.0
142
0.0
142
1.0
142
0.0
142
0.0
142
0.0
142
0.0
142
1.0
179
     0
144
0.0208333333333333
144
0.0
144
0.0
144
0.0
144
0.0
144
0.0208333333333333
144
0.0
144
0.0
144
0.0
144
0.0
144
1.0
144
0.0
144
0.0
144
0.0
144
0.0
144
1.0
147
0.0208333333333333
147
0.0
147
0.0
147
0.0
147
0.0
147
0.0208333333333333
147
0.0
147
0.0
147
0.0
147
0.0
147
1.0
147
0.0
147
0.0
147
0.0
147
0.0
147
1.0
  0
MLEADERSTYLE
  5
67
102
{ACAD_XDICTIONARY
360
193
102
}
102
{ACAD_REACTORS
330
66
102
}
330
66
100
AcDbMLeaderStyle
179
     2
170
     2
171
     1
172
     0
 90
        2
 40
0.0
 41
0.0
173
     1
 91
-1056964608
340
5B
 92
       -2
290
     1
 42
0.09
291
     1
 43
0.36
  3
Standard
 44
0.18
300

342
55
174
     1
178
     6
175
     1
176
     0
 93
-1056964608
 45
0.18
292
     0
297
     0
 46
0.18
 94
-1056964608
 47
1.0
 49
1.0
140
1.0
293
     1
141
0.0
294
     1
177
     0
142
1.0
295
     0
296
     0
143
0.125
271
     0
272
     9
273
     9
  0
MLINESTYLE
  5
60
102
{ACAD_REACTORS
330
5F
102
}
330
5F
100
AcDbMlineStyle
  2
STANDARD
 70
     0
  3

 62
   256
 51
90.0
 52
90.0
 71
     2
 49
0.5
 62
   256
  6
BYLAYER
 49
-0.5
 62
   256
  6
BYLAYER
  0
ACDBPLACEHOLDER
  5
F
102
{ACAD_REACTORS
330
E
102
}
330
E
  0
SCALE
  5
43
102
{ACAD_REACTORS
330
42
102
}
330
42
100
AcDbScale
 70
     0
300
1:1
140
1.0
141
1.0
290
     1
  0
SCALE
  5
44
102
{ACAD_REACTORS
330
42
102
}
330
42
100
AcDbScale
 70
     0
300
1/128" = 1'-0"
140
0.0078125
141
12.0
290
     0
  0
SCALE
  5
45
102
{ACAD_REACTORS
330
42
102
}
330
42
100
AcDbScale
 70
     0
300
1/64" = 1'-0"
140
0.015625
141
12.0
290
     0
  0
SCALE
  5
46
102
{ACAD_REACTORS
330
42
102
}
330
42
100
AcDbScale
 70
     0
300
1/32" = 1'-0"
140
0.03125
141
12.0
290
     0
  0
SCALE
  5
47
102
{ACAD_REACTORS
330
42
102
}
330
42
100
AcDbScale
 70
     0
300
1/16" = 1'-0"
140
0.0625
141
12.0
290
     0
  0
SCALE
  5
48
102
{ACAD_REACTORS
330
42
102
}
330
42
100
AcDbScale
 70
     0
300
3/32" = 1'-0"
140
0.09375
141
12.0
290
     0
  0
SCALE
  5
49
102
{ACAD_REACTORS
330
42
102
}
330
42
100
AcDbScale
 70
     0
300
1/8" = 1'-0"
140
0.125
141
12.0
290
     0
  0
SCALE
  5
4A
102
{ACAD_REACTORS
330
42
102
}
330
42
100
AcDbScale
 70
     0
300
3/16" = 1'-0"
140
0.1875
141
12.0
290
     0
  0
SCALE
  5
4B
102
{ACAD_REACTORS
330
42
102
}
330
42
100
AcDbScale
 70
     0
300
1/4" = 1'-0"
140
0.25
141
12.0
290
     0
  0
SCALE
  5
4C
102
{ACAD_REACTORS
330
42
102
}
330
42
100
AcDbScale
 70
     0
300
3/8" = 1'-0"
140
0.375
141
12.0
290
     0
  0
SCALE
  5
4D
102
{ACAD_REACTORS
330
42
102
}
330
42
100
AcDbScale
 70
     0
300
1/2" = 1'-0"
140
0.5
141
12.0
290
     0
  0
SCALE
  5
4E
102
{ACAD_REACTORS
330
42
102
}
330
42
100
AcDbScale
 70
     0
300
3/4" = 1'-0"
140
0.75
141
12.0
290
     0
  0
SCALE
  5
4F
102
{ACAD_REACTORS
330
42
102
}
330
42
100
AcDbScale
 70
     0
300
1" = 1'-0"
140
1.0
141
12.0
290
     0
  0
SCALE
  5
50
102
{ACAD_REACTORS
330
42
102
}
330
42
100
AcDbScale
 70
     0
300
1-1/2" = 1'-0"
140
1.5
141
12.0
290
     0
  0
SCALE
  5
51
102
{ACAD_REACTORS
330
42
102
}
330
42
100
AcDbScale
 70
     0
300
3" = 1'-0"
140
3.0
141
12.0
290
     0
  0
SCALE
  5
52
102
{ACAD_REACTORS
330
42
102
}
330
42
100
AcDbScale
 70
     0
300
6" = 1'-0"
140
6.0
141
12.0
290
     0
  0
SCALE
  5
53
102
{ACAD_REACTORS
330
42
102
}
330
42
100
AcDbScale
 70
     0
300
1'-0" = 1'-0"
140
12.0
141
12.0
290
     0
  0
ACDBSECTIONVIEWSTYLE
  5
69
102
{ACAD_XDICTIONARY
360
195
102
}
102
{ACAD_REACTORS
330
68
102
}
330
68
100
AcDbModelDocViewStyle
 70
     0
  3
Imperial24
290
     0
100
AcDbSectionViewStyle
 70
     0
 71
     0
 90
       78
 71
     1
340
55
 62
   256
 40
0.24
340
0
340
0
 62
   256
 40
0.24
300
I, O, Q, S, X, Z
 40
0.48
 90
        3
 40
0.18
 90
        1
 71
     2
340
5D
 90
       25
 62
   256
340
5D
 90
       50
 62
   256
 40
0.24
 40
0.0
 40
0.24
 71
     3
340
55
 62
   256
 40
0.24
 90
        1
 40
0.75
 90
        1
300
%<\AcVar ViewType \f "%tc1">% %<\AcVar ViewSectionStartId>%-%<\AcVar ViewSectionEndId>%\PSCALE %<\AcVar ViewScale \f "%sn">%
 71
     4
 62
   256
 62
   257
300
ANSI31
 40
1.0
 90
        0
290
     0
290
     0
 90
        6
 40
0.0
 40
1.570796326794896
 40
0.2617993877991494
 40
1.308996938995747
 40
-0.2617993877991494
 40
1.832595714594046
  0
TABLESTYLE
  5
65
102
{ACAD_XDICTIONARY
360
160
102
}
102
{ACAD_REACTORS
330
64
102
}
330
64
100
AcDbTableStyle
280
     0
  3
Standard
 70
     0
 71
     0
 40
0.06
 41
0.06
280
     0
281
     0
  7
Standard
140
0.18
170
     2
 62
     0
 63
     7
283
     0
 90
      512
 91
        0
  1

274
    -2
284
     1
 64
     0
275
    -2
285
     1
 65
     0
276
    -2
286
     1
 66
     0
277
    -2
287
     1
 67
     0
278
    -2
288
     1
 68
     0
279
    -2
289
     1
 69
     0
  7
Standard
140
0.25
170
     5
 62
     0
 63
     7
283
     0
 90
      512
 91
        0
  1

274
    -2
284
     1
 64
     0
275
    -2
285
     1
 65
     0
276
    -2
286
     1
 66
     0
277
    -2
287
     1
 67
     0
278
    -2
288
     1
 68
     0
279
    -2
289
     1
 69
     0
  7
Standard
140
0.18
170
     5
 62
     0
 63
     7
283
     0
 90
      512
 91
        0
  1

274
    -2
284
     1
 64
     0
275
    -2
285
     1
 65
     0
276
    -2
286
     1
 66
     0
277
    -2
287
     1
 67
     0
278
    -2
288
     1
 68
     0
279
    -2
289
     1
 69
     0
  0
VISUALSTYLE
  5
2F
102
{ACAD_XDICTIONARY
360
16D
102
}
102
{ACAD_REACTORS
330
29
102
}
330
29
100
AcDbVisualStyle
  2
2dWireframe
 70
     4
177
     2
291
     0
 71
     0
176
     1
 72
     2
176
     1
 73
     0
176
     1
 90
        0
176
     1
 40
0.6
176
     1
 41
30.0
176
     1
 63
     7
421
 16777215
176
     1
 74
     1
176
     1
 91
        4
176
     1
 64
     7
176
     1
 65
   257
176
     1
 75
     1
176
     1
175
     1
176
     1
 42
1.0
176
     1
 92
        0
176
     1
 66
   257
176
     1
 43
1.0
176
     1
 76
     1
176
     1
 77
     6
176
     1
 78
     2
176
     1
 67
     7
176
     1
 79
     5
176
     1
170
     0
176
     1
171
     0
176
     1
290
     0
176
     1
 93
        1
176
     1
 44
0.0
176
     1
173
     0
176
     1
1001
ACAD
1000
AcDbSavedByObjectVersion
1070
     0
  0
VISUALSTYLE
  5
2E
102
{ACAD_XDICTIONARY
360
16B
102
}
102
{ACAD_REACTORS
330
29
102
}
330
29
100
AcDbVisualStyle
  2
Basic
 70
     7
177
     2
291
     1
 71
     1
176
     1
 72
     0
176
     1
 73
     1
176
     1
 90
        0
176
     1
 40
0.6
176
     1
 41
30.0
176
     1
 63
     7
421
 16777215
176
     1
 74
     0
176
     1
 91
        4
176
     1
 64
     7
176
     1
 65
   257
176
     1
 75
     1
176
     1
175
     1
176
     1
 42
1.0
176
     1
 92
        8
176
     1
 66
     7
176
     1
 43
1.0
176
     1
 76
     1
176
     1
 77
     6
176
     1
 78
     2
176
     1
 67
     7
176
     1
 79
     5
176
     1
170
     0
176
     1
171
     0
176
     1
290
     0
176
     1
 93
        1
176
     1
 44
0.0
176
     1
173
     0
176
     1
1001
ACAD
1000
AcDbSavedByObjectVersion
1070
     0
  0
VISUALSTYLE
  5
35
102
{ACAD_XDICTIONARY
360
179
102
}
102
{ACAD_REACTORS
330
29
102
}
330
29
100
AcDbVisualStyle
  2
Brighten
 70
    12
177
     2
291
     1
 71
     2
176
     1
 72
     2
176
     1
 73
     0
176
     1
 90
        0
176
     1
 40
0.6
176
     1
 41
30.0
176
     1
 63
     7
421
 16777215
176
     1
 74
     1
176
     1
 91
        4
176
     1
 64
     7
176
     1
 65
   257
176
     1
 75
     1
176
     1
175
     1
176
     1
 42
1.0
176
     1
 92
        8
176
     1
 66
     7
176
     1
 43
1.0
176
     1
 76
     1
176
     1
 77
     6
176
     1
 78
     2
176
     1
 67
     7
176
     1
 79
     5
176
     1
170
     0
176
     1
171
     0
176
     1
290
     0
176
     1
 93
        1
176
     1
 44
50.0
176
     1
173
     0
176
     1
1001
ACAD
1000
AcDbSavedByObjectVersion
1070
     0
  0
VISUALSTYLE
  5
39
102
{ACAD_XDICTIONARY
360
181
102
}
102
{ACAD_REACTORS
330
29
102
}
330
29
100
AcDbVisualStyle
  2
ColorChange
 70
    16
177
     2
291
     1
 71
     2
176
     1
 72
     2
176
     1
 73
     3
176
     1
 90
        0
176
     1
 40
0.6
176
     1
 41
30.0
176
     1
 63
     8
421
  8421504
176
     1
 74
     1
176
     1
 91
        4
176
     1
 64
     7
176
     1
 65
   257
176
     1
 75
     1
176
     1
175
     1
176
     1
 42
1.0
176
     1
 92
        8
176
     1
 66
     8
424
  8421504
176
     1
 43
1.0
176
     1
 76
     1
176
     1
 77
     6
176
     1
 78
     2
176
     1
 67
     7
176
     1
 79
     5
176
     1
170
     0
176
     1
171
     0
176
     1
290
     0
176
     1
 93
        1
176
     1
 44
0.0
176
     1
173
     0
176
     1
1001
ACAD
1000
AcDbSavedByObjectVersion
1070
     0
  0
VISUALSTYLE
  5
32
102
{ACAD_XDICTIONARY
360
173
102
}
102
{ACAD_REACTORS
330
29
102
}
330
29
100
AcDbVisualStyle
  2
Conceptual
 70
     9
177
     2
291
     0
 71
     3
176
     1
 72
     2
176
     1
 73
     0
176
     1
 90
        0
176
     1
 40
0.6
176
     1
 41
30.0
176
     1
 63
     7
421
 16777215
176
     1
 74
     2
176
     1
 91
        2
176
     1
 64
     7
176
     1
 65
   257
176
     1
 75
     1
176
     1
175
     1
176
     1
 42
179.0
176
     1
 92
        8
176
     1
 66
     7
176
     1
 43
1.0
176
     1
 76
     1
176
     1
 77
     6
176
     1
 78
     2
176
     1
 67
     7
176
     1
 79
     3
176
     1
170
     0
176
     1
171
     0
176
     1
290
     0
176
     1
 93
        1
176
     1
 44
0.0
176
     1
173
     0
176
     1
1001
ACAD
1000
AcDbSavedByObjectVersion
1070
     0
  0
VISUALSTYLE
  5
34
102
{ACAD_XDICTIONARY
360
177
102
}
102
{ACAD_REACTORS
330
29
102
}
330
29
100
AcDbVisualStyle
  2
Dim
 70
    11
177
     2
291
     1
 71
     2
176
     1
 72
     2
176
     1
 73
     0
176
     1
 90
        0
176
     1
 40
0.6
176
     1
 41
30.0
176
     1
 63
     7
421
 16777215
176
     1
 74
     1
176
     1
 91
        4
176
     1
 64
     7
176
     1
 65
   257
176
     1
 75
     1
176
     1
175
     1
176
     1
 42
1.0
176
     1
 92
        8
176
     1
 66
     7
176
     1
 43
1.0
176
     1
 76
     1
176
     1
 77
     6
176
     1
 78
     2
176
     1
 67
     7
176
     1
 79
     5
176
     1
170
     0
176
     1
171
     0
176
     1
290
     0
176
     1
 93
        1
176
     1
 44
-50.0
176
     1
173
     0
176
     1
1001
ACAD
1000
AcDbSavedByObjectVersion
1070
     0
  0
VISUALSTYLE
  5
41
102
{ACAD_XDICTIONARY
360
191
102
}
102
{ACAD_REACTORS
330
29
102
}
330
29
100
AcDbVisualStyle
  2
EdgeColorOff
 70
    22
177
     2
291
     1
 71
     2
176
     0
 72
     2
176
     0
 73
     0
176
     0
 90
        0
176
     0
 40
0.6
176
     0
 41
30.0
176
     0
 63
     7
421
 16777215
176
     0
 74
     1
176
     0
 91
        4
176
     0
 64
     7
176
     0
 65
   257
176
     0
 75
     1
176
     0
175
     1
176
     0
 42
1.0
176
     0
 92
        8
176
     2
 66
     7
176
     0
 43
1.0
176
     0
 76
     1
176
     0
 77
     6
176
     0
 78
     2
176
     0
 67
     7
176
     0
 79
     5
176
     0
170
     0
176
     0
171
     0
176
     0
290
     0
176
     0
 93
        1
176
     0
 44
0.0
176
     0
173
     0
176
     0
1001
ACAD
1000
AcDbSavedByObjectVersion
1070
     0
  0
VISUALSTYLE
  5
38
102
{ACAD_XDICTIONARY
360
17F
102
}
102
{ACAD_REACTORS
330
29
102
}
330
29
100
AcDbVisualStyle
  2
Facepattern
 70
    15
177
     2
291
     1
 71
     2
176
     1
 72
     2
176
     1
 73
     0
176
     1
 90
        0
176
     1
 40
0.6
176
     1
 41
30.0
176
     1
 63
     7
421
 16777215
176
     1
 74
     1
176
     1
 91
        4
176
     1
 64
     7
176
     1
 65
   257
176
     1
 75
     1
176
     1
175
     1
176
     1
 42
1.0
176
     1
 92
        8
176
     1
 66
     7
176
     1
 43
1.0
176
     1
 76
     1
176
     1
 77
     6
176
     1
 78
     2
176
     1
 67
     7
176
     1
 79
     5
176
     1
170
     0
176
     1
171
     0
176
     1
290
     0
176
     1
 93
        1
176
     1
 44
0.0
176
     1
173
     0
176
     1
1001
ACAD
1000
AcDbSavedByObjectVersion
1070
     0
  0
VISUALSTYLE
  5
2A
102
{ACAD_XDICTIONARY
360
163
102
}
102
{ACAD_REACTORS
330
29
102
}
330
29
100
AcDbVisualStyle
  2
Flat
 70
     0
177
     2
291
     1
 71
     2
176
     1
 72
     1
176
     1
 73
     1
176
     1
 90
        2
176
     1
 40
0.6
176
     1
 41
30.0
176
     1
 63
     7
421
 16777215
176
     1
 74
     0
176
     1
 91
        0
176
     1
 64
     7
176
     1
 65
   257
176
     1
 75
     1
176
     1
175
     1
176
     1
 42
1.0
176
     1
 92
        8
176
     1
 66
     7
176
     1
 43
1.0
176
     1
 76
     1
176
     1
 77
     6
176
     1
 78
     2
176
     1
 67
     7
176
     1
 79
     5
176
     1
170
     0
176
     1
171
     0
176
     1
290
     0
176
     1
 93
       13
176
     1
 44
0.0
176
     1
173
     0
176
     1
1001
ACAD
1000
AcDbSavedByObjectVersion
1070
     0
  0
VISUALSTYLE
  5
2B
102
{ACAD_XDICTIONARY
360
165
102
}
102
{ACAD_REACTORS
330
29
102
}
330
29
100
AcDbVisualStyle
  2
FlatWithEdges
 70
     1
177
     2
291
     1
 71
     2
176
     1
 72
     1
176
     1
 73
     1
176
     1
 90
        2
176
     1
 40
0.6
176
     1
 41
30.0
176
     1
 63
     7
421
 16777215
176
     1
 74
     1
176
     1
 91
        0
176
     1
 64
     7
176
     1
 65
   257
176
     1
 75
     1
176
     1
175
     1
176
     1
 42
1.0
176
     1
 92
        0
176
     1
 66
   257
176
     1
 43
1.0
176
     1
 76
     1
176
     1
 77
     6
176
     1
 78
     2
176
     1
 67
     7
176
     1
 79
     5
176
     1
170
     0
176
     1
171
     0
176
     1
290
     0
176
     1
 93
       13
176
     1
 44
0.0
176
     1
173
     0
176
     1
1001
ACAD
1000
AcDbSavedByObjectVersion
1070
     0
  0
VISUALSTYLE
  5
2C
102
{ACAD_XDICTIONARY
360
167
102
}
102
{ACAD_REACTORS
330
29
102
}
330
29
100
AcDbVisualStyle
  2
Gouraud
 70
     2
177
     2
291
     1
 71
     2
176
     1
 72
     2
176
     1
 73
     1
176
     1
 90
        2
176
     1
 40
0.6
176
     1
 41
30.0
176
     1
 63
     7
421
 16777215
176
     1
 74
     0
176
     1
 91
        0
176
     1
 64
     7
176
     1
 65
   257
176
     1
 75
     1
176
     1
175
     1
176
     1
 42
1.0
176
     1
 92
        0
176
     1
 66
     7
176
     1
 43
1.0
176
     1
 76
     1
176
     1
 77
     6
176
     1
 78
     2
176
     1
 67
     7
176
     1
 79
     5
176
     1
170
     0
176
     1
171
     0
176
     1
290
     0
176
     1
 93
       13
176
     1
 44
0.0
176
     1
173
     0
176
     1
1001
ACAD
1000
AcDbSavedByObjectVersion
1070
     0
  0
VISUALSTYLE
  5
2D
102
{ACAD_XDICTIONARY
360
169
102
}
102
{ACAD_REACTORS
330
29
102
}
330
29
100
AcDbVisualStyle
  2
GouraudWithEdges
 70
     3
177
     2
291
     1
 71
     2
176
     1
 72
     2
176
     1
 73
     1
176
     1
 90
        2
176
     1
 40
0.6
176
     1
 41
30.0
176
     1
 63
     7
421
 16777215
176
     1
 74
     1
176
     1
 91
        0
176
     1
 64
     7
176
     1
 65
   257
176
     1
 75
     1
176
     1
175
     1
176
     1
 42
1.0
176
     1
 92
        0
176
     1
 66
   257
176
     1
 43
1.0
176
     1
 76
     1
176
     1
 77
     6
176
     1
 78
     2
176
     1
 67
     7
176
     1
 79
     5
176
     1
170
     0
176
     1
171
     0
176
     1
290
     0
176
     1
 93
       13
176
     1
 44
0.0
176
     1
173
     0
176
     1
1001
ACAD
1000
AcDbSavedByObjectVersion
1070
     0
  0
VISUALSTYLE
  5
31
102
{ACAD_XDICTIONARY
360
171
102
}
102
{ACAD_REACTORS
330
29
102
}
330
29
100
AcDbVisualStyle
  2
Hidden
 70
     6
177
     2
291
     0
 71
     1
176
     1
 72
     2
176
     1
 73
     2
176
     1
 90
        0
176
     1
 40
0.6
176
     1
 41
30.0
176
     1
 63
     7
421
 16777215
176
     1
 74
     2
176
     1
 91
        2
176
     1
 64
     7
176
     1
 65
   257
176
     1
 75
     2
176
     1
175
     1
176
     1
 42
40.0
176
     1
 92
        0
176
     1
 66
   257
176
     1
 43
1.0
176
     1
 76
     1
176
     1
 77
     6
176
     1
 78
     2
176
     1
 67
     7
176
     1
 79
     3
176
     1
170
     0
176
     1
171
     0
176
     1
290
     0
176
     1
 93
        1
176
     1
 44
0.0
176
     1
173
     0
176
     1
1001
ACAD
1000
AcDbSavedByObjectVersion
1070
     0
  0
VISUALSTYLE
  5
3F
102
{ACAD_XDICTIONARY
360
18D
102
}
102
{ACAD_REACTORS
330
29
102
}
330
29
100
AcDbVisualStyle
  2
JitterOff
 70
    20
177
     2
291
     1
 71
     2
176
     0
 72
     2
176
     0
 73
     0
176
     0
 90
        0
176
     0
 40
0.6
176
     0
 41
30.0
176
     0
 63
     7
421
 16777215
176
     0
 74
     1
176
     0
 91
        4
176
     0
 64
     7
176
     0
 65
   257
176
     0
 75
     1
176
     0
175
     1
176
     0
 42
1.0
176
     0
 92
       10
176
     2
 66
     7
176
     0
 43
1.0
176
     0
 76
     1
176
     0
 77
     6
176
     0
 78
     2
176
     0
 67
     7
176
     0
 79
     5
176
     0
170
     0
176
     0
171
     0
176
     0
290
     0
176
     0
 93
        1
176
     0
 44
0.0
176
     0
173
     0
176
     0
1001
ACAD
1000
AcDbSavedByObjectVersion
1070
     0
  0
VISUALSTYLE
  5
37
102
{ACAD_XDICTIONARY
360
17D
102
}
102
{ACAD_REACTORS
330
29
102
}
330
29
100
AcDbVisualStyle
  2
Linepattern
 70
    14
177
     2
291
     1
 71
     2
176
     1
 72
     2
176
     1
 73
     0
176
     1
 90
        0
176
     1
 40
0.6
176
     1
 41
30.0
176
     1
 63
     7
421
 16777215
176
     1
 74
     1
176
     1
 91
        4
176
     1
 64
     7
176
     1
 65
   257
176
     1
 75
     7
176
     1
175
     7
176
     1
 42
1.0
176
     1
 92
        8
176
     1
 66
     7
176
     1
 43
1.0
176
     1
 76
     1
176
     1
 77
     6
176
     1
 78
     2
176
     1
 67
     7
176
     1
 79
     5
176
     1
170
     0
176
     1
171
     0
176
     1
290
     0
176
     1
 93
        1
176
     1
 44
0.0
176
     1
173
     0
176
     1
1001
ACAD
1000
AcDbSavedByObjectVersion
1070
     0
  0
VISUALSTYLE
  5
40
102
{ACAD_XDICTIONARY
360
18F
102
}
102
{ACAD_REACTORS
330
29
102
}
330
29
100
AcDbVisualStyle
  2
OverhangOff
 70
    21
177
     2
291
     1
 71
     2
176
     0
 72
     2
176
     0
 73
     0
176
     0
 90
        0
176
     0
 40
0.6
176
     0
 41
30.0
176
     0
 63
     7
421
 16777215
176
     0
 74
     1
176
     0
 91
        4
176
     0
 64
     7
176
     0
 65
   257
176
     0
 75
     1
176
     0
175
     1
176
     0
 42
1.0
176
     0
 92
        9
176
     2
 66
     7
176
     0
 43
1.0
176
     0
 76
     1
176
     0
 77
     6
176
     0
 78
     2
176
     0
 67
     7
176
     0
 79
     5
176
     0
170
     0
176
     0
171
     0
176
     0
290
     0
176
     0
 93
        1
176
     0
 44
0.0
176
     0
173
     0
176
     0
1001
ACAD
1000
AcDbSavedByObjectVersion
1070
     0
  0
VISUALSTYLE
  5
33
102
{ACAD_XDICTIONARY
360
175
102
}
102
{ACAD_REACTORS
330
29
102
}
330
29
100
AcDbVisualStyle
  2
Realistic
 70
     8
177
     2
291
     0
 71
     2
176
     1
 72
     3
176
     1
 73
     0
176
     1
 90
        2
176
     1
 40
0.6
176
     1
 41
30.0
176
     1
 63
     7
421
 16777215
176
     1
 74
     0
176
     1
 91
        0
176
     1
 64
     7
176
     1
 65
   257
176
     1
 75
     1
176
     1
175
     1
176
     1
 42
1.0
176
     1
 92
        8
176
     1
 66
   257
176
     1
 43
1.0
176
     1
 76
     1
176
     1
 77
     6
176
     1
 78
     2
176
     1
 67
     7
176
     1
 79
     3
176
     1
170
     0
176
     1
171
     0
176
     1
290
     0
176
     1
 93
       13
176
     1
 44
0.0
176
     1
173
     0
176
     1
1001
ACAD
1000
AcDbSavedByObjectVersion
1070
     0
  0
VISUALSTYLE
  5
3E
102
{ACAD_XDICTIONARY
360
18B
102
}
102
{ACAD_REACTORS
330
29
102
}
330
29
100
AcDbVisualStyle
  2
Shaded
 70
    27
177
     2
291
     0
 71
     2
176
     1
 72
     2
176
     1
 73
     1
176
     1
 90
        2
176
     1
 40
0.6
176
     1
 41
30.0
176
     1
 63
     7
421
 16777215
176
     1
 74
     0
176
     1
 91
        4
176
     1
 64
     7
176
     1
 65
   257
176
     1
 75
     1
176
     1
175
     1
176
     1
 42
1.0
176
     1
 92
        8
176
     1
 66
   257
176
     1
 43
1.0
176
     1
 76
     1
176
     1
 77
     6
176
     1
 78
     2
176
     1
 67
     8
425
  7895160
176
     1
 79
     3
176
     1
170
     0
176
     1
171
     0
176
     1
290
     0
176
     1
 93
        5
176
     1
 44
0.0
176
     1
173
     0
176
     1
1001
ACAD
1000
AcDbSavedByObjectVersion
1070
     0
  0
VISUALSTYLE
  5
3D
102
{ACAD_XDICTIONARY
360
189
102
}
102
{ACAD_REACTORS
330
29
102
}
330
29
100
AcDbVisualStyle
  2
Shaded with edges
 70
    26
177
     2
291
     0
 71
     2
176
     1
 72
     2
176
     1
 73
     1
176
     1
 90
        2
176
     1
 40
0.6
176
     1
 41
30.0
176
     1
 63
     7
421
 16777215
176
     1
 74
     1
176
     1
 91
        2
176
     1
 64
     7
176
     1
 65
   257
176
     1
 75
     2
176
     1
175
     1
176
     1
 42
1.0
176
     1
 92
        8
176
     1
 66
   257
176
     1
 43
1.0
176
     1
 76
     1
176
     1
 77
     6
176
     1
 78
     2
176
     1
 67
     7
176
     1
 79
     3
176
     1
170
     0
176
     1
171
     0
176
     1
290
     0
176
     1
 93
        5
176
     1
 44
0.0
176
     1
173
     0
176
     1
1001
ACAD
1000
AcDbSavedByObjectVersion
1070
     0
  0
VISUALSTYLE
  5
3A
102
{ACAD_XDICTIONARY
360
183
102
}
102
{ACAD_REACTORS
330
29
102
}
330
29
100
AcDbVisualStyle
  2
Shades of Gray
 70
    23
177
     2
291
     0
 71
     2
176
     1
 72
     2
176
     1
 73
     3
176
     1
 90
        0
176
     1
 40
0.6
176
     1
 41
30.0
176
     1
 63
     7
421
 16777215
176
     1
 74
     2
176
     1
 91
        2
176
     1
 64
     7
176
     1
 65
     7
176
     1
 75
     1
176
     1
175
     1
176
     1
 42
40.0
176
     1
 92
        8
176
     1
 66
     7
176
     1
 43
1.0
176
     1
 76
     1
176
     1
 77
     6
176
     1
 78
     2
176
     1
 67
     7
176
     1
 79
     3
176
     1
170
     0
176
     1
171
     0
176
     1
290
     0
176
     1
 93
        1
176
     1
 44
0.0
176
     1
173
     0
176
     1
1001
ACAD
1000
AcDbSavedByObjectVersion
1070
     0
  0
VISUALSTYLE
  5
3B
102
{ACAD_XDICTIONARY
360
185
102
}
102
{ACAD_REACTORS
330
29
102
}
330
29
100
AcDbVisualStyle
  2
Sketchy
 70
    24
177
     2
291
     0
 71
     1
176
     1
 72
     2
176
     1
 73
     2
176
     1
 90
        0
176
     1
 40
0.6
176
     1
 41
30.0
176
     1
 63
     7
421
 16777215
176
     1
 74
     2
176
     1
 91
        2
176
     1
 64
     7
176
     1
 65
     7
176
     1
 75
     1
176
     1
175
     1
176
     1
 42
40.0
176
     1
 92
       11
176
     1
 66
     7
176
     1
 43
1.0
176
     1
 76
     1
176
     1
 77
     6
176
     1
 78
     2
176
     1
 67
     7
176
     1
 79
     6
176
     1
170
     0
176
     1
171
     0
176
     1
290
     0
176
     1
 93
        1
176
     1
 44
0.0
176
     1
173
     0
176
     1
1001
ACAD
1000
AcDbSavedByObjectVersion
1070
     0
  0
VISUALSTYLE
  5
36
102
{ACAD_XDICTIONARY
360
17B
102
}
102
{ACAD_REACTORS
330
29
102
}
330
29
100
AcDbVisualStyle
  2
Thicken
 70
    13
177
     2
291
     1
 71
     2
176
     1
 72
     2
176
     1
 73
     0
176
     1
 90
        0
176
     1
 40
0.6
176
     1
 41
30.0
176
     1
 63
     7
421
 16777215
176
     1
 74
     1
176
     1
 91
        4
176
     1
 64
     7
176
     1
 65
   257
176
     1
 75
     1
176
     1
175
     1
176
     1
 42
1.0
176
     1
 92
       12
176
     1
 66
     7
176
     1
 43
1.0
176
     1
 76
     1
176
     1
 77
     6
176
     1
 78
     2
176
     1
 67
     7
176
     1
 79
     5
176
     1
170
     0
176
     1
171
     0
176
     1
290
     0
176
     1
 93
        1
176
     1
 44
0.0
176
     1
173
     0
176
     1
1001
ACAD
1000
AcDbSavedByObjectVersion
1070
     0
  0
VISUALSTYLE
  5
30
102
{ACAD_XDICTIONARY
360
16F
102
}
102
{ACAD_REACTORS
330
29
102
}
330
29
100
AcDbVisualStyle
  2
Wireframe
 70
     5
177
     2
291
     0
 71
     0
176
     1
 72
     2
176
     1
 73
     0
176
     1
 90
        0
176
     1
 40
0.6
176
     1
 41
30.0
176
     1
 63
     7
421
 16777215
176
     1
 74
     1
176
     1
 91
        4
176
     1
 64
     7
176
     1
 65
   257
176
     1
 75
     1
176
     1
175
     1
176
     1
 42
1.0
176
     1
 92
        0
176
     1
 66
   257
176
     1
 43
1.0
176
     1
 76
     1
176
     1
 77
     6
176
     1
 78
     2
176
     1
 67
     7
176
     1
 79
     3
176
     1
170
     0
176
     1
171
     0
176
     1
290
     0
176
     1
 93
        1
176
     1
 44
0.0
176
     1
173
     0
176
     1
1001
ACAD
1000
AcDbSavedByObjectVersion
1070
     0
  0
VISUALSTYLE
  5
3C
102
{ACAD_XDICTIONARY
360
187
102
}
102
{ACAD_REACTORS
330
29
102
}
330
29
100
AcDbVisualStyle
  2
X-Ray
 70
    25
177
     2
291
     0
 71
     2
176
     1
 72
     2
176
     1
 73
     1
176
     1
 90
        1
176
     1
 40
0.5
176
     1
 41
30.0
176
     1
 63
     7
421
 16777215
176
     1
 74
     1
176
     1
 91
        0
176
     1
 64
     7
176
     1
 65
   257
176
     1
 75
     1
176
     1
175
     1
176
     1
 42
1.0
176
     1
 92
        8
176
     1
 66
     7
176
     1
 43
1.0
176
     1
 76
     1
176
     1
 77
     6
176
     1
 78
     2
176
     1
 67
     7
176
     1
 79
     3
176
     1
170
     0
176
     1
171
     0
176
     1
290
     0
176
     1
 93
       13
176
     1
 44
0.0
176
     1
173
     0
176
     1
1001
ACAD
1000
AcDbSavedByObjectVersion
1070
     0
  0
DICTIONARYVAR
  5
15F
102
{ACAD_REACTORS
330
15A
102
}
330
15A
100
DictionaryVariables
280
     0
  1
1:1
  0
DICTIONARYVAR
  5
15C
102
{ACAD_REACTORS
330
15A
102
}
330
15A
100
DictionaryVariables
280
     0
  1
STANDARD
  0
DICTIONARYVAR
  5
15B
102
{ACAD_REACTORS
330
15A
102
}
330
15A
100
DictionaryVariables
280
     0
  1
STANDARD
  0
DICTIONARYVAR
  5
15D
102
{ACAD_REACTORS
330
15A
102
}
330
15A
100
DictionaryVariables
280
     0
  1
Imperial24
  0
DICTIONARYVAR
  5
15E
102
{ACAD_REACTORS
330
15A
102
}
330
15A
100
DictionaryVariables
280
     0
  1
Imperial24
  0
DICTIONARY
  5
197
330
6B
100
AcDbDictionary
280
     1
281
     1
  3
ACAD_XREC_ROUNDTRIP
360
198
  0
DICTIONARY
  5
1A
330
19
100
AcDbDictionary
280
     1
281
     1
  3
BUMPTILE
360
1C
  3
DIFFUSETILE
360
1B
  3
OPACITYTILE
360
1F
  3
REFLECTIONTILE
360
1E
  3
REFRACTIONTILE
360
20
  3
SPECULARTILE
360
1D
  0
DICTIONARY
  5
12
330
11
100
AcDbDictionary
280
     1
281
     1
  3
BUMPTILE
360
14
  3
DIFFUSETILE
360
13
  3
OPACITYTILE
360
17
  3
REFLECTIONTILE
360
16
  3
REFRACTIONTILE
360
18
  3
SPECULARTILE
360
15
  0
DICTIONARY
  5
22
330
21
100
AcDbDictionary
280
     1
281
     1
  3
BUMPTILE
360
24
  3
DIFFUSETILE
360
23
  3
OPACITYTILE
360
27
  3
REFLECTIONTILE
360
26
  3
REFRACTIONTILE
360
28
  3
SPECULARTILE
360
25
  0
DICTIONARY
  5
193
330
67
100
AcDbDictionary
280
     1
281
     1
  3
ACAD_XREC_ROUNDTRIP
360
194
  0
DICTIONARY
  5
195
330
69
100
AcDbDictionary
280
     1
281
     1
  3
ACAD_XREC_ROUNDTRIP
360
196
  0
DICTIONARY
  5
160
330
65
100
AcDbDictionary
280
     1
281
     1
  3
ACAD_ROUNDTRIP_2008_TABLESTYLE_CELLSTYLEMAP
360
161
  0
DICTIONARY
  5
16D
330
2F
100
AcDbDictionary
280
     1
281
     1
  3
ACAD_XREC_ROUNDTRIP
360
16E
  0
DICTIONARY
  5
16B
330
2E
100
AcDbDictionary
280
     1
281
     1
  3
ACAD_XREC_ROUNDTRIP
360
16C
  0
DICTIONARY
  5
179
330
35
100
AcDbDictionary
280
     1
281
     1
  3
ACAD_XREC_ROUNDTRIP
360
17A
  0
DICTIONARY
  5
181
330
39
100
AcDbDictionary
280
     1
281
     1
  3
ACAD_XREC_ROUNDTRIP
360
182
  0
DICTIONARY
  5
173
330
32
100
AcDbDictionary
280
     1
281
     1
  3
ACAD_XREC_ROUNDTRIP
360
174
  0
DICTIONARY
  5
177
330
34
100
AcDbDictionary
280
     1
281
     1
  3
ACAD_XREC_ROUNDTRIP
360
178
  0
DICTIONARY
  5
191
330
41
100
AcDbDictionary
280
     1
281
     1
  3
ACAD_XREC_ROUNDTRIP
360
192
  0
DICTIONARY
  5
17F
330
38
100
AcDbDictionary
280
     1
281
     1
  3
ACAD_XREC_ROUNDTRIP
360
180
  0
DICTIONARY
  5
163
330
2A
100
AcDbDictionary
280
     1
281
     1
  3
ACAD_XREC_ROUNDTRIP
360
164
  0
DICTIONARY
  5
165
330
2B
100
AcDbDictionary
280
     1
281
     1
  3
ACAD_XREC_ROUNDTRIP
360
166
  0
DICTIONARY
  5
167
330
2C
100
AcDbDictionary
280
     1
281
     1
  3
ACAD_XREC_ROUNDTRIP
360
168
  0
DICTIONARY
  5
169
330
2D
100
AcDbDictionary
280
     1
281
     1
  3
ACAD_XREC_ROUNDTRIP
360
16A
  0
DICTIONARY
  5
171
330
31
100
AcDbDictionary
280
     1
281
     1
  3
ACAD_XREC_ROUNDTRIP
360
172
  0
DICTIONARY
  5
18D
330
3F
100
AcDbDictionary
280
     1
281
     1
  3
ACAD_XREC_ROUNDTRIP
360
18E
  0
DICTIONARY
  5
17D
330
37
100
AcDbDictionary
280
     1
281
     1
  3
ACAD_XREC_ROUNDTRIP
360
17E
  0
DICTIONARY
  5
18F
330
40
100
AcDbDictionary
280
     1
281
     1
  3
ACAD_XREC_ROUNDTRIP
360
190
  0
DICTIONARY
  5
175
330
33
100
AcDbDictionary
280
     1
281
     1
  3
ACAD_XREC_ROUNDTRIP
360
176
  0
DICTIONARY
  5
18B
330
3E
100
AcDbDictionary
280
     1
281
     1
  3
ACAD_XREC_ROUNDTRIP
360
18C
  0
DICTIONARY
  5
189
330
3D
100
AcDbDictionary
280
     1
281
     1
  3
ACAD_XREC_ROUNDTRIP
360
18A
  0
DICTIONARY
  5
183
330
3A
100
AcDbDictionary
280
     1
281
     1
  3
ACAD_XREC_ROUNDTRIP
360
184
  0
DICTIONARY
  5
185
330
3B
100
AcDbDictionary
280
     1
281
     1
  3
ACAD_XREC_ROUNDTRIP
360
186
  0
DICTIONARY
  5
17B
330
36
100
AcDbDictionary
280
     1
281
     1
  3
ACAD_XREC_ROUNDTRIP
360
17C
  0
DICTIONARY
  5
16F
330
30
100
AcDbDictionary
280
     1
281
     1
  3
ACAD_XREC_ROUNDTRIP
360
170
  0
DICTIONARY
  5
187
330
3C
100
AcDbDictionary
280
     1
281
     1
  3
ACAD_XREC_ROUNDTRIP
360
188
  0
XRECORD
  5
198
102
{ACAD_REACTORS
330
197
102
}
330
197
100
AcDbXrecord
280
     1
102
DISPLAYNAME
  1
Imperial24
102
FLAGS
 90
        0
  0
XRECORD
  5
1C
102
{ACAD_REACTORS
330
1A
102
}
330
1A
100
AcDbXrecord
280
     1
270
     1
271
     1
  0
XRECORD
  5
1B
102
{ACAD_REACTORS
330
1A
102
}
330
1A
100
AcDbXrecord
280
     1
270
     1
271
     1
  0
XRECORD
  5
1F
102
{ACAD_REACTORS
330
1A
102
}
330
1A
100
AcDbXrecord
280
     1
270
     1
271
     1
  0
XRECORD
  5
1E
102
{ACAD_REACTORS
330
1A
102
}
330
1A
100
AcDbXrecord
280
     1
270
     1
271
     1
  0
XRECORD
  5
20
102
{ACAD_REACTORS
330
1A
102
}
330
1A
100
AcDbXrecord
280
     1
270
     1
271
     1
  0
XRECORD
  5
1D
102
{ACAD_REACTORS
330
1A
102
}
330
1A
100
AcDbXrecord
280
     1
270
     1
271
     1
  0
XRECORD
  5
14
102
{ACAD_REACTORS
330
12
102
}
330
12
100
AcDbXrecord
280
     1
270
     1
271
     1
  0
XRECORD
  5
13
102
{ACAD_REACTORS
330
12
102
}
330
12
100
AcDbXrecord
280
     1
270
     1
271
     1
  0
XRECORD
  5
17
102
{ACAD_REACTORS
330
12
102
}
330
12
100
AcDbXrecord
280
     1
270
     1
271
     1
  0
XRECORD
  5
16
102
{ACAD_REACTORS
330
12
102
}
330
12
100
AcDbXrecord
280
     1
270
     1
271
     1
  0
XRECORD
  5
18
102
{ACAD_REACTORS
330
12
102
}
330
12
100
AcDbXrecord
280
     1
270
     1
271
     1
  0
XRECORD
  5
15
102
{ACAD_REACTORS
330
12
102
}
330
12
100
AcDbXrecord
280
     1
270
     1
271
     1
  0
XRECORD
  5
24
102
{ACAD_REACTORS
330
22
102
}
330
22
100
AcDbXrecord
280
     1
270
     1
271
     1
  0
XRECORD
  5
23
102
{ACAD_REACTORS
330
22
102
}
330
22
100
AcDbXrecord
280
     1
270
     1
271
     1
  0
XRECORD
  5
27
102
{ACAD_REACTORS
330
22
102
}
330
22
100
AcDbXrecord
280
     1
270
     1
271
     1
  0
XRECORD
  5
26
102
{ACAD_REACTORS
330
22
102
}
330
22
100
AcDbXrecord
280
     1
270
     1
271
     1
  0
XRECORD
  5
28
102
{ACAD_REACTORS
330
22
102
}
330
22
100
AcDbXrecord
280
     1
270
     1
271
     1
  0
XRECORD
  5
25
102
{ACAD_REACTORS
330
22
102
}
330
22
100
AcDbXrecord
280
     1
270
     1
271
     1
  0
XRECORD
  5
194
102
{ACAD_REACTORS
330
193
102
}
330
193
100
AcDbXrecord
280
     1
102
ACAD_ROUNDTRIP_2012_MLEADER_STYLE
298
     1
  0
XRECORD
  5
196
102
{ACAD_REACTORS
330
195
102
}
330
195
100
AcDbXrecord
280
     1
102
DISPLAYNAME
  1
Imperial24
102
FLAGS
 90
        0
  0
CELLSTYLEMAP
  5
161
102
{ACAD_REACTORS
330
160
102
}
330
160
100
AcDbCellStyleMap
 90
        3
300
CELLSTYLE
  1
TABLEFORMAT_BEGIN
 90
        5
170
     1
 91
        0
 92
    32768
 62
   257
 93
        1
300
CONTENTFORMAT
  1
CONTENTFORMAT_BEGIN
 90
        0
 91
        0
 92
      512
 93
        0
300

 40
0.0
140
1.0
 94
        5
 62
     0
340
55
144
0.25
309
CONTENTFORMAT_END
171
     0
 94
        0
309
TABLEFORMAT_END
  1
CELLSTYLE_BEGIN
 90
        1
 91
        1
300
_TITLE
309
CELLSTYLE_END
300
CELLSTYLE
  1
TABLEFORMAT_BEGIN
 90
        5
170
     1
 91
        0
 92
        0
 62
   257
 93
        1
300
CONTENTFORMAT
  1
CONTENTFORMAT_BEGIN
 90
        0
 91
        0
 92
      512
 93
        0
300

 40
0.0
140
1.0
 94
        5
 62
     0
340
55
144
0.18
309
CONTENTFORMAT_END
171
     0
 94
        0
309
TABLEFORMAT_END
  1
CELLSTYLE_BEGIN
 90
        2
 91
        1
300
_HEADER
309
CELLSTYLE_END
300
CELLSTYLE
  1
TABLEFORMAT_BEGIN
 90
        5
170
     1
 91
        0
 92
        0
 62
   257
 93
        1
300
CONTENTFORMAT
  1
CONTENTFORMAT_BEGIN
 90
        0
 91
        0
 92
      512
 93
        0
300

 40
0.0
140
1.0
 94
        2
 62
     0
340
55
144
0.18
309
CONTENTFORMAT_END
171
     0
 94
        0
309
TABLEFORMAT_END
  1
CELLSTYLE_BEGIN
 90
        3
 91
        2
300
_DATA
309
CELLSTYLE_END
  0
XRECORD
  5
16E
102
{ACAD_REACTORS
330
16D
102
}
330
16D
100
AcDbXrecord
280
     1
102
RTVSPost2010Prop28
280
     1
102
RTVSPost2010PropOp28
 70
     1
102
RTVSPost2010Prop29
280
     1
102
RTVSPost2010PropOp29
 70
     1
102
RTVSPost2010Prop30
280
     0
102
RTVSPost2010PropOp30
 70
     1
102
RTVSPost2010Prop31
280
     0
102
RTVSPost2010PropOp31
 70
     1
102
RTVSPost2010Prop32
280
     0
102
RTVSPost2010PropOp32
 70
     1
102
RTVSPost2010Prop33
280
     0
102
RTVSPost2010PropOp33
 70
     1
102
RTVSPost2010Prop34
280
     0
102
RTVSPost2010PropOp34
 70
     1
102
RTVSPost2010Prop35
280
     0
102
RTVSPost2010PropOp35
 70
     1
102
RTVSPost2010Prop36
280
     0
102
RTVSPost2010PropOp36
 70
     1
102
RTVSPost2010Prop37
 90
       50
102
RTVSPost2010PropOp37
 70
     1
102
RTVSPost2010Prop38
140
0.0
102
RTVSPost2010PropOp38
 70
     1
102
RTVSPost2010Prop39
140
1.0
102
RTVSPost2010PropOp39
 70
     1
102
RTVSPost2010Prop40
 90
        0
102
RTVSPost2010PropOp40
 70
     1
102
RTVSPost2010Prop41ColorIndex
 90
       18
102
RTVSPost2010Prop41ColorRGB
 90
        0
102
RTVSPost2010PropOp41
 70
     1
102
RTVSPost2010Prop42
 90
       50
102
RTVSPost2010PropOp42
 70
     1
102
RTVSPost2010Prop43
 90
        3
102
RTVSPost2010PropOp43
 70
     1
102
RTVSPost2010Prop44ColorIndex
 90
        5
102
RTVSPost2010Prop44ColorRGB
 90
      255
102
RTVSPost2010PropOp44
 70
     1
102
RTVSPost2010Prop45
280
     0
102
RTVSPost2010PropOp45
 70
     1
102
RTVSPost2010Prop46
 90
       50
102
RTVSPost2010PropOp46
 70
     1
102
RTVSPost2010Prop47
 90
       50
102
RTVSPost2010PropOp47
 70
     1
102
RTVSPost2010Prop48
 90
       50
102
RTVSPost2010PropOp48
 70
     1
102
RTVSPost2010Prop49
280
     0
102
RTVSPost2010PropOp49
 70
     1
102
RTVSPost2010Prop50
 90
       50
102
RTVSPost2010PropOp50
 70
     1
102
RTVSPost2010Prop51ColorIndex
 90
      256
102
RTVSPost2010Prop51ColorRGB
 90
-16777216
102
RTVSPost2010PropOp51
 70
     0
102
RTVSPost2010Prop52
140
1.0
102
RTVSPost2010PropOp52
 70
     0
102
RTVSPost2010Prop53
 90
        2
102
RTVSPost2010PropOp53
 70
     1
102
RTVSPost2010Prop54
  1
strokes_ogs.tif
102
RTVSPost2010PropOp54
 70
     1
102
RTVSPost2010Prop55
280
     0
102
RTVSPost2010PropOp55
 70
     1
102
RTVSPost2010Prop56
140
1.0
102
RTVSPost2010PropOp56
 70
     1
102
RTVSPost2010Prop57
140
1.0
102
RTVSPost2010PropOp57
 70
     1
  0
XRECORD
  5
16C
102
{ACAD_REACTORS
330
16B
102
}
330
16B
100
AcDbXrecord
280
     1
102
RTVSPost2010Prop28
280
     0
102
RTVSPost2010PropOp28
 70
     1
102
RTVSPost2010Prop29
280
     1
102
RTVSPost2010PropOp29
 70
     1
102
RTVSPost2010Prop30
280
     1
102
RTVSPost2010PropOp30
 70
     1
102
RTVSPost2010Prop31
280
     0
102
RTVSPost2010PropOp31
 70
     1
102
RTVSPost2010Prop32
280
     0
102
RTVSPost2010PropOp32
 70
     1
102
RTVSPost2010Prop33
280
     0
102
RTVSPost2010PropOp33
 70
     1
102
RTVSPost2010Prop34
280
     0
102
RTVSPost2010PropOp34
 70
     1
102
RTVSPost2010Prop35
280
     0
102
RTVSPost2010PropOp35
 70
     1
102
RTVSPost2010Prop36
280
     0
102
RTVSPost2010PropOp36
 70
     1
102
RTVSPost2010Prop37
 90
       50
102
RTVSPost2010PropOp37
 70
     1
102
RTVSPost2010Prop38
140
0.0
102
RTVSPost2010PropOp38
 70
     1
102
RTVSPost2010Prop39
140
1.0
102
RTVSPost2010PropOp39
 70
     1
102
RTVSPost2010Prop40
 90
        0
102
RTVSPost2010PropOp40
 70
     1
102
RTVSPost2010Prop41ColorIndex
 90
       18
102
RTVSPost2010Prop41ColorRGB
 90
        0
102
RTVSPost2010PropOp41
 70
     1
102
RTVSPost2010Prop42
 90
       50
102
RTVSPost2010PropOp42
 70
     1
102
RTVSPost2010Prop43
 90
        3
102
RTVSPost2010PropOp43
 70
     1
102
RTVSPost2010Prop44ColorIndex
 90
        5
102
RTVSPost2010Prop44ColorRGB
 90
      255
102
RTVSPost2010PropOp44
 70
     1
102
RTVSPost2010Prop45
280
     0
102
RTVSPost2010PropOp45
 70
     1
102
RTVSPost2010Prop46
 90
       50
102
RTVSPost2010PropOp46
 70
     1
102
RTVSPost2010Prop47
 90
       50
102
RTVSPost2010PropOp47
 70
     1
102
RTVSPost2010Prop48
 90
       50
102
RTVSPost2010PropOp48
 70
     1
102
RTVSPost2010Prop49
280
     0
102
RTVSPost2010PropOp49
 70
     1
102
RTVSPost2010Prop50
 90
       50
102
RTVSPost2010PropOp50
 70
     1
102
RTVSPost2010Prop51ColorIndex
 90
      256
102
RTVSPost2010Prop51ColorRGB
 90
-16777216
102
RTVSPost2010PropOp51
 70
     0
102
RTVSPost2010Prop52
140
1.0
102
RTVSPost2010PropOp52
 70
     0
102
RTVSPost2010Prop53
 90
        2
102
RTVSPost2010PropOp53
 70
     1
102
RTVSPost2010Prop54
  1
strokes_ogs.tif
102
RTVSPost2010PropOp54
 70
     1
102
RTVSPost2010Prop55
280
     0
102
RTVSPost2010PropOp55
 70
     1
102
RTVSPost2010Prop56
140
1.0
102
RTVSPost2010PropOp56
 70
     1
102
RTVSPost2010Prop57
140
1.0
102
RTVSPost2010PropOp57
 70
     1
  0
XRECORD
  5
17A
102
{ACAD_REACTORS
330
179
102
}
330
179
100
AcDbXrecord
280
     1
102
RTVSPost2010Prop28
280
     0
102
RTVSPost2010PropOp28
 70
     1
102
RTVSPost2010Prop29
280
     1
102
RTVSPost2010PropOp29
 70
     1
102
RTVSPost2010Prop30
280
     1
102
RTVSPost2010PropOp30
 70
     1
102
RTVSPost2010Prop31
280
     0
102
RTVSPost2010PropOp31
 70
     1
102
RTVSPost2010Prop32
280
     0
102
RTVSPost2010PropOp32
 70
     1
102
RTVSPost2010Prop33
280
     0
102
RTVSPost2010PropOp33
 70
     1
102
RTVSPost2010Prop34
280
     0
102
RTVSPost2010PropOp34
 70
     1
102
RTVSPost2010Prop35
280
     0
102
RTVSPost2010PropOp35
 70
     1
102
RTVSPost2010Prop36
280
     0
102
RTVSPost2010PropOp36
 70
     1
102
RTVSPost2010Prop37
 90
       50
102
RTVSPost2010PropOp37
 70
     1
102
RTVSPost2010Prop38
140
0.0
102
RTVSPost2010PropOp38
 70
     1
102
RTVSPost2010Prop39
140
1.0
102
RTVSPost2010PropOp39
 70
     1
102
RTVSPost2010Prop40
 90
        0
102
RTVSPost2010PropOp40
 70
     1
102
RTVSPost2010Prop41ColorIndex
 90
       18
102
RTVSPost2010Prop41ColorRGB
 90
        0
102
RTVSPost2010PropOp41
 70
     1
102
RTVSPost2010Prop42
 90
       50
102
RTVSPost2010PropOp42
 70
     1
102
RTVSPost2010Prop43
 90
        3
102
RTVSPost2010PropOp43
 70
     1
102
RTVSPost2010Prop44ColorIndex
 90
        5
102
RTVSPost2010Prop44ColorRGB
 90
      255
102
RTVSPost2010PropOp44
 70
     1
102
RTVSPost2010Prop45
280
     0
102
RTVSPost2010PropOp45
 70
     1
102
RTVSPost2010Prop46
 90
       50
102
RTVSPost2010PropOp46
 70
     1
102
RTVSPost2010Prop47
 90
       50
102
RTVSPost2010PropOp47
 70
     1
102
RTVSPost2010Prop48
 90
       50
102
RTVSPost2010PropOp48
 70
     1
102
RTVSPost2010Prop49
280
     0
102
RTVSPost2010PropOp49
 70
     1
102
RTVSPost2010Prop50
 90
       50
102
RTVSPost2010PropOp50
 70
     1
102
RTVSPost2010Prop51ColorIndex
 90
      256
102
RTVSPost2010Prop51ColorRGB
 90
-16777216
102
RTVSPost2010PropOp51
 70
     0
102
RTVSPost2010Prop52
140
1.0
102
RTVSPost2010PropOp52
 70
     0
102
RTVSPost2010Prop53
 90
        2
102
RTVSPost2010PropOp53
 70
     1
102
RTVSPost2010Prop54
  1
strokes_ogs.tif
102
RTVSPost2010PropOp54
 70
     1
102
RTVSPost2010Prop55
280
     0
102
RTVSPost2010PropOp55
 70
     1
102
RTVSPost2010Prop56
140
1.0
102
RTVSPost2010PropOp56
 70
     1
102
RTVSPost2010Prop57
140
1.0
102
RTVSPost2010PropOp57
 70
     1
  0
XRECORD
  5
182
102
{ACAD_REACTORS
330
181
102
}
330
181
100
AcDbXrecord
280
     1
102
RTVSPost2010Prop28
280
     0
102
RTVSPost2010PropOp28
 70
     1
102
RTVSPost2010Prop29
280
     1
102
RTVSPost2010PropOp29
 70
     1
102
RTVSPost2010Prop30
280
     1
102
RTVSPost2010PropOp30
 70
     1
102
RTVSPost2010Prop31
280
     0
102
RTVSPost2010PropOp31
 70
     1
102
RTVSPost2010Prop32
280
     0
102
RTVSPost2010PropOp32
 70
     1
102
RTVSPost2010Prop33
280
     0
102
RTVSPost2010PropOp33
 70
     1
102
RTVSPost2010Prop34
280
     0
102
RTVSPost2010PropOp34
 70
     1
102
RTVSPost2010Prop35
280
     0
102
RTVSPost2010PropOp35
 70
     1
102
RTVSPost2010Prop36
280
     0
102
RTVSPost2010PropOp36
 70
     1
102
RTVSPost2010Prop37
 90
       50
102
RTVSPost2010PropOp37
 70
     1
102
RTVSPost2010Prop38
140
0.0
102
RTVSPost2010PropOp38
 70
     1
102
RTVSPost2010Prop39
140
1.0
102
RTVSPost2010PropOp39
 70
     1
102
RTVSPost2010Prop40
 90
        0
102
RTVSPost2010PropOp40
 70
     1
102
RTVSPost2010Prop41ColorIndex
 90
       18
102
RTVSPost2010Prop41ColorRGB
 90
        0
102
RTVSPost2010PropOp41
 70
     1
102
RTVSPost2010Prop42
 90
       50
102
RTVSPost2010PropOp42
 70
     1
102
RTVSPost2010Prop43
 90
        3
102
RTVSPost2010PropOp43
 70
     1
102
RTVSPost2010Prop44ColorIndex
 90
        5
102
RTVSPost2010Prop44ColorRGB
 90
      255
102
RTVSPost2010PropOp44
 70
     1
102
RTVSPost2010Prop45
280
     0
102
RTVSPost2010PropOp45
 70
     1
102
RTVSPost2010Prop46
 90
       50
102
RTVSPost2010PropOp46
 70
     1
102
RTVSPost2010Prop47
 90
       50
102
RTVSPost2010PropOp47
 70
     1
102
RTVSPost2010Prop48
 90
       50
102
RTVSPost2010PropOp48
 70
     1
102
RTVSPost2010Prop49
280
     0
102
RTVSPost2010PropOp49
 70
     1
102
RTVSPost2010Prop50
 90
       50
102
RTVSPost2010PropOp50
 70
     1
102
RTVSPost2010Prop51ColorIndex
 90
      256
102
RTVSPost2010Prop51ColorRGB
 90
-16777216
102
RTVSPost2010PropOp51
 70
     0
102
RTVSPost2010Prop52
140
1.0
102
RTVSPost2010PropOp52
 70
     0
102
RTVSPost2010Prop53
 90
        2
102
RTVSPost2010PropOp53
 70
     1
102
RTVSPost2010Prop54
  1
strokes_ogs.tif
102
RTVSPost2010PropOp54
 70
     1
102
RTVSPost2010Prop55
280
     0
102
RTVSPost2010PropOp55
 70
     1
102
RTVSPost2010Prop56
140
1.0
102
RTVSPost2010PropOp56
 70
     1
102
RTVSPost2010Prop57
140
1.0
102
RTVSPost2010PropOp57
 70
     1
  0
XRECORD
  5
174
102
{ACAD_REACTORS
330
173
102
}
330
173
100
AcDbXrecord
280
     1
102
RTVSPost2010Prop28
280
     0
102
RTVSPost2010PropOp28
 70
     1
102
RTVSPost2010Prop29
280
     1
102
RTVSPost2010PropOp29
 70
     1
102
RTVSPost2010Prop30
280
     1
102
RTVSPost2010PropOp30
 70
     1
102
RTVSPost2010Prop31
280
     0
102
RTVSPost2010PropOp31
 70
     1
102
RTVSPost2010Prop32
280
     0
102
RTVSPost2010PropOp32
 70
     1
102
RTVSPost2010Prop33
280
     0
102
RTVSPost2010PropOp33
 70
     1
102
RTVSPost2010Prop34
280
     0
102
RTVSPost2010PropOp34
 70
     1
102
RTVSPost2010Prop35
280
     0
102
RTVSPost2010PropOp35
 70
     1
102
RTVSPost2010Prop36
280
     0
102
RTVSPost2010PropOp36
 70
     1
102
RTVSPost2010Prop37
 90
       50
102
RTVSPost2010PropOp37
 70
     1
102
RTVSPost2010Prop38
140
0.0
102
RTVSPost2010PropOp38
 70
     1
102
RTVSPost2010Prop39
140
1.0
102
RTVSPost2010PropOp39
 70
     1
102
RTVSPost2010Prop40
 90
        0
102
RTVSPost2010PropOp40
 70
     1
102
RTVSPost2010Prop41ColorIndex
 90
       18
102
RTVSPost2010Prop41ColorRGB
 90
        0
102
RTVSPost2010PropOp41
 70
     1
102
RTVSPost2010Prop42
 90
       50
102
RTVSPost2010PropOp42
 70
     1
102
RTVSPost2010Prop43
 90
        3
102
RTVSPost2010PropOp43
 70
     1
102
RTVSPost2010Prop44ColorIndex
 90
        5
102
RTVSPost2010Prop44ColorRGB
 90
      255
102
RTVSPost2010PropOp44
 70
     1
102
RTVSPost2010Prop45
280
     0
102
RTVSPost2010PropOp45
 70
     1
102
RTVSPost2010Prop46
 90
       50
102
RTVSPost2010PropOp46
 70
     1
102
RTVSPost2010Prop47
 90
       50
102
RTVSPost2010PropOp47
 70
     1
102
RTVSPost2010Prop48
 90
       50
102
RTVSPost2010PropOp48
 70
     1
102
RTVSPost2010Prop49
280
     0
102
RTVSPost2010PropOp49
 70
     1
102
RTVSPost2010Prop50
 90
       50
102
RTVSPost2010PropOp50
 70
     1
102
RTVSPost2010Prop51ColorIndex
 90
      256
102
RTVSPost2010Prop51ColorRGB
 90
-16777216
102
RTVSPost2010PropOp51
 70
     0
102
RTVSPost2010Prop52
140
1.0
102
RTVSPost2010PropOp52
 70
     0
102
RTVSPost2010Prop53
 90
        2
102
RTVSPost2010PropOp53
 70
     1
102
RTVSPost2010Prop54
  1
strokes_ogs.tif
102
RTVSPost2010PropOp54
 70
     1
102
RTVSPost2010Prop55
280
     0
102
RTVSPost2010PropOp55
 70
     1
102
RTVSPost2010Prop56
140
1.0
102
RTVSPost2010PropOp56
 70
     1
102
RTVSPost2010Prop57
140
1.0
102
RTVSPost2010PropOp57
 70
     1
  0
XRECORD
  5
178
102
{ACAD_REACTORS
330
177
102
}
330
177
100
AcDbXrecord
280
     1
102
RTVSPost2010Prop28
280
     0
102
RTVSPost2010PropOp28
 70
     1
102
RTVSPost2010Prop29
280
     1
102
RTVSPost2010PropOp29
 70
     1
102
RTVSPost2010Prop30
280
     1
102
RTVSPost2010PropOp30
 70
     1
102
RTVSPost2010Prop31
280
     0
102
RTVSPost2010PropOp31
 70
     1
102
RTVSPost2010Prop32
280
     0
102
RTVSPost2010PropOp32
 70
     1
102
RTVSPost2010Prop33
280
     0
102
RTVSPost2010PropOp33
 70
     1
102
RTVSPost2010Prop34
280
     0
102
RTVSPost2010PropOp34
 70
     1
102
RTVSPost2010Prop35
280
     0
102
RTVSPost2010PropOp35
 70
     1
102
RTVSPost2010Prop36
280
     0
102
RTVSPost2010PropOp36
 70
     1
102
RTVSPost2010Prop37
 90
       50
102
RTVSPost2010PropOp37
 70
     1
102
RTVSPost2010Prop38
140
0.0
102
RTVSPost2010PropOp38
 70
     1
102
RTVSPost2010Prop39
140
1.0
102
RTVSPost2010PropOp39
 70
     1
102
RTVSPost2010Prop40
 90
        0
102
RTVSPost2010PropOp40
 70
     1
102
RTVSPost2010Prop41ColorIndex
 90
       18
102
RTVSPost2010Prop41ColorRGB
 90
        0
102
RTVSPost2010PropOp41
 70
     1
102
RTVSPost2010Prop42
 90
       50
102
RTVSPost2010PropOp42
 70
     1
102
RTVSPost2010Prop43
 90
        3
102
RTVSPost2010PropOp43
 70
     1
102
RTVSPost2010Prop44ColorIndex
 90
        5
102
RTVSPost2010Prop44ColorRGB
 90
      255
102
RTVSPost2010PropOp44
 70
     1
102
RTVSPost2010Prop45
280
     0
102
RTVSPost2010PropOp45
 70
     1
102
RTVSPost2010Prop46
 90
       50
102
RTVSPost2010PropOp46
 70
     1
102
RTVSPost2010Prop47
 90
       50
102
RTVSPost2010PropOp47
 70
     1
102
RTVSPost2010Prop48
 90
       50
102
RTVSPost2010PropOp48
 70
     1
102
RTVSPost2010Prop49
280
     0
102
RTVSPost2010PropOp49
 70
     1
102
RTVSPost2010Prop50
 90
       50
102
RTVSPost2010PropOp50
 70
     1
102
RTVSPost2010Prop51ColorIndex
 90
      256
102
RTVSPost2010Prop51ColorRGB
 90
-16777216
102
RTVSPost2010PropOp51
 70
     0
102
RTVSPost2010Prop52
140
1.0
102
RTVSPost2010PropOp52
 70
     0
102
RTVSPost2010Prop53
 90
        2
102
RTVSPost2010PropOp53
 70
     1
102
RTVSPost2010Prop54
  1
strokes_ogs.tif
102
RTVSPost2010PropOp54
 70
     1
102
RTVSPost2010Prop55
280
     0
102
RTVSPost2010PropOp55
 70
     1
102
RTVSPost2010Prop56
140
1.0
102
RTVSPost2010PropOp56
 70
     1
102
RTVSPost2010Prop57
140
1.0
102
RTVSPost2010PropOp57
 70
     1
  0
XRECORD
  5
192
102
{ACAD_REACTORS
330
191
102
}
330
191
100
AcDbXrecord
280
     1
102
RTVSPost2010Prop28
280
     0
102
RTVSPost2010PropOp28
 70
     0
102
RTVSPost2010Prop29
280
     1
102
RTVSPost2010PropOp29
 70
     0
102
RTVSPost2010Prop30
280
     1
102
RTVSPost2010PropOp30
 70
     0
102
RTVSPost2010Prop31
280
     0
102
RTVSPost2010PropOp31
 70
     0
102
RTVSPost2010Prop32
280
     0
102
RTVSPost2010PropOp32
 70
     0
102
RTVSPost2010Prop33
280
     0
102
RTVSPost2010PropOp33
 70
     0
102
RTVSPost2010Prop34
280
     0
102
RTVSPost2010PropOp34
 70
     0
102
RTVSPost2010Prop35
280
     0
102
RTVSPost2010PropOp35
 70
     0
102
RTVSPost2010Prop36
280
     0
102
RTVSPost2010PropOp36
 70
     0
102
RTVSPost2010Prop37
 90
       50
102
RTVSPost2010PropOp37
 70
     0
102
RTVSPost2010Prop38
140
0.0
102
RTVSPost2010PropOp38
 70
     0
102
RTVSPost2010Prop39
140
1.0
102
RTVSPost2010PropOp39
 70
     0
102
RTVSPost2010Prop40
 90
        0
102
RTVSPost2010PropOp40
 70
     0
102
RTVSPost2010Prop41ColorIndex
 90
       18
102
RTVSPost2010Prop41ColorRGB
 90
        0
102
RTVSPost2010PropOp41
 70
     0
102
RTVSPost2010Prop42
 90
       50
102
RTVSPost2010PropOp42
 70
     0
102
RTVSPost2010Prop43
 90
        3
102
RTVSPost2010PropOp43
 70
     0
102
RTVSPost2010Prop44ColorIndex
 90
        5
102
RTVSPost2010Prop44ColorRGB
 90
      255
102
RTVSPost2010PropOp44
 70
     0
102
RTVSPost2010Prop45
280
     0
102
RTVSPost2010PropOp45
 70
     0
102
RTVSPost2010Prop46
 90
       50
102
RTVSPost2010PropOp46
 70
     0
102
RTVSPost2010Prop47
 90
       50
102
RTVSPost2010PropOp47
 70
     0
102
RTVSPost2010Prop48
 90
       50
102
RTVSPost2010PropOp48
 70
     0
102
RTVSPost2010Prop49
280
     0
102
RTVSPost2010PropOp49
 70
     0
102
RTVSPost2010Prop50
 90
       50
102
RTVSPost2010PropOp50
 70
     0
102
RTVSPost2010Prop51ColorIndex
 90
      256
102
RTVSPost2010Prop51ColorRGB
 90
-16777216
102
RTVSPost2010PropOp51
 70
     0
102
RTVSPost2010Prop52
140
1.0
102
RTVSPost2010PropOp52
 70
     0
102
RTVSPost2010Prop53
 90
        2
102
RTVSPost2010PropOp53
 70
     0
102
RTVSPost2010Prop54
  1
strokes_ogs.tif
102
RTVSPost2010PropOp54
 70
     0
102
RTVSPost2010Prop55
280
     0
102
RTVSPost2010PropOp55
 70
     0
102
RTVSPost2010Prop56
140
1.0
102
RTVSPost2010PropOp56
 70
     0
102
RTVSPost2010Prop57
140
1.0
102
RTVSPost2010PropOp57
 70
     0
  0
XRECORD
  5
180
102
{ACAD_REACTORS
330
17F
102
}
330
17F
100
AcDbXrecord
280
     1
102
RTVSPost2010Prop28
280
     0
102
RTVSPost2010PropOp28
 70
     1
102
RTVSPost2010Prop29
280
     1
102
RTVSPost2010PropOp29
 70
     1
102
RTVSPost2010Prop30
280
     1
102
RTVSPost2010PropOp30
 70
     1
102
RTVSPost2010Prop31
280
     0
102
RTVSPost2010PropOp31
 70
     1
102
RTVSPost2010Prop32
280
     0
102
RTVSPost2010PropOp32
 70
     1
102
RTVSPost2010Prop33
280
     0
102
RTVSPost2010PropOp33
 70
     1
102
RTVSPost2010Prop34
280
     0
102
RTVSPost2010PropOp34
 70
     1
102
RTVSPost2010Prop35
280
     0
102
RTVSPost2010PropOp35
 70
     1
102
RTVSPost2010Prop36
280
     0
102
RTVSPost2010PropOp36
 70
     1
102
RTVSPost2010Prop37
 90
       50
102
RTVSPost2010PropOp37
 70
     1
102
RTVSPost2010Prop38
140
0.0
102
RTVSPost2010PropOp38
 70
     1
102
RTVSPost2010Prop39
140
1.0
102
RTVSPost2010PropOp39
 70
     1
102
RTVSPost2010Prop40
 90
        0
102
RTVSPost2010PropOp40
 70
     1
102
RTVSPost2010Prop41ColorIndex
 90
       18
102
RTVSPost2010Prop41ColorRGB
 90
        0
102
RTVSPost2010PropOp41
 70
     1
102
RTVSPost2010Prop42
 90
       50
102
RTVSPost2010PropOp42
 70
     1
102
RTVSPost2010Prop43
 90
        3
102
RTVSPost2010PropOp43
 70
     1
102
RTVSPost2010Prop44ColorIndex
 90
        5
102
RTVSPost2010Prop44ColorRGB
 90
      255
102
RTVSPost2010PropOp44
 70
     1
102
RTVSPost2010Prop45
280
     0
102
RTVSPost2010PropOp45
 70
     1
102
RTVSPost2010Prop46
 90
       50
102
RTVSPost2010PropOp46
 70
     1
102
RTVSPost2010Prop47
 90
       50
102
RTVSPost2010PropOp47
 70
     1
102
RTVSPost2010Prop48
 90
       50
102
RTVSPost2010PropOp48
 70
     1
102
RTVSPost2010Prop49
280
     0
102
RTVSPost2010PropOp49
 70
     1
102
RTVSPost2010Prop50
 90
       50
102
RTVSPost2010PropOp50
 70
     1
102
RTVSPost2010Prop51ColorIndex
 90
      256
102
RTVSPost2010Prop51ColorRGB
 90
-16777216
102
RTVSPost2010PropOp51
 70
     0
102
RTVSPost2010Prop52
140
1.0
102
RTVSPost2010PropOp52
 70
     0
102
RTVSPost2010Prop53
 90
        2
102
RTVSPost2010PropOp53
 70
     1
102
RTVSPost2010Prop54
  1
strokes_ogs.tif
102
RTVSPost2010PropOp54
 70
     1
102
RTVSPost2010Prop55
280
     0
102
RTVSPost2010PropOp55
 70
     1
102
RTVSPost2010Prop56
140
1.0
102
RTVSPost2010PropOp56
 70
     1
102
RTVSPost2010Prop57
140
1.0
102
RTVSPost2010PropOp57
 70
     1
  0
XRECORD
  5
164
102
{ACAD_REACTORS
330
163
102
}
330
163
100
AcDbXrecord
280
     1
102
RTVSPost2010Prop28
280
     0
102
RTVSPost2010PropOp28
 70
     1
102
RTVSPost2010Prop29
280
     1
102
RTVSPost2010PropOp29
 70
     1
102
RTVSPost2010Prop30
280
     1
102
RTVSPost2010PropOp30
 70
     1
102
RTVSPost2010Prop31
280
     0
102
RTVSPost2010PropOp31
 70
     1
102
RTVSPost2010Prop32
280
     0
102
RTVSPost2010PropOp32
 70
     1
102
RTVSPost2010Prop33
280
     0
102
RTVSPost2010PropOp33
 70
     1
102
RTVSPost2010Prop34
280
     0
102
RTVSPost2010PropOp34
 70
     1
102
RTVSPost2010Prop35
280
     0
102
RTVSPost2010PropOp35
 70
     1
102
RTVSPost2010Prop36
280
     0
102
RTVSPost2010PropOp36
 70
     1
102
RTVSPost2010Prop37
 90
       50
102
RTVSPost2010PropOp37
 70
     1
102
RTVSPost2010Prop38
140
0.0
102
RTVSPost2010PropOp38
 70
     1
102
RTVSPost2010Prop39
140
1.0
102
RTVSPost2010PropOp39
 70
     1
102
RTVSPost2010Prop40
 90
        0
102
RTVSPost2010PropOp40
 70
     1
102
RTVSPost2010Prop41ColorIndex
 90
       18
102
RTVSPost2010Prop41ColorRGB
 90
        0
102
RTVSPost2010PropOp41
 70
     1
102
RTVSPost2010Prop42
 90
       50
102
RTVSPost2010PropOp42
 70
     1
102
RTVSPost2010Prop43
 90
        3
102
RTVSPost2010PropOp43
 70
     1
102
RTVSPost2010Prop44ColorIndex
 90
        5
102
RTVSPost2010Prop44ColorRGB
 90
      255
102
RTVSPost2010PropOp44
 70
     1
102
RTVSPost2010Prop45
280
     0
102
RTVSPost2010PropOp45
 70
     1
102
RTVSPost2010Prop46
 90
       50
102
RTVSPost2010PropOp46
 70
     1
102
RTVSPost2010Prop47
 90
       50
102
RTVSPost2010PropOp47
 70
     1
102
RTVSPost2010Prop48
 90
       50
102
RTVSPost2010PropOp48
 70
     1
102
RTVSPost2010Prop49
280
     0
102
RTVSPost2010PropOp49
 70
     1
102
RTVSPost2010Prop50
 90
       50
102
RTVSPost2010PropOp50
 70
     1
102
RTVSPost2010Prop51ColorIndex
 90
      256
102
RTVSPost2010Prop51ColorRGB
 90
-16777216
102
RTVSPost2010PropOp51
 70
     0
102
RTVSPost2010Prop52
140
1.0
102
RTVSPost2010PropOp52
 70
     0
102
RTVSPost2010Prop53
 90
        2
102
RTVSPost2010PropOp53
 70
     1
102
RTVSPost2010Prop54
  1
strokes_ogs.tif
102
RTVSPost2010PropOp54
 70
     1
102
RTVSPost2010Prop55
280
     0
102
RTVSPost2010PropOp55
 70
     1
102
RTVSPost2010Prop56
140
1.0
102
RTVSPost2010PropOp56
 70
     1
102
RTVSPost2010Prop57
140
1.0
102
RTVSPost2010PropOp57
 70
     1
  0
XRECORD
  5
166
102
{ACAD_REACTORS
330
165
102
}
330
165
100
AcDbXrecord
280
     1
102
RTVSPost2010Prop28
280
     0
102
RTVSPost2010PropOp28
 70
     1
102
RTVSPost2010Prop29
280
     1
102
RTVSPost2010PropOp29
 70
     1
102
RTVSPost2010Prop30
280
     1
102
RTVSPost2010PropOp30
 70
     1
102
RTVSPost2010Prop31
280
     0
102
RTVSPost2010PropOp31
 70
     1
102
RTVSPost2010Prop32
280
     0
102
RTVSPost2010PropOp32
 70
     1
102
RTVSPost2010Prop33
280
     0
102
RTVSPost2010PropOp33
 70
     1
102
RTVSPost2010Prop34
280
     0
102
RTVSPost2010PropOp34
 70
     1
102
RTVSPost2010Prop35
280
     0
102
RTVSPost2010PropOp35
 70
     1
102
RTVSPost2010Prop36
280
     0
102
RTVSPost2010PropOp36
 70
     1
102
RTVSPost2010Prop37
 90
       50
102
RTVSPost2010PropOp37
 70
     1
102
RTVSPost2010Prop38
140
0.0
102
RTVSPost2010PropOp38
 70
     1
102
RTVSPost2010Prop39
140
1.0
102
RTVSPost2010PropOp39
 70
     1
102
RTVSPost2010Prop40
 90
        0
102
RTVSPost2010PropOp40
 70
     1
102
RTVSPost2010Prop41ColorIndex
 90
       18
102
RTVSPost2010Prop41ColorRGB
 90
        0
102
RTVSPost2010PropOp41
 70
     1
102
RTVSPost2010Prop42
 90
       50
102
RTVSPost2010PropOp42
 70
     1
102
RTVSPost2010Prop43
 90
        3
102
RTVSPost2010PropOp43
 70
     1
102
RTVSPost2010Prop44ColorIndex
 90
        5
102
RTVSPost2010Prop44ColorRGB
 90
      255
102
RTVSPost2010PropOp44
 70
     1
102
RTVSPost2010Prop45
280
     0
102
RTVSPost2010PropOp45
 70
     1
102
RTVSPost2010Prop46
 90
       50
102
RTVSPost2010PropOp46
 70
     1
102
RTVSPost2010Prop47
 90
       50
102
RTVSPost2010PropOp47
 70
     1
102
RTVSPost2010Prop48
 90
       50
102
RTVSPost2010PropOp48
 70
     1
102
RTVSPost2010Prop49
280
     0
102
RTVSPost2010PropOp49
 70
     1
102
RTVSPost2010Prop50
 90
       50
102
RTVSPost2010PropOp50
 70
     1
102
RTVSPost2010Prop51ColorIndex
 90
      256
102
RTVSPost2010Prop51ColorRGB
 90
-16777216
102
RTVSPost2010PropOp51
 70
     0
102
RTVSPost2010Prop52
140
1.0
102
RTVSPost2010PropOp52
 70
     0
102
RTVSPost2010Prop53
 90
        2
102
RTVSPost2010PropOp53
 70
     1
102
RTVSPost2010Prop54
  1
strokes_ogs.tif
102
RTVSPost2010PropOp54
 70
     1
102
RTVSPost2010Prop55
280
     0
102
RTVSPost2010PropOp55
 70
     1
102
RTVSPost2010Prop56
140
1.0
102
RTVSPost2010PropOp56
 70
     1
102
RTVSPost2010Prop57
140
1.0
102
RTVSPost2010PropOp57
 70
     1
  0
XRECORD
  5
168
102
{ACAD_REACTORS
330
167
102
}
330
167
100
AcDbXrecord
280
     1
102
RTVSPost2010Prop28
280
     0
102
RTVSPost2010PropOp28
 70
     1
102
RTVSPost2010Prop29
280
     1
102
RTVSPost2010PropOp29
 70
     1
102
RTVSPost2010Prop30
280
     1
102
RTVSPost2010PropOp30
 70
     1
102
RTVSPost2010Prop31
280
     0
102
RTVSPost2010PropOp31
 70
     1
102
RTVSPost2010Prop32
280
     0
102
RTVSPost2010PropOp32
 70
     1
102
RTVSPost2010Prop33
280
     0
102
RTVSPost2010PropOp33
 70
     1
102
RTVSPost2010Prop34
280
     0
102
RTVSPost2010PropOp34
 70
     1
102
RTVSPost2010Prop35
280
     0
102
RTVSPost2010PropOp35
 70
     1
102
RTVSPost2010Prop36
280
     0
102
RTVSPost2010PropOp36
 70
     1
102
RTVSPost2010Prop37
 90
       50
102
RTVSPost2010PropOp37
 70
     1
102
RTVSPost2010Prop38
140
0.0
102
RTVSPost2010PropOp38
 70
     1
102
RTVSPost2010Prop39
140
1.0
102
RTVSPost2010PropOp39
 70
     1
102
RTVSPost2010Prop40
 90
        0
102
RTVSPost2010PropOp40
 70
     1
102
RTVSPost2010Prop41ColorIndex
 90
       18
102
RTVSPost2010Prop41ColorRGB
 90
        0
102
RTVSPost2010PropOp41
 70
     1
102
RTVSPost2010Prop42
 90
       50
102
RTVSPost2010PropOp42
 70
     1
102
RTVSPost2010Prop43
 90
        3
102
RTVSPost2010PropOp43
 70
     1
102
RTVSPost2010Prop44ColorIndex
 90
        5
102
RTVSPost2010Prop44ColorRGB
 90
      255
102
RTVSPost2010PropOp44
 70
     1
102
RTVSPost2010Prop45
280
     0
102
RTVSPost2010PropOp45
 70
     1
102
RTVSPost2010Prop46
 90
       50
102
RTVSPost2010PropOp46
 70
     1
102
RTVSPost2010Prop47
 90
       50
102
RTVSPost2010PropOp47
 70
     1
102
RTVSPost2010Prop48
 90
       50
102
RTVSPost2010PropOp48
 70
     1
102
RTVSPost2010Prop49
280
     0
102
RTVSPost2010PropOp49
 70
     1
102
RTVSPost2010Prop50
 90
       50
102
RTVSPost2010PropOp50
 70
     1
102
RTVSPost2010Prop51ColorIndex
 90
      256
102
RTVSPost2010Prop51ColorRGB
 90
-16777216
102
RTVSPost2010PropOp51
 70
     0
102
RTVSPost2010Prop52
140
1.0
102
RTVSPost2010PropOp52
 70
     0
102
RTVSPost2010Prop53
 90
        2
102
RTVSPost2010PropOp53
 70
     1
102
RTVSPost2010Prop54
  1
strokes_ogs.tif
102
RTVSPost2010PropOp54
 70
     1
102
RTVSPost2010Prop55
280
     0
102
RTVSPost2010PropOp55
 70
     1
102
RTVSPost2010Prop56
140
1.0
102
RTVSPost2010PropOp56
 70
     1
102
RTVSPost2010Prop57
140
1.0
102
RTVSPost2010PropOp57
 70
     1
  0
XRECORD
  5
16A
102
{ACAD_REACTORS
330
169
102
}
330
169
100
AcDbXrecord
280
     1
102
RTVSPost2010Prop28
280
     0
102
RTVSPost2010PropOp28
 70
     1
102
RTVSPost2010Prop29
280
     1
102
RTVSPost2010PropOp29
 70
     1
102
RTVSPost2010Prop30
280
     1
102
RTVSPost2010PropOp30
 70
     1
102
RTVSPost2010Prop31
280
     0
102
RTVSPost2010PropOp31
 70
     1
102
RTVSPost2010Prop32
280
     0
102
RTVSPost2010PropOp32
 70
     1
102
RTVSPost2010Prop33
280
     0
102
RTVSPost2010PropOp33
 70
     1
102
RTVSPost2010Prop34
280
     0
102
RTVSPost2010PropOp34
 70
     1
102
RTVSPost2010Prop35
280
     0
102
RTVSPost2010PropOp35
 70
     1
102
RTVSPost2010Prop36
280
     0
102
RTVSPost2010PropOp36
 70
     1
102
RTVSPost2010Prop37
 90
       50
102
RTVSPost2010PropOp37
 70
     1
102
RTVSPost2010Prop38
140
0.0
102
RTVSPost2010PropOp38
 70
     1
102
RTVSPost2010Prop39
140
1.0
102
RTVSPost2010PropOp39
 70
     1
102
RTVSPost2010Prop40
 90
        0
102
RTVSPost2010PropOp40
 70
     1
102
RTVSPost2010Prop41ColorIndex
 90
       18
102
RTVSPost2010Prop41ColorRGB
 90
        0
102
RTVSPost2010PropOp41
 70
     1
102
RTVSPost2010Prop42
 90
       50
102
RTVSPost2010PropOp42
 70
     1
102
RTVSPost2010Prop43
 90
        3
102
RTVSPost2010PropOp43
 70
     1
102
RTVSPost2010Prop44ColorIndex
 90
        5
102
RTVSPost2010Prop44ColorRGB
 90
      255
102
RTVSPost2010PropOp44
 70
     1
102
RTVSPost2010Prop45
280
     0
102
RTVSPost2010PropOp45
 70
     1
102
RTVSPost2010Prop46
 90
       50
102
RTVSPost2010PropOp46
 70
     1
102
RTVSPost2010Prop47
 90
       50
102
RTVSPost2010PropOp47
 70
     1
102
RTVSPost2010Prop48
 90
       50
102
RTVSPost2010PropOp48
 70
     1
102
RTVSPost2010Prop49
280
     0
102
RTVSPost2010PropOp49
 70
     1
102
RTVSPost2010Prop50
 90
       50
102
RTVSPost2010PropOp50
 70
     1
102
RTVSPost2010Prop51ColorIndex
 90
      256
102
RTVSPost2010Prop51ColorRGB
 90
-16777216
102
RTVSPost2010PropOp51
 70
     0
102
RTVSPost2010Prop52
140
1.0
102
RTVSPost2010PropOp52
 70
     0
102
RTVSPost2010Prop53
 90
        2
102
RTVSPost2010PropOp53
 70
     1
102
RTVSPost2010Prop54
  1
strokes_ogs.tif
102
RTVSPost2010PropOp54
 70
     1
102
RTVSPost2010Prop55
280
     0
102
RTVSPost2010PropOp55
 70
     1
102
RTVSPost2010Prop56
140
1.0
102
RTVSPost2010PropOp56
 70
     1
102
RTVSPost2010Prop57
140
1.0
102
RTVSPost2010PropOp57
 70
     1
  0
XRECORD
  5
172
102
{ACAD_REACTORS
330
171
102
}
330
171
100
AcDbXrecord
280
     1
102
RTVSPost2010Prop28
280
     0
102
RTVSPost2010PropOp28
 70
     1
102
RTVSPost2010Prop29
280
     1
102
RTVSPost2010PropOp29
 70
     1
102
RTVSPost2010Prop30
280
     1
102
RTVSPost2010PropOp30
 70
     1
102
RTVSPost2010Prop31
280
     0
102
RTVSPost2010PropOp31
 70
     1
102
RTVSPost2010Prop32
280
     0
102
RTVSPost2010PropOp32
 70
     1
102
RTVSPost2010Prop33
280
     0
102
RTVSPost2010PropOp33
 70
     1
102
RTVSPost2010Prop34
280
     0
102
RTVSPost2010PropOp34
 70
     1
102
RTVSPost2010Prop35
280
     0
102
RTVSPost2010PropOp35
 70
     1
102
RTVSPost2010Prop36
280
     0
102
RTVSPost2010PropOp36
 70
     1
102
RTVSPost2010Prop37
 90
       50
102
RTVSPost2010PropOp37
 70
     1
102
RTVSPost2010Prop38
140
0.0
102
RTVSPost2010PropOp38
 70
     1
102
RTVSPost2010Prop39
140
1.0
102
RTVSPost2010PropOp39
 70
     1
102
RTVSPost2010Prop40
 90
        0
102
RTVSPost2010PropOp40
 70
     1
102
RTVSPost2010Prop41ColorIndex
 90
       18
102
RTVSPost2010Prop41ColorRGB
 90
        0
102
RTVSPost2010PropOp41
 70
     1
102
RTVSPost2010Prop42
 90
       50
102
RTVSPost2010PropOp42
 70
     1
102
RTVSPost2010Prop43
 90
        3
102
RTVSPost2010PropOp43
 70
     1
102
RTVSPost2010Prop44ColorIndex
 90
        5
102
RTVSPost2010Prop44ColorRGB
 90
      255
102
RTVSPost2010PropOp44
 70
     1
102
RTVSPost2010Prop45
280
     0
102
RTVSPost2010PropOp45
 70
     1
102
RTVSPost2010Prop46
 90
       50
102
RTVSPost2010PropOp46
 70
     1
102
RTVSPost2010Prop47
 90
       50
102
RTVSPost2010PropOp47
 70
     1
102
RTVSPost2010Prop48
 90
       50
102
RTVSPost2010PropOp48
 70
     1
102
RTVSPost2010Prop49
280
     0
102
RTVSPost2010PropOp49
 70
     1
102
RTVSPost2010Prop50
 90
       50
102
RTVSPost2010PropOp50
 70
     1
102
RTVSPost2010Prop51ColorIndex
 90
      256
102
RTVSPost2010Prop51ColorRGB
 90
-16777216
102
RTVSPost2010PropOp51
 70
     0
102
RTVSPost2010Prop52
140
1.0
102
RTVSPost2010PropOp52
 70
     0
102
RTVSPost2010Prop53
 90
        2
102
RTVSPost2010PropOp53
 70
     1
102
RTVSPost2010Prop54
  1
strokes_ogs.tif
102
RTVSPost2010PropOp54
 70
     1
102
RTVSPost2010Prop55
280
     0
102
RTVSPost2010PropOp55
 70
     1
102
RTVSPost2010Prop56
140
1.0
102
RTVSPost2010PropOp56
 70
     1
102
RTVSPost2010Prop57
140
1.0
102
RTVSPost2010PropOp57
 70
     1
  0
XRECORD
  5
18E
102
{ACAD_REACTORS
330
18D
102
}
330
18D
100
AcDbXrecord
280
     1
102
RTVSPost2010Prop28
280
     0
102
RTVSPost2010PropOp28
 70
     0
102
RTVSPost2010Prop29
280
     1
102
RTVSPost2010PropOp29
 70
     0
102
RTVSPost2010Prop30
280
     1
102
RTVSPost2010PropOp30
 70
     0
102
RTVSPost2010Prop31
280
     0
102
RTVSPost2010PropOp31
 70
     0
102
RTVSPost2010Prop32
280
     0
102
RTVSPost2010PropOp32
 70
     0
102
RTVSPost2010Prop33
280
     0
102
RTVSPost2010PropOp33
 70
     0
102
RTVSPost2010Prop34
280
     0
102
RTVSPost2010PropOp34
 70
     0
102
RTVSPost2010Prop35
280
     0
102
RTVSPost2010PropOp35
 70
     0
102
RTVSPost2010Prop36
280
     0
102
RTVSPost2010PropOp36
 70
     0
102
RTVSPost2010Prop37
 90
       50
102
RTVSPost2010PropOp37
 70
     0
102
RTVSPost2010Prop38
140
0.0
102
RTVSPost2010PropOp38
 70
     0
102
RTVSPost2010Prop39
140
1.0
102
RTVSPost2010PropOp39
 70
     0
102
RTVSPost2010Prop40
 90
        0
102
RTVSPost2010PropOp40
 70
     0
102
RTVSPost2010Prop41ColorIndex
 90
       18
102
RTVSPost2010Prop41ColorRGB
 90
        0
102
RTVSPost2010PropOp41
 70
     0
102
RTVSPost2010Prop42
 90
       50
102
RTVSPost2010PropOp42
 70
     0
102
RTVSPost2010Prop43
 90
        3
102
RTVSPost2010PropOp43
 70
     0
102
RTVSPost2010Prop44ColorIndex
 90
        5
102
RTVSPost2010Prop44ColorRGB
 90
      255
102
RTVSPost2010PropOp44
 70
     0
102
RTVSPost2010Prop45
280
     0
102
RTVSPost2010PropOp45
 70
     0
102
RTVSPost2010Prop46
 90
       50
102
RTVSPost2010PropOp46
 70
     0
102
RTVSPost2010Prop47
 90
       50
102
RTVSPost2010PropOp47
 70
     0
102
RTVSPost2010Prop48
 90
       50
102
RTVSPost2010PropOp48
 70
     0
102
RTVSPost2010Prop49
280
     0
102
RTVSPost2010PropOp49
 70
     0
102
RTVSPost2010Prop50
 90
       50
102
RTVSPost2010PropOp50
 70
     0
102
RTVSPost2010Prop51ColorIndex
 90
      256
102
RTVSPost2010Prop51ColorRGB
 90
-16777216
102
RTVSPost2010PropOp51
 70
     0
102
RTVSPost2010Prop52
140
1.0
102
RTVSPost2010PropOp52
 70
     0
102
RTVSPost2010Prop53
 90
        2
102
RTVSPost2010PropOp53
 70
     0
102
RTVSPost2010Prop54
  1
strokes_ogs.tif
102
RTVSPost2010PropOp54
 70
     0
102
RTVSPost2010Prop55
280
     0
102
RTVSPost2010PropOp55
 70
     0
102
RTVSPost2010Prop56
140
1.0
102
RTVSPost2010PropOp56
 70
     0
102
RTVSPost2010Prop57
140
1.0
102
RTVSPost2010PropOp57
 70
     0
  0
XRECORD
  5
17E
102
{ACAD_REACTORS
330
17D
102
}
330
17D
100
AcDbXrecord
280
     1
102
RTVSPost2010Prop28
280
     0
102
RTVSPost2010PropOp28
 70
     1
102
RTVSPost2010Prop29
280
     1
102
RTVSPost2010PropOp29
 70
     1
102
RTVSPost2010Prop30
280
     1
102
RTVSPost2010PropOp30
 70
     1
102
RTVSPost2010Prop31
280
     0
102
RTVSPost2010PropOp31
 70
     1
102
RTVSPost2010Prop32
280
     0
102
RTVSPost2010PropOp32
 70
     1
102
RTVSPost2010Prop33
280
     0
102
RTVSPost2010PropOp33
 70
     1
102
RTVSPost2010Prop34
280
     0
102
RTVSPost2010PropOp34
 70
     1
102
RTVSPost2010Prop35
280
     0
102
RTVSPost2010PropOp35
 70
     1
102
RTVSPost2010Prop36
280
     0
102
RTVSPost2010PropOp36
 70
     1
102
RTVSPost2010Prop37
 90
       50
102
RTVSPost2010PropOp37
 70
     1
102
RTVSPost2010Prop38
140
0.0
102
RTVSPost2010PropOp38
 70
     1
102
RTVSPost2010Prop39
140
1.0
102
RTVSPost2010PropOp39
 70
     1
102
RTVSPost2010Prop40
 90
        0
102
RTVSPost2010PropOp40
 70
     1
102
RTVSPost2010Prop41ColorIndex
 90
       18
102
RTVSPost2010Prop41ColorRGB
 90
        0
102
RTVSPost2010PropOp41
 70
     1
102
RTVSPost2010Prop42
 90
       50
102
RTVSPost2010PropOp42
 70
     1
102
RTVSPost2010Prop43
 90
        3
102
RTVSPost2010PropOp43
 70
     1
102
RTVSPost2010Prop44ColorIndex
 90
        5
102
RTVSPost2010Prop44ColorRGB
 90
      255
102
RTVSPost2010PropOp44
 70
     1
102
RTVSPost2010Prop45
280
     0
102
RTVSPost2010PropOp45
 70
     1
102
RTVSPost2010Prop46
 90
       50
102
RTVSPost2010PropOp46
 70
     1
102
RTVSPost2010Prop47
 90
       50
102
RTVSPost2010PropOp47
 70
     1
102
RTVSPost2010Prop48
 90
       50
102
RTVSPost2010PropOp48
 70
     1
102
RTVSPost2010Prop49
280
     0
102
RTVSPost2010PropOp49
 70
     1
102
RTVSPost2010Prop50
 90
       50
102
RTVSPost2010PropOp50
 70
     1
102
RTVSPost2010Prop51ColorIndex
 90
      256
102
RTVSPost2010Prop51ColorRGB
 90
-16777216
102
RTVSPost2010PropOp51
 70
     0
102
RTVSPost2010Prop52
140
1.0
102
RTVSPost2010PropOp52
 70
     0
102
RTVSPost2010Prop53
 90
        2
102
RTVSPost2010PropOp53
 70
     1
102
RTVSPost2010Prop54
  1
strokes_ogs.tif
102
RTVSPost2010PropOp54
 70
     1
102
RTVSPost2010Prop55
280
     0
102
RTVSPost2010PropOp55
 70
     1
102
RTVSPost2010Prop56
140
1.0
102
RTVSPost2010PropOp56
 70
     1
102
RTVSPost2010Prop57
140
1.0
102
RTVSPost2010PropOp57
 70
     1
  0
XRECORD
  5
190
102
{ACAD_REACTORS
330
18F
102
}
330
18F
100
AcDbXrecord
280
     1
102
RTVSPost2010Prop28
280
     0
102
RTVSPost2010PropOp28
 70
     0
102
RTVSPost2010Prop29
280
     1
102
RTVSPost2010PropOp29
 70
     0
102
RTVSPost2010Prop30
280
     1
102
RTVSPost2010PropOp30
 70
     0
102
RTVSPost2010Prop31
280
     0
102
RTVSPost2010PropOp31
 70
     0
102
RTVSPost2010Prop32
280
     0
102
RTVSPost2010PropOp32
 70
     0
102
RTVSPost2010Prop33
280
     0
102
RTVSPost2010PropOp33
 70
     0
102
RTVSPost2010Prop34
280
     0
102
RTVSPost2010PropOp34
 70
     0
102
RTVSPost2010Prop35
280
     0
102
RTVSPost2010PropOp35
 70
     0
102
RTVSPost2010Prop36
280
     0
102
RTVSPost2010PropOp36
 70
     0
102
RTVSPost2010Prop37
 90
       50
102
RTVSPost2010PropOp37
 70
     0
102
RTVSPost2010Prop38
140
0.0
102
RTVSPost2010PropOp38
 70
     0
102
RTVSPost2010Prop39
140
1.0
102
RTVSPost2010PropOp39
 70
     0
102
RTVSPost2010Prop40
 90
        0
102
RTVSPost2010PropOp40
 70
     0
102
RTVSPost2010Prop41ColorIndex
 90
       18
102
RTVSPost2010Prop41ColorRGB
 90
        0
102
RTVSPost2010PropOp41
 70
     0
102
RTVSPost2010Prop42
 90
       50
102
RTVSPost2010PropOp42
 70
     0
102
RTVSPost2010Prop43
 90
        3
102
RTVSPost2010PropOp43
 70
     0
102
RTVSPost2010Prop44ColorIndex
 90
        5
102
RTVSPost2010Prop44ColorRGB
 90
      255
102
RTVSPost2010PropOp44
 70
     0
102
RTVSPost2010Prop45
280
     0
102
RTVSPost2010PropOp45
 70
     0
102
RTVSPost2010Prop46
 90
       50
102
RTVSPost2010PropOp46
 70
     0
102
RTVSPost2010Prop47
 90
       50
102
RTVSPost2010PropOp47
 70
     0
102
RTVSPost2010Prop48
 90
       50
102
RTVSPost2010PropOp48
 70
     0
102
RTVSPost2010Prop49
280
     0
102
RTVSPost2010PropOp49
 70
     0
102
RTVSPost2010Prop50
 90
       50
102
RTVSPost2010PropOp50
 70
     0
102
RTVSPost2010Prop51ColorIndex
 90
      256
102
RTVSPost2010Prop51ColorRGB
 90
-16777216
102
RTVSPost2010PropOp51
 70
     0
102
RTVSPost2010Prop52
140
1.0
102
RTVSPost2010PropOp52
 70
     0
102
RTVSPost2010Prop53
 90
        2
102
RTVSPost2010PropOp53
 70
     0
102
RTVSPost2010Prop54
  1
strokes_ogs.tif
102
RTVSPost2010PropOp54
 70
     0
102
RTVSPost2010Prop55
280
     0
102
RTVSPost2010PropOp55
 70
     0
102
RTVSPost2010Prop56
140
1.0
102
RTVSPost2010PropOp56
 70
     0
102
RTVSPost2010Prop57
140
1.0
102
RTVSPost2010PropOp57
 70
     0
  0
XRECORD
  5
176
102
{ACAD_REACTORS
330
175
102
}
330
175
100
AcDbXrecord
280
     1
102
RTVSPost2010Prop28
280
     0
102
RTVSPost2010PropOp28
 70
     1
102
RTVSPost2010Prop29
280
     1
102
RTVSPost2010PropOp29
 70
     1
102
RTVSPost2010Prop30
280
     1
102
RTVSPost2010PropOp30
 70
     1
102
RTVSPost2010Prop31
280
     0
102
RTVSPost2010PropOp31
 70
     1
102
RTVSPost2010Prop32
280
     0
102
RTVSPost2010PropOp32
 70
     1
102
RTVSPost2010Prop33
280
     0
102
RTVSPost2010PropOp33
 70
     1
102
RTVSPost2010Prop34
280
     0
102
RTVSPost2010PropOp34
 70
     1
102
RTVSPost2010Prop35
280
     0
102
RTVSPost2010PropOp35
 70
     1
102
RTVSPost2010Prop36
280
     0
102
RTVSPost2010PropOp36
 70
     1
102
RTVSPost2010Prop37
 90
       50
102
RTVSPost2010PropOp37
 70
     1
102
RTVSPost2010Prop38
140
0.0
102
RTVSPost2010PropOp38
 70
     1
102
RTVSPost2010Prop39
140
1.0
102
RTVSPost2010PropOp39
 70
     1
102
RTVSPost2010Prop40
 90
        0
102
RTVSPost2010PropOp40
 70
     1
102
RTVSPost2010Prop41ColorIndex
 90
       18
102
RTVSPost2010Prop41ColorRGB
 90
        0
102
RTVSPost2010PropOp41
 70
     1
102
RTVSPost2010Prop42
 90
       50
102
RTVSPost2010PropOp42
 70
     1
102
RTVSPost2010Prop43
 90
        3
102
RTVSPost2010PropOp43
 70
     1
102
RTVSPost2010Prop44ColorIndex
 90
        5
102
RTVSPost2010Prop44ColorRGB
 90
      255
102
RTVSPost2010PropOp44
 70
     1
102
RTVSPost2010Prop45
280
     0
102
RTVSPost2010PropOp45
 70
     1
102
RTVSPost2010Prop46
 90
       50
102
RTVSPost2010PropOp46
 70
     1
102
RTVSPost2010Prop47
 90
       50
102
RTVSPost2010PropOp47
 70
     1
102
RTVSPost2010Prop48
 90
       50
102
RTVSPost2010PropOp48
 70
     1
102
RTVSPost2010Prop49
280
     0
102
RTVSPost2010PropOp49
 70
     1
102
RTVSPost2010Prop50
 90
       50
102
RTVSPost2010PropOp50
 70
     1
102
RTVSPost2010Prop51ColorIndex
 90
      256
102
RTVSPost2010Prop51ColorRGB
 90
-16777216
102
RTVSPost2010PropOp51
 70
     0
102
RTVSPost2010Prop52
140
1.0
102
RTVSPost2010PropOp52
 70
     0
102
RTVSPost2010Prop53
 90
        2
102
RTVSPost2010PropOp53
 70
     1
102
RTVSPost2010Prop54
  1
strokes_ogs.tif
102
RTVSPost2010PropOp54
 70
     1
102
RTVSPost2010Prop55
280
     0
102
RTVSPost2010PropOp55
 70
     1
102
RTVSPost2010Prop56
140
1.0
102
RTVSPost2010PropOp56
 70
     1
102
RTVSPost2010Prop57
140
1.0
102
RTVSPost2010PropOp57
 70
     1
  0
XRECORD
  5
18C
102
{ACAD_REACTORS
330
18B
102
}
330
18B
100
AcDbXrecord
280
     1
102
RTVSPost2010Prop28
280
     0
102
RTVSPost2010PropOp28
 70
     1
102
RTVSPost2010Prop29
280
     1
102
RTVSPost2010PropOp29
 70
     1
102
RTVSPost2010Prop30
280
     1
102
RTVSPost2010PropOp30
 70
     1
102
RTVSPost2010Prop31
280
     0
102
RTVSPost2010PropOp31
 70
     1
102
RTVSPost2010Prop32
280
     0
102
RTVSPost2010PropOp32
 70
     1
102
RTVSPost2010Prop33
280
     0
102
RTVSPost2010PropOp33
 70
     1
102
RTVSPost2010Prop34
280
     0
102
RTVSPost2010PropOp34
 70
     1
102
RTVSPost2010Prop35
280
     0
102
RTVSPost2010PropOp35
 70
     1
102
RTVSPost2010Prop36
280
     0
102
RTVSPost2010PropOp36
 70
     1
102
RTVSPost2010Prop37
 90
       50
102
RTVSPost2010PropOp37
 70
     1
102
RTVSPost2010Prop38
140
0.0
102
RTVSPost2010PropOp38
 70
     1
102
RTVSPost2010Prop39
140
1.0
102
RTVSPost2010PropOp39
 70
     1
102
RTVSPost2010Prop40
 90
        0
102
RTVSPost2010PropOp40
 70
     1
102
RTVSPost2010Prop41ColorIndex
 90
       18
102
RTVSPost2010Prop41ColorRGB
 90
        0
102
RTVSPost2010PropOp41
 70
     1
102
RTVSPost2010Prop42
 90
       50
102
RTVSPost2010PropOp42
 70
     1
102
RTVSPost2010Prop43
 90
        3
102
RTVSPost2010PropOp43
 70
     1
102
RTVSPost2010Prop44ColorIndex
 90
        5
102
RTVSPost2010Prop44ColorRGB
 90
      255
102
RTVSPost2010PropOp44
 70
     1
102
RTVSPost2010Prop45
280
     0
102
RTVSPost2010PropOp45
 70
     1
102
RTVSPost2010Prop46
 90
       50
102
RTVSPost2010PropOp46
 70
     1
102
RTVSPost2010Prop47
 90
       50
102
RTVSPost2010PropOp47
 70
     1
102
RTVSPost2010Prop48
 90
       50
102
RTVSPost2010PropOp48
 70
     1
102
RTVSPost2010Prop49
280
     0
102
RTVSPost2010PropOp49
 70
     1
102
RTVSPost2010Prop50
 90
       50
102
RTVSPost2010PropOp50
 70
     1
102
RTVSPost2010Prop51ColorIndex
 90
      256
102
RTVSPost2010Prop51ColorRGB
 90
-16777216
102
RTVSPost2010PropOp51
 70
     0
102
RTVSPost2010Prop52
140
1.0
102
RTVSPost2010PropOp52
 70
     0
102
RTVSPost2010Prop53
 90
        2
102
RTVSPost2010PropOp53
 70
     1
102
RTVSPost2010Prop54
  1
strokes_ogs.tif
102
RTVSPost2010PropOp54
 70
     1
102
RTVSPost2010Prop55
280
     0
102
RTVSPost2010PropOp55
 70
     1
102
RTVSPost2010Prop56
140
1.0
102
RTVSPost2010PropOp56
 70
     1
102
RTVSPost2010Prop57
140
1.0
102
RTVSPost2010PropOp57
 70
     1
  0
XRECORD
  5
18A
102
{ACAD_REACTORS
330
189
102
}
330
189
100
AcDbXrecord
280
     1
102
RTVSPost2010Prop28
280
     0
102
RTVSPost2010PropOp28
 70
     1
102
RTVSPost2010Prop29
280
     1
102
RTVSPost2010PropOp29
 70
     1
102
RTVSPost2010Prop30
280
     1
102
RTVSPost2010PropOp30
 70
     1
102
RTVSPost2010Prop31
280
     0
102
RTVSPost2010PropOp31
 70
     1
102
RTVSPost2010Prop32
280
     0
102
RTVSPost2010PropOp32
 70
     1
102
RTVSPost2010Prop33
280
     0
102
RTVSPost2010PropOp33
 70
     1
102
RTVSPost2010Prop34
280
     0
102
RTVSPost2010PropOp34
 70
     1
102
RTVSPost2010Prop35
280
     0
102
RTVSPost2010PropOp35
 70
     1
102
RTVSPost2010Prop36
280
     0
102
RTVSPost2010PropOp36
 70
     1
102
RTVSPost2010Prop37
 90
       50
102
RTVSPost2010PropOp37
 70
     1
102
RTVSPost2010Prop38
140
0.0
102
RTVSPost2010PropOp38
 70
     1
102
RTVSPost2010Prop39
140
1.0
102
RTVSPost2010PropOp39
 70
     1
102
RTVSPost2010Prop40
 90
        0
102
RTVSPost2010PropOp40
 70
     1
102
RTVSPost2010Prop41ColorIndex
 90
       18
102
RTVSPost2010Prop41ColorRGB
 90
        0
102
RTVSPost2010PropOp41
 70
     1
102
RTVSPost2010Prop42
 90
       50
102
RTVSPost2010PropOp42
 70
     1
102
RTVSPost2010Prop43
 90
        3
102
RTVSPost2010PropOp43
 70
     1
102
RTVSPost2010Prop44ColorIndex
 90
        5
102
RTVSPost2010Prop44ColorRGB
 90
      255
102
RTVSPost2010PropOp44
 70
     1
102
RTVSPost2010Prop45
280
     0
102
RTVSPost2010PropOp45
 70
     1
102
RTVSPost2010Prop46
 90
       50
102
RTVSPost2010PropOp46
 70
     1
102
RTVSPost2010Prop47
 90
       50
102
RTVSPost2010PropOp47
 70
     1
102
RTVSPost2010Prop48
 90
       50
102
RTVSPost2010PropOp48
 70
     1
102
RTVSPost2010Prop49
280
     0
102
RTVSPost2010PropOp49
 70
     1
102
RTVSPost2010Prop50
 90
       50
102
RTVSPost2010PropOp50
 70
     1
102
RTVSPost2010Prop51ColorIndex
 90
      256
102
RTVSPost2010Prop51ColorRGB
 90
-16777216
102
RTVSPost2010PropOp51
 70
     0
102
RTVSPost2010Prop52
140
1.0
102
RTVSPost2010PropOp52
 70
     0
102
RTVSPost2010Prop53
 90
        2
102
RTVSPost2010PropOp53
 70
     1
102
RTVSPost2010Prop54
  1
strokes_ogs.tif
102
RTVSPost2010PropOp54
 70
     1
102
RTVSPost2010Prop55
280
     0
102
RTVSPost2010PropOp55
 70
     1
102
RTVSPost2010Prop56
140
1.0
102
RTVSPost2010PropOp56
 70
     1
102
RTVSPost2010Prop57
140
1.0
102
RTVSPost2010PropOp57
 70
     1
  0
XRECORD
  5
184
102
{ACAD_REACTORS
330
183
102
}
330
183
100
AcDbXrecord
280
     1
102
RTVSPost2010Prop28
280
     0
102
RTVSPost2010PropOp28
 70
     1
102
RTVSPost2010Prop29
280
     1
102
RTVSPost2010PropOp29
 70
     1
102
RTVSPost2010Prop30
280
     1
102
RTVSPost2010PropOp30
 70
     1
102
RTVSPost2010Prop31
280
     0
102
RTVSPost2010PropOp31
 70
     1
102
RTVSPost2010Prop32
280
     0
102
RTVSPost2010PropOp32
 70
     1
102
RTVSPost2010Prop33
280
     0
102
RTVSPost2010PropOp33
 70
     1
102
RTVSPost2010Prop34
280
     0
102
RTVSPost2010PropOp34
 70
     1
102
RTVSPost2010Prop35
280
     0
102
RTVSPost2010PropOp35
 70
     1
102
RTVSPost2010Prop36
280
     0
102
RTVSPost2010PropOp36
 70
     1
102
RTVSPost2010Prop37
 90
       50
102
RTVSPost2010PropOp37
 70
     1
102
RTVSPost2010Prop38
140
0.0
102
RTVSPost2010PropOp38
 70
     1
102
RTVSPost2010Prop39
140
1.0
102
RTVSPost2010PropOp39
 70
     1
102
RTVSPost2010Prop40
 90
        0
102
RTVSPost2010PropOp40
 70
     1
102
RTVSPost2010Prop41ColorIndex
 90
       18
102
RTVSPost2010Prop41ColorRGB
 90
        0
102
RTVSPost2010PropOp41
 70
     1
102
RTVSPost2010Prop42
 90
       50
102
RTVSPost2010PropOp42
 70
     1
102
RTVSPost2010Prop43
 90
        3
102
RTVSPost2010PropOp43
 70
     1
102
RTVSPost2010Prop44ColorIndex
 90
        5
102
RTVSPost2010Prop44ColorRGB
 90
      255
102
RTVSPost2010PropOp44
 70
     1
102
RTVSPost2010Prop45
280
     0
102
RTVSPost2010PropOp45
 70
     1
102
RTVSPost2010Prop46
 90
       50
102
RTVSPost2010PropOp46
 70
     1
102
RTVSPost2010Prop47
 90
       50
102
RTVSPost2010PropOp47
 70
     1
102
RTVSPost2010Prop48
 90
       50
102
RTVSPost2010PropOp48
 70
     1
102
RTVSPost2010Prop49
280
     0
102
RTVSPost2010PropOp49
 70
     1
102
RTVSPost2010Prop50
 90
       50
102
RTVSPost2010PropOp50
 70
     1
102
RTVSPost2010Prop51ColorIndex
 90
      256
102
RTVSPost2010Prop51ColorRGB
 90
-16777216
102
RTVSPost2010PropOp51
 70
     0
102
RTVSPost2010Prop52
140
1.0
102
RTVSPost2010PropOp52
 70
     0
102
RTVSPost2010Prop53
 90
        2
102
RTVSPost2010PropOp53
 70
     1
102
RTVSPost2010Prop54
  1
strokes_ogs.tif
102
RTVSPost2010PropOp54
 70
     1
102
RTVSPost2010Prop55
280
     0
102
RTVSPost2010PropOp55
 70
     1
102
RTVSPost2010Prop56
140
1.0
102
RTVSPost2010PropOp56
 70
     1
102
RTVSPost2010Prop57
140
1.0
102
RTVSPost2010PropOp57
 70
     1
  0
XRECORD
  5
186
102
{ACAD_REACTORS
330
185
102
}
330
185
100
AcDbXrecord
280
     1
102
RTVSPost2010Prop28
280
     0
102
RTVSPost2010PropOp28
 70
     1
102
RTVSPost2010Prop29
280
     1
102
RTVSPost2010PropOp29
 70
     1
102
RTVSPost2010Prop30
280
     1
102
RTVSPost2010PropOp30
 70
     1
102
RTVSPost2010Prop31
280
     0
102
RTVSPost2010PropOp31
 70
     1
102
RTVSPost2010Prop32
280
     0
102
RTVSPost2010PropOp32
 70
     1
102
RTVSPost2010Prop33
280
     0
102
RTVSPost2010PropOp33
 70
     1
102
RTVSPost2010Prop34
280
     0
102
RTVSPost2010PropOp34
 70
     1
102
RTVSPost2010Prop35
280
     0
102
RTVSPost2010PropOp35
 70
     1
102
RTVSPost2010Prop36
280
     0
102
RTVSPost2010PropOp36
 70
     1
102
RTVSPost2010Prop37
 90
       50
102
RTVSPost2010PropOp37
 70
     1
102
RTVSPost2010Prop38
140
0.0
102
RTVSPost2010PropOp38
 70
     1
102
RTVSPost2010Prop39
140
1.0
102
RTVSPost2010PropOp39
 70
     1
102
RTVSPost2010Prop40
 90
        0
102
RTVSPost2010PropOp40
 70
     1
102
RTVSPost2010Prop41ColorIndex
 90
       18
102
RTVSPost2010Prop41ColorRGB
 90
        0
102
RTVSPost2010PropOp41
 70
     1
102
RTVSPost2010Prop42
 90
       50
102
RTVSPost2010PropOp42
 70
     1
102
RTVSPost2010Prop43
 90
        3
102
RTVSPost2010PropOp43
 70
     1
102
RTVSPost2010Prop44ColorIndex
 90
        5
102
RTVSPost2010Prop44ColorRGB
 90
      255
102
RTVSPost2010PropOp44
 70
     1
102
RTVSPost2010Prop45
280
     0
102
RTVSPost2010PropOp45
 70
     1
102
RTVSPost2010Prop46
 90
       50
102
RTVSPost2010PropOp46
 70
     1
102
RTVSPost2010Prop47
 90
       50
102
RTVSPost2010PropOp47
 70
     1
102
RTVSPost2010Prop48
 90
       50
102
RTVSPost2010PropOp48
 70
     1
102
RTVSPost2010Prop49
280
     0
102
RTVSPost2010PropOp49
 70
     1
102
RTVSPost2010Prop50
 90
       50
102
RTVSPost2010PropOp50
 70
     1
102
RTVSPost2010Prop51ColorIndex
 90
      256
102
RTVSPost2010Prop51ColorRGB
 90
-16777216
102
RTVSPost2010PropOp51
 70
     0
102
RTVSPost2010Prop52
140
1.0
102
RTVSPost2010PropOp52
 70
     0
102
RTVSPost2010Prop53
 90
        2
102
RTVSPost2010PropOp53
 70
     1
102
RTVSPost2010Prop54
  1
strokes_ogs.tif
102
RTVSPost2010PropOp54
 70
     1
102
RTVSPost2010Prop55
280
     0
102
RTVSPost2010PropOp55
 70
     1
102
RTVSPost2010Prop56
140
1.0
102
RTVSPost2010PropOp56
 70
     1
102
RTVSPost2010Prop57
140
1.0
102
RTVSPost2010PropOp57
 70
     1
  0
XRECORD
  5
17C
102
{ACAD_REACTORS
330
17B
102
}
330
17B
100
AcDbXrecord
280
     1
102
RTVSPost2010Prop28
280
     0
102
RTVSPost2010PropOp28
 70
     1
102
RTVSPost2010Prop29
280
     1
102
RTVSPost2010PropOp29
 70
     1
102
RTVSPost2010Prop30
280
     1
102
RTVSPost2010PropOp30
 70
     1
102
RTVSPost2010Prop31
280
     0
102
RTVSPost2010PropOp31
 70
     1
102
RTVSPost2010Prop32
280
     0
102
RTVSPost2010PropOp32
 70
     1
102
RTVSPost2010Prop33
280
     0
102
RTVSPost2010PropOp33
 70
     1
102
RTVSPost2010Prop34
280
     0
102
RTVSPost2010PropOp34
 70
     1
102
RTVSPost2010Prop35
280
     0
102
RTVSPost2010PropOp35
 70
     1
102
RTVSPost2010Prop36
280
     0
102
RTVSPost2010PropOp36
 70
     1
102
RTVSPost2010Prop37
 90
       50
102
RTVSPost2010PropOp37
 70
     1
102
RTVSPost2010Prop38
140
0.0
102
RTVSPost2010PropOp38
 70
     1
102
RTVSPost2010Prop39
140
1.0
102
RTVSPost2010PropOp39
 70
     1
102
RTVSPost2010Prop40
 90
        0
102
RTVSPost2010PropOp40
 70
     1
102
RTVSPost2010Prop41ColorIndex
 90
       18
102
RTVSPost2010Prop41ColorRGB
 90
        0
102
RTVSPost2010PropOp41
 70
     1
102
RTVSPost2010Prop42
 90
       50
102
RTVSPost2010PropOp42
 70
     1
102
RTVSPost2010Prop43
 90
        3
102
RTVSPost2010PropOp43
 70
     1
102
RTVSPost2010Prop44ColorIndex
 90
        5
102
RTVSPost2010Prop44ColorRGB
 90
      255
102
RTVSPost2010PropOp44
 70
     1
102
RTVSPost2010Prop45
280
     0
102
RTVSPost2010PropOp45
 70
     1
102
RTVSPost2010Prop46
 90
       50
102
RTVSPost2010PropOp46
 70
     1
102
RTVSPost2010Prop47
 90
       50
102
RTVSPost2010PropOp47
 70
     1
102
RTVSPost2010Prop48
 90
       50
102
RTVSPost2010PropOp48
 70
     1
102
RTVSPost2010Prop49
280
     0
102
RTVSPost2010PropOp49
 70
     1
102
RTVSPost2010Prop50
 90
       50
102
RTVSPost2010PropOp50
 70
     1
102
RTVSPost2010Prop51ColorIndex
 90
      256
102
RTVSPost2010Prop51ColorRGB
 90
-16777216
102
RTVSPost2010PropOp51
 70
     0
102
RTVSPost2010Prop52
140
1.0
102
RTVSPost2010PropOp52
 70
     0
102
RTVSPost2010Prop53
 90
        2
102
RTVSPost2010PropOp53
 70
     1
102
RTVSPost2010Prop54
  1
strokes_ogs.tif
102
RTVSPost2010PropOp54
 70
     1
102
RTVSPost2010Prop55
280
     0
102
RTVSPost2010PropOp55
 70
     1
102
RTVSPost2010Prop56
140
1.0
102
RTVSPost2010PropOp56
 70
     1
102
RTVSPost2010Prop57
140
1.0
102
RTVSPost2010PropOp57
 70
     1
  0
XRECORD
  5
170
102
{ACAD_REACTORS
330
16F
102
}
330
16F
100
AcDbXrecord
280
     1
102
RTVSPost2010Prop28
280
     0
102
RTVSPost2010PropOp28
 70
     1
102
RTVSPost2010Prop29
280
     1
102
RTVSPost2010PropOp29
 70
     1
102
RTVSPost2010Prop30
280
     1
102
RTVSPost2010PropOp30
 70
     1
102
RTVSPost2010Prop31
280
     0
102
RTVSPost2010PropOp31
 70
     1
102
RTVSPost2010Prop32
280
     0
102
RTVSPost2010PropOp32
 70
     1
102
RTVSPost2010Prop33
280
     0
102
RTVSPost2010PropOp33
 70
     1
102
RTVSPost2010Prop34
280
     0
102
RTVSPost2010PropOp34
 70
     1
102
RTVSPost2010Prop35
280
     0
102
RTVSPost2010PropOp35
 70
     1
102
RTVSPost2010Prop36
280
     0
102
RTVSPost2010PropOp36
 70
     1
102
RTVSPost2010Prop37
 90
       50
102
RTVSPost2010PropOp37
 70
     1
102
RTVSPost2010Prop38
140
0.0
102
RTVSPost2010PropOp38
 70
     1
102
RTVSPost2010Prop39
140
1.0
102
RTVSPost2010PropOp39
 70
     1
102
RTVSPost2010Prop40
 90
        0
102
RTVSPost2010PropOp40
 70
     1
102
RTVSPost2010Prop41ColorIndex
 90
       18
102
RTVSPost2010Prop41ColorRGB
 90
        0
102
RTVSPost2010PropOp41
 70
     1
102
RTVSPost2010Prop42
 90
       50
102
RTVSPost2010PropOp42
 70
     1
102
RTVSPost2010Prop43
 90
        3
102
RTVSPost2010PropOp43
 70
     1
102
RTVSPost2010Prop44ColorIndex
 90
        5
102
RTVSPost2010Prop44ColorRGB
 90
      255
102
RTVSPost2010PropOp44
 70
     1
102
RTVSPost2010Prop45
280
     0
102
RTVSPost2010PropOp45
 70
     1
102
RTVSPost2010Prop46
 90
       50
102
RTVSPost2010PropOp46
 70
     1
102
RTVSPost2010Prop47
 90
       50
102
RTVSPost2010PropOp47
 70
     1
102
RTVSPost2010Prop48
 90
       50
102
RTVSPost2010PropOp48
 70
     1
102
RTVSPost2010Prop49
280
     0
102
RTVSPost2010PropOp49
 70
     1
102
RTVSPost2010Prop50
 90
       50
102
RTVSPost2010PropOp50
 70
     1
102
RTVSPost2010Prop51ColorIndex
 90
      256
102
RTVSPost2010Prop51ColorRGB
 90
-16777216
102
RTVSPost2010PropOp51
 70
     0
102
RTVSPost2010Prop52
140
1.0
102
RTVSPost2010PropOp52
 70
     0
102
RTVSPost2010Prop53
 90
        2
102
RTVSPost2010PropOp53
 70
     1
102
RTVSPost2010Prop54
  1
strokes_ogs.tif
102
RTVSPost2010PropOp54
 70
     1
102
RTVSPost2010Prop55
280
     0
102
RTVSPost2010PropOp55
 70
     1
102
RTVSPost2010Prop56
140
1.0
102
RTVSPost2010PropOp56
 70
     1
102
RTVSPost2010Prop57
140
1.0
102
RTVSPost2010PropOp57
 70
     1
  0
XRECORD
  5
188
102
{ACAD_REACTORS
330
187
102
}
330
187
100
AcDbXrecord
280
     1
102
RTVSPost2010Prop28
280
     0
102
RTVSPost2010PropOp28
 70
     1
102
RTVSPost2010Prop29
280
     1
102
RTVSPost2010PropOp29
 70
     1
102
RTVSPost2010Prop30
280
     1
102
RTVSPost2010PropOp30
 70
     1
102
RTVSPost2010Prop31
280
     0
102
RTVSPost2010PropOp31
 70
     1
102
RTVSPost2010Prop32
280
     0
102
RTVSPost2010PropOp32
 70
     1
102
RTVSPost2010Prop33
280
     0
102
RTVSPost2010PropOp33
 70
     1
102
RTVSPost2010Prop34
280
     0
102
RTVSPost2010PropOp34
 70
     1
102
RTVSPost2010Prop35
280
     0
102
RTVSPost2010PropOp35
 70
     1
102
RTVSPost2010Prop36
280
     0
102
RTVSPost2010PropOp36
 70
     1
102
RTVSPost2010Prop37
 90
       50
102
RTVSPost2010PropOp37
 70
     1
102
RTVSPost2010Prop38
140
0.0
102
RTVSPost2010PropOp38
 70
     1
102
RTVSPost2010Prop39
140
1.0
102
RTVSPost2010PropOp39
 70
     1
102
RTVSPost2010Prop40
 90
        0
102
RTVSPost2010PropOp40
 70
     1
102
RTVSPost2010Prop41ColorIndex
 90
       18
102
RTVSPost2010Prop41ColorRGB
 90
        0
102
RTVSPost2010PropOp41
 70
     1
102
RTVSPost2010Prop42
 90
       50
102
RTVSPost2010PropOp42
 70
     1
102
RTVSPost2010Prop43
 90
        3
102
RTVSPost2010PropOp43
 70
     1
102
RTVSPost2010Prop44ColorIndex
 90
        5
102
RTVSPost2010Prop44ColorRGB
 90
      255
102
RTVSPost2010PropOp44
 70
     1
102
RTVSPost2010Prop45
280
     0
102
RTVSPost2010PropOp45
 70
     1
102
RTVSPost2010Prop46
 90
       50
102
RTVSPost2010PropOp46
 70
     1
102
RTVSPost2010Prop47
 90
       50
102
RTVSPost2010PropOp47
 70
     1
102
RTVSPost2010Prop48
 90
       50
102
RTVSPost2010PropOp48
 70
     1
102
RTVSPost2010Prop49
280
     0
102
RTVSPost2010PropOp49
 70
     1
102
RTVSPost2010Prop50
 90
       50
102
RTVSPost2010PropOp50
 70
     1
102
RTVSPost2010Prop51ColorIndex
 90
      256
102
RTVSPost2010Prop51ColorRGB
 90
-16777216
102
RTVSPost2010PropOp51
 70
     0
102
RTVSPost2010Prop52
140
1.0
102
RTVSPost2010PropOp52
 70
     0
102
RTVSPost2010Prop53
 90
        2
102
RTVSPost2010PropOp53
 70
     1
102
RTVSPost2010Prop54
  1
strokes_ogs.tif
102
RTVSPost2010PropOp54
 70
     1
102
RTVSPost2010Prop55
280
     0
102
RTVSPost2010PropOp55
 70
     1
102
RTVSPost2010Prop56
140
1.0
102
RTVSPost2010PropOp56
 70
     1
102
RTVSPost2010Prop57
140
1.0
102
RTVSPost2010PropOp57
 70
     1
  0
ENDSEC
  0
EOF
