  0
SECTION
  2
HEADER
  9
$ACADVER
  1
AC1024
  9
$ACADMAINTVER
 70
     6
  9
$DWGCODEPAGE
  3
UNDEFINED
  9
$INSBASE
 10
0.0
 20
0.0
 30
0.0
  9
$EXTMIN
 10
1.000000000000000E+20
 20
1.000000000000000E+20
 30
1.000000000000000E+20
  9
$EXTMAX
 10
-1.000000000000000E+20
 20
-1.000000000000000E+20
 30
-1.000000000000000E+20
  9
$LIMMIN
 10
0.0
 20
0.0
  9
$LIMMAX
 10
12.0
 20
9.0
  9
$ORTHOMODE
 70
     0
  9
$REGENMODE
 70
     1
  9
$FILLMODE
 70
     1
  9
$QTEXTMODE
 70
     0
  9
$MIRRTEXT
 70
     1
  9
$LTSCALE
 40
1.0
  9
$ATTMODE
 70
     1
  9
$TEXTSIZE
 40
0.2
  9
$TRACEWID
 40
0.05
  9
$TEXTSTYLE
  7
Standard
  9
$CLAYER
  8
0
  9
$CELTYPE
  6
ByLayer
  9
$CECOLOR
 62
   256
  9
$CELTSCALE
 40
1.0
  9
$DISPSILH
 70
     0
  9
$DIMSCALE
 40
1.0
  9
$DIMASZ
 40
0.18
  9
$DIMEXO
 40
0.0625
  9
$DIMDLI
 40
0.38
  9
$DIMRND
 40
0.0
  9
$DIMDLE
 40
0.0
  9
$DIMEXE
 40
0.18
  9
$DIMTP
 40
0.0
  9
$DIMTM
 40
0.0
  9
$DIMTXT
 40
0.18
  9
$DIMCEN
 40
0.09
  9
$DIMTSZ
 40
0.0
  9
$DIMTOL
 70
     0
  9
$DIMLIM
 70
     0
  9
$DIMTIH
 70
     1
  9
$DIMTOH
 70
     1
  9
$DIMSE1
 70
     0
  9
$DIMSE2
 70
     0
  9
$DIMTAD
 70
     0
  9
$DIMZIN
 70
     0
  9
$DIMBLK
  1

  9
$DIMASO
 70
     1
  9
$DIMSHO
 70
     1
  9
$DIMPOST
  1

  9
$DIMAPOST
  1

  9
$DIMALT
 70
     0
  9
$DIMALTD
 70
     2
  9
$DIMALTF
 40
25.4
  9
$DIMLFAC
 40
1.0
  9
$DIMTOFL
 70
     0
  9
$DIMTVP
 40
0.0
  9
$DIMTIX
 70
     0
  9
$DIMSOXD
 70
     0
  9
$DIMSAH
 70
     0
  9
$DIMBLK1
  1

  9
$DIMBLK2
  1

  9
$DIMSTYLE
  2
Standard
  9
$DIMCLRD
 70
     0
  9
$DIMCLRE
 70
     0
  9
$DIMCLRT
 70
     0
  9
$DIMTFAC
 40
1.0
  9
$DIMGAP
 40
0.09
  9
$DIMJUST
 70
     0
  9
$DIMSD1
 70
     0
  9
$DIMSD2
 70
     0
  9
$DIMTOLJ
 70
     1
  9
$DIMTZIN
 70
     0
  9
$DIMALTZ
 70
     0
  9
$DIMALTTZ
 70
     0
  9
$DIMUPT
 70
     0
  9
$DIMDEC
 70
     4
  9
$DIMTDEC
 70
     4
  9
$DIMALTU
 70
     2
  9
$DIMALTTD
 70
     2
  9
$DIMTXSTY
  7
Standard
  9
$DIMAUNIT
 70
     0
  9
$DIMADEC
 70
     0
  9
$DIMALTRND
 40
0.0
  9
$DIMAZIN
 70
     0
  9
$DIMDSEP
 70
    46
  9
$DIMATFIT
 70
     3
  9
$DIMFRAC
 70
     0
  9
$DIMLDRBLK
  1

  9
$DIMLUNIT
 70
     2
  9
$DIMLWD
 70
    -2
  9
$DIMLWE
 70
    -2
  9
$DIMTMOVE
 70
     0
  9
$DIMFXL
 40
1.0
  9
$DIMFXLON
 70
     0
  9
$DIMJOGANG
 40
0.7853981633974483
  9
$DIMTFILL
 70
     0
  9
$DIMTFILLCLR
 70
     0
  9
$DIMARCSYM
 70
     0
  9
$DIMLTYPE
  6

  9
$DIMLTEX1
  6

  9
$DIMLTEX2
  6

  9
$DIMTXTDIRECTION
 70
     0
  9
$LUNITS
 70
     2
  9
$LUPREC
 70
     4
  9
$SKETCHINC
 40
0.1
  9
$FILLETRAD
 40
0.5
  9
$AUNITS
 70
     0
  9
$AUPREC
 70
     0
  9
$MENU
  1
.
  9
$ELEVATION
 40
0.0
  9
$PELEVATION
 40
0.0
  9
$THICKNESS
 40
0.0
  9
$LIMCHECK
 70
     0
  9
$CHAMFERA
 40
0.5
  9
$CHAMFERB
 40
0.5
  9
$CHAMFERC
 40
1.0
  9
$CHAMFERD
 40
0.0
  9
$SKPOLY
 70
     0
  9
$TDCREATE
 40
2458263.574467581
  9
$TDUCREATE
 40
2458263.199467592
  9
$TDUPDATE
 40
2458263.574467581
  9
$TDUUPDATE
 40
2458263.199467592
  9
$TDINDWG
 40
0.0000000116
  9
$TDUSRTIMER
 40
0.0000000116
  9
$USRTIMER
 70
     1
  9
$ANGBASE
 50
0.0
  9
$ANGDIR
 70
     0
  9
$PDMODE
 70
     0
  9
$PDSIZE
 40
0.0
  9
$PLINEWID
 40
0.0
  9
$SPLFRAME
 70
     0
  9
$SPLINETYPE
 70
     6
  9
$SPLINESEGS
 70
     8
  9
$HANDSEED
  5
DB
  9
$SURFTAB1
 70
     6
  9
$SURFTAB2
 70
     6
  9
$SURFTYPE
 70
     6
  9
$SURFU
 70
     6
  9
$SURFV
 70
     6
  9
$UCSBASE
  2

  9
$UCSNAME
  2

  9
$UCSORG
 10
0.0
 20
0.0
 30
0.0
  9
$UCSXDIR
 10
1.0
 20
0.0
 30
0.0
  9
$UCSYDIR
 10
0.0
 20
1.0
 30
0.0
  9
$UCSORTHOREF
  2

  9
$UCSORTHOVIEW
 70
     0
  9
$UCSORGTOP
 10
0.0
 20
0.0
 30
0.0
  9
$UCSORGBOTTOM
 10
0.0
 20
0.0
 30
0.0
  9
$UCSORGLEFT
 10
0.0
 20
0.0
 30
0.0
  9
$UCSORGRIGHT
 10
0.0
 20
0.0
 30
0.0
  9
$UCSORGFRONT
 10
0.0
 20
0.0
 30
0.0
  9
$UCSORGBACK
 10
0.0
 20
0.0
 30
0.0
  9
$PUCSBASE
  2

  9
$PUCSNAME
  2

  9
$PUCSORG
 10
0.0
 20
0.0
 30
0.0
  9
$PUCSXDIR
 10
1.0
 20
0.0
 30
0.0
  9
$PUCSYDIR
 10
0.0
 20
1.0
 30
0.0
  9
$PUCSORTHOREF
  2

  9
$PUCSORTHOVIEW
 70
     0
  9
$PUCSORGTOP
 10
0.0
 20
0.0
 30
0.0
  9
$PUCSORGBOTTOM
 10
0.0
 20
0.0
 30
0.0
  9
$PUCSORGLEFT
 10
0.0
 20
0.0
 30
0.0
  9
$PUCSORGRIGHT
 10
0.0
 20
0.0
 30
0.0
  9
$PUCSORGFRONT
 10
0.0
 20
0.0
 30
0.0
  9
$PUCSORGBACK
 10
0.0
 20
0.0
 30
0.0
  9
$USERI1
 70
     0
  9
$USERI2
 70
     0
  9
$USERI3
 70
     0
  9
$USERI4
 70
     0
  9
$USERI5
 70
     0
  9
$USERR1
 40
0.0
  9
$USERR2
 40
0.0
  9
$USERR3
 40
0.0
  9
$USERR4
 40
0.0
  9
$USERR5
 40
0.0
  9
$WORLDVIEW
 70
     1
  9
$SHADEDGE
 70
     3
  9
$SHADEDIF
 70
    70
  9
$TILEMODE
 70
     1
  9
$MAXACTVP
 70
    64
  9
$PINSBASE
 10
0.0
 20
0.0
 30
0.0
  9
$PLIMCHECK
 70
     0
  9
$PEXTMIN
 10
1.000000000000000E+20
 20
1.000000000000000E+20
 30
1.000000000000000E+20
  9
$PEXTMAX
 10
-1.000000000000000E+20
 20
-1.000000000000000E+20
 30
-1.000000000000000E+20
  9
$PLIMMIN
 10
0.0
 20
0.0
  9
$PLIMMAX
 10
12.0
 20
9.0
  9
$UNITMODE
 70
     0
  9
$VISRETAIN
 70
     1
  9
$PLINEGEN
 70
     0
  9
$PSLTSCALE
 70
     1
  9
$TREEDEPTH
 70
  3020
  9
$CMLSTYLE
  2
Standard
  9
$CMLJUST
 70
     0
  9
$CMLSCALE
 40
1.0
  9
$PROXYGRAPHICS
 70
     1
  9
$MEASUREMENT
 70
     0
  9
$CELWEIGHT
370
    -1
  9
$ENDCAPS
280
     0
  9
$JOINSTYLE
280
     0
  9
$LWDISPLAY
290
     1
  9
$INSUNITS
 70
     1
  9
$HYPERLINKBASE
  1

  9
$STYLESHEET
  1

  9
$XEDIT
290
     1
  9
$CEPSNTYPE
380
     0
  9
$PSTYLEMODE
290
     1
  9
$FINGERPRINTGUID
  2
{52EA59BB-88A9-3F72-8E5B-6F272B430F86}
  9
$VERSIONGUID
  2
{FAEB1C32-E019-11D5-929B-00C0DF256EC4}
  9
$EXTNAMES
290
     1
  9
$PSVPSCALE
 40
0.0
  9
$OLESTARTUP
290
     0
  9
$SORTENTS
280
   127
  9
$INDEXCTL
280
     0
  9
$HIDETEXT
280
     1
  9
$XCLIPFRAME
280
     2
  9
$HALOGAP
280
     0
  9
$OBSCOLOR
 70
   257
  9
$OBSLTYPE
280
     0
  9
$INTERSECTIONDISPLAY
280
     0
  9
$INTERSECTIONCOLOR
 70
   257
  9
$DIMASSOC
280
     2
  9
$PROJECTNAME
  1

  9
$CAMERADISPLAY
290
     0
  9
$LENSLENGTH
 40
50.0
  9
$CAMERAHEIGHT
 40
0.0
  9
$STEPSPERSEC
 40
2.0
  9
$STEPSIZE
 40
6.0
  9
$3DDWFPREC
 40
2.0
  9
$PSOLWIDTH
 40
0.25
  9
$PSOLHEIGHT
 40
4.0
  9
$LOFTANG1
 40
1.570796326794897
  9
$LOFTANG2
 40
1.570796326794897
  9
$LOFTMAG1
 40
0.0
  9
$LOFTMAG2
 40
0.0
  9
$LOFTPARAM
 70
     7
  9
$LOFTNORMALS
280
     1
  9
$LATITUDE
 40
37.795
  9
$LONGITUDE
 40
-122.394
  9
$NORTHDIRECTION
 40
0.0
  9
$TIMEZONE
 70
 -8000
  9
$LIGHTGLYPHDISPLAY
280
     1
  9
$TILEMODELIGHTSYNCH
280
     1
  9
$CMATERIAL
347
3C
  9
$SOLIDHIST
280
     1
  9
$SHOWHIST
280
     1
  9
$DWFFRAME
280
     2
  9
$DGNFRAME
280
     2
  9
$REALWORLDSCALE
290
     1
  9
$INTERFERECOLOR
 62
   256
  9
$CSHADOW
280
     0
  9
$SHADOWPLANELOCATION
 40
0.0
  0
ENDSEC
  0
SECTION
  2
CLASSES
  0
CLASS
  1
ACDBDICTIONARYWDFLT
  2
AcDbDictionaryWithDefault
  3
ObjectDBX Classes
 90
        0
 91
        4
280
     0
281
     0
  0
CLASS
  1
VISUALSTYLE
  2
AcDbVisualStyle
  3
ObjectDBX Classes
 90
     4095
 91
        4
280
     0
281
     0
  0
CLASS
  1
MATERIAL
  2
AcDbMaterial
  3
ObjectDBX Classes
 90
     1153
 91
        4
280
     0
281
     0
  0
CLASS
  1
SUN
  2
AcDbSun
  3
SCENEOE
 90
     1024
 91
        4
280
     0
281
     0
  0
ENDSEC
  0
SECTION
  2
TABLES
  0
TABLE
  2
VPORT
  5
8
330
0
100
AcDbSymbolTable
 70
     1
  0
VPORT
  5
29
330
8
100
AcDbSymbolTableRecord
100
AcDbViewportTableRecord
  2
*Active
 70
     0
 10
0.0
 20
0.0
 11
1.0
 21
1.0
 12
0.0
 22
0.0
 13
0.0
 23
0.0
 14
0.5
 24
0.5
 15
0.5
 25
0.5
 16
0.0
 26
0.0
 36
1.0
 17
105.0007777515277
 27
-148.5000416295416
 37
0.0
 40
297.0000832590831
 41
0.7070757462376333
 42
50.0
 43
0.0
 44
0.0
 50
0.0
 51
0.0
 71
     0
 72
   100
 73
     1
 74
     3
 75
     0
 76
     0
 77
     0
 78
     0
281
     0
 65
     1
110
0.0
120
0.0
130
0.0
111
1.0
121
0.0
131
0.0
112
0.0
122
1.0
132
0.0
 79
     0
146
0.0
 60
     3
 61
     5
292
     1
282
     1
141
0.0
142
0.0
 63
   250
361
3F
  0
ENDTAB
  0
TABLE
  2
LTYPE
  5
5
330
0
100
AcDbSymbolTable
 70
     1
  0
LTYPE
  5
14
330
5
100
AcDbSymbolTableRecord
100
AcDbLinetypeTableRecord
  2
ByBlock
 70
     0
  3

 72
    65
 73
     0
 40
0.0
  0
LTYPE
  5
15
330
5
100
AcDbSymbolTableRecord
100
AcDbLinetypeTableRecord
  2
ByLayer
 70
     0
  3

 72
    65
 73
     0
 40
0.0
  0
LTYPE
  5
16
330
5
100
AcDbSymbolTableRecord
100
AcDbLinetypeTableRecord
  2
Continuous
 70
     0
  3
Solid line
 72
    65
 73
     0
 40
0.0
  0
ENDTAB
  0
TABLE
  2
LAYER
  5
2
330
0
100
AcDbSymbolTable
 70
     2
  0
LAYER
  5
10
330
2
100
AcDbSymbolTableRecord
100
AcDbLayerTableRecord
  2
0
 70
     0
 62
     7
  6
Continuous
370
    -3
390
F
347
3E
  0
LAYER
  5
40
330
2
100
AcDbSymbolTableRecord
100
AcDbLayerTableRecord
  2
_U+30EC_U+30A4_U+30E4_U+30FC 1
 70
     0
 62
     7
  6
Continuous
370
    -3
390
F
347
3E
  0
ENDTAB
  0
TABLE
  2
STYLE
  5
3
330
0
100
AcDbSymbolTable
 70
     1
  0
STYLE
  5
11
330
3
100
AcDbSymbolTableRecord
100
AcDbTextStyleTableRecord
  2
Standard
 70
     0
 40
0.0
 41
1.0
 50
0.0
 71
     0
 42
0.2
  3
txt
  4

  0
ENDTAB
  0
TABLE
  2
VIEW
  5
6
330
0
100
AcDbSymbolTable
 70
     0
  0
ENDTAB
  0
TABLE
  2
UCS
  5
7
330
0
100
AcDbSymbolTable
 70
     0
  0
ENDTAB
  0
TABLE
  2
APPID
  5
9
330
0
100
AcDbSymbolTable
 70
     1
  0
APPID
  5
12
330
9
100
AcDbSymbolTableRecord
100
AcDbRegAppTableRecord
  2
ACAD
 70
     0
  0
ENDTAB
  0
TABLE
  2
DIMSTYLE
  5
A
330
0
100
AcDbSymbolTable
 70
     1
100
AcDbDimStyleTable
  0
DIMSTYLE
105
27
330
A
100
AcDbSymbolTableRecord
100
AcDbDimStyleTableRecord
  2
Standard
 70
     0
178
     0
340
11
  0
ENDTAB
  0
TABLE
  2
BLOCK_RECORD
  5
1
330
0
100
AcDbSymbolTable
 70
     6
  0
BLOCK_RECORD
  5
1F
330
1
100
AcDbSymbolTableRecord
100
AcDbBlockTableRecord
  2
*Model_Space
340
22
 70
     0
280
     1
281
     0
  0
BLOCK_RECORD
  5
1B
330
1
100
AcDbSymbolTableRecord
100
AcDbBlockTableRecord
  2
*Paper_Space
340
1E
 70
     0
280
     1
281
     0
  0
BLOCK_RECORD
  5
23
330
1
100
AcDbSymbolTableRecord
100
AcDbBlockTableRecord
  2
*Paper_Space0
340
26
 70
     0
280
     1
281
     0
  0
BLOCK_RECORD
  5
5C
330
1
100
AcDbSymbolTableRecord
100
AcDbBlockTableRecord
  2
block 2
340
0
102
{BLKREFS
331
5D
102
}
 70
     0
280
     1
281
     0
  0
BLOCK_RECORD
  5
6A
330
1
100
AcDbSymbolTableRecord
100
AcDbBlockTableRecord
  2
block 3
340
0
102
{BLKREFS
331
6B
102
}
 70
     0
280
     1
281
     0
  0
BLOCK_RECORD
  5
88
330
1
100
AcDbSymbolTableRecord
100
AcDbBlockTableRecord
  2
block 4
340
0
102
{BLKREFS
331
89
102
}
 70
     0
280
     1
281
     0
  0
BLOCK_RECORD
  5
99
330
1
100
AcDbSymbolTableRecord
100
AcDbBlockTableRecord
  2
block 5
340
0
102
{BLKREFS
331
9A
102
}
 70
     0
280
     1
281
     0
  0
BLOCK_RECORD
  5
B2
330
1
100
AcDbSymbolTableRecord
100
AcDbBlockTableRecord
  2
block 6
340
0
102
{BLKREFS
331
B3
102
}
 70
     0
280
     1
281
     0
  0
ENDTAB
  0
ENDSEC
  0
SECTION
  2
BLOCKS
  0
BLOCK
  5
20
330
1F
100
AcDbEntity
  8
0
100
AcDbBlockBegin
  2
*Model_Space
 70
     0
 10
0.0
 20
0.0
 30
0.0
  3
*Model_Space
  1

  0
ENDBLK
  5
21
330
1F
100
AcDbEntity
  8
0
100
AcDbBlockEnd
  0
BLOCK
  5
1C
330
1B
100
AcDbEntity
 67
     1
  8
0
100
AcDbBlockBegin
  2
*Paper_Space
 70
     0
 10
0.0
 20
0.0
 30
0.0
  3
*Paper_Space
  1

  0
ENDBLK
  5
1D
330
1B
100
AcDbEntity
 67
     1
  8
0
100
AcDbBlockEnd
  0
BLOCK
  5
24
330
23
100
AcDbEntity
  8
0
100
AcDbBlockBegin
  2
*Paper_Space0
 70
     0
 10
0.0
 20
0.0
 30
0.0
  3
*Paper_Space0
  1

  0
ENDBLK
  5
25
330
23
100
AcDbEntity
  8
0
100
AcDbBlockEnd
  0
BLOCK
  5
5E
330
5C
100
AcDbEntity
  8
0
100
AcDbBlockBegin
  2
block 2
 70
     0
 10
0.0
 20
0.0
 30
0.0
  3
block 2
  1

  0
SPLINE
  5
60
330
5C
100
AcDbEntity
  8
_U+30EC_U+30A4_U+30E4_U+30FC 1
370
     0
100
AcDbSpline
210
0.0
220
0.0
230
1.0
 70
    11
 71
     3
 72
    26
 73
    22
 74
     0
 42
0.0000000001
 43
0.0000000001
 12
1.0
 22
0.0
 32
0.0
 13
1.0
 23
0.0
 33
0.0
 40
0.0
 40
0.0
 40
0.0
 40
0.0
 40
1.0
 40
1.0
 40
1.0
 40
2.0
 40
2.0
 40
2.0
 40
3.0
 40
3.0
 40
3.0
 40
4.0
 40
4.0
 40
4.0
 40
5.0
 40
5.0
 40
5.0
 40
6.0
 40
6.0
 40
6.0
 40
7.0
 40
7.0
 40
7.0
 40
7.0
 10
127.9728949332846
 20
-150.0662922801918
 30
0.0
 10
127.9728949332846
 20
-150.0662922801918
 30
0.0
 10
126.868741830262
 20
-150.0662922801918
 30
0.0
 10
126.868741830262
 20
-150.0662922801918
 30
0.0
 10
126.868741830262
 20
-150.0662922801918
 30
0.0
 10
126.868741830262
 20
-150.3963324276787
 30
0.0
 10
126.868741830262
 20
-150.3963324276787
 30
0.0
 10
126.868741830262
 20
-150.3963324276787
 30
0.0
 10
126.7206027243962
 20
-150.3963324276787
 30
0.0
 10
126.7206027243962
 20
-150.3963324276787
 30
0.0
 10
126.7057888138097
 20
-150.0642252229006
 30
0.0
 10
126.5428357973574
 20
-150.0173719243012
 30
0.0
 10
126.4284586272471
 20
-149.9877441031281
 30
0.0
 10
126.4284586272471
 20
-149.9877441031281
 30
0.0
 10
126.4284586272471
 20
-149.8416720545535
 30
0.0
 10
126.4284586272471
 20
-149.8416720545535
 30
0.0
 10
126.4284586272471
 20
-149.8416720545535
 30
0.0
 10
127.9728949332846
 20
-149.8416720545535
 30
0.0
 10
127.9728949332846
 20
-149.8416720545535
 30
0.0
 10
127.9728949332846
 20
-149.8416720545535
 30
0.0
 10
127.9728949332846
 20
-150.0662922801918
 30
0.0
 10
127.9728949332846
 20
-150.0662922801918
 30
0.0
  0
HATCH
  5
61
330
5C
100
AcDbEntity
  8
_U+30EC_U+30A4_U+30E4_U+30FC 1
 62
   179
420
  2234388
100
AcDbHatch
 10
0.0
 20
0.0
 30
0.0
210
0.0
220
0.0
230
1.0
  2
SOLID
 70
     1
 71
     0
 91
        1
 92
        1
 93
        1
 72
     4
 94
        3
 73
     0
 74
     1
 95
       26
 96
       22
 40
0.0
 40
0.0
 40
0.0
 40
0.0
 40
1.0
 40
1.0
 40
1.0
 40
2.0
 40
2.0
 40
2.0
 40
3.0
 40
3.0
 40
3.0
 40
4.0
 40
4.0
 40
4.0
 40
5.0
 40
5.0
 40
5.0
 40
6.0
 40
6.0
 40
6.0
 40
7.0
 40
7.0
 40
7.0
 40
7.0
 10
127.9728949332846
 20
-150.0662922801918
 10
127.9728949332846
 20
-150.0662922801918
 10
126.868741830262
 20
-150.0662922801918
 10
126.868741830262
 20
-150.0662922801918
 10
126.868741830262
 20
-150.0662922801918
 10
126.868741830262
 20
-150.3963324276787
 10
126.868741830262
 20
-150.3963324276787
 10
126.868741830262
 20
-150.3963324276787
 10
126.7206027243962
 20
-150.3963324276787
 10
126.7206027243962
 20
-150.3963324276787
 10
126.7057888138097
 20
-150.0642252229006
 10
126.5428357973574
 20
-150.0173719243012
 10
126.4284586272471
 20
-149.9877441031281
 10
126.4284586272471
 20
-149.9877441031281
 10
126.4284586272471
 20
-149.8416720545535
 10
126.4284586272471
 20
-149.8416720545535
 10
126.4284586272471
 20
-149.8416720545535
 10
127.9728949332846
 20
-149.8416720545535
 10
127.9728949332846
 20
-149.8416720545535
 10
127.9728949332846
 20
-149.8416720545535
 10
127.9728949332846
 20
-150.0662922801918
 10
127.9728949332846
 20
-150.0662922801918
 97
        0
 97
        0
 75
     2
 76
     1
 98
        0
  0
ENDBLK
  5
5F
330
5C
100
AcDbEntity
  8
0
100
AcDbBlockEnd
  0
BLOCK
  5
6C
330
6A
100
AcDbEntity
  8
0
100
AcDbBlockBegin
  2
block 3
 70
     0
 10
0.0
 20
0.0
 30
0.0
  3
block 3
  1

  0
SPLINE
  5
6E
330
6A
100
AcDbEntity
  8
_U+30EC_U+30A4_U+30E4_U+30FC 1
370
     0
100
AcDbSpline
210
0.0
220
0.0
230
1.0
 70
    11
 71
     3
 72
    26
 73
    22
 74
     0
 42
0.0000000001
 43
0.0000000001
 12
1.0
 22
0.0
 32
0.0
 13
1.0
 23
0.0
 33
0.0
 40
0.0
 40
0.0
 40
0.0
 40
0.0
 40
1.0
 40
1.0
 40
1.0
 40
2.0
 40
2.0
 40
2.0
 40
3.0
 40
3.0
 40
3.0
 40
4.0
 40
4.0
 40
4.0
 40
5.0
 40
5.0
 40
5.0
 40
6.0
 40
6.0
 40
6.0
 40
7.0
 40
7.0
 40
7.0
 40
7.0
 10
127.9728949332846
 20
-160.7674478764748
 30
0.0
 10
127.9728949332846
 20
-160.7674478764748
 30
0.0
 10
126.8690863398105
 20
-160.7674478764748
 30
0.0
 10
126.8690863398105
 20
-160.7674478764748
 30
0.0
 10
126.8690863398105
 20
-160.7674478764748
 30
0.0
 10
126.8690863398105
 20
-161.0974880239617
 30
0.0
 10
126.8690863398105
 20
-161.0974880239617
 30
0.0
 10
126.8690863398105
 20
-161.0974880239617
 30
0.0
 10
126.7209472339448
 20
-161.0974880239617
 30
0.0
 10
126.7209472339448
 20
-161.0974880239617
 30
0.0
 10
126.7057888138097
 20
-160.7653808191837
 30
0.0
 10
126.5431803069059
 20
-160.7185275205843
 30
0.0
 10
126.4288031367956
 20
-160.6888996994111
 30
0.0
 10
126.4288031367956
 20
-160.6888996994111
 30
0.0
 10
126.4288031367956
 20
-160.5428276508365
 30
0.0
 10
126.4288031367956
 20
-160.5428276508365
 30
0.0
 10
126.4288031367956
 20
-160.5428276508365
 30
0.0
 10
127.9728949332846
 20
-160.5428276508365
 30
0.0
 10
127.9728949332846
 20
-160.5428276508365
 30
0.0
 10
127.9728949332846
 20
-160.5428276508365
 30
0.0
 10
127.9728949332846
 20
-160.7674478764748
 30
0.0
 10
127.9728949332846
 20
-160.7674478764748
 30
0.0
  0
HATCH
  5
6F
330
6A
100
AcDbEntity
  8
_U+30EC_U+30A4_U+30E4_U+30FC 1
 62
   179
420
  2234388
100
AcDbHatch
 10
0.0
 20
0.0
 30
0.0
210
0.0
220
0.0
230
1.0
  2
SOLID
 70
     1
 71
     0
 91
        1
 92
        1
 93
        1
 72
     4
 94
        3
 73
     0
 74
     1
 95
       26
 96
       22
 40
0.0
 40
0.0
 40
0.0
 40
0.0
 40
1.0
 40
1.0
 40
1.0
 40
2.0
 40
2.0
 40
2.0
 40
3.0
 40
3.0
 40
3.0
 40
4.0
 40
4.0
 40
4.0
 40
5.0
 40
5.0
 40
5.0
 40
6.0
 40
6.0
 40
6.0
 40
7.0
 40
7.0
 40
7.0
 40
7.0
 10
127.9728949332846
 20
-160.7674478764748
 10
127.9728949332846
 20
-160.7674478764748
 10
126.8690863398105
 20
-160.7674478764748
 10
126.8690863398105
 20
-160.7674478764748
 10
126.8690863398105
 20
-160.7674478764748
 10
126.8690863398105
 20
-161.0974880239617
 10
126.8690863398105
 20
-161.0974880239617
 10
126.8690863398105
 20
-161.0974880239617
 10
126.7209472339448
 20
-161.0974880239617
 10
126.7209472339448
 20
-161.0974880239617
 10
126.7057888138097
 20
-160.7653808191837
 10
126.5431803069059
 20
-160.7185275205843
 10
126.4288031367956
 20
-160.6888996994111
 10
126.4288031367956
 20
-160.6888996994111
 10
126.4288031367956
 20
-160.5428276508365
 10
126.4288031367956
 20
-160.5428276508365
 10
126.4288031367956
 20
-160.5428276508365
 10
127.9728949332846
 20
-160.5428276508365
 10
127.9728949332846
 20
-160.5428276508365
 10
127.9728949332846
 20
-160.5428276508365
 10
127.9728949332846
 20
-160.7674478764748
 10
127.9728949332846
 20
-160.7674478764748
 97
        0
 97
        0
 75
     2
 76
     1
 98
        0
  0
SPLINE
  5
70
330
6A
100
AcDbEntity
  8
_U+30EC_U+30A4_U+30E4_U+30FC 1
370
     0
100
AcDbSpline
210
0.0
220
0.0
230
1.0
 70
    11
 71
     3
 72
    44
 73
    40
 74
     0
 42
0.0000000001
 43
0.0000000001
 12
1.0
 22
0.0
 32
0.0
 13
1.0
 23
0.0
 33
0.0
 40
0.0
 40
0.0
 40
0.0
 40
0.0
 40
1.0
 40
1.0
 40
1.0
 40
2.0
 40
2.0
 40
2.0
 40
3.0
 40
3.0
 40
3.0
 40
4.0
 40
4.0
 40
4.0
 40
5.0
 40
5.0
 40
5.0
 40
6.0
 40
6.0
 40
6.0
 40
7.0
 40
7.0
 40
7.0
 40
8.0
 40
8.0
 40
8.0
 40
9.0
 40
9.0
 40
9.0
 40
10.0
 40
10.0
 40
10.0
 40
11.0
 40
11.0
 40
11.0
 40
12.0
 40
12.0
 40
12.0
 40
13.0
 40
13.0
 40
13.0
 40
13.0
 10
127.3913628153744
 20
-159.4486653247212
 30
0.0
 10
127.5498372076959
 20
-159.666395359389
 30
0.0
 10
127.6242512701773
 20
-159.7597574470392
 30
0.0
 10
127.7675672423637
 20
-159.8083332933813
 30
0.0
 10
127.7675672423637
 20
-159.8083332933813
 30
0.0
 10
127.7675672423637
 20
-159.0297417137148
 30
0.0
 10
127.7675672423637
 20
-159.0297417137148
 30
0.0
 10
127.7675672423637
 20
-159.0297417137148
 30
0.0
 10
127.9728949332846
 20
-159.0297417137148
 30
0.0
 10
127.9728949332846
 20
-159.0297417137148
 30
0.0
 10
127.9728949332846
 20
-159.0297417137148
 30
0.0
 10
127.9728949332846
 20
-160.0577582065133
 30
0.0
 10
127.9728949332846
 20
-160.0577582065133
 30
0.0
 10
127.6152940219156
 20
-160.026063328049
 30
0.0
 10
127.537434863949
 20
-159.9606065138293
 30
0.0
 10
127.2390895949263
 20
-159.5754448385784
 30
0.0
 10
127.0399630758789
 20
-159.3198187535728
 30
0.0
 10
126.972439204368
 20
-159.2543619393531
 30
0.0
 10
126.834635384958
 20
-159.2543619393531
 30
0.0
 10
126.7161241002654
 20
-159.2543619393531
 30
0.0
 10
126.5852104718259
 20
-159.3260199254463
 30
0.0
 10
126.5852104718259
 20
-159.522734877654
 30
0.0
 10
126.5852104718259
 20
-159.7828395867904
 30
0.0
 10
126.8160318693377
 20
-159.7914523255035
 30
0.0
 10
126.9324760967391
 20
-159.7959309496344
 30
0.0
 10
126.9324760967391
 20
-159.7959309496344
 30
0.0
 10
126.9324760967391
 20
-160.0198621561756
 30
0.0
 10
126.9324760967391
 20
-160.0198621561756
 30
0.0
 10
126.8050075637849
 20
-160.011593927011
 30
0.0
 10
126.6933864700628
 20
-160.0009141310067
 30
0.0
 10
126.5748751853702
 20
-159.9206434062004
 30
0.0
 10
126.4136447166605
 20
-159.8104003506724
 30
0.0
 10
126.379882780905
 20
-159.6243651944689
 30
0.0
 10
126.379882780905
 20
-159.5079209670675
 30
0.0
 10
126.379882780905
 20
-159.2309352900534
 30
0.0
 10
126.5638508798174
 20
-159.0235405418414
 30
0.0
 10
126.8367024422492
 20
-159.0235405418414
 30
0.0
 10
127.0654567824698
 20
-159.0235405418414
 30
0.0
 10
127.1646755324449
 20
-159.1399847692428
 30
0.0
 10
127.3913628153744
 20
-159.4486653247212
 30
0.0
  0
HATCH
  5
71
330
6A
100
AcDbEntity
  8
_U+30EC_U+30A4_U+30E4_U+30FC 1
 62
   179
420
  2234388
100
AcDbHatch
 10
0.0
 20
0.0
 30
0.0
210
0.0
220
0.0
230
1.0
  2
SOLID
 70
     1
 71
     0
 91
        1
 92
        1
 93
        1
 72
     4
 94
        3
 73
     0
 74
     1
 95
       44
 96
       40
 40
0.0
 40
0.0
 40
0.0
 40
0.0
 40
1.0
 40
1.0
 40
1.0
 40
2.0
 40
2.0
 40
2.0
 40
3.0
 40
3.0
 40
3.0
 40
4.0
 40
4.0
 40
4.0
 40
5.0
 40
5.0
 40
5.0
 40
6.0
 40
6.0
 40
6.0
 40
7.0
 40
7.0
 40
7.0
 40
8.0
 40
8.0
 40
8.0
 40
9.0
 40
9.0
 40
9.0
 40
10.0
 40
10.0
 40
10.0
 40
11.0
 40
11.0
 40
11.0
 40
12.0
 40
12.0
 40
12.0
 40
13.0
 40
13.0
 40
13.0
 40
13.0
 10
127.3913628153744
 20
-159.4486653247212
 10
127.5498372076959
 20
-159.666395359389
 10
127.6242512701773
 20
-159.7597574470392
 10
127.7675672423637
 20
-159.8083332933813
 10
127.7675672423637
 20
-159.8083332933813
 10
127.7675672423637
 20
-159.0297417137148
 10
127.7675672423637
 20
-159.0297417137148
 10
127.7675672423637
 20
-159.0297417137148
 10
127.9728949332846
 20
-159.0297417137148
 10
127.9728949332846
 20
-159.0297417137148
 10
127.9728949332846
 20
-159.0297417137148
 10
127.9728949332846
 20
-160.0577582065133
 10
127.9728949332846
 20
-160.0577582065133
 10
127.6152940219156
 20
-160.026063328049
 10
127.537434863949
 20
-159.9606065138293
 10
127.2390895949263
 20
-159.5754448385784
 10
127.0399630758789
 20
-159.3198187535728
 10
126.972439204368
 20
-159.2543619393531
 10
126.834635384958
 20
-159.2543619393531
 10
126.7161241002654
 20
-159.2543619393531
 10
126.5852104718259
 20
-159.3260199254463
 10
126.5852104718259
 20
-159.522734877654
 10
126.5852104718259
 20
-159.7828395867904
 10
126.8160318693377
 20
-159.7914523255035
 10
126.9324760967391
 20
-159.7959309496344
 10
126.9324760967391
 20
-159.7959309496344
 10
126.9324760967391
 20
-160.0198621561756
 10
126.9324760967391
 20
-160.0198621561756
 10
126.8050075637849
 20
-160.011593927011
 10
126.6933864700628
 20
-160.0009141310067
 10
126.5748751853702
 20
-159.9206434062004
 10
126.4136447166605
 20
-159.8104003506724
 10
126.379882780905
 20
-159.6243651944689
 10
126.379882780905
 20
-159.5079209670675
 10
126.379882780905
 20
-159.2309352900534
 10
126.5638508798174
 20
-159.0235405418414
 10
126.8367024422492
 20
-159.0235405418414
 10
127.0654567824698
 20
-159.0235405418414
 10
127.1646755324449
 20
-159.1399847692428
 10
127.3913628153744
 20
-159.4486653247212
 97
        0
 97
        0
 75
     2
 76
     1
 98
        0
  0
POLYLINE
  5
72
330
6A
100
AcDbEntity
  8
_U+30EC_U+30A4_U+30E4_U+30FC 1
370
     0
100
AcDb2dPolyline
 66
     1
 10
0.0
 20
0.0
 30
0.0
  0
VERTEX
  5
73
330
72
100
AcDbEntity
  8
_U+30EC_U+30A4_U+30E4_U+30FC 1
370
     0
100
AcDbVertex
100
AcDb2dVertex
 10
127.9728949332846
 20
-158.8051214880765
 30
0.0
  0
VERTEX
  5
74
330
72
100
AcDbEntity
  8
_U+30EC_U+30A4_U+30E4_U+30FC 1
370
     0
100
AcDbVertex
100
AcDb2dVertex
 10
127.7214029628613
 20
-158.8051214880765
 30
0.0
  0
VERTEX
  5
75
330
72
100
AcDbEntity
  8
_U+30EC_U+30A4_U+30E4_U+30FC 1
370
     0
100
AcDbVertex
100
AcDb2dVertex
 10
127.7214029628613
 20
-158.5532850081048
 30
0.0
  0
VERTEX
  5
76
330
72
100
AcDbEntity
  8
_U+30EC_U+30A4_U+30E4_U+30FC 1
370
     0
100
AcDbVertex
100
AcDb2dVertex
 10
127.9728949332846
 20
-158.5532850081048
 30
0.0
  0
VERTEX
  5
77
330
72
100
AcDbEntity
  8
_U+30EC_U+30A4_U+30E4_U+30FC 1
370
     0
100
AcDbVertex
100
AcDb2dVertex
 10
127.9728949332846
 20
-158.8051214880765
 30
0.0
  0
SEQEND
  5
78
330
72
100
AcDbEntity
  8
_U+30EC_U+30A4_U+30E4_U+30FC 1
370
     0
  0
HATCH
  5
79
330
6A
100
AcDbEntity
  8
_U+30EC_U+30A4_U+30E4_U+30FC 1
 62
   179
420
  2234388
100
AcDbHatch
 10
0.0
 20
0.0
 30
0.0
210
0.0
220
0.0
230
1.0
  2
SOLID
 70
     1
 71
     0
 91
        1
 92
        1
 93
        4
 72
     1
 10
127.9728949332846
 20
-158.8051214880765
 11
127.7214029628613
 21
-158.8051214880765
 72
     1
 10
127.7214029628613
 20
-158.8051214880765
 11
127.7214029628613
 21
-158.5532850081048
 72
     1
 10
127.7214029628613
 20
-158.5532850081048
 11
127.9728949332846
 21
-158.5532850081048
 72
     1
 10
127.9728949332846
 20
-158.5532850081048
 11
127.9728949332846
 21
-158.8051214880765
 97
        0
 75
     2
 76
     1
 98
        0
  0
SPLINE
  5
7A
330
6A
100
AcDbEntity
  8
_U+30EC_U+30A4_U+30E4_U+30FC 1
370
     0
100
AcDbSpline
210
0.0
220
0.0
230
1.0
 70
    11
 71
     3
 72
    53
 73
    49
 74
     0
 42
0.0000000001
 43
0.0000000001
 12
1.0
 22
0.0
 32
0.0
 13
1.0
 23
0.0
 33
0.0
 40
0.0
 40
0.0
 40
0.0
 40
0.0
 40
1.0
 40
1.0
 40
1.0
 40
2.0
 40
2.0
 40
2.0
 40
3.0
 40
3.0
 40
3.0
 40
4.0
 40
4.0
 40
4.0
 40
5.0
 40
5.0
 40
5.0
 40
6.0
 40
6.0
 40
6.0
 40
7.0
 40
7.0
 40
7.0
 40
8.0
 40
8.0
 40
8.0
 40
9.0
 40
9.0
 40
9.0
 40
10.0
 40
10.0
 40
10.0
 40
11.0
 40
11.0
 40
11.0
 40
12.0
 40
12.0
 40
12.0
 40
13.0
 40
13.0
 40
13.0
 40
14.0
 40
14.0
 40
14.0
 40
15.0
 40
15.0
 40
15.0
 40
16.0
 40
16.0
 40
16.0
 40
16.0
 10
128.0238823464663
 20
-157.8356716185272
 30
0.0
 10
128.0238823464663
 20
-157.9142197955909
 30
0.0
 10
128.00665686904
 20
-158.0155056028572
 30
0.0
 10
127.9432671121114
 20
-158.1171359196721
 30
0.0
 10
127.8337130756805
 20
-158.2904242225802
 30
0.0
 10
127.7021104281439
 20
-158.3117838145887
 30
0.0
 10
127.5946234490041
 20
-158.3307318397576
 30
0.0
 10
127.5946234490041
 20
-158.3307318397576
 30
0.0
 10
127.5946234490041
 20
-158.108523180959
 30
0.0
 10
127.5946234490041
 20
-158.108523180959
 30
0.0
 10
127.7930609489545
 20
-158.053401653195
 30
0.0
 10
127.8226887701277
 20
-157.9266221393378
 30
0.0
 10
127.8226887701277
 20
-157.8336045612361
 30
0.0
 10
127.8226887701277
 20
-157.6940781940834
 30
0.0
 10
127.7234700201525
 20
-157.5414604640869
 30
0.0
 10
127.4905815653496
 20
-157.5414604640869
 30
0.0
 10
127.234955480344
 20
-157.5414604640869
 30
0.0
 10
127.1646755324449
 20
-157.7212944484169
 30
0.0
 10
127.1646755324449
 20
-157.8418727904007
 30
0.0
 10
127.1646755324449
 20
-157.873567668865
 30
0.0
 10
127.1646755324449
 20
-158.0155056028572
 30
0.0
 10
127.2942111226903
 20
-158.1043890663767
 30
0.0
 10
127.2942111226903
 20
-158.1043890663767
 30
0.0
 10
127.2749185879729
 20
-158.2800889361244
 30
0.0
 10
127.2749185879729
 20
-158.2800889361244
 30
0.0
 10
127.2749185879729
 20
-158.2800889361244
 30
0.0
 10
126.4288031367956
 20
-158.1595105941407
 30
0.0
 10
126.4288031367956
 20
-158.1595105941407
 30
0.0
 10
126.4288031367956
 20
-158.1595105941407
 30
0.0
 10
126.4288031367956
 20
-157.3809190144742
 30
0.0
 10
126.4288031367956
 20
-157.3809190144742
 30
0.0
 10
126.4288031367956
 20
-157.3809190144742
 30
0.0
 10
126.6231065221637
 20
-157.3809190144742
 30
0.0
 10
126.6231065221637
 20
-157.3809190144742
 30
0.0
 10
126.6231065221637
 20
-157.3809190144742
 30
0.0
 10
126.6231065221637
 20
-157.9965575776884
 30
0.0
 10
126.6231065221637
 20
-157.9965575776884
 30
0.0
 10
126.6231065221637
 20
-157.9965575776884
 30
0.0
 10
127.0461642477524
 20
-158.0620143919081
 30
0.0
 10
127.0461642477524
 20
-158.0620143919081
 30
0.0
 10
127.0124023119969
 20
-158.0006916922707
 30
0.0
 10
126.972439204368
 20
-157.9183539101732
 30
0.0
 10
126.972439204368
 20
-157.7998426254806
 30
0.0
 10
126.972439204368
 20
-157.5459390882177
 30
0.0
 10
127.1584743605715
 20
-157.3089165188325
 30
0.0
 10
127.4719780497292
 20
-157.3089165188325
 30
0.0
 10
127.7889268343722
 20
-157.3089165188325
 30
0.0
 10
128.0238823464663
 20
-157.5331922349223
 30
0.0
 10
128.0238823464663
 20
-157.8356716185272
 30
0.0
  0
HATCH
  5
7B
330
6A
100
AcDbEntity
  8
_U+30EC_U+30A4_U+30E4_U+30FC 1
 62
   179
420
  2234388
100
AcDbHatch
 10
0.0
 20
0.0
 30
0.0
210
0.0
220
0.0
230
1.0
  2
SOLID
 70
     1
 71
     0
 91
        1
 92
        1
 93
        1
 72
     4
 94
        3
 73
     0
 74
     1
 95
       53
 96
       49
 40
0.0
 40
0.0
 40
0.0
 40
0.0
 40
1.0
 40
1.0
 40
1.0
 40
2.0
 40
2.0
 40
2.0
 40
3.0
 40
3.0
 40
3.0
 40
4.0
 40
4.0
 40
4.0
 40
5.0
 40
5.0
 40
5.0
 40
6.0
 40
6.0
 40
6.0
 40
7.0
 40
7.0
 40
7.0
 40
8.0
 40
8.0
 40
8.0
 40
9.0
 40
9.0
 40
9.0
 40
10.0
 40
10.0
 40
10.0
 40
11.0
 40
11.0
 40
11.0
 40
12.0
 40
12.0
 40
12.0
 40
13.0
 40
13.0
 40
13.0
 40
14.0
 40
14.0
 40
14.0
 40
15.0
 40
15.0
 40
15.0
 40
16.0
 40
16.0
 40
16.0
 40
16.0
 10
128.0238823464663
 20
-157.8356716185272
 10
128.0238823464663
 20
-157.9142197955909
 10
128.00665686904
 20
-158.0155056028572
 10
127.9432671121114
 20
-158.1171359196721
 10
127.8337130756805
 20
-158.2904242225802
 10
127.7021104281439
 20
-158.3117838145887
 10
127.5946234490041
 20
-158.3307318397576
 10
127.5946234490041
 20
-158.3307318397576
 10
127.5946234490041
 20
-158.108523180959
 10
127.5946234490041
 20
-158.108523180959
 10
127.7930609489545
 20
-158.053401653195
 10
127.8226887701277
 20
-157.9266221393378
 10
127.8226887701277
 20
-157.8336045612361
 10
127.8226887701277
 20
-157.6940781940834
 10
127.7234700201525
 20
-157.5414604640869
 10
127.4905815653496
 20
-157.5414604640869
 10
127.234955480344
 20
-157.5414604640869
 10
127.1646755324449
 20
-157.7212944484169
 10
127.1646755324449
 20
-157.8418727904007
 10
127.1646755324449
 20
-157.873567668865
 10
127.1646755324449
 20
-158.0155056028572
 10
127.2942111226903
 20
-158.1043890663767
 10
127.2942111226903
 20
-158.1043890663767
 10
127.2749185879729
 20
-158.2800889361244
 10
127.2749185879729
 20
-158.2800889361244
 10
127.2749185879729
 20
-158.2800889361244
 10
126.4288031367956
 20
-158.1595105941407
 10
126.4288031367956
 20
-158.1595105941407
 10
126.4288031367956
 20
-158.1595105941407
 10
126.4288031367956
 20
-157.3809190144742
 10
126.4288031367956
 20
-157.3809190144742
 10
126.4288031367956
 20
-157.3809190144742
 10
126.6231065221637
 20
-157.3809190144742
 10
126.6231065221637
 20
-157.3809190144742
 10
126.6231065221637
 20
-157.3809190144742
 10
126.6231065221637
 20
-157.9965575776884
 10
126.6231065221637
 20
-157.9965575776884
 10
126.6231065221637
 20
-157.9965575776884
 10
127.0461642477524
 20
-158.0620143919081
 10
127.0461642477524
 20
-158.0620143919081
 10
127.0124023119969
 20
-158.0006916922707
 10
126.972439204368
 20
-157.9183539101732
 10
126.972439204368
 20
-157.7998426254806
 10
126.972439204368
 20
-157.5459390882177
 10
127.1584743605715
 20
-157.3089165188325
 10
127.4719780497292
 20
-157.3089165188325
 10
127.7889268343722
 20
-157.3089165188325
 10
128.0238823464663
 20
-157.5331922349223
 10
128.0238823464663
 20
-157.8356716185272
 97
        0
 97
        0
 75
     2
 76
     1
 98
        0
  0
ENDBLK
  5
6D
330
6A
100
AcDbEntity
  8
0
100
AcDbBlockEnd
  0
BLOCK
  5
8A
330
88
100
AcDbEntity
  8
0
100
AcDbBlockBegin
  2
block 4
 70
     0
 10
0.0
 20
0.0
 30
0.0
  3
block 4
  1

  0
SPLINE
  5
8C
330
88
100
AcDbEntity
  8
_U+30EC_U+30A4_U+30E4_U+30FC 1
370
     0
100
AcDbSpline
210
0.0
220
0.0
230
1.0
 70
    11
 71
     3
 72
    44
 73
    40
 74
     0
 42
0.0000000001
 43
0.0000000001
 12
1.0
 22
0.0
 32
0.0
 13
1.0
 23
0.0
 33
0.0
 40
0.0
 40
0.0
 40
0.0
 40
0.0
 40
1.0
 40
1.0
 40
1.0
 40
2.0
 40
2.0
 40
2.0
 40
3.0
 40
3.0
 40
3.0
 40
4.0
 40
4.0
 40
4.0
 40
5.0
 40
5.0
 40
5.0
 40
6.0
 40
6.0
 40
6.0
 40
7.0
 40
7.0
 40
7.0
 40
8.0
 40
8.0
 40
8.0
 40
9.0
 40
9.0
 40
9.0
 40
10.0
 40
10.0
 40
10.0
 40
11.0
 40
11.0
 40
11.0
 40
12.0
 40
12.0
 40
12.0
 40
13.0
 40
13.0
 40
13.0
 40
13.0
 10
82.01273733843779
 20
-138.1242132901217
 30
0.0
 10
82.17155624030781
 20
-138.3421155795638
 30
0.0
 10
82.24562579324068
 20
-138.4353054124398
 30
0.0
 10
82.3892862749756
 20
-138.4838812587818
 30
0.0
 10
82.3892862749756
 20
-138.4838812587818
 30
0.0
 10
82.3892862749756
 20
-137.7054619338896
 30
0.0
 10
82.3892862749756
 20
-137.7054619338896
 30
0.0
 10
82.3892862749756
 20
-137.7054619338896
 30
0.0
 10
82.59461396589649
 20
-137.7054619338896
 30
0.0
 10
82.59461396589649
 20
-137.7054619338896
 30
0.0
 10
82.59461396589649
 20
-137.7054619338896
 30
0.0
 10
82.59461396589649
 20
-138.7334784266882
 30
0.0
 10
82.59461396589649
 20
-138.7334784266882
 30
0.0
 10
82.23701305452755
 20
-138.7017835482239
 30
0.0
 10
82.15880938701238
 20
-138.6361544792298
 30
0.0
 10
81.86046411798975
 20
-138.2511650587532
 30
0.0
 10
81.66168210849084
 20
-137.9951944641991
 30
0.0
 10
81.59381372743141
 20
-137.9297376499794
 30
0.0
 10
81.45635441756994
 20
-137.9297376499794
 30
0.0
 10
81.33784313287735
 20
-137.9297376499794
 30
0.0
 10
81.20692950443785
 20
-138.0015678908468
 30
0.0
 10
81.20692950443785
 20
-138.1982828430546
 30
0.0
 10
81.20692950443785
 20
-138.4585598069652
 30
0.0
 10
81.43740639240107
 20
-138.4670002909041
 30
0.0
 10
81.55385061980252
 20
-138.4713066602607
 30
0.0
 10
81.55385061980252
 20
-138.4713066602607
 30
0.0
 10
81.55385061980252
 20
-138.6954101215761
 30
0.0
 10
81.55385061980252
 20
-138.6954101215761
 30
0.0
 10
81.42672659639679
 20
-138.6869696376373
 30
0.0
 10
81.31476099312617
 20
-138.6764620964073
 30
0.0
 10
81.19624970843358
 20
-138.5960191168267
 30
0.0
 10
81.0353637492724
 20
-138.4861205708472
 30
0.0
 10
81.00160181351697
 20
-138.2999131598695
 30
0.0
 10
81.00160181351697
 20
-138.183468932468
 30
0.0
 10
81.00160181351697
 20
-137.9063110006797
 30
0.0
 10
81.1855699124293
 20
-137.6990885072419
 30
0.0
 10
81.4584214748611
 20
-137.6990885072419
 30
0.0
 10
81.68717581508169
 20
-137.6990885072419
 30
0.0
 10
81.78639456505688
 20
-137.8153604798691
 30
0.0
 10
82.01273733843779
 20
-138.1242132901217
 30
0.0
  0
HATCH
  5
8D
330
88
100
AcDbEntity
  8
_U+30EC_U+30A4_U+30E4_U+30FC 1
 62
   179
420
  2234388
100
AcDbHatch
 10
0.0
 20
0.0
 30
0.0
210
0.0
220
0.0
230
1.0
  2
SOLID
 70
     1
 71
     0
 91
        1
 92
        1
 93
        1
 72
     4
 94
        3
 73
     0
 74
     1
 95
       44
 96
       40
 40
0.0
 40
0.0
 40
0.0
 40
0.0
 40
1.0
 40
1.0
 40
1.0
 40
2.0
 40
2.0
 40
2.0
 40
3.0
 40
3.0
 40
3.0
 40
4.0
 40
4.0
 40
4.0
 40
5.0
 40
5.0
 40
5.0
 40
6.0
 40
6.0
 40
6.0
 40
7.0
 40
7.0
 40
7.0
 40
8.0
 40
8.0
 40
8.0
 40
9.0
 40
9.0
 40
9.0
 40
10.0
 40
10.0
 40
10.0
 40
11.0
 40
11.0
 40
11.0
 40
12.0
 40
12.0
 40
12.0
 40
13.0
 40
13.0
 40
13.0
 40
13.0
 10
82.01273733843779
 20
-138.1242132901217
 10
82.17155624030781
 20
-138.3421155795638
 10
82.24562579324068
 20
-138.4353054124398
 10
82.3892862749756
 20
-138.4838812587818
 10
82.3892862749756
 20
-138.4838812587818
 10
82.3892862749756
 20
-137.7054619338896
 10
82.3892862749756
 20
-137.7054619338896
 10
82.3892862749756
 20
-137.7054619338896
 10
82.59461396589649
 20
-137.7054619338896
 10
82.59461396589649
 20
-137.7054619338896
 10
82.59461396589649
 20
-137.7054619338896
 10
82.59461396589649
 20
-138.7334784266882
 10
82.59461396589649
 20
-138.7334784266882
 10
82.23701305452755
 20
-138.7017835482239
 10
82.15880938701238
 20
-138.6361544792298
 10
81.86046411798975
 20
-138.2511650587532
 10
81.66168210849084
 20
-137.9951944641991
 10
81.59381372743141
 20
-137.9297376499794
 10
81.45635441756994
 20
-137.9297376499794
 10
81.33784313287735
 20
-137.9297376499794
 10
81.20692950443785
 20
-138.0015678908468
 10
81.20692950443785
 20
-138.1982828430546
 10
81.20692950443785
 20
-138.4585598069652
 10
81.43740639240107
 20
-138.4670002909041
 10
81.55385061980252
 20
-138.4713066602607
 10
81.55385061980252
 20
-138.4713066602607
 10
81.55385061980252
 20
-138.6954101215761
 10
81.55385061980252
 20
-138.6954101215761
 10
81.42672659639679
 20
-138.6869696376373
 10
81.31476099312617
 20
-138.6764620964073
 10
81.19624970843358
 20
-138.5960191168267
 10
81.0353637492724
 20
-138.4861205708472
 10
81.00160181351697
 20
-138.2999131598695
 10
81.00160181351697
 20
-138.183468932468
 10
81.00160181351697
 20
-137.9063110006797
 10
81.1855699124293
 20
-137.6990885072419
 10
81.4584214748611
 20
-137.6990885072419
 10
81.68717581508169
 20
-137.6990885072419
 10
81.78639456505688
 20
-137.8153604798691
 10
82.01273733843779
 20
-138.1242132901217
 97
        0
 97
        0
 75
     2
 76
     1
 98
        0
  0
SPLINE
  5
8E
330
88
100
AcDbEntity
  8
_U+30EC_U+30A4_U+30E4_U+30FC 1
370
     0
100
AcDbSpline
210
0.0
220
0.0
230
1.0
 70
    11
 71
     3
 72
    29
 73
    25
 74
     0
 42
0.0000000001
 43
0.0000000001
 12
1.0
 22
0.0
 32
0.0
 13
1.0
 23
0.0
 33
0.0
 40
0.0
 40
0.0
 40
0.0
 40
0.0
 40
1.0
 40
1.0
 40
1.0
 40
2.0
 40
2.0
 40
2.0
 40
3.0
 40
3.0
 40
3.0
 40
4.0
 40
4.0
 40
4.0
 40
5.0
 40
5.0
 40
5.0
 40
6.0
 40
6.0
 40
6.0
 40
7.0
 40
7.0
 40
7.0
 40
8.0
 40
8.0
 40
8.0
 40
8.0
 10
82.4168470388576
 20
-136.6428222314643
 30
0.0
 10
82.62630884436079
 20
-136.7506537201526
 30
0.0
 10
82.64525686952966
 20
-136.9241142778349
 30
0.0
 10
82.64525686952966
 20
-137.0405585052364
 30
0.0
 10
82.64525686952966
 20
-137.2012722096233
 30
0.0
 10
82.59874808047879
 20
-137.3430378888413
 30
0.0
 10
82.4168470388576
 20
-137.4382947790085
 30
0.0
 10
82.22219914394098
 20
-137.5418198983402
 30
0.0
 10
81.98552108410432
 20
-137.5609401782834
 30
0.0
 10
81.822568067652
 20
-137.5609401782834
 30
0.0
 10
81.67856307636856
 20
-137.5609401782834
 30
0.0
 10
81.42672659639679
 20
-137.5440592104057
 30
0.0
 10
81.22794458689788
 20
-137.4382947790085
 30
0.0
 10
81.02502846281666
 20
-137.3302910355459
 30
0.0
 10
81.00160181351697
 20
-137.169577331159
 30
0.0
 10
81.00160181351697
 20
-137.0405585052364
 30
0.0
 10
81.00160181351697
 20
-136.8819118581406
 30
0.0
 10
81.04604354527669
 20
-136.7380791216315
 30
0.0
 10
81.22794458689788
 20
-136.6428222314643
 30
0.0
 10
81.42052542452335
 20
-136.5434312267148
 30
0.0
 10
81.64893525519541
 20
-136.5201768321894
 30
0.0
 10
81.822568067652
 20
-136.5201768321894
 30
0.0
 10
81.99378931326892
 20
-136.5201768321894
 30
0.0
 10
82.22426620123213
 20
-136.5411919146494
 30
0.0
 10
82.4168470388576
 20
-136.6428222314643
 30
0.0
  0
SPLINE
  5
8F
330
88
100
AcDbEntity
  8
_U+30EC_U+30A4_U+30E4_U+30FC 1
370
     0
100
AcDbSpline
210
0.0
220
0.0
230
1.0
 70
    11
 71
     3
 72
    17
 73
    13
 74
     0
 42
0.0000000001
 43
0.0000000001
 12
1.0
 22
0.0
 32
0.0
 13
1.0
 23
0.0
 33
0.0
 40
0.0
 40
0.0
 40
0.0
 40
0.0
 40
1.0
 40
1.0
 40
1.0
 40
2.0
 40
2.0
 40
2.0
 40
3.0
 40
3.0
 40
3.0
 40
4.0
 40
4.0
 40
4.0
 40
4.0
 10
81.19418265114243
 20
-137.0405585052364
 30
0.0
 10
81.19418265114243
 20
-137.2901556731427
 30
0.0
 10
81.47771400957849
 20
-137.3366644621936
 30
0.0
 10
81.822568067652
 20
-137.3366644621936
 30
0.0
 10
82.14192841913466
 20
-137.3366644621936
 30
0.0
 10
82.45060897461305
 20
-137.3006632143727
 30
0.0
 10
82.45060897461305
 20
-137.0405585052364
 30
0.0
 10
82.45060897461305
 20
-136.7930283946212
 30
0.0
 10
82.16948918301667
 20
-136.7442802935049
 30
0.0
 10
81.822568067652
 20
-136.7442802935049
 30
0.0
 10
81.50286320662082
 20
-136.7442802935049
 30
0.0
 10
81.19418265114243
 20
-136.7823485986169
 30
0.0
 10
81.19418265114243
 20
-137.0405585052364
 30
0.0
  0
HATCH
  5
90
330
88
100
AcDbEntity
  8
_U+30EC_U+30A4_U+30E4_U+30FC 1
 62
   179
420
  2234388
100
AcDbHatch
 10
0.0
 20
0.0
 30
0.0
210
0.0
220
0.0
230
1.0
  2
SOLID
 70
     1
 71
     0
 91
        2
 92
        1
 93
        1
 72
     4
 94
        3
 73
     0
 74
     1
 95
       29
 96
       25
 40
0.0
 40
0.0
 40
0.0
 40
0.0
 40
1.0
 40
1.0
 40
1.0
 40
2.0
 40
2.0
 40
2.0
 40
3.0
 40
3.0
 40
3.0
 40
4.0
 40
4.0
 40
4.0
 40
5.0
 40
5.0
 40
5.0
 40
6.0
 40
6.0
 40
6.0
 40
7.0
 40
7.0
 40
7.0
 40
8.0
 40
8.0
 40
8.0
 40
8.0
 10
82.4168470388576
 20
-136.6428222314643
 10
82.62630884436079
 20
-136.7506537201526
 10
82.64525686952966
 20
-136.9241142778349
 10
82.64525686952966
 20
-137.0405585052364
 10
82.64525686952966
 20
-137.2012722096233
 10
82.59874808047879
 20
-137.3430378888413
 10
82.4168470388576
 20
-137.4382947790085
 10
82.22219914394098
 20
-137.5418198983402
 10
81.98552108410432
 20
-137.5609401782834
 10
81.822568067652
 20
-137.5609401782834
 10
81.67856307636856
 20
-137.5609401782834
 10
81.42672659639679
 20
-137.5440592104057
 10
81.22794458689788
 20
-137.4382947790085
 10
81.02502846281666
 20
-137.3302910355459
 10
81.00160181351697
 20
-137.169577331159
 10
81.00160181351697
 20
-137.0405585052364
 10
81.00160181351697
 20
-136.8819118581406
 10
81.04604354527669
 20
-136.7380791216315
 10
81.22794458689788
 20
-136.6428222314643
 10
81.42052542452335
 20
-136.5434312267148
 10
81.64893525519541
 20
-136.5201768321894
 10
81.822568067652
 20
-136.5201768321894
 10
81.99378931326892
 20
-136.5201768321894
 10
82.22426620123213
 20
-136.5411919146494
 10
82.4168470388576
 20
-136.6428222314643
 97
        0
 97
        0
 92
        1
 93
        1
 72
     4
 94
        3
 73
     0
 74
     1
 95
       17
 96
       13
 40
0.0
 40
0.0
 40
0.0
 40
0.0
 40
1.0
 40
1.0
 40
1.0
 40
2.0
 40
2.0
 40
2.0
 40
3.0
 40
3.0
 40
3.0
 40
4.0
 40
4.0
 40
4.0
 40
4.0
 10
81.19418265114243
 20
-137.0405585052364
 10
81.19418265114243
 20
-137.2901556731427
 10
81.47771400957849
 20
-137.3366644621936
 10
81.822568067652
 20
-137.3366644621936
 10
82.14192841913466
 20
-137.3366644621936
 10
82.45060897461305
 20
-137.3006632143727
 10
82.45060897461305
 20
-137.0405585052364
 10
82.45060897461305
 20
-136.7930283946212
 10
82.16948918301667
 20
-136.7442802935049
 10
81.822568067652
 20
-136.7442802935049
 10
81.50286320662082
 20
-136.7442802935049
 10
81.19418265114243
 20
-136.7823485986169
 10
81.19418265114243
 20
-137.0405585052364
 97
        0
 97
        0
 75
     2
 76
     1
 98
        0
  0
ENDBLK
  5
8B
330
88
100
AcDbEntity
  8
0
100
AcDbBlockEnd
  0
BLOCK
  5
9B
330
99
100
AcDbEntity
  8
0
100
AcDbBlockBegin
  2
block 5
 70
     0
 10
0.0
 20
0.0
 30
0.0
  3
block 5
  1

  0
SPLINE
  5
9D
330
99
100
AcDbEntity
  8
_U+30EC_U+30A4_U+30E4_U+30FC 1
370
     0
100
AcDbSpline
210
0.0
220
0.0
230
1.0
 70
    11
 71
     3
 72
    44
 73
    40
 74
     0
 42
0.0000000001
 43
0.0000000001
 12
1.0
 22
0.0
 32
0.0
 13
1.0
 23
0.0
 33
0.0
 40
0.0
 40
0.0
 40
0.0
 40
0.0
 40
1.0
 40
1.0
 40
1.0
 40
2.0
 40
2.0
 40
2.0
 40
3.0
 40
3.0
 40
3.0
 40
4.0
 40
4.0
 40
4.0
 40
5.0
 40
5.0
 40
5.0
 40
6.0
 40
6.0
 40
6.0
 40
7.0
 40
7.0
 40
7.0
 40
8.0
 40
8.0
 40
8.0
 40
9.0
 40
9.0
 40
9.0
 40
10.0
 40
10.0
 40
10.0
 40
11.0
 40
11.0
 40
11.0
 40
12.0
 40
12.0
 40
12.0
 40
13.0
 40
13.0
 40
13.0
 40
13.0
 10
114.1597845851753
 20
-168.5623209214011
 30
0.0
 10
113.941710040959
 20
-168.7211398232711
 30
0.0
 10
113.8486924628573
 20
-168.795209376204
 30
0.0
 10
113.8001166165153
 20
-168.9388698579389
 30
0.0
 10
113.8001166165153
 20
-168.9388698579389
 30
0.0
 10
114.5783636866332
 20
-168.9388698579389
 30
0.0
 10
114.5783636866332
 20
-168.9388698579389
 30
0.0
 10
114.5783636866332
 20
-168.9388698579389
 30
0.0
 10
114.5783636866332
 20
-169.1441975488598
 30
0.0
 10
114.5783636866332
 20
-169.1441975488598
 30
0.0
 10
114.5783636866332
 20
-169.1441975488598
 30
0.0
 10
113.5503471938346
 20
-169.1441975488598
 30
0.0
 10
113.5503471938346
 20
-169.1441975488598
 30
0.0
 10
113.5820420722989
 20
-168.7865966374908
 30
0.0
 10
113.6478433960672
 20
-168.7083929699757
 30
0.0
 10
114.0326605617696
 20
-168.410047700953
 30
0.0
 10
114.2889756658722
 20
-168.2112656914541
 30
0.0
 10
114.354432480092
 20
-168.1433973103947
 30
0.0
 10
114.354432480092
 20
-168.0059380005332
 30
0.0
 10
114.354432480092
 20
-167.8874267158407
 30
0.0
 10
114.2824299844502
 20
-167.7565130874011
 30
0.0
 10
114.0857150322425
 20
-167.7565130874011
 30
0.0
 10
113.8252658135576
 20
-167.7565130874011
 30
0.0
 10
113.816997584393
 20
-167.9869899753644
 30
0.0
 10
113.8128634698107
 20
-168.1034342027658
 30
0.0
 10
113.8128634698107
 20
-168.1034342027658
 30
0.0
 10
113.5885877537209
 20
-168.1034342027658
 30
0.0
 10
113.5885877537209
 20
-168.1034342027658
 30
0.0
 10
113.597200492434
 20
-167.9763101793601
 30
0.0
 10
113.6075357788898
 20
-167.8643445760895
 30
0.0
 10
113.6881510132446
 20
-167.7458332913969
 30
0.0
 10
113.7977050496756
 20
-167.5849473322357
 30
0.0
 10
113.9840847154276
 20
-167.5511853964803
 30
0.0
 10
114.100528942829
 20
-167.5511853964803
 30
0.0
 10
114.3778591293917
 20
-167.5511853964803
 30
0.0
 10
114.5849093680552
 20
-167.7351534953926
 30
0.0
 10
114.5849093680552
 20
-168.0080050578244
 30
0.0
 10
114.5849093680552
 20
-168.236759398045
 30
0.0
 10
114.4688096502022
 20
-168.3359781480202
 30
0.0
 10
114.1597845851753
 20
-168.5623209214011
 30
0.0
  0
HATCH
  5
9E
330
99
100
AcDbEntity
  8
_U+30EC_U+30A4_U+30E4_U+30FC 1
 62
   179
420
  2234388
100
AcDbHatch
 10
0.0
 20
0.0
 30
0.0
210
0.0
220
0.0
230
1.0
  2
SOLID
 70
     1
 71
     0
 91
        1
 92
        1
 93
        1
 72
     4
 94
        3
 73
     0
 74
     1
 95
       44
 96
       40
 40
0.0
 40
0.0
 40
0.0
 40
0.0
 40
1.0
 40
1.0
 40
1.0
 40
2.0
 40
2.0
 40
2.0
 40
3.0
 40
3.0
 40
3.0
 40
4.0
 40
4.0
 40
4.0
 40
5.0
 40
5.0
 40
5.0
 40
6.0
 40
6.0
 40
6.0
 40
7.0
 40
7.0
 40
7.0
 40
8.0
 40
8.0
 40
8.0
 40
9.0
 40
9.0
 40
9.0
 40
10.0
 40
10.0
 40
10.0
 40
11.0
 40
11.0
 40
11.0
 40
12.0
 40
12.0
 40
12.0
 40
13.0
 40
13.0
 40
13.0
 40
13.0
 10
114.1597845851753
 20
-168.5623209214011
 10
113.941710040959
 20
-168.7211398232711
 10
113.8486924628573
 20
-168.795209376204
 10
113.8001166165153
 20
-168.9388698579389
 10
113.8001166165153
 20
-168.9388698579389
 10
114.5783636866332
 20
-168.9388698579389
 10
114.5783636866332
 20
-168.9388698579389
 10
114.5783636866332
 20
-168.9388698579389
 10
114.5783636866332
 20
-169.1441975488598
 10
114.5783636866332
 20
-169.1441975488598
 10
114.5783636866332
 20
-169.1441975488598
 10
113.5503471938346
 20
-169.1441975488598
 10
113.5503471938346
 20
-169.1441975488598
 10
113.5820420722989
 20
-168.7865966374908
 10
113.6478433960672
 20
-168.7083929699757
 10
114.0326605617696
 20
-168.410047700953
 10
114.2889756658722
 20
-168.2112656914541
 10
114.354432480092
 20
-168.1433973103947
 10
114.354432480092
 20
-168.0059380005332
 10
114.354432480092
 20
-167.8874267158407
 10
114.2824299844502
 20
-167.7565130874011
 10
114.0857150322425
 20
-167.7565130874011
 10
113.8252658135576
 20
-167.7565130874011
 10
113.816997584393
 20
-167.9869899753644
 10
113.8128634698107
 20
-168.1034342027658
 10
113.8128634698107
 20
-168.1034342027658
 10
113.5885877537209
 20
-168.1034342027658
 10
113.5885877537209
 20
-168.1034342027658
 10
113.597200492434
 20
-167.9763101793601
 10
113.6075357788898
 20
-167.8643445760895
 10
113.6881510132446
 20
-167.7458332913969
 10
113.7977050496756
 20
-167.5849473322357
 10
113.9840847154276
 20
-167.5511853964803
 10
114.100528942829
 20
-167.5511853964803
 10
114.3778591293917
 20
-167.5511853964803
 10
114.5849093680552
 20
-167.7351534953926
 10
114.5849093680552
 20
-168.0080050578244
 10
114.5849093680552
 20
-168.236759398045
 10
114.4688096502022
 20
-168.3359781480202
 10
114.1597845851753
 20
-168.5623209214011
 97
        0
 97
        0
 75
     2
 76
     1
 98
        0
  0
SPLINE
  5
9F
330
99
100
AcDbEntity
  8
_U+30EC_U+30A4_U+30E4_U+30FC 1
370
     0
100
AcDbSpline
210
0.0
220
0.0
230
1.0
 70
    11
 71
     3
 72
    29
 73
    25
 74
     0
 42
0.0000000001
 43
0.0000000001
 12
1.0
 22
0.0
 32
0.0
 13
1.0
 23
0.0
 33
0.0
 40
0.0
 40
0.0
 40
0.0
 40
0.0
 40
1.0
 40
1.0
 40
1.0
 40
2.0
 40
2.0
 40
2.0
 40
3.0
 40
3.0
 40
3.0
 40
4.0
 40
4.0
 40
4.0
 40
5.0
 40
5.0
 40
5.0
 40
6.0
 40
6.0
 40
6.0
 40
7.0
 40
7.0
 40
7.0
 40
8.0
 40
8.0
 40
8.0
 40
8.0
 10
115.6411756438328
 20
-168.9664306218209
 30
0.0
 10
115.5333441551444
 20
-169.1758924273241
 30
0.0
 10
115.3597113426879
 20
-169.194840452493
 30
0.0
 10
115.2432671152864
 20
-169.194840452493
 30
0.0
 10
115.0827256656738
 20
-169.194840452493
 30
0.0
 10
114.9407877316815
 20
-169.1483316634421
 30
0.0
 10
114.8457030962886
 20
-168.9664306218209
 30
0.0
 10
114.7423502317311
 20
-168.7717827269043
 30
0.0
 10
114.7230576970137
 20
-168.5347601575191
 30
0.0
 10
114.7230576970137
 20
-168.3721516506153
 30
0.0
 10
114.7230576970137
 20
-168.2281466593319
 30
0.0
 10
114.7399386648914
 20
-167.9763101793601
 30
0.0
 10
114.8457030962886
 20
-167.7775281698612
 30
0.0
 10
114.9538790945254
 20
-167.57461204578
 30
0.0
 10
115.1144205441381
 20
-167.5511853964803
 30
0.0
 10
115.2432671152864
 20
-167.5511853964803
 30
0.0
 10
115.4020860171564
 20
-167.5511853964803
 30
0.0
 10
115.5457464988913
 20
-167.59562712824
 30
0.0
 10
115.6411756438328
 20
-167.7775281698612
 30
0.0
 10
115.7407389033565
 20
-167.9701090074867
 30
0.0
 10
115.7638210431077
 20
-168.1985188381587
 30
0.0
 10
115.7638210431077
 20
-168.3721516506153
 30
0.0
 10
115.7638210431077
 20
-168.5433728962322
 30
0.0
 10
115.7428059606476
 20
-168.7738497841954
 30
0.0
 10
115.6411756438328
 20
-168.9664306218209
 30
0.0
  0
SPLINE
  5
A0
330
99
100
AcDbEntity
  8
_U+30EC_U+30A4_U+30E4_U+30FC 1
370
     0
100
AcDbSpline
210
0.0
220
0.0
230
1.0
 70
    11
 71
     3
 72
    17
 73
    13
 74
     0
 42
0.0000000001
 43
0.0000000001
 12
1.0
 22
0.0
 32
0.0
 13
1.0
 23
0.0
 33
0.0
 40
0.0
 40
0.0
 40
0.0
 40
0.0
 40
1.0
 40
1.0
 40
1.0
 40
2.0
 40
2.0
 40
2.0
 40
3.0
 40
3.0
 40
3.0
 40
4.0
 40
4.0
 40
4.0
 40
4.0
 10
115.2432671152864
 20
-167.7437662341057
 30
0.0
 10
114.9938422021543
 20
-167.7437662341057
 30
0.0
 10
114.9473334131035
 20
-168.0272975925418
 30
0.0
 10
114.9473334131035
 20
-168.3721516506153
 30
0.0
 10
114.9473334131035
 20
-168.691512002098
 30
0.0
 10
114.9835069156986
 20
-169.0001925575764
 30
0.0
 10
115.2432671152864
 20
-169.0001925575764
 30
0.0
 10
115.4909694806759
 20
-169.0001925575764
 30
0.0
 10
115.5395453270179
 20
-168.71907276598
 30
0.0
 10
115.5395453270179
 20
-168.3721516506153
 30
0.0
 10
115.5395453270179
 20
-168.0524467895841
 30
0.0
 10
115.5016492766802
 20
-167.7437662341057
 30
0.0
 10
115.2432671152864
 20
-167.7437662341057
 30
0.0
  0
HATCH
  5
A1
330
99
100
AcDbEntity
  8
_U+30EC_U+30A4_U+30E4_U+30FC 1
 62
   179
420
  2234388
100
AcDbHatch
 10
0.0
 20
0.0
 30
0.0
210
0.0
220
0.0
230
1.0
  2
SOLID
 70
     1
 71
     0
 91
        2
 92
        1
 93
        1
 72
     4
 94
        3
 73
     0
 74
     1
 95
       29
 96
       25
 40
0.0
 40
0.0
 40
0.0
 40
0.0
 40
1.0
 40
1.0
 40
1.0
 40
2.0
 40
2.0
 40
2.0
 40
3.0
 40
3.0
 40
3.0
 40
4.0
 40
4.0
 40
4.0
 40
5.0
 40
5.0
 40
5.0
 40
6.0
 40
6.0
 40
6.0
 40
7.0
 40
7.0
 40
7.0
 40
8.0
 40
8.0
 40
8.0
 40
8.0
 10
115.6411756438328
 20
-168.9664306218209
 10
115.5333441551444
 20
-169.1758924273241
 10
115.3597113426879
 20
-169.194840452493
 10
115.2432671152864
 20
-169.194840452493
 10
115.0827256656738
 20
-169.194840452493
 10
114.9407877316815
 20
-169.1483316634421
 10
114.8457030962886
 20
-168.9664306218209
 10
114.7423502317311
 20
-168.7717827269043
 10
114.7230576970137
 20
-168.5347601575191
 10
114.7230576970137
 20
-168.3721516506153
 10
114.7230576970137
 20
-168.2281466593319
 10
114.7399386648914
 20
-167.9763101793601
 10
114.8457030962886
 20
-167.7775281698612
 10
114.9538790945254
 20
-167.57461204578
 10
115.1144205441381
 20
-167.5511853964803
 10
115.2432671152864
 20
-167.5511853964803
 10
115.4020860171564
 20
-167.5511853964803
 10
115.5457464988913
 20
-167.59562712824
 10
115.6411756438328
 20
-167.7775281698612
 10
115.7407389033565
 20
-167.9701090074867
 10
115.7638210431077
 20
-168.1985188381587
 10
115.7638210431077
 20
-168.3721516506153
 10
115.7638210431077
 20
-168.5433728962322
 10
115.7428059606476
 20
-168.7738497841954
 10
115.6411756438328
 20
-168.9664306218209
 97
        0
 97
        0
 92
        1
 93
        1
 72
     4
 94
        3
 73
     0
 74
     1
 95
       17
 96
       13
 40
0.0
 40
0.0
 40
0.0
 40
0.0
 40
1.0
 40
1.0
 40
1.0
 40
2.0
 40
2.0
 40
2.0
 40
3.0
 40
3.0
 40
3.0
 40
4.0
 40
4.0
 40
4.0
 40
4.0
 10
115.2432671152864
 20
-167.7437662341057
 10
114.9938422021543
 20
-167.7437662341057
 10
114.9473334131035
 20
-168.0272975925418
 10
114.9473334131035
 20
-168.3721516506153
 10
114.9473334131035
 20
-168.691512002098
 10
114.9835069156986
 20
-169.0001925575764
 10
115.2432671152864
 20
-169.0001925575764
 10
115.4909694806759
 20
-169.0001925575764
 10
115.5395453270179
 20
-168.71907276598
 10
115.5395453270179
 20
-168.3721516506153
 10
115.5395453270179
 20
-168.0524467895841
 10
115.5016492766802
 20
-167.7437662341057
 10
115.2432671152864
 20
-167.7437662341057
 97
        0
 97
        0
 75
     2
 76
     1
 98
        0
  0
ENDBLK
  5
9C
330
99
100
AcDbEntity
  8
0
100
AcDbBlockEnd
  0
BLOCK
  5
B4
330
B2
100
AcDbEntity
  8
0
100
AcDbBlockBegin
  2
block 6
 70
     0
 10
0.0
 20
0.0
 30
0.0
  3
block 6
  1

  0
SPLINE
  5
B6
330
B2
100
AcDbEntity
  8
_U+30EC_U+30A4_U+30E4_U+30FC 1
370
     0
100
AcDbSpline
210
0.0
220
0.0
230
1.0
 70
    11
 71
     3
 72
    26
 73
    22
 74
     0
 42
0.0000000001
 43
0.0000000001
 12
1.0
 22
0.0
 32
0.0
 13
1.0
 23
0.0
 33
0.0
 40
0.0
 40
0.0
 40
0.0
 40
0.0
 40
1.0
 40
1.0
 40
1.0
 40
2.0
 40
2.0
 40
2.0
 40
3.0
 40
3.0
 40
3.0
 40
4.0
 40
4.0
 40
4.0
 40
5.0
 40
5.0
 40
5.0
 40
6.0
 40
6.0
 40
6.0
 40
7.0
 40
7.0
 40
7.0
 40
7.0
 10
96.91484236943448
 20
-154.8863253736048
 30
0.0
 10
96.91484236943448
 20
-154.8863253736048
 30
0.0
 10
96.91484236943448
 20
-153.7821722705822
 30
0.0
 10
96.91484236943448
 20
-153.7821722705822
 30
0.0
 10
96.91484236943448
 20
-153.7821722705822
 30
0.0
 10
96.58480222194756
 20
-153.7821722705822
 30
0.0
 10
96.58480222194756
 20
-153.7821722705822
 30
0.0
 10
96.58480222194756
 20
-153.7821722705822
 30
0.0
 10
96.58480222194756
 20
-153.6340331647165
 30
0.0
 10
96.58480222194756
 20
-153.6340331647165
 30
0.0
 10
96.91690942672564
 20
-153.6192192541299
 30
0.0
 10
96.96341821577651
 20
-153.4562662376776
 30
0.0
 10
96.99304603694966
 20
-153.3418890675673
 30
0.0
 10
96.99304603694966
 20
-153.3418890675673
 30
0.0
 10
97.13911808552426
 20
-153.3418890675673
 30
0.0
 10
97.13911808552426
 20
-153.3418890675673
 30
0.0
 10
97.13911808552426
 20
-153.3418890675673
 30
0.0
 10
97.13911808552426
 20
-154.8863253736048
 30
0.0
 10
97.13911808552426
 20
-154.8863253736048
 30
0.0
 10
97.13911808552426
 20
-154.8863253736048
 30
0.0
 10
96.91484236943448
 20
-154.8863253736048
 30
0.0
 10
96.91484236943448
 20
-154.8863253736048
 30
0.0
  0
HATCH
  5
B7
330
B2
100
AcDbEntity
  8
_U+30EC_U+30A4_U+30E4_U+30FC 1
 62
   179
420
  2234388
100
AcDbHatch
 10
0.0
 20
0.0
 30
0.0
210
0.0
220
0.0
230
1.0
  2
SOLID
 70
     1
 71
     0
 91
        1
 92
        1
 93
        1
 72
     4
 94
        3
 73
     0
 74
     1
 95
       26
 96
       22
 40
0.0
 40
0.0
 40
0.0
 40
0.0
 40
1.0
 40
1.0
 40
1.0
 40
2.0
 40
2.0
 40
2.0
 40
3.0
 40
3.0
 40
3.0
 40
4.0
 40
4.0
 40
4.0
 40
5.0
 40
5.0
 40
5.0
 40
6.0
 40
6.0
 40
6.0
 40
7.0
 40
7.0
 40
7.0
 40
7.0
 10
96.91484236943448
 20
-154.8863253736048
 10
96.91484236943448
 20
-154.8863253736048
 10
96.91484236943448
 20
-153.7821722705822
 10
96.91484236943448
 20
-153.7821722705822
 10
96.91484236943448
 20
-153.7821722705822
 10
96.58480222194756
 20
-153.7821722705822
 10
96.58480222194756
 20
-153.7821722705822
 10
96.58480222194756
 20
-153.7821722705822
 10
96.58480222194756
 20
-153.6340331647165
 10
96.58480222194756
 20
-153.6340331647165
 10
96.91690942672564
 20
-153.6192192541299
 10
96.96341821577651
 20
-153.4562662376776
 10
96.99304603694966
 20
-153.3418890675673
 10
96.99304603694966
 20
-153.3418890675673
 10
97.13911808552426
 20
-153.3418890675673
 10
97.13911808552426
 20
-153.3418890675673
 10
97.13911808552426
 20
-153.3418890675673
 10
97.13911808552426
 20
-154.8863253736048
 10
97.13911808552426
 20
-154.8863253736048
 10
97.13911808552426
 20
-154.8863253736048
 10
96.91484236943448
 20
-154.8863253736048
 10
96.91484236943448
 20
-154.8863253736048
 97
        0
 97
        0
 75
     2
 76
     1
 98
        0
  0
SPLINE
  5
B8
330
B2
100
AcDbEntity
  8
_U+30EC_U+30A4_U+30E4_U+30FC 1
370
     0
100
AcDbSpline
210
0.0
220
0.0
230
1.0
 70
    11
 71
     3
 72
    53
 73
    49
 74
     0
 42
0.0000000001
 43
0.0000000001
 12
1.0
 22
0.0
 32
0.0
 13
1.0
 23
0.0
 33
0.0
 40
0.0
 40
0.0
 40
0.0
 40
0.0
 40
1.0
 40
1.0
 40
1.0
 40
2.0
 40
2.0
 40
2.0
 40
3.0
 40
3.0
 40
3.0
 40
4.0
 40
4.0
 40
4.0
 40
5.0
 40
5.0
 40
5.0
 40
6.0
 40
6.0
 40
6.0
 40
7.0
 40
7.0
 40
7.0
 40
8.0
 40
8.0
 40
8.0
 40
9.0
 40
9.0
 40
9.0
 40
10.0
 40
10.0
 40
10.0
 40
11.0
 40
11.0
 40
11.0
 40
12.0
 40
12.0
 40
12.0
 40
13.0
 40
13.0
 40
13.0
 40
14.0
 40
14.0
 40
14.0
 40
15.0
 40
15.0
 40
15.0
 40
16.0
 40
16.0
 40
16.0
 40
16.0
 10
98.12131480836898
 20
-154.936968277238
 30
0.0
 10
98.04293888607955
 20
-154.936968277238
 30
0.0
 10
97.94148082403893
 20
-154.9200873093603
 30
0.0
 10
97.83985050722407
 20
-154.8566975524317
 30
0.0
 10
97.66638994954174
 20
-154.7467990064522
 30
0.0
 10
97.64520261230746
 20
-154.6155408684642
 30
0.0
 10
97.62625458713858
 20
-154.5077093797759
 30
0.0
 10
97.62625458713858
 20
-154.5077093797759
 30
0.0
 10
97.84829099116293
 20
-154.5077093797759
 30
0.0
 10
97.84829099116293
 20
-154.5077093797759
 30
0.0
 10
97.90341251892693
 20
-154.7064913892748
 30
0.0
 10
98.03036428755838
 20
-154.7361192104479
 30
0.0
 10
98.12338186566014
 20
-154.7361192104479
 30
0.0
 10
98.26308048758702
 20
-154.7361192104479
 30
0.0
 10
98.41535370803506
 20
-154.6365559509242
 30
0.0
 10
98.41535370803506
 20
-154.4040120056698
 30
0.0
 10
98.41535370803506
 20
-154.1480414111158
 30
0.0
 10
98.23551972370501
 20
-154.0781059727652
 30
0.0
 10
98.11494138172127
 20
-154.0781059727652
 30
0.0
 10
98.08324650325697
 20
-154.0781059727652
 30
0.0
 10
97.94148082403893
 20
-154.0781059727652
 30
0.0
 10
97.8525973605195
 20
-154.2072970534621
 30
0.0
 10
97.8525973605195
 20
-154.2072970534621
 30
0.0
 10
97.67706974554602
 20
-154.1883490282932
 30
0.0
 10
97.67706974554602
 20
-154.1883490282932
 30
0.0
 10
97.67706974554602
 20
-154.1883490282932
 30
0.0
 10
97.79764808752977
 20
-153.3418890675673
 30
0.0
 10
97.79764808752977
 20
-153.3418890675673
 30
0.0
 10
97.79764808752977
 20
-153.3418890675673
 30
0.0
 10
98.57606741242196
 20
-153.3418890675673
 30
0.0
 10
98.57606741242196
 20
-153.3418890675673
 30
0.0
 10
98.57606741242196
 20
-153.3418890675673
 30
0.0
 10
98.57606741242196
 20
-153.5365369624839
 30
0.0
 10
98.57606741242196
 20
-153.5365369624839
 30
0.0
 10
98.57606741242196
 20
-153.5365369624839
 30
0.0
 10
97.96042884920782
 20
-153.5365369624839
 30
0.0
 10
97.96042884920782
 20
-153.5365369624839
 30
0.0
 10
97.96042884920782
 20
-153.5365369624839
 30
0.0
 10
97.89497203498807
 20
-153.9595946880726
 30
0.0
 10
97.89497203498807
 20
-153.9595946880726
 30
0.0
 10
97.95629473462552
 20
-153.9258327523171
 30
0.0
 10
98.03880477149725
 20
-153.8855251351397
 30
0.0
 10
98.15714380141559
 20
-153.8855251351397
 30
0.0
 10
98.41104733867849
 20
-153.8855251351397
 30
0.0
 10
98.64806990806368
 20
-154.0719048008918
 30
0.0
 10
98.64806990806368
 20
-154.385063980501
 30
0.0
 10
98.64806990806368
 20
-154.7023572746925
 30
0.0
 10
98.42379419197391
 20
-154.936968277238
 30
0.0
 10
98.12131480836898
 20
-154.936968277238
 30
0.0
  0
HATCH
  5
B9
330
B2
100
AcDbEntity
  8
_U+30EC_U+30A4_U+30E4_U+30FC 1
 62
   179
420
  2234388
100
AcDbHatch
 10
0.0
 20
0.0
 30
0.0
210
0.0
220
0.0
230
1.0
  2
SOLID
 70
     1
 71
     0
 91
        1
 92
        1
 93
        1
 72
     4
 94
        3
 73
     0
 74
     1
 95
       53
 96
       49
 40
0.0
 40
0.0
 40
0.0
 40
0.0
 40
1.0
 40
1.0
 40
1.0
 40
2.0
 40
2.0
 40
2.0
 40
3.0
 40
3.0
 40
3.0
 40
4.0
 40
4.0
 40
4.0
 40
5.0
 40
5.0
 40
5.0
 40
6.0
 40
6.0
 40
6.0
 40
7.0
 40
7.0
 40
7.0
 40
8.0
 40
8.0
 40
8.0
 40
9.0
 40
9.0
 40
9.0
 40
10.0
 40
10.0
 40
10.0
 40
11.0
 40
11.0
 40
11.0
 40
12.0
 40
12.0
 40
12.0
 40
13.0
 40
13.0
 40
13.0
 40
14.0
 40
14.0
 40
14.0
 40
15.0
 40
15.0
 40
15.0
 40
16.0
 40
16.0
 40
16.0
 40
16.0
 10
98.12131480836898
 20
-154.936968277238
 10
98.04293888607955
 20
-154.936968277238
 10
97.94148082403893
 20
-154.9200873093603
 10
97.83985050722407
 20
-154.8566975524317
 10
97.66638994954174
 20
-154.7467990064522
 10
97.64520261230746
 20
-154.6155408684642
 10
97.62625458713858
 20
-154.5077093797759
 10
97.62625458713858
 20
-154.5077093797759
 10
97.84829099116293
 20
-154.5077093797759
 10
97.84829099116293
 20
-154.5077093797759
 10
97.90341251892693
 20
-154.7064913892748
 10
98.03036428755838
 20
-154.7361192104479
 10
98.12338186566014
 20
-154.7361192104479
 10
98.26308048758702
 20
-154.7361192104479
 10
98.41535370803506
 20
-154.6365559509242
 10
98.41535370803506
 20
-154.4040120056698
 10
98.41535370803506
 20
-154.1480414111158
 10
98.23551972370501
 20
-154.0781059727652
 10
98.11494138172127
 20
-154.0781059727652
 10
98.08324650325697
 20
-154.0781059727652
 10
97.94148082403893
 20
-154.0781059727652
 10
97.8525973605195
 20
-154.2072970534621
 10
97.8525973605195
 20
-154.2072970534621
 10
97.67706974554602
 20
-154.1883490282932
 10
97.67706974554602
 20
-154.1883490282932
 10
97.67706974554602
 20
-154.1883490282932
 10
97.79764808752977
 20
-153.3418890675673
 10
97.79764808752977
 20
-153.3418890675673
 10
97.79764808752977
 20
-153.3418890675673
 10
98.57606741242196
 20
-153.3418890675673
 10
98.57606741242196
 20
-153.3418890675673
 10
98.57606741242196
 20
-153.3418890675673
 10
98.57606741242196
 20
-153.5365369624839
 10
98.57606741242196
 20
-153.5365369624839
 10
98.57606741242196
 20
-153.5365369624839
 10
97.96042884920782
 20
-153.5365369624839
 10
97.96042884920782
 20
-153.5365369624839
 10
97.96042884920782
 20
-153.5365369624839
 10
97.89497203498807
 20
-153.9595946880726
 10
97.89497203498807
 20
-153.9595946880726
 10
97.95629473462552
 20
-153.9258327523171
 10
98.03880477149725
 20
-153.8855251351397
 10
98.15714380141559
 20
-153.8855251351397
 10
98.41104733867849
 20
-153.8855251351397
 10
98.64806990806368
 20
-154.0719048008918
 10
98.64806990806368
 20
-154.385063980501
 10
98.64806990806368
 20
-154.7023572746925
 10
98.42379419197391
 20
-154.936968277238
 10
98.12131480836898
 20
-154.936968277238
 97
        0
 97
        0
 75
     2
 76
     1
 98
        0
  0
SPLINE
  5
BA
330
B2
100
AcDbEntity
  8
_U+30EC_U+30A4_U+30E4_U+30FC 1
370
     0
100
AcDbSpline
210
0.0
220
0.0
230
1.0
 70
    11
 71
     3
 72
    44
 73
    40
 74
     0
 42
0.0000000001
 43
0.0000000001
 12
1.0
 22
0.0
 32
0.0
 13
1.0
 23
0.0
 33
0.0
 40
0.0
 40
0.0
 40
0.0
 40
0.0
 40
1.0
 40
1.0
 40
1.0
 40
2.0
 40
2.0
 40
2.0
 40
3.0
 40
3.0
 40
3.0
 40
4.0
 40
4.0
 40
4.0
 40
5.0
 40
5.0
 40
5.0
 40
6.0
 40
6.0
 40
6.0
 40
7.0
 40
7.0
 40
7.0
 40
8.0
 40
8.0
 40
8.0
 40
9.0
 40
9.0
 40
9.0
 40
10.0
 40
10.0
 40
10.0
 40
11.0
 40
11.0
 40
11.0
 40
12.0
 40
12.0
 40
12.0
 40
13.0
 40
13.0
 40
13.0
 40
13.0
 10
99.83128795247274
 20
-154.8863253736048
 30
0.0
 10
99.80786130317304
 20
-154.8418836418451
 30
0.0
 10
99.78684622071302
 20
-154.7891736809208
 30
0.0
 10
99.7846069086476
 20
-154.558352283409
 30
0.0
 10
99.7804727940653
 20
-154.3151285421504
 30
0.0
 10
99.721217151719
 20
-154.2451931037998
 30
0.0
 10
99.54345022468011
 20
-154.2451931037998
 30
0.0
 10
99.54345022468011
 20
-154.2451931037998
 30
0.0
 10
99.135206409678
 20
-154.2451931037998
 30
0.0
 10
99.135206409678
 20
-154.2451931037998
 30
0.0
 10
99.135206409678
 20
-154.2451931037998
 30
0.0
 10
99.135206409678
 20
-154.8863253736048
 30
0.0
 10
99.135206409678
 20
-154.8863253736048
 30
0.0
 10
99.135206409678
 20
-154.8863253736048
 30
0.0
 10
98.90042315235823
 20
-154.8863253736048
 30
0.0
 10
98.90042315235823
 20
-154.8863253736048
 30
0.0
 10
98.90042315235823
 20
-154.8863253736048
 30
0.0
 10
98.90042315235823
 20
-153.3418890675673
 30
0.0
 10
98.90042315235823
 20
-153.3418890675673
 30
0.0
 10
98.90042315235823
 20
-153.3418890675673
 30
0.0
 10
99.57531735791868
 20
-153.3418890675673
 30
0.0
 10
99.57531735791868
 20
-153.3418890675673
 30
0.0
 10
99.88193085610591
 20
-153.3418890675673
 30
0.0
 10
100.0490179871405
 20
-153.5134548227328
 30
0.0
 10
100.0490179871405
 20
-153.7694254172868
 30
0.0
 10
100.0490179871405
 20
-153.82006832092
 30
0.0
 10
100.0405775032017
 20
-153.902750612566
 30
0.0
 10
99.99613577144194
 20
-153.9830213373723
 30
0.0
 10
99.93705238386991
 20
-154.0867187114783
 30
0.0
 10
99.8714233148759
 20
-154.1056667366472
 30
0.0
 10
99.81010061523845
 20
-154.1225477045249
 30
0.0
 10
99.94755992509992
 20
-154.1649223789935
 30
0.0
 10
100.0152560513851
 20
-154.2134982253355
 30
0.0
 10
100.0195624207416
 20
-154.5287244622359
 30
0.0
 10
100.0236965353239
 20
-154.7995089673765
 30
0.0
 10
100.0596977831448
 20
-154.8312038458408
 30
0.0
 10
100.12739390943
 20
-154.8863253736048
 30
0.0
 10
100.12739390943
 20
-154.8863253736048
 30
0.0
 10
99.83128795247274
 20
-154.8863253736048
 30
0.0
 10
99.83128795247274
 20
-154.8863253736048
 30
0.0
  0
SPLINE
  5
BB
330
B2
100
AcDbEntity
  8
_U+30EC_U+30A4_U+30E4_U+30FC 1
370
     0
100
AcDbSpline
210
0.0
220
0.0
230
1.0
 70
    11
 71
     3
 72
    20
 73
    16
 74
     0
 42
0.0000000001
 43
0.0000000001
 12
1.0
 22
0.0
 32
0.0
 13
1.0
 23
0.0
 33
0.0
 40
0.0
 40
0.0
 40
0.0
 40
0.0
 40
1.0
 40
1.0
 40
1.0
 40
2.0
 40
2.0
 40
2.0
 40
3.0
 40
3.0
 40
3.0
 40
4.0
 40
4.0
 40
4.0
 40
5.0
 40
5.0
 40
5.0
 40
5.0
 10
99.57945147250098
 20
-153.5534179303617
 30
0.0
 10
99.57945147250098
 20
-153.5534179303617
 30
0.0
 10
99.135206409678
 20
-153.5534179303617
 30
0.0
 10
99.135206409678
 20
-153.5534179303617
 30
0.0
 10
99.135206409678
 20
-153.5534179303617
 30
0.0
 10
99.135206409678
 20
-154.0336642410055
 30
0.0
 10
99.135206409678
 20
-154.0336642410055
 30
0.0
 10
99.135206409678
 20
-154.0336642410055
 30
0.0
 10
99.57738441520982
 20
-154.0336642410055
 30
0.0
 10
99.57738441520982
 20
-154.0336642410055
 30
0.0
 10
99.67677541995928
 20
-154.0336642410055
 30
0.0
 10
99.8121676725296
 20
-153.9575276307815
 30
0.0
 10
99.8121676725296
 20
-153.7863063851646
 30
0.0
 10
99.8121676725296
 20
-153.7081027176494
 30
0.0
 10
99.77823348199989
 20
-153.5534179303617
 30
0.0
 10
99.57945147250098
 20
-153.5534179303617
 30
0.0
  0
HATCH
  5
BC
330
B2
100
AcDbEntity
  8
_U+30EC_U+30A4_U+30E4_U+30FC 1
 62
   179
420
  2234388
100
AcDbHatch
 10
0.0
 20
0.0
 30
0.0
210
0.0
220
0.0
230
1.0
  2
SOLID
 70
     1
 71
     0
 91
        2
 92
        1
 93
        1
 72
     4
 94
        3
 73
     0
 74
     1
 95
       44
 96
       40
 40
0.0
 40
0.0
 40
0.0
 40
0.0
 40
1.0
 40
1.0
 40
1.0
 40
2.0
 40
2.0
 40
2.0
 40
3.0
 40
3.0
 40
3.0
 40
4.0
 40
4.0
 40
4.0
 40
5.0
 40
5.0
 40
5.0
 40
6.0
 40
6.0
 40
6.0
 40
7.0
 40
7.0
 40
7.0
 40
8.0
 40
8.0
 40
8.0
 40
9.0
 40
9.0
 40
9.0
 40
10.0
 40
10.0
 40
10.0
 40
11.0
 40
11.0
 40
11.0
 40
12.0
 40
12.0
 40
12.0
 40
13.0
 40
13.0
 40
13.0
 40
13.0
 10
99.83128795247274
 20
-154.8863253736048
 10
99.80786130317304
 20
-154.8418836418451
 10
99.78684622071302
 20
-154.7891736809208
 10
99.7846069086476
 20
-154.558352283409
 10
99.7804727940653
 20
-154.3151285421504
 10
99.721217151719
 20
-154.2451931037998
 10
99.54345022468011
 20
-154.2451931037998
 10
99.54345022468011
 20
-154.2451931037998
 10
99.135206409678
 20
-154.2451931037998
 10
99.135206409678
 20
-154.2451931037998
 10
99.135206409678
 20
-154.2451931037998
 10
99.135206409678
 20
-154.8863253736048
 10
99.135206409678
 20
-154.8863253736048
 10
99.135206409678
 20
-154.8863253736048
 10
98.90042315235823
 20
-154.8863253736048
 10
98.90042315235823
 20
-154.8863253736048
 10
98.90042315235823
 20
-154.8863253736048
 10
98.90042315235823
 20
-153.3418890675673
 10
98.90042315235823
 20
-153.3418890675673
 10
98.90042315235823
 20
-153.3418890675673
 10
99.57531735791868
 20
-153.3418890675673
 10
99.57531735791868
 20
-153.3418890675673
 10
99.88193085610591
 20
-153.3418890675673
 10
100.0490179871405
 20
-153.5134548227328
 10
100.0490179871405
 20
-153.7694254172868
 10
100.0490179871405
 20
-153.82006832092
 10
100.0405775032017
 20
-153.902750612566
 10
99.99613577144194
 20
-153.9830213373723
 10
99.93705238386991
 20
-154.0867187114783
 10
99.8714233148759
 20
-154.1056667366472
 10
99.81010061523845
 20
-154.1225477045249
 10
99.94755992509992
 20
-154.1649223789935
 10
100.0152560513851
 20
-154.2134982253355
 10
100.0195624207416
 20
-154.5287244622359
 10
100.0236965353239
 20
-154.7995089673765
 10
100.0596977831448
 20
-154.8312038458408
 10
100.12739390943
 20
-154.8863253736048
 10
100.12739390943
 20
-154.8863253736048
 10
99.83128795247274
 20
-154.8863253736048
 10
99.83128795247274
 20
-154.8863253736048
 97
        0
 97
        0
 92
        1
 93
        1
 72
     4
 94
        3
 73
     0
 74
     1
 95
       20
 96
       16
 40
0.0
 40
0.0
 40
0.0
 40
0.0
 40
1.0
 40
1.0
 40
1.0
 40
2.0
 40
2.0
 40
2.0
 40
3.0
 40
3.0
 40
3.0
 40
4.0
 40
4.0
 40
4.0
 40
5.0
 40
5.0
 40
5.0
 40
5.0
 10
99.57945147250098
 20
-153.5534179303617
 10
99.57945147250098
 20
-153.5534179303617
 10
99.135206409678
 20
-153.5534179303617
 10
99.135206409678
 20
-153.5534179303617
 10
99.135206409678
 20
-153.5534179303617
 10
99.135206409678
 20
-154.0336642410055
 10
99.135206409678
 20
-154.0336642410055
 10
99.135206409678
 20
-154.0336642410055
 10
99.57738441520982
 20
-154.0336642410055
 10
99.57738441520982
 20
-154.0336642410055
 10
99.67677541995928
 20
-154.0336642410055
 10
99.8121676725296
 20
-153.9575276307815
 10
99.8121676725296
 20
-153.7863063851646
 10
99.8121676725296
 20
-153.7081027176494
 10
99.77823348199989
 20
-153.5534179303617
 10
99.57945147250098
 20
-153.5534179303617
 97
        0
 97
        0
 75
     2
 76
     1
 98
        0
  0
ENDBLK
  5
B5
330
B2
100
AcDbEntity
  8
0
100
AcDbBlockEnd
  0
ENDSEC
  0
SECTION
  2
ENTITIES
  0
SPLINE
  5
41
330
1F
100
AcDbEntity
  8
_U+30EC_U+30A4_U+30E4_U+30FC 1
 62
   179
420
  2234388
370
     9
100
AcDbSpline
210
0.0
220
0.0
230
1.0
 70
    11
 71
     3
 72
    17
 73
    13
 74
     0
 42
0.0000000001
 43
0.0000000001
 12
1.0
 22
0.0
 32
0.0
 13
1.0
 23
0.0
 33
0.0
 40
0.0
 40
0.0
 40
0.0
 40
0.0
 40
1.0
 40
1.0
 40
1.0
 40
2.0
 40
2.0
 40
2.0
 40
3.0
 40
3.0
 40
3.0
 40
4.0
 40
4.0
 40
4.0
 40
4.0
 10
104.7546469956348
 20
-169.5173552195293
 30
0.0
 10
104.7546469956348
 20
-169.4623305850758
 30
0.0
 10
104.7098392224798
 20
-169.4175228119208
 30
0.0
 10
104.6548092050649
 20
-169.4175228119208
 30
0.0
 10
104.5997738046881
 20
-169.4175228119208
 30
0.0
 10
104.5549714144944
 20
-169.4623305850758
 30
0.0
 10
104.5549714144944
 20
-169.5173552195293
 30
0.0
 10
104.5549714144944
 20
-169.5723906199062
 30
0.0
 10
104.5997738046881
 20
-169.6171983930612
 30
0.0
 10
104.6548092050649
 20
-169.6171983930612
 30
0.0
 10
104.7098392224798
 20
-169.6171983930612
 30
0.0
 10
104.7546469956348
 20
-169.5723906199062
 30
0.0
 10
104.7546469956348
 20
-169.5173552195293
 30
0.0
  0
SPLINE
  5
42
330
1F
100
AcDbEntity
  8
_U+30EC_U+30A4_U+30E4_U+30FC 1
 62
   179
420
  2234388
370
     9
100
AcDbSpline
210
0.0
220
0.0
230
1.0
 70
    11
 71
     3
 72
    17
 73
    13
 74
     0
 42
0.0000000001
 43
0.0000000001
 12
1.0
 22
0.0
 32
0.0
 13
1.0
 23
0.0
 33
0.0
 40
0.0
 40
0.0
 40
0.0
 40
0.0
 40
1.0
 40
1.0
 40
1.0
 40
2.0
 40
2.0
 40
2.0
 40
3.0
 40
3.0
 40
3.0
 40
4.0
 40
4.0
 40
4.0
 40
4.0
 10
124.7544651991174
 20
-169.5173552195293
 30
0.0
 10
124.7544651991174
 20
-169.4623305850758
 30
0.0
 10
124.7096574259623
 20
-169.4175228119208
 30
0.0
 10
124.653922240565
 20
-169.4175228119208
 30
0.0
 10
124.5988868401882
 20
-169.4175228119208
 30
0.0
 10
124.5540844499948
 20
-169.4623305850758
 30
0.0
 10
124.5540844499948
 20
-169.5173552195293
 30
0.0
 10
124.5540844499948
 20
-169.5723906199062
 30
0.0
 10
124.5988868401882
 20
-169.6171983930612
 30
0.0
 10
124.653922240565
 20
-169.6171983930612
 30
0.0
 10
124.7096574259623
 20
-169.6171983930612
 30
0.0
 10
124.7544651991174
 20
-169.5723906199062
 30
0.0
 10
124.7544651991174
 20
-169.5173552195293
 30
0.0
  0
POLYLINE
  5
43
330
1F
100
AcDbEntity
  8
_U+30EC_U+30A4_U+30E4_U+30FC 1
 62
   179
420
  2234388
370
     9
100
AcDb2dPolyline
 66
     1
 10
0.0
 20
0.0
 30
0.0
  0
VERTEX
  5
44
330
43
100
AcDbEntity
  8
_U+30EC_U+30A4_U+30E4_U+30FC 1
 62
   179
420
  2234388
370
     9
100
AcDbVertex
100
AcDb2dVertex
 10
104.6547392265626
 20
-169.5173552195293
 30
0.0
  0
VERTEX
  5
45
330
43
100
AcDbEntity
  8
_U+30EC_U+30A4_U+30E4_U+30FC 1
 62
   179
420
  2234388
370
     9
100
AcDbVertex
100
AcDb2dVertex
 10
124.6537069220972
 20
-169.5173552195293
 30
0.0
  0
SEQEND
  5
46
330
43
100
AcDbEntity
  8
_U+30EC_U+30A4_U+30E4_U+30FC 1
 62
   179
420
  2234388
370
     9
  0
SPLINE
  5
47
330
1F
100
AcDbEntity
  8
_U+30EC_U+30A4_U+30E4_U+30FC 1
 62
   179
420
  2234388
370
     9
100
AcDbSpline
210
0.0
220
0.0
230
1.0
 70
    11
 71
     3
 72
    17
 73
    13
 74
     0
 42
0.0000000001
 43
0.0000000001
 12
1.0
 22
0.0
 32
0.0
 13
1.0
 23
0.0
 33
0.0
 40
0.0
 40
0.0
 40
0.0
 40
0.0
 40
1.0
 40
1.0
 40
1.0
 40
2.0
 40
2.0
 40
2.0
 40
3.0
 40
3.0
 40
3.0
 40
4.0
 40
4.0
 40
4.0
 40
4.0
 10
83.7547014238991
 20
-127.6291820630905
 30
0.0
 10
83.7547014238991
 20
-127.5741574286371
 30
0.0
 10
83.70989634222492
 20
-127.529349655482
 30
0.0
 10
83.65415846534677
 20
-127.529349655482
 30
0.0
 10
83.59912575645076
 20
-127.529349655482
 30
0.0
 10
83.55432336625742
 20
-127.5741574286371
 30
0.0
 10
83.55432336625742
 20
-127.6291820630905
 30
0.0
 10
83.55432336625742
 20
-127.6845727389393
 30
0.0
 10
83.59912575645076
 20
-127.7293805120944
 30
0.0
 10
83.65415846534677
 20
-127.7293805120944
 30
0.0
 10
83.70989634222492
 20
-127.7293805120944
 30
0.0
 10
83.7547014238991
 20
-127.6845727389393
 30
0.0
 10
83.7547014238991
 20
-127.6291820630905
 30
0.0
  0
SPLINE
  5
48
330
1F
100
AcDbEntity
  8
_U+30EC_U+30A4_U+30E4_U+30FC 1
 62
   179
420
  2234388
370
     9
100
AcDbSpline
210
0.0
220
0.0
230
1.0
 70
    11
 71
     3
 72
    17
 73
    13
 74
     0
 42
0.0000000001
 43
0.0000000001
 12
1.0
 22
0.0
 32
0.0
 13
1.0
 23
0.0
 33
0.0
 40
0.0
 40
0.0
 40
0.0
 40
0.0
 40
1.0
 40
1.0
 40
1.0
 40
2.0
 40
2.0
 40
2.0
 40
3.0
 40
3.0
 40
3.0
 40
4.0
 40
4.0
 40
4.0
 40
4.0
 10
83.7547014238991
 20
-147.6293286272366
 30
0.0
 10
83.7547014238991
 20
-147.5739487173112
 30
0.0
 10
83.70989634222492
 20
-147.529496219628
 30
0.0
 10
83.65415846534677
 20
-147.529496219628
 30
0.0
 10
83.59912575645076
 20
-147.529496219628
 30
0.0
 10
83.55432336625742
 20
-147.5739487173112
 30
0.0
 10
83.55432336625742
 20
-147.6293286272366
 30
0.0
 10
83.55432336625742
 20
-147.6843640276134
 30
0.0
 10
83.59912575645076
 20
-147.7291718007685
 30
0.0
 10
83.65415846534677
 20
-147.7291718007685
 30
0.0
 10
83.70989634222492
 20
-147.7291718007685
 30
0.0
 10
83.7547014238991
 20
-147.6843640276134
 30
0.0
 10
83.7547014238991
 20
-147.6293286272366
 30
0.0
  0
SPLINE
  5
49
330
1F
100
AcDbEntity
  8
_U+30EC_U+30A4_U+30E4_U+30FC 1
 62
   179
420
  2234388
370
     9
100
AcDbSpline
210
0.0
220
0.0
230
1.0
 70
    11
 71
     3
 72
    17
 73
    13
 74
     0
 42
0.0000000001
 43
0.0000000001
 12
1.0
 22
0.0
 32
0.0
 13
1.0
 23
0.0
 33
0.0
 40
0.0
 40
0.0
 40
0.0
 40
0.0
 40
1.0
 40
1.0
 40
1.0
 40
2.0
 40
2.0
 40
2.0
 40
3.0
 40
3.0
 40
3.0
 40
4.0
 40
4.0
 40
4.0
 40
4.0
 10
128.7542210574924
 20
-165.5173086812227
 30
0.0
 10
128.7542210574924
 20
-165.4622840467692
 30
0.0
 10
128.7094132843374
 20
-165.4174762736142
 30
0.0
 10
128.6543832669223
 20
-165.4174762736142
 30
0.0
 10
128.5993478665454
 20
-165.4174762736142
 30
0.0
 10
128.554545476352
 20
-165.4622840467692
 30
0.0
 10
128.554545476352
 20
-165.5173086812227
 30
0.0
 10
128.554545476352
 20
-165.5726993570715
 30
0.0
 10
128.5993478665454
 20
-165.6175071302265
 30
0.0
 10
128.6543832669223
 20
-165.6175071302265
 30
0.0
 10
128.7094132843374
 20
-165.6175071302265
 30
0.0
 10
128.7542210574924
 20
-165.5726993570715
 30
0.0
 10
128.7542210574924
 20
-165.5173086812227
 30
0.0
  0
SPLINE
  5
4A
330
1F
100
AcDbEntity
  8
_U+30EC_U+30A4_U+30E4_U+30FC 1
 62
   179
420
  2234388
370
     9
100
AcDbSpline
210
0.0
220
0.0
230
1.0
 70
    11
 71
     3
 72
    17
 73
    13
 74
     0
 42
0.0000000001
 43
0.0000000001
 12
1.0
 22
0.0
 32
0.0
 13
1.0
 23
0.0
 33
0.0
 40
0.0
 40
0.0
 40
0.0
 40
0.0
 40
1.0
 40
1.0
 40
1.0
 40
2.0
 40
2.0
 40
2.0
 40
3.0
 40
3.0
 40
3.0
 40
4.0
 40
4.0
 40
4.0
 40
4.0
 10
128.7542210574924
 20
-153.0174794980141
 30
0.0
 10
128.7542210574924
 20
-152.9624548635606
 30
0.0
 10
128.7094132843374
 20
-152.9176470904056
 30
0.0
 10
128.6543832669223
 20
-152.9176470904056
 30
0.0
 10
128.5993478665454
 20
-152.9176470904056
 30
0.0
 10
128.554545476352
 20
-152.9624548635606
 30
0.0
 10
128.554545476352
 20
-153.0174794980141
 30
0.0
 10
128.554545476352
 20
-153.0725148983909
 30
0.0
 10
128.5993478665454
 20
-153.117322671546
 30
0.0
 10
128.6543832669223
 20
-153.117322671546
 30
0.0
 10
128.7094132843374
 20
-153.117322671546
 30
0.0
 10
128.7542210574924
 20
-153.0725148983909
 30
0.0
 10
128.7542210574924
 20
-153.0174794980141
 30
0.0
  0
SPLINE
  5
4B
330
1F
100
AcDbEntity
  8
_U+30EC_U+30A4_U+30E4_U+30FC 1
 62
   179
420
  2234388
370
     9
100
AcDbSpline
210
0.0
220
0.0
230
1.0
 70
    11
 71
     3
 72
    17
 73
    13
 74
     0
 42
0.0000000001
 43
0.0000000001
 12
1.0
 22
0.0
 32
0.0
 13
1.0
 23
0.0
 33
0.0
 40
0.0
 40
0.0
 40
0.0
 40
0.0
 40
1.0
 40
1.0
 40
1.0
 40
2.0
 40
2.0
 40
2.0
 40
3.0
 40
3.0
 40
3.0
 40
4.0
 40
4.0
 40
4.0
 40
4.0
 10
128.7542210574924
 20
-152.0173467467993
 30
0.0
 10
128.7542210574924
 20
-151.9623221123458
 30
0.0
 10
128.7094132843374
 20
-151.9175143391908
 30
0.0
 10
128.6543832669223
 20
-151.9175143391908
 30
0.0
 10
128.5993478665454
 20
-151.9175143391908
 30
0.0
 10
128.554545476352
 20
-151.9623221123458
 30
0.0
 10
128.554545476352
 20
-152.0173467467993
 30
0.0
 10
128.554545476352
 20
-152.0723821471761
 30
0.0
 10
128.5993478665454
 20
-152.1171899203312
 30
0.0
 10
128.6543832669223
 20
-152.1171899203312
 30
0.0
 10
128.7094132843374
 20
-152.1171899203312
 30
0.0
 10
128.7542210574924
 20
-152.0723821471761
 30
0.0
 10
128.7542210574924
 20
-152.0173467467993
 30
0.0
  0
POLYLINE
  5
4C
330
1F
100
AcDbEntity
  8
_U+30EC_U+30A4_U+30E4_U+30FC 1
 62
   179
420
  2234388
370
     9
100
AcDb2dPolyline
 66
     1
 10
0.0
 20
0.0
 30
0.0
  0
VERTEX
  5
4D
330
4C
100
AcDbEntity
  8
_U+30EC_U+30A4_U+30E4_U+30FC 1
 62
   179
420
  2234388
370
     9
100
AcDbVertex
100
AcDb2dVertex
 10
128.65428099065
 20
-152.0173467467993
 30
0.0
  0
VERTEX
  5
4E
330
4C
100
AcDbEntity
  8
_U+30EC_U+30A4_U+30E4_U+30FC 1
 62
   179
420
  2234388
370
     9
100
AcDbVertex
100
AcDb2dVertex
 10
128.65428099065
 20
-149.246983978259
 30
0.0
  0
SEQEND
  5
4F
330
4C
100
AcDbEntity
  8
_U+30EC_U+30A4_U+30E4_U+30FC 1
 62
   179
420
  2234388
370
     9
  0
POLYLINE
  5
50
330
1F
100
AcDbEntity
  8
_U+30EC_U+30A4_U+30E4_U+30FC 1
 62
   179
420
  2234388
370
     9
100
AcDb2dPolyline
 66
     1
 10
0.0
 20
0.0
 30
0.0
  0
VERTEX
  5
51
330
50
100
AcDbEntity
  8
_U+30EC_U+30A4_U+30E4_U+30FC 1
 62
   179
420
  2234388
370
     9
100
AcDbVertex
100
AcDb2dVertex
 10
128.65428099065
 20
-153.0174794980141
 30
0.0
  0
VERTEX
  5
52
330
50
100
AcDbEntity
  8
_U+30EC_U+30A4_U+30E4_U+30FC 1
 62
   179
420
  2234388
370
     9
100
AcDbVertex
100
AcDb2dVertex
 10
128.65428099065
 20
-152.0173575127227
 30
0.0
  0
SEQEND
  5
53
330
50
100
AcDbEntity
  8
_U+30EC_U+30A4_U+30E4_U+30FC 1
 62
   179
420
  2234388
370
     9
  0
POLYLINE
  5
54
330
1F
100
AcDbEntity
  8
_U+30EC_U+30A4_U+30E4_U+30FC 1
 62
   179
420
  2234388
370
     9
100
AcDb2dPolyline
 66
     1
 10
0.0
 20
0.0
 30
0.0
  0
VERTEX
  5
55
330
54
100
AcDbEntity
  8
_U+30EC_U+30A4_U+30E4_U+30FC 1
 62
   179
420
  2234388
370
     9
100
AcDbVertex
100
AcDb2dVertex
 10
127.1942764388096
 20
-153.0174794980141
 30
0.0
  0
VERTEX
  5
56
330
54
100
AcDbEntity
  8
_U+30EC_U+30A4_U+30E4_U+30FC 1
 62
   179
420
  2234388
370
     9
100
AcDbVertex
100
AcDb2dVertex
 10
129.6541930404353
 20
-153.0174794980141
 30
0.0
  0
SEQEND
  5
57
330
54
100
AcDbEntity
  8
_U+30EC_U+30A4_U+30E4_U+30FC 1
 62
   179
420
  2234388
370
     9
  0
POLYLINE
  5
58
330
1F
100
AcDbEntity
  8
_U+30EC_U+30A4_U+30E4_U+30FC 1
 62
   179
420
  2234388
370
     9
100
AcDb2dPolyline
 66
     1
 10
0.0
 20
0.0
 30
0.0
  0
VERTEX
  5
59
330
58
100
AcDbEntity
  8
_U+30EC_U+30A4_U+30E4_U+30FC 1
 62
   179
420
  2234388
370
     9
100
AcDbVertex
100
AcDb2dVertex
 10
127.1942764388096
 20
-152.0173467467993
 30
0.0
  0
VERTEX
  5
5A
330
58
100
AcDbEntity
  8
_U+30EC_U+30A4_U+30E4_U+30FC 1
 62
   179
420
  2234388
370
     9
100
AcDbVertex
100
AcDb2dVertex
 10
129.6541930404353
 20
-152.0173467467993
 30
0.0
  0
SEQEND
  5
5B
330
58
100
AcDbEntity
  8
_U+30EC_U+30A4_U+30E4_U+30FC 1
 62
   179
420
  2234388
370
     9
  0
INSERT
  5
5D
330
1F
100
AcDbEntity
  8
_U+30EC_U+30A4_U+30E4_U+30FC 1
100
AcDbBlockReference
  2
block 2
 10
0.0
 20
0.0
 30
0.0
  0
POLYLINE
  5
62
330
1F
100
AcDbEntity
  8
_U+30EC_U+30A4_U+30E4_U+30FC 1
 62
   179
420
  2234388
370
     9
100
AcDb2dPolyline
 66
     1
 10
0.0
 20
0.0
 30
0.0
  0
VERTEX
  5
63
330
62
100
AcDbEntity
  8
_U+30EC_U+30A4_U+30E4_U+30FC 1
 62
   179
420
  2234388
370
     9
100
AcDbVertex
100
AcDb2dVertex
 10
128.65428099065
 20
-153.0174794980141
 30
0.0
  0
VERTEX
  5
64
330
62
100
AcDbEntity
  8
_U+30EC_U+30A4_U+30E4_U+30FC 1
 62
   179
420
  2234388
370
     9
100
AcDbVertex
100
AcDb2dVertex
 10
128.65428099065
 20
-165.5174594041501
 30
0.0
  0
SEQEND
  5
65
330
62
100
AcDbEntity
  8
_U+30EC_U+30A4_U+30E4_U+30FC 1
 62
   179
420
  2234388
370
     9
  0
POLYLINE
  5
66
330
1F
100
AcDbEntity
  8
_U+30EC_U+30A4_U+30E4_U+30FC 1
 62
   179
420
  2234388
370
     9
100
AcDb2dPolyline
 66
     1
 10
0.0
 20
0.0
 30
0.0
  0
VERTEX
  5
67
330
66
100
AcDbEntity
  8
_U+30EC_U+30A4_U+30E4_U+30FC 1
 62
   179
420
  2234388
370
     9
100
AcDbVertex
100
AcDb2dVertex
 10
107.194458235327
 20
-165.5173086812227
 30
0.0
  0
VERTEX
  5
68
330
66
100
AcDbEntity
  8
_U+30EC_U+30A4_U+30E4_U+30FC 1
 62
   179
420
  2234388
370
     9
100
AcDbVertex
100
AcDb2dVertex
 10
129.6540530834312
 20
-165.5173086812227
 30
0.0
  0
SEQEND
  5
69
330
66
100
AcDbEntity
  8
_U+30EC_U+30A4_U+30E4_U+30FC 1
 62
   179
420
  2234388
370
     9
  0
INSERT
  5
6B
330
1F
100
AcDbEntity
  8
_U+30EC_U+30A4_U+30E4_U+30FC 1
100
AcDbBlockReference
  2
block 3
 10
0.0
 20
0.0
 30
0.0
  0
POLYLINE
  5
7C
330
1F
100
AcDbEntity
  8
_U+30EC_U+30A4_U+30E4_U+30FC 1
 62
   179
420
  2234388
370
     9
100
AcDb2dPolyline
 66
     1
 10
0.0
 20
0.0
 30
0.0
  0
VERTEX
  5
7D
330
7C
100
AcDbEntity
  8
_U+30EC_U+30A4_U+30E4_U+30FC 1
 62
   179
420
  2234388
370
     9
100
AcDbVertex
100
AcDb2dVertex
 10
83.65412347609575
 20
-147.6293286272366
 30
0.0
  0
VERTEX
  5
7E
330
7C
100
AcDbEntity
  8
_U+30EC_U+30A4_U+30E4_U+30FC 1
 62
   179
420
  2234388
370
     9
100
AcDbVertex
100
AcDb2dVertex
 10
83.65412347609575
 20
-127.6293004882478
 30
0.0
  0
SEQEND
  5
7F
330
7C
100
AcDbEntity
  8
_U+30EC_U+30A4_U+30E4_U+30FC 1
 62
   179
420
  2234388
370
     9
  0
POLYLINE
  5
80
330
1F
100
AcDbEntity
  8
_U+30EC_U+30A4_U+30E4_U+30FC 1
 62
   179
420
  2234388
370
     9
100
AcDb2dPolyline
 66
     1
 10
0.0
 20
0.0
 30
0.0
  0
VERTEX
  5
81
330
80
100
AcDbEntity
  8
_U+30EC_U+30A4_U+30E4_U+30FC 1
 62
   179
420
  2234388
370
     9
100
AcDbVertex
100
AcDb2dVertex
 10
85.11416570866803
 20
-147.6293286272366
 30
0.0
  0
VERTEX
  5
82
330
80
100
AcDbEntity
  8
_U+30EC_U+30A4_U+30E4_U+30FC 1
 62
   179
420
  2234388
370
     9
100
AcDbVertex
100
AcDb2dVertex
 10
82.65424372408064
 20
-147.6293286272366
 30
0.0
  0
SEQEND
  5
83
330
80
100
AcDbEntity
  8
_U+30EC_U+30A4_U+30E4_U+30FC 1
 62
   179
420
  2234388
370
     9
  0
POLYLINE
  5
84
330
1F
100
AcDbEntity
  8
_U+30EC_U+30A4_U+30E4_U+30FC 1
 62
   179
420
  2234388
370
     9
100
AcDb2dPolyline
 66
     1
 10
0.0
 20
0.0
 30
0.0
  0
VERTEX
  5
85
330
84
100
AcDbEntity
  8
_U+30EC_U+30A4_U+30E4_U+30FC 1
 62
   179
420
  2234388
370
     9
100
AcDbVertex
100
AcDb2dVertex
 10
96.61440312831222
 20
-127.6291820630905
 30
0.0
  0
VERTEX
  5
86
330
84
100
AcDbEntity
  8
_U+30EC_U+30A4_U+30E4_U+30FC 1
 62
   179
420
  2234388
370
     9
100
AcDbVertex
100
AcDb2dVertex
 10
82.65428140481251
 20
-127.6291820630905
 30
0.0
  0
SEQEND
  5
87
330
84
100
AcDbEntity
  8
_U+30EC_U+30A4_U+30E4_U+30FC 1
 62
   179
420
  2234388
370
     9
  0
INSERT
  5
89
330
1F
100
AcDbEntity
  8
_U+30EC_U+30A4_U+30E4_U+30FC 1
100
AcDbBlockReference
  2
block 4
 10
0.0
 20
0.0
 30
0.0
  0
POLYLINE
  5
91
330
1F
100
AcDbEntity
  8
_U+30EC_U+30A4_U+30E4_U+30FC 1
 62
   179
420
  2234388
370
     9
100
AcDb2dPolyline
 66
     1
 10
0.0
 20
0.0
 30
0.0
  0
VERTEX
  5
92
330
91
100
AcDbEntity
  8
_U+30EC_U+30A4_U+30E4_U+30FC 1
 62
   179
420
  2234388
370
     9
100
AcDbVertex
100
AcDb2dVertex
 10
104.6547392265626
 20
-168.0573775824974
 30
0.0
  0
VERTEX
  5
93
330
91
100
AcDbEntity
  8
_U+30EC_U+30A4_U+30E4_U+30FC 1
 62
   179
420
  2234388
370
     9
100
AcDbVertex
100
AcDb2dVertex
 10
104.6547392265626
 20
-170.5176602255184
 30
0.0
  0
SEQEND
  5
94
330
91
100
AcDbEntity
  8
_U+30EC_U+30A4_U+30E4_U+30FC 1
 62
   179
420
  2234388
370
     9
  0
POLYLINE
  5
95
330
1F
100
AcDbEntity
  8
_U+30EC_U+30A4_U+30E4_U+30FC 1
 62
   179
420
  2234388
370
     9
100
AcDb2dPolyline
 66
     1
 10
0.0
 20
0.0
 30
0.0
  0
VERTEX
  5
96
330
95
100
AcDbEntity
  8
_U+30EC_U+30A4_U+30E4_U+30FC 1
 62
   179
420
  2234388
370
     9
100
AcDbVertex
100
AcDb2dVertex
 10
124.653852262063
 20
-155.5575053355952
 30
0.0
  0
VERTEX
  5
97
330
95
100
AcDbEntity
  8
_U+30EC_U+30A4_U+30E4_U+30FC 1
 62
   179
420
  2234388
370
     9
100
AcDbVertex
100
AcDb2dVertex
 10
124.653852262063
 20
-170.517401843357
 30
0.0
  0
SEQEND
  5
98
330
95
100
AcDbEntity
  8
_U+30EC_U+30A4_U+30E4_U+30FC 1
 62
   179
420
  2234388
370
     9
  0
INSERT
  5
9A
330
1F
100
AcDbEntity
  8
_U+30EC_U+30A4_U+30E4_U+30FC 1
100
AcDbBlockReference
  2
block 5
 10
0.0
 20
0.0
 30
0.0
  0
POLYLINE
  5
A2
330
1F
100
AcDbEntity
  8
_U+30EC_U+30A4_U+30E4_U+30FC 1
 62
   179
420
  2234388
370
     9
100
AcDb2dPolyline
 66
     1
 10
0.0
 20
0.0
 30
0.0
  0
VERTEX
  5
A3
330
A2
100
AcDbEntity
  8
_U+30EC_U+30A4_U+30E4_U+30FC 1
 62
   179
420
  2234388
370
     9
100
AcDbVertex
100
AcDb2dVertex
 10
95.83271634567073
 20
-156.2947773012855
 30
0.0
  0
VERTEX
  5
A4
330
A2
100
AcDbEntity
  8
_U+30EC_U+30A4_U+30E4_U+30FC 1
 62
   179
420
  2234388
370
     9
100
AcDbVertex
100
AcDb2dVertex
 10
92.39348559718836
 20
-159.7294298408457
 30
0.0
  0
SEQEND
  5
A5
330
A2
100
AcDbEntity
  8
_U+30EC_U+30A4_U+30E4_U+30FC 1
 62
   179
420
  2234388
370
     9
  0
POLYLINE
  5
A6
330
1F
100
AcDbEntity
  8
_U+30EC_U+30A4_U+30E4_U+30FC 1
 62
   179
420
  2234388
370
     9
100
AcDb2dPolyline
 66
     1
 10
0.0
 20
0.0
 30
0.0
  0
VERTEX
  5
A7
330
A6
100
AcDbEntity
  8
_U+30EC_U+30A4_U+30E4_U+30FC 1
 62
   179
420
  2234388
370
     9
100
AcDbVertex
100
AcDb2dVertex
 10
93.4326663525438
 20
-159.1293803347023
 30
0.0
  0
VERTEX
  5
A8
330
A6
100
AcDbEntity
  8
_U+30EC_U+30A4_U+30E4_U+30FC 1
 62
   179
420
  2234388
370
     9
100
AcDbVertex
100
AcDb2dVertex
 10
92.3933806294353
 20
-159.7294621386158
 30
0.0
  0
SEQEND
  5
A9
330
A6
100
AcDbEntity
  8
_U+30EC_U+30A4_U+30E4_U+30FC 1
 62
   179
420
  2234388
370
     9
  0
POLYLINE
  5
AA
330
1F
100
AcDbEntity
  8
_U+30EC_U+30A4_U+30E4_U+30FC 1
 62
   179
420
  2234388
370
     9
100
AcDb2dPolyline
 66
     1
 10
0.0
 20
0.0
 30
0.0
  0
VERTEX
  5
AB
330
AA
100
AcDbEntity
  8
_U+30EC_U+30A4_U+30E4_U+30FC 1
 62
   179
420
  2234388
370
     9
100
AcDbVertex
100
AcDb2dVertex
 10
92.99342206113614
 20
-158.689829214478
 30
0.0
  0
VERTEX
  5
AC
330
AA
100
AcDbEntity
  8
_U+30EC_U+30A4_U+30E4_U+30FC 1
 62
   179
420
  2234388
370
     9
100
AcDbVertex
100
AcDb2dVertex
 10
92.39334564018428
 20
-159.7294729045392
 30
0.0
  0
SEQEND
  5
AD
330
AA
100
AcDbEntity
  8
_U+30EC_U+30A4_U+30E4_U+30FC 1
 62
   179
420
  2234388
370
     9
  0
POLYLINE
  5
AE
330
1F
100
AcDbEntity
  8
_U+30EC_U+30A4_U+30E4_U+30FC 1
 62
   179
420
  2234388
370
     9
100
AcDb2dPolyline
 66
     1
 10
0.0
 20
0.0
 30
0.0
  0
VERTEX
  5
AF
330
AE
100
AcDbEntity
  8
_U+30EC_U+30A4_U+30E4_U+30FC 1
 62
   179
420
  2234388
370
     9
100
AcDbVertex
100
AcDb2dVertex
 10
95.83271634567073
 20
-156.2947773012855
 30
0.0
  0
VERTEX
  5
B0
330
AE
100
AcDbEntity
  8
_U+30EC_U+30A4_U+30E4_U+30FC 1
 62
   179
420
  2234388
370
     9
100
AcDbVertex
100
AcDb2dVertex
 10
100.4608037909384
 20
-156.2947773012855
 30
0.0
  0
SEQEND
  5
B1
330
AE
100
AcDbEntity
  8
_U+30EC_U+30A4_U+30E4_U+30FC 1
 62
   179
420
  2234388
370
     9
  0
INSERT
  5
B3
330
1F
100
AcDbEntity
  8
_U+30EC_U+30A4_U+30E4_U+30FC 1
100
AcDbBlockReference
  2
block 6
 10
0.0
 20
0.0
 30
0.0
  0
SPLINE
  5
BD
330
1F
100
AcDbEntity
  8
_U+30EC_U+30A4_U+30E4_U+30FC 1
 62
   179
420
  2234388
370
    25
100
AcDbSpline
210
0.0
220
0.0
230
1.0
 70
     8
 71
     3
 72
    14
 73
    10
 74
     0
 42
0.0000000001
 43
0.0000000001
 12
1.0
 22
0.0
 32
0.0
 13
1.0
 23
0.0
 33
0.0
 40
0.0
 40
0.0
 40
0.0
 40
0.0
 40
1.0
 40
1.0
 40
1.0
 40
2.0
 40
2.0
 40
2.0
 40
3.0
 40
3.0
 40
3.0
 40
3.0
 10
104.6647192375464
 20
-165.5176639566946
 30
0.0
 10
104.6647192375464
 20
-165.5176639566946
 30
0.0
 10
104.6647192375464
 20
-153.6280042476173
 30
0.0
 10
104.6647192375464
 20
-153.6280042476173
 30
0.0
 10
104.6647192375464
 20
-153.2752264699277
 30
0.0
 10
104.8834397371662
 20
-153.029332779668
 30
0.0
 10
105.1349693883216
 20
-153.029332779668
 30
0.0
 10
105.1349693883216
 20
-153.029332779668
 30
0.0
 10
124.6643974840249
 20
-153.029332779668
 30
0.0
 10
124.6643974840249
 20
-153.029332779668
 30
0.0
  0
SPLINE
  5
BE
330
1F
100
AcDbEntity
  8
_U+30EC_U+30A4_U+30E4_U+30FC 1
 62
   179
420
  2234388
370
    25
100
AcDbSpline
210
0.0
220
0.0
230
1.0
 70
     8
 71
     3
 72
    14
 73
    10
 74
     0
 42
0.0000000001
 43
0.0000000001
 12
1.0
 22
0.0
 32
0.0
 13
1.0
 23
0.0
 33
0.0
 40
0.0
 40
0.0
 40
0.0
 40
0.0
 40
1.0
 40
1.0
 40
1.0
 40
2.0
 40
2.0
 40
2.0
 40
3.0
 40
3.0
 40
3.0
 40
3.0
 10
86.67651112826712
 20
-147.5294208581643
 30
0.0
 10
86.67651112826712
 20
-147.5294208581643
 30
0.0
 10
98.68365128487228
 20
-147.5294208581643
 30
0.0
 10
98.68365128487228
 20
-147.5294208581643
 30
0.0
 10
99.00715113389893
 20
-147.5294208581643
 30
0.0
 10
99.16484499677455
 20
-147.3689117063222
 30
0.0
 10
99.16484499677455
 20
-147.0291822277827
 30
0.0
 10
99.16484499677455
 20
-147.0291822277827
 30
0.0
 10
99.16484499677455
 20
-127.5297479946475
 30
0.0
 10
99.16484499677455
 20
-127.5297479946475
 30
0.0
  0
POLYLINE
  5
BF
330
1F
100
AcDbEntity
  8
_U+30EC_U+30A4_U+30E4_U+30FC 1
 62
   179
420
  2234388
370
    25
100
AcDb2dPolyline
 66
     1
 10
0.0
 20
0.0
 30
0.0
  0
VERTEX
  5
C0
330
BF
100
AcDbEntity
  8
_U+30EC_U+30A4_U+30E4_U+30FC 1
 62
   179
420
  2234388
370
    25
100
AcDbVertex
100
AcDb2dVertex
 10
124.6645428239907
 20
-152.029415346921
 30
0.0
  0
VERTEX
  5
C1
330
BF
100
AcDbEntity
  8
_U+30EC_U+30A4_U+30E4_U+30FC 1
 62
   179
420
  2234388
370
    25
100
AcDbVertex
100
AcDb2dVertex
 10
124.6645428239907
 20
-153.0291928226639
 30
0.0
  0
SEQEND
  5
C2
330
BF
100
AcDbEntity
  8
_U+30EC_U+30A4_U+30E4_U+30FC 1
 62
   179
420
  2234388
370
    25
  0
POLYLINE
  5
C3
330
1F
100
AcDbEntity
  8
_U+30EC_U+30A4_U+30E4_U+30FC 1
 62
   179
420
  2234388
370
    25
100
AcDb2dPolyline
 66
     1
 10
0.0
 20
0.0
 30
0.0
  0
VERTEX
  5
C4
330
C3
100
AcDbEntity
  8
_U+30EC_U+30A4_U+30E4_U+30FC 1
 62
   179
420
  2234388
370
    25
100
AcDbVertex
100
AcDb2dVertex
 10
99.16498495377864
 20
-127.52959727172
 30
0.0
  0
VERTEX
  5
C5
330
C3
100
AcDbEntity
  8
_U+30EC_U+30A4_U+30E4_U+30FC 1
 62
   179
420
  2234388
370
    25
100
AcDbVertex
100
AcDb2dVertex
 10
100.1647570465598
 20
-127.52959727172
 30
0.0
  0
SEQEND
  5
C6
330
C3
100
AcDbEntity
  8
_U+30EC_U+30A4_U+30E4_U+30FC 1
 62
   179
420
  2234388
370
    25
  0
POLYLINE
  5
C7
330
1F
100
AcDbEntity
  8
_U+30EC_U+30A4_U+30E4_U+30FC 1
 62
   179
420
  2234388
370
    25
100
AcDb2dPolyline
 66
     1
 10
0.0
 20
0.0
 30
0.0
  0
VERTEX
  5
C8
330
C7
100
AcDbEntity
  8
_U+30EC_U+30A4_U+30E4_U+30FC 1
 62
   179
420
  2234388
370
    25
100
AcDbVertex
100
AcDb2dVertex
 10
103.6649471447655
 20
-152.029415346921
 30
0.0
  0
VERTEX
  5
C9
330
C7
100
AcDbEntity
  8
_U+30EC_U+30A4_U+30E4_U+30FC 1
 62
   179
420
  2234388
370
    25
100
AcDbVertex
100
AcDb2dVertex
 10
124.6643974840249
 20
-152.029415346921
 30
0.0
  0
SEQEND
  5
CA
330
C7
100
AcDbEntity
  8
_U+30EC_U+30A4_U+30E4_U+30FC 1
 62
   179
420
  2234388
370
    25
  0
POLYLINE
  5
CB
330
1F
100
AcDbEntity
  8
_U+30EC_U+30A4_U+30E4_U+30FC 1
 62
   179
420
  2234388
370
    25
100
AcDb2dPolyline
 66
     1
 10
0.0
 20
0.0
 30
0.0
  0
VERTEX
  5
CC
330
CB
100
AcDbEntity
  8
_U+30EC_U+30A4_U+30E4_U+30FC 1
 62
   179
420
  2234388
370
    25
100
AcDbVertex
100
AcDb2dVertex
 10
103.6649471447655
 20
-152.029415346921
 30
0.0
  0
VERTEX
  5
CD
330
CB
100
AcDbEntity
  8
_U+30EC_U+30A4_U+30E4_U+30FC 1
 62
   179
420
  2234388
370
    25
100
AcDbVertex
100
AcDb2dVertex
 10
103.6649471447655
 20
-164.2175387501782
 30
0.0
  0
SEQEND
  5
CE
330
CB
100
AcDbEntity
  8
_U+30EC_U+30A4_U+30E4_U+30FC 1
 62
   179
420
  2234388
370
    25
  0
POLYLINE
  5
CF
330
1F
100
AcDbEntity
  8
_U+30EC_U+30A4_U+30E4_U+30FC 1
 62
   179
420
  2234388
370
    25
100
AcDb2dPolyline
 66
     1
 10
0.0
 20
0.0
 30
0.0
  0
VERTEX
  5
D0
330
CF
100
AcDbEntity
  8
_U+30EC_U+30A4_U+30E4_U+30FC 1
 62
   179
420
  2234388
370
    25
100
AcDbVertex
100
AcDb2dVertex
 10
87.9770265995064
 20
-148.5291875679838
 30
0.0
  0
VERTEX
  5
D1
330
CF
100
AcDbEntity
  8
_U+30EC_U+30A4_U+30E4_U+30FC 1
 62
   179
420
  2234388
370
    25
100
AcDbVertex
100
AcDb2dVertex
 10
100.16478934433
 20
-148.5291875679838
 30
0.0
  0
SEQEND
  5
D2
330
CF
100
AcDbEntity
  8
_U+30EC_U+30A4_U+30E4_U+30FC 1
 62
   179
420
  2234388
370
    25
  0
POLYLINE
  5
D3
330
1F
100
AcDbEntity
  8
_U+30EC_U+30A4_U+30E4_U+30FC 1
 62
   179
420
  2234388
370
    25
100
AcDb2dPolyline
 66
     1
 10
0.0
 20
0.0
 30
0.0
  0
VERTEX
  5
D4
330
D3
100
AcDbEntity
  8
_U+30EC_U+30A4_U+30E4_U+30FC 1
 62
   179
420
  2234388
370
    25
100
AcDbVertex
100
AcDb2dVertex
 10
100.1647247487897
 20
-127.52959727172
 30
0.0
  0
VERTEX
  5
D5
330
D3
100
AcDbEntity
  8
_U+30EC_U+30A4_U+30E4_U+30FC 1
 62
   179
420
  2234388
370
    25
100
AcDbVertex
100
AcDb2dVertex
 10
100.1647247487897
 20
-148.5290476109801
 30
0.0
  0
SEQEND
  5
D6
330
D3
100
AcDbEntity
  8
_U+30EC_U+30A4_U+30E4_U+30FC 1
 62
   179
420
  2234388
370
    25
  0
SPLINE
  5
D7
330
1F
100
AcDbEntity
  8
_U+30EC_U+30A4_U+30E4_U+30FC 1
 62
   179
420
  2234388
370
    25
100
AcDbSpline
210
0.0
220
0.0
230
1.0
 70
     8
 71
     3
 72
    11
 73
     7
 74
     0
 42
0.0000000001
 43
0.0000000001
 12
1.0
 22
0.0
 32
0.0
 13
1.0
 23
0.0
 33
0.0
 40
0.0
 40
0.0
 40
0.0
 40
0.0
 40
1.0
 40
1.0
 40
1.0
 40
2.0
 40
2.0
 40
2.0
 40
2.0
 10
86.67651112826712
 20
-147.5294208581643
 30
0.0
 10
86.89099792851326
 20
-151.6812669162898
 30
0.0
 10
89.14348479267588
 20
-156.535137306922
 30
0.0
 10
92.26415725096825
 20
-159.9299128662404
 30
0.0
 10
95.38482701777977
 20
-163.3243439160103
 30
0.0
 10
100.3512336056224
 20
-165.2593356249178
 30
0.0
 10
104.6646492590444
 20
-165.5175670633841
 30
0.0
  0
SPLINE
  5
D8
330
1F
100
AcDbEntity
  8
_U+30EC_U+30A4_U+30E4_U+30FC 1
 62
   179
420
  2234388
370
    25
100
AcDbSpline
210
0.0
220
0.0
230
1.0
 70
     8
 71
     3
 72
    11
 73
     7
 74
     0
 42
0.0000000001
 43
0.0000000001
 12
1.0
 22
0.0
 32
0.0
 13
1.0
 23
0.0
 33
0.0
 40
0.0
 40
0.0
 40
0.0
 40
0.0
 40
1.0
 40
1.0
 40
1.0
 40
2.0
 40
2.0
 40
2.0
 40
2.0
 10
87.9770265995064
 20
-148.5291875679838
 30
0.0
 10
88.4222298295112
 20
-151.8894045132158
 30
0.0
 10
90.49585971689156
 20
-156.0024394175152
 30
0.0
 10
93.22177267922956
 20
-158.9728222767444
 30
0.0
 10
95.94768564156756
 20
-161.943215901897
 30
0.0
 10
100.3044933492186
 20
-163.7720125424717
 30
0.0
 10
103.6650548039991
 20
-164.2175710479484
 30
0.0
  0
ENDSEC
  0
SECTION
  2
OBJECTS
  0
DICTIONARY
  5
C
330
0
100
AcDbDictionary
281
     1
  3
ACAD_GROUP
350
D
  3
ACAD_LAYOUT
350
1A
  3
ACAD_MATERIAL
350
3B
  3
ACAD_MLEADERSTYLE
350
DA
  3
ACAD_MLINESTYLE
350
17
  3
ACAD_PLOTSETTINGS
350
19
  3
ACAD_PLOTSTYLENAME
350
E
  3
ACAD_TABLESTYLE
350
D9
  3
ACAD_VISUALSTYLE
350
2A
  0
SUN
  5
3F
330
29
100
AcDbSun
 90
        1
290
     0
 63
     7
421
 16777215
 40
1.0
291
     1
 91
  2455826
 92
 54000000
292
     0
 70
     2
 71
   256
280
     1
  0
DICTIONARY
  5
D
102
{ACAD_REACTORS
330
C
102
}
330
C
100
AcDbDictionary
281
     1
  0
DICTIONARY
  5
1A
102
{ACAD_REACTORS
330
C
102
}
330
C
100
AcDbDictionary
281
     1
  3
Layout1
350
1E
  3
Layout2
350
26
  3
Model
350
22
  0
DICTIONARY
  5
3B
102
{ACAD_REACTORS
330
C
102
}
330
C
100
AcDbDictionary
281
     1
  3
ByBlock
350
3D
  3
ByLayer
350
3C
  3
Global
350
3E
  0
DICTIONARY
  5
DA
102
{ACAD_REACTORS
330
C
102
}
330
C
100
AcDbDictionary
281
     1
  0
DICTIONARY
  5
17
102
{ACAD_REACTORS
330
C
102
}
330
C
100
AcDbDictionary
281
     1
  3
Standard
350
18
  0
DICTIONARY
  5
19
102
{ACAD_REACTORS
330
C
102
}
330
C
100
AcDbDictionary
281
     1
  0
ACDBDICTIONARYWDFLT
  5
E
102
{ACAD_REACTORS
330
C
102
}
330
C
100
AcDbDictionary
281
     1
  3
Normal
350
F
100
AcDbDictionaryWithDefault
340
F
  0
DICTIONARY
  5
D9
102
{ACAD_REACTORS
330
C
102
}
330
C
100
AcDbDictionary
281
     1
  0
DICTIONARY
  5
2A
102
{ACAD_REACTORS
330
C
102
}
330
C
100
AcDbDictionary
281
     1
  3
2dWireframe
350
2F
  3
3D Hidden
350
31
  3
3dWireframe
350
30
  3
Basic
350
32
  3
Brighten
350
36
  3
ColorChange
350
3A
  3
Conceptual
350
34
  3
Dim
350
35
  3
Facepattern
350
39
  3
Flat
350
2B
  3
FlatWithEdges
350
2C
  3
Gouraud
350
2D
  3
GouraudWithEdges
350
2E
  3
Linepattern
350
38
  3
Realistic
350
33
  3
Thicken
350
37
  0
LAYOUT
  5
1E
102
{ACAD_REACTORS
330
1A
102
}
330
1A
100
AcDbPlotSettings
  1

  2
none_device
  4

  6

 40
0.0
 41
0.0
 42
0.0
 43
0.0
 44
0.0
 45
0.0
 46
0.0
 47
0.0
 48
0.0
 49
0.0
140
0.0
141
0.0
142
1.0
143
1.0
 70
   688
 72
     0
 73
     0
 74
     5
  7

 75
    16
 76
     0
 77
     2
 78
   300
147
1.0
148
0.0
149
0.0
100
AcDbLayout
  1
Layout1
 70
     1
 71
     1
 10
0.0
 20
0.0
 11
12.0
 21
9.0
 12
0.0
 22
0.0
 32
0.0
 14
1.000000000000000E+20
 24
1.000000000000000E+20
 34
1.000000000000000E+20
 15
-1.000000000000000E+20
 25
-1.000000000000000E+20
 35
-1.000000000000000E+20
146
0.0
 13
0.0
 23
0.0
 33
0.0
 16
1.0
 26
0.0
 36
0.0
 17
0.0
 27
1.0
 37
0.0
 76
     0
330
1B
  0
LAYOUT
  5
26
102
{ACAD_REACTORS
330
1A
102
}
330
1A
100
AcDbPlotSettings
  1

  2
none_device
  4

  6

 40
0.0
 41
0.0
 42
0.0
 43
0.0
 44
0.0
 45
0.0
 46
0.0
 47
0.0
 48
0.0
 49
0.0
140
0.0
141
0.0
142
1.0
143
1.0
 70
   688
 72
     0
 73
     0
 74
     5
  7

 75
    16
 76
     0
 77
     2
 78
   300
147
1.0
148
0.0
149
0.0
100
AcDbLayout
  1
Layout2
 70
     1
 71
     2
 10
0.0
 20
0.0
 11
0.0
 21
0.0
 12
0.0
 22
0.0
 32
0.0
 14
0.0
 24
0.0
 34
0.0
 15
0.0
 25
0.0
 35
0.0
146
0.0
 13
0.0
 23
0.0
 33
0.0
 16
1.0
 26
0.0
 36
0.0
 17
0.0
 27
1.0
 37
0.0
 76
     0
330
23
  0
LAYOUT
  5
22
102
{ACAD_REACTORS
330
1A
102
}
330
1A
100
AcDbPlotSettings
  1

  2
none_device
  4

  6

 40
0.0
 41
0.0
 42
0.0
 43
0.0
 44
0.0
 45
0.0
 46
0.0
 47
0.0
 48
0.0
 49
0.0
140
0.0
141
0.0
142
1.0
143
1.0
 70
  1712
 72
     0
 73
     0
 74
     0
  7

 75
     0
 76
     0
 77
     2
 78
   300
147
1.0
148
0.0
149
0.0
100
AcDbLayout
  1
Model
 70
     1
 71
     0
 10
0.0
 20
0.0
 11
12.0
 21
9.0
 12
0.0
 22
0.0
 32
0.0
 14
1.000000000000000E+20
 24
1.000000000000000E+20
 34
1.000000000000000E+20
 15
-1.000000000000000E+20
 25
-1.000000000000000E+20
 35
-1.000000000000000E+20
146
0.0
 13
0.0
 23
0.0
 33
0.0
 16
1.0
 26
0.0
 36
0.0
 17
0.0
 27
1.0
 37
0.0
 76
     0
330
1F
331
29
  0
MATERIAL
  5
3D
102
{ACAD_REACTORS
330
3B
102
}
330
3B
100
AcDbMaterial
  1
ByBlock
 72
     1
 94
      127
  0
MATERIAL
  5
3C
102
{ACAD_REACTORS
330
3B
102
}
330
3B
100
AcDbMaterial
  1
ByLayer
 72
     1
 94
      127
  0
MATERIAL
  5
3E
102
{ACAD_REACTORS
330
3B
102
}
330
3B
100
AcDbMaterial
  1
Global
 72
     1
 94
      127
  0
MLINESTYLE
  5
18
102
{ACAD_REACTORS
330
17
102
}
330
17
100
AcDbMlineStyle
  2
Standard
 70
     0
  3

 62
   256
 51
90.0
 52
90.0
 71
     2
 49
0.5
 62
   256
  6
BYLAYER
 49
-0.5
 62
   256
  6
BYLAYER
  0
ACDBPLACEHOLDER
  5
F
102
{ACAD_REACTORS
330
E
102
}
330
E
  0
VISUALSTYLE
  5
2F
102
{ACAD_REACTORS
330
2A
102
}
330
2A
100
AcDbVisualStyle
  2
2dWireframe
 70
     4
177
     2
291
     0
 71
     0
176
     1
 72
     2
176
     1
 73
     0
176
     1
 90
        0
176
     1
 40
-0.6
176
     1
 41
-30.0
176
     1
 62
     5
 63
     7
421
 16777215
176
     1
 74
     1
176
     1
 91
        4
176
     1
 64
     7
176
     1
 65
   257
176
     1
 75
     1
176
     1
175
     1
176
     1
 42
1.0
176
     1
 92
        0
176
     1
 66
   257
176
     1
 43
1.0
176
     1
 76
     1
176
     1
 77
     6
176
     1
 78
     2
176
     1
 67
     7
176
     1
 79
     5
176
     1
170
     0
176
     1
171
     0
176
     1
290
     0
176
     1
 93
        1
176
     1
 44
0.0
176
     1
173
     0
176
     1
  0
VISUALSTYLE
  5
31
102
{ACAD_REACTORS
330
2A
102
}
330
2A
100
AcDbVisualStyle
  2
3D Hidden
 70
     6
177
     2
291
     0
 71
     1
176
     1
 72
     2
176
     1
 73
     2
176
     1
 90
        0
176
     1
 40
-0.6
176
     1
 41
-30.0
176
     1
 62
     5
 63
     7
421
 16777215
176
     1
 74
     2
176
     1
 91
        2
176
     1
 64
     7
176
     1
 65
   257
176
     1
 75
     2
176
     1
175
     1
176
     1
 42
40.0
176
     1
 92
        0
176
     1
 66
   257
176
     1
 43
1.0
176
     1
 76
     1
176
     1
 77
     6
176
     1
 78
     2
176
     1
 67
     7
176
     1
 79
     3
176
     1
170
     0
176
     1
171
     0
176
     1
290
     0
176
     1
 93
        1
176
     1
 44
0.0
176
     1
173
     0
176
     1
  0
VISUALSTYLE
  5
30
102
{ACAD_REACTORS
330
2A
102
}
330
2A
100
AcDbVisualStyle
  2
3dWireframe
 70
     5
177
     2
291
     0
 71
     0
176
     1
 72
     2
176
     1
 73
     0
176
     1
 90
        0
176
     1
 40
-0.6
176
     1
 41
-30.0
176
     1
 62
     5
 63
     7
421
 16777215
176
     1
 74
     1
176
     1
 91
        4
176
     1
 64
     7
176
     1
 65
   257
176
     1
 75
     1
176
     1
175
     1
176
     1
 42
1.0
176
     1
 92
        0
176
     1
 66
   257
176
     1
 43
1.0
176
     1
 76
     1
176
     1
 77
     6
176
     1
 78
     2
176
     1
 67
     7
176
     1
 79
     5
176
     1
170
     0
176
     1
171
     0
176
     1
290
     0
176
     1
 93
        1
176
     1
 44
0.0
176
     1
173
     0
176
     1
  0
VISUALSTYLE
  5
32
102
{ACAD_REACTORS
330
2A
102
}
330
2A
100
AcDbVisualStyle
  2
Basic
 70
     7
177
     2
291
     1
 71
     1
176
     1
 72
     0
176
     1
 73
     1
176
     1
 90
        0
176
     1
 40
-0.6
176
     1
 41
-30.0
176
     1
 62
     5
 63
     7
421
 16777215
176
     1
 74
     0
176
     1
 91
        4
176
     1
 64
     7
176
     1
 65
   257
176
     1
 75
     1
176
     1
175
     1
176
     1
 42
1.0
176
     1
 92
        8
176
     1
 66
     7
176
     1
 43
1.0
176
     1
 76
     1
176
     1
 77
     6
176
     1
 78
     2
176
     1
 67
     7
176
     1
 79
     5
176
     1
170
     0
176
     1
171
     0
176
     1
290
     0
176
     1
 93
        1
176
     1
 44
0.0
176
     1
173
     0
176
     1
  0
VISUALSTYLE
  5
36
102
{ACAD_REACTORS
330
2A
102
}
330
2A
100
AcDbVisualStyle
  2
Brighten
 70
    12
177
     2
291
     1
 71
     2
176
     1
 72
     2
176
     1
 73
     0
176
     1
 90
        0
176
     1
 40
-0.6
176
     1
 41
-30.0
176
     1
 62
     5
 63
     7
421
 16777215
176
     1
 74
     1
176
     1
 91
        4
176
     1
 64
     7
176
     1
 65
   257
176
     1
 75
     1
176
     1
175
     1
176
     1
 42
1.0
176
     1
 92
        8
176
     1
 66
     7
176
     1
 43
1.0
176
     1
 76
     1
176
     1
 77
     6
176
     1
 78
     2
176
     1
 67
     7
176
     1
 79
     5
176
     1
170
     0
176
     1
171
     0
176
     1
290
     0
176
     1
 93
        1
176
     1
 44
50.0
176
     1
173
     0
176
     1
  0
VISUALSTYLE
  5
3A
102
{ACAD_REACTORS
330
2A
102
}
330
2A
100
AcDbVisualStyle
  2
ColorChange
 70
    16
177
     2
291
     1
 71
     2
176
     1
 72
     2
176
     1
 73
     3
176
     1
 90
        0
176
     1
 40
-0.6
176
     1
 41
-30.0
176
     1
 62
     5
 63
     8
421
  8421504
176
     1
 74
     1
176
     1
 91
        4
176
     1
 64
     7
176
     1
 65
   257
176
     1
 75
     1
176
     1
175
     1
176
     1
 42
1.0
176
     1
 92
        8
176
     1
 66
     8
424
  8421504
176
     1
 43
1.0
176
     1
 76
     1
176
     1
 77
     6
176
     1
 78
     2
176
     1
 67
     7
176
     1
 79
     5
176
     1
170
     0
176
     1
171
     0
176
     1
290
     0
176
     1
 93
        1
176
     1
 44
0.0
176
     1
173
     0
176
     1
  0
VISUALSTYLE
  5
34
102
{ACAD_REACTORS
330
2A
102
}
330
2A
100
AcDbVisualStyle
  2
Conceptual
 70
     9
177
     2
291
     0
 71
     3
176
     1
 72
     2
176
     1
 73
     0
176
     1
 90
        0
176
     1
 40
-0.6
176
     1
 41
-30.0
176
     1
 62
     5
 63
     7
421
 16777215
176
     1
 74
     2
176
     1
 91
        2
176
     1
 64
     7
176
     1
 65
   257
176
     1
 75
     1
176
     1
175
     1
176
     1
 42
40.0
176
     1
 92
        8
176
     1
 66
     7
176
     1
 43
1.0
176
     1
 76
     1
176
     1
 77
     6
176
     1
 78
     2
176
     1
 67
     7
176
     1
 79
     3
176
     1
170
     0
176
     1
171
     0
176
     1
290
     0
176
     1
 93
        1
176
     1
 44
0.0
176
     1
173
     0
176
     1
  0
VISUALSTYLE
  5
35
102
{ACAD_REACTORS
330
2A
102
}
330
2A
100
AcDbVisualStyle
  2
Dim
 70
    11
177
     2
291
     1
 71
     2
176
     1
 72
     2
176
     1
 73
     0
176
     1
 90
        0
176
     1
 40
-0.6
176
     1
 41
-30.0
176
     1
 62
     5
 63
     7
421
 16777215
176
     1
 74
     1
176
     1
 91
        4
176
     1
 64
     7
176
     1
 65
   257
176
     1
 75
     1
176
     1
175
     1
176
     1
 42
1.0
176
     1
 92
        8
176
     1
 66
     7
176
     1
 43
1.0
176
     1
 76
     1
176
     1
 77
     6
176
     1
 78
     2
176
     1
 67
     7
176
     1
 79
     5
176
     1
170
     0
176
     1
171
     0
176
     1
290
     0
176
     1
 93
        1
176
     1
 44
-50.0
176
     1
173
     0
176
     1
  0
VISUALSTYLE
  5
39
102
{ACAD_REACTORS
330
2A
102
}
330
2A
100
AcDbVisualStyle
  2
Facepattern
 70
    15
177
     2
291
     1
 71
     2
176
     1
 72
     2
176
     1
 73
     0
176
     1
 90
        0
176
     1
 40
-0.6
176
     1
 41
-30.0
176
     1
 62
     5
 63
     7
421
 16777215
176
     1
 74
     1
176
     1
 91
        4
176
     1
 64
     7
176
     1
 65
   257
176
     1
 75
     1
176
     1
175
     1
176
     1
 42
1.0
176
     1
 92
        8
176
     1
 66
     7
176
     1
 43
1.0
176
     1
 76
     1
176
     1
 77
     6
176
     1
 78
     2
176
     1
 67
     7
176
     1
 79
     5
176
     1
170
     0
176
     1
171
     0
176
     1
290
     0
176
     1
 93
        1
176
     1
 44
0.0
176
     1
173
     0
176
     1
  0
VISUALSTYLE
  5
2B
102
{ACAD_REACTORS
330
2A
102
}
330
2A
100
AcDbVisualStyle
  2
Flat
 70
     0
177
     2
291
     1
 71
     2
176
     1
 72
     1
176
     1
 73
     1
176
     1
 90
        2
176
     1
 40
-0.6
176
     1
 41
30.0
176
     1
 62
     5
 63
     7
421
 16777215
176
     1
 74
     0
176
     1
 91
        4
176
     1
 64
     7
176
     1
 65
   257
176
     1
 75
     1
176
     1
175
     1
176
     1
 42
1.0
176
     1
 92
        8
176
     1
 66
     7
176
     1
 43
1.0
176
     1
 76
     1
176
     1
 77
     6
176
     1
 78
     2
176
     1
 67
     7
176
     1
 79
     5
176
     1
170
     0
176
     1
171
     0
176
     1
290
     0
176
     1
 93
       13
176
     1
 44
0.0
176
     1
173
     0
176
     1
  0
VISUALSTYLE
  5
2C
102
{ACAD_REACTORS
330
2A
102
}
330
2A
100
AcDbVisualStyle
  2
FlatWithEdges
 70
     1
177
     2
291
     1
 71
     2
176
     1
 72
     1
176
     1
 73
     1
176
     1
 90
        2
176
     1
 40
-0.6
176
     1
 41
30.0
176
     1
 62
     5
 63
     7
421
 16777215
176
     1
 74
     1
176
     1
 91
        4
176
     1
 64
     7
176
     1
 65
   257
176
     1
 75
     1
176
     1
175
     1
176
     1
 42
1.0
176
     1
 92
        0
176
     1
 66
   257
176
     1
 43
1.0
176
     1
 76
     1
176
     1
 77
     6
176
     1
 78
     2
176
     1
 67
     7
176
     1
 79
     5
176
     1
170
     0
176
     1
171
     0
176
     1
290
     0
176
     1
 93
       13
176
     1
 44
0.0
176
     1
173
     0
176
     1
  0
VISUALSTYLE
  5
2D
102
{ACAD_REACTORS
330
2A
102
}
330
2A
100
AcDbVisualStyle
  2
Gouraud
 70
     2
177
     2
291
     1
 71
     2
176
     1
 72
     2
176
     1
 73
     1
176
     1
 90
        2
176
     1
 40
-0.6
176
     1
 41
30.0
176
     1
 62
     5
 63
     7
421
 16777215
176
     1
 74
     0
176
     1
 91
        4
176
     1
 64
     7
176
     1
 65
   257
176
     1
 75
     1
176
     1
175
     1
176
     1
 42
1.0
176
     1
 92
        0
176
     1
 66
     7
176
     1
 43
1.0
176
     1
 76
     1
176
     1
 77
     6
176
     1
 78
     2
176
     1
 67
     7
176
     1
 79
     5
176
     1
170
     0
176
     1
171
     0
176
     1
290
     0
176
     1
 93
       13
176
     1
 44
0.0
176
     1
173
     0
176
     1
  0
VISUALSTYLE
  5
2E
102
{ACAD_REACTORS
330
2A
102
}
330
2A
100
AcDbVisualStyle
  2
GouraudWithEdges
 70
     3
177
     2
291
     1
 71
     2
176
     1
 72
     2
176
     1
 73
     1
176
     1
 90
        2
176
     1
 40
-0.6
176
     1
 41
30.0
176
     1
 62
     5
 63
     7
421
 16777215
176
     1
 74
     1
176
     1
 91
        4
176
     1
 64
     7
176
     1
 65
   257
176
     1
 75
     1
176
     1
175
     1
176
     1
 42
1.0
176
     1
 92
        0
176
     1
 66
   257
176
     1
 43
1.0
176
     1
 76
     1
176
     1
 77
     6
176
     1
 78
     2
176
     1
 67
     7
176
     1
 79
     5
176
     1
170
     0
176
     1
171
     0
176
     1
290
     0
176
     1
 93
       13
176
     1
 44
0.0
176
     1
173
     0
176
     1
  0
VISUALSTYLE
  5
38
102
{ACAD_REACTORS
330
2A
102
}
330
2A
100
AcDbVisualStyle
  2
Linepattern
 70
    14
177
     2
291
     1
 71
     2
176
     1
 72
     2
176
     1
 73
     0
176
     1
 90
        0
176
     1
 40
-0.6
176
     1
 41
-30.0
176
     1
 62
     5
 63
     7
421
 16777215
176
     1
 74
     1
176
     1
 91
        4
176
     1
 64
     7
176
     1
 65
   257
176
     1
 75
     7
176
     1
175
     7
176
     1
 42
1.0
176
     1
 92
        8
176
     1
 66
     7
176
     1
 43
1.0
176
     1
 76
     1
176
     1
 77
     6
176
     1
 78
     2
176
     1
 67
     7
176
     1
 79
     5
176
     1
170
     0
176
     1
171
     0
176
     1
290
     0
176
     1
 93
        1
176
     1
 44
0.0
176
     1
173
     0
176
     1
  0
VISUALSTYLE
  5
33
102
{ACAD_REACTORS
330
2A
102
}
330
2A
100
AcDbVisualStyle
  2
Realistic
 70
     8
177
     2
291
     0
 71
     2
176
     1
 72
     2
176
     1
 73
     0
176
     1
 90
        0
176
     1
 40
-0.6
176
     1
 41
-30.0
176
     1
 62
     5
 63
     7
421
 16777215
176
     1
 74
     1
176
     1
 91
        0
176
     1
 64
     7
176
     1
 65
   257
176
     1
 75
     1
176
     1
175
     1
176
     1
 42
1.0
176
     1
 92
        8
176
     1
 66
     8
424
  7895160
176
     1
 43
1.0
176
     1
 76
     1
176
     1
 77
     6
176
     1
 78
     2
176
     1
 67
     7
176
     1
 79
     5
176
     1
170
     0
176
     1
171
     0
176
     1
290
     0
176
     1
 93
       13
176
     1
 44
0.0
176
     1
173
     0
176
     1
  0
VISUALSTYLE
  5
37
102
{ACAD_REACTORS
330
2A
102
}
330
2A
100
AcDbVisualStyle
  2
Thicken
 70
    13
177
     2
291
     1
 71
     2
176
     1
 72
     2
176
     1
 73
     0
176
     1
 90
        0
176
     1
 40
-0.6
176
     1
 41
-30.0
176
     1
 62
     5
 63
     7
421
 16777215
176
     1
 74
     1
176
     1
 91
        4
176
     1
 64
     7
176
     1
 65
   257
176
     1
 75
     1
176
     1
175
     1
176
     1
 42
1.0
176
     1
 92
       12
176
     1
 66
     7
176
     1
 43
1.0
176
     1
 76
     1
176
     1
 77
     6
176
     1
 78
     2
176
     1
 67
     7
176
     1
 79
     5
176
     1
170
     0
176
     1
171
     0
176
     1
290
     0
176
     1
 93
        1
176
     1
 44
0.0
176
     1
173
     0
176
     1
  0
ENDSEC
  0
EOF
