  0
SECTION
  2
HEADER
  9
$ACADVER
  1
AC1024
  9
$ACADMAINTVER
 70
     6
  9
$DWGCODEPAGE
  3
UNDEFINED
  9
$INSBASE
 10
0.0
 20
0.0
 30
0.0
  9
$EXTMIN
 10
1.000000000000000E+20
 20
1.000000000000000E+20
 30
1.000000000000000E+20
  9
$EXTMAX
 10
-1.000000000000000E+20
 20
-1.000000000000000E+20
 30
-1.000000000000000E+20
  9
$LIMMIN
 10
0.0
 20
0.0
  9
$LIMMAX
 10
12.0
 20
9.0
  9
$ORTHOMODE
 70
     0
  9
$REGENMODE
 70
     1
  9
$FILLMODE
 70
     1
  9
$QTEXTMODE
 70
     0
  9
$MIRRTEXT
 70
     1
  9
$LTSCALE
 40
1.0
  9
$ATTMODE
 70
     1
  9
$TEXTSIZE
 40
0.2
  9
$TRACEWID
 40
0.05
  9
$TEXTSTYLE
  7
Standard
  9
$CLAYER
  8
0
  9
$CELTYPE
  6
ByLayer
  9
$CECOLOR
 62
   256
  9
$CELTSCALE
 40
1.0
  9
$DISPSILH
 70
     0
  9
$DIMSCALE
 40
1.0
  9
$DIMASZ
 40
0.18
  9
$DIMEXO
 40
0.0625
  9
$DIMDLI
 40
0.38
  9
$DIMRND
 40
0.0
  9
$DIMDLE
 40
0.0
  9
$DIMEXE
 40
0.18
  9
$DIMTP
 40
0.0
  9
$DIMTM
 40
0.0
  9
$DIMTXT
 40
0.18
  9
$DIMCEN
 40
0.09
  9
$DIMTSZ
 40
0.0
  9
$DIMTOL
 70
     0
  9
$DIMLIM
 70
     0
  9
$DIMTIH
 70
     1
  9
$DIMTOH
 70
     1
  9
$DIMSE1
 70
     0
  9
$DIMSE2
 70
     0
  9
$DIMTAD
 70
     0
  9
$DIMZIN
 70
     0
  9
$DIMBLK
  1

  9
$DIMASO
 70
     1
  9
$DIMSHO
 70
     1
  9
$DIMPOST
  1

  9
$DIMAPOST
  1

  9
$DIMALT
 70
     0
  9
$DIMALTD
 70
     2
  9
$DIMALTF
 40
25.4
  9
$DIMLFAC
 40
1.0
  9
$DIMTOFL
 70
     0
  9
$DIMTVP
 40
0.0
  9
$DIMTIX
 70
     0
  9
$DIMSOXD
 70
     0
  9
$DIMSAH
 70
     0
  9
$DIMBLK1
  1

  9
$DIMBLK2
  1

  9
$DIMSTYLE
  2
Standard
  9
$DIMCLRD
 70
     0
  9
$DIMCLRE
 70
     0
  9
$DIMCLRT
 70
     0
  9
$DIMTFAC
 40
1.0
  9
$DIMGAP
 40
0.09
  9
$DIMJUST
 70
     0
  9
$DIMSD1
 70
     0
  9
$DIMSD2
 70
     0
  9
$DIMTOLJ
 70
     1
  9
$DIMTZIN
 70
     0
  9
$DIMALTZ
 70
     0
  9
$DIMALTTZ
 70
     0
  9
$DIMUPT
 70
     0
  9
$DIMDEC
 70
     4
  9
$DIMTDEC
 70
     4
  9
$DIMALTU
 70
     2
  9
$DIMALTTD
 70
     2
  9
$DIMTXSTY
  7
Standard
  9
$DIMAUNIT
 70
     0
  9
$DIMADEC
 70
     0
  9
$DIMALTRND
 40
0.0
  9
$DIMAZIN
 70
     0
  9
$DIMDSEP
 70
    46
  9
$DIMATFIT
 70
     3
  9
$DIMFRAC
 70
     0
  9
$DIMLDRBLK
  1

  9
$DIMLUNIT
 70
     2
  9
$DIMLWD
 70
    -2
  9
$DIMLWE
 70
    -2
  9
$DIMTMOVE
 70
     0
  9
$DIMFXL
 40
1.0
  9
$DIMFXLON
 70
     0
  9
$DIMJOGANG
 40
0.7853981633974483
  9
$DIMTFILL
 70
     0
  9
$DIMTFILLCLR
 70
     0
  9
$DIMARCSYM
 70
     0
  9
$DIMLTYPE
  6

  9
$DIMLTEX1
  6

  9
$DIMLTEX2
  6

  9
$DIMTXTDIRECTION
 70
     0
  9
$LUNITS
 70
     2
  9
$LUPREC
 70
     4
  9
$SKETCHINC
 40
0.1
  9
$FILLETRAD
 40
0.5
  9
$AUNITS
 70
     0
  9
$AUPREC
 70
     0
  9
$MENU
  1
.
  9
$ELEVATION
 40
0.0
  9
$PELEVATION
 40
0.0
  9
$THICKNESS
 40
0.0
  9
$LIMCHECK
 70
     0
  9
$CHAMFERA
 40
0.5
  9
$CHAMFERB
 40
0.5
  9
$CHAMFERC
 40
1.0
  9
$CHAMFERD
 40
0.0
  9
$SKPOLY
 70
     0
  9
$TDCREATE
 40
2458263.574421296
  9
$TDUCREATE
 40
2458263.199421296
  9
$TDUPDATE
 40
2458263.574421296
  9
$TDUUPDATE
 40
2458263.199421296
  9
$TDINDWG
 40
0.0000000116
  9
$TDUSRTIMER
 40
0.0000000116
  9
$USRTIMER
 70
     1
  9
$ANGBASE
 50
0.0
  9
$ANGDIR
 70
     0
  9
$PDMODE
 70
     0
  9
$PDSIZE
 40
0.0
  9
$PLINEWID
 40
0.0
  9
$SPLFRAME
 70
     0
  9
$SPLINETYPE
 70
     6
  9
$SPLINESEGS
 70
     8
  9
$HANDSEED
  5
D8
  9
$SURFTAB1
 70
     6
  9
$SURFTAB2
 70
     6
  9
$SURFTYPE
 70
     6
  9
$SURFU
 70
     6
  9
$SURFV
 70
     6
  9
$UCSBASE
  2

  9
$UCSNAME
  2

  9
$UCSORG
 10
0.0
 20
0.0
 30
0.0
  9
$UCSXDIR
 10
1.0
 20
0.0
 30
0.0
  9
$UCSYDIR
 10
0.0
 20
1.0
 30
0.0
  9
$UCSORTHOREF
  2

  9
$UCSORTHOVIEW
 70
     0
  9
$UCSORGTOP
 10
0.0
 20
0.0
 30
0.0
  9
$UCSORGBOTTOM
 10
0.0
 20
0.0
 30
0.0
  9
$UCSORGLEFT
 10
0.0
 20
0.0
 30
0.0
  9
$UCSORGRIGHT
 10
0.0
 20
0.0
 30
0.0
  9
$UCSORGFRONT
 10
0.0
 20
0.0
 30
0.0
  9
$UCSORGBACK
 10
0.0
 20
0.0
 30
0.0
  9
$PUCSBASE
  2

  9
$PUCSNAME
  2

  9
$PUCSORG
 10
0.0
 20
0.0
 30
0.0
  9
$PUCSXDIR
 10
1.0
 20
0.0
 30
0.0
  9
$PUCSYDIR
 10
0.0
 20
1.0
 30
0.0
  9
$PUCSORTHOREF
  2

  9
$PUCSORTHOVIEW
 70
     0
  9
$PUCSORGTOP
 10
0.0
 20
0.0
 30
0.0
  9
$PUCSORGBOTTOM
 10
0.0
 20
0.0
 30
0.0
  9
$PUCSORGLEFT
 10
0.0
 20
0.0
 30
0.0
  9
$PUCSORGRIGHT
 10
0.0
 20
0.0
 30
0.0
  9
$PUCSORGFRONT
 10
0.0
 20
0.0
 30
0.0
  9
$PUCSORGBACK
 10
0.0
 20
0.0
 30
0.0
  9
$USERI1
 70
     0
  9
$USERI2
 70
     0
  9
$USERI3
 70
     0
  9
$USERI4
 70
     0
  9
$USERI5
 70
     0
  9
$USERR1
 40
0.0
  9
$USERR2
 40
0.0
  9
$USERR3
 40
0.0
  9
$USERR4
 40
0.0
  9
$USERR5
 40
0.0
  9
$WORLDVIEW
 70
     1
  9
$SHADEDGE
 70
     3
  9
$SHADEDIF
 70
    70
  9
$TILEMODE
 70
     1
  9
$MAXACTVP
 70
    64
  9
$PINSBASE
 10
0.0
 20
0.0
 30
0.0
  9
$PLIMCHECK
 70
     0
  9
$PEXTMIN
 10
1.000000000000000E+20
 20
1.000000000000000E+20
 30
1.000000000000000E+20
  9
$PEXTMAX
 10
-1.000000000000000E+20
 20
-1.000000000000000E+20
 30
-1.000000000000000E+20
  9
$PLIMMIN
 10
0.0
 20
0.0
  9
$PLIMMAX
 10
12.0
 20
9.0
  9
$UNITMODE
 70
     0
  9
$VISRETAIN
 70
     1
  9
$PLINEGEN
 70
     0
  9
$PSLTSCALE
 70
     1
  9
$TREEDEPTH
 70
  3020
  9
$CMLSTYLE
  2
Standard
  9
$CMLJUST
 70
     0
  9
$CMLSCALE
 40
1.0
  9
$PROXYGRAPHICS
 70
     1
  9
$MEASUREMENT
 70
     0
  9
$CELWEIGHT
370
    -1
  9
$ENDCAPS
280
     0
  9
$JOINSTYLE
280
     0
  9
$LWDISPLAY
290
     1
  9
$INSUNITS
 70
     1
  9
$HYPERLINKBASE
  1

  9
$STYLESHEET
  1

  9
$XEDIT
290
     1
  9
$CEPSNTYPE
380
     0
  9
$PSTYLEMODE
290
     1
  9
$FINGERPRINTGUID
  2
{D27A269F-9BF5-C5F9-2F3E-C781631700C8}
  9
$VERSIONGUID
  2
{FAEB1C32-E019-11D5-929B-00C0DF256EC4}
  9
$EXTNAMES
290
     1
  9
$PSVPSCALE
 40
0.0
  9
$OLESTARTUP
290
     0
  9
$SORTENTS
280
   127
  9
$INDEXCTL
280
     0
  9
$HIDETEXT
280
     1
  9
$XCLIPFRAME
280
     2
  9
$HALOGAP
280
     0
  9
$OBSCOLOR
 70
   257
  9
$OBSLTYPE
280
     0
  9
$INTERSECTIONDISPLAY
280
     0
  9
$INTERSECTIONCOLOR
 70
   257
  9
$DIMASSOC
280
     2
  9
$PROJECTNAME
  1

  9
$CAMERADISPLAY
290
     0
  9
$LENSLENGTH
 40
50.0
  9
$CAMERAHEIGHT
 40
0.0
  9
$STEPSPERSEC
 40
2.0
  9
$STEPSIZE
 40
6.0
  9
$3DDWFPREC
 40
2.0
  9
$PSOLWIDTH
 40
0.25
  9
$PSOLHEIGHT
 40
4.0
  9
$LOFTANG1
 40
1.570796326794897
  9
$LOFTANG2
 40
1.570796326794897
  9
$LOFTMAG1
 40
0.0
  9
$LOFTMAG2
 40
0.0
  9
$LOFTPARAM
 70
     7
  9
$LOFTNORMALS
280
     1
  9
$LATITUDE
 40
37.795
  9
$LONGITUDE
 40
-122.394
  9
$NORTHDIRECTION
 40
0.0
  9
$TIMEZONE
 70
 -8000
  9
$LIGHTGLYPHDISPLAY
280
     1
  9
$TILEMODELIGHTSYNCH
280
     1
  9
$CMATERIAL
347
3C
  9
$SOLIDHIST
280
     1
  9
$SHOWHIST
280
     1
  9
$DWFFRAME
280
     2
  9
$DGNFRAME
280
     2
  9
$REALWORLDSCALE
290
     1
  9
$INTERFERECOLOR
 62
   256
  9
$CSHADOW
280
     0
  9
$SHADOWPLANELOCATION
 40
0.0
  0
ENDSEC
  0
SECTION
  2
CLASSES
  0
CLASS
  1
ACDBDICTIONARYWDFLT
  2
AcDbDictionaryWithDefault
  3
ObjectDBX Classes
 90
        0
 91
        4
280
     0
281
     0
  0
CLASS
  1
VISUALSTYLE
  2
AcDbVisualStyle
  3
ObjectDBX Classes
 90
     4095
 91
        4
280
     0
281
     0
  0
CLASS
  1
MATERIAL
  2
AcDbMaterial
  3
ObjectDBX Classes
 90
     1153
 91
        4
280
     0
281
     0
  0
CLASS
  1
SUN
  2
AcDbSun
  3
SCENEOE
 90
     1024
 91
        4
280
     0
281
     0
  0
ENDSEC
  0
SECTION
  2
TABLES
  0
TABLE
  2
VPORT
  5
8
330
0
100
AcDbSymbolTable
 70
     1
  0
VPORT
  5
29
330
8
100
AcDbSymbolTableRecord
100
AcDbViewportTableRecord
  2
*Active
 70
     0
 10
0.0
 20
0.0
 11
1.0
 21
1.0
 12
0.0
 22
0.0
 13
0.0
 23
0.0
 14
0.5
 24
0.5
 15
0.5
 25
0.5
 16
0.0
 26
0.0
 36
1.0
 17
105.0007777515277
 27
-148.5000416295416
 37
0.0
 40
297.0000832590831
 41
0.7070757462376333
 42
50.0
 43
0.0
 44
0.0
 50
0.0
 51
0.0
 71
     0
 72
   100
 73
     1
 74
     3
 75
     0
 76
     0
 77
     0
 78
     0
281
     0
 65
     1
110
0.0
120
0.0
130
0.0
111
1.0
121
0.0
131
0.0
112
0.0
122
1.0
132
0.0
 79
     0
146
0.0
 60
     3
 61
     5
292
     1
282
     1
141
0.0
142
0.0
 63
   250
361
3F
  0
ENDTAB
  0
TABLE
  2
LTYPE
  5
5
330
0
100
AcDbSymbolTable
 70
     1
  0
LTYPE
  5
14
330
5
100
AcDbSymbolTableRecord
100
AcDbLinetypeTableRecord
  2
ByBlock
 70
     0
  3

 72
    65
 73
     0
 40
0.0
  0
LTYPE
  5
15
330
5
100
AcDbSymbolTableRecord
100
AcDbLinetypeTableRecord
  2
ByLayer
 70
     0
  3

 72
    65
 73
     0
 40
0.0
  0
LTYPE
  5
16
330
5
100
AcDbSymbolTableRecord
100
AcDbLinetypeTableRecord
  2
Continuous
 70
     0
  3
Solid line
 72
    65
 73
     0
 40
0.0
  0
ENDTAB
  0
TABLE
  2
LAYER
  5
2
330
0
100
AcDbSymbolTable
 70
     2
  0
LAYER
  5
10
330
2
100
AcDbSymbolTableRecord
100
AcDbLayerTableRecord
  2
0
 70
     0
 62
     7
  6
Continuous
370
    -3
390
F
347
3E
  0
LAYER
  5
40
330
2
100
AcDbSymbolTableRecord
100
AcDbLayerTableRecord
  2
_U+30EC_U+30A4_U+30E4_U+30FC 1
 70
     0
 62
     7
  6
Continuous
370
    -3
390
F
347
3E
  0
ENDTAB
  0
TABLE
  2
STYLE
  5
3
330
0
100
AcDbSymbolTable
 70
     1
  0
STYLE
  5
11
330
3
100
AcDbSymbolTableRecord
100
AcDbTextStyleTableRecord
  2
Standard
 70
     0
 40
0.0
 41
1.0
 50
0.0
 71
     0
 42
0.2
  3
txt
  4

  0
ENDTAB
  0
TABLE
  2
VIEW
  5
6
330
0
100
AcDbSymbolTable
 70
     0
  0
ENDTAB
  0
TABLE
  2
UCS
  5
7
330
0
100
AcDbSymbolTable
 70
     0
  0
ENDTAB
  0
TABLE
  2
APPID
  5
9
330
0
100
AcDbSymbolTable
 70
     1
  0
APPID
  5
12
330
9
100
AcDbSymbolTableRecord
100
AcDbRegAppTableRecord
  2
ACAD
 70
     0
  0
ENDTAB
  0
TABLE
  2
DIMSTYLE
  5
A
330
0
100
AcDbSymbolTable
 70
     1
100
AcDbDimStyleTable
  0
DIMSTYLE
105
27
330
A
100
AcDbSymbolTableRecord
100
AcDbDimStyleTableRecord
  2
Standard
 70
     0
178
     0
340
11
  0
ENDTAB
  0
TABLE
  2
BLOCK_RECORD
  5
1
330
0
100
AcDbSymbolTable
 70
     6
  0
BLOCK_RECORD
  5
1F
330
1
100
AcDbSymbolTableRecord
100
AcDbBlockTableRecord
  2
*Model_Space
340
22
 70
     0
280
     1
281
     0
  0
BLOCK_RECORD
  5
1B
330
1
100
AcDbSymbolTableRecord
100
AcDbBlockTableRecord
  2
*Paper_Space
340
1E
 70
     0
280
     1
281
     0
  0
BLOCK_RECORD
  5
23
330
1
100
AcDbSymbolTableRecord
100
AcDbBlockTableRecord
  2
*Paper_Space0
340
26
 70
     0
280
     1
281
     0
  0
BLOCK_RECORD
  5
78
330
1
100
AcDbSymbolTableRecord
100
AcDbBlockTableRecord
  2
block 2
340
0
102
{BLKREFS
331
79
102
}
 70
     0
280
     1
281
     0
  0
BLOCK_RECORD
  5
8B
330
1
100
AcDbSymbolTableRecord
100
AcDbBlockTableRecord
  2
block 3
340
0
102
{BLKREFS
331
8C
102
}
 70
     0
280
     1
281
     0
  0
BLOCK_RECORD
  5
9F
330
1
100
AcDbSymbolTableRecord
100
AcDbBlockTableRecord
  2
block 4
340
0
102
{BLKREFS
331
A0
102
}
 70
     0
280
     1
281
     0
  0
BLOCK_RECORD
  5
B7
330
1
100
AcDbSymbolTableRecord
100
AcDbBlockTableRecord
  2
block 5
340
0
102
{BLKREFS
331
B8
102
}
 70
     0
280
     1
281
     0
  0
BLOCK_RECORD
  5
C5
330
1
100
AcDbSymbolTableRecord
100
AcDbBlockTableRecord
  2
block 6
340
0
102
{BLKREFS
331
C6
102
}
 70
     0
280
     1
281
     0
  0
ENDTAB
  0
ENDSEC
  0
SECTION
  2
BLOCKS
  0
BLOCK
  5
20
330
1F
100
AcDbEntity
  8
0
100
AcDbBlockBegin
  2
*Model_Space
 70
     0
 10
0.0
 20
0.0
 30
0.0
  3
*Model_Space
  1

  0
ENDBLK
  5
21
330
1F
100
AcDbEntity
  8
0
100
AcDbBlockEnd
  0
BLOCK
  5
1C
330
1B
100
AcDbEntity
 67
     1
  8
0
100
AcDbBlockBegin
  2
*Paper_Space
 70
     0
 10
0.0
 20
0.0
 30
0.0
  3
*Paper_Space
  1

  0
ENDBLK
  5
1D
330
1B
100
AcDbEntity
 67
     1
  8
0
100
AcDbBlockEnd
  0
BLOCK
  5
24
330
23
100
AcDbEntity
  8
0
100
AcDbBlockBegin
  2
*Paper_Space0
 70
     0
 10
0.0
 20
0.0
 30
0.0
  3
*Paper_Space0
  1

  0
ENDBLK
  5
25
330
23
100
AcDbEntity
  8
0
100
AcDbBlockEnd
  0
BLOCK
  5
7A
330
78
100
AcDbEntity
  8
0
100
AcDbBlockBegin
  2
block 2
 70
     0
 10
0.0
 20
0.0
 30
0.0
  3
block 2
  1

  0
SPLINE
  5
7C
330
78
100
AcDbEntity
  8
_U+30EC_U+30A4_U+30E4_U+30FC 1
370
     0
100
AcDbSpline
210
0.0
220
0.0
230
1.0
 70
    11
 71
     3
 72
    26
 73
    22
 74
     0
 42
0.0000000001
 43
0.0000000001
 12
1.0
 22
0.0
 32
0.0
 13
1.0
 23
0.0
 33
0.0
 40
0.0
 40
0.0
 40
0.0
 40
0.0
 40
1.0
 40
1.0
 40
1.0
 40
2.0
 40
2.0
 40
2.0
 40
3.0
 40
3.0
 40
3.0
 40
4.0
 40
4.0
 40
4.0
 40
5.0
 40
5.0
 40
5.0
 40
6.0
 40
6.0
 40
6.0
 40
7.0
 40
7.0
 40
7.0
 40
7.0
 10
99.75549585179724
 20
-152.228089697186
 30
0.0
 10
99.75549585179724
 20
-152.228089697186
 30
0.0
 10
99.75549585179724
 20
-151.1239365941635
 30
0.0
 10
99.75549585179724
 20
-151.1239365941635
 30
0.0
 10
99.75549585179724
 20
-151.1239365941635
 30
0.0
 10
99.42545570431031
 20
-151.1239365941635
 30
0.0
 10
99.42545570431031
 20
-151.1239365941635
 30
0.0
 10
99.42545570431031
 20
-151.1239365941635
 30
0.0
 10
99.42545570431031
 20
-150.9757974882977
 30
0.0
 10
99.42545570431031
 20
-150.9757974882977
 30
0.0
 10
99.75756290908839
 20
-150.9609835777111
 30
0.0
 10
99.80407169813927
 20
-150.7980305612588
 30
0.0
 10
99.83369951931242
 20
-150.6839979006971
 30
0.0
 10
99.83369951931242
 20
-150.6839979006971
 30
0.0
 10
99.979771567887
 20
-150.6839979006971
 30
0.0
 10
99.979771567887
 20
-150.6839979006971
 30
0.0
 10
99.979771567887
 20
-150.6839979006971
 30
0.0
 10
99.979771567887
 20
-152.228089697186
 30
0.0
 10
99.979771567887
 20
-152.228089697186
 30
0.0
 10
99.979771567887
 20
-152.228089697186
 30
0.0
 10
99.75549585179724
 20
-152.228089697186
 30
0.0
 10
99.75549585179724
 20
-152.228089697186
 30
0.0
  0
HATCH
  5
7D
330
78
100
AcDbEntity
  8
_U+30EC_U+30A4_U+30E4_U+30FC 1
 62
   179
420
  2234388
100
AcDbHatch
 10
0.0
 20
0.0
 30
0.0
210
0.0
220
0.0
230
1.0
  2
SOLID
 70
     1
 71
     0
 91
        1
 92
        1
 93
        1
 72
     4
 94
        3
 73
     0
 74
     1
 95
       26
 96
       22
 40
0.0
 40
0.0
 40
0.0
 40
0.0
 40
1.0
 40
1.0
 40
1.0
 40
2.0
 40
2.0
 40
2.0
 40
3.0
 40
3.0
 40
3.0
 40
4.0
 40
4.0
 40
4.0
 40
5.0
 40
5.0
 40
5.0
 40
6.0
 40
6.0
 40
6.0
 40
7.0
 40
7.0
 40
7.0
 40
7.0
 10
99.75549585179724
 20
-152.228089697186
 10
99.75549585179724
 20
-152.228089697186
 10
99.75549585179724
 20
-151.1239365941635
 10
99.75549585179724
 20
-151.1239365941635
 10
99.75549585179724
 20
-151.1239365941635
 10
99.42545570431031
 20
-151.1239365941635
 10
99.42545570431031
 20
-151.1239365941635
 10
99.42545570431031
 20
-151.1239365941635
 10
99.42545570431031
 20
-150.9757974882977
 10
99.42545570431031
 20
-150.9757974882977
 10
99.75756290908839
 20
-150.9609835777111
 10
99.80407169813927
 20
-150.7980305612588
 10
99.83369951931242
 20
-150.6839979006971
 10
99.83369951931242
 20
-150.6839979006971
 10
99.979771567887
 20
-150.6839979006971
 10
99.979771567887
 20
-150.6839979006971
 10
99.979771567887
 20
-150.6839979006971
 10
99.979771567887
 20
-152.228089697186
 10
99.979771567887
 20
-152.228089697186
 10
99.979771567887
 20
-152.228089697186
 10
99.75549585179724
 20
-152.228089697186
 10
99.75549585179724
 20
-152.228089697186
 97
        0
 97
        0
 75
     2
 76
     1
 98
        0
  0
SPLINE
  5
7E
330
78
100
AcDbEntity
  8
_U+30EC_U+30A4_U+30E4_U+30FC 1
370
     0
100
AcDbSpline
210
0.0
220
0.0
230
1.0
 70
    11
 71
     3
 72
    53
 73
    49
 74
     0
 42
0.0000000001
 43
0.0000000001
 12
1.0
 22
0.0
 32
0.0
 13
1.0
 23
0.0
 33
0.0
 40
0.0
 40
0.0
 40
0.0
 40
0.0
 40
1.0
 40
1.0
 40
1.0
 40
2.0
 40
2.0
 40
2.0
 40
3.0
 40
3.0
 40
3.0
 40
4.0
 40
4.0
 40
4.0
 40
5.0
 40
5.0
 40
5.0
 40
6.0
 40
6.0
 40
6.0
 40
7.0
 40
7.0
 40
7.0
 40
8.0
 40
8.0
 40
8.0
 40
9.0
 40
9.0
 40
9.0
 40
10.0
 40
10.0
 40
10.0
 40
11.0
 40
11.0
 40
11.0
 40
12.0
 40
12.0
 40
12.0
 40
13.0
 40
13.0
 40
13.0
 40
14.0
 40
14.0
 40
14.0
 40
15.0
 40
15.0
 40
15.0
 40
16.0
 40
16.0
 40
16.0
 40
16.0
 10
100.9619682907317
 20
-152.2790771103678
 30
0.0
 10
100.8835923684423
 20
-152.2790771103678
 30
0.0
 10
100.7821343064017
 20
-152.2618516329415
 30
0.0
 10
100.6805039895868
 20
-152.1984618760129
 30
0.0
 10
100.5070434319045
 20
-152.0885633300334
 30
0.0
 10
100.4858560946702
 20
-151.9573051920454
 30
0.0
 10
100.4669080695013
 20
-151.8494737033571
 30
0.0
 10
100.4669080695013
 20
-151.8494737033571
 30
0.0
 10
100.6889444735257
 20
-151.8494737033571
 30
0.0
 10
100.6889444735257
 20
-151.8494737033571
 30
0.0
 10
100.7440660012897
 20
-152.048255712856
 30
0.0
 10
100.8710177699211
 20
-152.0778835340292
 30
0.0
 10
100.9640353480229
 20
-152.0778835340292
 30
0.0
 10
101.1035617151755
 20
-152.0778835340292
 30
0.0
 10
101.2560071903978
 20
-151.978664784054
 30
0.0
 10
101.2560071903978
 20
-151.7457763292511
 30
0.0
 10
101.2560071903978
 20
-151.489805734697
 30
0.0
 10
101.0761732060678
 20
-151.4202148058949
 30
0.0
 10
100.955594864084
 20
-151.4202148058949
 30
0.0
 10
100.9238999856197
 20
-151.4202148058949
 30
0.0
 10
100.7821343064017
 20
-151.4202148058949
 30
0.0
 10
100.6932508428823
 20
-151.5490613770433
 30
0.0
 10
100.6932508428823
 20
-151.5490613770433
 30
0.0
 10
100.5177232279088
 20
-151.5301133518744
 30
0.0
 10
100.5177232279088
 20
-151.5301133518744
 30
0.0
 10
100.5177232279088
 20
-151.5301133518744
 30
0.0
 10
100.6383015698925
 20
-150.6839979006971
 30
0.0
 10
100.6383015698925
 20
-150.6839979006971
 30
0.0
 10
100.6383015698925
 20
-150.6839979006971
 30
0.0
 10
101.4167208947847
 20
-150.6839979006971
 30
0.0
 10
101.4167208947847
 20
-150.6839979006971
 30
0.0
 10
101.4167208947847
 20
-150.6839979006971
 30
0.0
 10
101.4167208947847
 20
-150.8786457956137
 30
0.0
 10
101.4167208947847
 20
-150.8786457956137
 30
0.0
 10
101.4167208947847
 20
-150.8786457956137
 30
0.0
 10
100.8010823315706
 20
-150.8786457956137
 30
0.0
 10
100.8010823315706
 20
-150.8786457956137
 30
0.0
 10
100.8010823315706
 20
-150.8786457956137
 30
0.0
 10
100.7356255173508
 20
-151.3017035212024
 30
0.0
 10
100.7356255173508
 20
-151.3017035212024
 30
0.0
 10
100.7969482169883
 20
-151.2675970758984
 30
0.0
 10
100.87945825386
 20
-151.2276339682695
 30
0.0
 10
100.9977972837783
 20
-151.2276339682695
 30
0.0
 10
101.2517008210412
 20
-151.2276339682695
 30
0.0
 10
101.4887233904264
 20
-151.413669124473
 30
0.0
 10
101.4887233904264
 20
-151.7268283040822
 30
0.0
 10
101.4887233904264
 20
-152.0441215982737
 30
0.0
 10
101.2644476743367
 20
-152.2790771103678
 30
0.0
 10
100.9619682907317
 20
-152.2790771103678
 30
0.0
  0
HATCH
  5
7F
330
78
100
AcDbEntity
  8
_U+30EC_U+30A4_U+30E4_U+30FC 1
 62
   179
420
  2234388
100
AcDbHatch
 10
0.0
 20
0.0
 30
0.0
210
0.0
220
0.0
230
1.0
  2
SOLID
 70
     1
 71
     0
 91
        1
 92
        1
 93
        1
 72
     4
 94
        3
 73
     0
 74
     1
 95
       53
 96
       49
 40
0.0
 40
0.0
 40
0.0
 40
0.0
 40
1.0
 40
1.0
 40
1.0
 40
2.0
 40
2.0
 40
2.0
 40
3.0
 40
3.0
 40
3.0
 40
4.0
 40
4.0
 40
4.0
 40
5.0
 40
5.0
 40
5.0
 40
6.0
 40
6.0
 40
6.0
 40
7.0
 40
7.0
 40
7.0
 40
8.0
 40
8.0
 40
8.0
 40
9.0
 40
9.0
 40
9.0
 40
10.0
 40
10.0
 40
10.0
 40
11.0
 40
11.0
 40
11.0
 40
12.0
 40
12.0
 40
12.0
 40
13.0
 40
13.0
 40
13.0
 40
14.0
 40
14.0
 40
14.0
 40
15.0
 40
15.0
 40
15.0
 40
16.0
 40
16.0
 40
16.0
 40
16.0
 10
100.9619682907317
 20
-152.2790771103678
 10
100.8835923684423
 20
-152.2790771103678
 10
100.7821343064017
 20
-152.2618516329415
 10
100.6805039895868
 20
-152.1984618760129
 10
100.5070434319045
 20
-152.0885633300334
 10
100.4858560946702
 20
-151.9573051920454
 10
100.4669080695013
 20
-151.8494737033571
 10
100.4669080695013
 20
-151.8494737033571
 10
100.6889444735257
 20
-151.8494737033571
 10
100.6889444735257
 20
-151.8494737033571
 10
100.7440660012897
 20
-152.048255712856
 10
100.8710177699211
 20
-152.0778835340292
 10
100.9640353480229
 20
-152.0778835340292
 10
101.1035617151755
 20
-152.0778835340292
 10
101.2560071903978
 20
-151.978664784054
 10
101.2560071903978
 20
-151.7457763292511
 10
101.2560071903978
 20
-151.489805734697
 10
101.0761732060678
 20
-151.4202148058949
 10
100.955594864084
 20
-151.4202148058949
 10
100.9238999856197
 20
-151.4202148058949
 10
100.7821343064017
 20
-151.4202148058949
 10
100.6932508428823
 20
-151.5490613770433
 10
100.6932508428823
 20
-151.5490613770433
 10
100.5177232279088
 20
-151.5301133518744
 10
100.5177232279088
 20
-151.5301133518744
 10
100.5177232279088
 20
-151.5301133518744
 10
100.6383015698925
 20
-150.6839979006971
 10
100.6383015698925
 20
-150.6839979006971
 10
100.6383015698925
 20
-150.6839979006971
 10
101.4167208947847
 20
-150.6839979006971
 10
101.4167208947847
 20
-150.6839979006971
 10
101.4167208947847
 20
-150.6839979006971
 10
101.4167208947847
 20
-150.8786457956137
 10
101.4167208947847
 20
-150.8786457956137
 10
101.4167208947847
 20
-150.8786457956137
 10
100.8010823315706
 20
-150.8786457956137
 10
100.8010823315706
 20
-150.8786457956137
 10
100.8010823315706
 20
-150.8786457956137
 10
100.7356255173508
 20
-151.3017035212024
 10
100.7356255173508
 20
-151.3017035212024
 10
100.7969482169883
 20
-151.2675970758984
 10
100.87945825386
 20
-151.2276339682695
 10
100.9977972837783
 20
-151.2276339682695
 10
101.2517008210412
 20
-151.2276339682695
 10
101.4887233904264
 20
-151.413669124473
 10
101.4887233904264
 20
-151.7268283040822
 10
101.4887233904264
 20
-152.0441215982737
 10
101.2644476743367
 20
-152.2790771103678
 10
100.9619682907317
 20
-152.2790771103678
 97
        0
 97
        0
 75
     2
 76
     1
 98
        0
  0
SPLINE
  5
80
330
78
100
AcDbEntity
  8
_U+30EC_U+30A4_U+30E4_U+30FC 1
370
     0
100
AcDbSpline
210
0.0
220
0.0
230
1.0
 70
    11
 71
     3
 72
    44
 73
    40
 74
     0
 42
0.0000000001
 43
0.0000000001
 12
1.0
 22
0.0
 32
0.0
 13
1.0
 23
0.0
 33
0.0
 40
0.0
 40
0.0
 40
0.0
 40
0.0
 40
1.0
 40
1.0
 40
1.0
 40
2.0
 40
2.0
 40
2.0
 40
3.0
 40
3.0
 40
3.0
 40
4.0
 40
4.0
 40
4.0
 40
5.0
 40
5.0
 40
5.0
 40
6.0
 40
6.0
 40
6.0
 40
7.0
 40
7.0
 40
7.0
 40
8.0
 40
8.0
 40
8.0
 40
9.0
 40
9.0
 40
9.0
 40
10.0
 40
10.0
 40
10.0
 40
11.0
 40
11.0
 40
11.0
 40
12.0
 40
12.0
 40
12.0
 40
13.0
 40
13.0
 40
13.0
 40
13.0
 10
102.6719414348355
 20
-152.228089697186
 30
0.0
 10
102.6485147855358
 20
-152.1836479654263
 30
0.0
 10
102.6274997030758
 20
-152.130938004502
 30
0.0
 10
102.6252603910104
 20
-151.9001166069903
 30
0.0
 10
102.6211262764281
 20
-151.6568928657316
 30
0.0
 10
102.5618706340818
 20
-151.5873019369296
 30
0.0
 10
102.3841037070429
 20
-151.5873019369296
 30
0.0
 10
102.3841037070429
 20
-151.5873019369296
 30
0.0
 10
101.9758598920408
 20
-151.5873019369296
 30
0.0
 10
101.9758598920408
 20
-151.5873019369296
 30
0.0
 10
101.9758598920408
 20
-151.5873019369296
 30
0.0
 10
101.9758598920408
 20
-152.228089697186
 30
0.0
 10
101.9758598920408
 20
-152.228089697186
 30
0.0
 10
101.9758598920408
 20
-152.228089697186
 30
0.0
 10
101.741076634721
 20
-152.228089697186
 30
0.0
 10
101.741076634721
 20
-152.228089697186
 30
0.0
 10
101.741076634721
 20
-152.228089697186
 30
0.0
 10
101.741076634721
 20
-150.6839979006971
 30
0.0
 10
101.741076634721
 20
-150.6839979006971
 30
0.0
 10
101.741076634721
 20
-150.6839979006971
 30
0.0
 10
102.4157985855072
 20
-150.6839979006971
 30
0.0
 10
102.4157985855072
 20
-150.6839979006971
 30
0.0
 10
102.7225843384687
 20
-150.6839979006971
 30
0.0
 10
102.8898437242775
 20
-150.855219146314
 30
0.0
 10
102.8898437242775
 20
-151.111189740868
 30
0.0
 10
102.8898437242775
 20
-151.1618326445012
 30
0.0
 10
102.8812309855644
 20
-151.2445149361472
 30
0.0
 10
102.8367892538047
 20
-151.3247856609535
 30
0.0
 10
102.7777058662327
 20
-151.4284830350595
 30
0.0
 10
102.7120767972387
 20
-151.4474310602284
 30
0.0
 10
102.6507540976012
 20
-151.4643120281061
 30
0.0
 10
102.7882134074627
 20
-151.5066867025747
 30
0.0
 10
102.8559095337478
 20
-151.5556070584653
 30
0.0
 10
102.8602159031044
 20
-151.8704887858171
 30
0.0
 10
102.8643500176867
 20
-152.1412732909577
 30
0.0
 10
102.9003512655076
 20
-152.1733126789706
 30
0.0
 10
102.9680473917927
 20
-152.228089697186
 30
0.0
 10
102.9680473917927
 20
-152.228089697186
 30
0.0
 10
102.6719414348355
 20
-152.228089697186
 30
0.0
 10
102.6719414348355
 20
-152.228089697186
 30
0.0
  0
SPLINE
  5
81
330
78
100
AcDbEntity
  8
_U+30EC_U+30A4_U+30E4_U+30FC 1
370
     0
100
AcDbSpline
210
0.0
220
0.0
230
1.0
 70
    11
 71
     3
 72
    20
 73
    16
 74
     0
 42
0.0000000001
 43
0.0000000001
 12
1.0
 22
0.0
 32
0.0
 13
1.0
 23
0.0
 33
0.0
 40
0.0
 40
0.0
 40
0.0
 40
0.0
 40
1.0
 40
1.0
 40
1.0
 40
2.0
 40
2.0
 40
2.0
 40
3.0
 40
3.0
 40
3.0
 40
4.0
 40
4.0
 40
4.0
 40
5.0
 40
5.0
 40
5.0
 40
5.0
 10
102.4201049548637
 20
-150.8955267634914
 30
0.0
 10
102.4201049548637
 20
-150.8955267634914
 30
0.0
 10
101.9758598920408
 20
-150.8955267634914
 30
0.0
 10
101.9758598920408
 20
-150.8955267634914
 30
0.0
 10
101.9758598920408
 20
-150.8955267634914
 30
0.0
 10
101.9758598920408
 20
-151.3757730741352
 30
0.0
 10
101.9758598920408
 20
-151.3757730741352
 30
0.0
 10
101.9758598920408
 20
-151.3757730741352
 30
0.0
 10
102.4180378975726
 20
-151.3757730741352
 30
0.0
 10
102.4180378975726
 20
-151.3757730741352
 30
0.0
 10
102.517428902322
 20
-151.3757730741352
 30
0.0
 10
102.6528211548924
 20
-151.2996364639112
 30
0.0
 10
102.6528211548924
 20
-151.1280707087458
 30
0.0
 10
102.6528211548924
 20
-151.0498670412306
 30
0.0
 10
102.6190592191369
 20
-150.8955267634914
 30
0.0
 10
102.4201049548637
 20
-150.8955267634914
 30
0.0
  0
HATCH
  5
82
330
78
100
AcDbEntity
  8
_U+30EC_U+30A4_U+30E4_U+30FC 1
 62
   179
420
  2234388
100
AcDbHatch
 10
0.0
 20
0.0
 30
0.0
210
0.0
220
0.0
230
1.0
  2
SOLID
 70
     1
 71
     0
 91
        2
 92
        1
 93
        1
 72
     4
 94
        3
 73
     0
 74
     1
 95
       44
 96
       40
 40
0.0
 40
0.0
 40
0.0
 40
0.0
 40
1.0
 40
1.0
 40
1.0
 40
2.0
 40
2.0
 40
2.0
 40
3.0
 40
3.0
 40
3.0
 40
4.0
 40
4.0
 40
4.0
 40
5.0
 40
5.0
 40
5.0
 40
6.0
 40
6.0
 40
6.0
 40
7.0
 40
7.0
 40
7.0
 40
8.0
 40
8.0
 40
8.0
 40
9.0
 40
9.0
 40
9.0
 40
10.0
 40
10.0
 40
10.0
 40
11.0
 40
11.0
 40
11.0
 40
12.0
 40
12.0
 40
12.0
 40
13.0
 40
13.0
 40
13.0
 40
13.0
 10
102.6719414348355
 20
-152.228089697186
 10
102.6485147855358
 20
-152.1836479654263
 10
102.6274997030758
 20
-152.130938004502
 10
102.6252603910104
 20
-151.9001166069903
 10
102.6211262764281
 20
-151.6568928657316
 10
102.5618706340818
 20
-151.5873019369296
 10
102.3841037070429
 20
-151.5873019369296
 10
102.3841037070429
 20
-151.5873019369296
 10
101.9758598920408
 20
-151.5873019369296
 10
101.9758598920408
 20
-151.5873019369296
 10
101.9758598920408
 20
-151.5873019369296
 10
101.9758598920408
 20
-152.228089697186
 10
101.9758598920408
 20
-152.228089697186
 10
101.9758598920408
 20
-152.228089697186
 10
101.741076634721
 20
-152.228089697186
 10
101.741076634721
 20
-152.228089697186
 10
101.741076634721
 20
-152.228089697186
 10
101.741076634721
 20
-150.6839979006971
 10
101.741076634721
 20
-150.6839979006971
 10
101.741076634721
 20
-150.6839979006971
 10
102.4157985855072
 20
-150.6839979006971
 10
102.4157985855072
 20
-150.6839979006971
 10
102.7225843384687
 20
-150.6839979006971
 10
102.8898437242775
 20
-150.855219146314
 10
102.8898437242775
 20
-151.111189740868
 10
102.8898437242775
 20
-151.1618326445012
 10
102.8812309855644
 20
-151.2445149361472
 10
102.8367892538047
 20
-151.3247856609535
 10
102.7777058662327
 20
-151.4284830350595
 10
102.7120767972387
 20
-151.4474310602284
 10
102.6507540976012
 20
-151.4643120281061
 10
102.7882134074627
 20
-151.5066867025747
 10
102.8559095337478
 20
-151.5556070584653
 10
102.8602159031044
 20
-151.8704887858171
 10
102.8643500176867
 20
-152.1412732909577
 10
102.9003512655076
 20
-152.1733126789706
 10
102.9680473917927
 20
-152.228089697186
 10
102.9680473917927
 20
-152.228089697186
 10
102.6719414348355
 20
-152.228089697186
 10
102.6719414348355
 20
-152.228089697186
 97
        0
 97
        0
 92
        1
 93
        1
 72
     4
 94
        3
 73
     0
 74
     1
 95
       20
 96
       16
 40
0.0
 40
0.0
 40
0.0
 40
0.0
 40
1.0
 40
1.0
 40
1.0
 40
2.0
 40
2.0
 40
2.0
 40
3.0
 40
3.0
 40
3.0
 40
4.0
 40
4.0
 40
4.0
 40
5.0
 40
5.0
 40
5.0
 40
5.0
 10
102.4201049548637
 20
-150.8955267634914
 10
102.4201049548637
 20
-150.8955267634914
 10
101.9758598920408
 20
-150.8955267634914
 10
101.9758598920408
 20
-150.8955267634914
 10
101.9758598920408
 20
-150.8955267634914
 10
101.9758598920408
 20
-151.3757730741352
 10
101.9758598920408
 20
-151.3757730741352
 10
101.9758598920408
 20
-151.3757730741352
 10
102.4180378975726
 20
-151.3757730741352
 10
102.4180378975726
 20
-151.3757730741352
 10
102.517428902322
 20
-151.3757730741352
 10
102.6528211548924
 20
-151.2996364639112
 10
102.6528211548924
 20
-151.1280707087458
 10
102.6528211548924
 20
-151.0498670412306
 10
102.6190592191369
 20
-150.8955267634914
 10
102.4201049548637
 20
-150.8955267634914
 97
        0
 97
        0
 75
     2
 76
     1
 98
        0
  0
ENDBLK
  5
7B
330
78
100
AcDbEntity
  8
0
100
AcDbBlockEnd
  0
BLOCK
  5
8D
330
8B
100
AcDbEntity
  8
0
100
AcDbBlockBegin
  2
block 3
 70
     0
 10
0.0
 20
0.0
 30
0.0
  3
block 3
  1

  0
SPLINE
  5
8F
330
8B
100
AcDbEntity
  8
_U+30EC_U+30A4_U+30E4_U+30FC 1
370
     0
100
AcDbSpline
210
0.0
220
0.0
230
1.0
 70
    11
 71
     3
 72
    26
 73
    22
 74
     0
 42
0.0000000001
 43
0.0000000001
 12
1.0
 22
0.0
 32
0.0
 13
1.0
 23
0.0
 33
0.0
 40
0.0
 40
0.0
 40
0.0
 40
0.0
 40
1.0
 40
1.0
 40
1.0
 40
2.0
 40
2.0
 40
2.0
 40
3.0
 40
3.0
 40
3.0
 40
4.0
 40
4.0
 40
4.0
 40
5.0
 40
5.0
 40
5.0
 40
6.0
 40
6.0
 40
6.0
 40
7.0
 40
7.0
 40
7.0
 40
7.0
 10
112.7607313086154
 20
-164.9360134136271
 30
0.0
 10
112.7607313086154
 20
-164.9360134136271
 30
0.0
 10
112.7607313086154
 20
-163.8318603106046
 30
0.0
 10
112.7607313086154
 20
-163.8318603106046
 30
0.0
 10
112.7607313086154
 20
-163.8318603106046
 30
0.0
 10
112.4306911611285
 20
-163.8318603106046
 30
0.0
 10
112.4306911611285
 20
-163.8318603106046
 30
0.0
 10
112.4306911611285
 20
-163.8318603106046
 30
0.0
 10
112.4306911611285
 20
-163.6837212047388
 30
0.0
 10
112.4306911611285
 20
-163.6837212047388
 30
0.0
 10
112.7627983659065
 20
-163.6689072941522
 30
0.0
 10
112.8093071549574
 20
-163.5059542776999
 30
0.0
 10
112.8389349761305
 20
-163.3919216171381
 30
0.0
 10
112.8389349761305
 20
-163.3919216171381
 30
0.0
 10
112.9850070247051
 20
-163.3919216171381
 30
0.0
 10
112.9850070247051
 20
-163.3919216171381
 30
0.0
 10
112.9850070247051
 20
-163.3919216171381
 30
0.0
 10
112.9850070247051
 20
-164.9360134136271
 30
0.0
 10
112.9850070247051
 20
-164.9360134136271
 30
0.0
 10
112.9850070247051
 20
-164.9360134136271
 30
0.0
 10
112.7607313086154
 20
-164.9360134136271
 30
0.0
 10
112.7607313086154
 20
-164.9360134136271
 30
0.0
  0
HATCH
  5
90
330
8B
100
AcDbEntity
  8
_U+30EC_U+30A4_U+30E4_U+30FC 1
 62
   179
420
  2234388
100
AcDbHatch
 10
0.0
 20
0.0
 30
0.0
210
0.0
220
0.0
230
1.0
  2
SOLID
 70
     1
 71
     0
 91
        1
 92
        1
 93
        1
 72
     4
 94
        3
 73
     0
 74
     1
 95
       26
 96
       22
 40
0.0
 40
0.0
 40
0.0
 40
0.0
 40
1.0
 40
1.0
 40
1.0
 40
2.0
 40
2.0
 40
2.0
 40
3.0
 40
3.0
 40
3.0
 40
4.0
 40
4.0
 40
4.0
 40
5.0
 40
5.0
 40
5.0
 40
6.0
 40
6.0
 40
6.0
 40
7.0
 40
7.0
 40
7.0
 40
7.0
 10
112.7607313086154
 20
-164.9360134136271
 10
112.7607313086154
 20
-164.9360134136271
 10
112.7607313086154
 20
-163.8318603106046
 10
112.7607313086154
 20
-163.8318603106046
 10
112.7607313086154
 20
-163.8318603106046
 10
112.4306911611285
 20
-163.8318603106046
 10
112.4306911611285
 20
-163.8318603106046
 10
112.4306911611285
 20
-163.8318603106046
 10
112.4306911611285
 20
-163.6837212047388
 10
112.4306911611285
 20
-163.6837212047388
 10
112.7627983659065
 20
-163.6689072941522
 10
112.8093071549574
 20
-163.5059542776999
 10
112.8389349761305
 20
-163.3919216171381
 10
112.8389349761305
 20
-163.3919216171381
 10
112.9850070247051
 20
-163.3919216171381
 10
112.9850070247051
 20
-163.3919216171381
 10
112.9850070247051
 20
-163.3919216171381
 10
112.9850070247051
 20
-164.9360134136271
 10
112.9850070247051
 20
-164.9360134136271
 10
112.9850070247051
 20
-164.9360134136271
 10
112.7607313086154
 20
-164.9360134136271
 10
112.7607313086154
 20
-164.9360134136271
 97
        0
 97
        0
 75
     2
 76
     1
 98
        0
  0
SPLINE
  5
91
330
8B
100
AcDbEntity
  8
_U+30EC_U+30A4_U+30E4_U+30FC 1
370
     0
100
AcDbSpline
210
0.0
220
0.0
230
1.0
 70
    11
 71
     3
 72
    53
 73
    49
 74
     0
 42
0.0000000001
 43
0.0000000001
 12
1.0
 22
0.0
 32
0.0
 13
1.0
 23
0.0
 33
0.0
 40
0.0
 40
0.0
 40
0.0
 40
0.0
 40
1.0
 40
1.0
 40
1.0
 40
2.0
 40
2.0
 40
2.0
 40
3.0
 40
3.0
 40
3.0
 40
4.0
 40
4.0
 40
4.0
 40
5.0
 40
5.0
 40
5.0
 40
6.0
 40
6.0
 40
6.0
 40
7.0
 40
7.0
 40
7.0
 40
8.0
 40
8.0
 40
8.0
 40
9.0
 40
9.0
 40
9.0
 40
10.0
 40
10.0
 40
10.0
 40
11.0
 40
11.0
 40
11.0
 40
12.0
 40
12.0
 40
12.0
 40
13.0
 40
13.0
 40
13.0
 40
14.0
 40
14.0
 40
14.0
 40
15.0
 40
15.0
 40
15.0
 40
16.0
 40
16.0
 40
16.0
 40
16.0
 10
113.9672037475499
 20
-164.9870008268088
 30
0.0
 10
113.8890000800347
 20
-164.9870008268088
 30
0.0
 10
113.7873697632198
 20
-164.9697753493826
 30
0.0
 10
113.685739446405
 20
-164.906385592454
 30
0.0
 10
113.5124511434969
 20
-164.7964870464745
 30
0.0
 10
113.4910915514883
 20
-164.6652289084865
 30
0.0
 10
113.4721435263195
 20
-164.5573974197981
 30
0.0
 10
113.4721435263195
 20
-164.5573974197981
 30
0.0
 10
113.6943521851181
 20
-164.5573974197981
 30
0.0
 10
113.6943521851181
 20
-164.5573974197981
 30
0.0
 10
113.7491292033336
 20
-164.7561794292971
 30
0.0
 10
113.8762532267393
 20
-164.7858072504702
 30
0.0
 10
113.969270804841
 20
-164.7858072504702
 30
0.0
 10
114.1087971719936
 20
-164.7858072504702
 30
0.0
 10
114.2610703924417
 20
-164.686588500495
 30
0.0
 10
114.2610703924417
 20
-164.4537000456921
 30
0.0
 10
114.2610703924417
 20
-164.1977294511381
 30
0.0
 10
114.0812364081116
 20
-164.128138522336
 30
0.0
 10
113.9606580661279
 20
-164.128138522336
 30
0.0
 10
113.9289631876636
 20
-164.128138522336
 30
0.0
 10
113.7873697632198
 20
-164.128138522336
 30
0.0
 10
113.6984862997004
 20
-164.2569850934844
 30
0.0
 10
113.6984862997004
 20
-164.2569850934844
 30
0.0
 10
113.5227864299526
 20
-164.2380370683155
 30
0.0
 10
113.5227864299526
 20
-164.2380370683155
 30
0.0
 10
113.5227864299526
 20
-164.2380370683155
 30
0.0
 10
113.6433647719364
 20
-163.3919216171381
 30
0.0
 10
113.6433647719364
 20
-163.3919216171381
 30
0.0
 10
113.6433647719364
 20
-163.3919216171381
 30
0.0
 10
114.4219563516028
 20
-163.3919216171381
 30
0.0
 10
114.4219563516028
 20
-163.3919216171381
 30
0.0
 10
114.4219563516028
 20
-163.3919216171381
 30
0.0
 10
114.4219563516028
 20
-163.5865695120548
 30
0.0
 10
114.4219563516028
 20
-163.5865695120548
 30
0.0
 10
114.4219563516028
 20
-163.5865695120548
 30
0.0
 10
113.8063177883887
 20
-163.5865695120548
 30
0.0
 10
113.8063177883887
 20
-163.5865695120548
 30
0.0
 10
113.8063177883887
 20
-163.5865695120548
 30
0.0
 10
113.740860974169
 20
-164.0096272376434
 30
0.0
 10
113.740860974169
 20
-164.0096272376434
 30
0.0
 10
113.8021836738064
 20
-163.9755207923395
 30
0.0
 10
113.8845214559039
 20
-163.9355576847106
 30
0.0
 10
114.0030327405965
 20
-163.9355576847106
 30
0.0
 10
114.2569362778594
 20
-163.9355576847106
 30
0.0
 10
114.4939588472446
 20
-164.121592840914
 30
0.0
 10
114.4939588472446
 20
-164.4347520205233
 30
0.0
 10
114.4939588472446
 20
-164.7520453147148
 30
0.0
 10
114.2696831311548
 20
-164.9870008268088
 30
0.0
 10
113.9672037475499
 20
-164.9870008268088
 30
0.0
  0
HATCH
  5
92
330
8B
100
AcDbEntity
  8
_U+30EC_U+30A4_U+30E4_U+30FC 1
 62
   179
420
  2234388
100
AcDbHatch
 10
0.0
 20
0.0
 30
0.0
210
0.0
220
0.0
230
1.0
  2
SOLID
 70
     1
 71
     0
 91
        1
 92
        1
 93
        1
 72
     4
 94
        3
 73
     0
 74
     1
 95
       53
 96
       49
 40
0.0
 40
0.0
 40
0.0
 40
0.0
 40
1.0
 40
1.0
 40
1.0
 40
2.0
 40
2.0
 40
2.0
 40
3.0
 40
3.0
 40
3.0
 40
4.0
 40
4.0
 40
4.0
 40
5.0
 40
5.0
 40
5.0
 40
6.0
 40
6.0
 40
6.0
 40
7.0
 40
7.0
 40
7.0
 40
8.0
 40
8.0
 40
8.0
 40
9.0
 40
9.0
 40
9.0
 40
10.0
 40
10.0
 40
10.0
 40
11.0
 40
11.0
 40
11.0
 40
12.0
 40
12.0
 40
12.0
 40
13.0
 40
13.0
 40
13.0
 40
14.0
 40
14.0
 40
14.0
 40
15.0
 40
15.0
 40
15.0
 40
16.0
 40
16.0
 40
16.0
 40
16.0
 10
113.9672037475499
 20
-164.9870008268088
 10
113.8890000800347
 20
-164.9870008268088
 10
113.7873697632198
 20
-164.9697753493826
 10
113.685739446405
 20
-164.906385592454
 10
113.5124511434969
 20
-164.7964870464745
 10
113.4910915514883
 20
-164.6652289084865
 10
113.4721435263195
 20
-164.5573974197981
 10
113.4721435263195
 20
-164.5573974197981
 10
113.6943521851181
 20
-164.5573974197981
 10
113.6943521851181
 20
-164.5573974197981
 10
113.7491292033336
 20
-164.7561794292971
 10
113.8762532267393
 20
-164.7858072504702
 10
113.969270804841
 20
-164.7858072504702
 10
114.1087971719936
 20
-164.7858072504702
 10
114.2610703924417
 20
-164.686588500495
 10
114.2610703924417
 20
-164.4537000456921
 10
114.2610703924417
 20
-164.1977294511381
 10
114.0812364081116
 20
-164.128138522336
 10
113.9606580661279
 20
-164.128138522336
 10
113.9289631876636
 20
-164.128138522336
 10
113.7873697632198
 20
-164.128138522336
 10
113.6984862997004
 20
-164.2569850934844
 10
113.6984862997004
 20
-164.2569850934844
 10
113.5227864299526
 20
-164.2380370683155
 10
113.5227864299526
 20
-164.2380370683155
 10
113.5227864299526
 20
-164.2380370683155
 10
113.6433647719364
 20
-163.3919216171381
 10
113.6433647719364
 20
-163.3919216171381
 10
113.6433647719364
 20
-163.3919216171381
 10
114.4219563516028
 20
-163.3919216171381
 10
114.4219563516028
 20
-163.3919216171381
 10
114.4219563516028
 20
-163.3919216171381
 10
114.4219563516028
 20
-163.5865695120548
 10
114.4219563516028
 20
-163.5865695120548
 10
114.4219563516028
 20
-163.5865695120548
 10
113.8063177883887
 20
-163.5865695120548
 10
113.8063177883887
 20
-163.5865695120548
 10
113.8063177883887
 20
-163.5865695120548
 10
113.740860974169
 20
-164.0096272376434
 10
113.740860974169
 20
-164.0096272376434
 10
113.8021836738064
 20
-163.9755207923395
 10
113.8845214559039
 20
-163.9355576847106
 10
114.0030327405965
 20
-163.9355576847106
 10
114.2569362778594
 20
-163.9355576847106
 10
114.4939588472446
 20
-164.121592840914
 10
114.4939588472446
 20
-164.4347520205233
 10
114.4939588472446
 20
-164.7520453147148
 10
114.2696831311548
 20
-164.9870008268088
 10
113.9672037475499
 20
-164.9870008268088
 97
        0
 97
        0
 75
     2
 76
     1
 98
        0
  0
ENDBLK
  5
8E
330
8B
100
AcDbEntity
  8
0
100
AcDbBlockEnd
  0
BLOCK
  5
A1
330
9F
100
AcDbEntity
  8
0
100
AcDbBlockBegin
  2
block 4
 70
     0
 10
0.0
 20
0.0
 30
0.0
  3
block 4
  1

  0
SPLINE
  5
A3
330
9F
100
AcDbEntity
  8
_U+30EC_U+30A4_U+30E4_U+30FC 1
370
     0
100
AcDbSpline
210
0.0
220
0.0
230
1.0
 70
    11
 71
     3
 72
    26
 73
    22
 74
     0
 42
0.0000000001
 43
0.0000000001
 12
1.0
 22
0.0
 32
0.0
 13
1.0
 23
0.0
 33
0.0
 40
0.0
 40
0.0
 40
0.0
 40
0.0
 40
1.0
 40
1.0
 40
1.0
 40
2.0
 40
2.0
 40
2.0
 40
3.0
 40
3.0
 40
3.0
 40
4.0
 40
4.0
 40
4.0
 40
5.0
 40
5.0
 40
5.0
 40
6.0
 40
6.0
 40
6.0
 40
7.0
 40
7.0
 40
7.0
 40
7.0
 10
86.26036781697658
 20
-139.5508273305637
 30
0.0
 10
86.26036781697658
 20
-139.5508273305637
 30
0.0
 10
85.15604245917974
 20
-139.5508273305637
 30
0.0
 10
85.15604245917974
 20
-139.5508273305637
 30
0.0
 10
85.15604245917974
 20
-139.5508273305637
 30
0.0
 10
85.15604245917974
 20
-139.8808674780506
 30
0.0
 10
85.15604245917974
 20
-139.8808674780506
 30
0.0
 10
85.15604245917974
 20
-139.8808674780506
 30
0.0
 10
85.007903353314
 20
-139.8808674780506
 30
0.0
 10
85.007903353314
 20
-139.8808674780506
 30
0.0
 10
84.9932616975017
 20
-139.5487602732725
 30
0.0
 10
84.83030868104937
 20
-139.5022514842217
 30
0.0
 10
84.71610376571334
 20
-139.4726236630485
 30
0.0
 10
84.71610376571334
 20
-139.4726236630485
 30
0.0
 10
84.71610376571334
 20
-139.3265516144739
 30
0.0
 10
84.71610376571334
 20
-139.3265516144739
 30
0.0
 10
84.71610376571334
 20
-139.3265516144739
 30
0.0
 10
86.26036781697658
 20
-139.3265516144739
 30
0.0
 10
86.26036781697658
 20
-139.3265516144739
 30
0.0
 10
86.26036781697658
 20
-139.3265516144739
 30
0.0
 10
86.26036781697658
 20
-139.5508273305637
 30
0.0
 10
86.26036781697658
 20
-139.5508273305637
 30
0.0
  0
HATCH
  5
A4
330
9F
100
AcDbEntity
  8
_U+30EC_U+30A4_U+30E4_U+30FC 1
 62
   179
420
  2234388
100
AcDbHatch
 10
0.0
 20
0.0
 30
0.0
210
0.0
220
0.0
230
1.0
  2
SOLID
 70
     1
 71
     0
 91
        1
 92
        1
 93
        1
 72
     4
 94
        3
 73
     0
 74
     1
 95
       26
 96
       22
 40
0.0
 40
0.0
 40
0.0
 40
0.0
 40
1.0
 40
1.0
 40
1.0
 40
2.0
 40
2.0
 40
2.0
 40
3.0
 40
3.0
 40
3.0
 40
4.0
 40
4.0
 40
4.0
 40
5.0
 40
5.0
 40
5.0
 40
6.0
 40
6.0
 40
6.0
 40
7.0
 40
7.0
 40
7.0
 40
7.0
 10
86.26036781697658
 20
-139.5508273305637
 10
86.26036781697658
 20
-139.5508273305637
 10
85.15604245917974
 20
-139.5508273305637
 10
85.15604245917974
 20
-139.5508273305637
 10
85.15604245917974
 20
-139.5508273305637
 10
85.15604245917974
 20
-139.8808674780506
 10
85.15604245917974
 20
-139.8808674780506
 10
85.15604245917974
 20
-139.8808674780506
 10
85.007903353314
 20
-139.8808674780506
 10
85.007903353314
 20
-139.8808674780506
 10
84.9932616975017
 20
-139.5487602732725
 10
84.83030868104937
 20
-139.5022514842217
 10
84.71610376571334
 20
-139.4726236630485
 10
84.71610376571334
 20
-139.4726236630485
 10
84.71610376571334
 20
-139.3265516144739
 10
84.71610376571334
 20
-139.3265516144739
 10
84.71610376571334
 20
-139.3265516144739
 10
86.26036781697658
 20
-139.3265516144739
 10
86.26036781697658
 20
-139.3265516144739
 10
86.26036781697658
 20
-139.3265516144739
 10
86.26036781697658
 20
-139.5508273305637
 10
86.26036781697658
 20
-139.5508273305637
 97
        0
 97
        0
 75
     2
 76
     1
 98
        0
  0
SPLINE
  5
A5
330
9F
100
AcDbEntity
  8
_U+30EC_U+30A4_U+30E4_U+30FC 1
370
     0
100
AcDbSpline
210
0.0
220
0.0
230
1.0
 70
    11
 71
     3
 72
    53
 73
    49
 74
     0
 42
0.0000000001
 43
0.0000000001
 12
1.0
 22
0.0
 32
0.0
 13
1.0
 23
0.0
 33
0.0
 40
0.0
 40
0.0
 40
0.0
 40
0.0
 40
1.0
 40
1.0
 40
1.0
 40
2.0
 40
2.0
 40
2.0
 40
3.0
 40
3.0
 40
3.0
 40
4.0
 40
4.0
 40
4.0
 40
5.0
 40
5.0
 40
5.0
 40
6.0
 40
6.0
 40
6.0
 40
7.0
 40
7.0
 40
7.0
 40
8.0
 40
8.0
 40
8.0
 40
9.0
 40
9.0
 40
9.0
 40
10.0
 40
10.0
 40
10.0
 40
11.0
 40
11.0
 40
11.0
 40
12.0
 40
12.0
 40
12.0
 40
13.0
 40
13.0
 40
13.0
 40
14.0
 40
14.0
 40
14.0
 40
15.0
 40
15.0
 40
15.0
 40
16.0
 40
16.0
 40
16.0
 40
16.0
 10
86.31118297538401
 20
-138.3443548916292
 30
0.0
 10
86.31118297538401
 20
-138.4227308139186
 30
0.0
 10
86.29430200750629
 20
-138.5241888759592
 30
0.0
 10
86.23073999580343
 20
-138.6258191927741
 30
0.0
 10
86.1206691950497
 20
-138.7992797504564
 30
0.0
 10
85.98958331183594
 20
-138.8204670876907
 30
0.0
 10
85.88175182314762
 20
-138.8394151128596
 30
0.0
 10
85.88175182314762
 20
-138.8394151128596
 30
0.0
 10
85.88175182314762
 20
-138.6173787088352
 30
0.0
 10
85.88175182314762
 20
-138.6173787088352
 30
0.0
 10
86.08053383264654
 20
-138.5622571810713
 30
0.0
 10
86.11016165381969
 20
-138.4353054124398
 30
0.0
 10
86.11016165381969
 20
-138.342287834338
 30
0.0
 10
86.11016165381969
 20
-138.2027614671854
 30
0.0
 10
86.01077064907022
 20
-138.0503159919631
 30
0.0
 10
85.7780544490416
 20
-138.0503159919631
 30
0.0
 10
85.52208385448753
 20
-138.0503159919631
 30
0.0
 10
85.45232067091123
 20
-138.2301499762932
 30
0.0
 10
85.45232067091123
 20
-138.3507283182769
 30
0.0
 10
85.45232067091123
 20
-138.3824231967412
 30
0.0
 10
85.45232067091123
 20
-138.5241888759592
 30
0.0
 10
85.58133949683383
 20
-138.6130723394787
 30
0.0
 10
85.58133949683383
 20
-138.6130723394787
 30
0.0
 10
85.5622192168907
 20
-138.7885999544522
 30
0.0
 10
85.5622192168907
 20
-138.7885999544522
 30
0.0
 10
85.5622192168907
 20
-138.7885999544522
 30
0.0
 10
84.71610376571334
 20
-138.6680216124684
 30
0.0
 10
84.71610376571334
 20
-138.6680216124684
 30
0.0
 10
84.71610376571334
 20
-138.6680216124684
 30
0.0
 10
84.71610376571334
 20
-137.8896022875762
 30
0.0
 10
84.71610376571334
 20
-137.8896022875762
 30
0.0
 10
84.71610376571334
 20
-137.8896022875762
 30
0.0
 10
84.91075166062996
 20
-137.8896022875762
 30
0.0
 10
84.91075166062996
 20
-137.8896022875762
 30
0.0
 10
84.91075166062996
 20
-137.8896022875762
 30
0.0
 10
84.91075166062996
 20
-138.5052408507904
 30
0.0
 10
84.91075166062996
 20
-138.5052408507904
 30
0.0
 10
84.91075166062996
 20
-138.5052408507904
 30
0.0
 10
85.33380938621863
 20
-138.5706976650101
 30
0.0
 10
85.33380938621863
 20
-138.5706976650101
 30
0.0
 10
85.29987519568893
 20
-138.5093749653727
 30
0.0
 10
85.25973983328576
 20
-138.4268649285009
 30
0.0
 10
85.25973983328576
 20
-138.3085258985826
 30
0.0
 10
85.25973983328576
 20
-138.0546223613197
 30
0.0
 10
85.44594724426352
 20
-137.8175997919345
 30
0.0
 10
85.75893416909847
 20
-137.8175997919345
 30
0.0
 10
86.07639971806424
 20
-137.8175997919345
 30
0.0
 10
86.31118297538401
 20
-138.0418755080242
 30
0.0
 10
86.31118297538401
 20
-138.3443548916292
 30
0.0
  0
HATCH
  5
A6
330
9F
100
AcDbEntity
  8
_U+30EC_U+30A4_U+30E4_U+30FC 1
 62
   179
420
  2234388
100
AcDbHatch
 10
0.0
 20
0.0
 30
0.0
210
0.0
220
0.0
230
1.0
  2
SOLID
 70
     1
 71
     0
 91
        1
 92
        1
 93
        1
 72
     4
 94
        3
 73
     0
 74
     1
 95
       53
 96
       49
 40
0.0
 40
0.0
 40
0.0
 40
0.0
 40
1.0
 40
1.0
 40
1.0
 40
2.0
 40
2.0
 40
2.0
 40
3.0
 40
3.0
 40
3.0
 40
4.0
 40
4.0
 40
4.0
 40
5.0
 40
5.0
 40
5.0
 40
6.0
 40
6.0
 40
6.0
 40
7.0
 40
7.0
 40
7.0
 40
8.0
 40
8.0
 40
8.0
 40
9.0
 40
9.0
 40
9.0
 40
10.0
 40
10.0
 40
10.0
 40
11.0
 40
11.0
 40
11.0
 40
12.0
 40
12.0
 40
12.0
 40
13.0
 40
13.0
 40
13.0
 40
14.0
 40
14.0
 40
14.0
 40
15.0
 40
15.0
 40
15.0
 40
16.0
 40
16.0
 40
16.0
 40
16.0
 10
86.31118297538401
 20
-138.3443548916292
 10
86.31118297538401
 20
-138.4227308139186
 10
86.29430200750629
 20
-138.5241888759592
 10
86.23073999580343
 20
-138.6258191927741
 10
86.1206691950497
 20
-138.7992797504564
 10
85.98958331183594
 20
-138.8204670876907
 10
85.88175182314762
 20
-138.8394151128596
 10
85.88175182314762
 20
-138.8394151128596
 10
85.88175182314762
 20
-138.6173787088352
 10
85.88175182314762
 20
-138.6173787088352
 10
86.08053383264654
 20
-138.5622571810713
 10
86.11016165381969
 20
-138.4353054124398
 10
86.11016165381969
 20
-138.342287834338
 10
86.11016165381969
 20
-138.2027614671854
 10
86.01077064907022
 20
-138.0503159919631
 10
85.7780544490416
 20
-138.0503159919631
 10
85.52208385448753
 20
-138.0503159919631
 10
85.45232067091123
 20
-138.2301499762932
 10
85.45232067091123
 20
-138.3507283182769
 10
85.45232067091123
 20
-138.3824231967412
 10
85.45232067091123
 20
-138.5241888759592
 10
85.58133949683383
 20
-138.6130723394787
 10
85.58133949683383
 20
-138.6130723394787
 10
85.5622192168907
 20
-138.7885999544522
 10
85.5622192168907
 20
-138.7885999544522
 10
85.5622192168907
 20
-138.7885999544522
 10
84.71610376571334
 20
-138.6680216124684
 10
84.71610376571334
 20
-138.6680216124684
 10
84.71610376571334
 20
-138.6680216124684
 10
84.71610376571334
 20
-137.8896022875762
 10
84.71610376571334
 20
-137.8896022875762
 10
84.71610376571334
 20
-137.8896022875762
 10
84.91075166062996
 20
-137.8896022875762
 10
84.91075166062996
 20
-137.8896022875762
 10
84.91075166062996
 20
-137.8896022875762
 10
84.91075166062996
 20
-138.5052408507904
 10
84.91075166062996
 20
-138.5052408507904
 10
84.91075166062996
 20
-138.5052408507904
 10
85.33380938621863
 20
-138.5706976650101
 10
85.33380938621863
 20
-138.5706976650101
 10
85.29987519568893
 20
-138.5093749653727
 10
85.25973983328576
 20
-138.4268649285009
 10
85.25973983328576
 20
-138.3085258985826
 10
85.25973983328576
 20
-138.0546223613197
 10
85.44594724426352
 20
-137.8175997919345
 10
85.75893416909847
 20
-137.8175997919345
 10
86.07639971806424
 20
-137.8175997919345
 10
86.31118297538401
 20
-138.0418755080242
 10
86.31118297538401
 20
-138.3443548916292
 97
        0
 97
        0
 75
     2
 76
     1
 98
        0
  0
ENDBLK
  5
A2
330
9F
100
AcDbEntity
  8
0
100
AcDbBlockEnd
  0
BLOCK
  5
B9
330
B7
100
AcDbEntity
  8
0
100
AcDbBlockBegin
  2
block 5
 70
     0
 10
0.0
 20
0.0
 30
0.0
  3
block 5
  1

  0
SPLINE
  5
BB
330
B7
100
AcDbEntity
  8
_U+30EC_U+30A4_U+30E4_U+30FC 1
370
     0
100
AcDbSpline
210
0.0
220
0.0
230
1.0
 70
    11
 71
     3
 72
    26
 73
    22
 74
     0
 42
0.0000000001
 43
0.0000000001
 12
1.0
 22
0.0
 32
0.0
 13
1.0
 23
0.0
 33
0.0
 40
0.0
 40
0.0
 40
0.0
 40
0.0
 40
1.0
 40
1.0
 40
1.0
 40
2.0
 40
2.0
 40
2.0
 40
3.0
 40
3.0
 40
3.0
 40
4.0
 40
4.0
 40
4.0
 40
5.0
 40
5.0
 40
5.0
 40
6.0
 40
6.0
 40
6.0
 40
7.0
 40
7.0
 40
7.0
 40
7.0
 10
124.2583929810882
 20
-148.8853135478481
 30
0.0
 10
124.2583929810882
 20
-148.8853135478481
 30
0.0
 10
123.1542398780656
 20
-148.8853135478481
 30
0.0
 10
123.1542398780656
 20
-148.8853135478481
 30
0.0
 10
123.1542398780656
 20
-148.8853135478481
 30
0.0
 10
123.1542398780656
 20
-149.2153536953351
 30
0.0
 10
123.1542398780656
 20
-149.2153536953351
 30
0.0
 10
123.1542398780656
 20
-149.2153536953351
 30
0.0
 10
123.0061007721999
 20
-149.2153536953351
 30
0.0
 10
123.0061007721999
 20
-149.2153536953351
 30
0.0
 10
122.9912868616133
 20
-148.883246490557
 30
0.0
 10
122.8286783547095
 20
-148.8367377015061
 30
0.0
 10
122.7143011845992
 20
-148.8071098803329
 30
0.0
 10
122.7143011845992
 20
-148.8071098803329
 30
0.0
 10
122.7143011845992
 20
-148.6610378317584
 30
0.0
 10
122.7143011845992
 20
-148.6610378317584
 30
0.0
 10
122.7143011845992
 20
-148.6610378317584
 30
0.0
 10
124.2583929810882
 20
-148.6610378317584
 30
0.0
 10
124.2583929810882
 20
-148.6610378317584
 30
0.0
 10
124.2583929810882
 20
-148.6610378317584
 30
0.0
 10
124.2583929810882
 20
-148.8853135478481
 30
0.0
 10
124.2583929810882
 20
-148.8853135478481
 30
0.0
  0
HATCH
  5
BC
330
B7
100
AcDbEntity
  8
_U+30EC_U+30A4_U+30E4_U+30FC 1
 62
   179
420
  2234388
100
AcDbHatch
 10
0.0
 20
0.0
 30
0.0
210
0.0
220
0.0
230
1.0
  2
SOLID
 70
     1
 71
     0
 91
        1
 92
        1
 93
        1
 72
     4
 94
        3
 73
     0
 74
     1
 95
       26
 96
       22
 40
0.0
 40
0.0
 40
0.0
 40
0.0
 40
1.0
 40
1.0
 40
1.0
 40
2.0
 40
2.0
 40
2.0
 40
3.0
 40
3.0
 40
3.0
 40
4.0
 40
4.0
 40
4.0
 40
5.0
 40
5.0
 40
5.0
 40
6.0
 40
6.0
 40
6.0
 40
7.0
 40
7.0
 40
7.0
 40
7.0
 10
124.2583929810882
 20
-148.8853135478481
 10
124.2583929810882
 20
-148.8853135478481
 10
123.1542398780656
 20
-148.8853135478481
 10
123.1542398780656
 20
-148.8853135478481
 10
123.1542398780656
 20
-148.8853135478481
 10
123.1542398780656
 20
-149.2153536953351
 10
123.1542398780656
 20
-149.2153536953351
 10
123.1542398780656
 20
-149.2153536953351
 10
123.0061007721999
 20
-149.2153536953351
 10
123.0061007721999
 20
-149.2153536953351
 10
122.9912868616133
 20
-148.883246490557
 10
122.8286783547095
 20
-148.8367377015061
 10
122.7143011845992
 20
-148.8071098803329
 10
122.7143011845992
 20
-148.8071098803329
 10
122.7143011845992
 20
-148.6610378317584
 10
122.7143011845992
 20
-148.6610378317584
 10
122.7143011845992
 20
-148.6610378317584
 10
124.2583929810882
 20
-148.6610378317584
 10
124.2583929810882
 20
-148.6610378317584
 10
124.2583929810882
 20
-148.6610378317584
 10
124.2583929810882
 20
-148.8853135478481
 10
124.2583929810882
 20
-148.8853135478481
 97
        0
 97
        0
 75
     2
 76
     1
 98
        0
  0
ENDBLK
  5
BA
330
B7
100
AcDbEntity
  8
0
100
AcDbBlockEnd
  0
BLOCK
  5
C7
330
C5
100
AcDbEntity
  8
0
100
AcDbBlockBegin
  2
block 6
 70
     0
 10
0.0
 20
0.0
 30
0.0
  3
block 6
  1

  0
SPLINE
  5
C9
330
C5
100
AcDbEntity
  8
_U+30EC_U+30A4_U+30E4_U+30FC 1
370
     0
100
AcDbSpline
210
0.0
220
0.0
230
1.0
 70
    11
 71
     3
 72
    32
 73
    28
 74
     0
 42
0.0000000001
 43
0.0000000001
 12
1.0
 22
0.0
 32
0.0
 13
1.0
 23
0.0
 33
0.0
 40
0.0
 40
0.0
 40
0.0
 40
0.0
 40
1.0
 40
1.0
 40
1.0
 40
2.0
 40
2.0
 40
2.0
 40
3.0
 40
3.0
 40
3.0
 40
4.0
 40
4.0
 40
4.0
 40
5.0
 40
5.0
 40
5.0
 40
6.0
 40
6.0
 40
6.0
 40
7.0
 40
7.0
 40
7.0
 40
8.0
 40
8.0
 40
8.0
 40
9.0
 40
9.0
 40
9.0
 40
9.0
 10
124.3117919611096
 20
-157.4453423000484
 30
0.0
 10
124.3117919611096
 20
-157.6186306029565
 30
0.0
 10
124.241856522759
 20
-157.8642659110548
 30
0.0
 10
123.9097493179809
 20
-157.9021619613925
 30
0.0
 10
123.9097493179809
 20
-157.9021619613925
 30
0.0
 10
123.9097493179809
 20
-157.688566041307
 30
0.0
 10
123.9097493179809
 20
-157.688566041307
 30
0.0
 10
123.9690049603272
 20
-157.6778862453027
 30
0.0
 10
124.1171440661929
 20
-157.6461913668385
 30
0.0
 10
124.1171440661929
 20
-157.4432752427572
 30
0.0
 10
124.1171440661929
 20
-157.151131145608
 30
0.0
 10
123.787103918706
 20
-157.1132350952703
 30
0.0
 10
123.5817762277851
 20
-157.1004882419749
 30
0.0
 10
123.6620469525914
 20
-157.1914387627855
 30
0.0
 10
123.7192355376466
 20
-157.2589626342964
 30
0.0
 10
123.7192355376466
 20
-157.4408636759176
 30
0.0
 10
123.7192355376466
 20
-157.6206976602476
 30
0.0
 10
123.6134711062494
 20
-157.9231770438525
 30
0.0
 10
123.2072943485385
 20
-157.9231770438525
 30
0.0
 10
122.8879339970558
 20
-157.9231770438525
 30
0.0
 10
122.6677923955483
 20
-157.7243950343536
 30
0.0
 10
122.6677923955483
 20
-157.4071017401621
 30
0.0
 10
122.6677923955483
 20
-156.8930934937628
 30
0.0
 10
123.222108259125
 20
-156.8824136977586
 30
0.0
 10
123.4357041792105
 20
-156.8824136977586
 30
0.0
 10
123.6665255767223
 20
-156.8824136977586
 30
0.0
 10
124.3117919611096
 20
-156.901706232476
 30
0.0
 10
124.3117919611096
 20
-157.4453423000484
 30
0.0
  0
SPLINE
  5
CA
330
C5
100
AcDbEntity
  8
_U+30EC_U+30A4_U+30E4_U+30FC 1
370
     0
100
AcDbSpline
210
0.0
220
0.0
230
1.0
 70
    11
 71
     3
 72
    17
 73
    13
 74
     0
 42
0.0000000001
 43
0.0000000001
 12
1.0
 22
0.0
 32
0.0
 13
1.0
 23
0.0
 33
0.0
 40
0.0
 40
0.0
 40
0.0
 40
0.0
 40
1.0
 40
1.0
 40
1.0
 40
2.0
 40
2.0
 40
2.0
 40
3.0
 40
3.0
 40
3.0
 40
4.0
 40
4.0
 40
4.0
 40
4.0
 10
122.8603732331738
 20
-157.405034682871
 30
0.0
 10
122.8603732331738
 20
-157.5235459675636
 30
0.0
 10
122.9175618182289
 20
-157.6992458373113
 30
0.0
 10
123.2031602339562
 20
-157.6992458373113
 30
0.0
 10
123.4295030073371
 20
-157.6992458373113
 30
0.0
 10
123.52458764273
 20
-157.5593749606102
 30
0.0
 10
123.52458764273
 20
-157.4239827080399
 30
0.0
 10
123.52458764273
 20
-157.1618109416123
 30
0.0
 10
123.3151258372268
 20
-157.1235703817261
 30
0.0
 10
123.1990261193739
 20
-157.1235703817261
 30
0.0
 10
123.0233262496261
 20
-157.1235703817261
 30
0.0
 10
122.8603732331738
 20
-157.2189995266675
 30
0.0
 10
122.8603732331738
 20
-157.405034682871
 30
0.0
  0
HATCH
  5
CB
330
C5
100
AcDbEntity
  8
_U+30EC_U+30A4_U+30E4_U+30FC 1
 62
   179
420
  2234388
100
AcDbHatch
 10
0.0
 20
0.0
 30
0.0
210
0.0
220
0.0
230
1.0
  2
SOLID
 70
     1
 71
     0
 91
        2
 92
        1
 93
        1
 72
     4
 94
        3
 73
     0
 74
     1
 95
       32
 96
       28
 40
0.0
 40
0.0
 40
0.0
 40
0.0
 40
1.0
 40
1.0
 40
1.0
 40
2.0
 40
2.0
 40
2.0
 40
3.0
 40
3.0
 40
3.0
 40
4.0
 40
4.0
 40
4.0
 40
5.0
 40
5.0
 40
5.0
 40
6.0
 40
6.0
 40
6.0
 40
7.0
 40
7.0
 40
7.0
 40
8.0
 40
8.0
 40
8.0
 40
9.0
 40
9.0
 40
9.0
 40
9.0
 10
124.3117919611096
 20
-157.4453423000484
 10
124.3117919611096
 20
-157.6186306029565
 10
124.241856522759
 20
-157.8642659110548
 10
123.9097493179809
 20
-157.9021619613925
 10
123.9097493179809
 20
-157.9021619613925
 10
123.9097493179809
 20
-157.688566041307
 10
123.9097493179809
 20
-157.688566041307
 10
123.9690049603272
 20
-157.6778862453027
 10
124.1171440661929
 20
-157.6461913668385
 10
124.1171440661929
 20
-157.4432752427572
 10
124.1171440661929
 20
-157.151131145608
 10
123.787103918706
 20
-157.1132350952703
 10
123.5817762277851
 20
-157.1004882419749
 10
123.6620469525914
 20
-157.1914387627855
 10
123.7192355376466
 20
-157.2589626342964
 10
123.7192355376466
 20
-157.4408636759176
 10
123.7192355376466
 20
-157.6206976602476
 10
123.6134711062494
 20
-157.9231770438525
 10
123.2072943485385
 20
-157.9231770438525
 10
122.8879339970558
 20
-157.9231770438525
 10
122.6677923955483
 20
-157.7243950343536
 10
122.6677923955483
 20
-157.4071017401621
 10
122.6677923955483
 20
-156.8930934937628
 10
123.222108259125
 20
-156.8824136977586
 10
123.4357041792105
 20
-156.8824136977586
 10
123.6665255767223
 20
-156.8824136977586
 10
124.3117919611096
 20
-156.901706232476
 10
124.3117919611096
 20
-157.4453423000484
 97
        0
 97
        0
 92
        1
 93
        1
 72
     4
 94
        3
 73
     0
 74
     1
 95
       17
 96
       13
 40
0.0
 40
0.0
 40
0.0
 40
0.0
 40
1.0
 40
1.0
 40
1.0
 40
2.0
 40
2.0
 40
2.0
 40
3.0
 40
3.0
 40
3.0
 40
4.0
 40
4.0
 40
4.0
 40
4.0
 10
122.8603732331738
 20
-157.405034682871
 10
122.8603732331738
 20
-157.5235459675636
 10
122.9175618182289
 20
-157.6992458373113
 10
123.2031602339562
 20
-157.6992458373113
 10
123.4295030073371
 20
-157.6992458373113
 10
123.52458764273
 20
-157.5593749606102
 10
123.52458764273
 20
-157.4239827080399
 10
123.52458764273
 20
-157.1618109416123
 10
123.3151258372268
 20
-157.1235703817261
 10
123.1990261193739
 20
-157.1235703817261
 10
123.0233262496261
 20
-157.1235703817261
 10
122.8603732331738
 20
-157.2189995266675
 10
122.8603732331738
 20
-157.405034682871
 97
        0
 97
        0
 75
     2
 76
     1
 98
        0
  0
POLYLINE
  5
CC
330
C5
100
AcDbEntity
  8
_U+30EC_U+30A4_U+30E4_U+30FC 1
370
     0
100
AcDb2dPolyline
 66
     1
 10
0.0
 20
0.0
 30
0.0
  0
VERTEX
  5
CD
330
CC
100
AcDbEntity
  8
_U+30EC_U+30A4_U+30E4_U+30FC 1
370
     0
100
AcDbVertex
100
AcDb2dVertex
 10
124.2608045479279
 20
-156.6660617012849
 30
0.0
  0
VERTEX
  5
CE
330
CC
100
AcDbEntity
  8
_U+30EC_U+30A4_U+30E4_U+30FC 1
370
     0
100
AcDbVertex
100
AcDb2dVertex
 10
124.0093125775046
 20
-156.6660617012849
 30
0.0
  0
VERTEX
  5
CF
330
CC
100
AcDbEntity
  8
_U+30EC_U+30A4_U+30E4_U+30FC 1
370
     0
100
AcDbVertex
100
AcDb2dVertex
 10
124.0093125775046
 20
-156.4142252213131
 30
0.0
  0
VERTEX
  5
D0
330
CC
100
AcDbEntity
  8
_U+30EC_U+30A4_U+30E4_U+30FC 1
370
     0
100
AcDbVertex
100
AcDb2dVertex
 10
124.2608045479279
 20
-156.4142252213131
 30
0.0
  0
VERTEX
  5
D1
330
CC
100
AcDbEntity
  8
_U+30EC_U+30A4_U+30E4_U+30FC 1
370
     0
100
AcDbVertex
100
AcDb2dVertex
 10
124.2608045479279
 20
-156.6660617012849
 30
0.0
  0
SEQEND
  5
D2
330
CC
100
AcDbEntity
  8
_U+30EC_U+30A4_U+30E4_U+30FC 1
370
     0
  0
HATCH
  5
D3
330
C5
100
AcDbEntity
  8
_U+30EC_U+30A4_U+30E4_U+30FC 1
 62
   179
420
  2234388
100
AcDbHatch
 10
0.0
 20
0.0
 30
0.0
210
0.0
220
0.0
230
1.0
  2
SOLID
 70
     1
 71
     0
 91
        1
 92
        1
 93
        4
 72
     1
 10
124.2608045479279
 20
-156.6660617012849
 11
124.0093125775046
 21
-156.6660617012849
 72
     1
 10
124.0093125775046
 20
-156.6660617012849
 11
124.0093125775046
 21
-156.4142252213131
 72
     1
 10
124.0093125775046
 20
-156.4142252213131
 11
124.2608045479279
 21
-156.4142252213131
 72
     1
 10
124.2608045479279
 20
-156.4142252213131
 11
124.2608045479279
 21
-156.6660617012849
 97
        0
 75
     2
 76
     1
 98
        0
  0
SPLINE
  5
D4
330
C5
100
AcDbEntity
  8
_U+30EC_U+30A4_U+30E4_U+30FC 1
370
     0
100
AcDbSpline
210
0.0
220
0.0
230
1.0
 70
    11
 71
     3
 72
    53
 73
    49
 74
     0
 42
0.0000000001
 43
0.0000000001
 12
1.0
 22
0.0
 32
0.0
 13
1.0
 23
0.0
 33
0.0
 40
0.0
 40
0.0
 40
0.0
 40
0.0
 40
1.0
 40
1.0
 40
1.0
 40
2.0
 40
2.0
 40
2.0
 40
3.0
 40
3.0
 40
3.0
 40
4.0
 40
4.0
 40
4.0
 40
5.0
 40
5.0
 40
5.0
 40
6.0
 40
6.0
 40
6.0
 40
7.0
 40
7.0
 40
7.0
 40
8.0
 40
8.0
 40
8.0
 40
9.0
 40
9.0
 40
9.0
 40
10.0
 40
10.0
 40
10.0
 40
11.0
 40
11.0
 40
11.0
 40
12.0
 40
12.0
 40
12.0
 40
13.0
 40
13.0
 40
13.0
 40
14.0
 40
14.0
 40
14.0
 40
15.0
 40
15.0
 40
15.0
 40
16.0
 40
16.0
 40
16.0
 40
16.0
 10
124.3117919611096
 20
-155.6969563412841
 30
0.0
 10
124.3117919611096
 20
-155.7751600087993
 30
0.0
 10
124.2945664836833
 20
-155.8767903256141
 30
0.0
 10
124.2311767267547
 20
-155.978420642429
 30
0.0
 10
124.1212781807752
 20
-156.1517089453371
 30
0.0
 10
123.9900200427872
 20
-156.1730685373456
 30
0.0
 10
123.8821885540989
 20
-156.1920165625145
 30
0.0
 10
123.8821885540989
 20
-156.1920165625145
 30
0.0
 10
123.8821885540989
 20
-155.9698079037159
 30
0.0
 10
123.8821885540989
 20
-155.9698079037159
 30
0.0
 10
124.0809705635978
 20
-155.9150308855004
 30
0.0
 10
124.110598384771
 20
-155.7879068620947
 30
0.0
 10
124.110598384771
 20
-155.6948892839929
 30
0.0
 10
124.110598384771
 20
-155.5553629168403
 30
0.0
 10
124.0113796347958
 20
-155.4030896963923
 30
0.0
 10
123.7784911799929
 20
-155.4030896963923
 30
0.0
 10
123.5225205854388
 20
-155.4030896963923
 30
0.0
 10
123.4529296566368
 20
-155.5829236807223
 30
0.0
 10
123.4529296566368
 20
-155.7035020227061
 30
0.0
 10
123.4529296566368
 20
-155.7351969011704
 30
0.0
 10
123.4529296566368
 20
-155.8767903256141
 30
0.0
 10
123.5817762277851
 20
-155.9656737891336
 30
0.0
 10
123.5817762277851
 20
-155.9656737891336
 30
0.0
 10
123.5628282026162
 20
-156.1413736588813
 30
0.0
 10
123.5628282026162
 20
-156.1413736588813
 30
0.0
 10
123.5628282026162
 20
-156.1413736588813
 30
0.0
 10
122.7167127514389
 20
-156.0207953168976
 30
0.0
 10
122.7167127514389
 20
-156.0207953168976
 30
0.0
 10
122.7167127514389
 20
-156.0207953168976
 30
0.0
 10
122.7167127514389
 20
-155.2422037372311
 30
0.0
 10
122.7167127514389
 20
-155.2422037372311
 30
0.0
 10
122.7167127514389
 20
-155.2422037372311
 30
0.0
 10
122.9113606463555
 20
-155.2422037372311
 30
0.0
 10
122.9113606463555
 20
-155.2422037372311
 30
0.0
 10
122.9113606463555
 20
-155.2422037372311
 30
0.0
 10
122.9113606463555
 20
-155.8578423004453
 30
0.0
 10
122.9113606463555
 20
-155.8578423004453
 30
0.0
 10
122.9113606463555
 20
-155.8578423004453
 30
0.0
 10
123.3344183719442
 20
-155.923299114665
 30
0.0
 10
123.3344183719442
 20
-155.923299114665
 30
0.0
 10
123.3003119266402
 20
-155.8619764150276
 30
0.0
 10
123.2603488190113
 20
-155.7796386329301
 30
0.0
 10
123.2603488190113
 20
-155.6611273482375
 30
0.0
 10
123.2603488190113
 20
-155.4072238109746
 30
0.0
 10
123.4463839752148
 20
-155.1702012415894
 30
0.0
 10
123.759543154824
 20
-155.1702012415894
 30
0.0
 10
124.0768364490155
 20
-155.1702012415894
 30
0.0
 10
124.3117919611096
 20
-155.3944769576792
 30
0.0
 10
124.3117919611096
 20
-155.6969563412841
 30
0.0
  0
HATCH
  5
D5
330
C5
100
AcDbEntity
  8
_U+30EC_U+30A4_U+30E4_U+30FC 1
 62
   179
420
  2234388
100
AcDbHatch
 10
0.0
 20
0.0
 30
0.0
210
0.0
220
0.0
230
1.0
  2
SOLID
 70
     1
 71
     0
 91
        1
 92
        1
 93
        1
 72
     4
 94
        3
 73
     0
 74
     1
 95
       53
 96
       49
 40
0.0
 40
0.0
 40
0.0
 40
0.0
 40
1.0
 40
1.0
 40
1.0
 40
2.0
 40
2.0
 40
2.0
 40
3.0
 40
3.0
 40
3.0
 40
4.0
 40
4.0
 40
4.0
 40
5.0
 40
5.0
 40
5.0
 40
6.0
 40
6.0
 40
6.0
 40
7.0
 40
7.0
 40
7.0
 40
8.0
 40
8.0
 40
8.0
 40
9.0
 40
9.0
 40
9.0
 40
10.0
 40
10.0
 40
10.0
 40
11.0
 40
11.0
 40
11.0
 40
12.0
 40
12.0
 40
12.0
 40
13.0
 40
13.0
 40
13.0
 40
14.0
 40
14.0
 40
14.0
 40
15.0
 40
15.0
 40
15.0
 40
16.0
 40
16.0
 40
16.0
 40
16.0
 10
124.3117919611096
 20
-155.6969563412841
 10
124.3117919611096
 20
-155.7751600087993
 10
124.2945664836833
 20
-155.8767903256141
 10
124.2311767267547
 20
-155.978420642429
 10
124.1212781807752
 20
-156.1517089453371
 10
123.9900200427872
 20
-156.1730685373456
 10
123.8821885540989
 20
-156.1920165625145
 10
123.8821885540989
 20
-156.1920165625145
 10
123.8821885540989
 20
-155.9698079037159
 10
123.8821885540989
 20
-155.9698079037159
 10
124.0809705635978
 20
-155.9150308855004
 10
124.110598384771
 20
-155.7879068620947
 10
124.110598384771
 20
-155.6948892839929
 10
124.110598384771
 20
-155.5553629168403
 10
124.0113796347958
 20
-155.4030896963923
 10
123.7784911799929
 20
-155.4030896963923
 10
123.5225205854388
 20
-155.4030896963923
 10
123.4529296566368
 20
-155.5829236807223
 10
123.4529296566368
 20
-155.7035020227061
 10
123.4529296566368
 20
-155.7351969011704
 10
123.4529296566368
 20
-155.8767903256141
 10
123.5817762277851
 20
-155.9656737891336
 10
123.5817762277851
 20
-155.9656737891336
 10
123.5628282026162
 20
-156.1413736588813
 10
123.5628282026162
 20
-156.1413736588813
 10
123.5628282026162
 20
-156.1413736588813
 10
122.7167127514389
 20
-156.0207953168976
 10
122.7167127514389
 20
-156.0207953168976
 10
122.7167127514389
 20
-156.0207953168976
 10
122.7167127514389
 20
-155.2422037372311
 10
122.7167127514389
 20
-155.2422037372311
 10
122.7167127514389
 20
-155.2422037372311
 10
122.9113606463555
 20
-155.2422037372311
 10
122.9113606463555
 20
-155.2422037372311
 10
122.9113606463555
 20
-155.2422037372311
 10
122.9113606463555
 20
-155.8578423004453
 10
122.9113606463555
 20
-155.8578423004453
 10
122.9113606463555
 20
-155.8578423004453
 10
123.3344183719442
 20
-155.923299114665
 10
123.3344183719442
 20
-155.923299114665
 10
123.3003119266402
 20
-155.8619764150276
 10
123.2603488190113
 20
-155.7796386329301
 10
123.2603488190113
 20
-155.6611273482375
 10
123.2603488190113
 20
-155.4072238109746
 10
123.4463839752148
 20
-155.1702012415894
 10
123.759543154824
 20
-155.1702012415894
 10
124.0768364490155
 20
-155.1702012415894
 10
124.3117919611096
 20
-155.3944769576792
 10
124.3117919611096
 20
-155.6969563412841
 97
        0
 97
        0
 75
     2
 76
     1
 98
        0
  0
ENDBLK
  5
C8
330
C5
100
AcDbEntity
  8
0
100
AcDbBlockEnd
  0
ENDSEC
  0
SECTION
  2
ENTITIES
  0
SPLINE
  5
41
330
1F
100
AcDbEntity
  8
_U+30EC_U+30A4_U+30E4_U+30FC 1
 62
   179
420
  2234388
370
     9
100
AcDbSpline
210
0.0
220
0.0
230
1.0
 70
    11
 71
     3
 72
    17
 73
    13
 74
     0
 42
0.0000000001
 43
0.0000000001
 12
1.0
 22
0.0
 32
0.0
 13
1.0
 23
0.0
 33
0.0
 40
0.0
 40
0.0
 40
0.0
 40
0.0
 40
1.0
 40
1.0
 40
1.0
 40
2.0
 40
2.0
 40
2.0
 40
3.0
 40
3.0
 40
3.0
 40
4.0
 40
4.0
 40
4.0
 40
4.0
 10
121.0711090632923
 20
-165.3383467366873
 30
0.0
 10
121.0711090632923
 20
-165.2833221022339
 30
0.0
 10
121.0263012901373
 20
-165.2385143290788
 30
0.0
 10
120.9712658897604
 20
-165.2385143290788
 30
0.0
 10
120.9162304893836
 20
-165.2385143290788
 30
0.0
 10
120.8714334821519
 20
-165.2833221022339
 30
0.0
 10
120.8714334821519
 20
-165.3383467366873
 30
0.0
 10
120.8714334821519
 20
-165.3933821370642
 30
0.0
 10
120.9162304893836
 20
-165.4381899102192
 30
0.0
 10
120.9712658897604
 20
-165.4381899102192
 30
0.0
 10
121.0263012901373
 20
-165.4381899102192
 30
0.0
 10
121.0711090632923
 20
-165.3933821370642
 30
0.0
 10
121.0711090632923
 20
-165.3383467366873
 30
0.0
  0
SPLINE
  5
42
330
1F
100
AcDbEntity
  8
_U+30EC_U+30A4_U+30E4_U+30FC 1
 62
   179
420
  2234388
370
     9
100
AcDbSpline
210
0.0
220
0.0
230
1.0
 70
    11
 71
     3
 72
    17
 73
    13
 74
     0
 42
0.0000000001
 43
0.0000000001
 12
1.0
 22
0.0
 32
0.0
 13
1.0
 23
0.0
 33
0.0
 40
0.0
 40
0.0
 40
0.0
 40
0.0
 40
1.0
 40
1.0
 40
1.0
 40
2.0
 40
2.0
 40
2.0
 40
3.0
 40
3.0
 40
3.0
 40
4.0
 40
4.0
 40
4.0
 40
4.0
 10
106.0717016166841
 20
-165.3383467366873
 30
0.0
 10
106.0717016166841
 20
-165.2833221022339
 30
0.0
 10
106.0268938435291
 20
-165.2385143290788
 30
0.0
 10
105.9715031676803
 20
-165.2385143290788
 30
0.0
 10
105.9164785332268
 20
-165.2385143290788
 30
0.0
 10
105.8716707600718
 20
-165.2833221022339
 30
0.0
 10
105.8716707600718
 20
-165.3383467366873
 30
0.0
 10
105.8716707600718
 20
-165.3933821370642
 30
0.0
 10
105.9164785332268
 20
-165.4381899102192
 30
0.0
 10
105.9715031676803
 20
-165.4381899102192
 30
0.0
 10
106.0268938435291
 20
-165.4381899102192
 30
0.0
 10
106.0717016166841
 20
-165.3933821370642
 30
0.0
 10
106.0717016166841
 20
-165.3383467366873
 30
0.0
  0
POLYLINE
  5
43
330
1F
100
AcDbEntity
  8
_U+30EC_U+30A4_U+30E4_U+30FC 1
 62
   179
420
  2234388
370
     9
100
AcDb2dPolyline
 66
     1
 10
0.0
 20
0.0
 30
0.0
  0
VERTEX
  5
44
330
43
100
AcDbEntity
  8
_U+30EC_U+30A4_U+30E4_U+30FC 1
 62
   179
420
  2234388
370
     9
100
AcDbVertex
100
AcDb2dVertex
 10
105.9714493380634
 20
-165.3383467366873
 30
0.0
  0
VERTEX
  5
45
330
43
100
AcDbEntity
  8
_U+30EC_U+30A4_U+30E4_U+30FC 1
 62
   179
420
  2234388
370
     9
100
AcDbVertex
100
AcDb2dVertex
 10
120.9712012942201
 20
-165.3383467366873
 30
0.0
  0
SEQEND
  5
46
330
43
100
AcDbEntity
  8
_U+30EC_U+30A4_U+30E4_U+30FC 1
 62
   179
420
  2234388
370
     9
  0
POLYLINE
  5
47
330
1F
100
AcDbEntity
  8
_U+30EC_U+30A4_U+30E4_U+30FC 1
 62
   179
420
  2234388
370
    25
100
AcDb2dPolyline
 66
     1
 10
0.0
 20
0.0
 30
0.0
  0
VERTEX
  5
48
330
47
100
AcDbEntity
  8
_U+30EC_U+30A4_U+30E4_U+30FC 1
 62
   179
420
  2234388
370
    25
100
AcDbVertex
100
AcDb2dVertex
 10
100.4717096713339
 20
-131.338322585438
 30
0.0
  0
VERTEX
  5
49
330
47
100
AcDbEntity
  8
_U+30EC_U+30A4_U+30E4_U+30FC 1
 62
   179
420
  2234388
370
    25
100
AcDbVertex
100
AcDb2dVertex
 10
101.4714763811534
 20
-131.338322585438
 30
0.0
  0
SEQEND
  5
4A
330
47
100
AcDbEntity
  8
_U+30EC_U+30A4_U+30E4_U+30FC 1
 62
   179
420
  2234388
370
    25
  0
SPLINE
  5
4B
330
1F
100
AcDbEntity
  8
_U+30EC_U+30A4_U+30E4_U+30FC 1
 62
   179
420
  2234388
370
    25
100
AcDbSpline
210
0.0
220
0.0
230
1.0
 70
     8
 71
     3
 72
    14
 73
    10
 74
     0
 42
0.0000000001
 43
0.0000000001
 12
1.0
 22
0.0
 32
0.0
 13
1.0
 23
0.0
 33
0.0
 40
0.0
 40
0.0
 40
0.0
 40
0.0
 40
1.0
 40
1.0
 40
1.0
 40
2.0
 40
2.0
 40
2.0
 40
3.0
 40
3.0
 40
3.0
 40
3.0
 10
105.9714493380634
 20
-161.5382233957591
 30
0.0
 10
105.9714493380634
 20
-161.5382233957591
 30
0.0
 10
105.9714493380634
 20
-152.4369270791325
 30
0.0
 10
105.9714493380634
 20
-152.4369270791325
 30
0.0
 10
105.9714493380634
 20
-152.0841493014429
 30
0.0
 10
106.1901698376831
 20
-151.8382556111832
 30
0.0
 10
106.4416941058766
 20
-151.8382556111832
 30
0.0
 10
106.4416941058766
 20
-151.8382556111832
 30
0.0
 10
120.9712012942201
 20
-151.8382556111832
 30
0.0
 10
120.9712012942201
 20
-151.8382556111832
 30
0.0
  0
SPLINE
  5
4C
330
1F
100
AcDbEntity
  8
_U+30EC_U+30A4_U+30E4_U+30FC 1
 62
   179
420
  2234388
370
    25
100
AcDbSpline
210
0.0
220
0.0
230
1.0
 70
     8
 71
     3
 72
    14
 73
    10
 74
     0
 42
0.0000000001
 43
0.0000000001
 12
1.0
 22
0.0
 32
0.0
 13
1.0
 23
0.0
 33
0.0
 40
0.0
 40
0.0
 40
0.0
 40
0.0
 40
1.0
 40
1.0
 40
1.0
 40
2.0
 40
2.0
 40
2.0
 40
3.0
 40
3.0
 40
3.0
 40
3.0
 10
90.77169882306445
 20
-146.3382898600626
 30
0.0
 10
90.77169882306445
 20
-146.3382898600626
 30
0.0
 10
99.99048366166146
 20
-146.3382898600626
 30
0.0
 10
99.99048366166146
 20
-146.3382898600626
 30
0.0
 10
100.3136228522545
 20
-146.3382898600626
 30
0.0
 10
100.4716666076403
 20
-146.1777914741435
 30
0.0
 10
100.4716666076403
 20
-145.8384065051528
 30
0.0
 10
100.4716666076403
 20
-145.8384065051528
 30
0.0
 10
100.4716666076403
 20
-131.3381933943576
 30
0.0
 10
100.4716666076403
 20
-131.3381933943576
 30
0.0
  0
POLYLINE
  5
4D
330
1F
100
AcDbEntity
  8
_U+30EC_U+30A4_U+30E4_U+30FC 1
 62
   179
420
  2234388
370
    25
100
AcDb2dPolyline
 66
     1
 10
0.0
 20
0.0
 30
0.0
  0
VERTEX
  5
4E
330
4D
100
AcDbEntity
  8
_U+30EC_U+30A4_U+30E4_U+30FC 1
 62
   179
420
  2234388
370
    25
100
AcDbVertex
100
AcDb2dVertex
 10
120.9712012942201
 20
-150.8382520510491
 30
0.0
  0
VERTEX
  5
4F
330
4D
100
AcDbEntity
  8
_U+30EC_U+30A4_U+30E4_U+30FC 1
 62
   179
420
  2234388
370
    25
100
AcDbVertex
100
AcDb2dVertex
 10
120.9712012942201
 20
-151.8383848022639
 30
0.0
  0
SEQEND
  5
50
330
4D
100
AcDbEntity
  8
_U+30EC_U+30A4_U+30E4_U+30FC 1
 62
   179
420
  2234388
370
    25
  0
POLYLINE
  5
51
330
1F
100
AcDbEntity
  8
_U+30EC_U+30A4_U+30E4_U+30FC 1
 62
   179
420
  2234388
370
    25
100
AcDb2dPolyline
 66
     1
 10
0.0
 20
0.0
 30
0.0
  0
VERTEX
  5
52
330
51
100
AcDbEntity
  8
_U+30EC_U+30A4_U+30E4_U+30FC 1
 62
   179
420
  2234388
370
    25
100
AcDbVertex
100
AcDb2dVertex
 10
104.9716718623208
 20
-150.8382520510491
 30
0.0
  0
VERTEX
  5
53
330
51
100
AcDbEntity
  8
_U+30EC_U+30A4_U+30E4_U+30FC 1
 62
   179
420
  2234388
370
    25
100
AcDbVertex
100
AcDb2dVertex
 10
120.9712012942201
 20
-150.8382520510491
 30
0.0
  0
SEQEND
  5
54
330
51
100
AcDbEntity
  8
_U+30EC_U+30A4_U+30E4_U+30FC 1
 62
   179
420
  2234388
370
    25
  0
POLYLINE
  5
55
330
1F
100
AcDbEntity
  8
_U+30EC_U+30A4_U+30E4_U+30FC 1
 62
   179
420
  2234388
370
    25
100
AcDb2dPolyline
 66
     1
 10
0.0
 20
0.0
 30
0.0
  0
VERTEX
  5
56
330
55
100
AcDbEntity
  8
_U+30EC_U+30A4_U+30E4_U+30FC 1
 62
   179
420
  2234388
370
    25
100
AcDbVertex
100
AcDb2dVertex
 10
104.9716718623208
 20
-150.8382520510491
 30
0.0
  0
VERTEX
  5
57
330
55
100
AcDbEntity
  8
_U+30EC_U+30A4_U+30E4_U+30FC 1
 62
   179
420
  2234388
370
    25
100
AcDbVertex
100
AcDb2dVertex
 10
104.9716718623208
 20
-160.238022827779
 30
0.0
  0
SEQEND
  5
58
330
55
100
AcDbEntity
  8
_U+30EC_U+30A4_U+30E4_U+30FC 1
 62
   179
420
  2234388
370
    25
  0
POLYLINE
  5
59
330
1F
100
AcDbEntity
  8
_U+30EC_U+30A4_U+30E4_U+30FC 1
 62
   179
420
  2234388
370
    25
100
AcDb2dPolyline
 66
     1
 10
0.0
 20
0.0
 30
0.0
  0
VERTEX
  5
5A
330
59
100
AcDbEntity
  8
_U+30EC_U+30A4_U+30E4_U+30FC 1
 62
   179
420
  2234388
370
    25
100
AcDbVertex
100
AcDb2dVertex
 10
92.07221160282288
 20
-147.3383795475838
 30
0.0
  0
VERTEX
  5
5B
330
59
100
AcDbEntity
  8
_U+30EC_U+30A4_U+30E4_U+30FC 1
 62
   179
420
  2234388
370
    25
100
AcDbVertex
100
AcDb2dVertex
 10
101.4716163381575
 20
-147.3383795475838
 30
0.0
  0
SEQEND
  5
5C
330
59
100
AcDbEntity
  8
_U+30EC_U+30A4_U+30E4_U+30FC 1
 62
   179
420
  2234388
370
    25
  0
POLYLINE
  5
5D
330
1F
100
AcDbEntity
  8
_U+30EC_U+30A4_U+30E4_U+30FC 1
 62
   179
420
  2234388
370
    25
100
AcDb2dPolyline
 66
     1
 10
0.0
 20
0.0
 30
0.0
  0
VERTEX
  5
5E
330
5D
100
AcDbEntity
  8
_U+30EC_U+30A4_U+30E4_U+30FC 1
 62
   179
420
  2234388
370
    25
100
AcDbVertex
100
AcDb2dVertex
 10
101.4714440833832
 20
-131.338322585438
 30
0.0
  0
VERTEX
  5
5F
330
5D
100
AcDbEntity
  8
_U+30EC_U+30A4_U+30E4_U+30FC 1
 62
   179
420
  2234388
370
    25
100
AcDbVertex
100
AcDb2dVertex
 10
101.4714440833832
 20
-147.3382072928096
 30
0.0
  0
SEQEND
  5
60
330
5D
100
AcDbEntity
  8
_U+30EC_U+30A4_U+30E4_U+30FC 1
 62
   179
420
  2234388
370
    25
  0
SPLINE
  5
61
330
1F
100
AcDbEntity
  8
_U+30EC_U+30A4_U+30E4_U+30FC 1
 62
   179
420
  2234388
370
    25
100
AcDbSpline
210
0.0
220
0.0
230
1.0
 70
     8
 71
     3
 72
     8
 73
     4
 74
     0
 42
0.0000000001
 43
0.0000000001
 12
1.0
 22
0.0
 32
0.0
 13
1.0
 23
0.0
 33
0.0
 40
0.0
 40
0.0
 40
0.0
 40
0.0
 40
1.0
 40
1.0
 40
1.0
 40
1.0
 10
90.77169882306445
 20
-146.3382898600626
 30
0.0
 10
91.2003225310465
 20
-154.6419819763135
 30
0.0
 10
97.34465032898957
 20
-161.0212545204272
 30
0.0
 10
105.9714816358335
 20
-161.5380726728316
 30
0.0
  0
SPLINE
  5
62
330
1F
100
AcDbEntity
  8
_U+30EC_U+30A4_U+30E4_U+30FC 1
 62
   179
420
  2234388
370
    25
100
AcDbSpline
210
0.0
220
0.0
230
1.0
 70
     8
 71
     3
 72
     8
 73
     4
 74
     0
 42
0.0000000001
 43
0.0000000001
 12
1.0
 22
0.0
 32
0.0
 13
1.0
 23
0.0
 33
0.0
 40
0.0
 40
0.0
 40
0.0
 40
0.0
 40
1.0
 40
1.0
 40
1.0
 40
1.0
 10
92.07221160282288
 20
-147.3383795475838
 30
0.0
 10
92.96261806283249
 20
-154.0591579475963
 30
0.0
 10
98.25075350530385
 20
-159.3469381145958
 30
0.0
 10
104.971521139393
 20
-160.2376998500773
 30
0.0
  0
POLYLINE
  5
63
330
1F
100
AcDbEntity
  8
_U+30EC_U+30A4_U+30E4_U+30FC 1
 62
   179
420
  2234388
370
     9
100
AcDb2dPolyline
 66
     1
 10
0.0
 20
0.0
 30
0.0
  0
VERTEX
  5
64
330
63
100
AcDbEntity
  8
_U+30EC_U+30A4_U+30E4_U+30FC 1
 62
   179
420
  2234388
370
     9
100
AcDbVertex
100
AcDb2dVertex
 10
98.6733590621101
 20
-153.6367031137176
 30
0.0
  0
VERTEX
  5
65
330
63
100
AcDbEntity
  8
_U+30EC_U+30A4_U+30E4_U+30FC 1
 62
   179
420
  2234388
370
     9
100
AcDbVertex
100
AcDb2dVertex
 10
95.63452646195834
 20
-156.6716599814484
 30
0.0
  0
SEQEND
  5
66
330
63
100
AcDbEntity
  8
_U+30EC_U+30A4_U+30E4_U+30FC 1
 62
   179
420
  2234388
370
     9
  0
POLYLINE
  5
67
330
1F
100
AcDbEntity
  8
_U+30EC_U+30A4_U+30E4_U+30FC 1
 62
   179
420
  2234388
370
     9
100
AcDb2dPolyline
 66
     1
 10
0.0
 20
0.0
 30
0.0
  0
VERTEX
  5
68
330
67
100
AcDbEntity
  8
_U+30EC_U+30A4_U+30E4_U+30FC 1
 62
   179
420
  2234388
370
     9
100
AcDbVertex
100
AcDb2dVertex
 10
96.67363185585005
 20
-156.0713736249904
 30
0.0
  0
VERTEX
  5
69
330
67
100
AcDbEntity
  8
_U+30EC_U+30A4_U+30E4_U+30FC 1
 62
   179
420
  2234388
370
     9
100
AcDbVertex
100
AcDb2dVertex
 10
95.63434344126101
 20
-156.671455428904
 30
0.0
  0
SEQEND
  5
6A
330
67
100
AcDbEntity
  8
_U+30EC_U+30A4_U+30E4_U+30FC 1
 62
   179
420
  2234388
370
     9
  0
POLYLINE
  5
6B
330
1F
100
AcDbEntity
  8
_U+30EC_U+30A4_U+30E4_U+30FC 1
 62
   179
420
  2234388
370
     9
100
AcDb2dPolyline
 66
     1
 10
0.0
 20
0.0
 30
0.0
  0
VERTEX
  5
6C
330
6B
100
AcDbEntity
  8
_U+30EC_U+30A4_U+30E4_U+30FC 1
 62
   179
420
  2234388
370
     9
100
AcDbVertex
100
AcDb2dVertex
 10
96.2343929474044
 20
-155.6320808869275
 30
0.0
  0
VERTEX
  5
6D
330
6B
100
AcDbEntity
  8
_U+30EC_U+30A4_U+30E4_U+30FC 1
 62
   179
420
  2234388
370
     9
100
AcDbVertex
100
AcDb2dVertex
 10
95.63431114349052
 20
-156.6713693015168
 30
0.0
  0
SEQEND
  5
6E
330
6B
100
AcDbEntity
  8
_U+30EC_U+30A4_U+30E4_U+30FC 1
 62
   179
420
  2234388
370
     9
  0
POLYLINE
  5
6F
330
1F
100
AcDbEntity
  8
_U+30EC_U+30A4_U+30E4_U+30FC 1
 62
   179
420
  2234388
370
     9
100
AcDb2dPolyline
 66
     1
 10
0.0
 20
0.0
 30
0.0
  0
VERTEX
  5
70
330
6F
100
AcDbEntity
  8
_U+30EC_U+30A4_U+30E4_U+30FC 1
 62
   179
420
  2234388
370
     9
100
AcDbVertex
100
AcDb2dVertex
 10
98.6733590621101
 20
-153.6367031137176
 30
0.0
  0
VERTEX
  5
71
330
6F
100
AcDbEntity
  8
_U+30EC_U+30A4_U+30E4_U+30FC 1
 62
   179
420
  2234388
370
     9
100
AcDbVertex
100
AcDb2dVertex
 10
103.3014465073778
 20
-153.6367031137176
 30
0.0
  0
SEQEND
  5
72
330
6F
100
AcDbEntity
  8
_U+30EC_U+30A4_U+30E4_U+30FC 1
 62
   179
420
  2234388
370
     9
  0
SPLINE
  5
73
330
1F
100
AcDbEntity
  8
_U+30EC_U+30A4_U+30E4_U+30FC 1
 62
   179
420
  2234388
370
     9
100
AcDbSpline
210
0.0
220
0.0
230
1.0
 70
    11
 71
     3
 72
    17
 73
    13
 74
     0
 42
0.0000000001
 43
0.0000000001
 12
1.0
 22
0.0
 32
0.0
 13
1.0
 23
0.0
 33
0.0
 40
0.0
 40
0.0
 40
0.0
 40
0.0
 40
1.0
 40
1.0
 40
1.0
 40
2.0
 40
2.0
 40
2.0
 40
3.0
 40
3.0
 40
3.0
 40
4.0
 40
4.0
 40
4.0
 40
4.0
 10
125.0715754726112
 20
-150.8382520510491
 30
0.0
 10
125.0715754726112
 20
-150.783238182519
 30
0.0
 10
125.0267676994562
 20
-150.738430409364
 30
0.0
 10
124.9710325140589
 20
-150.738430409364
 30
0.0
 10
124.915997113682
 20
-150.738430409364
 30
0.0
 10
124.871189340527
 20
-150.783238182519
 30
0.0
 10
124.871189340527
 20
-150.8382520510491
 30
0.0
 10
124.871189340527
 20
-150.893287451426
 30
0.0
 10
124.915997113682
 20
-150.938095224581
 30
0.0
 10
124.9710325140589
 20
-150.938095224581
 30
0.0
 10
125.0267676994562
 20
-150.938095224581
 30
0.0
 10
125.0715754726112
 20
-150.893287451426
 30
0.0
 10
125.0715754726112
 20
-150.8382520510491
 30
0.0
  0
SPLINE
  5
74
330
1F
100
AcDbEntity
  8
_U+30EC_U+30A4_U+30E4_U+30FC 1
 62
   179
420
  2234388
370
     9
100
AcDbSpline
210
0.0
220
0.0
230
1.0
 70
    11
 71
     3
 72
    17
 73
    13
 74
     0
 42
0.0000000001
 43
0.0000000001
 12
1.0
 22
0.0
 32
0.0
 13
1.0
 23
0.0
 33
0.0
 40
0.0
 40
0.0
 40
0.0
 40
0.0
 40
1.0
 40
1.0
 40
1.0
 40
2.0
 40
2.0
 40
2.0
 40
3.0
 40
3.0
 40
3.0
 40
4.0
 40
4.0
 40
4.0
 40
4.0
 10
125.0715754726112
 20
-151.8383417385704
 30
0.0
 10
125.0715754726112
 20
-151.782961828645
 30
0.0
 10
125.0267676994562
 20
-151.7385200968853
 30
0.0
 10
124.9710325140589
 20
-151.7385200968853
 30
0.0
 10
124.915997113682
 20
-151.7385200968853
 30
0.0
 10
124.871189340527
 20
-151.782961828645
 30
0.0
 10
124.871189340527
 20
-151.8383417385704
 30
0.0
 10
124.871189340527
 20
-151.8933771389472
 30
0.0
 10
124.915997113682
 20
-151.9381849121023
 30
0.0
 10
124.9710325140589
 20
-151.9381849121023
 30
0.0
 10
125.0267676994562
 20
-151.9381849121023
 30
0.0
 10
125.0715754726112
 20
-151.8933771389472
 30
0.0
 10
125.0715754726112
 20
-151.8383417385704
 30
0.0
  0
SPLINE
  5
75
330
1F
100
AcDbEntity
  8
_U+30EC_U+30A4_U+30E4_U+30FC 1
 62
   179
420
  2234388
370
     9
100
AcDbSpline
210
0.0
220
0.0
230
1.0
 70
    11
 71
     3
 72
    17
 73
    13
 74
     0
 42
0.0000000001
 43
0.0000000001
 12
1.0
 22
0.0
 32
0.0
 13
1.0
 23
0.0
 33
0.0
 40
0.0
 40
0.0
 40
0.0
 40
0.0
 40
1.0
 40
1.0
 40
1.0
 40
2.0
 40
2.0
 40
2.0
 40
3.0
 40
3.0
 40
3.0
 40
4.0
 40
4.0
 40
4.0
 40
4.0
 10
125.0715754726112
 20
-161.3381925391468
 30
0.0
 10
125.0715754726112
 20
-161.2831679046933
 30
0.0
 10
125.0267676994562
 20
-161.2383601315383
 30
0.0
 10
124.9710325140589
 20
-161.2383601315383
 30
0.0
 10
124.915997113682
 20
-161.2383601315383
 30
0.0
 10
124.871189340527
 20
-161.2831679046933
 30
0.0
 10
124.871189340527
 20
-161.3381925391468
 30
0.0
 10
124.871189340527
 20
-161.3935832149956
 30
0.0
 10
124.915997113682
 20
-161.4380357126787
 30
0.0
 10
124.9710325140589
 20
-161.4380357126787
 30
0.0
 10
125.0267676994562
 20
-161.4380357126787
 30
0.0
 10
125.0715754726112
 20
-161.3935832149956
 30
0.0
 10
125.0715754726112
 20
-161.3381925391468
 30
0.0
  0
SPLINE
  5
76
330
1F
100
AcDbEntity
  8
_U+30EC_U+30A4_U+30E4_U+30FC 1
 62
   179
420
  2234388
370
     9
100
AcDbSpline
210
0.0
220
0.0
230
1.0
 70
    11
 71
     3
 72
    17
 73
    13
 74
     0
 42
0.0000000001
 43
0.0000000001
 12
1.0
 22
0.0
 32
0.0
 13
1.0
 23
0.0
 33
0.0
 40
0.0
 40
0.0
 40
0.0
 40
0.0
 40
1.0
 40
1.0
 40
1.0
 40
2.0
 40
2.0
 40
2.0
 40
3.0
 40
3.0
 40
3.0
 40
4.0
 40
4.0
 40
4.0
 40
4.0
 10
87.07165550598275
 20
-146.3382898600626
 30
0.0
 10
87.07165550598275
 20
-146.2829099501372
 30
0.0
 10
87.0268477328277
 20
-146.2384682183774
 30
0.0
 10
86.97145705697893
 20
-146.2384682183774
 30
0.0
 10
86.91643242252545
 20
-146.2384682183774
 30
0.0
 10
86.87162464937042
 20
-146.2829099501372
 30
0.0
 10
86.87162464937042
 20
-146.3382898600626
 30
0.0
 10
86.87162464937042
 20
-146.3933252604394
 30
0.0
 10
86.91643242252545
 20
-146.4381330335948
 30
0.0
 10
86.97145705697893
 20
-146.4381330335948
 30
0.0
 10
87.0268477328277
 20
-146.4381330335948
 30
0.0
 10
87.07165550598275
 20
-146.3933252604394
 30
0.0
 10
87.07165550598275
 20
-146.3382898600626
 30
0.0
  0
SPLINE
  5
77
330
1F
100
AcDbEntity
  8
_U+30EC_U+30A4_U+30E4_U+30FC 1
 62
   179
420
  2234388
370
     9
100
AcDbSpline
210
0.0
220
0.0
230
1.0
 70
    11
 71
     3
 72
    17
 73
    13
 74
     0
 42
0.0000000001
 43
0.0000000001
 12
1.0
 22
0.0
 32
0.0
 13
1.0
 23
0.0
 33
0.0
 40
0.0
 40
0.0
 40
0.0
 40
0.0
 40
1.0
 40
1.0
 40
1.0
 40
2.0
 40
2.0
 40
2.0
 40
3.0
 40
3.0
 40
3.0
 40
4.0
 40
4.0
 40
4.0
 40
4.0
 10
87.07165550598275
 20
-131.338322585438
 30
0.0
 10
87.07165550598275
 20
-131.2829426755126
 30
0.0
 10
87.0268477328277
 20
-131.2381349023576
 30
0.0
 10
86.97145705697893
 20
-131.2381349023576
 30
0.0
 10
86.91643242252545
 20
-131.2381349023576
 30
0.0
 10
86.87162464937042
 20
-131.2829426755126
 30
0.0
 10
86.87162464937042
 20
-131.338322585438
 30
0.0
 10
86.87162464937042
 20
-131.3933579858149
 30
0.0
 10
86.91643242252545
 20
-131.4381657589699
 30
0.0
 10
86.97145705697893
 20
-131.4381657589699
 30
0.0
 10
87.0268477328277
 20
-131.4381657589699
 30
0.0
 10
87.07165550598275
 20
-131.3933579858149
 30
0.0
 10
87.07165550598275
 20
-131.338322585438
 30
0.0
  0
INSERT
  5
79
330
1F
100
AcDbEntity
  8
_U+30EC_U+30A4_U+30E4_U+30FC 1
100
AcDbBlockReference
  2
block 2
 10
0.0
 20
0.0
 30
0.0
  0
POLYLINE
  5
83
330
1F
100
AcDbEntity
  8
_U+30EC_U+30A4_U+30E4_U+30FC 1
 62
   179
420
  2234388
370
     9
100
AcDb2dPolyline
 66
     1
 10
0.0
 20
0.0
 30
0.0
  0
VERTEX
  5
84
330
83
100
AcDbEntity
  8
_U+30EC_U+30A4_U+30E4_U+30FC 1
 62
   179
420
  2234388
370
     9
100
AcDbVertex
100
AcDb2dVertex
 10
105.9714493380634
 20
-163.8783045041151
 30
0.0
  0
VERTEX
  5
85
330
83
100
AcDbEntity
  8
_U+30EC_U+30A4_U+30E4_U+30FC 1
 62
   179
420
  2234388
370
     9
100
AcDbVertex
100
AcDb2dVertex
 10
105.9714493380634
 20
-166.3385871471361
 30
0.0
  0
SEQEND
  5
86
330
83
100
AcDbEntity
  8
_U+30EC_U+30A4_U+30E4_U+30FC 1
 62
   179
420
  2234388
370
     9
  0
POLYLINE
  5
87
330
1F
100
AcDbEntity
  8
_U+30EC_U+30A4_U+30E4_U+30FC 1
 62
   179
420
  2234388
370
     9
100
AcDb2dPolyline
 66
     1
 10
0.0
 20
0.0
 30
0.0
  0
VERTEX
  5
88
330
87
100
AcDbEntity
  8
_U+30EC_U+30A4_U+30E4_U+30FC 1
 62
   179
420
  2234388
370
     9
100
AcDbVertex
100
AcDb2dVertex
 10
120.9712012942201
 20
-154.3784106398451
 30
0.0
  0
VERTEX
  5
89
330
87
100
AcDbEntity
  8
_U+30EC_U+30A4_U+30E4_U+30FC 1
 62
   179
420
  2234388
370
     9
100
AcDbVertex
100
AcDb2dVertex
 10
120.9712012942201
 20
-166.3382857012811
 30
0.0
  0
SEQEND
  5
8A
330
87
100
AcDbEntity
  8
_U+30EC_U+30A4_U+30E4_U+30FC 1
 62
   179
420
  2234388
370
     9
  0
INSERT
  5
8C
330
1F
100
AcDbEntity
  8
_U+30EC_U+30A4_U+30E4_U+30FC 1
100
AcDbBlockReference
  2
block 3
 10
0.0
 20
0.0
 30
0.0
  0
POLYLINE
  5
93
330
1F
100
AcDbEntity
  8
_U+30EC_U+30A4_U+30E4_U+30FC 1
 62
   179
420
  2234388
370
     9
100
AcDb2dPolyline
 66
     1
 10
0.0
 20
0.0
 30
0.0
  0
VERTEX
  5
94
330
93
100
AcDbEntity
  8
_U+30EC_U+30A4_U+30E4_U+30FC 1
 62
   179
420
  2234388
370
     9
100
AcDbVertex
100
AcDb2dVertex
 10
88.43161771470851
 20
-146.3382898600626
 30
0.0
  0
VERTEX
  5
95
330
93
100
AcDbEntity
  8
_U+30EC_U+30A4_U+30E4_U+30FC 1
 62
   179
420
  2234388
370
     9
100
AcDbVertex
100
AcDb2dVertex
 10
85.97169034715942
 20
-146.3382898600626
 30
0.0
  0
SEQEND
  5
96
330
93
100
AcDbEntity
  8
_U+30EC_U+30A4_U+30E4_U+30FC 1
 62
   179
420
  2234388
370
     9
  0
POLYLINE
  5
97
330
1F
100
AcDbEntity
  8
_U+30EC_U+30A4_U+30E4_U+30FC 1
 62
   179
420
  2234388
370
     9
100
AcDb2dPolyline
 66
     1
 10
0.0
 20
0.0
 30
0.0
  0
VERTEX
  5
98
330
97
100
AcDbEntity
  8
_U+30EC_U+30A4_U+30E4_U+30FC 1
 62
   179
420
  2234388
370
     9
100
AcDbVertex
100
AcDb2dVertex
 10
86.97157548213623
 20
-146.3382898600626
 30
0.0
  0
VERTEX
  5
99
330
97
100
AcDbEntity
  8
_U+30EC_U+30A4_U+30E4_U+30FC 1
 62
   179
420
  2234388
370
     9
100
AcDbVertex
100
AcDb2dVertex
 10
86.97157548213623
 20
-131.3381933943576
 30
0.0
  0
SEQEND
  5
9A
330
97
100
AcDbEntity
  8
_U+30EC_U+30A4_U+30E4_U+30FC 1
 62
   179
420
  2234388
370
     9
  0
POLYLINE
  5
9B
330
1F
100
AcDbEntity
  8
_U+30EC_U+30A4_U+30E4_U+30FC 1
 62
   179
420
  2234388
370
     9
100
AcDb2dPolyline
 66
     1
 10
0.0
 20
0.0
 30
0.0
  0
VERTEX
  5
9C
330
9B
100
AcDbEntity
  8
_U+30EC_U+30A4_U+30E4_U+30FC 1
 62
   179
420
  2234388
370
     9
100
AcDbVertex
100
AcDb2dVertex
 10
97.93164077005919
 20
-131.338322585438
 30
0.0
  0
VERTEX
  5
9D
330
9B
100
AcDbEntity
  8
_U+30EC_U+30A4_U+30E4_U+30FC 1
 62
   179
420
  2234388
370
     9
100
AcDbVertex
100
AcDb2dVertex
 10
85.97176570862317
 20
-131.338322585438
 30
0.0
  0
SEQEND
  5
9E
330
9B
100
AcDbEntity
  8
_U+30EC_U+30A4_U+30E4_U+30FC 1
 62
   179
420
  2234388
370
     9
  0
INSERT
  5
A0
330
1F
100
AcDbEntity
  8
_U+30EC_U+30A4_U+30E4_U+30FC 1
100
AcDbBlockReference
  2
block 4
 10
0.0
 20
0.0
 30
0.0
  0
POLYLINE
  5
A7
330
1F
100
AcDbEntity
  8
_U+30EC_U+30A4_U+30E4_U+30FC 1
 62
   179
420
  2234388
370
     9
100
AcDb2dPolyline
 66
     1
 10
0.0
 20
0.0
 30
0.0
  0
VERTEX
  5
A8
330
A7
100
AcDbEntity
  8
_U+30EC_U+30A4_U+30E4_U+30FC 1
 62
   179
420
  2234388
370
     9
100
AcDbVertex
100
AcDb2dVertex
 10
124.9709679185186
 20
-150.8382520510491
 30
0.0
  0
VERTEX
  5
A9
330
A7
100
AcDbEntity
  8
_U+30EC_U+30A4_U+30E4_U+30FC 1
 62
   179
420
  2234388
370
     9
100
AcDbVertex
100
AcDb2dVertex
 10
124.9709679185186
 20
-148.0679000484323
 30
0.0
  0
SEQEND
  5
AA
330
A7
100
AcDbEntity
  8
_U+30EC_U+30A4_U+30E4_U+30FC 1
 62
   179
420
  2234388
370
     9
  0
POLYLINE
  5
AB
330
1F
100
AcDbEntity
  8
_U+30EC_U+30A4_U+30E4_U+30FC 1
 62
   179
420
  2234388
370
     9
100
AcDb2dPolyline
 66
     1
 10
0.0
 20
0.0
 30
0.0
  0
VERTEX
  5
AC
330
AB
100
AcDbEntity
  8
_U+30EC_U+30A4_U+30E4_U+30FC 1
 62
   179
420
  2234388
370
     9
100
AcDbVertex
100
AcDb2dVertex
 10
124.9709679185186
 20
-150.8382520510491
 30
0.0
  0
VERTEX
  5
AD
330
AB
100
AcDbEntity
  8
_U+30EC_U+30A4_U+30E4_U+30FC 1
 62
   179
420
  2234388
370
     9
100
AcDbVertex
100
AcDb2dVertex
 10
124.9709679185186
 20
-151.8383848022639
 30
0.0
  0
SEQEND
  5
AE
330
AB
100
AcDbEntity
  8
_U+30EC_U+30A4_U+30E4_U+30FC 1
 62
   179
420
  2234388
370
     9
  0
POLYLINE
  5
AF
330
1F
100
AcDbEntity
  8
_U+30EC_U+30A4_U+30E4_U+30FC 1
 62
   179
420
  2234388
370
     9
100
AcDb2dPolyline
 66
     1
 10
0.0
 20
0.0
 30
0.0
  0
VERTEX
  5
B0
330
AF
100
AcDbEntity
  8
_U+30EC_U+30A4_U+30E4_U+30FC 1
 62
   179
420
  2234388
370
     9
100
AcDbVertex
100
AcDb2dVertex
 10
123.5116254709667
 20
-150.8382520510491
 30
0.0
  0
VERTEX
  5
B1
330
AF
100
AcDbEntity
  8
_U+30EC_U+30A4_U+30E4_U+30FC 1
 62
   179
420
  2234388
370
     9
100
AcDbVertex
100
AcDb2dVertex
 10
125.9715420725924
 20
-150.8382520510491
 30
0.0
  0
SEQEND
  5
B2
330
AF
100
AcDbEntity
  8
_U+30EC_U+30A4_U+30E4_U+30FC 1
 62
   179
420
  2234388
370
     9
  0
POLYLINE
  5
B3
330
1F
100
AcDbEntity
  8
_U+30EC_U+30A4_U+30E4_U+30FC 1
 62
   179
420
  2234388
370
     9
100
AcDb2dPolyline
 66
     1
 10
0.0
 20
0.0
 30
0.0
  0
VERTEX
  5
B4
330
B3
100
AcDbEntity
  8
_U+30EC_U+30A4_U+30E4_U+30FC 1
 62
   179
420
  2234388
370
     9
100
AcDbVertex
100
AcDb2dVertex
 10
123.5116254709667
 20
-151.8383417385704
 30
0.0
  0
VERTEX
  5
B5
330
B3
100
AcDbEntity
  8
_U+30EC_U+30A4_U+30E4_U+30FC 1
 62
   179
420
  2234388
370
     9
100
AcDbVertex
100
AcDb2dVertex
 10
125.9715420725924
 20
-151.8383417385704
 30
0.0
  0
SEQEND
  5
B6
330
B3
100
AcDbEntity
  8
_U+30EC_U+30A4_U+30E4_U+30FC 1
 62
   179
420
  2234388
370
     9
  0
INSERT
  5
B8
330
1F
100
AcDbEntity
  8
_U+30EC_U+30A4_U+30E4_U+30FC 1
100
AcDbBlockReference
  2
block 5
 10
0.0
 20
0.0
 30
0.0
  0
POLYLINE
  5
BD
330
1F
100
AcDbEntity
  8
_U+30EC_U+30A4_U+30E4_U+30FC 1
 62
   179
420
  2234388
370
     9
100
AcDb2dPolyline
 66
     1
 10
0.0
 20
0.0
 30
0.0
  0
VERTEX
  5
BE
330
BD
100
AcDbEntity
  8
_U+30EC_U+30A4_U+30E4_U+30FC 1
 62
   179
420
  2234388
370
     9
100
AcDbVertex
100
AcDb2dVertex
 10
124.9709679185186
 20
-151.8383417385704
 30
0.0
  0
VERTEX
  5
BF
330
BD
100
AcDbEntity
  8
_U+30EC_U+30A4_U+30E4_U+30FC 1
 62
   179
420
  2234388
370
     9
100
AcDbVertex
100
AcDb2dVertex
 10
124.9709679185186
 20
-161.3383001983807
 30
0.0
  0
SEQEND
  5
C0
330
BD
100
AcDbEntity
  8
_U+30EC_U+30A4_U+30E4_U+30FC 1
 62
   179
420
  2234388
370
     9
  0
POLYLINE
  5
C1
330
1F
100
AcDbEntity
  8
_U+30EC_U+30A4_U+30E4_U+30FC 1
 62
   179
420
  2234388
370
     9
100
AcDb2dPolyline
 66
     1
 10
0.0
 20
0.0
 30
0.0
  0
VERTEX
  5
C2
330
C1
100
AcDbEntity
  8
_U+30EC_U+30A4_U+30E4_U+30FC 1
 62
   179
420
  2234388
370
     9
100
AcDbVertex
100
AcDb2dVertex
 10
108.5115182393381
 20
-161.3381925391468
 30
0.0
  0
VERTEX
  5
C3
330
C1
100
AcDbEntity
  8
_U+30EC_U+30A4_U+30E4_U+30FC 1
 62
   179
420
  2234388
370
     9
100
AcDbVertex
100
AcDb2dVertex
 10
125.9715420725924
 20
-161.3381925391468
 30
0.0
  0
SEQEND
  5
C4
330
C1
100
AcDbEntity
  8
_U+30EC_U+30A4_U+30E4_U+30FC 1
 62
   179
420
  2234388
370
     9
  0
INSERT
  5
C6
330
1F
100
AcDbEntity
  8
_U+30EC_U+30A4_U+30E4_U+30FC 1
100
AcDbBlockReference
  2
block 6
 10
0.0
 20
0.0
 30
0.0
  0
ENDSEC
  0
SECTION
  2
OBJECTS
  0
DICTIONARY
  5
C
330
0
100
AcDbDictionary
281
     1
  3
ACAD_GROUP
350
D
  3
ACAD_LAYOUT
350
1A
  3
ACAD_MATERIAL
350
3B
  3
ACAD_MLEADERSTYLE
350
D7
  3
ACAD_MLINESTYLE
350
17
  3
ACAD_PLOTSETTINGS
350
19
  3
ACAD_PLOTSTYLENAME
350
E
  3
ACAD_TABLESTYLE
350
D6
  3
ACAD_VISUALSTYLE
350
2A
  0
SUN
  5
3F
330
29
100
AcDbSun
 90
        1
290
     0
 63
     7
421
 16777215
 40
1.0
291
     1
 91
  2455826
 92
 54000000
292
     0
 70
     2
 71
   256
280
     1
  0
DICTIONARY
  5
D
102
{ACAD_REACTORS
330
C
102
}
330
C
100
AcDbDictionary
281
     1
  0
DICTIONARY
  5
1A
102
{ACAD_REACTORS
330
C
102
}
330
C
100
AcDbDictionary
281
     1
  3
Layout1
350
1E
  3
Layout2
350
26
  3
Model
350
22
  0
DICTIONARY
  5
3B
102
{ACAD_REACTORS
330
C
102
}
330
C
100
AcDbDictionary
281
     1
  3
ByBlock
350
3D
  3
ByLayer
350
3C
  3
Global
350
3E
  0
DICTIONARY
  5
D7
102
{ACAD_REACTORS
330
C
102
}
330
C
100
AcDbDictionary
281
     1
  0
DICTIONARY
  5
17
102
{ACAD_REACTORS
330
C
102
}
330
C
100
AcDbDictionary
281
     1
  3
Standard
350
18
  0
DICTIONARY
  5
19
102
{ACAD_REACTORS
330
C
102
}
330
C
100
AcDbDictionary
281
     1
  0
ACDBDICTIONARYWDFLT
  5
E
102
{ACAD_REACTORS
330
C
102
}
330
C
100
AcDbDictionary
281
     1
  3
Normal
350
F
100
AcDbDictionaryWithDefault
340
F
  0
DICTIONARY
  5
D6
102
{ACAD_REACTORS
330
C
102
}
330
C
100
AcDbDictionary
281
     1
  0
DICTIONARY
  5
2A
102
{ACAD_REACTORS
330
C
102
}
330
C
100
AcDbDictionary
281
     1
  3
2dWireframe
350
2F
  3
3D Hidden
350
31
  3
3dWireframe
350
30
  3
Basic
350
32
  3
Brighten
350
36
  3
ColorChange
350
3A
  3
Conceptual
350
34
  3
Dim
350
35
  3
Facepattern
350
39
  3
Flat
350
2B
  3
FlatWithEdges
350
2C
  3
Gouraud
350
2D
  3
GouraudWithEdges
350
2E
  3
Linepattern
350
38
  3
Realistic
350
33
  3
Thicken
350
37
  0
LAYOUT
  5
1E
102
{ACAD_REACTORS
330
1A
102
}
330
1A
100
AcDbPlotSettings
  1

  2
none_device
  4

  6

 40
0.0
 41
0.0
 42
0.0
 43
0.0
 44
0.0
 45
0.0
 46
0.0
 47
0.0
 48
0.0
 49
0.0
140
0.0
141
0.0
142
1.0
143
1.0
 70
   688
 72
     0
 73
     0
 74
     5
  7

 75
    16
 76
     0
 77
     2
 78
   300
147
1.0
148
0.0
149
0.0
100
AcDbLayout
  1
Layout1
 70
     1
 71
     1
 10
0.0
 20
0.0
 11
12.0
 21
9.0
 12
0.0
 22
0.0
 32
0.0
 14
1.000000000000000E+20
 24
1.000000000000000E+20
 34
1.000000000000000E+20
 15
-1.000000000000000E+20
 25
-1.000000000000000E+20
 35
-1.000000000000000E+20
146
0.0
 13
0.0
 23
0.0
 33
0.0
 16
1.0
 26
0.0
 36
0.0
 17
0.0
 27
1.0
 37
0.0
 76
     0
330
1B
  0
LAYOUT
  5
26
102
{ACAD_REACTORS
330
1A
102
}
330
1A
100
AcDbPlotSettings
  1

  2
none_device
  4

  6

 40
0.0
 41
0.0
 42
0.0
 43
0.0
 44
0.0
 45
0.0
 46
0.0
 47
0.0
 48
0.0
 49
0.0
140
0.0
141
0.0
142
1.0
143
1.0
 70
   688
 72
     0
 73
     0
 74
     5
  7

 75
    16
 76
     0
 77
     2
 78
   300
147
1.0
148
0.0
149
0.0
100
AcDbLayout
  1
Layout2
 70
     1
 71
     2
 10
0.0
 20
0.0
 11
0.0
 21
0.0
 12
0.0
 22
0.0
 32
0.0
 14
0.0
 24
0.0
 34
0.0
 15
0.0
 25
0.0
 35
0.0
146
0.0
 13
0.0
 23
0.0
 33
0.0
 16
1.0
 26
0.0
 36
0.0
 17
0.0
 27
1.0
 37
0.0
 76
     0
330
23
  0
LAYOUT
  5
22
102
{ACAD_REACTORS
330
1A
102
}
330
1A
100
AcDbPlotSettings
  1

  2
none_device
  4

  6

 40
0.0
 41
0.0
 42
0.0
 43
0.0
 44
0.0
 45
0.0
 46
0.0
 47
0.0
 48
0.0
 49
0.0
140
0.0
141
0.0
142
1.0
143
1.0
 70
  1712
 72
     0
 73
     0
 74
     0
  7

 75
     0
 76
     0
 77
     2
 78
   300
147
1.0
148
0.0
149
0.0
100
AcDbLayout
  1
Model
 70
     1
 71
     0
 10
0.0
 20
0.0
 11
12.0
 21
9.0
 12
0.0
 22
0.0
 32
0.0
 14
1.000000000000000E+20
 24
1.000000000000000E+20
 34
1.000000000000000E+20
 15
-1.000000000000000E+20
 25
-1.000000000000000E+20
 35
-1.000000000000000E+20
146
0.0
 13
0.0
 23
0.0
 33
0.0
 16
1.0
 26
0.0
 36
0.0
 17
0.0
 27
1.0
 37
0.0
 76
     0
330
1F
331
29
  0
MATERIAL
  5
3D
102
{ACAD_REACTORS
330
3B
102
}
330
3B
100
AcDbMaterial
  1
ByBlock
 72
     1
 94
      127
  0
MATERIAL
  5
3C
102
{ACAD_REACTORS
330
3B
102
}
330
3B
100
AcDbMaterial
  1
ByLayer
 72
     1
 94
      127
  0
MATERIAL
  5
3E
102
{ACAD_REACTORS
330
3B
102
}
330
3B
100
AcDbMaterial
  1
Global
 72
     1
 94
      127
  0
MLINESTYLE
  5
18
102
{ACAD_REACTORS
330
17
102
}
330
17
100
AcDbMlineStyle
  2
Standard
 70
     0
  3

 62
   256
 51
90.0
 52
90.0
 71
     2
 49
0.5
 62
   256
  6
BYLAYER
 49
-0.5
 62
   256
  6
BYLAYER
  0
ACDBPLACEHOLDER
  5
F
102
{ACAD_REACTORS
330
E
102
}
330
E
  0
VISUALSTYLE
  5
2F
102
{ACAD_REACTORS
330
2A
102
}
330
2A
100
AcDbVisualStyle
  2
2dWireframe
 70
     4
177
     2
291
     0
 71
     0
176
     1
 72
     2
176
     1
 73
     0
176
     1
 90
        0
176
     1
 40
-0.6
176
     1
 41
-30.0
176
     1
 62
     5
 63
     7
421
 16777215
176
     1
 74
     1
176
     1
 91
        4
176
     1
 64
     7
176
     1
 65
   257
176
     1
 75
     1
176
     1
175
     1
176
     1
 42
1.0
176
     1
 92
        0
176
     1
 66
   257
176
     1
 43
1.0
176
     1
 76
     1
176
     1
 77
     6
176
     1
 78
     2
176
     1
 67
     7
176
     1
 79
     5
176
     1
170
     0
176
     1
171
     0
176
     1
290
     0
176
     1
 93
        1
176
     1
 44
0.0
176
     1
173
     0
176
     1
  0
VISUALSTYLE
  5
31
102
{ACAD_REACTORS
330
2A
102
}
330
2A
100
AcDbVisualStyle
  2
3D Hidden
 70
     6
177
     2
291
     0
 71
     1
176
     1
 72
     2
176
     1
 73
     2
176
     1
 90
        0
176
     1
 40
-0.6
176
     1
 41
-30.0
176
     1
 62
     5
 63
     7
421
 16777215
176
     1
 74
     2
176
     1
 91
        2
176
     1
 64
     7
176
     1
 65
   257
176
     1
 75
     2
176
     1
175
     1
176
     1
 42
40.0
176
     1
 92
        0
176
     1
 66
   257
176
     1
 43
1.0
176
     1
 76
     1
176
     1
 77
     6
176
     1
 78
     2
176
     1
 67
     7
176
     1
 79
     3
176
     1
170
     0
176
     1
171
     0
176
     1
290
     0
176
     1
 93
        1
176
     1
 44
0.0
176
     1
173
     0
176
     1
  0
VISUALSTYLE
  5
30
102
{ACAD_REACTORS
330
2A
102
}
330
2A
100
AcDbVisualStyle
  2
3dWireframe
 70
     5
177
     2
291
     0
 71
     0
176
     1
 72
     2
176
     1
 73
     0
176
     1
 90
        0
176
     1
 40
-0.6
176
     1
 41
-30.0
176
     1
 62
     5
 63
     7
421
 16777215
176
     1
 74
     1
176
     1
 91
        4
176
     1
 64
     7
176
     1
 65
   257
176
     1
 75
     1
176
     1
175
     1
176
     1
 42
1.0
176
     1
 92
        0
176
     1
 66
   257
176
     1
 43
1.0
176
     1
 76
     1
176
     1
 77
     6
176
     1
 78
     2
176
     1
 67
     7
176
     1
 79
     5
176
     1
170
     0
176
     1
171
     0
176
     1
290
     0
176
     1
 93
        1
176
     1
 44
0.0
176
     1
173
     0
176
     1
  0
VISUALSTYLE
  5
32
102
{ACAD_REACTORS
330
2A
102
}
330
2A
100
AcDbVisualStyle
  2
Basic
 70
     7
177
     2
291
     1
 71
     1
176
     1
 72
     0
176
     1
 73
     1
176
     1
 90
        0
176
     1
 40
-0.6
176
     1
 41
-30.0
176
     1
 62
     5
 63
     7
421
 16777215
176
     1
 74
     0
176
     1
 91
        4
176
     1
 64
     7
176
     1
 65
   257
176
     1
 75
     1
176
     1
175
     1
176
     1
 42
1.0
176
     1
 92
        8
176
     1
 66
     7
176
     1
 43
1.0
176
     1
 76
     1
176
     1
 77
     6
176
     1
 78
     2
176
     1
 67
     7
176
     1
 79
     5
176
     1
170
     0
176
     1
171
     0
176
     1
290
     0
176
     1
 93
        1
176
     1
 44
0.0
176
     1
173
     0
176
     1
  0
VISUALSTYLE
  5
36
102
{ACAD_REACTORS
330
2A
102
}
330
2A
100
AcDbVisualStyle
  2
Brighten
 70
    12
177
     2
291
     1
 71
     2
176
     1
 72
     2
176
     1
 73
     0
176
     1
 90
        0
176
     1
 40
-0.6
176
     1
 41
-30.0
176
     1
 62
     5
 63
     7
421
 16777215
176
     1
 74
     1
176
     1
 91
        4
176
     1
 64
     7
176
     1
 65
   257
176
     1
 75
     1
176
     1
175
     1
176
     1
 42
1.0
176
     1
 92
        8
176
     1
 66
     7
176
     1
 43
1.0
176
     1
 76
     1
176
     1
 77
     6
176
     1
 78
     2
176
     1
 67
     7
176
     1
 79
     5
176
     1
170
     0
176
     1
171
     0
176
     1
290
     0
176
     1
 93
        1
176
     1
 44
50.0
176
     1
173
     0
176
     1
  0
VISUALSTYLE
  5
3A
102
{ACAD_REACTORS
330
2A
102
}
330
2A
100
AcDbVisualStyle
  2
ColorChange
 70
    16
177
     2
291
     1
 71
     2
176
     1
 72
     2
176
     1
 73
     3
176
     1
 90
        0
176
     1
 40
-0.6
176
     1
 41
-30.0
176
     1
 62
     5
 63
     8
421
  8421504
176
     1
 74
     1
176
     1
 91
        4
176
     1
 64
     7
176
     1
 65
   257
176
     1
 75
     1
176
     1
175
     1
176
     1
 42
1.0
176
     1
 92
        8
176
     1
 66
     8
424
  8421504
176
     1
 43
1.0
176
     1
 76
     1
176
     1
 77
     6
176
     1
 78
     2
176
     1
 67
     7
176
     1
 79
     5
176
     1
170
     0
176
     1
171
     0
176
     1
290
     0
176
     1
 93
        1
176
     1
 44
0.0
176
     1
173
     0
176
     1
  0
VISUALSTYLE
  5
34
102
{ACAD_REACTORS
330
2A
102
}
330
2A
100
AcDbVisualStyle
  2
Conceptual
 70
     9
177
     2
291
     0
 71
     3
176
     1
 72
     2
176
     1
 73
     0
176
     1
 90
        0
176
     1
 40
-0.6
176
     1
 41
-30.0
176
     1
 62
     5
 63
     7
421
 16777215
176
     1
 74
     2
176
     1
 91
        2
176
     1
 64
     7
176
     1
 65
   257
176
     1
 75
     1
176
     1
175
     1
176
     1
 42
40.0
176
     1
 92
        8
176
     1
 66
     7
176
     1
 43
1.0
176
     1
 76
     1
176
     1
 77
     6
176
     1
 78
     2
176
     1
 67
     7
176
     1
 79
     3
176
     1
170
     0
176
     1
171
     0
176
     1
290
     0
176
     1
 93
        1
176
     1
 44
0.0
176
     1
173
     0
176
     1
  0
VISUALSTYLE
  5
35
102
{ACAD_REACTORS
330
2A
102
}
330
2A
100
AcDbVisualStyle
  2
Dim
 70
    11
177
     2
291
     1
 71
     2
176
     1
 72
     2
176
     1
 73
     0
176
     1
 90
        0
176
     1
 40
-0.6
176
     1
 41
-30.0
176
     1
 62
     5
 63
     7
421
 16777215
176
     1
 74
     1
176
     1
 91
        4
176
     1
 64
     7
176
     1
 65
   257
176
     1
 75
     1
176
     1
175
     1
176
     1
 42
1.0
176
     1
 92
        8
176
     1
 66
     7
176
     1
 43
1.0
176
     1
 76
     1
176
     1
 77
     6
176
     1
 78
     2
176
     1
 67
     7
176
     1
 79
     5
176
     1
170
     0
176
     1
171
     0
176
     1
290
     0
176
     1
 93
        1
176
     1
 44
-50.0
176
     1
173
     0
176
     1
  0
VISUALSTYLE
  5
39
102
{ACAD_REACTORS
330
2A
102
}
330
2A
100
AcDbVisualStyle
  2
Facepattern
 70
    15
177
     2
291
     1
 71
     2
176
     1
 72
     2
176
     1
 73
     0
176
     1
 90
        0
176
     1
 40
-0.6
176
     1
 41
-30.0
176
     1
 62
     5
 63
     7
421
 16777215
176
     1
 74
     1
176
     1
 91
        4
176
     1
 64
     7
176
     1
 65
   257
176
     1
 75
     1
176
     1
175
     1
176
     1
 42
1.0
176
     1
 92
        8
176
     1
 66
     7
176
     1
 43
1.0
176
     1
 76
     1
176
     1
 77
     6
176
     1
 78
     2
176
     1
 67
     7
176
     1
 79
     5
176
     1
170
     0
176
     1
171
     0
176
     1
290
     0
176
     1
 93
        1
176
     1
 44
0.0
176
     1
173
     0
176
     1
  0
VISUALSTYLE
  5
2B
102
{ACAD_REACTORS
330
2A
102
}
330
2A
100
AcDbVisualStyle
  2
Flat
 70
     0
177
     2
291
     1
 71
     2
176
     1
 72
     1
176
     1
 73
     1
176
     1
 90
        2
176
     1
 40
-0.6
176
     1
 41
30.0
176
     1
 62
     5
 63
     7
421
 16777215
176
     1
 74
     0
176
     1
 91
        4
176
     1
 64
     7
176
     1
 65
   257
176
     1
 75
     1
176
     1
175
     1
176
     1
 42
1.0
176
     1
 92
        8
176
     1
 66
     7
176
     1
 43
1.0
176
     1
 76
     1
176
     1
 77
     6
176
     1
 78
     2
176
     1
 67
     7
176
     1
 79
     5
176
     1
170
     0
176
     1
171
     0
176
     1
290
     0
176
     1
 93
       13
176
     1
 44
0.0
176
     1
173
     0
176
     1
  0
VISUALSTYLE
  5
2C
102
{ACAD_REACTORS
330
2A
102
}
330
2A
100
AcDbVisualStyle
  2
FlatWithEdges
 70
     1
177
     2
291
     1
 71
     2
176
     1
 72
     1
176
     1
 73
     1
176
     1
 90
        2
176
     1
 40
-0.6
176
     1
 41
30.0
176
     1
 62
     5
 63
     7
421
 16777215
176
     1
 74
     1
176
     1
 91
        4
176
     1
 64
     7
176
     1
 65
   257
176
     1
 75
     1
176
     1
175
     1
176
     1
 42
1.0
176
     1
 92
        0
176
     1
 66
   257
176
     1
 43
1.0
176
     1
 76
     1
176
     1
 77
     6
176
     1
 78
     2
176
     1
 67
     7
176
     1
 79
     5
176
     1
170
     0
176
     1
171
     0
176
     1
290
     0
176
     1
 93
       13
176
     1
 44
0.0
176
     1
173
     0
176
     1
  0
VISUALSTYLE
  5
2D
102
{ACAD_REACTORS
330
2A
102
}
330
2A
100
AcDbVisualStyle
  2
Gouraud
 70
     2
177
     2
291
     1
 71
     2
176
     1
 72
     2
176
     1
 73
     1
176
     1
 90
        2
176
     1
 40
-0.6
176
     1
 41
30.0
176
     1
 62
     5
 63
     7
421
 16777215
176
     1
 74
     0
176
     1
 91
        4
176
     1
 64
     7
176
     1
 65
   257
176
     1
 75
     1
176
     1
175
     1
176
     1
 42
1.0
176
     1
 92
        0
176
     1
 66
     7
176
     1
 43
1.0
176
     1
 76
     1
176
     1
 77
     6
176
     1
 78
     2
176
     1
 67
     7
176
     1
 79
     5
176
     1
170
     0
176
     1
171
     0
176
     1
290
     0
176
     1
 93
       13
176
     1
 44
0.0
176
     1
173
     0
176
     1
  0
VISUALSTYLE
  5
2E
102
{ACAD_REACTORS
330
2A
102
}
330
2A
100
AcDbVisualStyle
  2
GouraudWithEdges
 70
     3
177
     2
291
     1
 71
     2
176
     1
 72
     2
176
     1
 73
     1
176
     1
 90
        2
176
     1
 40
-0.6
176
     1
 41
30.0
176
     1
 62
     5
 63
     7
421
 16777215
176
     1
 74
     1
176
     1
 91
        4
176
     1
 64
     7
176
     1
 65
   257
176
     1
 75
     1
176
     1
175
     1
176
     1
 42
1.0
176
     1
 92
        0
176
     1
 66
   257
176
     1
 43
1.0
176
     1
 76
     1
176
     1
 77
     6
176
     1
 78
     2
176
     1
 67
     7
176
     1
 79
     5
176
     1
170
     0
176
     1
171
     0
176
     1
290
     0
176
     1
 93
       13
176
     1
 44
0.0
176
     1
173
     0
176
     1
  0
VISUALSTYLE
  5
38
102
{ACAD_REACTORS
330
2A
102
}
330
2A
100
AcDbVisualStyle
  2
Linepattern
 70
    14
177
     2
291
     1
 71
     2
176
     1
 72
     2
176
     1
 73
     0
176
     1
 90
        0
176
     1
 40
-0.6
176
     1
 41
-30.0
176
     1
 62
     5
 63
     7
421
 16777215
176
     1
 74
     1
176
     1
 91
        4
176
     1
 64
     7
176
     1
 65
   257
176
     1
 75
     7
176
     1
175
     7
176
     1
 42
1.0
176
     1
 92
        8
176
     1
 66
     7
176
     1
 43
1.0
176
     1
 76
     1
176
     1
 77
     6
176
     1
 78
     2
176
     1
 67
     7
176
     1
 79
     5
176
     1
170
     0
176
     1
171
     0
176
     1
290
     0
176
     1
 93
        1
176
     1
 44
0.0
176
     1
173
     0
176
     1
  0
VISUALSTYLE
  5
33
102
{ACAD_REACTORS
330
2A
102
}
330
2A
100
AcDbVisualStyle
  2
Realistic
 70
     8
177
     2
291
     0
 71
     2
176
     1
 72
     2
176
     1
 73
     0
176
     1
 90
        0
176
     1
 40
-0.6
176
     1
 41
-30.0
176
     1
 62
     5
 63
     7
421
 16777215
176
     1
 74
     1
176
     1
 91
        0
176
     1
 64
     7
176
     1
 65
   257
176
     1
 75
     1
176
     1
175
     1
176
     1
 42
1.0
176
     1
 92
        8
176
     1
 66
     8
424
  7895160
176
     1
 43
1.0
176
     1
 76
     1
176
     1
 77
     6
176
     1
 78
     2
176
     1
 67
     7
176
     1
 79
     5
176
     1
170
     0
176
     1
171
     0
176
     1
290
     0
176
     1
 93
       13
176
     1
 44
0.0
176
     1
173
     0
176
     1
  0
VISUALSTYLE
  5
37
102
{ACAD_REACTORS
330
2A
102
}
330
2A
100
AcDbVisualStyle
  2
Thicken
 70
    13
177
     2
291
     1
 71
     2
176
     1
 72
     2
176
     1
 73
     0
176
     1
 90
        0
176
     1
 40
-0.6
176
     1
 41
-30.0
176
     1
 62
     5
 63
     7
421
 16777215
176
     1
 74
     1
176
     1
 91
        4
176
     1
 64
     7
176
     1
 65
   257
176
     1
 75
     1
176
     1
175
     1
176
     1
 42
1.0
176
     1
 92
       12
176
     1
 66
     7
176
     1
 43
1.0
176
     1
 76
     1
176
     1
 77
     6
176
     1
 78
     2
176
     1
 67
     7
176
     1
 79
     5
176
     1
170
     0
176
     1
171
     0
176
     1
290
     0
176
     1
 93
        1
176
     1
 44
0.0
176
     1
173
     0
176
     1
  0
ENDSEC
  0
EOF
