  0
SECTION
  2
HEADER
  9
$ACADVER
  1
AC1024
  9
$ACADMAINTVER
 70
     6
  9
$DWGCODEPAGE
  3
UNDEFINED
  9
$INSBASE
 10
0.0
 20
0.0
 30
0.0
  9
$EXTMIN
 10
1.000000000000000E+20
 20
1.000000000000000E+20
 30
1.000000000000000E+20
  9
$EXTMAX
 10
-1.000000000000000E+20
 20
-1.000000000000000E+20
 30
-1.000000000000000E+20
  9
$LIMMIN
 10
0.0
 20
0.0
  9
$LIMMAX
 10
12.0
 20
9.0
  9
$ORTHOMODE
 70
     0
  9
$REGENMODE
 70
     1
  9
$FILLMODE
 70
     1
  9
$QTEXTMODE
 70
     0
  9
$MIRRTEXT
 70
     1
  9
$LTSCALE
 40
1.0
  9
$ATTMODE
 70
     1
  9
$TEXTSIZE
 40
0.2
  9
$TRACEWID
 40
0.05
  9
$TEXTSTYLE
  7
Standard
  9
$CLAYER
  8
0
  9
$CELTYPE
  6
ByLayer
  9
$CECOLOR
 62
   256
  9
$CELTSCALE
 40
1.0
  9
$DISPSILH
 70
     0
  9
$DIMSCALE
 40
1.0
  9
$DIMASZ
 40
0.18
  9
$DIMEXO
 40
0.0625
  9
$DIMDLI
 40
0.38
  9
$DIMRND
 40
0.0
  9
$DIMDLE
 40
0.0
  9
$DIMEXE
 40
0.18
  9
$DIMTP
 40
0.0
  9
$DIMTM
 40
0.0
  9
$DIMTXT
 40
0.18
  9
$DIMCEN
 40
0.09
  9
$DIMTSZ
 40
0.0
  9
$DIMTOL
 70
     0
  9
$DIMLIM
 70
     0
  9
$DIMTIH
 70
     1
  9
$DIMTOH
 70
     1
  9
$DIMSE1
 70
     0
  9
$DIMSE2
 70
     0
  9
$DIMTAD
 70
     0
  9
$DIMZIN
 70
     0
  9
$DIMBLK
  1

  9
$DIMASO
 70
     1
  9
$DIMSHO
 70
     1
  9
$DIMPOST
  1

  9
$DIMAPOST
  1

  9
$DIMALT
 70
     0
  9
$DIMALTD
 70
     2
  9
$DIMALTF
 40
25.4
  9
$DIMLFAC
 40
1.0
  9
$DIMTOFL
 70
     0
  9
$DIMTVP
 40
0.0
  9
$DIMTIX
 70
     0
  9
$DIMSOXD
 70
     0
  9
$DIMSAH
 70
     0
  9
$DIMBLK1
  1

  9
$DIMBLK2
  1

  9
$DIMSTYLE
  2
Standard
  9
$DIMCLRD
 70
     0
  9
$DIMCLRE
 70
     0
  9
$DIMCLRT
 70
     0
  9
$DIMTFAC
 40
1.0
  9
$DIMGAP
 40
0.09
  9
$DIMJUST
 70
     0
  9
$DIMSD1
 70
     0
  9
$DIMSD2
 70
     0
  9
$DIMTOLJ
 70
     1
  9
$DIMTZIN
 70
     0
  9
$DIMALTZ
 70
     0
  9
$DIMALTTZ
 70
     0
  9
$DIMUPT
 70
     0
  9
$DIMDEC
 70
     4
  9
$DIMTDEC
 70
     4
  9
$DIMALTU
 70
     2
  9
$DIMALTTD
 70
     2
  9
$DIMTXSTY
  7
Standard
  9
$DIMAUNIT
 70
     0
  9
$DIMADEC
 70
     0
  9
$DIMALTRND
 40
0.0
  9
$DIMAZIN
 70
     0
  9
$DIMDSEP
 70
    46
  9
$DIMATFIT
 70
     3
  9
$DIMFRAC
 70
     0
  9
$DIMLDRBLK
  1

  9
$DIMLUNIT
 70
     2
  9
$DIMLWD
 70
    -2
  9
$DIMLWE
 70
    -2
  9
$DIMTMOVE
 70
     0
  9
$DIMFXL
 40
1.0
  9
$DIMFXLON
 70
     0
  9
$DIMJOGANG
 40
0.7853981633974483
  9
$DIMTFILL
 70
     0
  9
$DIMTFILLCLR
 70
     0
  9
$DIMARCSYM
 70
     0
  9
$DIMLTYPE
  6

  9
$DIMLTEX1
  6

  9
$DIMLTEX2
  6

  9
$DIMTXTDIRECTION
 70
     0
  9
$LUNITS
 70
     2
  9
$LUPREC
 70
     4
  9
$SKETCHINC
 40
0.1
  9
$FILLETRAD
 40
0.5
  9
$AUNITS
 70
     0
  9
$AUPREC
 70
     0
  9
$MENU
  1
.
  9
$ELEVATION
 40
0.0
  9
$PELEVATION
 40
0.0
  9
$THICKNESS
 40
0.0
  9
$LIMCHECK
 70
     0
  9
$CHAMFERA
 40
0.5
  9
$CHAMFERB
 40
0.5
  9
$CHAMFERC
 40
1.0
  9
$CHAMFERD
 40
0.0
  9
$SKPOLY
 70
     0
  9
$TDCREATE
 40
2458263.574374988
  9
$TDUCREATE
 40
2458263.199375
  9
$TDUPDATE
 40
2458263.574374988
  9
$TDUUPDATE
 40
2458263.199375
  9
$TDINDWG
 40
0.0000000116
  9
$TDUSRTIMER
 40
0.0000000116
  9
$USRTIMER
 70
     1
  9
$ANGBASE
 50
0.0
  9
$ANGDIR
 70
     0
  9
$PDMODE
 70
     0
  9
$PDSIZE
 40
0.0
  9
$PLINEWID
 40
0.0
  9
$SPLFRAME
 70
     0
  9
$SPLINETYPE
 70
     6
  9
$SPLINESEGS
 70
     8
  9
$HANDSEED
  5
192
  9
$SURFTAB1
 70
     6
  9
$SURFTAB2
 70
     6
  9
$SURFTYPE
 70
     6
  9
$SURFU
 70
     6
  9
$SURFV
 70
     6
  9
$UCSBASE
  2

  9
$UCSNAME
  2

  9
$UCSORG
 10
0.0
 20
0.0
 30
0.0
  9
$UCSXDIR
 10
1.0
 20
0.0
 30
0.0
  9
$UCSYDIR
 10
0.0
 20
1.0
 30
0.0
  9
$UCSORTHOREF
  2

  9
$UCSORTHOVIEW
 70
     0
  9
$UCSORGTOP
 10
0.0
 20
0.0
 30
0.0
  9
$UCSORGBOTTOM
 10
0.0
 20
0.0
 30
0.0
  9
$UCSORGLEFT
 10
0.0
 20
0.0
 30
0.0
  9
$UCSORGRIGHT
 10
0.0
 20
0.0
 30
0.0
  9
$UCSORGFRONT
 10
0.0
 20
0.0
 30
0.0
  9
$UCSORGBACK
 10
0.0
 20
0.0
 30
0.0
  9
$PUCSBASE
  2

  9
$PUCSNAME
  2

  9
$PUCSORG
 10
0.0
 20
0.0
 30
0.0
  9
$PUCSXDIR
 10
1.0
 20
0.0
 30
0.0
  9
$PUCSYDIR
 10
0.0
 20
1.0
 30
0.0
  9
$PUCSORTHOREF
  2

  9
$PUCSORTHOVIEW
 70
     0
  9
$PUCSORGTOP
 10
0.0
 20
0.0
 30
0.0
  9
$PUCSORGBOTTOM
 10
0.0
 20
0.0
 30
0.0
  9
$PUCSORGLEFT
 10
0.0
 20
0.0
 30
0.0
  9
$PUCSORGRIGHT
 10
0.0
 20
0.0
 30
0.0
  9
$PUCSORGFRONT
 10
0.0
 20
0.0
 30
0.0
  9
$PUCSORGBACK
 10
0.0
 20
0.0
 30
0.0
  9
$USERI1
 70
     0
  9
$USERI2
 70
     0
  9
$USERI3
 70
     0
  9
$USERI4
 70
     0
  9
$USERI5
 70
     0
  9
$USERR1
 40
0.0
  9
$USERR2
 40
0.0
  9
$USERR3
 40
0.0
  9
$USERR4
 40
0.0
  9
$USERR5
 40
0.0
  9
$WORLDVIEW
 70
     1
  9
$SHADEDGE
 70
     3
  9
$SHADEDIF
 70
    70
  9
$TILEMODE
 70
     1
  9
$MAXACTVP
 70
    64
  9
$PINSBASE
 10
0.0
 20
0.0
 30
0.0
  9
$PLIMCHECK
 70
     0
  9
$PEXTMIN
 10
1.000000000000000E+20
 20
1.000000000000000E+20
 30
1.000000000000000E+20
  9
$PEXTMAX
 10
-1.000000000000000E+20
 20
-1.000000000000000E+20
 30
-1.000000000000000E+20
  9
$PLIMMIN
 10
0.0
 20
0.0
  9
$PLIMMAX
 10
12.0
 20
9.0
  9
$UNITMODE
 70
     0
  9
$VISRETAIN
 70
     1
  9
$PLINEGEN
 70
     0
  9
$PSLTSCALE
 70
     1
  9
$TREEDEPTH
 70
  3020
  9
$CMLSTYLE
  2
Standard
  9
$CMLJUST
 70
     0
  9
$CMLSCALE
 40
1.0
  9
$PROXYGRAPHICS
 70
     1
  9
$MEASUREMENT
 70
     0
  9
$CELWEIGHT
370
    -1
  9
$ENDCAPS
280
     0
  9
$JOINSTYLE
280
     0
  9
$LWDISPLAY
290
     1
  9
$INSUNITS
 70
     1
  9
$HYPERLINKBASE
  1

  9
$STYLESHEET
  1

  9
$XEDIT
290
     1
  9
$CEPSNTYPE
380
     0
  9
$PSTYLEMODE
290
     1
  9
$FINGERPRINTGUID
  2
{0598A4E9-F90B-674C-7725-35A3A67F123A}
  9
$VERSIONGUID
  2
{FAEB1C32-E019-11D5-929B-00C0DF256EC4}
  9
$EXTNAMES
290
     1
  9
$PSVPSCALE
 40
0.0
  9
$OLESTARTUP
290
     0
  9
$SORTENTS
280
   127
  9
$INDEXCTL
280
     0
  9
$HIDETEXT
280
     1
  9
$XCLIPFRAME
280
     2
  9
$HALOGAP
280
     0
  9
$OBSCOLOR
 70
   257
  9
$OBSLTYPE
280
     0
  9
$INTERSECTIONDISPLAY
280
     0
  9
$INTERSECTIONCOLOR
 70
   257
  9
$DIMASSOC
280
     2
  9
$PROJECTNAME
  1

  9
$CAMERADISPLAY
290
     0
  9
$LENSLENGTH
 40
50.0
  9
$CAMERAHEIGHT
 40
0.0
  9
$STEPSPERSEC
 40
2.0
  9
$STEPSIZE
 40
6.0
  9
$3DDWFPREC
 40
2.0
  9
$PSOLWIDTH
 40
0.25
  9
$PSOLHEIGHT
 40
4.0
  9
$LOFTANG1
 40
1.570796326794897
  9
$LOFTANG2
 40
1.570796326794897
  9
$LOFTMAG1
 40
0.0
  9
$LOFTMAG2
 40
0.0
  9
$LOFTPARAM
 70
     7
  9
$LOFTNORMALS
280
     1
  9
$LATITUDE
 40
37.795
  9
$LONGITUDE
 40
-122.394
  9
$NORTHDIRECTION
 40
0.0
  9
$TIMEZONE
 70
 -8000
  9
$LIGHTGLYPHDISPLAY
280
     1
  9
$TILEMODELIGHTSYNCH
280
     1
  9
$CMATERIAL
347
3C
  9
$SOLIDHIST
280
     1
  9
$SHOWHIST
280
     1
  9
$DWFFRAME
280
     2
  9
$DGNFRAME
280
     2
  9
$REALWORLDSCALE
290
     1
  9
$INTERFERECOLOR
 62
   256
  9
$CSHADOW
280
     0
  9
$SHADOWPLANELOCATION
 40
0.0
  0
ENDSEC
  0
SECTION
  2
CLASSES
  0
CLASS
  1
ACDBDICTIONARYWDFLT
  2
AcDbDictionaryWithDefault
  3
ObjectDBX Classes
 90
        0
 91
        4
280
     0
281
     0
  0
CLASS
  1
VISUALSTYLE
  2
AcDbVisualStyle
  3
ObjectDBX Classes
 90
     4095
 91
        4
280
     0
281
     0
  0
CLASS
  1
MATERIAL
  2
AcDbMaterial
  3
ObjectDBX Classes
 90
     1153
 91
        4
280
     0
281
     0
  0
CLASS
  1
SUN
  2
AcDbSun
  3
SCENEOE
 90
     1024
 91
        4
280
     0
281
     0
  0
ENDSEC
  0
SECTION
  2
TABLES
  0
TABLE
  2
VPORT
  5
8
330
0
100
AcDbSymbolTable
 70
     1
  0
VPORT
  5
29
330
8
100
AcDbSymbolTableRecord
100
AcDbViewportTableRecord
  2
*Active
 70
     0
 10
0.0
 20
0.0
 11
1.0
 21
1.0
 12
0.0
 22
0.0
 13
0.0
 23
0.0
 14
0.5
 24
0.5
 15
0.5
 25
0.5
 16
0.0
 26
0.0
 36
1.0
 17
105.0007777515277
 27
-148.5000416295416
 37
0.0
 40
297.0000832590831
 41
0.7070757462376333
 42
50.0
 43
0.0
 44
0.0
 50
0.0
 51
0.0
 71
     0
 72
   100
 73
     1
 74
     3
 75
     0
 76
     0
 77
     0
 78
     0
281
     0
 65
     1
110
0.0
120
0.0
130
0.0
111
1.0
121
0.0
131
0.0
112
0.0
122
1.0
132
0.0
 79
     0
146
0.0
 60
     3
 61
     5
292
     1
282
     1
141
0.0
142
0.0
 63
   250
361
3F
  0
ENDTAB
  0
TABLE
  2
LTYPE
  5
5
330
0
100
AcDbSymbolTable
 70
     3
  0
LTYPE
  5
14
330
5
100
AcDbSymbolTableRecord
100
AcDbLinetypeTableRecord
  2
ByBlock
 70
     0
  3

 72
    65
 73
     0
 40
0.0
  0
LTYPE
  5
15
330
5
100
AcDbSymbolTableRecord
100
AcDbLinetypeTableRecord
  2
ByLayer
 70
     0
  3

 72
    65
 73
     0
 40
0.0
  0
LTYPE
  5
16
330
5
100
AcDbSymbolTableRecord
100
AcDbLinetypeTableRecord
  2
Continuous
 70
     0
  3
Solid line
 72
    65
 73
     0
 40
0.0
  0
LTYPE
  5
ED
330
5
100
AcDbSymbolTableRecord
100
AcDbLinetypeTableRecord
  2
AI-Linetype-1
 70
     0
  3
Adobe Illustrator Linetype No. 1
 72
    65
 73
     2
 40
1.750130543006359
 49
1.000125013207373
 74
     0
 49
-0.7500055297989862
 74
     0
  0
LTYPE
  5
F3
330
5
100
AcDbSymbolTableRecord
100
AcDbLinetypeTableRecord
  2
AI-Linetype-2
 70
     0
  3
Adobe Illustrator Linetype No. 2
 72
    65
 73
     2
 40
1.750130543006359
 49
1.000125013207373
 74
     0
 49
-0.7500055297989862
 74
     0
  0
ENDTAB
  0
TABLE
  2
LAYER
  5
2
330
0
100
AcDbSymbolTable
 70
     2
  0
LAYER
  5
10
330
2
100
AcDbSymbolTableRecord
100
AcDbLayerTableRecord
  2
0
 70
     0
 62
     7
  6
Continuous
370
    -3
390
F
347
3E
  0
LAYER
  5
40
330
2
100
AcDbSymbolTableRecord
100
AcDbLayerTableRecord
  2
_U+30EC_U+30A4_U+30E4_U+30FC 1
 70
     0
 62
     7
  6
Continuous
370
    -3
390
F
347
3E
  0
ENDTAB
  0
TABLE
  2
STYLE
  5
3
330
0
100
AcDbSymbolTable
 70
     1
  0
STYLE
  5
11
330
3
100
AcDbSymbolTableRecord
100
AcDbTextStyleTableRecord
  2
Standard
 70
     0
 40
0.0
 41
1.0
 50
0.0
 71
     0
 42
0.2
  3
txt
  4

  0
ENDTAB
  0
TABLE
  2
VIEW
  5
6
330
0
100
AcDbSymbolTable
 70
     0
  0
ENDTAB
  0
TABLE
  2
UCS
  5
7
330
0
100
AcDbSymbolTable
 70
     0
  0
ENDTAB
  0
TABLE
  2
APPID
  5
9
330
0
100
AcDbSymbolTable
 70
     1
  0
APPID
  5
12
330
9
100
AcDbSymbolTableRecord
100
AcDbRegAppTableRecord
  2
ACAD
 70
     0
  0
ENDTAB
  0
TABLE
  2
DIMSTYLE
  5
A
330
0
100
AcDbSymbolTable
 70
     1
100
AcDbDimStyleTable
  0
DIMSTYLE
105
27
330
A
100
AcDbSymbolTableRecord
100
AcDbDimStyleTableRecord
  2
Standard
 70
     0
178
     0
340
11
  0
ENDTAB
  0
TABLE
  2
BLOCK_RECORD
  5
1
330
0
100
AcDbSymbolTable
 70
    11
  0
BLOCK_RECORD
  5
1F
330
1
100
AcDbSymbolTableRecord
100
AcDbBlockTableRecord
  2
*Model_Space
340
22
 70
     0
280
     1
281
     0
  0
BLOCK_RECORD
  5
1B
330
1
100
AcDbSymbolTableRecord
100
AcDbBlockTableRecord
  2
*Paper_Space
340
1E
 70
     0
280
     1
281
     0
  0
BLOCK_RECORD
  5
23
330
1
100
AcDbSymbolTableRecord
100
AcDbBlockTableRecord
  2
*Paper_Space0
340
26
 70
     0
280
     1
281
     0
  0
BLOCK_RECORD
  5
63
330
1
100
AcDbSymbolTableRecord
100
AcDbBlockTableRecord
  2
block 2
340
0
102
{BLKREFS
331
64
102
}
 70
     0
280
     1
281
     0
  0
BLOCK_RECORD
  5
77
330
1
100
AcDbSymbolTableRecord
100
AcDbBlockTableRecord
  2
block 3
340
0
102
{BLKREFS
331
78
102
}
 70
     0
280
     1
281
     0
  0
BLOCK_RECORD
  5
92
330
1
100
AcDbSymbolTableRecord
100
AcDbBlockTableRecord
  2
block 4
340
0
102
{BLKREFS
331
93
102
}
 70
     0
280
     1
281
     0
  0
BLOCK_RECORD
  5
A9
330
1
100
AcDbSymbolTableRecord
100
AcDbBlockTableRecord
  2
block 5
340
0
102
{BLKREFS
331
AA
102
}
 70
     0
280
     1
281
     0
  0
BLOCK_RECORD
  5
C7
330
1
100
AcDbSymbolTableRecord
100
AcDbBlockTableRecord
  2
block 6
340
0
102
{BLKREFS
331
C8
102
}
 70
     0
280
     1
281
     0
  0
BLOCK_RECORD
  5
E1
330
1
100
AcDbSymbolTableRecord
100
AcDbBlockTableRecord
  2
block 7
340
0
102
{BLKREFS
331
E2
102
}
 70
     0
280
     1
281
     0
  0
BLOCK_RECORD
  5
F5
330
1
100
AcDbSymbolTableRecord
100
AcDbBlockTableRecord
  2
block 8
340
0
102
{BLKREFS
331
F6
102
}
 70
     0
280
     1
281
     0
  0
BLOCK_RECORD
  5
FD
330
1
100
AcDbSymbolTableRecord
100
AcDbBlockTableRecord
  2
block 9
340
0
102
{BLKREFS
331
FE
102
}
 70
     0
280
     1
281
     0
  0
BLOCK_RECORD
  5
103
330
1
100
AcDbSymbolTableRecord
100
AcDbBlockTableRecord
  2
block 10
340
0
102
{BLKREFS
331
104
102
}
 70
     0
280
     1
281
     0
  0
BLOCK_RECORD
  5
10B
330
1
100
AcDbSymbolTableRecord
100
AcDbBlockTableRecord
  2
block 11
340
0
102
{BLKREFS
331
10C
102
}
 70
     0
280
     1
281
     0
  0
ENDTAB
  0
ENDSEC
  0
SECTION
  2
BLOCKS
  0
BLOCK
  5
20
330
1F
100
AcDbEntity
  8
0
100
AcDbBlockBegin
  2
*Model_Space
 70
     0
 10
0.0
 20
0.0
 30
0.0
  3
*Model_Space
  1

  0
ENDBLK
  5
21
330
1F
100
AcDbEntity
  8
0
100
AcDbBlockEnd
  0
BLOCK
  5
1C
330
1B
100
AcDbEntity
 67
     1
  8
0
100
AcDbBlockBegin
  2
*Paper_Space
 70
     0
 10
0.0
 20
0.0
 30
0.0
  3
*Paper_Space
  1

  0
ENDBLK
  5
1D
330
1B
100
AcDbEntity
 67
     1
  8
0
100
AcDbBlockEnd
  0
BLOCK
  5
24
330
23
100
AcDbEntity
  8
0
100
AcDbBlockBegin
  2
*Paper_Space0
 70
     0
 10
0.0
 20
0.0
 30
0.0
  3
*Paper_Space0
  1

  0
ENDBLK
  5
25
330
23
100
AcDbEntity
  8
0
100
AcDbBlockEnd
  0
BLOCK
  5
65
330
63
100
AcDbEntity
  8
0
100
AcDbBlockBegin
  2
block 2
 70
     0
 10
0.0
 20
0.0
 30
0.0
  3
block 2
  1

  0
SPLINE
  5
67
330
63
100
AcDbEntity
  8
_U+30EC_U+30A4_U+30E4_U+30FC 1
370
     0
100
AcDbSpline
210
0.0
220
0.0
230
1.0
 70
    11
 71
     3
 72
    26
 73
    22
 74
     0
 42
0.0000000001
 43
0.0000000001
 12
1.0
 22
0.0
 32
0.0
 13
1.0
 23
0.0
 33
0.0
 40
0.0
 40
0.0
 40
0.0
 40
0.0
 40
1.0
 40
1.0
 40
1.0
 40
2.0
 40
2.0
 40
2.0
 40
3.0
 40
3.0
 40
3.0
 40
4.0
 40
4.0
 40
4.0
 40
5.0
 40
5.0
 40
5.0
 40
6.0
 40
6.0
 40
6.0
 40
7.0
 40
7.0
 40
7.0
 40
7.0
 10
126.7619438702192
 20
-146.7751925631326
 30
0.0
 10
126.7619438702192
 20
-146.7751925631326
 30
0.0
 10
125.6577907671967
 20
-146.7751925631326
 30
0.0
 10
125.6577907671967
 20
-146.7751925631326
 30
0.0
 10
125.6577907671967
 20
-146.7751925631326
 30
0.0
 10
125.6577907671967
 20
-147.1052327106195
 30
0.0
 10
125.6577907671967
 20
-147.1052327106195
 30
0.0
 10
125.6577907671967
 20
-147.1052327106195
 30
0.0
 10
125.5096516613309
 20
-147.1052327106195
 30
0.0
 10
125.5096516613309
 20
-147.1052327106195
 30
0.0
 10
125.4948377507444
 20
-146.7731255058414
 30
0.0
 10
125.331884734292
 20
-146.7266167167906
 30
0.0
 10
125.2175075641817
 20
-146.6969888956174
 30
0.0
 10
125.2175075641817
 20
-146.6969888956174
 30
0.0
 10
125.2175075641817
 20
-146.5509168470428
 30
0.0
 10
125.2175075641817
 20
-146.5509168470428
 30
0.0
 10
125.2175075641817
 20
-146.5509168470428
 30
0.0
 10
126.7619438702192
 20
-146.5509168470428
 30
0.0
 10
126.7619438702192
 20
-146.5509168470428
 30
0.0
 10
126.7619438702192
 20
-146.5509168470428
 30
0.0
 10
126.7619438702192
 20
-146.7751925631326
 30
0.0
 10
126.7619438702192
 20
-146.7751925631326
 30
0.0
  0
HATCH
  5
68
330
63
100
AcDbEntity
  8
_U+30EC_U+30A4_U+30E4_U+30FC 1
 62
   179
420
  2234388
100
AcDbHatch
 10
0.0
 20
0.0
 30
0.0
210
0.0
220
0.0
230
1.0
  2
SOLID
 70
     1
 71
     0
 91
        1
 92
        1
 93
        1
 72
     4
 94
        3
 73
     0
 74
     1
 95
       26
 96
       22
 40
0.0
 40
0.0
 40
0.0
 40
0.0
 40
1.0
 40
1.0
 40
1.0
 40
2.0
 40
2.0
 40
2.0
 40
3.0
 40
3.0
 40
3.0
 40
4.0
 40
4.0
 40
4.0
 40
5.0
 40
5.0
 40
5.0
 40
6.0
 40
6.0
 40
6.0
 40
7.0
 40
7.0
 40
7.0
 40
7.0
 10
126.7619438702192
 20
-146.7751925631326
 10
126.7619438702192
 20
-146.7751925631326
 10
125.6577907671967
 20
-146.7751925631326
 10
125.6577907671967
 20
-146.7751925631326
 10
125.6577907671967
 20
-146.7751925631326
 10
125.6577907671967
 20
-147.1052327106195
 10
125.6577907671967
 20
-147.1052327106195
 10
125.6577907671967
 20
-147.1052327106195
 10
125.5096516613309
 20
-147.1052327106195
 10
125.5096516613309
 20
-147.1052327106195
 10
125.4948377507444
 20
-146.7731255058414
 10
125.331884734292
 20
-146.7266167167906
 10
125.2175075641817
 20
-146.6969888956174
 10
125.2175075641817
 20
-146.6969888956174
 10
125.2175075641817
 20
-146.5509168470428
 10
125.2175075641817
 20
-146.5509168470428
 10
125.2175075641817
 20
-146.5509168470428
 10
126.7619438702192
 20
-146.5509168470428
 10
126.7619438702192
 20
-146.5509168470428
 10
126.7619438702192
 20
-146.5509168470428
 10
126.7619438702192
 20
-146.7751925631326
 10
126.7619438702192
 20
-146.7751925631326
 97
        0
 97
        0
 75
     2
 76
     1
 98
        0
  0
SPLINE
  5
69
330
63
100
AcDbEntity
  8
_U+30EC_U+30A4_U+30E4_U+30FC 1
370
     0
100
AcDbSpline
210
0.0
220
0.0
230
1.0
 70
    11
 71
     3
 72
    62
 73
    58
 74
     0
 42
0.0000000001
 43
0.0000000001
 12
1.0
 22
0.0
 32
0.0
 13
1.0
 23
0.0
 33
0.0
 40
0.0
 40
0.0
 40
0.0
 40
0.0
 40
1.0
 40
1.0
 40
1.0
 40
2.0
 40
2.0
 40
2.0
 40
3.0
 40
3.0
 40
3.0
 40
4.0
 40
4.0
 40
4.0
 40
5.0
 40
5.0
 40
5.0
 40
6.0
 40
6.0
 40
6.0
 40
7.0
 40
7.0
 40
7.0
 40
8.0
 40
8.0
 40
8.0
 40
9.0
 40
9.0
 40
9.0
 40
10.0
 40
10.0
 40
10.0
 40
11.0
 40
11.0
 40
11.0
 40
12.0
 40
12.0
 40
12.0
 40
13.0
 40
13.0
 40
13.0
 40
14.0
 40
14.0
 40
14.0
 40
15.0
 40
15.0
 40
15.0
 40
16.0
 40
16.0
 40
16.0
 40
17.0
 40
17.0
 40
17.0
 40
18.0
 40
18.0
 40
18.0
 40
19.0
 40
19.0
 40
19.0
 40
19.0
 10
126.8125867738524
 20
-145.5580403281938
 30
0.0
 10
126.8125867738524
 20
-145.6534694731353
 30
0.0
 10
126.7915716913924
 20
-145.871199507803
 30
0.0
 10
126.6055365351889
 20
-145.9962564739176
 30
0.0
 10
126.4932264223698
 20
-146.069981517302
 30
0.0
 10
126.3940076723946
 20
-146.0744601414328
 30
0.0
 10
126.3092583234574
 20
-146.0785942560151
 30
0.0
 10
126.3092583234574
 20
-146.0785942560151
 30
0.0
 10
126.3092583234574
 20
-145.8584526545076
 30
0.0
 10
126.3092583234574
 20
-145.8584526545076
 30
0.0
 10
126.3833278763903
 20
-145.8563855972165
 30
0.0
 10
126.6179388789358
 20
-145.8460503107607
 30
0.0
 10
126.6179388789358
 20
-145.5625189523247
 30
0.0
 10
126.6179388789358
 20
-145.4250596424632
 30
0.0
 10
126.5483479501337
 20
-145.2724419124666
 30
0.0
 10
126.3199381194617
 20
-145.2724419124666
 30
0.0
 10
126.2034938920602
 20
-145.2724419124666
 30
0.0
 10
126.1549180457182
 20
-145.3106824723529
 30
0.0
 10
126.1232231672539
 20
-145.3423773508172
 30
0.0
 10
126.0491536143211
 20
-145.4164469037501
 30
0.0
 10
126.0364067610256
 20
-145.5328911311515
 30
0.0
 10
126.0364067610256
 20
-145.587668149367
 30
0.0
 10
126.0364067610256
 20
-145.6069606840844
 30
0.0
 10
126.0384738183168
 20
-145.642789677131
 30
0.0
 10
126.0426079328991
 20
-145.670350441013
 30
0.0
 10
126.0426079328991
 20
-145.670350441013
 30
0.0
 10
125.8479600379825
 20
-145.670350441013
 30
0.0
 10
125.8479600379825
 20
-145.670350441013
 30
0.0
 10
125.8545057194044
 20
-145.6321098811267
 30
0.0
 10
125.8565727766956
 20
-145.5900797162066
 30
0.0
 10
125.8565727766956
 20
-145.5835340347847
 30
0.0
 10
125.8565727766956
 20
-145.5180772205649
 30
0.0
 10
125.835213184687
 20
-145.319295211066
 30
0.0
 10
125.5985351248504
 20
-145.319295211066
 30
0.0
 10
125.4207681978115
 20
-145.319295211066
 30
0.0
 10
125.3656466700475
 20
-145.4502088395055
 30
0.0
 10
125.3656466700475
 20
-145.5604518950335
 30
0.0
 10
125.3656466700475
 20
-145.8246907187522
 30
0.0
 10
125.5985351248504
 20
-145.8333034574653
 30
0.0
 10
125.6701931109436
 20
-145.8374375720476
 30
0.0
 10
125.6701931109436
 20
-145.8374375720476
 30
0.0
 10
125.6701931109436
 20
-146.0406982056773
 30
0.0
 10
125.6701931109436
 20
-146.0406982056773
 30
0.0
 10
125.5454806543775
 20
-146.0320854669642
 30
0.0
 10
125.1689317178397
 20
-146.0045247030822
 30
0.0
 10
125.1689317178397
 20
-145.5477050417381
 30
0.0
 10
125.1689317178397
 20
-145.3234293256483
 30
0.0
 10
125.2960557412454
 20
-145.0822726416808
 30
0.0
 10
125.5919894434284
 20
-145.0822726416808
 30
0.0
 10
125.7783691091804
 20
-145.0822726416808
 30
0.0
 10
125.8607068912779
 20
-145.1773572770737
 30
0.0
 10
125.9220295909153
 20
-145.2769205365974
 30
0.0
 10
125.9495903547973
 20
-145.21559783696
 30
0.0
 10
126.0298610796036
 20
-145.0336967953388
 30
0.0
 10
126.3071912661663
 20
-145.0336967953388
 30
0.0
 10
126.6454996428178
 20
-145.0336967953388
 30
0.0
 10
126.8125867738524
 20
-145.2810546511797
 30
0.0
 10
126.8125867738524
 20
-145.5580403281938
 30
0.0
  0
HATCH
  5
6A
330
63
100
AcDbEntity
  8
_U+30EC_U+30A4_U+30E4_U+30FC 1
 62
   179
420
  2234388
100
AcDbHatch
 10
0.0
 20
0.0
 30
0.0
210
0.0
220
0.0
230
1.0
  2
SOLID
 70
     1
 71
     0
 91
        1
 92
        1
 93
        1
 72
     4
 94
        3
 73
     0
 74
     1
 95
       62
 96
       58
 40
0.0
 40
0.0
 40
0.0
 40
0.0
 40
1.0
 40
1.0
 40
1.0
 40
2.0
 40
2.0
 40
2.0
 40
3.0
 40
3.0
 40
3.0
 40
4.0
 40
4.0
 40
4.0
 40
5.0
 40
5.0
 40
5.0
 40
6.0
 40
6.0
 40
6.0
 40
7.0
 40
7.0
 40
7.0
 40
8.0
 40
8.0
 40
8.0
 40
9.0
 40
9.0
 40
9.0
 40
10.0
 40
10.0
 40
10.0
 40
11.0
 40
11.0
 40
11.0
 40
12.0
 40
12.0
 40
12.0
 40
13.0
 40
13.0
 40
13.0
 40
14.0
 40
14.0
 40
14.0
 40
15.0
 40
15.0
 40
15.0
 40
16.0
 40
16.0
 40
16.0
 40
17.0
 40
17.0
 40
17.0
 40
18.0
 40
18.0
 40
18.0
 40
19.0
 40
19.0
 40
19.0
 40
19.0
 10
126.8125867738524
 20
-145.5580403281938
 10
126.8125867738524
 20
-145.6534694731353
 10
126.7915716913924
 20
-145.871199507803
 10
126.6055365351889
 20
-145.9962564739176
 10
126.4932264223698
 20
-146.069981517302
 10
126.3940076723946
 20
-146.0744601414328
 10
126.3092583234574
 20
-146.0785942560151
 10
126.3092583234574
 20
-146.0785942560151
 10
126.3092583234574
 20
-145.8584526545076
 10
126.3092583234574
 20
-145.8584526545076
 10
126.3833278763903
 20
-145.8563855972165
 10
126.6179388789358
 20
-145.8460503107607
 10
126.6179388789358
 20
-145.5625189523247
 10
126.6179388789358
 20
-145.4250596424632
 10
126.5483479501337
 20
-145.2724419124666
 10
126.3199381194617
 20
-145.2724419124666
 10
126.2034938920602
 20
-145.2724419124666
 10
126.1549180457182
 20
-145.3106824723529
 10
126.1232231672539
 20
-145.3423773508172
 10
126.0491536143211
 20
-145.4164469037501
 10
126.0364067610256
 20
-145.5328911311515
 10
126.0364067610256
 20
-145.587668149367
 10
126.0364067610256
 20
-145.6069606840844
 10
126.0384738183168
 20
-145.642789677131
 10
126.0426079328991
 20
-145.670350441013
 10
126.0426079328991
 20
-145.670350441013
 10
125.8479600379825
 20
-145.670350441013
 10
125.8479600379825
 20
-145.670350441013
 10
125.8545057194044
 20
-145.6321098811267
 10
125.8565727766956
 20
-145.5900797162066
 10
125.8565727766956
 20
-145.5835340347847
 10
125.8565727766956
 20
-145.5180772205649
 10
125.835213184687
 20
-145.319295211066
 10
125.5985351248504
 20
-145.319295211066
 10
125.4207681978115
 20
-145.319295211066
 10
125.3656466700475
 20
-145.4502088395055
 10
125.3656466700475
 20
-145.5604518950335
 10
125.3656466700475
 20
-145.8246907187522
 10
125.5985351248504
 20
-145.8333034574653
 10
125.6701931109436
 20
-145.8374375720476
 10
125.6701931109436
 20
-145.8374375720476
 10
125.6701931109436
 20
-146.0406982056773
 10
125.6701931109436
 20
-146.0406982056773
 10
125.5454806543775
 20
-146.0320854669642
 10
125.1689317178397
 20
-146.0045247030822
 10
125.1689317178397
 20
-145.5477050417381
 10
125.1689317178397
 20
-145.3234293256483
 10
125.2960557412454
 20
-145.0822726416808
 10
125.5919894434284
 20
-145.0822726416808
 10
125.7783691091804
 20
-145.0822726416808
 10
125.8607068912779
 20
-145.1773572770737
 10
125.9220295909153
 20
-145.2769205365974
 10
125.9495903547973
 20
-145.21559783696
 10
126.0298610796036
 20
-145.0336967953388
 10
126.3071912661663
 20
-145.0336967953388
 10
126.6454996428178
 20
-145.0336967953388
 10
126.8125867738524
 20
-145.2810546511797
 10
126.8125867738524
 20
-145.5580403281938
 97
        0
 97
        0
 75
     2
 76
     1
 98
        0
  0
ENDBLK
  5
66
330
63
100
AcDbEntity
  8
0
100
AcDbBlockEnd
  0
BLOCK
  5
79
330
77
100
AcDbEntity
  8
0
100
AcDbBlockBegin
  2
block 3
 70
     0
 10
0.0
 20
0.0
 30
0.0
  3
block 3
  1

  0
SPLINE
  5
7B
330
77
100
AcDbEntity
  8
_U+30EC_U+30A4_U+30E4_U+30FC 1
370
     0
100
AcDbSpline
210
0.0
220
0.0
230
1.0
 70
    11
 71
     3
 72
    44
 73
    40
 74
     0
 42
0.0000000001
 43
0.0000000001
 12
1.0
 22
0.0
 32
0.0
 13
1.0
 23
0.0
 33
0.0
 40
0.0
 40
0.0
 40
0.0
 40
0.0
 40
1.0
 40
1.0
 40
1.0
 40
2.0
 40
2.0
 40
2.0
 40
3.0
 40
3.0
 40
3.0
 40
4.0
 40
4.0
 40
4.0
 40
5.0
 40
5.0
 40
5.0
 40
6.0
 40
6.0
 40
6.0
 40
7.0
 40
7.0
 40
7.0
 40
8.0
 40
8.0
 40
8.0
 40
9.0
 40
9.0
 40
9.0
 40
10.0
 40
10.0
 40
10.0
 40
11.0
 40
11.0
 40
11.0
 40
12.0
 40
12.0
 40
12.0
 40
13.0
 40
13.0
 40
13.0
 40
13.0
 10
82.68039684347922
 20
-151.1359944283618
 30
0.0
 10
82.83921574534922
 20
-151.3540689725781
 30
0.0
 10
82.9132852982821
 20
-151.4470865506799
 30
0.0
 10
83.05694578001702
 20
-151.4956623970219
 30
0.0
 10
83.05694578001702
 20
-151.4956623970219
 30
0.0
 10
83.05694578001702
 20
-150.717415326904
 30
0.0
 10
83.05694578001702
 20
-150.717415326904
 30
0.0
 10
83.05694578001702
 20
-150.717415326904
 30
0.0
 10
83.26227347093791
 20
-150.717415326904
 30
0.0
 10
83.26227347093791
 20
-150.717415326904
 30
0.0
 10
83.26227347093791
 20
-150.717415326904
 30
0.0
 10
83.26227347093791
 20
-151.7454318197025
 30
0.0
 10
83.26227347093791
 20
-151.7454318197025
 30
0.0
 10
82.90467255956898
 20
-151.7137369412382
 30
0.0
 10
82.8264688920538
 20
-151.64793561747
 30
0.0
 10
82.52812362303116
 20
-151.2631184517676
 30
0.0
 10
82.32934161353225
 20
-151.006803347665
 30
0.0
 10
82.26147323247282
 20
-150.9413465334452
 30
0.0
 10
82.12401392261137
 20
-150.9413465334452
 30
0.0
 10
82.00550263791877
 20
-150.9413465334452
 30
0.0
 10
81.87458900947928
 20
-151.013349029087
 30
0.0
 10
81.87458900947928
 20
-151.2100639812947
 30
0.0
 10
81.87458900947928
 20
-151.4705131999796
 30
0.0
 10
82.10506589744249
 20
-151.4787814291442
 30
0.0
 10
82.22151012484393
 20
-151.4829155437265
 30
0.0
 10
82.22151012484393
 20
-151.4829155437265
 30
0.0
 10
82.22151012484393
 20
-151.7071912598163
 30
0.0
 10
82.22151012484393
 20
-151.7071912598163
 30
0.0
 10
82.09438610143822
 20
-151.6985785211031
 30
0.0
 10
81.9824204981676
 20
-151.6882432346474
 30
0.0
 10
81.863909213475
 20
-151.6076280002926
 30
0.0
 10
81.70302325431383
 20
-151.4980739638616
 30
0.0
 10
81.66926131855838
 20
-151.3116942981096
 30
0.0
 10
81.66926131855838
 20
-151.1952500707081
 30
0.0
 10
81.66926131855838
 20
-150.9179198841455
 30
0.0
 10
81.85322941747073
 20
-150.710869645482
 30
0.0
 10
82.12608097990251
 20
-150.710869645482
 30
0.0
 10
82.3548353201231
 20
-150.710869645482
 30
0.0
 10
82.4540540700983
 20
-150.8269693633349
 30
0.0
 10
82.68039684347922
 20
-151.1359944283618
 30
0.0
  0
HATCH
  5
7C
330
77
100
AcDbEntity
  8
_U+30EC_U+30A4_U+30E4_U+30FC 1
 62
   179
420
  2234388
100
AcDbHatch
 10
0.0
 20
0.0
 30
0.0
210
0.0
220
0.0
230
1.0
  2
SOLID
 70
     1
 71
     0
 91
        1
 92
        1
 93
        1
 72
     4
 94
        3
 73
     0
 74
     1
 95
       44
 96
       40
 40
0.0
 40
0.0
 40
0.0
 40
0.0
 40
1.0
 40
1.0
 40
1.0
 40
2.0
 40
2.0
 40
2.0
 40
3.0
 40
3.0
 40
3.0
 40
4.0
 40
4.0
 40
4.0
 40
5.0
 40
5.0
 40
5.0
 40
6.0
 40
6.0
 40
6.0
 40
7.0
 40
7.0
 40
7.0
 40
8.0
 40
8.0
 40
8.0
 40
9.0
 40
9.0
 40
9.0
 40
10.0
 40
10.0
 40
10.0
 40
11.0
 40
11.0
 40
11.0
 40
12.0
 40
12.0
 40
12.0
 40
13.0
 40
13.0
 40
13.0
 40
13.0
 10
82.68039684347922
 20
-151.1359944283618
 10
82.83921574534922
 20
-151.3540689725781
 10
82.9132852982821
 20
-151.4470865506799
 10
83.05694578001702
 20
-151.4956623970219
 10
83.05694578001702
 20
-151.4956623970219
 10
83.05694578001702
 20
-150.717415326904
 10
83.05694578001702
 20
-150.717415326904
 10
83.05694578001702
 20
-150.717415326904
 10
83.26227347093791
 20
-150.717415326904
 10
83.26227347093791
 20
-150.717415326904
 10
83.26227347093791
 20
-150.717415326904
 10
83.26227347093791
 20
-151.7454318197025
 10
83.26227347093791
 20
-151.7454318197025
 10
82.90467255956898
 20
-151.7137369412382
 10
82.8264688920538
 20
-151.64793561747
 10
82.52812362303116
 20
-151.2631184517676
 10
82.32934161353225
 20
-151.006803347665
 10
82.26147323247282
 20
-150.9413465334452
 10
82.12401392261137
 20
-150.9413465334452
 10
82.00550263791877
 20
-150.9413465334452
 10
81.87458900947928
 20
-151.013349029087
 10
81.87458900947928
 20
-151.2100639812947
 10
81.87458900947928
 20
-151.4705131999796
 10
82.10506589744249
 20
-151.4787814291442
 10
82.22151012484393
 20
-151.4829155437265
 10
82.22151012484393
 20
-151.4829155437265
 10
82.22151012484393
 20
-151.7071912598163
 10
82.22151012484393
 20
-151.7071912598163
 10
82.09438610143822
 20
-151.6985785211031
 10
81.9824204981676
 20
-151.6882432346474
 10
81.863909213475
 20
-151.6076280002926
 10
81.70302325431383
 20
-151.4980739638616
 10
81.66926131855838
 20
-151.3116942981096
 10
81.66926131855838
 20
-151.1952500707081
 10
81.66926131855838
 20
-150.9179198841455
 10
81.85322941747073
 20
-150.710869645482
 10
82.12608097990251
 20
-150.710869645482
 10
82.3548353201231
 20
-150.710869645482
 10
82.4540540700983
 20
-150.8269693633349
 10
82.68039684347922
 20
-151.1359944283618
 97
        0
 97
        0
 75
     2
 76
     1
 98
        0
  0
SPLINE
  5
7D
330
77
100
AcDbEntity
  8
_U+30EC_U+30A4_U+30E4_U+30FC 1
370
     0
100
AcDbSpline
210
0.0
220
0.0
230
1.0
 70
    11
 71
     3
 72
    29
 73
    25
 74
     0
 42
0.0000000001
 43
0.0000000001
 12
1.0
 22
0.0
 32
0.0
 13
1.0
 23
0.0
 33
0.0
 40
0.0
 40
0.0
 40
0.0
 40
0.0
 40
1.0
 40
1.0
 40
1.0
 40
2.0
 40
2.0
 40
2.0
 40
3.0
 40
3.0
 40
3.0
 40
4.0
 40
4.0
 40
4.0
 40
5.0
 40
5.0
 40
5.0
 40
6.0
 40
6.0
 40
6.0
 40
7.0
 40
7.0
 40
7.0
 40
8.0
 40
8.0
 40
8.0
 40
8.0
 10
83.08450654389901
 20
-149.6546033697044
 30
0.0
 10
83.2939683494022
 20
-149.7624348583927
 30
0.0
 10
83.31291637457107
 20
-149.9360676708493
 30
0.0
 10
83.31291637457107
 20
-150.0525118982508
 30
0.0
 10
83.31291637457107
 20
-150.2130533478634
 30
0.0
 10
83.26640758552021
 20
-150.3549912818557
 30
0.0
 10
83.08450654389901
 20
-150.4500759172486
 30
0.0
 10
82.8898586489824
 20
-150.5534287818061
 30
0.0
 10
82.65318058914573
 20
-150.5727213165235
 30
0.0
 10
82.49022757269341
 20
-150.5727213165235
 30
0.0
 10
82.34622258140998
 20
-150.5727213165235
 30
0.0
 10
82.09438610143822
 20
-150.5558403486458
 30
0.0
 10
81.89560409193929
 20
-150.4500759172486
 30
0.0
 10
81.69268796785808
 20
-150.3418999190118
 30
0.0
 10
81.66926131855838
 20
-150.1813584693991
 30
0.0
 10
81.66926131855838
 20
-150.0525118982508
 30
0.0
 10
81.66926131855838
 20
-149.8936929963808
 30
0.0
 10
81.7137030503181
 20
-149.7500325146458
 30
0.0
 10
81.89560409193929
 20
-149.6546033697044
 30
0.0
 10
82.08818492956476
 20
-149.5550401101807
 30
0.0
 10
82.31659476023682
 20
-149.5319579704295
 30
0.0
 10
82.49022757269341
 20
-149.5319579704295
 30
0.0
 10
82.66144881831033
 20
-149.5319579704295
 30
0.0
 10
82.89192570627355
 20
-149.5529730528895
 30
0.0
 10
83.08450654389901
 20
-149.6546033697044
 30
0.0
  0
SPLINE
  5
7E
330
77
100
AcDbEntity
  8
_U+30EC_U+30A4_U+30E4_U+30FC 1
370
     0
100
AcDbSpline
210
0.0
220
0.0
230
1.0
 70
    11
 71
     3
 72
    17
 73
    13
 74
     0
 42
0.0000000001
 43
0.0000000001
 12
1.0
 22
0.0
 32
0.0
 13
1.0
 23
0.0
 33
0.0
 40
0.0
 40
0.0
 40
0.0
 40
0.0
 40
1.0
 40
1.0
 40
1.0
 40
2.0
 40
2.0
 40
2.0
 40
3.0
 40
3.0
 40
3.0
 40
4.0
 40
4.0
 40
4.0
 40
4.0
 10
81.86184215618385
 20
-150.0525118982508
 30
0.0
 10
81.86184215618385
 20
-150.3019368113829
 30
0.0
 10
82.1453735146199
 20
-150.3484456004337
 30
0.0
 10
82.49022757269341
 20
-150.3484456004337
 30
0.0
 10
82.80958792417609
 20
-150.3484456004337
 30
0.0
 10
83.11826847965446
 20
-150.3122720978386
 30
0.0
 10
83.11826847965446
 20
-150.0525118982508
 30
0.0
 10
83.11826847965446
 20
-149.8048095328613
 30
0.0
 10
82.83714868805808
 20
-149.7562336865193
 30
0.0
 10
82.49022757269341
 20
-149.7562336865193
 30
0.0
 10
82.17052271166223
 20
-149.7562336865193
 30
0.0
 10
81.86184215618385
 20
-149.794129736857
 30
0.0
 10
81.86184215618385
 20
-150.0525118982508
 30
0.0
  0
HATCH
  5
7F
330
77
100
AcDbEntity
  8
_U+30EC_U+30A4_U+30E4_U+30FC 1
 62
   179
420
  2234388
100
AcDbHatch
 10
0.0
 20
0.0
 30
0.0
210
0.0
220
0.0
230
1.0
  2
SOLID
 70
     1
 71
     0
 91
        2
 92
        1
 93
        1
 72
     4
 94
        3
 73
     0
 74
     1
 95
       29
 96
       25
 40
0.0
 40
0.0
 40
0.0
 40
0.0
 40
1.0
 40
1.0
 40
1.0
 40
2.0
 40
2.0
 40
2.0
 40
3.0
 40
3.0
 40
3.0
 40
4.0
 40
4.0
 40
4.0
 40
5.0
 40
5.0
 40
5.0
 40
6.0
 40
6.0
 40
6.0
 40
7.0
 40
7.0
 40
7.0
 40
8.0
 40
8.0
 40
8.0
 40
8.0
 10
83.08450654389901
 20
-149.6546033697044
 10
83.2939683494022
 20
-149.7624348583927
 10
83.31291637457107
 20
-149.9360676708493
 10
83.31291637457107
 20
-150.0525118982508
 10
83.31291637457107
 20
-150.2130533478634
 10
83.26640758552021
 20
-150.3549912818557
 10
83.08450654389901
 20
-150.4500759172486
 10
82.8898586489824
 20
-150.5534287818061
 10
82.65318058914573
 20
-150.5727213165235
 10
82.49022757269341
 20
-150.5727213165235
 10
82.34622258140998
 20
-150.5727213165235
 10
82.09438610143822
 20
-150.5558403486458
 10
81.89560409193929
 20
-150.4500759172486
 10
81.69268796785808
 20
-150.3418999190118
 10
81.66926131855838
 20
-150.1813584693991
 10
81.66926131855838
 20
-150.0525118982508
 10
81.66926131855838
 20
-149.8936929963808
 10
81.7137030503181
 20
-149.7500325146458
 10
81.89560409193929
 20
-149.6546033697044
 10
82.08818492956476
 20
-149.5550401101807
 10
82.31659476023682
 20
-149.5319579704295
 10
82.49022757269341
 20
-149.5319579704295
 10
82.66144881831033
 20
-149.5319579704295
 10
82.89192570627355
 20
-149.5529730528895
 10
83.08450654389901
 20
-149.6546033697044
 97
        0
 97
        0
 92
        1
 93
        1
 72
     4
 94
        3
 73
     0
 74
     1
 95
       17
 96
       13
 40
0.0
 40
0.0
 40
0.0
 40
0.0
 40
1.0
 40
1.0
 40
1.0
 40
2.0
 40
2.0
 40
2.0
 40
3.0
 40
3.0
 40
3.0
 40
4.0
 40
4.0
 40
4.0
 40
4.0
 10
81.86184215618385
 20
-150.0525118982508
 10
81.86184215618385
 20
-150.3019368113829
 10
82.1453735146199
 20
-150.3484456004337
 10
82.49022757269341
 20
-150.3484456004337
 10
82.80958792417609
 20
-150.3484456004337
 10
83.11826847965446
 20
-150.3122720978386
 10
83.11826847965446
 20
-150.0525118982508
 10
83.11826847965446
 20
-149.8048095328613
 10
82.83714868805808
 20
-149.7562336865193
 10
82.49022757269341
 20
-149.7562336865193
 10
82.17052271166223
 20
-149.7562336865193
 10
81.86184215618385
 20
-149.794129736857
 10
81.86184215618385
 20
-150.0525118982508
 97
        0
 97
        0
 75
     2
 76
     1
 98
        0
  0
POLYLINE
  5
80
330
77
100
AcDbEntity
  8
_U+30EC_U+30A4_U+30E4_U+30FC 1
370
     0
100
AcDb2dPolyline
 66
     1
 10
0.0
 20
0.0
 30
0.0
  0
VERTEX
  5
81
330
80
100
AcDbEntity
  8
_U+30EC_U+30A4_U+30E4_U+30FC 1
370
     0
100
AcDbVertex
100
AcDb2dVertex
 10
83.26227347093791
 20
-149.3152614644073
 30
0.0
  0
VERTEX
  5
82
330
80
100
AcDbEntity
  8
_U+30EC_U+30A4_U+30E4_U+30FC 1
370
     0
100
AcDbVertex
100
AcDb2dVertex
 10
83.01043699096614
 20
-149.3152614644073
 30
0.0
  0
VERTEX
  5
83
330
80
100
AcDbEntity
  8
_U+30EC_U+30A4_U+30E4_U+30FC 1
370
     0
100
AcDbVertex
100
AcDb2dVertex
 10
83.01043699096614
 20
-149.0637694939841
 30
0.0
  0
VERTEX
  5
84
330
80
100
AcDbEntity
  8
_U+30EC_U+30A4_U+30E4_U+30FC 1
370
     0
100
AcDbVertex
100
AcDb2dVertex
 10
83.26227347093791
 20
-149.0637694939841
 30
0.0
  0
VERTEX
  5
85
330
80
100
AcDbEntity
  8
_U+30EC_U+30A4_U+30E4_U+30FC 1
370
     0
100
AcDbVertex
100
AcDb2dVertex
 10
83.26227347093791
 20
-149.3152614644073
 30
0.0
  0
SEQEND
  5
86
330
80
100
AcDbEntity
  8
_U+30EC_U+30A4_U+30E4_U+30FC 1
370
     0
  0
HATCH
  5
87
330
77
100
AcDbEntity
  8
_U+30EC_U+30A4_U+30E4_U+30FC 1
 62
   179
420
  2234388
100
AcDbHatch
 10
0.0
 20
0.0
 30
0.0
210
0.0
220
0.0
230
1.0
  2
SOLID
 70
     1
 71
     0
 91
        1
 92
        1
 93
        4
 72
     1
 10
83.26227347093791
 20
-149.3152614644073
 11
83.01043699096614
 21
-149.3152614644073
 72
     1
 10
83.01043699096614
 20
-149.3152614644073
 11
83.01043699096614
 21
-149.0637694939841
 72
     1
 10
83.01043699096614
 20
-149.0637694939841
 11
83.26227347093791
 21
-149.0637694939841
 72
     1
 10
83.26227347093791
 20
-149.0637694939841
 11
83.26227347093791
 21
-149.3152614644073
 97
        0
 75
     2
 76
     1
 98
        0
  0
SPLINE
  5
88
330
77
100
AcDbEntity
  8
_U+30EC_U+30A4_U+30E4_U+30FC 1
370
     0
100
AcDbSpline
210
0.0
220
0.0
230
1.0
 70
    11
 71
     3
 72
    53
 73
    49
 74
     0
 42
0.0000000001
 43
0.0000000001
 12
1.0
 22
0.0
 32
0.0
 13
1.0
 23
0.0
 33
0.0
 40
0.0
 40
0.0
 40
0.0
 40
0.0
 40
1.0
 40
1.0
 40
1.0
 40
2.0
 40
2.0
 40
2.0
 40
3.0
 40
3.0
 40
3.0
 40
4.0
 40
4.0
 40
4.0
 40
5.0
 40
5.0
 40
5.0
 40
6.0
 40
6.0
 40
6.0
 40
7.0
 40
7.0
 40
7.0
 40
8.0
 40
8.0
 40
8.0
 40
9.0
 40
9.0
 40
9.0
 40
10.0
 40
10.0
 40
10.0
 40
11.0
 40
11.0
 40
11.0
 40
12.0
 40
12.0
 40
12.0
 40
13.0
 40
13.0
 40
13.0
 40
14.0
 40
14.0
 40
14.0
 40
15.0
 40
15.0
 40
15.0
 40
16.0
 40
16.0
 40
16.0
 40
16.0
 10
83.31291637457107
 20
-148.3461561044065
 30
0.0
 10
83.31291637457107
 20
-148.424532026696
 30
0.0
 10
83.29603540669335
 20
-148.5259900887366
 30
0.0
 10
83.23264564976476
 20
-148.6276204055514
 30
0.0
 10
83.12274710378529
 20
-148.8010809632338
 30
0.0
 10
82.99148896579727
 20
-148.822268300468
 30
0.0
 10
82.88365747710895
 20
-148.8412163256369
 30
0.0
 10
82.88365747710895
 20
-148.8412163256369
 30
0.0
 10
82.88365747710895
 20
-148.6191799216126
 30
0.0
 10
82.88365747710895
 20
-148.6191799216126
 30
0.0
 10
83.08243948660787
 20
-148.5640583938486
 30
0.0
 10
83.11206730778102
 20
-148.4371066252171
 30
0.0
 10
83.11206730778102
 20
-148.3440890471154
 30
0.0
 10
83.11206730778102
 20
-148.2045626799627
 30
0.0
 10
83.0125040482573
 20
-148.0521172047405
 30
0.0
 10
82.77996010300294
 20
-148.0521172047405
 30
0.0
 10
82.52398950844886
 20
-148.0521172047405
 30
0.0
 10
82.4540540700983
 20
-148.2319511890705
 30
0.0
 10
82.4540540700983
 20
-148.3525295310542
 30
0.0
 10
82.4540540700983
 20
-148.3842244095185
 30
0.0
 10
82.4540540700983
 20
-148.5259900887366
 30
0.0
 10
82.58324515079516
 20
-148.614873552256
 30
0.0
 10
82.58324515079516
 20
-148.614873552256
 30
0.0
 10
82.5642971256263
 20
-148.7904011672295
 30
0.0
 10
82.5642971256263
 20
-148.7904011672295
 30
0.0
 10
82.5642971256263
 20
-148.7904011672295
 30
0.0
 10
81.7178371649004
 20
-148.6698228252457
 30
0.0
 10
81.7178371649004
 20
-148.6698228252457
 30
0.0
 10
81.7178371649004
 20
-148.6698228252457
 30
0.0
 10
81.7178371649004
 20
-147.8914035003535
 30
0.0
 10
81.7178371649004
 20
-147.8914035003535
 30
0.0
 10
81.7178371649004
 20
-147.8914035003535
 30
0.0
 10
81.91248505981702
 20
-147.8914035003535
 30
0.0
 10
81.91248505981702
 20
-147.8914035003535
 30
0.0
 10
81.91248505981702
 20
-147.8914035003535
 30
0.0
 10
81.91248505981702
 20
-148.5070420635677
 30
0.0
 10
81.91248505981702
 20
-148.5070420635677
 30
0.0
 10
81.91248505981702
 20
-148.5070420635677
 30
0.0
 10
82.3355427854057
 20
-148.5724988777874
 30
0.0
 10
82.3355427854057
 20
-148.5724988777874
 30
0.0
 10
82.30178084965026
 20
-148.51117617815
 30
0.0
 10
82.26147323247282
 20
-148.4286661412783
 30
0.0
 10
82.26147323247282
 20
-148.3103271113599
 30
0.0
 10
82.26147323247282
 20
-148.056423574097
 30
0.0
 10
82.44785289822485
 20
-147.8194010047118
 30
0.0
 10
82.76101207783405
 20
-147.8194010047118
 30
0.0
 10
83.07830537202557
 20
-147.8194010047118
 30
0.0
 10
83.31291637457107
 20
-148.0436767208016
 30
0.0
 10
83.31291637457107
 20
-148.3461561044065
 30
0.0
  0
HATCH
  5
89
330
77
100
AcDbEntity
  8
_U+30EC_U+30A4_U+30E4_U+30FC 1
 62
   179
420
  2234388
100
AcDbHatch
 10
0.0
 20
0.0
 30
0.0
210
0.0
220
0.0
230
1.0
  2
SOLID
 70
     1
 71
     0
 91
        1
 92
        1
 93
        1
 72
     4
 94
        3
 73
     0
 74
     1
 95
       53
 96
       49
 40
0.0
 40
0.0
 40
0.0
 40
0.0
 40
1.0
 40
1.0
 40
1.0
 40
2.0
 40
2.0
 40
2.0
 40
3.0
 40
3.0
 40
3.0
 40
4.0
 40
4.0
 40
4.0
 40
5.0
 40
5.0
 40
5.0
 40
6.0
 40
6.0
 40
6.0
 40
7.0
 40
7.0
 40
7.0
 40
8.0
 40
8.0
 40
8.0
 40
9.0
 40
9.0
 40
9.0
 40
10.0
 40
10.0
 40
10.0
 40
11.0
 40
11.0
 40
11.0
 40
12.0
 40
12.0
 40
12.0
 40
13.0
 40
13.0
 40
13.0
 40
14.0
 40
14.0
 40
14.0
 40
15.0
 40
15.0
 40
15.0
 40
16.0
 40
16.0
 40
16.0
 40
16.0
 10
83.31291637457107
 20
-148.3461561044065
 10
83.31291637457107
 20
-148.424532026696
 10
83.29603540669335
 20
-148.5259900887366
 10
83.23264564976476
 20
-148.6276204055514
 10
83.12274710378529
 20
-148.8010809632338
 10
82.99148896579727
 20
-148.822268300468
 10
82.88365747710895
 20
-148.8412163256369
 10
82.88365747710895
 20
-148.8412163256369
 10
82.88365747710895
 20
-148.6191799216126
 10
82.88365747710895
 20
-148.6191799216126
 10
83.08243948660787
 20
-148.5640583938486
 10
83.11206730778102
 20
-148.4371066252171
 10
83.11206730778102
 20
-148.3440890471154
 10
83.11206730778102
 20
-148.2045626799627
 10
83.0125040482573
 20
-148.0521172047405
 10
82.77996010300294
 20
-148.0521172047405
 10
82.52398950844886
 20
-148.0521172047405
 10
82.4540540700983
 20
-148.2319511890705
 10
82.4540540700983
 20
-148.3525295310542
 10
82.4540540700983
 20
-148.3842244095185
 10
82.4540540700983
 20
-148.5259900887366
 10
82.58324515079516
 20
-148.614873552256
 10
82.58324515079516
 20
-148.614873552256
 10
82.5642971256263
 20
-148.7904011672295
 10
82.5642971256263
 20
-148.7904011672295
 10
82.5642971256263
 20
-148.7904011672295
 10
81.7178371649004
 20
-148.6698228252457
 10
81.7178371649004
 20
-148.6698228252457
 10
81.7178371649004
 20
-148.6698228252457
 10
81.7178371649004
 20
-147.8914035003535
 10
81.7178371649004
 20
-147.8914035003535
 10
81.7178371649004
 20
-147.8914035003535
 10
81.91248505981702
 20
-147.8914035003535
 10
81.91248505981702
 20
-147.8914035003535
 10
81.91248505981702
 20
-147.8914035003535
 10
81.91248505981702
 20
-148.5070420635677
 10
81.91248505981702
 20
-148.5070420635677
 10
81.91248505981702
 20
-148.5070420635677
 10
82.3355427854057
 20
-148.5724988777874
 10
82.3355427854057
 20
-148.5724988777874
 10
82.30178084965026
 20
-148.51117617815
 10
82.26147323247282
 20
-148.4286661412783
 10
82.26147323247282
 20
-148.3103271113599
 10
82.26147323247282
 20
-148.056423574097
 10
82.44785289822485
 20
-147.8194010047118
 10
82.76101207783405
 20
-147.8194010047118
 10
83.07830537202557
 20
-147.8194010047118
 10
83.31291637457107
 20
-148.0436767208016
 10
83.31291637457107
 20
-148.3461561044065
 97
        0
 97
        0
 75
     2
 76
     1
 98
        0
  0
ENDBLK
  5
7A
330
77
100
AcDbEntity
  8
0
100
AcDbBlockEnd
  0
BLOCK
  5
94
330
92
100
AcDbEntity
  8
0
100
AcDbBlockBegin
  2
block 4
 70
     0
 10
0.0
 20
0.0
 30
0.0
  3
block 4
  1

  0
SPLINE
  5
96
330
92
100
AcDbEntity
  8
_U+30EC_U+30A4_U+30E4_U+30FC 1
370
     0
100
AcDbSpline
210
0.0
220
0.0
230
1.0
 70
    11
 71
     3
 72
    44
 73
    40
 74
     0
 42
0.0000000001
 43
0.0000000001
 12
1.0
 22
0.0
 32
0.0
 13
1.0
 23
0.0
 33
0.0
 40
0.0
 40
0.0
 40
0.0
 40
0.0
 40
1.0
 40
1.0
 40
1.0
 40
2.0
 40
2.0
 40
2.0
 40
3.0
 40
3.0
 40
3.0
 40
4.0
 40
4.0
 40
4.0
 40
5.0
 40
5.0
 40
5.0
 40
6.0
 40
6.0
 40
6.0
 40
7.0
 40
7.0
 40
7.0
 40
8.0
 40
8.0
 40
8.0
 40
9.0
 40
9.0
 40
9.0
 40
10.0
 40
10.0
 40
10.0
 40
11.0
 40
11.0
 40
11.0
 40
12.0
 40
12.0
 40
12.0
 40
13.0
 40
13.0
 40
13.0
 40
13.0
 10
84.6280815760652
 20
-137.5573228280239
 30
0.0
 10
84.6046549267655
 20
-137.5128810962642
 30
0.0
 10
84.58363984430548
 20
-137.4601711353398
 30
0.0
 10
84.58140053224007
 20
-137.2293497378281
 30
0.0
 10
84.57726641765777
 20
-136.9861259965695
 30
0.0
 10
84.51801077531147
 20
-136.9161905582189
 30
0.0
 10
84.34024384827258
 20
-136.9161905582189
 30
0.0
 10
84.34024384827258
 20
-136.9161905582189
 30
0.0
 10
83.93200003327047
 20
-136.9161905582189
 30
0.0
 10
83.93200003327047
 20
-136.9161905582189
 30
0.0
 10
83.93200003327047
 20
-136.9161905582189
 30
0.0
 10
83.93200003327047
 20
-137.5573228280239
 30
0.0
 10
83.93200003327047
 20
-137.5573228280239
 30
0.0
 10
83.93200003327047
 20
-137.5573228280239
 30
0.0
 10
83.6972167759507
 20
-137.5573228280239
 30
0.0
 10
83.6972167759507
 20
-137.5573228280239
 30
0.0
 10
83.6972167759507
 20
-137.5573228280239
 30
0.0
 10
83.6972167759507
 20
-136.0128865219864
 30
0.0
 10
83.6972167759507
 20
-136.0128865219864
 30
0.0
 10
83.6972167759507
 20
-136.0128865219864
 30
0.0
 10
84.37211098151114
 20
-136.0128865219864
 30
0.0
 10
84.37211098151114
 20
-136.0128865219864
 30
0.0
 10
84.67872447969837
 20
-136.0128865219864
 30
0.0
 10
84.845811610733
 20
-136.1844522771518
 30
0.0
 10
84.845811610733
 20
-136.4404228717059
 30
0.0
 10
84.845811610733
 20
-136.4910657753391
 30
0.0
 10
84.83737112679414
 20
-136.573748066985
 30
0.0
 10
84.7929293950344
 20
-136.6540187917914
 30
0.0
 10
84.73384600746238
 20
-136.7577161658974
 30
0.0
 10
84.66821693846836
 20
-136.7766641910663
 30
0.0
 10
84.60689423883092
 20
-136.793545158944
 30
0.0
 10
84.74435354869239
 20
-136.8359198334126
 30
0.0
 10
84.81204967497754
 20
-136.8844956797546
 30
0.0
 10
84.81635604433411
 20
-137.1997219166549
 30
0.0
 10
84.82049015891641
 20
-137.4705064217956
 30
0.0
 10
84.85649140673728
 20
-137.5022013002599
 30
0.0
 10
84.92418753302243
 20
-137.5573228280239
 30
0.0
 10
84.92418753302243
 20
-137.5573228280239
 30
0.0
 10
84.6280815760652
 20
-137.5573228280239
 30
0.0
 10
84.6280815760652
 20
-137.5573228280239
 30
0.0
  0
SPLINE
  5
97
330
92
100
AcDbEntity
  8
_U+30EC_U+30A4_U+30E4_U+30FC 1
370
     0
100
AcDbSpline
210
0.0
220
0.0
230
1.0
 70
    11
 71
     3
 72
    20
 73
    16
 74
     0
 42
0.0000000001
 43
0.0000000001
 12
1.0
 22
0.0
 32
0.0
 13
1.0
 23
0.0
 33
0.0
 40
0.0
 40
0.0
 40
0.0
 40
0.0
 40
1.0
 40
1.0
 40
1.0
 40
2.0
 40
2.0
 40
2.0
 40
3.0
 40
3.0
 40
3.0
 40
4.0
 40
4.0
 40
4.0
 40
5.0
 40
5.0
 40
5.0
 40
5.0
 10
84.37624509609344
 20
-136.2244153847807
 30
0.0
 10
84.37624509609344
 20
-136.2244153847807
 30
0.0
 10
83.93200003327047
 20
-136.2244153847807
 30
0.0
 10
83.93200003327047
 20
-136.2244153847807
 30
0.0
 10
83.93200003327047
 20
-136.2244153847807
 30
0.0
 10
83.93200003327047
 20
-136.7046616954245
 30
0.0
 10
83.93200003327047
 20
-136.7046616954245
 30
0.0
 10
83.93200003327047
 20
-136.7046616954245
 30
0.0
 10
84.3741780388023
 20
-136.7046616954245
 30
0.0
 10
84.3741780388023
 20
-136.7046616954245
 30
0.0
 10
84.47356904355175
 20
-136.7046616954245
 30
0.0
 10
84.60896129612208
 20
-136.6285250852005
 30
0.0
 10
84.60896129612208
 20
-136.4573038395836
 30
0.0
 10
84.60896129612208
 20
-136.3791001720684
 30
0.0
 10
84.57502710559235
 20
-136.2244153847807
 30
0.0
 10
84.37624509609344
 20
-136.2244153847807
 30
0.0
  0
HATCH
  5
98
330
92
100
AcDbEntity
  8
_U+30EC_U+30A4_U+30E4_U+30FC 1
 62
   179
420
  2234388
100
AcDbHatch
 10
0.0
 20
0.0
 30
0.0
210
0.0
220
0.0
230
1.0
  2
SOLID
 70
     1
 71
     0
 91
        2
 92
        1
 93
        1
 72
     4
 94
        3
 73
     0
 74
     1
 95
       44
 96
       40
 40
0.0
 40
0.0
 40
0.0
 40
0.0
 40
1.0
 40
1.0
 40
1.0
 40
2.0
 40
2.0
 40
2.0
 40
3.0
 40
3.0
 40
3.0
 40
4.0
 40
4.0
 40
4.0
 40
5.0
 40
5.0
 40
5.0
 40
6.0
 40
6.0
 40
6.0
 40
7.0
 40
7.0
 40
7.0
 40
8.0
 40
8.0
 40
8.0
 40
9.0
 40
9.0
 40
9.0
 40
10.0
 40
10.0
 40
10.0
 40
11.0
 40
11.0
 40
11.0
 40
12.0
 40
12.0
 40
12.0
 40
13.0
 40
13.0
 40
13.0
 40
13.0
 10
84.6280815760652
 20
-137.5573228280239
 10
84.6046549267655
 20
-137.5128810962642
 10
84.58363984430548
 20
-137.4601711353398
 10
84.58140053224007
 20
-137.2293497378281
 10
84.57726641765777
 20
-136.9861259965695
 10
84.51801077531147
 20
-136.9161905582189
 10
84.34024384827258
 20
-136.9161905582189
 10
84.34024384827258
 20
-136.9161905582189
 10
83.93200003327047
 20
-136.9161905582189
 10
83.93200003327047
 20
-136.9161905582189
 10
83.93200003327047
 20
-136.9161905582189
 10
83.93200003327047
 20
-137.5573228280239
 10
83.93200003327047
 20
-137.5573228280239
 10
83.93200003327047
 20
-137.5573228280239
 10
83.6972167759507
 20
-137.5573228280239
 10
83.6972167759507
 20
-137.5573228280239
 10
83.6972167759507
 20
-137.5573228280239
 10
83.6972167759507
 20
-136.0128865219864
 10
83.6972167759507
 20
-136.0128865219864
 10
83.6972167759507
 20
-136.0128865219864
 10
84.37211098151114
 20
-136.0128865219864
 10
84.37211098151114
 20
-136.0128865219864
 10
84.67872447969837
 20
-136.0128865219864
 10
84.845811610733
 20
-136.1844522771518
 10
84.845811610733
 20
-136.4404228717059
 10
84.845811610733
 20
-136.4910657753391
 10
84.83737112679414
 20
-136.573748066985
 10
84.7929293950344
 20
-136.6540187917914
 10
84.73384600746238
 20
-136.7577161658974
 10
84.66821693846836
 20
-136.7766641910663
 10
84.60689423883092
 20
-136.793545158944
 10
84.74435354869239
 20
-136.8359198334126
 10
84.81204967497754
 20
-136.8844956797546
 10
84.81635604433411
 20
-137.1997219166549
 10
84.82049015891641
 20
-137.4705064217956
 10
84.85649140673728
 20
-137.5022013002599
 10
84.92418753302243
 20
-137.5573228280239
 10
84.92418753302243
 20
-137.5573228280239
 10
84.6280815760652
 20
-137.5573228280239
 10
84.6280815760652
 20
-137.5573228280239
 97
        0
 97
        0
 92
        1
 93
        1
 72
     4
 94
        3
 73
     0
 74
     1
 95
       20
 96
       16
 40
0.0
 40
0.0
 40
0.0
 40
0.0
 40
1.0
 40
1.0
 40
1.0
 40
2.0
 40
2.0
 40
2.0
 40
3.0
 40
3.0
 40
3.0
 40
4.0
 40
4.0
 40
4.0
 40
5.0
 40
5.0
 40
5.0
 40
5.0
 10
84.37624509609344
 20
-136.2244153847807
 10
84.37624509609344
 20
-136.2244153847807
 10
83.93200003327047
 20
-136.2244153847807
 10
83.93200003327047
 20
-136.2244153847807
 10
83.93200003327047
 20
-136.2244153847807
 10
83.93200003327047
 20
-136.7046616954245
 10
83.93200003327047
 20
-136.7046616954245
 10
83.93200003327047
 20
-136.7046616954245
 10
84.3741780388023
 20
-136.7046616954245
 10
84.3741780388023
 20
-136.7046616954245
 10
84.47356904355175
 20
-136.7046616954245
 10
84.60896129612208
 20
-136.6285250852005
 10
84.60896129612208
 20
-136.4573038395836
 10
84.60896129612208
 20
-136.3791001720684
 10
84.57502710559235
 20
-136.2244153847807
 10
84.37624509609344
 20
-136.2244153847807
 97
        0
 97
        0
 75
     2
 76
     1
 98
        0
  0
SPLINE
  5
99
330
92
100
AcDbEntity
  8
_U+30EC_U+30A4_U+30E4_U+30FC 1
370
     0
100
AcDbSpline
210
0.0
220
0.0
230
1.0
 70
    11
 71
     3
 72
    26
 73
    22
 74
     0
 42
0.0000000001
 43
0.0000000001
 12
1.0
 22
0.0
 32
0.0
 13
1.0
 23
0.0
 33
0.0
 40
0.0
 40
0.0
 40
0.0
 40
0.0
 40
1.0
 40
1.0
 40
1.0
 40
2.0
 40
2.0
 40
2.0
 40
3.0
 40
3.0
 40
3.0
 40
4.0
 40
4.0
 40
4.0
 40
5.0
 40
5.0
 40
5.0
 40
6.0
 40
6.0
 40
6.0
 40
7.0
 40
7.0
 40
7.0
 40
7.0
 10
85.51519366351704
 20
-137.5573228280239
 30
0.0
 10
85.51519366351704
 20
-137.5573228280239
 30
0.0
 10
85.51519366351704
 20
-136.4531697250013
 30
0.0
 10
85.51519366351704
 20
-136.4531697250013
 30
0.0
 10
85.51519366351704
 20
-136.4531697250013
 30
0.0
 10
85.1851535160301
 20
-136.4531697250013
 30
0.0
 10
85.1851535160301
 20
-136.4531697250013
 30
0.0
 10
85.1851535160301
 20
-136.4531697250013
 30
0.0
 10
85.1851535160301
 20
-136.3050306191356
 30
0.0
 10
85.1851535160301
 20
-136.3050306191356
 30
0.0
 10
85.5172607208082
 20
-136.290216708549
 30
0.0
 10
85.56376950985906
 20
-136.1272636920967
 30
0.0
 10
85.59339733103221
 20
-136.0128865219864
 30
0.0
 10
85.59339733103221
 20
-136.0128865219864
 30
0.0
 10
85.7394693796068
 20
-136.0128865219864
 30
0.0
 10
85.7394693796068
 20
-136.0128865219864
 30
0.0
 10
85.7394693796068
 20
-136.0128865219864
 30
0.0
 10
85.7394693796068
 20
-137.5573228280239
 30
0.0
 10
85.7394693796068
 20
-137.5573228280239
 30
0.0
 10
85.7394693796068
 20
-137.5573228280239
 30
0.0
 10
85.51519366351704
 20
-137.5573228280239
 30
0.0
 10
85.51519366351704
 20
-137.5573228280239
 30
0.0
  0
HATCH
  5
9A
330
92
100
AcDbEntity
  8
_U+30EC_U+30A4_U+30E4_U+30FC 1
 62
   179
420
  2234388
100
AcDbHatch
 10
0.0
 20
0.0
 30
0.0
210
0.0
220
0.0
230
1.0
  2
SOLID
 70
     1
 71
     0
 91
        1
 92
        1
 93
        1
 72
     4
 94
        3
 73
     0
 74
     1
 95
       26
 96
       22
 40
0.0
 40
0.0
 40
0.0
 40
0.0
 40
1.0
 40
1.0
 40
1.0
 40
2.0
 40
2.0
 40
2.0
 40
3.0
 40
3.0
 40
3.0
 40
4.0
 40
4.0
 40
4.0
 40
5.0
 40
5.0
 40
5.0
 40
6.0
 40
6.0
 40
6.0
 40
7.0
 40
7.0
 40
7.0
 40
7.0
 10
85.51519366351704
 20
-137.5573228280239
 10
85.51519366351704
 20
-137.5573228280239
 10
85.51519366351704
 20
-136.4531697250013
 10
85.51519366351704
 20
-136.4531697250013
 10
85.51519366351704
 20
-136.4531697250013
 10
85.1851535160301
 20
-136.4531697250013
 10
85.1851535160301
 20
-136.4531697250013
 10
85.1851535160301
 20
-136.4531697250013
 10
85.1851535160301
 20
-136.3050306191356
 10
85.1851535160301
 20
-136.3050306191356
 10
85.5172607208082
 20
-136.290216708549
 10
85.56376950985906
 20
-136.1272636920967
 10
85.59339733103221
 20
-136.0128865219864
 10
85.59339733103221
 20
-136.0128865219864
 10
85.7394693796068
 20
-136.0128865219864
 10
85.7394693796068
 20
-136.0128865219864
 10
85.7394693796068
 20
-136.0128865219864
 10
85.7394693796068
 20
-137.5573228280239
 10
85.7394693796068
 20
-137.5573228280239
 10
85.7394693796068
 20
-137.5573228280239
 10
85.51519366351704
 20
-137.5573228280239
 10
85.51519366351704
 20
-137.5573228280239
 97
        0
 97
        0
 75
     2
 76
     1
 98
        0
  0
SPLINE
  5
9B
330
92
100
AcDbEntity
  8
_U+30EC_U+30A4_U+30E4_U+30FC 1
370
     0
100
AcDbSpline
210
0.0
220
0.0
230
1.0
 70
    11
 71
     3
 72
    53
 73
    49
 74
     0
 42
0.0000000001
 43
0.0000000001
 12
1.0
 22
0.0
 32
0.0
 13
1.0
 23
0.0
 33
0.0
 40
0.0
 40
0.0
 40
0.0
 40
0.0
 40
1.0
 40
1.0
 40
1.0
 40
2.0
 40
2.0
 40
2.0
 40
3.0
 40
3.0
 40
3.0
 40
4.0
 40
4.0
 40
4.0
 40
5.0
 40
5.0
 40
5.0
 40
6.0
 40
6.0
 40
6.0
 40
7.0
 40
7.0
 40
7.0
 40
8.0
 40
8.0
 40
8.0
 40
9.0
 40
9.0
 40
9.0
 40
10.0
 40
10.0
 40
10.0
 40
11.0
 40
11.0
 40
11.0
 40
12.0
 40
12.0
 40
12.0
 40
13.0
 40
13.0
 40
13.0
 40
14.0
 40
14.0
 40
14.0
 40
15.0
 40
15.0
 40
15.0
 40
16.0
 40
16.0
 40
16.0
 40
16.0
 10
86.72166610245154
 20
-137.607965731657
 30
0.0
 10
86.6432901801621
 20
-137.607965731657
 30
0.0
 10
86.54183211812149
 20
-137.5910847637793
 30
0.0
 10
86.44020180130661
 20
-137.5276950068507
 30
0.0
 10
86.2667412436243
 20
-137.4177964608712
 30
0.0
 10
86.24555390639
 20
-137.2865383228832
 30
0.0
 10
86.22660588122113
 20
-137.1787068341949
 30
0.0
 10
86.22660588122113
 20
-137.1787068341949
 30
0.0
 10
86.44864228524548
 20
-137.1787068341949
 30
0.0
 10
86.44864228524548
 20
-137.1787068341949
 30
0.0
 10
86.50376381300948
 20
-137.3774888436938
 30
0.0
 10
86.63071558164094
 20
-137.407116664867
 30
0.0
 10
86.72373315974268
 20
-137.407116664867
 30
0.0
 10
86.8632595268953
 20
-137.407116664867
 30
0.0
 10
87.0157050021176
 20
-137.3075534053433
 30
0.0
 10
87.0157050021176
 20
-137.0750094600889
 30
0.0
 10
87.0157050021176
 20
-136.8190388655348
 30
0.0
 10
86.83587101778757
 20
-136.7491034271843
 30
0.0
 10
86.71529267580382
 20
-136.7491034271843
 30
0.0
 10
86.68359779733952
 20
-136.7491034271843
 30
0.0
 10
86.54183211812149
 20
-136.7491034271843
 30
0.0
 10
86.45294865460204
 20
-136.8782945078811
 30
0.0
 10
86.45294865460204
 20
-136.8782945078811
 30
0.0
 10
86.27742103962856
 20
-136.8593464827123
 30
0.0
 10
86.27742103962856
 20
-136.8593464827123
 30
0.0
 10
86.27742103962856
 20
-136.8593464827123
 30
0.0
 10
86.39799938161231
 20
-136.0128865219864
 30
0.0
 10
86.39799938161231
 20
-136.0128865219864
 30
0.0
 10
86.39799938161231
 20
-136.0128865219864
 30
0.0
 10
87.1764187065045
 20
-136.0128865219864
 30
0.0
 10
87.1764187065045
 20
-136.0128865219864
 30
0.0
 10
87.1764187065045
 20
-136.0128865219864
 30
0.0
 10
87.1764187065045
 20
-136.207534416903
 30
0.0
 10
87.1764187065045
 20
-136.207534416903
 30
0.0
 10
87.1764187065045
 20
-136.207534416903
 30
0.0
 10
86.56078014329036
 20
-136.207534416903
 30
0.0
 10
86.56078014329036
 20
-136.207534416903
 30
0.0
 10
86.56078014329036
 20
-136.207534416903
 30
0.0
 10
86.49532332907062
 20
-136.6305921424917
 30
0.0
 10
86.49532332907062
 20
-136.6305921424917
 30
0.0
 10
86.55664602870806
 20
-136.5968302067362
 30
0.0
 10
86.6391560655798
 20
-136.5565225895588
 30
0.0
 10
86.75749509549813
 20
-136.5565225895588
 30
0.0
 10
87.01139863276104
 20
-136.5565225895588
 30
0.0
 10
87.24842120214623
 20
-136.7429022553108
 30
0.0
 10
87.24842120214623
 20
-137.05606143492
 30
0.0
 10
87.24842120214623
 20
-137.3733547291115
 30
0.0
 10
87.02414548605647
 20
-137.607965731657
 30
0.0
 10
86.72166610245154
 20
-137.607965731657
 30
0.0
  0
HATCH
  5
9C
330
92
100
AcDbEntity
  8
_U+30EC_U+30A4_U+30E4_U+30FC 1
 62
   179
420
  2234388
100
AcDbHatch
 10
0.0
 20
0.0
 30
0.0
210
0.0
220
0.0
230
1.0
  2
SOLID
 70
     1
 71
     0
 91
        1
 92
        1
 93
        1
 72
     4
 94
        3
 73
     0
 74
     1
 95
       53
 96
       49
 40
0.0
 40
0.0
 40
0.0
 40
0.0
 40
1.0
 40
1.0
 40
1.0
 40
2.0
 40
2.0
 40
2.0
 40
3.0
 40
3.0
 40
3.0
 40
4.0
 40
4.0
 40
4.0
 40
5.0
 40
5.0
 40
5.0
 40
6.0
 40
6.0
 40
6.0
 40
7.0
 40
7.0
 40
7.0
 40
8.0
 40
8.0
 40
8.0
 40
9.0
 40
9.0
 40
9.0
 40
10.0
 40
10.0
 40
10.0
 40
11.0
 40
11.0
 40
11.0
 40
12.0
 40
12.0
 40
12.0
 40
13.0
 40
13.0
 40
13.0
 40
14.0
 40
14.0
 40
14.0
 40
15.0
 40
15.0
 40
15.0
 40
16.0
 40
16.0
 40
16.0
 40
16.0
 10
86.72166610245154
 20
-137.607965731657
 10
86.6432901801621
 20
-137.607965731657
 10
86.54183211812149
 20
-137.5910847637793
 10
86.44020180130661
 20
-137.5276950068507
 10
86.2667412436243
 20
-137.4177964608712
 10
86.24555390639
 20
-137.2865383228832
 10
86.22660588122113
 20
-137.1787068341949
 10
86.22660588122113
 20
-137.1787068341949
 10
86.44864228524548
 20
-137.1787068341949
 10
86.44864228524548
 20
-137.1787068341949
 10
86.50376381300948
 20
-137.3774888436938
 10
86.63071558164094
 20
-137.407116664867
 10
86.72373315974268
 20
-137.407116664867
 10
86.8632595268953
 20
-137.407116664867
 10
87.0157050021176
 20
-137.3075534053433
 10
87.0157050021176
 20
-137.0750094600889
 10
87.0157050021176
 20
-136.8190388655348
 10
86.83587101778757
 20
-136.7491034271843
 10
86.71529267580382
 20
-136.7491034271843
 10
86.68359779733952
 20
-136.7491034271843
 10
86.54183211812149
 20
-136.7491034271843
 10
86.45294865460204
 20
-136.8782945078811
 10
86.45294865460204
 20
-136.8782945078811
 10
86.27742103962856
 20
-136.8593464827123
 10
86.27742103962856
 20
-136.8593464827123
 10
86.27742103962856
 20
-136.8593464827123
 10
86.39799938161231
 20
-136.0128865219864
 10
86.39799938161231
 20
-136.0128865219864
 10
86.39799938161231
 20
-136.0128865219864
 10
87.1764187065045
 20
-136.0128865219864
 10
87.1764187065045
 20
-136.0128865219864
 10
87.1764187065045
 20
-136.0128865219864
 10
87.1764187065045
 20
-136.207534416903
 10
87.1764187065045
 20
-136.207534416903
 10
87.1764187065045
 20
-136.207534416903
 10
86.56078014329036
 20
-136.207534416903
 10
86.56078014329036
 20
-136.207534416903
 10
86.56078014329036
 20
-136.207534416903
 10
86.49532332907062
 20
-136.6305921424917
 10
86.49532332907062
 20
-136.6305921424917
 10
86.55664602870806
 20
-136.5968302067362
 10
86.6391560655798
 20
-136.5565225895588
 10
86.75749509549813
 20
-136.5565225895588
 10
87.01139863276104
 20
-136.5565225895588
 10
87.24842120214623
 20
-136.7429022553108
 10
87.24842120214623
 20
-137.05606143492
 10
87.24842120214623
 20
-137.3733547291115
 10
87.02414548605647
 20
-137.607965731657
 10
86.72166610245154
 20
-137.607965731657
 97
        0
 97
        0
 75
     2
 76
     1
 98
        0
  0
ENDBLK
  5
95
330
92
100
AcDbEntity
  8
0
100
AcDbBlockEnd
  0
BLOCK
  5
AB
330
A9
100
AcDbEntity
  8
0
100
AcDbBlockBegin
  2
block 5
 70
     0
 10
0.0
 20
0.0
 30
0.0
  3
block 5
  1

  0
SPLINE
  5
AD
330
A9
100
AcDbEntity
  8
_U+30EC_U+30A4_U+30E4_U+30FC 1
370
     0
100
AcDbSpline
210
0.0
220
0.0
230
1.0
 70
    11
 71
     3
 72
    44
 73
    40
 74
     0
 42
0.0000000001
 43
0.0000000001
 12
1.0
 22
0.0
 32
0.0
 13
1.0
 23
0.0
 33
0.0
 40
0.0
 40
0.0
 40
0.0
 40
0.0
 40
1.0
 40
1.0
 40
1.0
 40
2.0
 40
2.0
 40
2.0
 40
3.0
 40
3.0
 40
3.0
 40
4.0
 40
4.0
 40
4.0
 40
5.0
 40
5.0
 40
5.0
 40
6.0
 40
6.0
 40
6.0
 40
7.0
 40
7.0
 40
7.0
 40
8.0
 40
8.0
 40
8.0
 40
9.0
 40
9.0
 40
9.0
 40
10.0
 40
10.0
 40
10.0
 40
11.0
 40
11.0
 40
11.0
 40
12.0
 40
12.0
 40
12.0
 40
13.0
 40
13.0
 40
13.0
 40
13.0
 10
111.8443359095389
 20
-162.1634005670981
 30
0.0
 10
111.6262613653226
 20
-162.3222194689681
 30
0.0
 10
111.5328992776723
 20
-162.3962890219009
 30
0.0
 10
111.4846679408788
 20
-162.5399495036359
 30
0.0
 10
111.4846679408788
 20
-162.5399495036359
 30
0.0
 10
112.2629150109968
 20
-162.5399495036359
 30
0.0
 10
112.2629150109968
 20
-162.5399495036359
 30
0.0
 10
112.2629150109968
 20
-162.5399495036359
 30
0.0
 10
112.2629150109968
 20
-162.7452771945567
 30
0.0
 10
112.2629150109968
 20
-162.7452771945567
 30
0.0
 10
112.2629150109968
 20
-162.7452771945567
 30
0.0
 10
111.2348985181982
 20
-162.7452771945567
 30
0.0
 10
111.2348985181982
 20
-162.7452771945567
 30
0.0
 10
111.2665933966625
 20
-162.3876762831878
 30
0.0
 10
111.3320502108823
 20
-162.3094726156726
 30
0.0
 10
111.7172118861332
 20
-162.01112734665
 30
0.0
 10
111.9731824806873
 20
-161.8123453371511
 30
0.0
 10
112.038639294907
 20
-161.7444769560917
 30
0.0
 10
112.038639294907
 20
-161.6070176462302
 30
0.0
 10
112.038639294907
 20
-161.4885063615376
 30
0.0
 10
111.9669813088138
 20
-161.3575927330981
 30
0.0
 10
111.7699218470575
 20
-161.3575927330981
 30
0.0
 10
111.5098171379212
 20
-161.3575927330981
 30
0.0
 10
111.501204399208
 20
-161.5880696210613
 30
0.0
 10
111.4970702846257
 20
-161.7045138484628
 30
0.0
 10
111.4970702846257
 20
-161.7045138484628
 30
0.0
 10
111.2731390780845
 20
-161.7045138484628
 30
0.0
 10
111.2731390780845
 20
-161.7045138484628
 30
0.0
 10
111.2814073072491
 20
-161.5773898250571
 30
0.0
 10
111.2917425937049
 20
-161.4654242217864
 30
0.0
 10
111.3723578280597
 20
-161.3469129370938
 30
0.0
 10
111.4822563740392
 20
-161.1860269779327
 30
0.0
 10
111.6686360397912
 20
-161.1522650421772
 30
0.0
 10
111.7850802671926
 20
-161.1522650421772
 30
0.0
 10
112.0620659442067
 20
-161.1522650421772
 30
0.0
 10
112.2694606924187
 20
-161.3362331410896
 30
0.0
 10
112.2694606924187
 20
-161.6090847035213
 30
0.0
 10
112.2694606924187
 20
-161.8378390437419
 30
0.0
 10
112.1530164650173
 20
-161.9370577937171
 30
0.0
 10
111.8443359095389
 20
-162.1634005670981
 30
0.0
  0
HATCH
  5
AE
330
A9
100
AcDbEntity
  8
_U+30EC_U+30A4_U+30E4_U+30FC 1
 62
   179
420
  2234388
100
AcDbHatch
 10
0.0
 20
0.0
 30
0.0
210
0.0
220
0.0
230
1.0
  2
SOLID
 70
     1
 71
     0
 91
        1
 92
        1
 93
        1
 72
     4
 94
        3
 73
     0
 74
     1
 95
       44
 96
       40
 40
0.0
 40
0.0
 40
0.0
 40
0.0
 40
1.0
 40
1.0
 40
1.0
 40
2.0
 40
2.0
 40
2.0
 40
3.0
 40
3.0
 40
3.0
 40
4.0
 40
4.0
 40
4.0
 40
5.0
 40
5.0
 40
5.0
 40
6.0
 40
6.0
 40
6.0
 40
7.0
 40
7.0
 40
7.0
 40
8.0
 40
8.0
 40
8.0
 40
9.0
 40
9.0
 40
9.0
 40
10.0
 40
10.0
 40
10.0
 40
11.0
 40
11.0
 40
11.0
 40
12.0
 40
12.0
 40
12.0
 40
13.0
 40
13.0
 40
13.0
 40
13.0
 10
111.8443359095389
 20
-162.1634005670981
 10
111.6262613653226
 20
-162.3222194689681
 10
111.5328992776723
 20
-162.3962890219009
 10
111.4846679408788
 20
-162.5399495036359
 10
111.4846679408788
 20
-162.5399495036359
 10
112.2629150109968
 20
-162.5399495036359
 10
112.2629150109968
 20
-162.5399495036359
 10
112.2629150109968
 20
-162.5399495036359
 10
112.2629150109968
 20
-162.7452771945567
 10
112.2629150109968
 20
-162.7452771945567
 10
112.2629150109968
 20
-162.7452771945567
 10
111.2348985181982
 20
-162.7452771945567
 10
111.2348985181982
 20
-162.7452771945567
 10
111.2665933966625
 20
-162.3876762831878
 10
111.3320502108823
 20
-162.3094726156726
 10
111.7172118861332
 20
-162.01112734665
 10
111.9731824806873
 20
-161.8123453371511
 10
112.038639294907
 20
-161.7444769560917
 10
112.038639294907
 20
-161.6070176462302
 10
112.038639294907
 20
-161.4885063615376
 10
111.9669813088138
 20
-161.3575927330981
 10
111.7699218470575
 20
-161.3575927330981
 10
111.5098171379212
 20
-161.3575927330981
 10
111.501204399208
 20
-161.5880696210613
 10
111.4970702846257
 20
-161.7045138484628
 10
111.4970702846257
 20
-161.7045138484628
 10
111.2731390780845
 20
-161.7045138484628
 10
111.2731390780845
 20
-161.7045138484628
 10
111.2814073072491
 20
-161.5773898250571
 10
111.2917425937049
 20
-161.4654242217864
 10
111.3723578280597
 20
-161.3469129370938
 10
111.4822563740392
 20
-161.1860269779327
 10
111.6686360397912
 20
-161.1522650421772
 10
111.7850802671926
 20
-161.1522650421772
 10
112.0620659442067
 20
-161.1522650421772
 10
112.2694606924187
 20
-161.3362331410896
 10
112.2694606924187
 20
-161.6090847035213
 10
112.2694606924187
 20
-161.8378390437419
 10
112.1530164650173
 20
-161.9370577937171
 10
111.8443359095389
 20
-162.1634005670981
 97
        0
 97
        0
 75
     2
 76
     1
 98
        0
  0
SPLINE
  5
AF
330
A9
100
AcDbEntity
  8
_U+30EC_U+30A4_U+30E4_U+30FC 1
370
     0
100
AcDbSpline
210
0.0
220
0.0
230
1.0
 70
    11
 71
     3
 72
    44
 73
    40
 74
     0
 42
0.0000000001
 43
0.0000000001
 12
1.0
 22
0.0
 32
0.0
 13
1.0
 23
0.0
 33
0.0
 40
0.0
 40
0.0
 40
0.0
 40
0.0
 40
1.0
 40
1.0
 40
1.0
 40
2.0
 40
2.0
 40
2.0
 40
3.0
 40
3.0
 40
3.0
 40
4.0
 40
4.0
 40
4.0
 40
5.0
 40
5.0
 40
5.0
 40
6.0
 40
6.0
 40
6.0
 40
7.0
 40
7.0
 40
7.0
 40
8.0
 40
8.0
 40
8.0
 40
9.0
 40
9.0
 40
9.0
 40
10.0
 40
10.0
 40
10.0
 40
11.0
 40
11.0
 40
11.0
 40
12.0
 40
12.0
 40
12.0
 40
13.0
 40
13.0
 40
13.0
 40
13.0
 10
113.0211805273003
 20
-162.1634005670981
 30
0.0
 10
112.803105983084
 20
-162.3222194689681
 30
0.0
 10
112.7097438954337
 20
-162.3962890219009
 30
0.0
 10
112.6615125586402
 20
-162.5399495036359
 30
0.0
 10
112.6615125586402
 20
-162.5399495036359
 30
0.0
 10
113.4397596287581
 20
-162.5399495036359
 30
0.0
 10
113.4397596287581
 20
-162.5399495036359
 30
0.0
 10
113.4397596287581
 20
-162.5399495036359
 30
0.0
 10
113.4397596287581
 20
-162.7452771945567
 30
0.0
 10
113.4397596287581
 20
-162.7452771945567
 30
0.0
 10
113.4397596287581
 20
-162.7452771945567
 30
0.0
 10
112.4117431359596
 20
-162.7452771945567
 30
0.0
 10
112.4117431359596
 20
-162.7452771945567
 30
0.0
 10
112.4434380144239
 20
-162.3876762831878
 30
0.0
 10
112.5088948286436
 20
-162.3094726156726
 30
0.0
 10
112.8940565038945
 20
-162.01112734665
 30
0.0
 10
113.1500270984486
 20
-161.8123453371511
 30
0.0
 10
113.2154839126684
 20
-161.7444769560917
 30
0.0
 10
113.2154839126684
 20
-161.6070176462302
 30
0.0
 10
113.2154839126684
 20
-161.4885063615376
 30
0.0
 10
113.1438259265752
 20
-161.3575927330981
 30
0.0
 10
112.9467664648189
 20
-161.3575927330981
 30
0.0
 10
112.6866617556825
 20
-161.3575927330981
 30
0.0
 10
112.6780490169694
 20
-161.5880696210613
 30
0.0
 10
112.6739149023871
 20
-161.7045138484628
 30
0.0
 10
112.6739149023871
 20
-161.7045138484628
 30
0.0
 10
112.4499836958458
 20
-161.7045138484628
 30
0.0
 10
112.4499836958458
 20
-161.7045138484628
 30
0.0
 10
112.4582519250104
 20
-161.5773898250571
 30
0.0
 10
112.4685872114662
 20
-161.4654242217864
 30
0.0
 10
112.549202445821
 20
-161.3469129370938
 30
0.0
 10
112.6591009918005
 20
-161.1860269779327
 30
0.0
 10
112.8454806575525
 20
-161.1522650421772
 30
0.0
 10
112.961924884954
 20
-161.1522650421772
 30
0.0
 10
113.2389105619681
 20
-161.1522650421772
 30
0.0
 10
113.4463053101801
 20
-161.3362331410896
 30
0.0
 10
113.4463053101801
 20
-161.6090847035213
 30
0.0
 10
113.4463053101801
 20
-161.8378390437419
 30
0.0
 10
113.3298610827786
 20
-161.9370577937171
 30
0.0
 10
113.0211805273003
 20
-162.1634005670981
 30
0.0
  0
HATCH
  5
B0
330
A9
100
AcDbEntity
  8
_U+30EC_U+30A4_U+30E4_U+30FC 1
 62
   179
420
  2234388
100
AcDbHatch
 10
0.0
 20
0.0
 30
0.0
210
0.0
220
0.0
230
1.0
  2
SOLID
 70
     1
 71
     0
 91
        1
 92
        1
 93
        1
 72
     4
 94
        3
 73
     0
 74
     1
 95
       44
 96
       40
 40
0.0
 40
0.0
 40
0.0
 40
0.0
 40
1.0
 40
1.0
 40
1.0
 40
2.0
 40
2.0
 40
2.0
 40
3.0
 40
3.0
 40
3.0
 40
4.0
 40
4.0
 40
4.0
 40
5.0
 40
5.0
 40
5.0
 40
6.0
 40
6.0
 40
6.0
 40
7.0
 40
7.0
 40
7.0
 40
8.0
 40
8.0
 40
8.0
 40
9.0
 40
9.0
 40
9.0
 40
10.0
 40
10.0
 40
10.0
 40
11.0
 40
11.0
 40
11.0
 40
12.0
 40
12.0
 40
12.0
 40
13.0
 40
13.0
 40
13.0
 40
13.0
 10
113.0211805273003
 20
-162.1634005670981
 10
112.803105983084
 20
-162.3222194689681
 10
112.7097438954337
 20
-162.3962890219009
 10
112.6615125586402
 20
-162.5399495036359
 10
112.6615125586402
 20
-162.5399495036359
 10
113.4397596287581
 20
-162.5399495036359
 10
113.4397596287581
 20
-162.5399495036359
 10
113.4397596287581
 20
-162.5399495036359
 10
113.4397596287581
 20
-162.7452771945567
 10
113.4397596287581
 20
-162.7452771945567
 10
113.4397596287581
 20
-162.7452771945567
 10
112.4117431359596
 20
-162.7452771945567
 10
112.4117431359596
 20
-162.7452771945567
 10
112.4434380144239
 20
-162.3876762831878
 10
112.5088948286436
 20
-162.3094726156726
 10
112.8940565038945
 20
-162.01112734665
 10
113.1500270984486
 20
-161.8123453371511
 10
113.2154839126684
 20
-161.7444769560917
 10
113.2154839126684
 20
-161.6070176462302
 10
113.2154839126684
 20
-161.4885063615376
 10
113.1438259265752
 20
-161.3575927330981
 10
112.9467664648189
 20
-161.3575927330981
 10
112.6866617556825
 20
-161.3575927330981
 10
112.6780490169694
 20
-161.5880696210613
 10
112.6739149023871
 20
-161.7045138484628
 10
112.6739149023871
 20
-161.7045138484628
 10
112.4499836958458
 20
-161.7045138484628
 10
112.4499836958458
 20
-161.7045138484628
 10
112.4582519250104
 20
-161.5773898250571
 10
112.4685872114662
 20
-161.4654242217864
 10
112.549202445821
 20
-161.3469129370938
 10
112.6591009918005
 20
-161.1860269779327
 10
112.8454806575525
 20
-161.1522650421772
 10
112.961924884954
 20
-161.1522650421772
 10
113.2389105619681
 20
-161.1522650421772
 10
113.4463053101801
 20
-161.3362331410896
 10
113.4463053101801
 20
-161.6090847035213
 10
113.4463053101801
 20
-161.8378390437419
 10
113.3298610827786
 20
-161.9370577937171
 10
113.0211805273003
 20
-162.1634005670981
 97
        0
 97
        0
 75
     2
 76
     1
 98
        0
  0
POLYLINE
  5
B1
330
A9
100
AcDbEntity
  8
_U+30EC_U+30A4_U+30E4_U+30FC 1
370
     0
100
AcDb2dPolyline
 66
     1
 10
0.0
 20
0.0
 30
0.0
  0
VERTEX
  5
B2
330
B1
100
AcDbEntity
  8
_U+30EC_U+30A4_U+30E4_U+30FC 1
370
     0
100
AcDbVertex
100
AcDb2dVertex
 10
113.6647243639449
 20
-162.7452771945567
 30
0.0
  0
VERTEX
  5
B3
330
B1
100
AcDbEntity
  8
_U+30EC_U+30A4_U+30E4_U+30FC 1
370
     0
100
AcDbVertex
100
AcDb2dVertex
 10
113.6647243639449
 20
-162.493440714585
 30
0.0
  0
VERTEX
  5
B4
330
B1
100
AcDbEntity
  8
_U+30EC_U+30A4_U+30E4_U+30FC 1
370
     0
100
AcDbVertex
100
AcDb2dVertex
 10
113.9162163343682
 20
-162.493440714585
 30
0.0
  0
VERTEX
  5
B5
330
B1
100
AcDbEntity
  8
_U+30EC_U+30A4_U+30E4_U+30FC 1
370
     0
100
AcDbVertex
100
AcDb2dVertex
 10
113.9162163343682
 20
-162.7452771945567
 30
0.0
  0
VERTEX
  5
B6
330
B1
100
AcDbEntity
  8
_U+30EC_U+30A4_U+30E4_U+30FC 1
370
     0
100
AcDbVertex
100
AcDb2dVertex
 10
113.6647243639449
 20
-162.7452771945567
 30
0.0
  0
SEQEND
  5
B7
330
B1
100
AcDbEntity
  8
_U+30EC_U+30A4_U+30E4_U+30FC 1
370
     0
  0
HATCH
  5
B8
330
A9
100
AcDbEntity
  8
_U+30EC_U+30A4_U+30E4_U+30FC 1
 62
   179
420
  2234388
100
AcDbHatch
 10
0.0
 20
0.0
 30
0.0
210
0.0
220
0.0
230
1.0
  2
SOLID
 70
     1
 71
     0
 91
        1
 92
        1
 93
        4
 72
     1
 10
113.6647243639449
 20
-162.7452771945567
 11
113.6647243639449
 21
-162.493440714585
 72
     1
 10
113.6647243639449
 20
-162.493440714585
 11
113.9162163343682
 21
-162.493440714585
 72
     1
 10
113.9162163343682
 20
-162.493440714585
 11
113.9162163343682
 21
-162.7452771945567
 72
     1
 10
113.9162163343682
 20
-162.7452771945567
 11
113.6647243639449
 21
-162.7452771945567
 97
        0
 75
     2
 76
     1
 98
        0
  0
SPLINE
  5
B9
330
A9
100
AcDbEntity
  8
_U+30EC_U+30A4_U+30E4_U+30FC 1
370
     0
100
AcDbSpline
210
0.0
220
0.0
230
1.0
 70
    11
 71
     3
 72
    53
 73
    49
 74
     0
 42
0.0000000001
 43
0.0000000001
 12
1.0
 22
0.0
 32
0.0
 13
1.0
 23
0.0
 33
0.0
 40
0.0
 40
0.0
 40
0.0
 40
0.0
 40
1.0
 40
1.0
 40
1.0
 40
2.0
 40
2.0
 40
2.0
 40
3.0
 40
3.0
 40
3.0
 40
4.0
 40
4.0
 40
4.0
 40
5.0
 40
5.0
 40
5.0
 40
6.0
 40
6.0
 40
6.0
 40
7.0
 40
7.0
 40
7.0
 40
8.0
 40
8.0
 40
8.0
 40
9.0
 40
9.0
 40
9.0
 40
10.0
 40
10.0
 40
10.0
 40
11.0
 40
11.0
 40
11.0
 40
12.0
 40
12.0
 40
12.0
 40
13.0
 40
13.0
 40
13.0
 40
14.0
 40
14.0
 40
14.0
 40
15.0
 40
15.0
 40
15.0
 40
16.0
 40
16.0
 40
16.0
 40
16.0
 10
114.6341742334942
 20
-162.7959200981899
 30
0.0
 10
114.5556260564305
 20
-162.7959200981899
 30
0.0
 10
114.4543402491642
 20
-162.7790391303122
 30
0.0
 10
114.3523654228008
 20
-162.7156493733836
 30
0.0
 10
114.1790771198927
 20
-162.6057508274041
 30
0.0
 10
114.1580620374327
 20
-162.4744926894161
 30
0.0
 10
114.1387695027153
 20
-162.3666612007278
 30
0.0
 10
114.1387695027153
 20
-162.3666612007278
 30
0.0
 10
114.3609781615139
 20
-162.3666612007278
 30
0.0
 10
114.3609781615139
 20
-162.3666612007278
 30
0.0
 10
114.4160996892779
 20
-162.5654432102267
 30
0.0
 10
114.5432237126836
 20
-162.5950710313998
 30
0.0
 10
114.6362412907854
 20
-162.5950710313998
 30
0.0
 10
114.775767657938
 20
-162.5950710313998
 30
0.0
 10
114.9280408783861
 20
-162.4955077718761
 30
0.0
 10
114.9280408783861
 20
-162.2629638266218
 30
0.0
 10
114.9280408783861
 20
-162.0069932320677
 30
0.0
 10
114.748206894056
 20
-161.9370577937171
 30
0.0
 10
114.6276285520723
 20
-161.9370577937171
 30
0.0
 10
114.595933673608
 20
-161.9370577937171
 30
0.0
 10
114.4543402491642
 20
-161.9370577937171
 30
0.0
 10
114.3654567856448
 20
-162.066248874414
 30
0.0
 10
114.3654567856448
 20
-162.066248874414
 30
0.0
 10
114.189756915897
 20
-162.0473008492451
 30
0.0
 10
114.189756915897
 20
-162.0473008492451
 30
0.0
 10
114.189756915897
 20
-162.0473008492451
 30
0.0
 10
114.3103352578808
 20
-161.2008408885193
 30
0.0
 10
114.3103352578808
 20
-161.2008408885193
 30
0.0
 10
114.3103352578808
 20
-161.2008408885193
 30
0.0
 10
115.0889268375472
 20
-161.2008408885193
 30
0.0
 10
115.0889268375472
 20
-161.2008408885193
 30
0.0
 10
115.0889268375472
 20
-161.2008408885193
 30
0.0
 10
115.0889268375472
 20
-161.3954887834359
 30
0.0
 10
115.0889268375472
 20
-161.3954887834359
 30
0.0
 10
115.0889268375472
 20
-161.3954887834359
 30
0.0
 10
114.4729437647845
 20
-161.3954887834359
 30
0.0
 10
114.4729437647845
 20
-161.3954887834359
 30
0.0
 10
114.4729437647845
 20
-161.3954887834359
 30
0.0
 10
114.4074869505648
 20
-161.8185465090245
 30
0.0
 10
114.4074869505648
 20
-161.8185465090245
 30
0.0
 10
114.4688096502022
 20
-161.7847845732691
 30
0.0
 10
114.5514919418482
 20
-161.7444769560917
 30
0.0
 10
114.6700032265408
 20
-161.7444769560917
 30
0.0
 10
114.9235622542552
 20
-161.7444769560917
 30
0.0
 10
115.1605848236404
 20
-161.9308566218437
 30
0.0
 10
115.1605848236404
 20
-162.2440158014529
 30
0.0
 10
115.1605848236404
 20
-162.5613090956444
 30
0.0
 10
114.9366536170992
 20
-162.7959200981899
 30
0.0
 10
114.6341742334942
 20
-162.7959200981899
 30
0.0
  0
HATCH
  5
BA
330
A9
100
AcDbEntity
  8
_U+30EC_U+30A4_U+30E4_U+30FC 1
 62
   179
420
  2234388
100
AcDbHatch
 10
0.0
 20
0.0
 30
0.0
210
0.0
220
0.0
230
1.0
  2
SOLID
 70
     1
 71
     0
 91
        1
 92
        1
 93
        1
 72
     4
 94
        3
 73
     0
 74
     1
 95
       53
 96
       49
 40
0.0
 40
0.0
 40
0.0
 40
0.0
 40
1.0
 40
1.0
 40
1.0
 40
2.0
 40
2.0
 40
2.0
 40
3.0
 40
3.0
 40
3.0
 40
4.0
 40
4.0
 40
4.0
 40
5.0
 40
5.0
 40
5.0
 40
6.0
 40
6.0
 40
6.0
 40
7.0
 40
7.0
 40
7.0
 40
8.0
 40
8.0
 40
8.0
 40
9.0
 40
9.0
 40
9.0
 40
10.0
 40
10.0
 40
10.0
 40
11.0
 40
11.0
 40
11.0
 40
12.0
 40
12.0
 40
12.0
 40
13.0
 40
13.0
 40
13.0
 40
14.0
 40
14.0
 40
14.0
 40
15.0
 40
15.0
 40
15.0
 40
16.0
 40
16.0
 40
16.0
 40
16.0
 10
114.6341742334942
 20
-162.7959200981899
 10
114.5556260564305
 20
-162.7959200981899
 10
114.4543402491642
 20
-162.7790391303122
 10
114.3523654228008
 20
-162.7156493733836
 10
114.1790771198927
 20
-162.6057508274041
 10
114.1580620374327
 20
-162.4744926894161
 10
114.1387695027153
 20
-162.3666612007278
 10
114.1387695027153
 20
-162.3666612007278
 10
114.3609781615139
 20
-162.3666612007278
 10
114.3609781615139
 20
-162.3666612007278
 10
114.4160996892779
 20
-162.5654432102267
 10
114.5432237126836
 20
-162.5950710313998
 10
114.6362412907854
 20
-162.5950710313998
 10
114.775767657938
 20
-162.5950710313998
 10
114.9280408783861
 20
-162.4955077718761
 10
114.9280408783861
 20
-162.2629638266218
 10
114.9280408783861
 20
-162.0069932320677
 10
114.748206894056
 20
-161.9370577937171
 10
114.6276285520723
 20
-161.9370577937171
 10
114.595933673608
 20
-161.9370577937171
 10
114.4543402491642
 20
-161.9370577937171
 10
114.3654567856448
 20
-162.066248874414
 10
114.3654567856448
 20
-162.066248874414
 10
114.189756915897
 20
-162.0473008492451
 10
114.189756915897
 20
-162.0473008492451
 10
114.189756915897
 20
-162.0473008492451
 10
114.3103352578808
 20
-161.2008408885193
 10
114.3103352578808
 20
-161.2008408885193
 10
114.3103352578808
 20
-161.2008408885193
 10
115.0889268375472
 20
-161.2008408885193
 10
115.0889268375472
 20
-161.2008408885193
 10
115.0889268375472
 20
-161.2008408885193
 10
115.0889268375472
 20
-161.3954887834359
 10
115.0889268375472
 20
-161.3954887834359
 10
115.0889268375472
 20
-161.3954887834359
 10
114.4729437647845
 20
-161.3954887834359
 10
114.4729437647845
 20
-161.3954887834359
 10
114.4729437647845
 20
-161.3954887834359
 10
114.4074869505648
 20
-161.8185465090245
 10
114.4074869505648
 20
-161.8185465090245
 10
114.4688096502022
 20
-161.7847845732691
 10
114.5514919418482
 20
-161.7444769560917
 10
114.6700032265408
 20
-161.7444769560917
 10
114.9235622542552
 20
-161.7444769560917
 10
115.1605848236404
 20
-161.9308566218437
 10
115.1605848236404
 20
-162.2440158014529
 10
115.1605848236404
 20
-162.5613090956444
 10
114.9366536170992
 20
-162.7959200981899
 10
114.6341742334942
 20
-162.7959200981899
 97
        0
 97
        0
 75
     2
 76
     1
 98
        0
  0
ENDBLK
  5
AC
330
A9
100
AcDbEntity
  8
0
100
AcDbBlockEnd
  0
BLOCK
  5
C9
330
C7
100
AcDbEntity
  8
0
100
AcDbBlockBegin
  2
block 6
 70
     0
 10
0.0
 20
0.0
 30
0.0
  3
block 6
  1

  0
SPLINE
  5
CB
330
C7
100
AcDbEntity
  8
_U+30EC_U+30A4_U+30E4_U+30FC 1
370
     0
100
AcDbSpline
210
0.0
220
0.0
230
1.0
 70
    11
 71
     3
 72
    62
 73
    58
 74
     0
 42
0.0000000001
 43
0.0000000001
 12
1.0
 22
0.0
 32
0.0
 13
1.0
 23
0.0
 33
0.0
 40
0.0
 40
0.0
 40
0.0
 40
0.0
 40
1.0
 40
1.0
 40
1.0
 40
2.0
 40
2.0
 40
2.0
 40
3.0
 40
3.0
 40
3.0
 40
4.0
 40
4.0
 40
4.0
 40
5.0
 40
5.0
 40
5.0
 40
6.0
 40
6.0
 40
6.0
 40
7.0
 40
7.0
 40
7.0
 40
8.0
 40
8.0
 40
8.0
 40
9.0
 40
9.0
 40
9.0
 40
10.0
 40
10.0
 40
10.0
 40
11.0
 40
11.0
 40
11.0
 40
12.0
 40
12.0
 40
12.0
 40
13.0
 40
13.0
 40
13.0
 40
14.0
 40
14.0
 40
14.0
 40
15.0
 40
15.0
 40
15.0
 40
16.0
 40
16.0
 40
16.0
 40
17.0
 40
17.0
 40
17.0
 40
18.0
 40
18.0
 40
18.0
 40
19.0
 40
19.0
 40
19.0
 40
19.0
 10
104.85354815087
 20
-134.7912556629168
 30
0.0
 10
104.7582912607028
 20
-134.7912556629168
 30
0.0
 10
104.5403889712607
 20
-134.7702405804567
 30
0.0
 10
104.4156765146947
 20
-134.5842054242533
 30
0.0
 10
104.3416069617618
 20
-134.4718953114341
 30
0.0
 10
104.3373005924053
 20
-134.3726765614589
 30
0.0
 10
104.333166477823
 20
-134.2879272125218
 30
0.0
 10
104.333166477823
 20
-134.2879272125218
 30
0.0
 10
104.5531358245562
 20
-134.2879272125218
 30
0.0
 10
104.5531358245562
 20
-134.2879272125218
 30
0.0
 10
104.5552028818473
 20
-134.3619967654546
 30
0.0
 10
104.5658826778516
 20
-134.5966077680002
 30
0.0
 10
104.8494140362877
 20
-134.5966077680002
 30
0.0
 10
104.9868733461491
 20
-134.5966077680002
 30
0.0
 10
105.1391465665972
 20
-134.5270168391981
 30
0.0
 10
105.1391465665972
 20
-134.2986070085261
 30
0.0
 10
105.1391465665972
 20
-134.1821627811246
 30
0.0
 10
105.1010782614852
 20
-134.1335869347826
 30
0.0
 10
105.0693833830208
 20
-134.1018920563183
 30
0.0
 10
104.995313830088
 20
-134.0278225033854
 30
0.0
 10
104.8788696026865
 20
-134.01507565009
 30
0.0
 10
104.8239203296968
 20
-134.01507565009
 30
0.0
 10
104.8049723045279
 20
-134.01507565009
 30
0.0
 10
104.7689710567071
 20
-134.0171427073811
 30
0.0
 10
104.7414102928251
 20
-134.0212768219634
 30
0.0
 10
104.7414102928251
 20
-134.0212768219634
 30
0.0
 10
104.7414102928251
 20
-133.8266289270468
 30
0.0
 10
104.7414102928251
 20
-133.8266289270468
 30
0.0
 10
104.7794785979371
 20
-133.8331746084688
 30
0.0
 10
104.8218532724056
 20
-133.83524166576
 30
0.0
 10
104.8282266990534
 20
-133.83524166576
 30
0.0
 10
104.8936835132731
 20
-133.83524166576
 30
0.0
 10
105.0926377775463
 20
-133.8138820737514
 30
0.0
 10
105.0926377775463
 20
-133.5772040139147
 30
0.0
 10
105.0926377775463
 20
-133.3994370868758
 30
0.0
 10
104.9613796395583
 20
-133.3443155591118
 30
0.0
 10
104.8514810935788
 20
-133.3443155591118
 30
0.0
 10
104.5870700150859
 20
-133.3443155591118
 30
0.0
 10
104.578629531147
 20
-133.5772040139147
 30
0.0
 10
104.5743231617904
 20
-133.6488620000079
 30
0.0
 10
104.5743231617904
 20
-133.6488620000079
 30
0.0
 10
104.371234782935
 20
-133.6488620000079
 30
0.0
 10
104.371234782935
 20
-133.6488620000079
 30
0.0
 10
104.3796752668738
 20
-133.5241495434419
 30
0.0
 10
104.4072360307558
 20
-133.1476006069041
 30
0.0
 10
104.8640556921
 20
-133.1476006069041
 30
0.0
 10
105.0883314081897
 20
-133.1476006069041
 30
0.0
 10
105.3294880921572
 20
-133.2747246303098
 30
0.0
 10
105.3294880921572
 20
-133.5706583324928
 30
0.0
 10
105.3294880921572
 20
-133.7570379982448
 30
0.0
 10
105.2344034567643
 20
-133.8393757803422
 30
0.0
 10
105.1348401972406
 20
-133.9006984799797
 30
0.0
 10
105.1963351516523
 20
-133.9282592438617
 30
0.0
 10
105.3782361932735
 20
-134.008529968668
 30
0.0
 10
105.3782361932735
 20
-134.2858601552306
 30
0.0
 10
105.3782361932735
 20
-134.6241685318822
 30
0.0
 10
105.1307060826583
 20
-134.7912556629168
 30
0.0
 10
104.85354815087
 20
-134.7912556629168
 30
0.0
  0
HATCH
  5
CC
330
C7
100
AcDbEntity
  8
_U+30EC_U+30A4_U+30E4_U+30FC 1
 62
   179
420
  2234388
100
AcDbHatch
 10
0.0
 20
0.0
 30
0.0
210
0.0
220
0.0
230
1.0
  2
SOLID
 70
     1
 71
     0
 91
        1
 92
        1
 93
        1
 72
     4
 94
        3
 73
     0
 74
     1
 95
       62
 96
       58
 40
0.0
 40
0.0
 40
0.0
 40
0.0
 40
1.0
 40
1.0
 40
1.0
 40
2.0
 40
2.0
 40
2.0
 40
3.0
 40
3.0
 40
3.0
 40
4.0
 40
4.0
 40
4.0
 40
5.0
 40
5.0
 40
5.0
 40
6.0
 40
6.0
 40
6.0
 40
7.0
 40
7.0
 40
7.0
 40
8.0
 40
8.0
 40
8.0
 40
9.0
 40
9.0
 40
9.0
 40
10.0
 40
10.0
 40
10.0
 40
11.0
 40
11.0
 40
11.0
 40
12.0
 40
12.0
 40
12.0
 40
13.0
 40
13.0
 40
13.0
 40
14.0
 40
14.0
 40
14.0
 40
15.0
 40
15.0
 40
15.0
 40
16.0
 40
16.0
 40
16.0
 40
17.0
 40
17.0
 40
17.0
 40
18.0
 40
18.0
 40
18.0
 40
19.0
 40
19.0
 40
19.0
 40
19.0
 10
104.85354815087
 20
-134.7912556629168
 10
104.7582912607028
 20
-134.7912556629168
 10
104.5403889712607
 20
-134.7702405804567
 10
104.4156765146947
 20
-134.5842054242533
 10
104.3416069617618
 20
-134.4718953114341
 10
104.3373005924053
 20
-134.3726765614589
 10
104.333166477823
 20
-134.2879272125218
 10
104.333166477823
 20
-134.2879272125218
 10
104.5531358245562
 20
-134.2879272125218
 10
104.5531358245562
 20
-134.2879272125218
 10
104.5552028818473
 20
-134.3619967654546
 10
104.5658826778516
 20
-134.5966077680002
 10
104.8494140362877
 20
-134.5966077680002
 10
104.9868733461491
 20
-134.5966077680002
 10
105.1391465665972
 20
-134.5270168391981
 10
105.1391465665972
 20
-134.2986070085261
 10
105.1391465665972
 20
-134.1821627811246
 10
105.1010782614852
 20
-134.1335869347826
 10
105.0693833830208
 20
-134.1018920563183
 10
104.995313830088
 20
-134.0278225033854
 10
104.8788696026865
 20
-134.01507565009
 10
104.8239203296968
 20
-134.01507565009
 10
104.8049723045279
 20
-134.01507565009
 10
104.7689710567071
 20
-134.0171427073811
 10
104.7414102928251
 20
-134.0212768219634
 10
104.7414102928251
 20
-134.0212768219634
 10
104.7414102928251
 20
-133.8266289270468
 10
104.7414102928251
 20
-133.8266289270468
 10
104.7794785979371
 20
-133.8331746084688
 10
104.8218532724056
 20
-133.83524166576
 10
104.8282266990534
 20
-133.83524166576
 10
104.8936835132731
 20
-133.83524166576
 10
105.0926377775463
 20
-133.8138820737514
 10
105.0926377775463
 20
-133.5772040139147
 10
105.0926377775463
 20
-133.3994370868758
 10
104.9613796395583
 20
-133.3443155591118
 10
104.8514810935788
 20
-133.3443155591118
 10
104.5870700150859
 20
-133.3443155591118
 10
104.578629531147
 20
-133.5772040139147
 10
104.5743231617904
 20
-133.6488620000079
 10
104.5743231617904
 20
-133.6488620000079
 10
104.371234782935
 20
-133.6488620000079
 10
104.371234782935
 20
-133.6488620000079
 10
104.3796752668738
 20
-133.5241495434419
 10
104.4072360307558
 20
-133.1476006069041
 10
104.8640556921
 20
-133.1476006069041
 10
105.0883314081897
 20
-133.1476006069041
 10
105.3294880921572
 20
-133.2747246303098
 10
105.3294880921572
 20
-133.5706583324928
 10
105.3294880921572
 20
-133.7570379982448
 10
105.2344034567643
 20
-133.8393757803422
 10
105.1348401972406
 20
-133.9006984799797
 10
105.1963351516523
 20
-133.9282592438617
 10
105.3782361932735
 20
-134.008529968668
 10
105.3782361932735
 20
-134.2858601552306
 10
105.3782361932735
 20
-134.6241685318822
 10
105.1307060826583
 20
-134.7912556629168
 10
104.85354815087
 20
-134.7912556629168
 97
        0
 97
        0
 75
     2
 76
     1
 98
        0
  0
SPLINE
  5
CD
330
C7
100
AcDbEntity
  8
_U+30EC_U+30A4_U+30E4_U+30FC 1
370
     0
100
AcDbSpline
210
0.0
220
0.0
230
1.0
 70
    11
 71
     3
 72
    53
 73
    49
 74
     0
 42
0.0000000001
 43
0.0000000001
 12
1.0
 22
0.0
 32
0.0
 13
1.0
 23
0.0
 33
0.0
 40
0.0
 40
0.0
 40
0.0
 40
0.0
 40
1.0
 40
1.0
 40
1.0
 40
2.0
 40
2.0
 40
2.0
 40
3.0
 40
3.0
 40
3.0
 40
4.0
 40
4.0
 40
4.0
 40
5.0
 40
5.0
 40
5.0
 40
6.0
 40
6.0
 40
6.0
 40
7.0
 40
7.0
 40
7.0
 40
8.0
 40
8.0
 40
8.0
 40
9.0
 40
9.0
 40
9.0
 40
10.0
 40
10.0
 40
10.0
 40
11.0
 40
11.0
 40
11.0
 40
12.0
 40
12.0
 40
12.0
 40
13.0
 40
13.0
 40
13.0
 40
14.0
 40
14.0
 40
14.0
 40
15.0
 40
15.0
 40
15.0
 40
16.0
 40
16.0
 40
16.0
 40
16.0
 10
106.0200574821755
 20
-134.7912556629168
 30
0.0
 10
105.9415093051119
 20
-134.7912556629168
 30
0.0
 10
105.8402234978455
 20
-134.7743746950391
 30
0.0
 10
105.7382486714821
 20
-134.7109849381104
 30
0.0
 10
105.564960368574
 20
-134.601086392131
 30
0.0
 10
105.543945286114
 20
-134.469828254143
 30
0.0
 10
105.5246527513966
 20
-134.3619967654546
 30
0.0
 10
105.5246527513966
 20
-134.3619967654546
 30
0.0
 10
105.7468614101952
 20
-134.3619967654546
 30
0.0
 10
105.7468614101952
 20
-134.3619967654546
 30
0.0
 10
105.8019829379592
 20
-134.5607787749535
 30
0.0
 10
105.929106961365
 20
-134.5904065961267
 30
0.0
 10
106.0221245394667
 20
-134.5904065961267
 30
0.0
 10
106.1616509066193
 20
-134.5904065961267
 30
0.0
 10
106.3139241270674
 20
-134.490843336603
 30
0.0
 10
106.3139241270674
 20
-134.2582993913486
 30
0.0
 10
106.3139241270674
 20
-134.0023287967946
 30
0.0
 10
106.1340901427373
 20
-133.932393358444
 30
0.0
 10
106.0135118007536
 20
-133.932393358444
 30
0.0
 10
105.9818169222893
 20
-133.932393358444
 30
0.0
 10
105.8402234978455
 20
-133.932393358444
 30
0.0
 10
105.7513400343261
 20
-134.0615844391409
 30
0.0
 10
105.7513400343261
 20
-134.0615844391409
 30
0.0
 10
105.5756401645783
 20
-134.042636413972
 30
0.0
 10
105.5756401645783
 20
-134.042636413972
 30
0.0
 10
105.5756401645783
 20
-134.042636413972
 30
0.0
 10
105.6962185065621
 20
-133.1961764532461
 30
0.0
 10
105.6962185065621
 20
-133.1961764532461
 30
0.0
 10
105.6962185065621
 20
-133.1961764532461
 30
0.0
 10
106.4748100862285
 20
-133.1961764532461
 30
0.0
 10
106.4748100862285
 20
-133.1961764532461
 30
0.0
 10
106.4748100862285
 20
-133.1961764532461
 30
0.0
 10
106.4748100862285
 20
-133.3908243481627
 30
0.0
 10
106.4748100862285
 20
-133.3908243481627
 30
0.0
 10
106.4748100862285
 20
-133.3908243481627
 30
0.0
 10
105.8588270134659
 20
-133.3908243481627
 30
0.0
 10
105.8588270134659
 20
-133.3908243481627
 30
0.0
 10
105.8588270134659
 20
-133.3908243481627
 30
0.0
 10
105.7933701992461
 20
-133.8138820737514
 30
0.0
 10
105.7933701992461
 20
-133.8138820737514
 30
0.0
 10
105.8546928988836
 20
-133.7801201379959
 30
0.0
 10
105.9373751905296
 20
-133.7398125208185
 30
0.0
 10
106.0558864752221
 20
-133.7398125208185
 30
0.0
 10
106.3094455029365
 20
-133.7398125208185
 30
0.0
 10
106.5464680723217
 20
-133.9261921865705
 30
0.0
 10
106.5464680723217
 20
-134.2393513661798
 30
0.0
 10
106.5464680723217
 20
-134.5566446603713
 30
0.0
 10
106.3225368657805
 20
-134.7912556629168
 30
0.0
 10
106.0200574821755
 20
-134.7912556629168
 30
0.0
  0
HATCH
  5
CE
330
C7
100
AcDbEntity
  8
_U+30EC_U+30A4_U+30E4_U+30FC 1
 62
   179
420
  2234388
100
AcDbHatch
 10
0.0
 20
0.0
 30
0.0
210
0.0
220
0.0
230
1.0
  2
SOLID
 70
     1
 71
     0
 91
        1
 92
        1
 93
        1
 72
     4
 94
        3
 73
     0
 74
     1
 95
       53
 96
       49
 40
0.0
 40
0.0
 40
0.0
 40
0.0
 40
1.0
 40
1.0
 40
1.0
 40
2.0
 40
2.0
 40
2.0
 40
3.0
 40
3.0
 40
3.0
 40
4.0
 40
4.0
 40
4.0
 40
5.0
 40
5.0
 40
5.0
 40
6.0
 40
6.0
 40
6.0
 40
7.0
 40
7.0
 40
7.0
 40
8.0
 40
8.0
 40
8.0
 40
9.0
 40
9.0
 40
9.0
 40
10.0
 40
10.0
 40
10.0
 40
11.0
 40
11.0
 40
11.0
 40
12.0
 40
12.0
 40
12.0
 40
13.0
 40
13.0
 40
13.0
 40
14.0
 40
14.0
 40
14.0
 40
15.0
 40
15.0
 40
15.0
 40
16.0
 40
16.0
 40
16.0
 40
16.0
 10
106.0200574821755
 20
-134.7912556629168
 10
105.9415093051119
 20
-134.7912556629168
 10
105.8402234978455
 20
-134.7743746950391
 10
105.7382486714821
 20
-134.7109849381104
 10
105.564960368574
 20
-134.601086392131
 10
105.543945286114
 20
-134.469828254143
 10
105.5246527513966
 20
-134.3619967654546
 10
105.5246527513966
 20
-134.3619967654546
 10
105.7468614101952
 20
-134.3619967654546
 10
105.7468614101952
 20
-134.3619967654546
 10
105.8019829379592
 20
-134.5607787749535
 10
105.929106961365
 20
-134.5904065961267
 10
106.0221245394667
 20
-134.5904065961267
 10
106.1616509066193
 20
-134.5904065961267
 10
106.3139241270674
 20
-134.490843336603
 10
106.3139241270674
 20
-134.2582993913486
 10
106.3139241270674
 20
-134.0023287967946
 10
106.1340901427373
 20
-133.932393358444
 10
106.0135118007536
 20
-133.932393358444
 10
105.9818169222893
 20
-133.932393358444
 10
105.8402234978455
 20
-133.932393358444
 10
105.7513400343261
 20
-134.0615844391409
 10
105.7513400343261
 20
-134.0615844391409
 10
105.5756401645783
 20
-134.042636413972
 10
105.5756401645783
 20
-134.042636413972
 10
105.5756401645783
 20
-134.042636413972
 10
105.6962185065621
 20
-133.1961764532461
 10
105.6962185065621
 20
-133.1961764532461
 10
105.6962185065621
 20
-133.1961764532461
 10
106.4748100862285
 20
-133.1961764532461
 10
106.4748100862285
 20
-133.1961764532461
 10
106.4748100862285
 20
-133.1961764532461
 10
106.4748100862285
 20
-133.3908243481627
 10
106.4748100862285
 20
-133.3908243481627
 10
106.4748100862285
 20
-133.3908243481627
 10
105.8588270134659
 20
-133.3908243481627
 10
105.8588270134659
 20
-133.3908243481627
 10
105.8588270134659
 20
-133.3908243481627
 10
105.7933701992461
 20
-133.8138820737514
 10
105.7933701992461
 20
-133.8138820737514
 10
105.8546928988836
 20
-133.7801201379959
 10
105.9373751905296
 20
-133.7398125208185
 10
106.0558864752221
 20
-133.7398125208185
 10
106.3094455029365
 20
-133.7398125208185
 10
106.5464680723217
 20
-133.9261921865705
 10
106.5464680723217
 20
-134.2393513661798
 10
106.5464680723217
 20
-134.5566446603713
 10
106.3225368657805
 20
-134.7912556629168
 10
106.0200574821755
 20
-134.7912556629168
 97
        0
 97
        0
 75
     2
 76
     1
 98
        0
  0
POLYLINE
  5
CF
330
C7
100
AcDbEntity
  8
_U+30EC_U+30A4_U+30E4_U+30FC 1
370
     0
100
AcDb2dPolyline
 66
     1
 10
0.0
 20
0.0
 30
0.0
  0
VERTEX
  5
D0
330
CF
100
AcDbEntity
  8
_U+30EC_U+30A4_U+30E4_U+30FC 1
370
     0
100
AcDbVertex
100
AcDb2dVertex
 10
106.7759114316394
 20
-134.7406127592836
 30
0.0
  0
VERTEX
  5
D1
330
CF
100
AcDbEntity
  8
_U+30EC_U+30A4_U+30E4_U+30FC 1
370
     0
100
AcDbVertex
100
AcDb2dVertex
 10
106.7759114316394
 20
-134.4887762793118
 30
0.0
  0
VERTEX
  5
D2
330
CF
100
AcDbEntity
  8
_U+30EC_U+30A4_U+30E4_U+30FC 1
370
     0
100
AcDbVertex
100
AcDb2dVertex
 10
107.0274034020626
 20
-134.4887762793118
 30
0.0
  0
VERTEX
  5
D3
330
CF
100
AcDbEntity
  8
_U+30EC_U+30A4_U+30E4_U+30FC 1
370
     0
100
AcDbVertex
100
AcDb2dVertex
 10
107.0274034020626
 20
-134.7406127592836
 30
0.0
  0
VERTEX
  5
D4
330
CF
100
AcDbEntity
  8
_U+30EC_U+30A4_U+30E4_U+30FC 1
370
     0
100
AcDbVertex
100
AcDb2dVertex
 10
106.7759114316394
 20
-134.7406127592836
 30
0.0
  0
SEQEND
  5
D5
330
CF
100
AcDbEntity
  8
_U+30EC_U+30A4_U+30E4_U+30FC 1
370
     0
  0
HATCH
  5
D6
330
C7
100
AcDbEntity
  8
_U+30EC_U+30A4_U+30E4_U+30FC 1
 62
   179
420
  2234388
100
AcDbHatch
 10
0.0
 20
0.0
 30
0.0
210
0.0
220
0.0
230
1.0
  2
SOLID
 70
     1
 71
     0
 91
        1
 92
        1
 93
        4
 72
     1
 10
106.7759114316394
 20
-134.7406127592836
 11
106.7759114316394
 21
-134.4887762793118
 72
     1
 10
106.7759114316394
 20
-134.4887762793118
 11
107.0274034020626
 21
-134.4887762793118
 72
     1
 10
107.0274034020626
 20
-134.4887762793118
 11
107.0274034020626
 21
-134.7406127592836
 72
     1
 10
107.0274034020626
 20
-134.7406127592836
 11
106.7759114316394
 21
-134.7406127592836
 97
        0
 75
     2
 76
     1
 98
        0
  0
SPLINE
  5
D7
330
C7
100
AcDbEntity
  8
_U+30EC_U+30A4_U+30E4_U+30FC 1
370
     0
100
AcDbSpline
210
0.0
220
0.0
230
1.0
 70
    11
 71
     3
 72
    53
 73
    49
 74
     0
 42
0.0000000001
 43
0.0000000001
 12
1.0
 22
0.0
 32
0.0
 13
1.0
 23
0.0
 33
0.0
 40
0.0
 40
0.0
 40
0.0
 40
0.0
 40
1.0
 40
1.0
 40
1.0
 40
2.0
 40
2.0
 40
2.0
 40
3.0
 40
3.0
 40
3.0
 40
4.0
 40
4.0
 40
4.0
 40
5.0
 40
5.0
 40
5.0
 40
6.0
 40
6.0
 40
6.0
 40
7.0
 40
7.0
 40
7.0
 40
8.0
 40
8.0
 40
8.0
 40
9.0
 40
9.0
 40
9.0
 40
10.0
 40
10.0
 40
10.0
 40
11.0
 40
11.0
 40
11.0
 40
12.0
 40
12.0
 40
12.0
 40
13.0
 40
13.0
 40
13.0
 40
14.0
 40
14.0
 40
14.0
 40
15.0
 40
15.0
 40
15.0
 40
16.0
 40
16.0
 40
16.0
 40
16.0
 10
107.7450167916401
 20
-134.7912556629168
 30
0.0
 10
107.666813124125
 20
-134.7912556629168
 30
0.0
 10
107.5651828073101
 20
-134.7743746950391
 30
0.0
 10
107.4635524904952
 20
-134.7109849381104
 30
0.0
 10
107.2899196780386
 20
-134.601086392131
 30
0.0
 10
107.2689045955786
 20
-134.469828254143
 30
0.0
 10
107.2499565704097
 20
-134.3619967654546
 30
0.0
 10
107.2499565704097
 20
-134.3619967654546
 30
0.0
 10
107.4718207196598
 20
-134.3619967654546
 30
0.0
 10
107.4718207196598
 20
-134.3619967654546
 30
0.0
 10
107.5269422474238
 20
-134.5607787749535
 30
0.0
 10
107.6540662708295
 20
-134.5904065961267
 30
0.0
 10
107.7470838489313
 20
-134.5904065961267
 30
0.0
 10
107.8866102160839
 20
-134.5904065961267
 30
0.0
 10
108.0388834365319
 20
-134.490843336603
 30
0.0
 10
108.0388834365319
 20
-134.2582993913486
 30
0.0
 10
108.0388834365319
 20
-134.0023287967946
 30
0.0
 10
107.8590494522019
 20
-133.932393358444
 30
0.0
 10
107.7384711102182
 20
-133.932393358444
 30
0.0
 10
107.7067762317539
 20
-133.932393358444
 30
0.0
 10
107.5651828073101
 20
-133.932393358444
 30
0.0
 10
107.4762993437907
 20
-134.0615844391409
 30
0.0
 10
107.4762993437907
 20
-134.0615844391409
 30
0.0
 10
107.3009439835914
 20
-134.042636413972
 30
0.0
 10
107.3009439835914
 20
-134.042636413972
 30
0.0
 10
107.3009439835914
 20
-134.042636413972
 30
0.0
 10
107.4215223255752
 20
-133.1961764532461
 30
0.0
 10
107.4215223255752
 20
-133.1961764532461
 30
0.0
 10
107.4215223255752
 20
-133.1961764532461
 30
0.0
 10
108.1997693956931
 20
-133.1961764532461
 30
0.0
 10
108.1997693956931
 20
-133.1961764532461
 30
0.0
 10
108.1997693956931
 20
-133.1961764532461
 30
0.0
 10
108.1997693956931
 20
-133.3908243481627
 30
0.0
 10
108.1997693956931
 20
-133.3908243481627
 30
0.0
 10
108.1997693956931
 20
-133.3908243481627
 30
0.0
 10
107.584130832479
 20
-133.3908243481627
 30
0.0
 10
107.584130832479
 20
-133.3908243481627
 30
0.0
 10
107.584130832479
 20
-133.3908243481627
 30
0.0
 10
107.5186740182592
 20
-133.8138820737514
 30
0.0
 10
107.5186740182592
 20
-133.8138820737514
 30
0.0
 10
107.5799967178967
 20
-133.7801201379959
 30
0.0
 10
107.6626790095427
 20
-133.7398125208185
 30
0.0
 10
107.7808457846867
 20
-133.7398125208185
 30
0.0
 10
108.0347493219496
 20
-133.7398125208185
 30
0.0
 10
108.2717718913348
 20
-133.9261921865705
 30
0.0
 10
108.2717718913348
 20
-134.2393513661798
 30
0.0
 10
108.2717718913348
 20
-134.5566446603713
 30
0.0
 10
108.0474961752451
 20
-134.7912556629168
 30
0.0
 10
107.7450167916401
 20
-134.7912556629168
 30
0.0
  0
HATCH
  5
D8
330
C7
100
AcDbEntity
  8
_U+30EC_U+30A4_U+30E4_U+30FC 1
 62
   179
420
  2234388
100
AcDbHatch
 10
0.0
 20
0.0
 30
0.0
210
0.0
220
0.0
230
1.0
  2
SOLID
 70
     1
 71
     0
 91
        1
 92
        1
 93
        1
 72
     4
 94
        3
 73
     0
 74
     1
 95
       53
 96
       49
 40
0.0
 40
0.0
 40
0.0
 40
0.0
 40
1.0
 40
1.0
 40
1.0
 40
2.0
 40
2.0
 40
2.0
 40
3.0
 40
3.0
 40
3.0
 40
4.0
 40
4.0
 40
4.0
 40
5.0
 40
5.0
 40
5.0
 40
6.0
 40
6.0
 40
6.0
 40
7.0
 40
7.0
 40
7.0
 40
8.0
 40
8.0
 40
8.0
 40
9.0
 40
9.0
 40
9.0
 40
10.0
 40
10.0
 40
10.0
 40
11.0
 40
11.0
 40
11.0
 40
12.0
 40
12.0
 40
12.0
 40
13.0
 40
13.0
 40
13.0
 40
14.0
 40
14.0
 40
14.0
 40
15.0
 40
15.0
 40
15.0
 40
16.0
 40
16.0
 40
16.0
 40
16.0
 10
107.7450167916401
 20
-134.7912556629168
 10
107.666813124125
 20
-134.7912556629168
 10
107.5651828073101
 20
-134.7743746950391
 10
107.4635524904952
 20
-134.7109849381104
 10
107.2899196780386
 20
-134.601086392131
 10
107.2689045955786
 20
-134.469828254143
 10
107.2499565704097
 20
-134.3619967654546
 10
107.2499565704097
 20
-134.3619967654546
 10
107.4718207196598
 20
-134.3619967654546
 10
107.4718207196598
 20
-134.3619967654546
 10
107.5269422474238
 20
-134.5607787749535
 10
107.6540662708295
 20
-134.5904065961267
 10
107.7470838489313
 20
-134.5904065961267
 10
107.8866102160839
 20
-134.5904065961267
 10
108.0388834365319
 20
-134.490843336603
 10
108.0388834365319
 20
-134.2582993913486
 10
108.0388834365319
 20
-134.0023287967946
 10
107.8590494522019
 20
-133.932393358444
 10
107.7384711102182
 20
-133.932393358444
 10
107.7067762317539
 20
-133.932393358444
 10
107.5651828073101
 20
-133.932393358444
 10
107.4762993437907
 20
-134.0615844391409
 10
107.4762993437907
 20
-134.0615844391409
 10
107.3009439835914
 20
-134.042636413972
 10
107.3009439835914
 20
-134.042636413972
 10
107.3009439835914
 20
-134.042636413972
 10
107.4215223255752
 20
-133.1961764532461
 10
107.4215223255752
 20
-133.1961764532461
 10
107.4215223255752
 20
-133.1961764532461
 10
108.1997693956931
 20
-133.1961764532461
 10
108.1997693956931
 20
-133.1961764532461
 10
108.1997693956931
 20
-133.1961764532461
 10
108.1997693956931
 20
-133.3908243481627
 10
108.1997693956931
 20
-133.3908243481627
 10
108.1997693956931
 20
-133.3908243481627
 10
107.584130832479
 20
-133.3908243481627
 10
107.584130832479
 20
-133.3908243481627
 10
107.584130832479
 20
-133.3908243481627
 10
107.5186740182592
 20
-133.8138820737514
 10
107.5186740182592
 20
-133.8138820737514
 10
107.5799967178967
 20
-133.7801201379959
 10
107.6626790095427
 20
-133.7398125208185
 10
107.7808457846867
 20
-133.7398125208185
 10
108.0347493219496
 20
-133.7398125208185
 10
108.2717718913348
 20
-133.9261921865705
 10
108.2717718913348
 20
-134.2393513661798
 10
108.2717718913348
 20
-134.5566446603713
 10
108.0474961752451
 20
-134.7912556629168
 10
107.7450167916401
 20
-134.7912556629168
 97
        0
 97
        0
 75
     2
 76
     1
 98
        0
  0
ENDBLK
  5
CA
330
C7
100
AcDbEntity
  8
0
100
AcDbBlockEnd
  0
BLOCK
  5
E3
330
E1
100
AcDbEntity
  8
0
100
AcDbBlockBegin
  2
block 7
 70
     0
 10
0.0
 20
0.0
 30
0.0
  3
block 7
  1

  0
SPLINE
  5
E5
330
E1
100
AcDbEntity
  8
_U+30EC_U+30A4_U+30E4_U+30FC 1
370
     0
100
AcDbSpline
210
0.0
220
0.0
230
1.0
 70
    11
 71
     3
 72
    26
 73
    22
 74
     0
 42
0.0000000001
 43
0.0000000001
 12
1.0
 22
0.0
 32
0.0
 13
1.0
 23
0.0
 33
0.0
 40
0.0
 40
0.0
 40
0.0
 40
0.0
 40
1.0
 40
1.0
 40
1.0
 40
2.0
 40
2.0
 40
2.0
 40
3.0
 40
3.0
 40
3.0
 40
4.0
 40
4.0
 40
4.0
 40
5.0
 40
5.0
 40
5.0
 40
6.0
 40
6.0
 40
6.0
 40
7.0
 40
7.0
 40
7.0
 40
7.0
 10
94.39492727674849
 20
-162.7452771945567
 30
0.0
 10
94.39492727674849
 20
-162.7452771945567
 30
0.0
 10
94.39492727674849
 20
-161.6411240915342
 30
0.0
 10
94.39492727674849
 20
-161.6411240915342
 30
0.0
 10
94.39492727674849
 20
-161.6411240915342
 30
0.0
 10
94.06488712926156
 20
-161.6411240915342
 30
0.0
 10
94.06488712926156
 20
-161.6411240915342
 30
0.0
 10
94.06488712926156
 20
-161.6411240915342
 30
0.0
 10
94.06488712926156
 20
-161.4929849856684
 30
0.0
 10
94.06488712926156
 20
-161.4929849856684
 30
0.0
 10
94.39699433403965
 20
-161.4781710750819
 30
0.0
 10
94.44350312309052
 20
-161.3152180586295
 30
0.0
 10
94.47313094426367
 20
-161.2008408885193
 30
0.0
 10
94.47313094426367
 20
-161.2008408885193
 30
0.0
 10
94.61920299283825
 20
-161.2008408885193
 30
0.0
 10
94.61920299283825
 20
-161.2008408885193
 30
0.0
 10
94.61920299283825
 20
-161.2008408885193
 30
0.0
 10
94.61920299283825
 20
-162.7452771945567
 30
0.0
 10
94.61920299283825
 20
-162.7452771945567
 30
0.0
 10
94.61920299283825
 20
-162.7452771945567
 30
0.0
 10
94.39492727674849
 20
-162.7452771945567
 30
0.0
 10
94.39492727674849
 20
-162.7452771945567
 30
0.0
  0
HATCH
  5
E6
330
E1
100
AcDbEntity
  8
_U+30EC_U+30A4_U+30E4_U+30FC 1
 62
   179
420
  2234388
100
AcDbHatch
 10
0.0
 20
0.0
 30
0.0
210
0.0
220
0.0
230
1.0
  2
SOLID
 70
     1
 71
     0
 91
        1
 92
        1
 93
        1
 72
     4
 94
        3
 73
     0
 74
     1
 95
       26
 96
       22
 40
0.0
 40
0.0
 40
0.0
 40
0.0
 40
1.0
 40
1.0
 40
1.0
 40
2.0
 40
2.0
 40
2.0
 40
3.0
 40
3.0
 40
3.0
 40
4.0
 40
4.0
 40
4.0
 40
5.0
 40
5.0
 40
5.0
 40
6.0
 40
6.0
 40
6.0
 40
7.0
 40
7.0
 40
7.0
 40
7.0
 10
94.39492727674849
 20
-162.7452771945567
 10
94.39492727674849
 20
-162.7452771945567
 10
94.39492727674849
 20
-161.6411240915342
 10
94.39492727674849
 20
-161.6411240915342
 10
94.39492727674849
 20
-161.6411240915342
 10
94.06488712926156
 20
-161.6411240915342
 10
94.06488712926156
 20
-161.6411240915342
 10
94.06488712926156
 20
-161.6411240915342
 10
94.06488712926156
 20
-161.4929849856684
 10
94.06488712926156
 20
-161.4929849856684
 10
94.39699433403965
 20
-161.4781710750819
 10
94.44350312309052
 20
-161.3152180586295
 10
94.47313094426367
 20
-161.2008408885193
 10
94.47313094426367
 20
-161.2008408885193
 10
94.61920299283825
 20
-161.2008408885193
 10
94.61920299283825
 20
-161.2008408885193
 10
94.61920299283825
 20
-161.2008408885193
 10
94.61920299283825
 20
-162.7452771945567
 10
94.61920299283825
 20
-162.7452771945567
 10
94.61920299283825
 20
-162.7452771945567
 10
94.39492727674849
 20
-162.7452771945567
 10
94.39492727674849
 20
-162.7452771945567
 97
        0
 97
        0
 75
     2
 76
     1
 98
        0
  0
SPLINE
  5
E7
330
E1
100
AcDbEntity
  8
_U+30EC_U+30A4_U+30E4_U+30FC 1
370
     0
100
AcDbSpline
210
0.0
220
0.0
230
1.0
 70
    11
 71
     3
 72
    62
 73
    58
 74
     0
 42
0.0000000001
 43
0.0000000001
 12
1.0
 22
0.0
 32
0.0
 13
1.0
 23
0.0
 33
0.0
 40
0.0
 40
0.0
 40
0.0
 40
0.0
 40
1.0
 40
1.0
 40
1.0
 40
2.0
 40
2.0
 40
2.0
 40
3.0
 40
3.0
 40
3.0
 40
4.0
 40
4.0
 40
4.0
 40
5.0
 40
5.0
 40
5.0
 40
6.0
 40
6.0
 40
6.0
 40
7.0
 40
7.0
 40
7.0
 40
8.0
 40
8.0
 40
8.0
 40
9.0
 40
9.0
 40
9.0
 40
10.0
 40
10.0
 40
10.0
 40
11.0
 40
11.0
 40
11.0
 40
12.0
 40
12.0
 40
12.0
 40
13.0
 40
13.0
 40
13.0
 40
14.0
 40
14.0
 40
14.0
 40
15.0
 40
15.0
 40
15.0
 40
16.0
 40
16.0
 40
16.0
 40
17.0
 40
17.0
 40
17.0
 40
18.0
 40
18.0
 40
18.0
 40
19.0
 40
19.0
 40
19.0
 40
19.0
 10
95.611907256913
 20
-162.7959200981899
 30
0.0
 10
95.51665036674584
 20
-162.7959200981899
 30
0.0
 10
95.29874807730378
 20
-162.7749050157299
 30
0.0
 10
95.17403562073774
 20
-162.5888698595264
 30
0.0
 10
95.09996606780487
 20
-162.4765597467073
 30
0.0
 10
95.09565969844832
 20
-162.3773409967321
 30
0.0
 10
95.09152558386602
 20
-162.2925916477949
 30
0.0
 10
95.09152558386602
 20
-162.2925916477949
 30
0.0
 10
95.31149493059921
 20
-162.2925916477949
 30
0.0
 10
95.31149493059921
 20
-162.2925916477949
 30
0.0
 10
95.31356198789037
 20
-162.3666612007278
 30
0.0
 10
95.32424178389464
 20
-162.6012722032733
 30
0.0
 10
95.60760088755644
 20
-162.6012722032733
 30
0.0
 10
95.74523245219217
 20
-162.6012722032733
 30
0.0
 10
95.89750567264021
 20
-162.5316812744713
 30
0.0
 10
95.89750567264021
 20
-162.3032714437992
 30
0.0
 10
95.89750567264021
 20
-162.1868272163977
 30
0.0
 10
95.8594373675282
 20
-162.1382513700557
 30
0.0
 10
95.82774248906391
 20
-162.1065564915914
 30
0.0
 10
95.75367293613103
 20
-162.0324869386586
 30
0.0
 10
95.63722870872958
 20
-162.0197400853631
 30
0.0
 10
95.58227943573985
 20
-162.0197400853631
 30
0.0
 10
95.56333141057098
 20
-162.0197400853631
 30
0.0
 10
95.52733016275012
 20
-162.0218071426543
 30
0.0
 10
95.49976939886811
 20
-162.0259412572366
 30
0.0
 10
95.49976939886811
 20
-162.0259412572366
 30
0.0
 10
95.49976939886811
 20
-161.83129336232
 30
0.0
 10
95.49976939886811
 20
-161.83129336232
 30
0.0
 10
95.53783770398013
 20
-161.8378390437419
 30
0.0
 10
95.5802123784487
 20
-161.8399061010331
 30
0.0
 10
95.58658580509642
 20
-161.8399061010331
 30
0.0
 10
95.65204261931616
 20
-161.8399061010331
 30
0.0
 10
95.85099688358933
 20
-161.8185465090245
 30
0.0
 10
95.85099688358933
 20
-161.5818684491879
 30
0.0
 10
95.85099688358933
 20
-161.404101522149
 30
0.0
 10
95.71973874560132
 20
-161.348979994385
 30
0.0
 10
95.60984019962184
 20
-161.348979994385
 30
0.0
 10
95.34542912112893
 20
-161.348979994385
 30
0.0
 10
95.3368163824158
 20
-161.5818684491879
 30
0.0
 10
95.3326822678335
 20
-161.6535264352811
 30
0.0
 10
95.3326822678335
 20
-161.6535264352811
 30
0.0
 10
95.12959388897802
 20
-161.6535264352811
 30
0.0
 10
95.12959388897802
 20
-161.6535264352811
 30
0.0
 10
95.13803437291689
 20
-161.528813978715
 30
0.0
 10
95.16559513679888
 20
-161.1522650421772
 30
0.0
 10
95.62241479814301
 20
-161.1522650421772
 30
0.0
 10
95.84669051423278
 20
-161.1522650421772
 30
0.0
 10
96.08784719820027
 20
-161.2793890655829
 30
0.0
 10
96.08784719820027
 20
-161.5753227677659
 30
0.0
 10
96.08784719820027
 20
-161.7617024335179
 30
0.0
 10
95.99276256280737
 20
-161.8440402156154
 30
0.0
 10
95.89319930328365
 20
-161.9053629152528
 30
0.0
 10
95.95469425769537
 20
-161.9329236791348
 30
0.0
 10
96.13659529931655
 20
-162.0131944039412
 30
0.0
 10
96.13659529931655
 20
-162.2905245905038
 30
0.0
 10
96.13659529931655
 20
-162.6288329671553
 30
0.0
 10
95.88906518870135
 20
-162.7959200981899
 30
0.0
 10
95.611907256913
 20
-162.7959200981899
 30
0.0
  0
HATCH
  5
E8
330
E1
100
AcDbEntity
  8
_U+30EC_U+30A4_U+30E4_U+30FC 1
 62
   179
420
  2234388
100
AcDbHatch
 10
0.0
 20
0.0
 30
0.0
210
0.0
220
0.0
230
1.0
  2
SOLID
 70
     1
 71
     0
 91
        1
 92
        1
 93
        1
 72
     4
 94
        3
 73
     0
 74
     1
 95
       62
 96
       58
 40
0.0
 40
0.0
 40
0.0
 40
0.0
 40
1.0
 40
1.0
 40
1.0
 40
2.0
 40
2.0
 40
2.0
 40
3.0
 40
3.0
 40
3.0
 40
4.0
 40
4.0
 40
4.0
 40
5.0
 40
5.0
 40
5.0
 40
6.0
 40
6.0
 40
6.0
 40
7.0
 40
7.0
 40
7.0
 40
8.0
 40
8.0
 40
8.0
 40
9.0
 40
9.0
 40
9.0
 40
10.0
 40
10.0
 40
10.0
 40
11.0
 40
11.0
 40
11.0
 40
12.0
 40
12.0
 40
12.0
 40
13.0
 40
13.0
 40
13.0
 40
14.0
 40
14.0
 40
14.0
 40
15.0
 40
15.0
 40
15.0
 40
16.0
 40
16.0
 40
16.0
 40
17.0
 40
17.0
 40
17.0
 40
18.0
 40
18.0
 40
18.0
 40
19.0
 40
19.0
 40
19.0
 40
19.0
 10
95.611907256913
 20
-162.7959200981899
 10
95.51665036674584
 20
-162.7959200981899
 10
95.29874807730378
 20
-162.7749050157299
 10
95.17403562073774
 20
-162.5888698595264
 10
95.09996606780487
 20
-162.4765597467073
 10
95.09565969844832
 20
-162.3773409967321
 10
95.09152558386602
 20
-162.2925916477949
 10
95.09152558386602
 20
-162.2925916477949
 10
95.31149493059921
 20
-162.2925916477949
 10
95.31149493059921
 20
-162.2925916477949
 10
95.31356198789037
 20
-162.3666612007278
 10
95.32424178389464
 20
-162.6012722032733
 10
95.60760088755644
 20
-162.6012722032733
 10
95.74523245219217
 20
-162.6012722032733
 10
95.89750567264021
 20
-162.5316812744713
 10
95.89750567264021
 20
-162.3032714437992
 10
95.89750567264021
 20
-162.1868272163977
 10
95.8594373675282
 20
-162.1382513700557
 10
95.82774248906391
 20
-162.1065564915914
 10
95.75367293613103
 20
-162.0324869386586
 10
95.63722870872958
 20
-162.0197400853631
 10
95.58227943573985
 20
-162.0197400853631
 10
95.56333141057098
 20
-162.0197400853631
 10
95.52733016275012
 20
-162.0218071426543
 10
95.49976939886811
 20
-162.0259412572366
 10
95.49976939886811
 20
-162.0259412572366
 10
95.49976939886811
 20
-161.83129336232
 10
95.49976939886811
 20
-161.83129336232
 10
95.53783770398013
 20
-161.8378390437419
 10
95.5802123784487
 20
-161.8399061010331
 10
95.58658580509642
 20
-161.8399061010331
 10
95.65204261931616
 20
-161.8399061010331
 10
95.85099688358933
 20
-161.8185465090245
 10
95.85099688358933
 20
-161.5818684491879
 10
95.85099688358933
 20
-161.404101522149
 10
95.71973874560132
 20
-161.348979994385
 10
95.60984019962184
 20
-161.348979994385
 10
95.34542912112893
 20
-161.348979994385
 10
95.3368163824158
 20
-161.5818684491879
 10
95.3326822678335
 20
-161.6535264352811
 10
95.3326822678335
 20
-161.6535264352811
 10
95.12959388897802
 20
-161.6535264352811
 10
95.12959388897802
 20
-161.6535264352811
 10
95.13803437291689
 20
-161.528813978715
 10
95.16559513679888
 20
-161.1522650421772
 10
95.62241479814301
 20
-161.1522650421772
 10
95.84669051423278
 20
-161.1522650421772
 10
96.08784719820027
 20
-161.2793890655829
 10
96.08784719820027
 20
-161.5753227677659
 10
96.08784719820027
 20
-161.7617024335179
 10
95.99276256280737
 20
-161.8440402156154
 10
95.89319930328365
 20
-161.9053629152528
 10
95.95469425769537
 20
-161.9329236791348
 10
96.13659529931655
 20
-162.0131944039412
 10
96.13659529931655
 20
-162.2905245905038
 10
96.13659529931655
 20
-162.6288329671553
 10
95.88906518870135
 20
-162.7959200981899
 10
95.611907256913
 20
-162.7959200981899
 97
        0
 97
        0
 75
     2
 76
     1
 98
        0
  0
ENDBLK
  5
E4
330
E1
100
AcDbEntity
  8
0
100
AcDbBlockEnd
  0
BLOCK
  5
F7
330
F5
100
AcDbEntity
  8
0
100
AcDbBlockBegin
  2
block 8
 70
     0
 10
0.0
 20
0.0
 30
0.0
  3
block 8
  1

  0
SPLINE
  5
F9
330
F5
100
AcDbEntity
  8
_U+30EC_U+30A4_U+30E4_U+30FC 1
370
     0
100
AcDbSpline
210
0.0
220
0.0
230
1.0
 70
    11
 71
     3
 72
    74
 73
    70
 74
     0
 42
0.0000000001
 43
0.0000000001
 12
1.0
 22
0.0
 32
0.0
 13
1.0
 23
0.0
 33
0.0
 40
0.0
 40
0.0
 40
0.0
 40
0.0
 40
1.0
 40
1.0
 40
1.0
 40
2.0
 40
2.0
 40
2.0
 40
3.0
 40
3.0
 40
3.0
 40
4.0
 40
4.0
 40
4.0
 40
5.0
 40
5.0
 40
5.0
 40
6.0
 40
6.0
 40
6.0
 40
7.0
 40
7.0
 40
7.0
 40
8.0
 40
8.0
 40
8.0
 40
9.0
 40
9.0
 40
9.0
 40
10.0
 40
10.0
 40
10.0
 40
11.0
 40
11.0
 40
11.0
 40
12.0
 40
12.0
 40
12.0
 40
13.0
 40
13.0
 40
13.0
 40
14.0
 40
14.0
 40
14.0
 40
15.0
 40
15.0
 40
15.0
 40
16.0
 40
16.0
 40
16.0
 40
17.0
 40
17.0
 40
17.0
 40
18.0
 40
18.0
 40
18.0
 40
19.0
 40
19.0
 40
19.0
 40
20.0
 40
20.0
 40
20.0
 40
21.0
 40
21.0
 40
21.0
 40
22.0
 40
22.0
 40
22.0
 40
23.0
 40
23.0
 40
23.0
 40
23.0
 10
115.9536458043449
 20
-143.7185315938447
 30
0.0
 10
115.3486870371351
 20
-143.7185315938447
 30
0.0
 10
115.2787515987845
 20
-143.6107001051564
 30
0.0
 10
115.2787515987845
 20
-143.2892726963825
 30
0.0
 10
115.2787515987845
 20
-143.2892726963825
 30
0.0
 10
115.2787515987845
 20
-142.6526190507084
 30
0.0
 10
115.2787515987845
 20
-142.6526190507084
 30
0.0
 10
115.2787515987845
 20
-142.5044799448426
 30
0.0
 10
115.2787515987845
 20
-142.3201673363818
 30
0.0
 10
115.2763400319448
 20
-142.20613467582
 30
0.0
 10
115.2742729746537
 20
-142.1406778616003
 30
0.0
 10
115.2722059173625
 20
-142.1131170977183
 30
0.0
 10
115.2680718027802
 20
-142.0707424232497
 30
0.0
 10
115.2680718027802
 20
-142.0707424232497
 30
0.0
 10
115.519908282752
 20
-142.1172512123005
 30
0.0
 10
115.519908282752
 20
-142.1172512123005
 30
0.0
 10
115.5516031612163
 20
-142.123452384174
 30
0.0
 10
115.5705511863851
 20
-142.1258639510137
 30
0.0
 10
115.5705511863851
 20
-142.1551472626383
 30
0.0
 10
115.5705511863851
 20
-142.1678941159337
 30
0.0
 10
115.5643500145117
 20
-142.1806409692292
 30
0.0
 10
115.5581488426382
 20
-142.1892537079423
 30
0.0
 10
115.5347221933386
 20
-142.2168144718243
 30
0.0
 10
115.5305880787563
 20
-142.2209485864066
 30
0.0
 10
115.5154296586211
 20
-142.2464422929974
 30
0.0
 10
115.5092284867477
 20
-142.3267130178037
 30
0.0
 10
115.49234751887
 20
-142.5954304656532
 30
0.0
 10
115.4902804615788
 20
-142.6629543371641
 30
0.0
 10
115.4902804615788
 20
-142.6629543371641
 30
0.0
 10
115.4878688947392
 20
-142.7477036861013
 30
0.0
 10
115.4878688947392
 20
-142.7477036861013
 30
0.0
 10
115.6129258608537
 20
-142.7456366288101
 30
0.0
 10
116.1524278138438
 20
-142.6102443762398
 30
0.0
 10
116.4569742547399
 20
-142.4366115637832
 30
0.0
 10
116.4569742547399
 20
-142.4366115637832
 30
0.0
 10
116.5796196540148
 20
-142.6502074838687
 30
0.0
 10
116.5796196540148
 20
-142.6502074838687
 30
0.0
 10
116.5840982781456
 20
-142.6567531652907
 30
0.0
 10
116.5923665073102
 20
-142.6736341331684
 30
0.0
 10
116.5923665073102
 20
-142.6843139291727
 30
0.0
 10
116.5923665073102
 20
-142.6946492156284
 30
0.0
 10
116.5840982781456
 20
-142.7053290116327
 30
0.0
 10
116.5586045715548
 20
-142.7053290116327
 30
0.0
 10
116.5458577182594
 20
-142.7053290116327
 30
0.0
 10
116.5351779222551
 20
-142.7053290116327
 30
0.0
 10
116.5076171583731
 20
-142.6843139291727
 30
0.0
 10
116.1227999926707
 20
-142.813160500321
 30
0.0
 10
115.9998100838473
 20
-142.8469224360765
 30
0.0
 10
115.8520154875301
 20
-142.8765502572496
 30
0.0
 10
115.7290255787066
 20
-142.9020439638405
 30
0.0
 10
115.5622829572205
 20
-142.9316717850136
 30
0.0
 10
115.4878688947392
 20
-142.9337388423048
 30
0.0
 10
115.4878688947392
 20
-142.9337388423048
 30
0.0
 10
115.4878688947392
 20
-143.2785929003783
 30
0.0
 10
115.4878688947392
 20
-143.2785929003783
 30
0.0
 10
115.4878688947392
 20
-143.3061536642603
 30
0.0
 10
115.4878688947392
 20
-143.4225978916617
 30
0.0
 10
115.540923365212
 20
-143.4625609992906
 30
0.0
 10
115.6298068287314
 20
-143.53042938035
 30
0.0
 10
115.8330674623612
 20
-143.5411091763543
 30
0.0
 10
115.9471001229229
 20
-143.5411091763543
 30
0.0
 10
116.1183213685399
 20
-143.5411091763543
 30
0.0
 10
116.4569742547399
 20
-143.4987345018857
 30
0.0
 10
116.6113145324791
 20
-143.4374118022483
 30
0.0
 10
116.6113145324791
 20
-143.4374118022483
 30
0.0
 10
116.6137260993188
 20
-143.6699557475027
 30
0.0
 10
116.6137260993188
 20
-143.6699557475027
 30
0.0
 10
116.3935844978113
 20
-143.7016506259669
 30
0.0
 10
116.1734428963039
 20
-143.7185315938447
 30
0.0
 10
115.9536458043449
 20
-143.7185315938447
 30
0.0
  0
SPLINE
  5
FA
330
F5
100
AcDbEntity
  8
_U+30EC_U+30A4_U+30E4_U+30FC 1
370
     0
100
AcDbSpline
210
0.0
220
0.0
230
1.0
 70
    11
 71
     3
 72
    17
 73
    13
 74
     0
 42
0.0000000001
 43
0.0000000001
 12
1.0
 22
0.0
 32
0.0
 13
1.0
 23
0.0
 33
0.0
 40
0.0
 40
0.0
 40
0.0
 40
0.0
 40
1.0
 40
1.0
 40
1.0
 40
2.0
 40
2.0
 40
2.0
 40
3.0
 40
3.0
 40
3.0
 40
4.0
 40
4.0
 40
4.0
 40
4.0
 10
116.5499918328417
 20
-142.3670206349812
 30
0.0
 10
116.4972818719174
 20
-142.2970851966306
 30
0.0
 10
116.3767035299336
 20
-142.2082017331111
 30
0.0
 10
116.2960882955788
 20
-142.1723727400646
 30
0.0
 10
116.2960882955788
 20
-142.1723727400646
 30
0.0
 10
116.3891058736805
 20
-142.053861455372
 30
0.0
 10
116.3891058736805
 20
-142.053861455372
 30
0.0
 10
116.4804009040396
 20
-142.0876233911274
 30
0.0
 10
116.5840982781456
 20
-142.1699611732249
 30
0.0
 10
116.6495550923654
 20
-142.2440307261577
 30
0.0
 10
116.6495550923654
 20
-142.2440307261577
 30
0.0
 10
116.5499918328417
 20
-142.3670206349812
 30
0.0
 10
116.5499918328417
 20
-142.3670206349812
 30
0.0
  0
SPLINE
  5
FB
330
F5
100
AcDbEntity
  8
_U+30EC_U+30A4_U+30E4_U+30FC 1
370
     0
100
AcDbSpline
210
0.0
220
0.0
230
1.0
 70
    11
 71
     3
 72
    17
 73
    13
 74
     0
 42
0.0000000001
 43
0.0000000001
 12
1.0
 22
0.0
 32
0.0
 13
1.0
 23
0.0
 33
0.0
 40
0.0
 40
0.0
 40
0.0
 40
0.0
 40
1.0
 40
1.0
 40
1.0
 40
2.0
 40
2.0
 40
2.0
 40
3.0
 40
3.0
 40
3.0
 40
4.0
 40
4.0
 40
4.0
 40
4.0
 10
116.8207763379823
 20
-142.1913207652334
 30
0.0
 10
116.7150119065851
 20
-142.0962361298405
 30
0.0
 10
116.7108777920028
 20
-142.0962361298405
 30
0.0
 10
116.560671628846
 20
-142.0008069848991
 30
0.0
 10
116.560671628846
 20
-142.0008069848991
 30
0.0
 10
116.6623019456608
 20
-141.8822957002065
 30
0.0
 10
116.6623019456608
 20
-141.8822957002065
 30
0.0
 10
116.761520695636
 20
-141.9267374319662
 30
0.0
 10
116.8273220194043
 20
-141.9756577878568
 30
0.0
 10
116.9182725402149
 20
-142.074876537832
 30
0.0
 10
116.9182725402149
 20
-142.074876537832
 30
0.0
 10
116.8207763379823
 20
-142.1913207652334
 30
0.0
 10
116.8207763379823
 20
-142.1913207652334
 30
0.0
  0
HATCH
  5
FC
330
F5
100
AcDbEntity
  8
_U+30EC_U+30A4_U+30E4_U+30FC 1
 62
   179
420
  2234388
100
AcDbHatch
 10
0.0
 20
0.0
 30
0.0
210
0.0
220
0.0
230
1.0
  2
SOLID
 70
     1
 71
     0
 91
        3
 92
        1
 93
        1
 72
     4
 94
        3
 73
     0
 74
     1
 95
       74
 96
       70
 40
0.0
 40
0.0
 40
0.0
 40
0.0
 40
1.0
 40
1.0
 40
1.0
 40
2.0
 40
2.0
 40
2.0
 40
3.0
 40
3.0
 40
3.0
 40
4.0
 40
4.0
 40
4.0
 40
5.0
 40
5.0
 40
5.0
 40
6.0
 40
6.0
 40
6.0
 40
7.0
 40
7.0
 40
7.0
 40
8.0
 40
8.0
 40
8.0
 40
9.0
 40
9.0
 40
9.0
 40
10.0
 40
10.0
 40
10.0
 40
11.0
 40
11.0
 40
11.0
 40
12.0
 40
12.0
 40
12.0
 40
13.0
 40
13.0
 40
13.0
 40
14.0
 40
14.0
 40
14.0
 40
15.0
 40
15.0
 40
15.0
 40
16.0
 40
16.0
 40
16.0
 40
17.0
 40
17.0
 40
17.0
 40
18.0
 40
18.0
 40
18.0
 40
19.0
 40
19.0
 40
19.0
 40
20.0
 40
20.0
 40
20.0
 40
21.0
 40
21.0
 40
21.0
 40
22.0
 40
22.0
 40
22.0
 40
23.0
 40
23.0
 40
23.0
 40
23.0
 10
115.9536458043449
 20
-143.7185315938447
 10
115.3486870371351
 20
-143.7185315938447
 10
115.2787515987845
 20
-143.6107001051564
 10
115.2787515987845
 20
-143.2892726963825
 10
115.2787515987845
 20
-143.2892726963825
 10
115.2787515987845
 20
-142.6526190507084
 10
115.2787515987845
 20
-142.6526190507084
 10
115.2787515987845
 20
-142.5044799448426
 10
115.2787515987845
 20
-142.3201673363818
 10
115.2763400319448
 20
-142.20613467582
 10
115.2742729746537
 20
-142.1406778616003
 10
115.2722059173625
 20
-142.1131170977183
 10
115.2680718027802
 20
-142.0707424232497
 10
115.2680718027802
 20
-142.0707424232497
 10
115.519908282752
 20
-142.1172512123005
 10
115.519908282752
 20
-142.1172512123005
 10
115.5516031612163
 20
-142.123452384174
 10
115.5705511863851
 20
-142.1258639510137
 10
115.5705511863851
 20
-142.1551472626383
 10
115.5705511863851
 20
-142.1678941159337
 10
115.5643500145117
 20
-142.1806409692292
 10
115.5581488426382
 20
-142.1892537079423
 10
115.5347221933386
 20
-142.2168144718243
 10
115.5305880787563
 20
-142.2209485864066
 10
115.5154296586211
 20
-142.2464422929974
 10
115.5092284867477
 20
-142.3267130178037
 10
115.49234751887
 20
-142.5954304656532
 10
115.4902804615788
 20
-142.6629543371641
 10
115.4902804615788
 20
-142.6629543371641
 10
115.4878688947392
 20
-142.7477036861013
 10
115.4878688947392
 20
-142.7477036861013
 10
115.6129258608537
 20
-142.7456366288101
 10
116.1524278138438
 20
-142.6102443762398
 10
116.4569742547399
 20
-142.4366115637832
 10
116.4569742547399
 20
-142.4366115637832
 10
116.5796196540148
 20
-142.6502074838687
 10
116.5796196540148
 20
-142.6502074838687
 10
116.5840982781456
 20
-142.6567531652907
 10
116.5923665073102
 20
-142.6736341331684
 10
116.5923665073102
 20
-142.6843139291727
 10
116.5923665073102
 20
-142.6946492156284
 10
116.5840982781456
 20
-142.7053290116327
 10
116.5586045715548
 20
-142.7053290116327
 10
116.5458577182594
 20
-142.7053290116327
 10
116.5351779222551
 20
-142.7053290116327
 10
116.5076171583731
 20
-142.6843139291727
 10
116.1227999926707
 20
-142.813160500321
 10
115.9998100838473
 20
-142.8469224360765
 10
115.8520154875301
 20
-142.8765502572496
 10
115.7290255787066
 20
-142.9020439638405
 10
115.5622829572205
 20
-142.9316717850136
 10
115.4878688947392
 20
-142.9337388423048
 10
115.4878688947392
 20
-142.9337388423048
 10
115.4878688947392
 20
-143.2785929003783
 10
115.4878688947392
 20
-143.2785929003783
 10
115.4878688947392
 20
-143.3061536642603
 10
115.4878688947392
 20
-143.4225978916617
 10
115.540923365212
 20
-143.4625609992906
 10
115.6298068287314
 20
-143.53042938035
 10
115.8330674623612
 20
-143.5411091763543
 10
115.9471001229229
 20
-143.5411091763543
 10
116.1183213685399
 20
-143.5411091763543
 10
116.4569742547399
 20
-143.4987345018857
 10
116.6113145324791
 20
-143.4374118022483
 10
116.6113145324791
 20
-143.4374118022483
 10
116.6137260993188
 20
-143.6699557475027
 10
116.6137260993188
 20
-143.6699557475027
 10
116.3935844978113
 20
-143.7016506259669
 10
116.1734428963039
 20
-143.7185315938447
 10
115.9536458043449
 20
-143.7185315938447
 97
        0
 97
        0
 92
        1
 93
        1
 72
     4
 94
        3
 73
     0
 74
     1
 95
       17
 96
       13
 40
0.0
 40
0.0
 40
0.0
 40
0.0
 40
1.0
 40
1.0
 40
1.0
 40
2.0
 40
2.0
 40
2.0
 40
3.0
 40
3.0
 40
3.0
 40
4.0
 40
4.0
 40
4.0
 40
4.0
 10
116.5499918328417
 20
-142.3670206349812
 10
116.4972818719174
 20
-142.2970851966306
 10
116.3767035299336
 20
-142.2082017331111
 10
116.2960882955788
 20
-142.1723727400646
 10
116.2960882955788
 20
-142.1723727400646
 10
116.3891058736805
 20
-142.053861455372
 10
116.3891058736805
 20
-142.053861455372
 10
116.4804009040396
 20
-142.0876233911274
 10
116.5840982781456
 20
-142.1699611732249
 10
116.6495550923654
 20
-142.2440307261577
 10
116.6495550923654
 20
-142.2440307261577
 10
116.5499918328417
 20
-142.3670206349812
 10
116.5499918328417
 20
-142.3670206349812
 97
        0
 97
        0
 92
        1
 93
        1
 72
     4
 94
        3
 73
     0
 74
     1
 95
       17
 96
       13
 40
0.0
 40
0.0
 40
0.0
 40
0.0
 40
1.0
 40
1.0
 40
1.0
 40
2.0
 40
2.0
 40
2.0
 40
3.0
 40
3.0
 40
3.0
 40
4.0
 40
4.0
 40
4.0
 40
4.0
 10
116.8207763379823
 20
-142.1913207652334
 10
116.7150119065851
 20
-142.0962361298405
 10
116.7108777920028
 20
-142.0962361298405
 10
116.560671628846
 20
-142.0008069848991
 10
116.560671628846
 20
-142.0008069848991
 10
116.6623019456608
 20
-141.8822957002065
 10
116.6623019456608
 20
-141.8822957002065
 10
116.761520695636
 20
-141.9267374319662
 10
116.8273220194043
 20
-141.9756577878568
 10
116.9182725402149
 20
-142.074876537832
 10
116.9182725402149
 20
-142.074876537832
 10
116.8207763379823
 20
-142.1913207652334
 10
116.8207763379823
 20
-142.1913207652334
 97
        0
 97
        0
 75
     2
 76
     1
 98
        0
  0
ENDBLK
  5
F8
330
F5
100
AcDbEntity
  8
0
100
AcDbBlockEnd
  0
BLOCK
  5
FF
330
FD
100
AcDbEntity
  8
0
100
AcDbBlockBegin
  2
block 9
 70
     0
 10
0.0
 20
0.0
 30
0.0
  3
block 9
  1

  0
SPLINE
  5
101
330
FD
100
AcDbEntity
  8
_U+30EC_U+30A4_U+30E4_U+30FC 1
370
     0
100
AcDbSpline
210
0.0
220
0.0
230
1.0
 70
    11
 71
     3
 72
    56
 73
    52
 74
     0
 42
0.0000000001
 43
0.0000000001
 12
1.0
 22
0.0
 32
0.0
 13
1.0
 23
0.0
 33
0.0
 40
0.0
 40
0.0
 40
0.0
 40
0.0
 40
1.0
 40
1.0
 40
1.0
 40
2.0
 40
2.0
 40
2.0
 40
3.0
 40
3.0
 40
3.0
 40
4.0
 40
4.0
 40
4.0
 40
5.0
 40
5.0
 40
5.0
 40
6.0
 40
6.0
 40
6.0
 40
7.0
 40
7.0
 40
7.0
 40
8.0
 40
8.0
 40
8.0
 40
9.0
 40
9.0
 40
9.0
 40
10.0
 40
10.0
 40
10.0
 40
11.0
 40
11.0
 40
11.0
 40
12.0
 40
12.0
 40
12.0
 40
13.0
 40
13.0
 40
13.0
 40
14.0
 40
14.0
 40
14.0
 40
15.0
 40
15.0
 40
15.0
 40
16.0
 40
16.0
 40
16.0
 40
17.0
 40
17.0
 40
17.0
 40
17.0
 10
116.6685031175343
 20
-146.2120917060685
 30
0.0
 10
116.4759222799088
 20
-145.9034111505901
 30
0.0
 10
116.2182291376121
 20
-145.6980834596692
 30
0.0
 10
116.1272786168015
 20
-145.6326266454495
 30
0.0
 10
115.8330674623612
 20
-145.970935022101
 30
0.0
 10
115.5429904225032
 20
-146.1232082425491
 30
0.0
 10
115.3442084130042
 20
-146.2165703301993
 30
0.0
 10
115.3442084130042
 20
-146.2165703301993
 30
0.0
 10
115.1853895111342
 20
-146.0281236071562
 30
0.0
 10
115.1853895111342
 20
-146.0281236071562
 30
0.0
 10
115.2894313947888
 20
-145.9922946141096
 30
0.0
 10
115.5030273148742
 20
-145.9161580038856
 30
0.0
 10
115.7355712601286
 20
-145.7297783381335
 30
0.0
 10
116.0001545933958
 20
-145.5182494753392
 30
0.0
 10
116.1861897495993
 20
-145.2305840023208
 30
0.0
 10
116.3091796584227
 20
-144.9174248227116
 30
0.0
 10
116.3091796584227
 20
-144.9174248227116
 30
0.0
 10
115.9322862123364
 20
-144.9174248227116
 30
0.0
 10
115.9322862123364
 20
-144.9174248227116
 30
0.0
 10
115.7800129918883
 20
-144.9174248227116
 30
0.0
 10
115.5705511863851
 20
-144.9219034468424
 30
0.0
 10
115.4203450232283
 20
-144.9408514720113
 30
0.0
 10
115.4203450232283
 20
-144.9408514720113
 30
0.0
 10
115.4203450232283
 20
-144.729322609217
 30
0.0
 10
115.4203450232283
 20
-144.729322609217
 30
0.0
 10
115.4882134042877
 20
-144.7355237810904
 30
0.0
 10
115.748318113424
 20
-144.7462035770947
 30
0.0
 10
115.8351345196523
 20
-144.7462035770947
 30
0.0
 10
115.8351345196523
 20
-144.7462035770947
 30
0.0
 10
116.1458821324219
 20
-144.7462035770947
 30
0.0
 10
116.1458821324219
 20
-144.7462035770947
 30
0.0
 10
116.3532768806339
 20
-144.7462035770947
 30
0.0
 10
116.3767035299336
 20
-144.7396578956727
 30
0.0
 10
116.4001301792333
 20
-144.7355237810904
 30
0.0
 10
116.4442274014445
 20
-144.729322609217
 30
0.0
 10
116.4824679613308
 20
-144.7038289026261
 30
0.0
 10
116.5034830437908
 20
-144.6869479347484
 30
0.0
 10
116.5034830437908
 20
-144.6869479347484
 30
0.0
 10
116.6602348883697
 20
-144.8602362376565
 30
0.0
 10
116.6602348883697
 20
-144.8602362376565
 30
0.0
 10
116.6199272711922
 20
-144.8877970015385
 30
0.0
 10
116.6071804178968
 20
-144.8984767975427
 30
0.0
 10
116.5586045715548
 20
-144.9343057905893
 30
0.0
 10
116.4294134908579
 20
-145.1820081559788
 30
0.0
 10
116.3491427660516
 20
-145.3322143191357
 30
0.0
 10
116.2454453919456
 20
-145.4782863677103
 30
0.0
 10
116.5586045715548
 20
-145.6960164023781
 30
0.0
 10
116.7870144022269
 20
-145.9816148181053
 30
0.0
 10
116.8400688726997
 20
-146.0598184856205
 30
0.0
 10
116.8400688726997
 20
-146.0598184856205
 30
0.0
 10
116.6685031175343
 20
-146.2120917060685
 30
0.0
 10
116.6685031175343
 20
-146.2120917060685
 30
0.0
  0
HATCH
  5
102
330
FD
100
AcDbEntity
  8
_U+30EC_U+30A4_U+30E4_U+30FC 1
 62
   179
420
  2234388
100
AcDbHatch
 10
0.0
 20
0.0
 30
0.0
210
0.0
220
0.0
230
1.0
  2
SOLID
 70
     1
 71
     0
 91
        1
 92
        1
 93
        1
 72
     4
 94
        3
 73
     0
 74
     1
 95
       56
 96
       52
 40
0.0
 40
0.0
 40
0.0
 40
0.0
 40
1.0
 40
1.0
 40
1.0
 40
2.0
 40
2.0
 40
2.0
 40
3.0
 40
3.0
 40
3.0
 40
4.0
 40
4.0
 40
4.0
 40
5.0
 40
5.0
 40
5.0
 40
6.0
 40
6.0
 40
6.0
 40
7.0
 40
7.0
 40
7.0
 40
8.0
 40
8.0
 40
8.0
 40
9.0
 40
9.0
 40
9.0
 40
10.0
 40
10.0
 40
10.0
 40
11.0
 40
11.0
 40
11.0
 40
12.0
 40
12.0
 40
12.0
 40
13.0
 40
13.0
 40
13.0
 40
14.0
 40
14.0
 40
14.0
 40
15.0
 40
15.0
 40
15.0
 40
16.0
 40
16.0
 40
16.0
 40
17.0
 40
17.0
 40
17.0
 40
17.0
 10
116.6685031175343
 20
-146.2120917060685
 10
116.4759222799088
 20
-145.9034111505901
 10
116.2182291376121
 20
-145.6980834596692
 10
116.1272786168015
 20
-145.6326266454495
 10
115.8330674623612
 20
-145.970935022101
 10
115.5429904225032
 20
-146.1232082425491
 10
115.3442084130042
 20
-146.2165703301993
 10
115.3442084130042
 20
-146.2165703301993
 10
115.1853895111342
 20
-146.0281236071562
 10
115.1853895111342
 20
-146.0281236071562
 10
115.2894313947888
 20
-145.9922946141096
 10
115.5030273148742
 20
-145.9161580038856
 10
115.7355712601286
 20
-145.7297783381335
 10
116.0001545933958
 20
-145.5182494753392
 10
116.1861897495993
 20
-145.2305840023208
 10
116.3091796584227
 20
-144.9174248227116
 10
116.3091796584227
 20
-144.9174248227116
 10
115.9322862123364
 20
-144.9174248227116
 10
115.9322862123364
 20
-144.9174248227116
 10
115.7800129918883
 20
-144.9174248227116
 10
115.5705511863851
 20
-144.9219034468424
 10
115.4203450232283
 20
-144.9408514720113
 10
115.4203450232283
 20
-144.9408514720113
 10
115.4203450232283
 20
-144.729322609217
 10
115.4203450232283
 20
-144.729322609217
 10
115.4882134042877
 20
-144.7355237810904
 10
115.748318113424
 20
-144.7462035770947
 10
115.8351345196523
 20
-144.7462035770947
 10
115.8351345196523
 20
-144.7462035770947
 10
116.1458821324219
 20
-144.7462035770947
 10
116.1458821324219
 20
-144.7462035770947
 10
116.3532768806339
 20
-144.7462035770947
 10
116.3767035299336
 20
-144.7396578956727
 10
116.4001301792333
 20
-144.7355237810904
 10
116.4442274014445
 20
-144.729322609217
 10
116.4824679613308
 20
-144.7038289026261
 10
116.5034830437908
 20
-144.6869479347484
 10
116.5034830437908
 20
-144.6869479347484
 10
116.6602348883697
 20
-144.8602362376565
 10
116.6602348883697
 20
-144.8602362376565
 10
116.6199272711922
 20
-144.8877970015385
 10
116.6071804178968
 20
-144.8984767975427
 10
116.5586045715548
 20
-144.9343057905893
 10
116.4294134908579
 20
-145.1820081559788
 10
116.3491427660516
 20
-145.3322143191357
 10
116.2454453919456
 20
-145.4782863677103
 10
116.5586045715548
 20
-145.6960164023781
 10
116.7870144022269
 20
-145.9816148181053
 10
116.8400688726997
 20
-146.0598184856205
 10
116.8400688726997
 20
-146.0598184856205
 10
116.6685031175343
 20
-146.2120917060685
 10
116.6685031175343
 20
-146.2120917060685
 97
        0
 97
        0
 75
     2
 76
     1
 98
        0
  0
ENDBLK
  5
100
330
FD
100
AcDbEntity
  8
0
100
AcDbBlockEnd
  0
BLOCK
  5
105
330
103
100
AcDbEntity
  8
0
100
AcDbBlockBegin
  2
block 10
 70
     0
 10
0.0
 20
0.0
 30
0.0
  3
block 10
  1

  0
SPLINE
  5
107
330
103
100
AcDbEntity
  8
_U+30EC_U+30A4_U+30E4_U+30FC 1
370
     0
100
AcDbSpline
210
0.0
220
0.0
230
1.0
 70
    11
 71
     3
 72
    26
 73
    22
 74
     0
 42
0.0000000001
 43
0.0000000001
 12
1.0
 22
0.0
 32
0.0
 13
1.0
 23
0.0
 33
0.0
 40
0.0
 40
0.0
 40
0.0
 40
0.0
 40
1.0
 40
1.0
 40
1.0
 40
2.0
 40
2.0
 40
2.0
 40
3.0
 40
3.0
 40
3.0
 40
4.0
 40
4.0
 40
4.0
 40
5.0
 40
5.0
 40
5.0
 40
6.0
 40
6.0
 40
6.0
 40
7.0
 40
7.0
 40
7.0
 40
7.0
 10
115.8606282262432
 20
-148.0097425302719
 30
0.0
 10
115.858561168952
 20
-148.011809587563
 30
0.0
 10
115.8244547236481
 20
-148.018355268985
 30
0.0
 10
115.8223876663569
 20
-148.018355268985
 30
0.0
 10
115.7400498842594
 20
-148.3480509069234
 30
0.0
 10
115.5643500145117
 20
-148.7521606073432
 30
0.0
 10
115.2511908349025
 20
-148.938368018321
 30
0.0
 10
115.2511908349025
 20
-148.938368018321
 30
0.0
 10
115.0648111691505
 20
-148.7862670526472
 30
0.0
 10
115.0648111691505
 20
-148.7862670526472
 30
0.0
 10
115.5305880787563
 20
-148.5575127124266
 30
0.0
 10
115.6108588035626
 20
-148.0245564408584
 30
0.0
 10
115.6384195674446
 20
-147.8405883419461
 30
0.0
 10
115.6384195674446
 20
-147.8405883419461
 30
0.0
 10
115.8564941116609
 20
-147.9398070919213
 30
0.0
 10
115.8564941116609
 20
-147.9398070919213
 30
0.0
 10
115.8771646845724
 20
-147.9504868879256
 30
0.0
 10
115.8902560474163
 20
-147.9590996266387
 30
0.0
 10
115.8902560474163
 20
-147.9780476518076
 30
0.0
 10
115.8902560474163
 20
-148.0035413583984
 30
0.0
 10
115.8709635126989
 20
-148.0076754729807
 30
0.0
 10
115.8606282262432
 20
-148.0097425302719
 30
0.0
  0
SPLINE
  5
108
330
103
100
AcDbEntity
  8
_U+30EC_U+30A4_U+30E4_U+30FC 1
370
     0
100
AcDbSpline
210
0.0
220
0.0
230
1.0
 70
    11
 71
     3
 72
    68
 73
    64
 74
     0
 42
0.0000000001
 43
0.0000000001
 12
1.0
 22
0.0
 32
0.0
 13
1.0
 23
0.0
 33
0.0
 40
0.0
 40
0.0
 40
0.0
 40
0.0
 40
1.0
 40
1.0
 40
1.0
 40
2.0
 40
2.0
 40
2.0
 40
3.0
 40
3.0
 40
3.0
 40
4.0
 40
4.0
 40
4.0
 40
5.0
 40
5.0
 40
5.0
 40
6.0
 40
6.0
 40
6.0
 40
7.0
 40
7.0
 40
7.0
 40
8.0
 40
8.0
 40
8.0
 40
9.0
 40
9.0
 40
9.0
 40
10.0
 40
10.0
 40
10.0
 40
11.0
 40
11.0
 40
11.0
 40
12.0
 40
12.0
 40
12.0
 40
13.0
 40
13.0
 40
13.0
 40
14.0
 40
14.0
 40
14.0
 40
15.0
 40
15.0
 40
15.0
 40
16.0
 40
16.0
 40
16.0
 40
17.0
 40
17.0
 40
17.0
 40
18.0
 40
18.0
 40
18.0
 40
19.0
 40
19.0
 40
19.0
 40
20.0
 40
20.0
 40
20.0
 40
21.0
 40
21.0
 40
21.0
 40
21.0
 10
116.691929766834
 20
-147.7961466101864
 30
0.0
 10
116.6939968241251
 20
-147.7727199608867
 30
0.0
 10
116.7001979959986
 20
-147.7072631466669
 30
0.0
 10
116.7001979959986
 20
-147.6586873003249
 30
0.0
 10
116.7001979959986
 20
-147.6290594791518
 30
0.0
 10
116.6939968241251
 20
-147.4936672265815
 30
0.0
 10
116.6960638814163
 20
-147.4661064626995
 30
0.0
 10
116.6960638814163
 20
-147.4661064626995
 30
0.0
 10
115.3400742984219
 20
-147.4661064626995
 30
0.0
 10
115.3400742984219
 20
-147.4661064626995
 30
0.0
 10
115.3400742984219
 20
-147.4891886024506
 30
0.0
 10
115.3442084130042
 20
-147.7220770572535
 30
0.0
 10
115.3442084130042
 20
-147.728278229127
 30
0.0
 10
115.3442084130042
 20
-147.755838993009
 30
0.0
 10
115.3466199798439
 20
-147.7747870181778
 30
0.0
 10
115.3486870371351
 20
-147.804414839351
 30
0.0
 10
115.3486870371351
 20
-147.804414839351
 30
0.0
 10
115.113731525041
 20
-147.804414839351
 30
0.0
 10
115.113731525041
 20
-147.804414839351
 30
0.0
 10
115.1178656396233
 20
-147.7665187890132
 30
0.0
 10
115.1199326969145
 20
-147.7475707638444
 30
0.0
 10
115.1219997542056
 20
-147.6945162933715
 30
0.0
 10
115.1240668114968
 20
-147.5801391232612
 30
0.0
 10
115.1240668114968
 20
-147.4936672265815
 30
0.0
 10
115.1240668114968
 20
-147.35620791672
 30
0.0
 10
115.1240668114968
 20
-147.3348483247114
 30
0.0
 10
115.1240668114968
 20
-147.3159002995426
 30
0.0
 10
115.1219997542056
 20
-147.273525625074
 30
0.0
 10
115.1984808739782
 20
-147.2755926823651
 30
0.0
 10
115.6149929181449
 20
-147.2862724783694
 30
0.0
 10
115.6470323061577
 20
-147.2862724783694
 30
0.0
 10
115.6470323061577
 20
-147.2862724783694
 30
0.0
 10
115.9026583911632
 20
-147.2862724783694
 30
0.0
 10
115.9026583911632
 20
-147.2862724783694
 30
0.0
 10
115.8985242765809
 20
-147.1212524046259
 30
0.0
 10
115.8985242765809
 20
-147.1023043794571
 30
0.0
 10
115.8943901619986
 20
-147.0323689411065
 30
0.0
 10
115.8943901619986
 20
-147.0323689411065
 30
0.0
 10
116.133479788675
 20
-147.0557955904062
 30
0.0
 10
116.133479788675
 20
-147.0557955904062
 30
0.0
 10
116.1565619284261
 20
-147.0578626476973
 30
0.0
 10
116.175509953595
 20
-147.0747436155751
 30
0.0
 10
116.175509953595
 20
-147.0916245834528
 30
0.0
 10
116.175509953595
 20
-147.114706723204
 30
0.0
 10
116.1631076098481
 20
-147.1191853473348
 30
0.0
 10
116.1207329353796
 20
-147.1402004297948
 30
0.0
 10
116.1162543112487
 20
-147.1825751042634
 30
0.0
 10
116.1141872539576
 20
-147.2418307466097
 30
0.0
 10
116.1141872539576
 20
-147.2862724783694
 30
0.0
 10
116.1141872539576
 20
-147.2862724783694
 30
0.0
 10
116.4125325229802
 20
-147.2862724783694
 30
0.0
 10
116.4125325229802
 20
-147.2862724783694
 30
0.0
 10
116.4338921149888
 20
-147.2862724783694
 30
0.0
 10
116.7343044413025
 20
-147.2755926823651
 30
0.0
 10
116.9117268587929
 20
-147.2673244532005
 30
0.0
 10
116.9055256869195
 20
-147.3159002995426
 30
0.0
 10
116.9055256869195
 20
-147.3582749740111
 30
0.0
 10
116.9055256869195
 20
-147.4068508203532
 30
0.0
 10
116.9055256869195
 20
-147.5188164236238
 30
0.0
 10
116.9096598015018
 20
-147.6859035546584
 30
0.0
 10
116.920339597506
 20
-147.7961466101864
 30
0.0
 10
116.920339597506
 20
-147.7961466101864
 30
0.0
 10
116.691929766834
 20
-147.7961466101864
 30
0.0
 10
116.691929766834
 20
-147.7961466101864
 30
0.0
  0
SPLINE
  5
109
330
103
100
AcDbEntity
  8
_U+30EC_U+30A4_U+30E4_U+30FC 1
370
     0
100
AcDbSpline
210
0.0
220
0.0
230
1.0
 70
    11
 71
     3
 72
    32
 73
    28
 74
     0
 42
0.0000000001
 43
0.0000000001
 12
1.0
 22
0.0
 32
0.0
 13
1.0
 23
0.0
 33
0.0
 40
0.0
 40
0.0
 40
0.0
 40
0.0
 40
1.0
 40
1.0
 40
1.0
 40
2.0
 40
2.0
 40
2.0
 40
3.0
 40
3.0
 40
3.0
 40
4.0
 40
4.0
 40
4.0
 40
5.0
 40
5.0
 40
5.0
 40
6.0
 40
6.0
 40
6.0
 40
7.0
 40
7.0
 40
7.0
 40
8.0
 40
8.0
 40
8.0
 40
9.0
 40
9.0
 40
9.0
 40
9.0
 10
116.7532524664714
 20
-148.9256211650255
 30
0.0
 10
116.1927354310213
 20
-148.5871405335998
 30
0.0
 10
116.1524278138438
 20
-148.0900132550782
 30
0.0
 10
116.1376139032573
 20
-147.9101792707482
 30
0.0
 10
116.0762912036198
 20
-147.9101792707482
 30
0.0
 10
115.9639810908007
 20
-147.9187920094613
 30
0.0
 10
115.8985242765809
 20
-147.9229261240436
 30
0.0
 10
115.8985242765809
 20
-147.9229261240436
 30
0.0
 10
115.8985242765809
 20
-147.7051960893758
 30
0.0
 10
115.8985242765809
 20
-147.7051960893758
 30
0.0
 10
115.9450330656318
 20
-147.7093302039581
 30
0.0
 10
116.0108343894001
 20
-147.7155313758315
 30
0.0
 10
116.1272786168015
 20
-147.7155313758315
 30
0.0
 10
116.2478569587853
 20
-147.7155313758315
 30
0.0
 10
116.2940212382876
 20
-147.7093302039581
 30
0.0
 10
116.3491427660516
 20
-147.700717465245
 30
0.0
 10
116.3450086514693
 20
-147.7579060503001
 30
0.0
 10
116.3429415941782
 20
-147.7961466101864
 30
0.0
 10
116.3429415941782
 20
-147.8509236284019
 30
0.0
 10
116.3429415941782
 20
-147.9673678558033
 30
0.0
 10
116.3429415941782
 20
-148.2085245397708
 30
0.0
 10
116.5458577182594
 20
-148.466562191616
 30
0.0
 10
116.6557562642388
 20
-148.6064330683172
 30
0.0
 10
116.8166422234
 20
-148.7056518182924
 30
0.0
 10
116.9372205653838
 20
-148.7755872566429
 30
0.0
 10
116.9372205653838
 20
-148.7755872566429
 30
0.0
 10
116.7532524664714
 20
-148.9256211650255
 30
0.0
 10
116.7532524664714
 20
-148.9256211650255
 30
0.0
  0
HATCH
  5
10A
330
103
100
AcDbEntity
  8
_U+30EC_U+30A4_U+30E4_U+30FC 1
 62
   179
420
  2234388
100
AcDbHatch
 10
0.0
 20
0.0
 30
0.0
210
0.0
220
0.0
230
1.0
  2
SOLID
 70
     1
 71
     0
 91
        3
 92
        1
 93
        1
 72
     4
 94
        3
 73
     0
 74
     1
 95
       26
 96
       22
 40
0.0
 40
0.0
 40
0.0
 40
0.0
 40
1.0
 40
1.0
 40
1.0
 40
2.0
 40
2.0
 40
2.0
 40
3.0
 40
3.0
 40
3.0
 40
4.0
 40
4.0
 40
4.0
 40
5.0
 40
5.0
 40
5.0
 40
6.0
 40
6.0
 40
6.0
 40
7.0
 40
7.0
 40
7.0
 40
7.0
 10
115.8606282262432
 20
-148.0097425302719
 10
115.858561168952
 20
-148.011809587563
 10
115.8244547236481
 20
-148.018355268985
 10
115.8223876663569
 20
-148.018355268985
 10
115.7400498842594
 20
-148.3480509069234
 10
115.5643500145117
 20
-148.7521606073432
 10
115.2511908349025
 20
-148.938368018321
 10
115.2511908349025
 20
-148.938368018321
 10
115.0648111691505
 20
-148.7862670526472
 10
115.0648111691505
 20
-148.7862670526472
 10
115.5305880787563
 20
-148.5575127124266
 10
115.6108588035626
 20
-148.0245564408584
 10
115.6384195674446
 20
-147.8405883419461
 10
115.6384195674446
 20
-147.8405883419461
 10
115.8564941116609
 20
-147.9398070919213
 10
115.8564941116609
 20
-147.9398070919213
 10
115.8771646845724
 20
-147.9504868879256
 10
115.8902560474163
 20
-147.9590996266387
 10
115.8902560474163
 20
-147.9780476518076
 10
115.8902560474163
 20
-148.0035413583984
 10
115.8709635126989
 20
-148.0076754729807
 10
115.8606282262432
 20
-148.0097425302719
 97
        0
 97
        0
 92
        1
 93
        1
 72
     4
 94
        3
 73
     0
 74
     1
 95
       68
 96
       64
 40
0.0
 40
0.0
 40
0.0
 40
0.0
 40
1.0
 40
1.0
 40
1.0
 40
2.0
 40
2.0
 40
2.0
 40
3.0
 40
3.0
 40
3.0
 40
4.0
 40
4.0
 40
4.0
 40
5.0
 40
5.0
 40
5.0
 40
6.0
 40
6.0
 40
6.0
 40
7.0
 40
7.0
 40
7.0
 40
8.0
 40
8.0
 40
8.0
 40
9.0
 40
9.0
 40
9.0
 40
10.0
 40
10.0
 40
10.0
 40
11.0
 40
11.0
 40
11.0
 40
12.0
 40
12.0
 40
12.0
 40
13.0
 40
13.0
 40
13.0
 40
14.0
 40
14.0
 40
14.0
 40
15.0
 40
15.0
 40
15.0
 40
16.0
 40
16.0
 40
16.0
 40
17.0
 40
17.0
 40
17.0
 40
18.0
 40
18.0
 40
18.0
 40
19.0
 40
19.0
 40
19.0
 40
20.0
 40
20.0
 40
20.0
 40
21.0
 40
21.0
 40
21.0
 40
21.0
 10
116.691929766834
 20
-147.7961466101864
 10
116.6939968241251
 20
-147.7727199608867
 10
116.7001979959986
 20
-147.7072631466669
 10
116.7001979959986
 20
-147.6586873003249
 10
116.7001979959986
 20
-147.6290594791518
 10
116.6939968241251
 20
-147.4936672265815
 10
116.6960638814163
 20
-147.4661064626995
 10
116.6960638814163
 20
-147.4661064626995
 10
115.3400742984219
 20
-147.4661064626995
 10
115.3400742984219
 20
-147.4661064626995
 10
115.3400742984219
 20
-147.4891886024506
 10
115.3442084130042
 20
-147.7220770572535
 10
115.3442084130042
 20
-147.728278229127
 10
115.3442084130042
 20
-147.755838993009
 10
115.3466199798439
 20
-147.7747870181778
 10
115.3486870371351
 20
-147.804414839351
 10
115.3486870371351
 20
-147.804414839351
 10
115.113731525041
 20
-147.804414839351
 10
115.113731525041
 20
-147.804414839351
 10
115.1178656396233
 20
-147.7665187890132
 10
115.1199326969145
 20
-147.7475707638444
 10
115.1219997542056
 20
-147.6945162933715
 10
115.1240668114968
 20
-147.5801391232612
 10
115.1240668114968
 20
-147.4936672265815
 10
115.1240668114968
 20
-147.35620791672
 10
115.1240668114968
 20
-147.3348483247114
 10
115.1240668114968
 20
-147.3159002995426
 10
115.1219997542056
 20
-147.273525625074
 10
115.1984808739782
 20
-147.2755926823651
 10
115.6149929181449
 20
-147.2862724783694
 10
115.6470323061577
 20
-147.2862724783694
 10
115.6470323061577
 20
-147.2862724783694
 10
115.9026583911632
 20
-147.2862724783694
 10
115.9026583911632
 20
-147.2862724783694
 10
115.8985242765809
 20
-147.1212524046259
 10
115.8985242765809
 20
-147.1023043794571
 10
115.8943901619986
 20
-147.0323689411065
 10
115.8943901619986
 20
-147.0323689411065
 10
116.133479788675
 20
-147.0557955904062
 10
116.133479788675
 20
-147.0557955904062
 10
116.1565619284261
 20
-147.0578626476973
 10
116.175509953595
 20
-147.0747436155751
 10
116.175509953595
 20
-147.0916245834528
 10
116.175509953595
 20
-147.114706723204
 10
116.1631076098481
 20
-147.1191853473348
 10
116.1207329353796
 20
-147.1402004297948
 10
116.1162543112487
 20
-147.1825751042634
 10
116.1141872539576
 20
-147.2418307466097
 10
116.1141872539576
 20
-147.2862724783694
 10
116.1141872539576
 20
-147.2862724783694
 10
116.4125325229802
 20
-147.2862724783694
 10
116.4125325229802
 20
-147.2862724783694
 10
116.4338921149888
 20
-147.2862724783694
 10
116.7343044413025
 20
-147.2755926823651
 10
116.9117268587929
 20
-147.2673244532005
 10
116.9055256869195
 20
-147.3159002995426
 10
116.9055256869195
 20
-147.3582749740111
 10
116.9055256869195
 20
-147.4068508203532
 10
116.9055256869195
 20
-147.5188164236238
 10
116.9096598015018
 20
-147.6859035546584
 10
116.920339597506
 20
-147.7961466101864
 10
116.920339597506
 20
-147.7961466101864
 10
116.691929766834
 20
-147.7961466101864
 10
116.691929766834
 20
-147.7961466101864
 97
        0
 97
        0
 92
        1
 93
        1
 72
     4
 94
        3
 73
     0
 74
     1
 95
       32
 96
       28
 40
0.0
 40
0.0
 40
0.0
 40
0.0
 40
1.0
 40
1.0
 40
1.0
 40
2.0
 40
2.0
 40
2.0
 40
3.0
 40
3.0
 40
3.0
 40
4.0
 40
4.0
 40
4.0
 40
5.0
 40
5.0
 40
5.0
 40
6.0
 40
6.0
 40
6.0
 40
7.0
 40
7.0
 40
7.0
 40
8.0
 40
8.0
 40
8.0
 40
9.0
 40
9.0
 40
9.0
 40
9.0
 10
116.7532524664714
 20
-148.9256211650255
 10
116.1927354310213
 20
-148.5871405335998
 10
116.1524278138438
 20
-148.0900132550782
 10
116.1376139032573
 20
-147.9101792707482
 10
116.0762912036198
 20
-147.9101792707482
 10
115.9639810908007
 20
-147.9187920094613
 10
115.8985242765809
 20
-147.9229261240436
 10
115.8985242765809
 20
-147.9229261240436
 10
115.8985242765809
 20
-147.7051960893758
 10
115.8985242765809
 20
-147.7051960893758
 10
115.9450330656318
 20
-147.7093302039581
 10
116.0108343894001
 20
-147.7155313758315
 10
116.1272786168015
 20
-147.7155313758315
 10
116.2478569587853
 20
-147.7155313758315
 10
116.2940212382876
 20
-147.7093302039581
 10
116.3491427660516
 20
-147.700717465245
 10
116.3450086514693
 20
-147.7579060503001
 10
116.3429415941782
 20
-147.7961466101864
 10
116.3429415941782
 20
-147.8509236284019
 10
116.3429415941782
 20
-147.9673678558033
 10
116.3429415941782
 20
-148.2085245397708
 10
116.5458577182594
 20
-148.466562191616
 10
116.6557562642388
 20
-148.6064330683172
 10
116.8166422234
 20
-148.7056518182924
 10
116.9372205653838
 20
-148.7755872566429
 10
116.9372205653838
 20
-148.7755872566429
 10
116.7532524664714
 20
-148.9256211650255
 10
116.7532524664714
 20
-148.9256211650255
 97
        0
 97
        0
 75
     2
 76
     1
 98
        0
  0
ENDBLK
  5
106
330
103
100
AcDbEntity
  8
0
100
AcDbBlockEnd
  0
BLOCK
  5
10D
330
10B
100
AcDbEntity
  8
0
100
AcDbBlockBegin
  2
block 11
 70
     0
 10
0.0
 20
0.0
 30
0.0
  3
block 11
  1

  0
SPLINE
  5
10F
330
10B
100
AcDbEntity
  8
_U+30EC_U+30A4_U+30E4_U+30FC 1
370
     0
100
AcDbSpline
210
0.0
220
0.0
230
1.0
 70
    11
 71
     3
 72
    35
 73
    31
 74
     0
 42
0.0000000001
 43
0.0000000001
 12
1.0
 22
0.0
 32
0.0
 13
1.0
 23
0.0
 33
0.0
 40
0.0
 40
0.0
 40
0.0
 40
0.0
 40
1.0
 40
1.0
 40
1.0
 40
2.0
 40
2.0
 40
2.0
 40
3.0
 40
3.0
 40
3.0
 40
4.0
 40
4.0
 40
4.0
 40
5.0
 40
5.0
 40
5.0
 40
6.0
 40
6.0
 40
6.0
 40
7.0
 40
7.0
 40
7.0
 40
8.0
 40
8.0
 40
8.0
 40
9.0
 40
9.0
 40
9.0
 40
10.0
 40
10.0
 40
10.0
 40
10.0
 10
110.466986734536
 20
-145.0762437245816
 30
0.0
 10
110.466986734536
 20
-145.0762437245816
 30
0.0
 10
110.4159993213543
 20
-145.3404825483003
 30
0.0
 10
110.4159993213543
 20
-145.3404825483003
 30
0.0
 10
110.5558701980555
 20
-145.3532294015957
 30
0.0
 10
110.8838432882513
 20
-145.4441799224063
 30
0.0
 10
110.8838432882513
 20
-145.8355427695307
 30
0.0
 10
110.8838432882513
 20
-146.3137220228834
 30
0.0
 10
110.4776665305403
 20
-146.4384344794494
 30
0.0
 10
110.2024034012689
 20
-146.4384344794494
 30
0.0
 10
110.2024034012689
 20
-146.4384344794494
 30
0.0
 10
110.134879529758
 20
-146.791901276236
 30
0.0
 10
110.134879529758
 20
-146.791901276236
 30
0.0
 10
110.134879529758
 20
-146.791901276236
 30
0.0
 10
109.9274847815459
 20
-146.791901276236
 30
0.0
 10
109.9274847815459
 20
-146.791901276236
 30
0.0
 10
109.9274847815459
 20
-146.791901276236
 30
0.0
 10
109.9994872771876
 20
-146.4236205688628
 30
0.0
 10
109.9994872771876
 20
-146.4236205688628
 30
0.0
 10
109.8916557884993
 20
-146.404672543694
 30
0.0
 10
109.5402560490038
 20
-146.3433498440565
 30
0.0
 10
109.5402560490038
 20
-145.9264932903413
 30
0.0
 10
109.5402560490038
 20
-145.4782863677103
 30
0.0
 10
109.8957899030816
 20
-145.3280802045534
 30
0.0
 10
110.211016139982
 20
-145.3280802045534
 30
0.0
 10
110.211016139982
 20
-145.3280802045534
 30
0.0
 10
110.259591986324
 20
-145.0762437245816
 30
0.0
 10
110.259591986324
 20
-145.0762437245816
 30
0.0
 10
110.259591986324
 20
-145.0762437245816
 30
0.0
 10
110.466986734536
 20
-145.0762437245816
 30
0.0
 10
110.466986734536
 20
-145.0762437245816
 30
0.0
  0
SPLINE
  5
110
330
10B
100
AcDbEntity
  8
_U+30EC_U+30A4_U+30E4_U+30FC 1
370
     0
100
AcDbSpline
210
0.0
220
0.0
230
1.0
 70
    11
 71
     3
 72
    14
 73
    10
 74
     0
 42
0.0000000001
 43
0.0000000001
 12
1.0
 22
0.0
 32
0.0
 13
1.0
 23
0.0
 33
0.0
 40
0.0
 40
0.0
 40
0.0
 40
0.0
 40
1.0
 40
1.0
 40
1.0
 40
2.0
 40
2.0
 40
2.0
 40
3.0
 40
3.0
 40
3.0
 40
3.0
 10
110.1772542042265
 20
-145.5013685074615
 30
0.0
 10
110.0566758622428
 20
-145.5099812461746
 30
0.0
 10
109.7624647078025
 20
-145.5330633859258
 30
0.0
 10
109.7624647078025
 20
-145.9309719144721
 30
0.0
 10
109.7624647078025
 20
-145.9943616714007
 30
0.0
 10
109.7624647078025
 20
-146.2079575914862
 30
0.0
 10
110.0311821556519
 20
-146.2523993232459
 30
0.0
 10
110.0311821556519
 20
-146.2523993232459
 30
0.0
 10
110.1772542042265
 20
-145.5013685074615
 30
0.0
 10
110.1772542042265
 20
-145.5013685074615
 30
0.0
  0
SPLINE
  5
111
330
10B
100
AcDbEntity
  8
_U+30EC_U+30A4_U+30E4_U+30FC 1
370
     0
100
AcDbSpline
210
0.0
220
0.0
230
1.0
 70
    11
 71
     3
 72
    14
 73
    10
 74
     0
 42
0.0000000001
 43
0.0000000001
 12
1.0
 22
0.0
 32
0.0
 13
1.0
 23
0.0
 33
0.0
 40
0.0
 40
0.0
 40
0.0
 40
0.0
 40
1.0
 40
1.0
 40
1.0
 40
2.0
 40
2.0
 40
2.0
 40
3.0
 40
3.0
 40
3.0
 40
3.0
 10
110.238576903864
 20
-146.2610120619591
 30
0.0
 10
110.4204779454852
 20
-146.2565334378282
 30
0.0
 10
110.6637016867438
 20
-146.1762627130219
 30
0.0
 10
110.6637016867438
 20
-145.8207288589441
 30
0.0
 10
110.6637016867438
 20
-145.7277112808424
 30
0.0
 10
110.6509548334484
 20
-145.5396090673478
 30
0.0
 10
110.3801703283077
 20
-145.5120483034657
 30
0.0
 10
110.3801703283077
 20
-145.5120483034657
 30
0.0
 10
110.238576903864
 20
-146.2610120619591
 30
0.0
 10
110.238576903864
 20
-146.2610120619591
 30
0.0
  0
HATCH
  5
112
330
10B
100
AcDbEntity
  8
_U+30EC_U+30A4_U+30E4_U+30FC 1
 62
   179
420
  2234388
100
AcDbHatch
 10
0.0
 20
0.0
 30
0.0
210
0.0
220
0.0
230
1.0
  2
SOLID
 70
     1
 71
     0
 91
        3
 92
        1
 93
        1
 72
     4
 94
        3
 73
     0
 74
     1
 95
       35
 96
       31
 40
0.0
 40
0.0
 40
0.0
 40
0.0
 40
1.0
 40
1.0
 40
1.0
 40
2.0
 40
2.0
 40
2.0
 40
3.0
 40
3.0
 40
3.0
 40
4.0
 40
4.0
 40
4.0
 40
5.0
 40
5.0
 40
5.0
 40
6.0
 40
6.0
 40
6.0
 40
7.0
 40
7.0
 40
7.0
 40
8.0
 40
8.0
 40
8.0
 40
9.0
 40
9.0
 40
9.0
 40
10.0
 40
10.0
 40
10.0
 40
10.0
 10
110.466986734536
 20
-145.0762437245816
 10
110.466986734536
 20
-145.0762437245816
 10
110.4159993213543
 20
-145.3404825483003
 10
110.4159993213543
 20
-145.3404825483003
 10
110.5558701980555
 20
-145.3532294015957
 10
110.8838432882513
 20
-145.4441799224063
 10
110.8838432882513
 20
-145.8355427695307
 10
110.8838432882513
 20
-146.3137220228834
 10
110.4776665305403
 20
-146.4384344794494
 10
110.2024034012689
 20
-146.4384344794494
 10
110.2024034012689
 20
-146.4384344794494
 10
110.134879529758
 20
-146.791901276236
 10
110.134879529758
 20
-146.791901276236
 10
110.134879529758
 20
-146.791901276236
 10
109.9274847815459
 20
-146.791901276236
 10
109.9274847815459
 20
-146.791901276236
 10
109.9274847815459
 20
-146.791901276236
 10
109.9994872771876
 20
-146.4236205688628
 10
109.9994872771876
 20
-146.4236205688628
 10
109.8916557884993
 20
-146.404672543694
 10
109.5402560490038
 20
-146.3433498440565
 10
109.5402560490038
 20
-145.9264932903413
 10
109.5402560490038
 20
-145.4782863677103
 10
109.8957899030816
 20
-145.3280802045534
 10
110.211016139982
 20
-145.3280802045534
 10
110.211016139982
 20
-145.3280802045534
 10
110.259591986324
 20
-145.0762437245816
 10
110.259591986324
 20
-145.0762437245816
 10
110.259591986324
 20
-145.0762437245816
 10
110.466986734536
 20
-145.0762437245816
 10
110.466986734536
 20
-145.0762437245816
 97
        0
 97
        0
 92
        1
 93
        1
 72
     4
 94
        3
 73
     0
 74
     1
 95
       14
 96
       10
 40
0.0
 40
0.0
 40
0.0
 40
0.0
 40
1.0
 40
1.0
 40
1.0
 40
2.0
 40
2.0
 40
2.0
 40
3.0
 40
3.0
 40
3.0
 40
3.0
 10
110.1772542042265
 20
-145.5013685074615
 10
110.0566758622428
 20
-145.5099812461746
 10
109.7624647078025
 20
-145.5330633859258
 10
109.7624647078025
 20
-145.9309719144721
 10
109.7624647078025
 20
-145.9943616714007
 10
109.7624647078025
 20
-146.2079575914862
 10
110.0311821556519
 20
-146.2523993232459
 10
110.0311821556519
 20
-146.2523993232459
 10
110.1772542042265
 20
-145.5013685074615
 10
110.1772542042265
 20
-145.5013685074615
 97
        0
 97
        0
 92
        1
 93
        1
 72
     4
 94
        3
 73
     0
 74
     1
 95
       14
 96
       10
 40
0.0
 40
0.0
 40
0.0
 40
0.0
 40
1.0
 40
1.0
 40
1.0
 40
2.0
 40
2.0
 40
2.0
 40
3.0
 40
3.0
 40
3.0
 40
3.0
 10
110.238576903864
 20
-146.2610120619591
 10
110.4204779454852
 20
-146.2565334378282
 10
110.6637016867438
 20
-146.1762627130219
 10
110.6637016867438
 20
-145.8207288589441
 10
110.6637016867438
 20
-145.7277112808424
 10
110.6509548334484
 20
-145.5396090673478
 10
110.3801703283077
 20
-145.5120483034657
 10
110.3801703283077
 20
-145.5120483034657
 10
110.238576903864
 20
-146.2610120619591
 10
110.238576903864
 20
-146.2610120619591
 97
        0
 97
        0
 75
     2
 76
     1
 98
        0
  0
SPLINE
  5
113
330
10B
100
AcDbEntity
  8
_U+30EC_U+30A4_U+30E4_U+30FC 1
370
     0
100
AcDbSpline
210
0.0
220
0.0
230
1.0
 70
    11
 71
     3
 72
    62
 73
    58
 74
     0
 42
0.0000000001
 43
0.0000000001
 12
1.0
 22
0.0
 32
0.0
 13
1.0
 23
0.0
 33
0.0
 40
0.0
 40
0.0
 40
0.0
 40
0.0
 40
1.0
 40
1.0
 40
1.0
 40
2.0
 40
2.0
 40
2.0
 40
3.0
 40
3.0
 40
3.0
 40
4.0
 40
4.0
 40
4.0
 40
5.0
 40
5.0
 40
5.0
 40
6.0
 40
6.0
 40
6.0
 40
7.0
 40
7.0
 40
7.0
 40
8.0
 40
8.0
 40
8.0
 40
9.0
 40
9.0
 40
9.0
 40
10.0
 40
10.0
 40
10.0
 40
11.0
 40
11.0
 40
11.0
 40
12.0
 40
12.0
 40
12.0
 40
13.0
 40
13.0
 40
13.0
 40
14.0
 40
14.0
 40
14.0
 40
15.0
 40
15.0
 40
15.0
 40
16.0
 40
16.0
 40
16.0
 40
17.0
 40
17.0
 40
17.0
 40
18.0
 40
18.0
 40
18.0
 40
19.0
 40
19.0
 40
19.0
 40
19.0
 10
111.5873317863393
 20
-146.4976901217957
 30
0.0
 10
111.4919026413979
 20
-146.4976901217957
 30
0.0
 10
111.2738280971815
 20
-146.4766750393357
 30
0.0
 10
111.1491156406155
 20
-146.2906398831322
 30
0.0
 10
111.0753905972312
 20
-146.1783297703131
 30
0.0
 10
111.0709119731003
 20
-146.0791110203379
 30
0.0
 10
111.066777858518
 20
-145.9943616714007
 30
0.0
 10
111.066777858518
 20
-145.9943616714007
 30
0.0
 10
111.2869194600255
 20
-145.9943616714007
 30
0.0
 10
111.2869194600255
 20
-145.9943616714007
 30
0.0
 10
111.2889865173166
 20
-146.0684312243336
 30
0.0
 10
111.2993218037724
 20
-146.3030422268791
 30
0.0
 10
111.5828531622085
 20
-146.3030422268791
 30
0.0
 10
111.7203124720699
 20
-146.3030422268791
 30
0.0
 10
111.872585692518
 20
-146.2334512980771
 30
0.0
 10
111.872585692518
 20
-146.005041467405
 30
0.0
 10
111.872585692518
 20
-145.8885972400035
 30
0.0
 10
111.8346896421802
 20
-145.8400213936615
 30
0.0
 10
111.8029947637159
 20
-145.8083265151972
 30
0.0
 10
111.728925210783
 20
-145.7342569622644
 30
0.0
 10
111.6124809833816
 20
-145.7215101089689
 30
0.0
 10
111.5577039651661
 20
-145.7215101089689
 30
0.0
 10
111.5384114304487
 20
-145.7215101089689
 30
0.0
 10
111.5025824374021
 20
-145.7235771662601
 30
0.0
 10
111.4750216735201
 20
-145.7277112808424
 30
0.0
 10
111.4750216735201
 20
-145.7277112808424
 30
0.0
 10
111.4750216735201
 20
-145.5330633859258
 30
0.0
 10
111.4750216735201
 20
-145.5330633859258
 30
0.0
 10
111.5129177238579
 20
-145.5396090673478
 30
0.0
 10
111.555636907875
 20
-145.5416761246389
 30
0.0
 10
111.5618380797484
 20
-145.5416761246389
 30
0.0
 10
111.6272948939682
 20
-145.5416761246389
 30
0.0
 10
111.8264214130156
 20
-145.5203165326303
 30
0.0
 10
111.8264214130156
 20
-145.2836384727937
 30
0.0
 10
111.8264214130156
 20
-145.1058715457548
 30
0.0
 10
111.6948187654791
 20
-145.0507500179908
 30
0.0
 10
111.5852647290481
 20
-145.0507500179908
 30
0.0
 10
111.320681395781
 20
-145.0507500179908
 30
0.0
 10
111.3120686570678
 20
-145.2836384727937
 30
0.0
 10
111.3079345424855
 20
-145.3552964588869
 30
0.0
 10
111.3079345424855
 20
-145.3552964588869
 30
0.0
 10
111.1050184184043
 20
-145.3552964588869
 30
0.0
 10
111.1050184184043
 20
-145.3552964588869
 30
0.0
 10
111.1132866475689
 20
-145.2305840023208
 30
0.0
 10
111.1408474114509
 20
-144.854035065783
 30
0.0
 10
111.597667072795
 20
-144.854035065783
 30
0.0
 10
111.8219427888848
 20
-144.854035065783
 30
0.0
 10
112.0630994728523
 20
-144.9811590891887
 30
0.0
 10
112.0630994728523
 20
-145.2770927913717
 30
0.0
 10
112.0630994728523
 20
-145.4634724571237
 30
0.0
 10
111.9680148374594
 20
-145.5458102392212
 30
0.0
 10
111.8684515779357
 20
-145.6071329388586
 30
0.0
 10
111.9297742775731
 20
-145.6346937027406
 30
0.0
 10
112.1116753191943
 20
-145.714964427547
 30
0.0
 10
112.1116753191943
 20
-145.9922946141096
 30
0.0
 10
112.1116753191943
 20
-146.3306029907611
 30
0.0
 10
111.8643174633534
 20
-146.4976901217957
 30
0.0
 10
111.5873317863393
 20
-146.4976901217957
 30
0.0
  0
HATCH
  5
114
330
10B
100
AcDbEntity
  8
_U+30EC_U+30A4_U+30E4_U+30FC 1
 62
   179
420
  2234388
100
AcDbHatch
 10
0.0
 20
0.0
 30
0.0
210
0.0
220
0.0
230
1.0
  2
SOLID
 70
     1
 71
     0
 91
        1
 92
        1
 93
        1
 72
     4
 94
        3
 73
     0
 74
     1
 95
       62
 96
       58
 40
0.0
 40
0.0
 40
0.0
 40
0.0
 40
1.0
 40
1.0
 40
1.0
 40
2.0
 40
2.0
 40
2.0
 40
3.0
 40
3.0
 40
3.0
 40
4.0
 40
4.0
 40
4.0
 40
5.0
 40
5.0
 40
5.0
 40
6.0
 40
6.0
 40
6.0
 40
7.0
 40
7.0
 40
7.0
 40
8.0
 40
8.0
 40
8.0
 40
9.0
 40
9.0
 40
9.0
 40
10.0
 40
10.0
 40
10.0
 40
11.0
 40
11.0
 40
11.0
 40
12.0
 40
12.0
 40
12.0
 40
13.0
 40
13.0
 40
13.0
 40
14.0
 40
14.0
 40
14.0
 40
15.0
 40
15.0
 40
15.0
 40
16.0
 40
16.0
 40
16.0
 40
17.0
 40
17.0
 40
17.0
 40
18.0
 40
18.0
 40
18.0
 40
19.0
 40
19.0
 40
19.0
 40
19.0
 10
111.5873317863393
 20
-146.4976901217957
 10
111.4919026413979
 20
-146.4976901217957
 10
111.2738280971815
 20
-146.4766750393357
 10
111.1491156406155
 20
-146.2906398831322
 10
111.0753905972312
 20
-146.1783297703131
 10
111.0709119731003
 20
-146.0791110203379
 10
111.066777858518
 20
-145.9943616714007
 10
111.066777858518
 20
-145.9943616714007
 10
111.2869194600255
 20
-145.9943616714007
 10
111.2869194600255
 20
-145.9943616714007
 10
111.2889865173166
 20
-146.0684312243336
 10
111.2993218037724
 20
-146.3030422268791
 10
111.5828531622085
 20
-146.3030422268791
 10
111.7203124720699
 20
-146.3030422268791
 10
111.872585692518
 20
-146.2334512980771
 10
111.872585692518
 20
-146.005041467405
 10
111.872585692518
 20
-145.8885972400035
 10
111.8346896421802
 20
-145.8400213936615
 10
111.8029947637159
 20
-145.8083265151972
 10
111.728925210783
 20
-145.7342569622644
 10
111.6124809833816
 20
-145.7215101089689
 10
111.5577039651661
 20
-145.7215101089689
 10
111.5384114304487
 20
-145.7215101089689
 10
111.5025824374021
 20
-145.7235771662601
 10
111.4750216735201
 20
-145.7277112808424
 10
111.4750216735201
 20
-145.7277112808424
 10
111.4750216735201
 20
-145.5330633859258
 10
111.4750216735201
 20
-145.5330633859258
 10
111.5129177238579
 20
-145.5396090673478
 10
111.555636907875
 20
-145.5416761246389
 10
111.5618380797484
 20
-145.5416761246389
 10
111.6272948939682
 20
-145.5416761246389
 10
111.8264214130156
 20
-145.5203165326303
 10
111.8264214130156
 20
-145.2836384727937
 10
111.8264214130156
 20
-145.1058715457548
 10
111.6948187654791
 20
-145.0507500179908
 10
111.5852647290481
 20
-145.0507500179908
 10
111.320681395781
 20
-145.0507500179908
 10
111.3120686570678
 20
-145.2836384727937
 10
111.3079345424855
 20
-145.3552964588869
 10
111.3079345424855
 20
-145.3552964588869
 10
111.1050184184043
 20
-145.3552964588869
 10
111.1050184184043
 20
-145.3552964588869
 10
111.1132866475689
 20
-145.2305840023208
 10
111.1408474114509
 20
-144.854035065783
 10
111.597667072795
 20
-144.854035065783
 10
111.8219427888848
 20
-144.854035065783
 10
112.0630994728523
 20
-144.9811590891887
 10
112.0630994728523
 20
-145.2770927913717
 10
112.0630994728523
 20
-145.4634724571237
 10
111.9680148374594
 20
-145.5458102392212
 10
111.8684515779357
 20
-145.6071329388586
 10
111.9297742775731
 20
-145.6346937027406
 10
112.1116753191943
 20
-145.714964427547
 10
112.1116753191943
 20
-145.9922946141096
 10
112.1116753191943
 20
-146.3306029907611
 10
111.8643174633534
 20
-146.4976901217957
 10
111.5873317863393
 20
-146.4976901217957
 97
        0
 97
        0
 75
     2
 76
     1
 98
        0
  0
POLYLINE
  5
115
330
10B
100
AcDbEntity
  8
_U+30EC_U+30A4_U+30E4_U+30FC 1
370
     0
100
AcDb2dPolyline
 66
     1
 10
0.0
 20
0.0
 30
0.0
  0
VERTEX
  5
116
330
115
100
AcDbEntity
  8
_U+30EC_U+30A4_U+30E4_U+30FC 1
370
     0
100
AcDbVertex
100
AcDb2dVertex
 10
112.3325059397988
 20
-146.4470472181625
 30
0.0
  0
VERTEX
  5
117
330
115
100
AcDbEntity
  8
_U+30EC_U+30A4_U+30E4_U+30FC 1
370
     0
100
AcDbVertex
100
AcDb2dVertex
 10
112.3325059397988
 20
-146.1952107381908
 30
0.0
  0
VERTEX
  5
118
330
115
100
AcDbEntity
  8
_U+30EC_U+30A4_U+30E4_U+30FC 1
370
     0
100
AcDbVertex
100
AcDb2dVertex
 10
112.5843424197706
 20
-146.1952107381908
 30
0.0
  0
VERTEX
  5
119
330
115
100
AcDbEntity
  8
_U+30EC_U+30A4_U+30E4_U+30FC 1
370
     0
100
AcDbVertex
100
AcDb2dVertex
 10
112.5843424197706
 20
-146.4470472181625
 30
0.0
  0
VERTEX
  5
11A
330
115
100
AcDbEntity
  8
_U+30EC_U+30A4_U+30E4_U+30FC 1
370
     0
100
AcDbVertex
100
AcDb2dVertex
 10
112.3325059397988
 20
-146.4470472181625
 30
0.0
  0
SEQEND
  5
11B
330
115
100
AcDbEntity
  8
_U+30EC_U+30A4_U+30E4_U+30FC 1
370
     0
  0
HATCH
  5
11C
330
10B
100
AcDbEntity
  8
_U+30EC_U+30A4_U+30E4_U+30FC 1
 62
   179
420
  2234388
100
AcDbHatch
 10
0.0
 20
0.0
 30
0.0
210
0.0
220
0.0
230
1.0
  2
SOLID
 70
     1
 71
     0
 91
        1
 92
        1
 93
        4
 72
     1
 10
112.3325059397988
 20
-146.4470472181625
 11
112.3325059397988
 21
-146.1952107381908
 72
     1
 10
112.3325059397988
 20
-146.1952107381908
 11
112.5843424197706
 21
-146.1952107381908
 72
     1
 10
112.5843424197706
 20
-146.1952107381908
 11
112.5843424197706
 21
-146.4470472181625
 72
     1
 10
112.5843424197706
 20
-146.4470472181625
 11
112.3325059397988
 21
-146.4470472181625
 97
        0
 75
     2
 76
     1
 98
        0
  0
SPLINE
  5
11D
330
10B
100
AcDbEntity
  8
_U+30EC_U+30A4_U+30E4_U+30FC 1
370
     0
100
AcDbSpline
210
0.0
220
0.0
230
1.0
 70
    11
 71
     3
 72
    62
 73
    58
 74
     0
 42
0.0000000001
 43
0.0000000001
 12
1.0
 22
0.0
 32
0.0
 13
1.0
 23
0.0
 33
0.0
 40
0.0
 40
0.0
 40
0.0
 40
0.0
 40
1.0
 40
1.0
 40
1.0
 40
2.0
 40
2.0
 40
2.0
 40
3.0
 40
3.0
 40
3.0
 40
4.0
 40
4.0
 40
4.0
 40
5.0
 40
5.0
 40
5.0
 40
6.0
 40
6.0
 40
6.0
 40
7.0
 40
7.0
 40
7.0
 40
8.0
 40
8.0
 40
8.0
 40
9.0
 40
9.0
 40
9.0
 40
10.0
 40
10.0
 40
10.0
 40
11.0
 40
11.0
 40
11.0
 40
12.0
 40
12.0
 40
12.0
 40
13.0
 40
13.0
 40
13.0
 40
14.0
 40
14.0
 40
14.0
 40
15.0
 40
15.0
 40
15.0
 40
16.0
 40
16.0
 40
16.0
 40
17.0
 40
17.0
 40
17.0
 40
18.0
 40
18.0
 40
18.0
 40
19.0
 40
19.0
 40
19.0
 40
19.0
 10
113.3119465862553
 20
-146.4976901217957
 30
0.0
 10
113.2168619508625
 20
-146.4976901217957
 30
0.0
 10
112.9991319161947
 20
-146.4766750393357
 30
0.0
 10
112.8744194596286
 20
-146.2906398831322
 30
0.0
 10
112.8000053971472
 20
-146.1783297703131
 30
0.0
 10
112.7958712825649
 20
-146.0791110203379
 30
0.0
 10
112.7917371679826
 20
-145.9943616714007
 30
0.0
 10
112.7917371679826
 20
-145.9943616714007
 30
0.0
 10
113.0115342599416
 20
-145.9943616714007
 30
0.0
 10
113.0115342599416
 20
-145.9943616714007
 30
0.0
 10
113.0136013172327
 20
-146.0684312243336
 30
0.0
 10
113.0246256227855
 20
-146.3030422268791
 30
0.0
 10
113.307812471673
 20
-146.3030422268791
 30
0.0
 10
113.445616291083
 20
-146.3030422268791
 30
0.0
 10
113.5978895115311
 20
-146.2334512980771
 30
0.0
 10
113.5978895115311
 20
-146.005041467405
 30
0.0
 10
113.5978895115311
 20
-145.8885972400035
 30
0.0
 10
113.5596489516448
 20
-145.8400213936615
 30
0.0
 10
113.5279540731805
 20
-145.8083265151972
 30
0.0
 10
113.4538845202476
 20
-145.7342569622644
 30
0.0
 10
113.3374402928462
 20
-145.7215101089689
 30
0.0
 10
113.2823187650822
 20
-145.7215101089689
 30
0.0
 10
113.2637152494619
 20
-145.7215101089689
 30
0.0
 10
113.2275417468667
 20
-145.7235771662601
 30
0.0
 10
113.1999809829847
 20
-145.7277112808424
 30
0.0
 10
113.1999809829847
 20
-145.7277112808424
 30
0.0
 10
113.1999809829847
 20
-145.5330633859258
 30
0.0
 10
113.1999809829847
 20
-145.5330633859258
 30
0.0
 10
113.238221542871
 20
-145.5396090673478
 30
0.0
 10
113.2802517077911
 20
-145.5416761246389
 30
0.0
 10
113.286797389213
 20
-145.5416761246389
 30
0.0
 10
113.3522542034328
 20
-145.5416761246389
 30
0.0
 10
113.5510362129317
 20
-145.5203165326303
 30
0.0
 10
113.5510362129317
 20
-145.2836384727937
 30
0.0
 10
113.5510362129317
 20
-145.1058715457548
 30
0.0
 10
113.4201225844922
 20
-145.0507500179908
 30
0.0
 10
113.3098795289642
 20
-145.0507500179908
 30
0.0
 10
113.0456407052455
 20
-145.0507500179908
 30
0.0
 10
113.0370279665324
 20
-145.2836384727937
 30
0.0
 10
113.0328938519501
 20
-145.3552964588869
 30
0.0
 10
113.0328938519501
 20
-145.3552964588869
 30
0.0
 10
112.8296332183204
 20
-145.3552964588869
 30
0.0
 10
112.8296332183204
 20
-145.3552964588869
 30
0.0
 10
112.8382459570335
 20
-145.2305840023208
 30
0.0
 10
112.8658067209155
 20
-144.854035065783
 30
0.0
 10
113.3226263822596
 20
-144.854035065783
 30
0.0
 10
113.5469020983494
 20
-144.854035065783
 30
0.0
 10
113.7880587823169
 20
-144.9811590891887
 30
0.0
 10
113.7880587823169
 20
-145.2770927913717
 30
0.0
 10
113.7880587823169
 20
-145.4634724571237
 30
0.0
 10
113.692974146924
 20
-145.5458102392212
 30
0.0
 10
113.5934108874003
 20
-145.6071329388586
 30
0.0
 10
113.6550780965862
 20
-145.6346937027406
 30
0.0
 10
113.8369791382074
 20
-145.714964427547
 30
0.0
 10
113.8369791382074
 20
-145.9922946141096
 30
0.0
 10
113.8369791382074
 20
-146.3306029907611
 30
0.0
 10
113.589276772818
 20
-146.4976901217957
 30
0.0
 10
113.3119465862553
 20
-146.4976901217957
 30
0.0
  0
HATCH
  5
11E
330
10B
100
AcDbEntity
  8
_U+30EC_U+30A4_U+30E4_U+30FC 1
 62
   179
420
  2234388
100
AcDbHatch
 10
0.0
 20
0.0
 30
0.0
210
0.0
220
0.0
230
1.0
  2
SOLID
 70
     1
 71
     0
 91
        1
 92
        1
 93
        1
 72
     4
 94
        3
 73
     0
 74
     1
 95
       62
 96
       58
 40
0.0
 40
0.0
 40
0.0
 40
0.0
 40
1.0
 40
1.0
 40
1.0
 40
2.0
 40
2.0
 40
2.0
 40
3.0
 40
3.0
 40
3.0
 40
4.0
 40
4.0
 40
4.0
 40
5.0
 40
5.0
 40
5.0
 40
6.0
 40
6.0
 40
6.0
 40
7.0
 40
7.0
 40
7.0
 40
8.0
 40
8.0
 40
8.0
 40
9.0
 40
9.0
 40
9.0
 40
10.0
 40
10.0
 40
10.0
 40
11.0
 40
11.0
 40
11.0
 40
12.0
 40
12.0
 40
12.0
 40
13.0
 40
13.0
 40
13.0
 40
14.0
 40
14.0
 40
14.0
 40
15.0
 40
15.0
 40
15.0
 40
16.0
 40
16.0
 40
16.0
 40
17.0
 40
17.0
 40
17.0
 40
18.0
 40
18.0
 40
18.0
 40
19.0
 40
19.0
 40
19.0
 40
19.0
 10
113.3119465862553
 20
-146.4976901217957
 10
113.2168619508625
 20
-146.4976901217957
 10
112.9991319161947
 20
-146.4766750393357
 10
112.8744194596286
 20
-146.2906398831322
 10
112.8000053971472
 20
-146.1783297703131
 10
112.7958712825649
 20
-146.0791110203379
 10
112.7917371679826
 20
-145.9943616714007
 10
112.7917371679826
 20
-145.9943616714007
 10
113.0115342599416
 20
-145.9943616714007
 10
113.0115342599416
 20
-145.9943616714007
 10
113.0136013172327
 20
-146.0684312243336
 10
113.0246256227855
 20
-146.3030422268791
 10
113.307812471673
 20
-146.3030422268791
 10
113.445616291083
 20
-146.3030422268791
 10
113.5978895115311
 20
-146.2334512980771
 10
113.5978895115311
 20
-146.005041467405
 10
113.5978895115311
 20
-145.8885972400035
 10
113.5596489516448
 20
-145.8400213936615
 10
113.5279540731805
 20
-145.8083265151972
 10
113.4538845202476
 20
-145.7342569622644
 10
113.3374402928462
 20
-145.7215101089689
 10
113.2823187650822
 20
-145.7215101089689
 10
113.2637152494619
 20
-145.7215101089689
 10
113.2275417468667
 20
-145.7235771662601
 10
113.1999809829847
 20
-145.7277112808424
 10
113.1999809829847
 20
-145.7277112808424
 10
113.1999809829847
 20
-145.5330633859258
 10
113.1999809829847
 20
-145.5330633859258
 10
113.238221542871
 20
-145.5396090673478
 10
113.2802517077911
 20
-145.5416761246389
 10
113.286797389213
 20
-145.5416761246389
 10
113.3522542034328
 20
-145.5416761246389
 10
113.5510362129317
 20
-145.5203165326303
 10
113.5510362129317
 20
-145.2836384727937
 10
113.5510362129317
 20
-145.1058715457548
 10
113.4201225844922
 20
-145.0507500179908
 10
113.3098795289642
 20
-145.0507500179908
 10
113.0456407052455
 20
-145.0507500179908
 10
113.0370279665324
 20
-145.2836384727937
 10
113.0328938519501
 20
-145.3552964588869
 10
113.0328938519501
 20
-145.3552964588869
 10
112.8296332183204
 20
-145.3552964588869
 10
112.8296332183204
 20
-145.3552964588869
 10
112.8382459570335
 20
-145.2305840023208
 10
112.8658067209155
 20
-144.854035065783
 10
113.3226263822596
 20
-144.854035065783
 10
113.5469020983494
 20
-144.854035065783
 10
113.7880587823169
 20
-144.9811590891887
 10
113.7880587823169
 20
-145.2770927913717
 10
113.7880587823169
 20
-145.4634724571237
 10
113.692974146924
 20
-145.5458102392212
 10
113.5934108874003
 20
-145.6071329388586
 10
113.6550780965862
 20
-145.6346937027406
 10
113.8369791382074
 20
-145.714964427547
 10
113.8369791382074
 20
-145.9922946141096
 10
113.8369791382074
 20
-146.3306029907611
 10
113.589276772818
 20
-146.4976901217957
 10
113.3119465862553
 20
-146.4976901217957
 97
        0
 97
        0
 75
     2
 76
     1
 98
        0
  0
ENDBLK
  5
10E
330
10B
100
AcDbEntity
  8
0
100
AcDbBlockEnd
  0
ENDSEC
  0
SECTION
  2
ENTITIES
  0
SPLINE
  5
41
330
1F
100
AcDbEntity
  8
_U+30EC_U+30A4_U+30E4_U+30FC 1
 62
   179
420
  2234388
370
    25
100
AcDbSpline
210
0.0
220
0.0
230
1.0
 70
     8
 71
     3
 72
    38
 73
    34
 74
     0
 42
0.0000000001
 43
0.0000000001
 12
1.0
 22
0.0
 32
0.0
 13
1.0
 23
0.0
 33
0.0
 40
0.0
 40
0.0
 40
0.0
 40
0.0
 40
1.0
 40
1.0
 40
1.0
 40
2.0
 40
2.0
 40
2.0
 40
3.0
 40
3.0
 40
3.0
 40
4.0
 40
4.0
 40
4.0
 40
5.0
 40
5.0
 40
5.0
 40
6.0
 40
6.0
 40
6.0
 40
7.0
 40
7.0
 40
7.0
 40
8.0
 40
8.0
 40
8.0
 40
9.0
 40
9.0
 40
9.0
 40
10.0
 40
10.0
 40
10.0
 40
11.0
 40
11.0
 40
11.0
 40
11.0
 10
119.4601824143895
 20
-139.5633427165062
 30
0.0
 10
123.6024898643902
 20
-139.5633427165062
 30
0.0
 10
124.0628730463769
 20
-141.0608880432124
 30
0.0
 10
124.0628730463769
 20
-144.5473892698256
 30
0.0
 10
124.0628730463769
 20
-144.5473892698256
 30
0.0
 10
124.0628730463769
 20
-149.9978048585373
 30
0.0
 10
124.0628730463769
 20
-149.9978048585373
 30
0.0
 10
124.0628730463769
 20
-151.5482646987123
 30
0.0
 10
121.9066954413929
 20
-152.5625008095699
 30
0.0
 10
120.1869037751562
 20
-152.5625008095699
 30
0.0
 10
120.1869037751562
 20
-152.5625008095699
 30
0.0
 10
106.6049593341072
 20
-152.5625008095699
 30
0.0
 10
106.6049593341072
 20
-152.5625008095699
 30
0.0
 10
106.6049593341072
 20
-152.5625008095699
 30
0.0
 10
106.6049593341072
 20
-150.4123198239149
 30
0.0
 10
106.6049593341072
 20
-150.4123198239149
 30
0.0
 10
106.6049593341072
 20
-150.4123198239149
 30
0.0
 10
102.0188482241426
 20
-150.4123198239149
 30
0.0
 10
102.0188482241426
 20
-150.4123198239149
 30
0.0
 10
100.6666482461821
 20
-150.4123198239149
 30
0.0
 10
99.78470380195813
 20
-151.056493467078
 30
0.0
 10
99.78470380195813
 20
-152.3497769292791
 30
0.0
 10
99.78470380195813
 20
-154.3486159468594
 30
0.0
 10
101.5627068159722
 20
-154.5475809770559
 30
0.0
 10
101.5627068159722
 20
-154.5475809770559
 30
0.0
 10
101.5627068159722
 20
-154.5475809770559
 30
0.0
 10
101.5627068159722
 20
-158.6486226426973
 30
0.0
 10
101.5627068159722
 20
-158.6486226426973
 30
0.0
 10
101.5627068159722
 20
-160.0470353468155
 30
0.0
 10
100.2616557400442
 20
-160.0470353468155
 30
0.0
 10
100.2616557400442
 20
-160.0470353468155
 30
0.0
 10
100.2616557400442
 20
-160.0470353468155
 30
0.0
 10
92.62966035010648
 20
-160.0470353468155
 30
0.0
 10
92.62966035010648
 20
-160.0470353468155
 30
0.0
  0
POLYLINE
  5
42
330
1F
100
AcDbEntity
  8
_U+30EC_U+30A4_U+30E4_U+30FC 1
 62
   179
420
  2234388
370
    25
100
AcDb2dPolyline
 66
     1
 10
0.0
 20
0.0
 30
0.0
  0
VERTEX
  5
43
330
42
100
AcDbEntity
  8
_U+30EC_U+30A4_U+30E4_U+30FC 1
 62
   179
420
  2234388
370
    25
100
AcDbVertex
100
AcDb2dVertex
 10
106.6050023978008
 20
-152.5623554696041
 30
0.0
  0
VERTEX
  5
44
330
42
100
AcDbEntity
  8
_U+30EC_U+30A4_U+30E4_U+30FC 1
 62
   179
420
  2234388
370
    25
100
AcDbVertex
100
AcDb2dVertex
 10
106.6050023978008
 20
-150.5624613915315
 30
0.0
  0
SEQEND
  5
45
330
42
100
AcDbEntity
  8
_U+30EC_U+30A4_U+30E4_U+30FC 1
 62
   179
420
  2234388
370
    25
  0
POLYLINE
  5
46
330
1F
100
AcDbEntity
  8
_U+30EC_U+30A4_U+30E4_U+30FC 1
 62
   179
420
  2234388
370
     9
100
AcDb2dPolyline
 66
     1
 10
0.0
 20
0.0
 30
0.0
  0
VERTEX
  5
47
330
46
100
AcDbEntity
  8
_U+30EC_U+30A4_U+30E4_U+30FC 1
 62
   179
420
  2234388
370
     9
100
AcDbVertex
100
AcDb2dVertex
 10
92.24119353637438
 20
-144.3981628056974
 30
0.0
  0
VERTEX
  5
48
330
46
100
AcDbEntity
  8
_U+30EC_U+30A4_U+30E4_U+30FC 1
 62
   179
420
  2234388
370
     9
100
AcDbVertex
100
AcDb2dVertex
 10
91.7405996305208
 20
-143.5324479909859
 30
0.0
  0
SEQEND
  5
49
330
46
100
AcDbEntity
  8
_U+30EC_U+30A4_U+30E4_U+30FC 1
 62
   179
420
  2234388
370
     9
  0
POLYLINE
  5
4A
330
1F
100
AcDbEntity
  8
_U+30EC_U+30A4_U+30E4_U+30FC 1
 62
   179
420
  2234388
370
     9
100
AcDb2dPolyline
 66
     1
 10
0.0
 20
0.0
 30
0.0
  0
VERTEX
  5
4B
330
4A
100
AcDbEntity
  8
_U+30EC_U+30A4_U+30E4_U+30FC 1
 62
   179
420
  2234388
370
     9
100
AcDbVertex
100
AcDb2dVertex
 10
92.24119353637438
 20
-144.3981628056974
 30
0.0
  0
VERTEX
  5
4C
330
4A
100
AcDbEntity
  8
_U+30EC_U+30A4_U+30E4_U+30FC 1
 62
   179
420
  2234388
370
     9
100
AcDbVertex
100
AcDb2dVertex
 10
91.37476278775745
 20
-143.8986347262595
 30
0.0
  0
SEQEND
  5
4D
330
4A
100
AcDbEntity
  8
_U+30EC_U+30A4_U+30E4_U+30FC 1
 62
   179
420
  2234388
370
     9
  0
SPLINE
  5
4E
330
1F
100
AcDbEntity
  8
_U+30EC_U+30A4_U+30E4_U+30FC 1
 62
   179
420
  2234388
370
     9
100
AcDbSpline
210
0.0
220
0.0
230
1.0
 70
    11
 71
     3
 72
    17
 73
    13
 74
     0
 42
0.0000000001
 43
0.0000000001
 12
1.0
 22
0.0
 32
0.0
 13
1.0
 23
0.0
 33
0.0
 40
0.0
 40
0.0
 40
0.0
 40
0.0
 40
1.0
 40
1.0
 40
1.0
 40
2.0
 40
2.0
 40
2.0
 40
3.0
 40
3.0
 40
3.0
 40
4.0
 40
4.0
 40
4.0
 40
4.0
 10
84.4628677157007
 20
-160.0471699208579
 30
0.0
 10
84.4628677157007
 20
-159.9921399034427
 30
0.0
 10
84.50767010589402
 20
-159.9473375132494
 30
0.0
 10
84.5627001233092
 20
-159.9473375132494
 30
0.0
 10
84.61773552368606
 20
-159.9473375132494
 30
0.0
 10
84.6625379138794
 20
-159.9921399034427
 30
0.0
 10
84.6625379138794
 20
-160.0471699208579
 30
0.0
 10
84.6625379138794
 20
-160.1025605967067
 30
0.0
 10
84.61773552368606
 20
-160.1473629869
 30
0.0
 10
84.5627001233092
 20
-160.1473629869
 30
0.0
 10
84.50767010589402
 20
-160.1473629869
 30
0.0
 10
84.4628677157007
 20
-160.1025605967067
 30
0.0
 10
84.4628677157007
 20
-160.0471699208579
 30
0.0
  0
SPLINE
  5
4F
330
1F
100
AcDbEntity
  8
_U+30EC_U+30A4_U+30E4_U+30FC 1
 62
   179
420
  2234388
370
     9
100
AcDbSpline
210
0.0
220
0.0
230
1.0
 70
    11
 71
     3
 72
    17
 73
    13
 74
     0
 42
0.0000000001
 43
0.0000000001
 12
1.0
 22
0.0
 32
0.0
 13
1.0
 23
0.0
 33
0.0
 40
0.0
 40
0.0
 40
0.0
 40
0.0
 40
1.0
 40
1.0
 40
1.0
 40
2.0
 40
2.0
 40
2.0
 40
3.0
 40
3.0
 40
3.0
 40
4.0
 40
4.0
 40
4.0
 40
4.0
 10
84.4628677157007
 20
-139.5474683624656
 30
0.0
 10
84.4628677157007
 20
-139.4924383450504
 30
0.0
 10
84.50767010589402
 20
-139.4476359548571
 30
0.0
 10
84.5627001233092
 20
-139.4476359548571
 30
0.0
 10
84.61773552368606
 20
-139.4476359548571
 30
0.0
 10
84.6625379138794
 20
-139.4924383450504
 30
0.0
 10
84.6625379138794
 20
-139.5474683624656
 30
0.0
 10
84.6625379138794
 20
-139.6028590383144
 30
0.0
 10
84.61773552368606
 20
-139.6476614285077
 30
0.0
 10
84.5627001233092
 20
-139.6476614285077
 30
0.0
 10
84.50767010589402
 20
-139.6476614285077
 30
0.0
 10
84.4628677157007
 20
-139.6028590383144
 30
0.0
 10
84.4628677157007
 20
-139.5474683624656
 30
0.0
  0
SPLINE
  5
50
330
1F
100
AcDbEntity
  8
_U+30EC_U+30A4_U+30E4_U+30FC 1
 62
   179
420
  2234388
370
     9
100
AcDbSpline
210
0.0
220
0.0
230
1.0
 70
    11
 71
     3
 72
    17
 73
    13
 74
     0
 42
0.0000000001
 43
0.0000000001
 12
1.0
 22
0.0
 32
0.0
 13
1.0
 23
0.0
 33
0.0
 40
0.0
 40
0.0
 40
0.0
 40
0.0
 40
1.0
 40
1.0
 40
1.0
 40
2.0
 40
2.0
 40
2.0
 40
3.0
 40
3.0
 40
3.0
 40
4.0
 40
4.0
 40
4.0
 40
4.0
 10
127.9630441133814
 20
-152.5623554696041
 30
0.0
 10
127.9630441133814
 20
-152.506970176717
 30
0.0
 10
128.0078411206131
 20
-152.4625230619956
 30
0.0
 10
128.0628765209899
 20
-152.4625230619956
 30
0.0
 10
128.1179119213668
 20
-152.4625230619956
 30
0.0
 10
128.1627089285984
 20
-152.506970176717
 30
0.0
 10
128.1627089285984
 20
-152.5623554696041
 30
0.0
 10
128.1627089285984
 20
-152.617390869981
 30
0.0
 10
128.1179119213668
 20
-152.6621932601743
 30
0.0
 10
128.0628765209899
 20
-152.6621932601743
 30
0.0
 10
128.0078411206131
 20
-152.6621932601743
 30
0.0
 10
127.9630441133814
 20
-152.617390869981
 30
0.0
 10
127.9630441133814
 20
-152.5623554696041
 30
0.0
  0
SPLINE
  5
51
330
1F
100
AcDbEntity
  8
_U+30EC_U+30A4_U+30E4_U+30FC 1
 62
   179
420
  2234388
370
     9
100
AcDbSpline
210
0.0
220
0.0
230
1.0
 70
    11
 71
     3
 72
    17
 73
    13
 74
     0
 42
0.0000000001
 43
0.0000000001
 12
1.0
 22
0.0
 32
0.0
 13
1.0
 23
0.0
 33
0.0
 40
0.0
 40
0.0
 40
0.0
 40
0.0
 40
1.0
 40
1.0
 40
1.0
 40
2.0
 40
2.0
 40
2.0
 40
3.0
 40
3.0
 40
3.0
 40
4.0
 40
4.0
 40
4.0
 40
4.0
 10
127.9630441133814
 20
-139.5622822730521
 30
0.0
 10
127.9630441133814
 20
-139.507252255637
 30
0.0
 10
128.0078411206131
 20
-139.4624498654436
 30
0.0
 10
128.0628765209899
 20
-139.4624498654436
 30
0.0
 10
128.1179119213668
 20
-139.4624498654436
 30
0.0
 10
128.1627089285984
 20
-139.507252255637
 30
0.0
 10
128.1627089285984
 20
-139.5622822730521
 30
0.0
 10
128.1627089285984
 20
-139.6176729489009
 30
0.0
 10
128.1179119213668
 20
-139.6624753390943
 30
0.0
 10
128.0628765209899
 20
-139.6624753390943
 30
0.0
 10
128.0078411206131
 20
-139.6624753390943
 30
0.0
 10
127.9630441133814
 20
-139.6176729489009
 30
0.0
 10
127.9630441133814
 20
-139.5622822730521
 30
0.0
  0
SPLINE
  5
52
330
1F
100
AcDbEntity
  8
_U+30EC_U+30A4_U+30E4_U+30FC 1
 62
   179
420
  2234388
370
     9
100
AcDbSpline
210
0.0
220
0.0
230
1.0
 70
    11
 71
     3
 72
    17
 73
    13
 74
     0
 42
0.0000000001
 43
0.0000000001
 12
1.0
 22
0.0
 32
0.0
 13
1.0
 23
0.0
 33
0.0
 40
0.0
 40
0.0
 40
0.0
 40
0.0
 40
1.0
 40
1.0
 40
1.0
 40
2.0
 40
2.0
 40
2.0
 40
3.0
 40
3.0
 40
3.0
 40
4.0
 40
4.0
 40
4.0
 40
4.0
 10
123.9629329795344
 20
-164.0472810547049
 30
0.0
 10
123.9629329795344
 20
-163.9922510372897
 30
0.0
 10
124.0077299867661
 20
-163.9474486470964
 30
0.0
 10
124.0627653871429
 20
-163.9474486470964
 30
0.0
 10
124.1178007875198
 20
-163.9474486470964
 30
0.0
 10
124.1625977947515
 20
-163.9922510372897
 30
0.0
 10
124.1625977947515
 20
-164.0472810547049
 30
0.0
 10
124.1625977947515
 20
-164.1023164550817
 30
0.0
 10
124.1178007875198
 20
-164.1471188452751
 30
0.0
 10
124.0627653871429
 20
-164.1471188452751
 30
0.0
 10
124.0077299867661
 20
-164.1471188452751
 30
0.0
 10
123.9629329795344
 20
-164.1023164550817
 30
0.0
 10
123.9629329795344
 20
-164.0472810547049
 30
0.0
  0
SPLINE
  5
53
330
1F
100
AcDbEntity
  8
_U+30EC_U+30A4_U+30E4_U+30FC 1
 62
   179
420
  2234388
370
     9
100
AcDbSpline
210
0.0
220
0.0
230
1.0
 70
    11
 71
     3
 72
    17
 73
    13
 74
     0
 42
0.0000000001
 43
0.0000000001
 12
1.0
 22
0.0
 32
0.0
 13
1.0
 23
0.0
 33
0.0
 40
0.0
 40
0.0
 40
0.0
 40
0.0
 40
1.0
 40
1.0
 40
1.0
 40
2.0
 40
2.0
 40
2.0
 40
3.0
 40
3.0
 40
3.0
 40
4.0
 40
4.0
 40
4.0
 40
4.0
 10
123.9629329795344
 20
-136.0424443646575
 30
0.0
 10
123.9629329795344
 20
-135.9874143472423
 30
0.0
 10
124.0077299867661
 20
-135.942611957049
 30
0.0
 10
124.0627653871429
 20
-135.942611957049
 30
0.0
 10
124.1178007875198
 20
-135.942611957049
 30
0.0
 10
124.1625977947515
 20
-135.9874143472423
 30
0.0
 10
124.1625977947515
 20
-136.0424443646575
 30
0.0
 10
124.1625977947515
 20
-136.0974797650343
 30
0.0
 10
124.1178007875198
 20
-136.1422821552277
 30
0.0
 10
124.0627653871429
 20
-136.1422821552277
 30
0.0
 10
124.0077299867661
 20
-136.1422821552277
 30
0.0
 10
123.9629329795344
 20
-136.0974797650343
 30
0.0
 10
123.9629329795344
 20
-136.0424443646575
 30
0.0
  0
SPLINE
  5
54
330
1F
100
AcDbEntity
  8
_U+30EC_U+30A4_U+30E4_U+30FC 1
 62
   179
420
  2234388
370
     9
100
AcDbSpline
210
0.0
220
0.0
230
1.0
 70
    11
 71
     3
 72
    17
 73
    13
 74
     0
 42
0.0000000001
 43
0.0000000001
 12
1.0
 22
0.0
 32
0.0
 13
1.0
 23
0.0
 33
0.0
 40
0.0
 40
0.0
 40
0.0
 40
0.0
 40
1.0
 40
1.0
 40
1.0
 40
2.0
 40
2.0
 40
2.0
 40
3.0
 40
3.0
 40
3.0
 40
4.0
 40
4.0
 40
4.0
 40
4.0
 10
101.4626590898958
 20
-164.0472810547049
 30
0.0
 10
101.4626590898958
 20
-163.9922510372897
 30
0.0
 10
101.5074560971278
 20
-163.9474486470964
 30
0.0
 10
101.5624914975047
 20
-163.9474486470964
 30
0.0
 10
101.6178714074301
 20
-163.9474486470964
 30
0.0
 10
101.6626791805848
 20
-163.9922510372897
 30
0.0
 10
101.6626791805848
 20
-164.0472810547049
 30
0.0
 10
101.6626791805848
 20
-164.1023164550817
 30
0.0
 10
101.6178714074301
 20
-164.1471188452751
 30
0.0
 10
101.5624914975047
 20
-164.1471188452751
 30
0.0
 10
101.5074560971278
 20
-164.1471188452751
 30
0.0
 10
101.4626590898958
 20
-164.1023164550817
 30
0.0
 10
101.4626590898958
 20
-164.0472810547049
 30
0.0
  0
SPLINE
  5
55
330
1F
100
AcDbEntity
  8
_U+30EC_U+30A4_U+30E4_U+30FC 1
 62
   179
420
  2234388
370
     9
100
AcDbSpline
210
0.0
220
0.0
230
1.0
 70
    11
 71
     3
 72
    17
 73
    13
 74
     0
 42
0.0000000001
 43
0.0000000001
 12
1.0
 22
0.0
 32
0.0
 13
1.0
 23
0.0
 33
0.0
 40
0.0
 40
0.0
 40
0.0
 40
0.0
 40
1.0
 40
1.0
 40
1.0
 40
2.0
 40
2.0
 40
2.0
 40
3.0
 40
3.0
 40
3.0
 40
4.0
 40
4.0
 40
4.0
 40
4.0
 10
88.46262357407575
 20
-164.0472810547049
 30
0.0
 10
88.46262357407575
 20
-163.9922510372897
 30
0.0
 10
88.5074205813074
 20
-163.9474486470964
 30
0.0
 10
88.56281125715617
 20
-163.9474486470964
 30
0.0
 10
88.61783589160964
 20
-163.9474486470964
 30
0.0
 10
88.66264366476469
 20
-163.9922510372897
 30
0.0
 10
88.66264366476469
 20
-164.0472810547049
 30
0.0
 10
88.66264366476469
 20
-164.1023164550817
 30
0.0
 10
88.61783589160964
 20
-164.1471188452751
 30
0.0
 10
88.56281125715617
 20
-164.1471188452751
 30
0.0
 10
88.5074205813074
 20
-164.1471188452751
 30
0.0
 10
88.46262357407575
 20
-164.1023164550817
 30
0.0
 10
88.46262357407575
 20
-164.0472810547049
 30
0.0
  0
SPLINE
  5
56
330
1F
100
AcDbEntity
  8
_U+30EC_U+30A4_U+30E4_U+30FC 1
 62
   179
420
  2234388
370
     9
100
AcDbSpline
210
0.0
220
0.0
230
1.0
 70
    11
 71
     3
 72
    17
 73
    13
 74
     0
 42
0.0000000001
 43
0.0000000001
 12
1.0
 22
0.0
 32
0.0
 13
1.0
 23
0.0
 33
0.0
 40
0.0
 40
0.0
 40
0.0
 40
0.0
 40
1.0
 40
1.0
 40
1.0
 40
2.0
 40
2.0
 40
2.0
 40
3.0
 40
3.0
 40
3.0
 40
4.0
 40
4.0
 40
4.0
 40
4.0
 10
88.46262357407575
 20
-136.0424443646575
 30
0.0
 10
88.46262357407575
 20
-135.9874143472423
 30
0.0
 10
88.5074205813074
 20
-135.942611957049
 30
0.0
 10
88.56281125715617
 20
-135.942611957049
 30
0.0
 10
88.61783589160964
 20
-135.942611957049
 30
0.0
 10
88.66264366476469
 20
-135.9874143472423
 30
0.0
 10
88.66264366476469
 20
-136.0424443646575
 30
0.0
 10
88.66264366476469
 20
-136.0974797650343
 30
0.0
 10
88.61783589160964
 20
-136.1422821552277
 30
0.0
 10
88.56281125715617
 20
-136.1422821552277
 30
0.0
 10
88.5074205813074
 20
-136.1422821552277
 30
0.0
 10
88.46262357407575
 20
-136.0974797650343
 30
0.0
 10
88.46262357407575
 20
-136.0424443646575
 30
0.0
  0
POLYLINE
  5
57
330
1F
100
AcDbEntity
  8
_U+30EC_U+30A4_U+30E4_U+30FC 1
 62
   179
420
  2234388
370
     9
100
AcDb2dPolyline
 66
     1
 10
0.0
 20
0.0
 30
0.0
  0
VERTEX
  5
58
330
57
100
AcDbEntity
  8
_U+30EC_U+30A4_U+30E4_U+30FC 1
 62
   179
420
  2234388
370
     9
100
AcDbVertex
100
AcDb2dVertex
 10
128.0629518824537
 20
-152.5623554696041
 30
0.0
  0
VERTEX
  5
59
330
57
100
AcDbEntity
  8
_U+30EC_U+30A4_U+30E4_U+30FC 1
 62
   179
420
  2234388
370
     9
100
AcDbVertex
100
AcDb2dVertex
 10
128.0629518824537
 20
-139.5621423160481
 30
0.0
  0
SEQEND
  5
5A
330
57
100
AcDbEntity
  8
_U+30EC_U+30A4_U+30E4_U+30FC 1
 62
   179
420
  2234388
370
     9
  0
POLYLINE
  5
5B
330
1F
100
AcDbEntity
  8
_U+30EC_U+30A4_U+30E4_U+30FC 1
 62
   179
420
  2234388
370
     9
100
AcDb2dPolyline
 66
     1
 10
0.0
 20
0.0
 30
0.0
  0
VERTEX
  5
5C
330
5B
100
AcDbEntity
  8
_U+30EC_U+30A4_U+30E4_U+30FC 1
 62
   179
420
  2234388
370
     9
100
AcDbVertex
100
AcDb2dVertex
 10
126.6029096498814
 20
-152.5623554696041
 30
0.0
  0
VERTEX
  5
5D
330
5B
100
AcDbEntity
  8
_U+30EC_U+30A4_U+30E4_U+30FC 1
 62
   179
420
  2234388
370
     9
100
AcDbVertex
100
AcDb2dVertex
 10
129.0628262515071
 20
-152.5623554696041
 30
0.0
  0
SEQEND
  5
5E
330
5B
100
AcDbEntity
  8
_U+30EC_U+30A4_U+30E4_U+30FC 1
 62
   179
420
  2234388
370
     9
  0
POLYLINE
  5
5F
330
1F
100
AcDbEntity
  8
_U+30EC_U+30A4_U+30E4_U+30FC 1
 62
   179
420
  2234388
370
     9
100
AcDb2dPolyline
 66
     1
 10
0.0
 20
0.0
 30
0.0
  0
VERTEX
  5
60
330
5F
100
AcDbEntity
  8
_U+30EC_U+30A4_U+30E4_U+30FC 1
 62
   179
420
  2234388
370
     9
100
AcDbVertex
100
AcDb2dVertex
 10
123.6025759917773
 20
-139.5622822730521
 30
0.0
  0
VERTEX
  5
61
330
5F
100
AcDbEntity
  8
_U+30EC_U+30A4_U+30E4_U+30FC 1
 62
   179
420
  2234388
370
     9
100
AcDbVertex
100
AcDb2dVertex
 10
129.0628693152007
 20
-139.5622822730521
 30
0.0
  0
SEQEND
  5
62
330
5F
100
AcDbEntity
  8
_U+30EC_U+30A4_U+30E4_U+30FC 1
 62
   179
420
  2234388
370
     9
  0
INSERT
  5
64
330
1F
100
AcDbEntity
  8
_U+30EC_U+30A4_U+30E4_U+30FC 1
100
AcDbBlockReference
  2
block 2
 10
0.0
 20
0.0
 30
0.0
  0
POLYLINE
  5
6B
330
1F
100
AcDbEntity
  8
_U+30EC_U+30A4_U+30E4_U+30FC 1
 62
   179
420
  2234388
370
     9
100
AcDb2dPolyline
 66
     1
 10
0.0
 20
0.0
 30
0.0
  0
VERTEX
  5
6C
330
6B
100
AcDbEntity
  8
_U+30EC_U+30A4_U+30E4_U+30FC 1
 62
   179
420
  2234388
370
     9
100
AcDbVertex
100
AcDb2dVertex
 10
84.56277548477294
 20
-160.0278773861405
 30
0.0
  0
VERTEX
  5
6D
330
6B
100
AcDbEntity
  8
_U+30EC_U+30A4_U+30E4_U+30FC 1
 62
   179
420
  2234388
370
     9
100
AcDbVertex
100
AcDb2dVertex
 10
84.56277548477294
 20
-139.5283157847523
 30
0.0
  0
SEQEND
  5
6E
330
6B
100
AcDbEntity
  8
_U+30EC_U+30A4_U+30E4_U+30FC 1
 62
   179
420
  2234388
370
     9
  0
POLYLINE
  5
6F
330
1F
100
AcDbEntity
  8
_U+30EC_U+30A4_U+30E4_U+30FC 1
 62
   179
420
  2234388
370
     9
100
AcDb2dPolyline
 66
     1
 10
0.0
 20
0.0
 30
0.0
  0
VERTEX
  5
70
330
6F
100
AcDbEntity
  8
_U+30EC_U+30A4_U+30E4_U+30FC 1
 62
   179
420
  2234388
370
     9
100
AcDbVertex
100
AcDb2dVertex
 10
88.02267411468596
 20
-160.0471699208579
 30
0.0
  0
VERTEX
  5
71
330
6F
100
AcDbEntity
  8
_U+30EC_U+30A4_U+30E4_U+30FC 1
 62
   179
420
  2234388
370
     9
100
AcDbVertex
100
AcDb2dVertex
 10
83.56250277655404
 20
-160.0471699208579
 30
0.0
  0
SEQEND
  5
72
330
6F
100
AcDbEntity
  8
_U+30EC_U+30A4_U+30E4_U+30FC 1
 62
   179
420
  2234388
370
     9
  0
POLYLINE
  5
73
330
1F
100
AcDbEntity
  8
_U+30EC_U+30A4_U+30E4_U+30FC 1
 62
   179
420
  2234388
370
     9
100
AcDb2dPolyline
 66
     1
 10
0.0
 20
0.0
 30
0.0
  0
VERTEX
  5
74
330
73
100
AcDbEntity
  8
_U+30EC_U+30A4_U+30E4_U+30FC 1
 62
   179
420
  2234388
370
     9
100
AcDbVertex
100
AcDb2dVertex
 10
87.02255212939487
 20
-139.5474683624656
 30
0.0
  0
VERTEX
  5
75
330
73
100
AcDbEntity
  8
_U+30EC_U+30A4_U+30E4_U+30FC 1
 62
   179
420
  2234388
370
     9
100
AcDbVertex
100
AcDb2dVertex
 10
83.56250277655404
 20
-139.5474683624656
 30
0.0
  0
SEQEND
  5
76
330
73
100
AcDbEntity
  8
_U+30EC_U+30A4_U+30E4_U+30FC 1
 62
   179
420
  2234388
370
     9
  0
INSERT
  5
78
330
1F
100
AcDbEntity
  8
_U+30EC_U+30A4_U+30E4_U+30FC 1
100
AcDbBlockReference
  2
block 3
 10
0.0
 20
0.0
 30
0.0
  0
POLYLINE
  5
8A
330
1F
100
AcDbEntity
  8
_U+30EC_U+30A4_U+30E4_U+30FC 1
 62
   179
420
  2234388
370
     9
100
AcDb2dPolyline
 66
     1
 10
0.0
 20
0.0
 30
0.0
  0
VERTEX
  5
8B
330
8A
100
AcDbEntity
  8
_U+30EC_U+30A4_U+30E4_U+30FC 1
 62
   179
420
  2234388
370
     9
100
AcDbVertex
100
AcDb2dVertex
 10
92.24119353637438
 20
-144.3981628056974
 30
0.0
  0
VERTEX
  5
8C
330
8A
100
AcDbEntity
  8
_U+30EC_U+30A4_U+30E4_U+30FC 1
 62
   179
420
  2234388
370
     9
100
AcDbVertex
100
AcDb2dVertex
 10
86.14236253068339
 20
-138.3300362135186
 30
0.0
  0
SEQEND
  5
8D
330
8A
100
AcDbEntity
  8
_U+30EC_U+30A4_U+30E4_U+30FC 1
 62
   179
420
  2234388
370
     9
  0
POLYLINE
  5
8E
330
1F
100
AcDbEntity
  8
_U+30EC_U+30A4_U+30E4_U+30FC 1
 62
   179
420
  2234388
370
     9
100
AcDb2dPolyline
 66
     1
 10
0.0
 20
0.0
 30
0.0
  0
VERTEX
  5
8F
330
8E
100
AcDbEntity
  8
_U+30EC_U+30A4_U+30E4_U+30FC 1
 62
   179
420
  2234388
370
     9
100
AcDbVertex
100
AcDb2dVertex
 10
86.1423409988366
 20
-138.3299931498251
 30
0.0
  0
VERTEX
  5
90
330
8E
100
AcDbEntity
  8
_U+30EC_U+30A4_U+30E4_U+30FC 1
 62
   179
420
  2234388
370
     9
100
AcDbVertex
100
AcDb2dVertex
 10
83.62808878185449
 20
-138.3299931498251
 30
0.0
  0
SEQEND
  5
91
330
8E
100
AcDbEntity
  8
_U+30EC_U+30A4_U+30E4_U+30FC 1
 62
   179
420
  2234388
370
     9
  0
INSERT
  5
93
330
1F
100
AcDbEntity
  8
_U+30EC_U+30A4_U+30E4_U+30FC 1
100
AcDbBlockReference
  2
block 4
 10
0.0
 20
0.0
 30
0.0
  0
POLYLINE
  5
9D
330
1F
100
AcDbEntity
  8
_U+30EC_U+30A4_U+30E4_U+30FC 1
 62
   179
420
  2234388
370
     9
100
AcDb2dPolyline
 66
     1
 10
0.0
 20
0.0
 30
0.0
  0
VERTEX
  5
9E
330
9D
100
AcDbEntity
  8
_U+30EC_U+30A4_U+30E4_U+30FC 1
 62
   179
420
  2234388
370
     9
100
AcDbVertex
100
AcDb2dVertex
 10
124.0628407486067
 20
-164.0472810547049
 30
0.0
  0
VERTEX
  5
9F
330
9D
100
AcDbEntity
  8
_U+30EC_U+30A4_U+30E4_U+30FC 1
 62
   179
420
  2234388
370
     9
100
AcDbVertex
100
AcDb2dVertex
 10
101.562674518202
 20
-164.0472810547049
 30
0.0
  0
SEQEND
  5
A0
330
9D
100
AcDbEntity
  8
_U+30EC_U+30A4_U+30E4_U+30FC 1
 62
   179
420
  2234388
370
     9
  0
POLYLINE
  5
A1
330
1F
100
AcDbEntity
  8
_U+30EC_U+30A4_U+30E4_U+30FC 1
 62
   179
420
  2234388
370
     9
100
AcDb2dPolyline
 66
     1
 10
0.0
 20
0.0
 30
0.0
  0
VERTEX
  5
A2
330
A1
100
AcDbEntity
  8
_U+30EC_U+30A4_U+30E4_U+30FC 1
 62
   179
420
  2234388
370
     9
100
AcDbVertex
100
AcDb2dVertex
 10
124.0628407486067
 20
-157.5873932762363
 30
0.0
  0
VERTEX
  5
A3
330
A1
100
AcDbEntity
  8
_U+30EC_U+30A4_U+30E4_U+30FC 1
 62
   179
420
  2234388
370
     9
100
AcDbVertex
100
AcDb2dVertex
 10
124.0628407486067
 20
-165.0472361681837
 30
0.0
  0
SEQEND
  5
A4
330
A1
100
AcDbEntity
  8
_U+30EC_U+30A4_U+30E4_U+30FC 1
 62
   179
420
  2234388
370
     9
  0
POLYLINE
  5
A5
330
1F
100
AcDbEntity
  8
_U+30EC_U+30A4_U+30E4_U+30FC 1
 62
   179
420
  2234388
370
     9
100
AcDb2dPolyline
 66
     1
 10
0.0
 20
0.0
 30
0.0
  0
VERTEX
  5
A6
330
A5
100
AcDbEntity
  8
_U+30EC_U+30A4_U+30E4_U+30FC 1
 62
   179
420
  2234388
370
     9
100
AcDbVertex
100
AcDb2dVertex
 10
101.5625668589681
 20
-162.5872442050943
 30
0.0
  0
VERTEX
  5
A7
330
A5
100
AcDbEntity
  8
_U+30EC_U+30A4_U+30E4_U+30FC 1
 62
   179
420
  2234388
370
     9
100
AcDbVertex
100
AcDb2dVertex
 10
101.5625668589681
 20
-165.0475214651536
 30
0.0
  0
SEQEND
  5
A8
330
A5
100
AcDbEntity
  8
_U+30EC_U+30A4_U+30E4_U+30FC 1
 62
   179
420
  2234388
370
     9
  0
INSERT
  5
AA
330
1F
100
AcDbEntity
  8
_U+30EC_U+30A4_U+30E4_U+30FC 1
100
AcDbBlockReference
  2
block 5
 10
0.0
 20
0.0
 30
0.0
  0
POLYLINE
  5
BB
330
1F
100
AcDbEntity
  8
_U+30EC_U+30A4_U+30E4_U+30FC 1
 62
   179
420
  2234388
370
     9
100
AcDb2dPolyline
 66
     1
 10
0.0
 20
0.0
 30
0.0
  0
VERTEX
  5
BC
330
BB
100
AcDbEntity
  8
_U+30EC_U+30A4_U+30E4_U+30FC 1
 62
   179
420
  2234388
370
     9
100
AcDbVertex
100
AcDb2dVertex
 10
124.0628407486067
 20
-136.0424443646575
 30
0.0
  0
VERTEX
  5
BD
330
BB
100
AcDbEntity
  8
_U+30EC_U+30A4_U+30E4_U+30FC 1
 62
   179
420
  2234388
370
     9
100
AcDbVertex
100
AcDb2dVertex
 10
88.56281125715617
 20
-136.0424443646575
 30
0.0
  0
SEQEND
  5
BE
330
BB
100
AcDbEntity
  8
_U+30EC_U+30A4_U+30E4_U+30FC 1
 62
   179
420
  2234388
370
     9
  0
POLYLINE
  5
BF
330
1F
100
AcDbEntity
  8
_U+30EC_U+30A4_U+30E4_U+30FC 1
 62
   179
420
  2234388
370
     5
100
AcDb2dPolyline
 66
     1
 10
0.0
 20
0.0
 30
0.0
  0
VERTEX
  5
C0
330
BF
100
AcDbEntity
  8
_U+30EC_U+30A4_U+30E4_U+30FC 1
 62
   179
420
  2234388
370
     5
100
AcDbVertex
100
AcDb2dVertex
 10
124.0628407486067
 20
-135.0874746620696
 30
0.0
  0
VERTEX
  5
C1
330
BF
100
AcDbEntity
  8
_U+30EC_U+30A4_U+30E4_U+30FC 1
 62
   179
420
  2234388
370
     5
100
AcDbVertex
100
AcDb2dVertex
 10
124.0628407486067
 20
-138.5475240149101
 30
0.0
  0
SEQEND
  5
C2
330
BF
100
AcDbEntity
  8
_U+30EC_U+30A4_U+30E4_U+30FC 1
 62
   179
420
  2234388
370
     5
  0
POLYLINE
  5
C3
330
1F
100
AcDbEntity
  8
_U+30EC_U+30A4_U+30E4_U+30FC 1
 62
   179
420
  2234388
370
     5
100
AcDb2dPolyline
 66
     1
 10
0.0
 20
0.0
 30
0.0
  0
VERTEX
  5
C4
330
C3
100
AcDbEntity
  8
_U+30EC_U+30A4_U+30E4_U+30FC 1
 62
   179
420
  2234388
370
     5
100
AcDbVertex
100
AcDb2dVertex
 10
88.56285432085006
 20
-135.0874746620696
 30
0.0
  0
VERTEX
  5
C5
330
C3
100
AcDbEntity
  8
_U+30EC_U+30A4_U+30E4_U+30FC 1
 62
   179
420
  2234388
370
     5
100
AcDbVertex
100
AcDb2dVertex
 10
88.56285432085006
 20
-138.5475240149101
 30
0.0
  0
SEQEND
  5
C6
330
C3
100
AcDbEntity
  8
_U+30EC_U+30A4_U+30E4_U+30FC 1
 62
   179
420
  2234388
370
     5
  0
INSERT
  5
C8
330
1F
100
AcDbEntity
  8
_U+30EC_U+30A4_U+30E4_U+30FC 1
100
AcDbBlockReference
  2
block 6
 10
0.0
 20
0.0
 30
0.0
  0
POLYLINE
  5
D9
330
1F
100
AcDbEntity
  8
_U+30EC_U+30A4_U+30E4_U+30FC 1
 62
   179
420
  2234388
370
     9
100
AcDb2dPolyline
 66
     1
 10
0.0
 20
0.0
 30
0.0
  0
VERTEX
  5
DA
330
D9
100
AcDbEntity
  8
_U+30EC_U+30A4_U+30E4_U+30FC 1
 62
   179
420
  2234388
370
     9
100
AcDbVertex
100
AcDb2dVertex
 10
101.5625668589681
 20
-164.0472810547049
 30
0.0
  0
VERTEX
  5
DB
330
D9
100
AcDbEntity
  8
_U+30EC_U+30A4_U+30E4_U+30FC 1
 62
   179
420
  2234388
370
     9
100
AcDbVertex
100
AcDb2dVertex
 10
88.56270359792227
 20
-164.0472810547049
 30
0.0
  0
SEQEND
  5
DC
330
D9
100
AcDbEntity
  8
_U+30EC_U+30A4_U+30E4_U+30FC 1
 62
   179
420
  2234388
370
     9
  0
POLYLINE
  5
DD
330
1F
100
AcDbEntity
  8
_U+30EC_U+30A4_U+30E4_U+30FC 1
 62
   179
420
  2234388
370
     9
100
AcDb2dPolyline
 66
     1
 10
0.0
 20
0.0
 30
0.0
  0
VERTEX
  5
DE
330
DD
100
AcDbEntity
  8
_U+30EC_U+30A4_U+30E4_U+30FC 1
 62
   179
420
  2234388
370
     9
100
AcDbVertex
100
AcDb2dVertex
 10
88.56285432085006
 20
-159.5872550565387
 30
0.0
  0
VERTEX
  5
DF
330
DD
100
AcDbEntity
  8
_U+30EC_U+30A4_U+30E4_U+30FC 1
 62
   179
420
  2234388
370
     9
100
AcDbVertex
100
AcDb2dVertex
 10
88.56285432085006
 20
-165.0475537629238
 30
0.0
  0
SEQEND
  5
E0
330
DD
100
AcDbEntity
  8
_U+30EC_U+30A4_U+30E4_U+30FC 1
 62
   179
420
  2234388
370
     9
  0
INSERT
  5
E2
330
1F
100
AcDbEntity
  8
_U+30EC_U+30A4_U+30E4_U+30FC 1
100
AcDbBlockReference
  2
block 7
 10
0.0
 20
0.0
 30
0.0
  0
POLYLINE
  5
E9
330
1F
100
AcDbEntity
  8
_U+30EC_U+30A4_U+30E4_U+30FC 1
  6
AI-Linetype-1
 62
   179
420
  2234388
370
    25
100
AcDb2dPolyline
 66
     1
 10
0.0
 20
0.0
 30
0.0
  0
VERTEX
  5
EA
330
E9
100
AcDbEntity
  8
_U+30EC_U+30A4_U+30E4_U+30FC 1
  6
AI-Linetype-1
 62
   179
420
  2234388
370
    25
100
AcDbVertex
100
AcDb2dVertex
 10
112.2623551829804
 20
-139.5474683624656
 30
0.0
  0
VERTEX
  5
EB
330
E9
100
AcDbEntity
  8
_U+30EC_U+30A4_U+30E4_U+30FC 1
  6
AI-Linetype-1
 62
   179
420
  2234388
370
    25
100
AcDbVertex
100
AcDb2dVertex
 10
114.2625991535633
 20
-141.5473678234999
 30
0.0
  0
VERTEX
  5
EC
330
E9
100
AcDbEntity
  8
_U+30EC_U+30A4_U+30E4_U+30FC 1
  6
AI-Linetype-1
 62
   179
420
  2234388
370
    25
100
AcDbVertex
100
AcDb2dVertex
 10
114.2625991535633
 20
-152.5625008095699
 30
0.0
  0
SEQEND
  5
EE
330
E9
100
AcDbEntity
  8
_U+30EC_U+30A4_U+30E4_U+30FC 1
  6
AI-Linetype-1
 62
   179
420
  2234388
370
    25
  0
POLYLINE
  5
EF
330
1F
100
AcDbEntity
  8
_U+30EC_U+30A4_U+30E4_U+30FC 1
  6
AI-Linetype-2
 62
   179
420
  2234388
370
    25
100
AcDb2dPolyline
 66
     1
 10
0.0
 20
0.0
 30
0.0
  0
VERTEX
  5
F0
330
EF
100
AcDbEntity
  8
_U+30EC_U+30A4_U+30E4_U+30FC 1
  6
AI-Linetype-2
 62
   179
420
  2234388
370
    25
100
AcDbVertex
100
AcDb2dVertex
 10
119.7623388202927
 20
-139.5474683624656
 30
0.0
  0
VERTEX
  5
F1
330
EF
100
AcDbEntity
  8
_U+30EC_U+30A4_U+30E4_U+30FC 1
  6
AI-Linetype-2
 62
   179
420
  2234388
370
    25
100
AcDbVertex
100
AcDb2dVertex
 10
117.7624393592584
 20
-141.5473678234999
 30
0.0
  0
VERTEX
  5
F2
330
EF
100
AcDbEntity
  8
_U+30EC_U+30A4_U+30E4_U+30FC 1
  6
AI-Linetype-2
 62
   179
420
  2234388
370
    25
100
AcDbVertex
100
AcDb2dVertex
 10
117.7624393592584
 20
-152.5625008095699
 30
0.0
  0
SEQEND
  5
F4
330
EF
100
AcDbEntity
  8
_U+30EC_U+30A4_U+30E4_U+30FC 1
  6
AI-Linetype-2
 62
   179
420
  2234388
370
    25
  0
INSERT
  5
F6
330
1F
100
AcDbEntity
  8
_U+30EC_U+30A4_U+30E4_U+30FC 1
100
AcDbBlockReference
  2
block 8
 10
0.0
 20
0.0
 30
0.0
  0
INSERT
  5
FE
330
1F
100
AcDbEntity
  8
_U+30EC_U+30A4_U+30E4_U+30FC 1
100
AcDbBlockReference
  2
block 9
 10
0.0
 20
0.0
 30
0.0
  0
INSERT
  5
104
330
1F
100
AcDbEntity
  8
_U+30EC_U+30A4_U+30E4_U+30FC 1
100
AcDbBlockReference
  2
block 10
 10
0.0
 20
0.0
 30
0.0
  0
INSERT
  5
10C
330
1F
100
AcDbEntity
  8
_U+30EC_U+30A4_U+30E4_U+30FC 1
100
AcDbBlockReference
  2
block 11
 10
0.0
 20
0.0
 30
0.0
  0
POLYLINE
  5
11F
330
1F
100
AcDbEntity
  8
_U+30EC_U+30A4_U+30E4_U+30FC 1
 62
   179
420
  2234388
370
    25
100
AcDb2dPolyline
 66
     1
 10
0.0
 20
0.0
 30
0.0
  0
VERTEX
  5
120
330
11F
100
AcDbEntity
  8
_U+30EC_U+30A4_U+30E4_U+30FC 1
 62
   179
420
  2234388
370
    25
100
AcDbVertex
100
AcDb2dVertex
 10
109.9276355044734
 20
-139.347335229581
 30
0.0
  0
VERTEX
  5
121
330
11F
100
AcDbEntity
  8
_U+30EC_U+30A4_U+30E4_U+30FC 1
 62
   179
420
  2234388
370
    25
100
AcDbVertex
100
AcDb2dVertex
 10
109.4277413836403
 20
-139.7477414523542
 30
0.0
  0
SEQEND
  5
122
330
11F
100
AcDbEntity
  8
_U+30EC_U+30A4_U+30E4_U+30FC 1
 62
   179
420
  2234388
370
    25
  0
POLYLINE
  5
123
330
1F
100
AcDbEntity
  8
_U+30EC_U+30A4_U+30E4_U+30FC 1
 62
   179
420
  2234388
370
    25
100
AcDb2dPolyline
 66
     1
 10
0.0
 20
0.0
 30
0.0
  0
VERTEX
  5
124
330
123
100
AcDbEntity
  8
_U+30EC_U+30A4_U+30E4_U+30FC 1
 62
   179
420
  2234388
370
    25
100
AcDbVertex
100
AcDb2dVertex
 10
114.9273087955954
 20
-139.3466300615989
 30
0.0
  0
VERTEX
  5
125
330
123
100
AcDbEntity
  8
_U+30EC_U+30A4_U+30E4_U+30FC 1
 62
   179
420
  2234388
370
    25
100
AcDbVertex
100
AcDb2dVertex
 10
114.4274146747623
 20
-139.7470362843721
 30
0.0
  0
SEQEND
  5
126
330
123
100
AcDbEntity
  8
_U+30EC_U+30A4_U+30E4_U+30FC 1
 62
   179
420
  2234388
370
    25
  0
POLYLINE
  5
127
330
1F
100
AcDbEntity
  8
_U+30EC_U+30A4_U+30E4_U+30FC 1
 62
   179
420
  2234388
370
    25
100
AcDb2dPolyline
 66
     1
 10
0.0
 20
0.0
 30
0.0
  0
VERTEX
  5
128
330
127
100
AcDbEntity
  8
_U+30EC_U+30A4_U+30E4_U+30FC 1
 62
   179
420
  2234388
370
    25
100
AcDbVertex
100
AcDb2dVertex
 10
110.426991329137
 20
-139.7476337931203
 30
0.0
  0
VERTEX
  5
129
330
127
100
AcDbEntity
  8
_U+30EC_U+30A4_U+30E4_U+30FC 1
 62
   179
420
  2234388
370
    25
100
AcDbVertex
100
AcDb2dVertex
 10
109.9274524837757
 20
-139.3472329533088
 30
0.0
  0
SEQEND
  5
12A
330
127
100
AcDbEntity
  8
_U+30EC_U+30A4_U+30E4_U+30FC 1
 62
   179
420
  2234388
370
    25
  0
POLYLINE
  5
12B
330
1F
100
AcDbEntity
  8
_U+30EC_U+30A4_U+30E4_U+30FC 1
 62
   179
420
  2234388
370
    25
100
AcDb2dPolyline
 66
     1
 10
0.0
 20
0.0
 30
0.0
  0
VERTEX
  5
12C
330
12B
100
AcDbEntity
  8
_U+30EC_U+30A4_U+30E4_U+30FC 1
 62
   179
420
  2234388
370
    25
100
AcDbVertex
100
AcDb2dVertex
 10
111.4276085469044
 20
-139.7476337931203
 30
0.0
  0
VERTEX
  5
12D
330
12B
100
AcDbEntity
  8
_U+30EC_U+30A4_U+30E4_U+30FC 1
 62
   179
420
  2234388
370
    25
100
AcDbVertex
100
AcDb2dVertex
 10
110.9270146410508
 20
-139.3472329533088
 30
0.0
  0
SEQEND
  5
12E
330
12B
100
AcDbEntity
  8
_U+30EC_U+30A4_U+30E4_U+30FC 1
 62
   179
420
  2234388
370
    25
  0
POLYLINE
  5
12F
330
1F
100
AcDbEntity
  8
_U+30EC_U+30A4_U+30E4_U+30FC 1
 62
   179
420
  2234388
370
    25
100
AcDb2dPolyline
 66
     1
 10
0.0
 20
0.0
 30
0.0
  0
VERTEX
  5
130
330
12F
100
AcDbEntity
  8
_U+30EC_U+30A4_U+30E4_U+30FC 1
 62
   179
420
  2234388
370
    25
100
AcDbVertex
100
AcDb2dVertex
 10
109.4277521495636
 20
-139.7476337931203
 30
0.0
  0
VERTEX
  5
131
330
12F
100
AcDbEntity
  8
_U+30EC_U+30A4_U+30E4_U+30FC 1
 62
   179
420
  2234388
370
    25
100
AcDbVertex
100
AcDb2dVertex
 10
108.9271582437101
 20
-139.347938121291
 30
0.0
  0
SEQEND
  5
132
330
12F
100
AcDbEntity
  8
_U+30EC_U+30A4_U+30E4_U+30FC 1
 62
   179
420
  2234388
370
    25
  0
POLYLINE
  5
133
330
1F
100
AcDbEntity
  8
_U+30EC_U+30A4_U+30E4_U+30FC 1
 62
   179
420
  2234388
370
    25
100
AcDb2dPolyline
 66
     1
 10
0.0
 20
0.0
 30
0.0
  0
VERTEX
  5
134
330
133
100
AcDbEntity
  8
_U+30EC_U+30A4_U+30E4_U+30FC 1
 62
   179
420
  2234388
370
    25
100
AcDbVertex
100
AcDb2dVertex
 10
110.9268746840467
 20
-139.347335229581
 30
0.0
  0
VERTEX
  5
135
330
133
100
AcDbEntity
  8
_U+30EC_U+30A4_U+30E4_U+30FC 1
 62
   179
420
  2234388
370
    25
100
AcDbVertex
100
AcDb2dVertex
 10
110.4269805632136
 20
-139.7477414523542
 30
0.0
  0
SEQEND
  5
136
330
133
100
AcDbEntity
  8
_U+30EC_U+30A4_U+30E4_U+30FC 1
 62
   179
420
  2234388
370
    25
  0
POLYLINE
  5
137
330
1F
100
AcDbEntity
  8
_U+30EC_U+30A4_U+30E4_U+30FC 1
 62
   179
420
  2234388
370
    25
100
AcDb2dPolyline
 66
     1
 10
0.0
 20
0.0
 30
0.0
  0
VERTEX
  5
138
330
137
100
AcDbEntity
  8
_U+30EC_U+30A4_U+30E4_U+30FC 1
 62
   179
420
  2234388
370
    25
100
AcDbVertex
100
AcDb2dVertex
 10
118.9276029501401
 20
-139.3459625743486
 30
0.0
  0
VERTEX
  5
139
330
137
100
AcDbEntity
  8
_U+30EC_U+30A4_U+30E4_U+30FC 1
 62
   179
420
  2234388
370
    25
100
AcDbVertex
100
AcDb2dVertex
 10
118.4277088293069
 20
-139.7463687971218
 30
0.0
  0
SEQEND
  5
13A
330
137
100
AcDbEntity
  8
_U+30EC_U+30A4_U+30E4_U+30FC 1
 62
   179
420
  2234388
370
    25
  0
POLYLINE
  5
13B
330
1F
100
AcDbEntity
  8
_U+30EC_U+30A4_U+30E4_U+30FC 1
 62
   179
420
  2234388
370
    25
100
AcDb2dPolyline
 66
     1
 10
0.0
 20
0.0
 30
0.0
  0
VERTEX
  5
13C
330
13B
100
AcDbEntity
  8
_U+30EC_U+30A4_U+30E4_U+30FC 1
 62
   179
420
  2234388
370
    25
100
AcDbVertex
100
AcDb2dVertex
 10
111.9275026677375
 20
-139.347335229581
 30
0.0
  0
VERTEX
  5
13D
330
13B
100
AcDbEntity
  8
_U+30EC_U+30A4_U+30E4_U+30FC 1
 62
   179
420
  2234388
370
    25
100
AcDbVertex
100
AcDb2dVertex
 10
111.4276085469044
 20
-139.7477414523542
 30
0.0
  0
SEQEND
  5
13E
330
13B
100
AcDbEntity
  8
_U+30EC_U+30A4_U+30E4_U+30FC 1
 62
   179
420
  2234388
370
    25
  0
POLYLINE
  5
13F
330
1F
100
AcDbEntity
  8
_U+30EC_U+30A4_U+30E4_U+30FC 1
 62
   179
420
  2234388
370
    25
100
AcDb2dPolyline
 66
     1
 10
0.0
 20
0.0
 30
0.0
  0
VERTEX
  5
140
330
13F
100
AcDbEntity
  8
_U+30EC_U+30A4_U+30E4_U+30FC 1
 62
   179
420
  2234388
370
    25
100
AcDbVertex
100
AcDb2dVertex
 10
112.927269377557
 20
-139.347335229581
 30
0.0
  0
VERTEX
  5
141
330
13F
100
AcDbEntity
  8
_U+30EC_U+30A4_U+30E4_U+30FC 1
 62
   179
420
  2234388
370
    25
100
AcDbVertex
100
AcDb2dVertex
 10
112.4273752567239
 20
-139.7470362843721
 30
0.0
  0
SEQEND
  5
142
330
13F
100
AcDbEntity
  8
_U+30EC_U+30A4_U+30E4_U+30FC 1
 62
   179
420
  2234388
370
    25
  0
POLYLINE
  5
143
330
1F
100
AcDbEntity
  8
_U+30EC_U+30A4_U+30E4_U+30FC 1
 62
   179
420
  2234388
370
    25
100
AcDb2dPolyline
 66
     1
 10
0.0
 20
0.0
 30
0.0
  0
VERTEX
  5
144
330
143
100
AcDbEntity
  8
_U+30EC_U+30A4_U+30E4_U+30FC 1
 62
   179
420
  2234388
370
    25
100
AcDbVertex
100
AcDb2dVertex
 10
112.4273860226473
 20
-139.7469609229083
 30
0.0
  0
VERTEX
  5
145
330
143
100
AcDbEntity
  8
_U+30EC_U+30A4_U+30E4_U+30FC 1
 62
   179
420
  2234388
370
    25
100
AcDbVertex
100
AcDb2dVertex
 10
111.9274919018141
 20
-139.3472652510793
 30
0.0
  0
SEQEND
  5
146
330
143
100
AcDbEntity
  8
_U+30EC_U+30A4_U+30E4_U+30FC 1
 62
   179
420
  2234388
370
    25
  0
POLYLINE
  5
147
330
1F
100
AcDbEntity
  8
_U+30EC_U+30A4_U+30E4_U+30FC 1
 62
   179
420
  2234388
370
    25
100
AcDb2dPolyline
 66
     1
 10
0.0
 20
0.0
 30
0.0
  0
VERTEX
  5
148
330
147
100
AcDbEntity
  8
_U+30EC_U+30A4_U+30E4_U+30FC 1
 62
   179
420
  2234388
370
    25
100
AcDbVertex
100
AcDb2dVertex
 10
113.4275080079387
 20
-139.7469609229083
 30
0.0
  0
VERTEX
  5
149
330
147
100
AcDbEntity
  8
_U+30EC_U+30A4_U+30E4_U+30FC 1
 62
   179
420
  2234388
370
    25
100
AcDbVertex
100
AcDb2dVertex
 10
112.9272586116336
 20
-139.3472652510793
 30
0.0
  0
SEQEND
  5
14A
330
147
100
AcDbEntity
  8
_U+30EC_U+30A4_U+30E4_U+30FC 1
 62
   179
420
  2234388
370
    25
  0
POLYLINE
  5
14B
330
1F
100
AcDbEntity
  8
_U+30EC_U+30A4_U+30E4_U+30FC 1
 62
   179
420
  2234388
370
    25
100
AcDb2dPolyline
 66
     1
 10
0.0
 20
0.0
 30
0.0
  0
VERTEX
  5
14C
330
14B
100
AcDbEntity
  8
_U+30EC_U+30A4_U+30E4_U+30FC 1
 62
   179
420
  2234388
370
    25
100
AcDbVertex
100
AcDb2dVertex
 10
118.4277088293069
 20
-139.7462557549262
 30
0.0
  0
VERTEX
  5
14D
330
14B
100
AcDbEntity
  8
_U+30EC_U+30A4_U+30E4_U+30FC 1
 62
   179
420
  2234388
370
    25
100
AcDbVertex
100
AcDb2dVertex
 10
117.9274594330019
 20
-139.3458549151147
 30
0.0
  0
SEQEND
  5
14E
330
14B
100
AcDbEntity
  8
_U+30EC_U+30A4_U+30E4_U+30FC 1
 62
   179
420
  2234388
370
    25
  0
POLYLINE
  5
14F
330
1F
100
AcDbEntity
  8
_U+30EC_U+30A4_U+30E4_U+30FC 1
 62
   179
420
  2234388
370
    25
100
AcDb2dPolyline
 66
     1
 10
0.0
 20
0.0
 30
0.0
  0
VERTEX
  5
150
330
14F
100
AcDbEntity
  8
_U+30EC_U+30A4_U+30E4_U+30FC 1
 62
   179
420
  2234388
370
    25
100
AcDbVertex
100
AcDb2dVertex
 10
113.9272191080742
 20
-139.3466300615989
 30
0.0
  0
VERTEX
  5
151
330
14F
100
AcDbEntity
  8
_U+30EC_U+30A4_U+30E4_U+30FC 1
 62
   179
420
  2234388
370
    25
100
AcDbVertex
100
AcDb2dVertex
 10
113.4273249872411
 20
-139.7470362843721
 30
0.0
  0
SEQEND
  5
152
330
14F
100
AcDbEntity
  8
_U+30EC_U+30A4_U+30E4_U+30FC 1
 62
   179
420
  2234388
370
    25
  0
POLYLINE
  5
153
330
1F
100
AcDbEntity
  8
_U+30EC_U+30A4_U+30E4_U+30FC 1
 62
   179
420
  2234388
370
    25
100
AcDb2dPolyline
 66
     1
 10
0.0
 20
0.0
 30
0.0
  0
VERTEX
  5
154
330
153
100
AcDbEntity
  8
_U+30EC_U+30A4_U+30E4_U+30FC 1
 62
   179
420
  2234388
370
    25
100
AcDbVertex
100
AcDb2dVertex
 10
114.4274254406857
 20
-139.7469609229083
 30
0.0
  0
VERTEX
  5
155
330
153
100
AcDbEntity
  8
_U+30EC_U+30A4_U+30E4_U+30FC 1
 62
   179
420
  2234388
370
    25
100
AcDbVertex
100
AcDb2dVertex
 10
113.9271760443806
 20
-139.3465600830968
 30
0.0
  0
SEQEND
  5
156
330
153
100
AcDbEntity
  8
_U+30EC_U+30A4_U+30E4_U+30FC 1
 62
   179
420
  2234388
370
    25
  0
POLYLINE
  5
157
330
1F
100
AcDbEntity
  8
_U+30EC_U+30A4_U+30E4_U+30FC 1
 62
   179
420
  2234388
370
    25
100
AcDb2dPolyline
 66
     1
 10
0.0
 20
0.0
 30
0.0
  0
VERTEX
  5
158
330
157
100
AcDbEntity
  8
_U+30EC_U+30A4_U+30E4_U+30FC 1
 62
   179
420
  2234388
370
    25
100
AcDbVertex
100
AcDb2dVertex
 10
119.4601824143895
 20
-139.5633427165062
 30
0.0
  0
VERTEX
  5
159
330
157
100
AcDbEntity
  8
_U+30EC_U+30A4_U+30E4_U+30FC 1
 62
   179
420
  2234388
370
    25
100
AcDbVertex
100
AcDb2dVertex
 10
118.9274845249828
 20
-139.3460325528507
 30
0.0
  0
SEQEND
  5
15A
330
157
100
AcDbEntity
  8
_U+30EC_U+30A4_U+30E4_U+30FC 1
 62
   179
420
  2234388
370
    25
  0
POLYLINE
  5
15B
330
1F
100
AcDbEntity
  8
_U+30EC_U+30A4_U+30E4_U+30FC 1
 62
   179
420
  2234388
370
    25
100
AcDb2dPolyline
 66
     1
 10
0.0
 20
0.0
 30
0.0
  0
VERTEX
  5
15C
330
15B
100
AcDbEntity
  8
_U+30EC_U+30A4_U+30E4_U+30FC 1
 62
   179
420
  2234388
370
    25
100
AcDbVertex
100
AcDb2dVertex
 10
115.9270862713383
 20
-139.3466300615989
 30
0.0
  0
VERTEX
  5
15D
330
15B
100
AcDbEntity
  8
_U+30EC_U+30A4_U+30E4_U+30FC 1
 62
   179
420
  2234388
370
    25
100
AcDbVertex
100
AcDb2dVertex
 10
115.4271921505052
 20
-139.7463311163899
 30
0.0
  0
SEQEND
  5
15E
330
15B
100
AcDbEntity
  8
_U+30EC_U+30A4_U+30E4_U+30FC 1
 62
   179
420
  2234388
370
    25
  0
POLYLINE
  5
15F
330
1F
100
AcDbEntity
  8
_U+30EC_U+30A4_U+30E4_U+30FC 1
 62
   179
420
  2234388
370
    25
100
AcDb2dPolyline
 66
     1
 10
0.0
 20
0.0
 30
0.0
  0
VERTEX
  5
160
330
15F
100
AcDbEntity
  8
_U+30EC_U+30A4_U+30E4_U+30FC 1
 62
   179
420
  2234388
370
    25
100
AcDbVertex
100
AcDb2dVertex
 10
116.9277034891058
 20
-139.3466300615989
 30
0.0
  0
VERTEX
  5
161
330
15F
100
AcDbEntity
  8
_U+30EC_U+30A4_U+30E4_U+30FC 1
 62
   179
420
  2234388
370
    25
100
AcDbVertex
100
AcDb2dVertex
 10
116.4274540928007
 20
-139.7463311163899
 30
0.0
  0
SEQEND
  5
162
330
15F
100
AcDbEntity
  8
_U+30EC_U+30A4_U+30E4_U+30FC 1
 62
   179
420
  2234388
370
    25
  0
POLYLINE
  5
163
330
1F
100
AcDbEntity
  8
_U+30EC_U+30A4_U+30E4_U+30FC 1
 62
   179
420
  2234388
370
    25
100
AcDb2dPolyline
 66
     1
 10
0.0
 20
0.0
 30
0.0
  0
VERTEX
  5
164
330
163
100
AcDbEntity
  8
_U+30EC_U+30A4_U+30E4_U+30FC 1
 62
   179
420
  2234388
370
    25
100
AcDbVertex
100
AcDb2dVertex
 10
116.42732490172
 20
-139.7462557549262
 30
0.0
  0
VERTEX
  5
165
330
163
100
AcDbEntity
  8
_U+30EC_U+30A4_U+30E4_U+30FC 1
 62
   179
420
  2234388
370
    25
100
AcDbVertex
100
AcDb2dVertex
 10
115.9270755054149
 20
-139.3465600830968
 30
0.0
  0
SEQEND
  5
166
330
163
100
AcDbEntity
  8
_U+30EC_U+30A4_U+30E4_U+30FC 1
 62
   179
420
  2234388
370
    25
  0
POLYLINE
  5
167
330
1F
100
AcDbEntity
  8
_U+30EC_U+30A4_U+30E4_U+30FC 1
 62
   179
420
  2234388
370
    25
100
AcDb2dPolyline
 66
     1
 10
0.0
 20
0.0
 30
0.0
  0
VERTEX
  5
168
330
167
100
AcDbEntity
  8
_U+30EC_U+30A4_U+30E4_U+30FC 1
 62
   179
420
  2234388
370
    25
100
AcDbVertex
100
AcDb2dVertex
 10
115.4271921505052
 20
-139.7462557549262
 30
0.0
  0
VERTEX
  5
169
330
167
100
AcDbEntity
  8
_U+30EC_U+30A4_U+30E4_U+30FC 1
 62
   179
420
  2234388
370
    25
100
AcDbVertex
100
AcDb2dVertex
 10
114.927298029672
 20
-139.3465600830968
 30
0.0
  0
SEQEND
  5
16A
330
167
100
AcDbEntity
  8
_U+30EC_U+30A4_U+30E4_U+30FC 1
 62
   179
420
  2234388
370
    25
  0
POLYLINE
  5
16B
330
1F
100
AcDbEntity
  8
_U+30EC_U+30A4_U+30E4_U+30FC 1
 62
   179
420
  2234388
370
    25
100
AcDb2dPolyline
 66
     1
 10
0.0
 20
0.0
 30
0.0
  0
VERTEX
  5
16C
330
16B
100
AcDbEntity
  8
_U+30EC_U+30A4_U+30E4_U+30FC 1
 62
   179
420
  2234388
370
    25
100
AcDbVertex
100
AcDb2dVertex
 10
117.9274701989252
 20
-139.3459625743486
 30
0.0
  0
VERTEX
  5
16D
330
16B
100
AcDbEntity
  8
_U+30EC_U+30A4_U+30E4_U+30FC 1
 62
   179
420
  2234388
370
    25
100
AcDbVertex
100
AcDb2dVertex
 10
117.4272208026202
 20
-139.7463687971218
 30
0.0
  0
SEQEND
  5
16E
330
16B
100
AcDbEntity
  8
_U+30EC_U+30A4_U+30E4_U+30FC 1
 62
   179
420
  2234388
370
    25
  0
POLYLINE
  5
16F
330
1F
100
AcDbEntity
  8
_U+30EC_U+30A4_U+30E4_U+30FC 1
 62
   179
420
  2234388
370
    25
100
AcDb2dPolyline
 66
     1
 10
0.0
 20
0.0
 30
0.0
  0
VERTEX
  5
170
330
16F
100
AcDbEntity
  8
_U+30EC_U+30A4_U+30E4_U+30FC 1
 62
   179
420
  2234388
370
    25
100
AcDbVertex
100
AcDb2dVertex
 10
117.4272315685436
 20
-139.7462557549262
 30
0.0
  0
VERTEX
  5
171
330
16F
100
AcDbEntity
  8
_U+30EC_U+30A4_U+30E4_U+30FC 1
 62
   179
420
  2234388
370
    25
100
AcDbVertex
100
AcDb2dVertex
 10
116.9276927231824
 20
-139.3465600830968
 30
0.0
  0
SEQEND
  5
172
330
16F
100
AcDbEntity
  8
_U+30EC_U+30A4_U+30E4_U+30FC 1
 62
   179
420
  2234388
370
    25
  0
POLYLINE
  5
173
330
1F
100
AcDbEntity
  8
_U+30EC_U+30A4_U+30E4_U+30FC 1
 62
   179
420
  2234388
370
    25
100
AcDb2dPolyline
 66
     1
 10
0.0
 20
0.0
 30
0.0
  0
VERTEX
  5
174
330
173
100
AcDbEntity
  8
_U+30EC_U+30A4_U+30E4_U+30FC 1
 62
   179
420
  2234388
370
    25
100
AcDbVertex
100
AcDb2dVertex
 10
108.9269859889358
 20
-139.348008099793
 30
0.0
  0
VERTEX
  5
175
330
173
100
AcDbEntity
  8
_U+30EC_U+30A4_U+30E4_U+30FC 1
 62
   179
420
  2234388
370
    25
100
AcDbVertex
100
AcDb2dVertex
 10
108.4270918681027
 20
-139.7484143225662
 30
0.0
  0
SEQEND
  5
176
330
173
100
AcDbEntity
  8
_U+30EC_U+30A4_U+30E4_U+30FC 1
 62
   179
420
  2234388
370
    25
  0
POLYLINE
  5
177
330
1F
100
AcDbEntity
  8
_U+30EC_U+30A4_U+30E4_U+30FC 1
 62
   179
420
  2234388
370
    25
100
AcDb2dPolyline
 66
     1
 10
0.0
 20
0.0
 30
0.0
  0
VERTEX
  5
178
330
177
100
AcDbEntity
  8
_U+30EC_U+30A4_U+30E4_U+30FC 1
 62
   179
420
  2234388
370
    25
100
AcDbVertex
100
AcDb2dVertex
 10
108.4270918681027
 20
-139.7483389611024
 30
0.0
  0
VERTEX
  5
179
330
177
100
AcDbEntity
  8
_U+30EC_U+30A4_U+30E4_U+30FC 1
 62
   179
420
  2234388
370
    25
100
AcDbVertex
100
AcDb2dVertex
 10
107.9271977472695
 20
-139.347938121291
 30
0.0
  0
SEQEND
  5
17A
330
177
100
AcDbEntity
  8
_U+30EC_U+30A4_U+30E4_U+30FC 1
 62
   179
420
  2234388
370
    25
  0
POLYLINE
  5
17B
330
1F
100
AcDbEntity
  8
_U+30EC_U+30A4_U+30E4_U+30FC 1
 62
   179
420
  2234388
370
    25
100
AcDb2dPolyline
 66
     1
 10
0.0
 20
0.0
 30
0.0
  0
VERTEX
  5
17C
330
17B
100
AcDbEntity
  8
_U+30EC_U+30A4_U+30E4_U+30FC 1
 62
   179
420
  2234388
370
    25
100
AcDbVertex
100
AcDb2dVertex
 10
106.9273018463693
 20
-139.3459625743486
 30
0.0
  0
VERTEX
  5
17D
330
17B
100
AcDbEntity
  8
_U+30EC_U+30A4_U+30E4_U+30FC 1
 62
   179
420
  2234388
370
    25
100
AcDbVertex
100
AcDb2dVertex
 10
106.4274077255362
 20
-139.7463687971218
 30
0.0
  0
SEQEND
  5
17E
330
17B
100
AcDbEntity
  8
_U+30EC_U+30A4_U+30E4_U+30FC 1
 62
   179
420
  2234388
370
    25
  0
POLYLINE
  5
17F
330
1F
100
AcDbEntity
  8
_U+30EC_U+30A4_U+30E4_U+30FC 1
 62
   179
420
  2234388
370
    25
100
AcDb2dPolyline
 66
     1
 10
0.0
 20
0.0
 30
0.0
  0
VERTEX
  5
180
330
17F
100
AcDbEntity
  8
_U+30EC_U+30A4_U+30E4_U+30FC 1
 62
   179
420
  2234388
370
    25
100
AcDbVertex
100
AcDb2dVertex
 10
106.4274077255362
 20
-139.7462557549262
 30
0.0
  0
VERTEX
  5
181
330
17F
100
AcDbEntity
  8
_U+30EC_U+30A4_U+30E4_U+30FC 1
 62
   179
420
  2234388
370
    25
100
AcDbVertex
100
AcDb2dVertex
 10
105.9271583292311
 20
-139.3458549151147
 30
0.0
  0
SEQEND
  5
182
330
17F
100
AcDbEntity
  8
_U+30EC_U+30A4_U+30E4_U+30FC 1
 62
   179
420
  2234388
370
    25
  0
POLYLINE
  5
183
330
1F
100
AcDbEntity
  8
_U+30EC_U+30A4_U+30E4_U+30FC 1
 62
   179
420
  2234388
370
    25
100
AcDb2dPolyline
 66
     1
 10
0.0
 20
0.0
 30
0.0
  0
VERTEX
  5
184
330
183
100
AcDbEntity
  8
_U+30EC_U+30A4_U+30E4_U+30FC 1
 62
   179
420
  2234388
370
    25
100
AcDbVertex
100
AcDb2dVertex
 10
107.4273574560533
 20
-139.7455882676759
 30
0.0
  0
VERTEX
  5
185
330
183
100
AcDbEntity
  8
_U+30EC_U+30A4_U+30E4_U+30FC 1
 62
   179
420
  2234388
370
    25
100
AcDbVertex
100
AcDb2dVertex
 10
106.9274633352202
 20
-139.3458925958466
 30
0.0
  0
SEQEND
  5
186
330
183
100
AcDbEntity
  8
_U+30EC_U+30A4_U+30E4_U+30FC 1
 62
   179
420
  2234388
370
    25
  0
POLYLINE
  5
187
330
1F
100
AcDbEntity
  8
_U+30EC_U+30A4_U+30E4_U+30FC 1
 62
   179
420
  2234388
370
    25
100
AcDb2dPolyline
 66
     1
 10
0.0
 20
0.0
 30
0.0
  0
VERTEX
  5
188
330
187
100
AcDbEntity
  8
_U+30EC_U+30A4_U+30E4_U+30FC 1
 62
   179
420
  2234388
370
    25
100
AcDbVertex
100
AcDb2dVertex
 10
107.9272085131929
 20
-139.3452520234048
 30
0.0
  0
VERTEX
  5
189
330
187
100
AcDbEntity
  8
_U+30EC_U+30A4_U+30E4_U+30FC 1
 62
   179
420
  2234388
370
    25
100
AcDbVertex
100
AcDb2dVertex
 10
107.4273143923598
 20
-139.745658246178
 30
0.0
  0
SEQEND
  5
18A
330
187
100
AcDbEntity
  8
_U+30EC_U+30A4_U+30E4_U+30FC 1
 62
   179
420
  2234388
370
    25
  0
POLYLINE
  5
18B
330
1F
100
AcDbEntity
  8
_U+30EC_U+30A4_U+30E4_U+30FC 1
 62
   179
420
  2234388
370
    25
100
AcDb2dPolyline
 66
     1
 10
0.0
 20
0.0
 30
0.0
  0
VERTEX
  5
18C
330
18B
100
AcDbEntity
  8
_U+30EC_U+30A4_U+30E4_U+30FC 1
 62
   179
420
  2234388
370
    25
100
AcDbVertex
100
AcDb2dVertex
 10
105.9271690951545
 20
-139.3459625743486
 30
0.0
  0
VERTEX
  5
18D
330
18B
100
AcDbEntity
  8
_U+30EC_U+30A4_U+30E4_U+30FC 1
 62
   179
420
  2234388
370
    25
100
AcDbVertex
100
AcDb2dVertex
 10
105.3912952583473
 20
-139.5622176775118
 30
0.0
  0
SEQEND
  5
18E
330
18B
100
AcDbEntity
  8
_U+30EC_U+30A4_U+30E4_U+30FC 1
 62
   179
420
  2234388
370
    25
  0
SPLINE
  5
18F
330
1F
100
AcDbEntity
  8
_U+30EC_U+30A4_U+30E4_U+30FC 1
 62
   179
420
  2234388
370
    25
100
AcDbSpline
210
0.0
220
0.0
230
1.0
 70
     8
 71
     3
 72
    17
 73
    13
 74
     0
 42
0.0000000001
 43
0.0000000001
 12
1.0
 22
0.0
 32
0.0
 13
1.0
 23
0.0
 33
0.0
 40
0.0
 40
0.0
 40
0.0
 40
0.0
 40
1.0
 40
1.0
 40
1.0
 40
2.0
 40
2.0
 40
2.0
 40
3.0
 40
3.0
 40
3.0
 40
4.0
 40
4.0
 40
4.0
 40
4.0
 10
92.56278243399939
 20
-160.0471699208579
 30
0.0
 10
90.5060819611517
 20
-160.0471699208579
 30
0.0
 10
88.78241456249407
 20
-158.4342731079744
 30
0.0
 10
88.5852043778103
 20
-156.471063913858
 30
0.0
 10
88.52100717662735
 20
-155.8325369975138
 30
0.0
 10
88.5333449248339
 20
-155.2007118684807
 30
0.0
 10
88.61343262894256
 20
-153.6431949655226
 30
0.0
 10
88.89354042374016
 20
-148.1970157676654
 30
0.0
 10
94.14004404045697
 20
-139.9437781513883
 30
0.0
 10
101.5628467729763
 20
-139.746223457156
 30
0.0
 10
101.5628467729763
 20
-139.746223457156
 30
0.0
 10
105.3915428745856
 20
-139.5624222300562
 30
0.0
 10
105.3915428745856
 20
-139.5624222300562
 30
0.0
  0
ENDSEC
  0
SECTION
  2
OBJECTS
  0
DICTIONARY
  5
C
330
0
100
AcDbDictionary
281
     1
  3
ACAD_GROUP
350
D
  3
ACAD_LAYOUT
350
1A
  3
ACAD_MATERIAL
350
3B
  3
ACAD_MLEADERSTYLE
350
191
  3
ACAD_MLINESTYLE
350
17
  3
ACAD_PLOTSETTINGS
350
19
  3
ACAD_PLOTSTYLENAME
350
E
  3
ACAD_TABLESTYLE
350
190
  3
ACAD_VISUALSTYLE
350
2A
  0
SUN
  5
3F
330
29
100
AcDbSun
 90
        1
290
     0
 63
     7
421
 16777215
 40
1.0
291
     1
 91
  2455826
 92
 54000000
292
     0
 70
     2
 71
   256
280
     1
  0
DICTIONARY
  5
D
102
{ACAD_REACTORS
330
C
102
}
330
C
100
AcDbDictionary
281
     1
  0
DICTIONARY
  5
1A
102
{ACAD_REACTORS
330
C
102
}
330
C
100
AcDbDictionary
281
     1
  3
Layout1
350
1E
  3
Layout2
350
26
  3
Model
350
22
  0
DICTIONARY
  5
3B
102
{ACAD_REACTORS
330
C
102
}
330
C
100
AcDbDictionary
281
     1
  3
ByBlock
350
3D
  3
ByLayer
350
3C
  3
Global
350
3E
  0
DICTIONARY
  5
191
102
{ACAD_REACTORS
330
C
102
}
330
C
100
AcDbDictionary
281
     1
  0
DICTIONARY
  5
17
102
{ACAD_REACTORS
330
C
102
}
330
C
100
AcDbDictionary
281
     1
  3
Standard
350
18
  0
DICTIONARY
  5
19
102
{ACAD_REACTORS
330
C
102
}
330
C
100
AcDbDictionary
281
     1
  0
ACDBDICTIONARYWDFLT
  5
E
102
{ACAD_REACTORS
330
C
102
}
330
C
100
AcDbDictionary
281
     1
  3
Normal
350
F
100
AcDbDictionaryWithDefault
340
F
  0
DICTIONARY
  5
190
102
{ACAD_REACTORS
330
C
102
}
330
C
100
AcDbDictionary
281
     1
  0
DICTIONARY
  5
2A
102
{ACAD_REACTORS
330
C
102
}
330
C
100
AcDbDictionary
281
     1
  3
2dWireframe
350
2F
  3
3D Hidden
350
31
  3
3dWireframe
350
30
  3
Basic
350
32
  3
Brighten
350
36
  3
ColorChange
350
3A
  3
Conceptual
350
34
  3
Dim
350
35
  3
Facepattern
350
39
  3
Flat
350
2B
  3
FlatWithEdges
350
2C
  3
Gouraud
350
2D
  3
GouraudWithEdges
350
2E
  3
Linepattern
350
38
  3
Realistic
350
33
  3
Thicken
350
37
  0
LAYOUT
  5
1E
102
{ACAD_REACTORS
330
1A
102
}
330
1A
100
AcDbPlotSettings
  1

  2
none_device
  4

  6

 40
0.0
 41
0.0
 42
0.0
 43
0.0
 44
0.0
 45
0.0
 46
0.0
 47
0.0
 48
0.0
 49
0.0
140
0.0
141
0.0
142
1.0
143
1.0
 70
   688
 72
     0
 73
     0
 74
     5
  7

 75
    16
 76
     0
 77
     2
 78
   300
147
1.0
148
0.0
149
0.0
100
AcDbLayout
  1
Layout1
 70
     1
 71
     1
 10
0.0
 20
0.0
 11
12.0
 21
9.0
 12
0.0
 22
0.0
 32
0.0
 14
1.000000000000000E+20
 24
1.000000000000000E+20
 34
1.000000000000000E+20
 15
-1.000000000000000E+20
 25
-1.000000000000000E+20
 35
-1.000000000000000E+20
146
0.0
 13
0.0
 23
0.0
 33
0.0
 16
1.0
 26
0.0
 36
0.0
 17
0.0
 27
1.0
 37
0.0
 76
     0
330
1B
  0
LAYOUT
  5
26
102
{ACAD_REACTORS
330
1A
102
}
330
1A
100
AcDbPlotSettings
  1

  2
none_device
  4

  6

 40
0.0
 41
0.0
 42
0.0
 43
0.0
 44
0.0
 45
0.0
 46
0.0
 47
0.0
 48
0.0
 49
0.0
140
0.0
141
0.0
142
1.0
143
1.0
 70
   688
 72
     0
 73
     0
 74
     5
  7

 75
    16
 76
     0
 77
     2
 78
   300
147
1.0
148
0.0
149
0.0
100
AcDbLayout
  1
Layout2
 70
     1
 71
     2
 10
0.0
 20
0.0
 11
0.0
 21
0.0
 12
0.0
 22
0.0
 32
0.0
 14
0.0
 24
0.0
 34
0.0
 15
0.0
 25
0.0
 35
0.0
146
0.0
 13
0.0
 23
0.0
 33
0.0
 16
1.0
 26
0.0
 36
0.0
 17
0.0
 27
1.0
 37
0.0
 76
     0
330
23
  0
LAYOUT
  5
22
102
{ACAD_REACTORS
330
1A
102
}
330
1A
100
AcDbPlotSettings
  1

  2
none_device
  4

  6

 40
0.0
 41
0.0
 42
0.0
 43
0.0
 44
0.0
 45
0.0
 46
0.0
 47
0.0
 48
0.0
 49
0.0
140
0.0
141
0.0
142
1.0
143
1.0
 70
  1712
 72
     0
 73
     0
 74
     0
  7

 75
     0
 76
     0
 77
     2
 78
   300
147
1.0
148
0.0
149
0.0
100
AcDbLayout
  1
Model
 70
     1
 71
     0
 10
0.0
 20
0.0
 11
12.0
 21
9.0
 12
0.0
 22
0.0
 32
0.0
 14
1.000000000000000E+20
 24
1.000000000000000E+20
 34
1.000000000000000E+20
 15
-1.000000000000000E+20
 25
-1.000000000000000E+20
 35
-1.000000000000000E+20
146
0.0
 13
0.0
 23
0.0
 33
0.0
 16
1.0
 26
0.0
 36
0.0
 17
0.0
 27
1.0
 37
0.0
 76
     0
330
1F
331
29
  0
MATERIAL
  5
3D
102
{ACAD_REACTORS
330
3B
102
}
330
3B
100
AcDbMaterial
  1
ByBlock
 72
     1
 94
      127
  0
MATERIAL
  5
3C
102
{ACAD_REACTORS
330
3B
102
}
330
3B
100
AcDbMaterial
  1
ByLayer
 72
     1
 94
      127
  0
MATERIAL
  5
3E
102
{ACAD_REACTORS
330
3B
102
}
330
3B
100
AcDbMaterial
  1
Global
 72
     1
 94
      127
  0
MLINESTYLE
  5
18
102
{ACAD_REACTORS
330
17
102
}
330
17
100
AcDbMlineStyle
  2
Standard
 70
     0
  3

 62
   256
 51
90.0
 52
90.0
 71
     2
 49
0.5
 62
   256
  6
BYLAYER
 49
-0.5
 62
   256
  6
BYLAYER
  0
ACDBPLACEHOLDER
  5
F
102
{ACAD_REACTORS
330
E
102
}
330
E
  0
VISUALSTYLE
  5
2F
102
{ACAD_REACTORS
330
2A
102
}
330
2A
100
AcDbVisualStyle
  2
2dWireframe
 70
     4
177
     2
291
     0
 71
     0
176
     1
 72
     2
176
     1
 73
     0
176
     1
 90
        0
176
     1
 40
-0.6
176
     1
 41
-30.0
176
     1
 62
     5
 63
     7
421
 16777215
176
     1
 74
     1
176
     1
 91
        4
176
     1
 64
     7
176
     1
 65
   257
176
     1
 75
     1
176
     1
175
     1
176
     1
 42
1.0
176
     1
 92
        0
176
     1
 66
   257
176
     1
 43
1.0
176
     1
 76
     1
176
     1
 77
     6
176
     1
 78
     2
176
     1
 67
     7
176
     1
 79
     5
176
     1
170
     0
176
     1
171
     0
176
     1
290
     0
176
     1
 93
        1
176
     1
 44
0.0
176
     1
173
     0
176
     1
  0
VISUALSTYLE
  5
31
102
{ACAD_REACTORS
330
2A
102
}
330
2A
100
AcDbVisualStyle
  2
3D Hidden
 70
     6
177
     2
291
     0
 71
     1
176
     1
 72
     2
176
     1
 73
     2
176
     1
 90
        0
176
     1
 40
-0.6
176
     1
 41
-30.0
176
     1
 62
     5
 63
     7
421
 16777215
176
     1
 74
     2
176
     1
 91
        2
176
     1
 64
     7
176
     1
 65
   257
176
     1
 75
     2
176
     1
175
     1
176
     1
 42
40.0
176
     1
 92
        0
176
     1
 66
   257
176
     1
 43
1.0
176
     1
 76
     1
176
     1
 77
     6
176
     1
 78
     2
176
     1
 67
     7
176
     1
 79
     3
176
     1
170
     0
176
     1
171
     0
176
     1
290
     0
176
     1
 93
        1
176
     1
 44
0.0
176
     1
173
     0
176
     1
  0
VISUALSTYLE
  5
30
102
{ACAD_REACTORS
330
2A
102
}
330
2A
100
AcDbVisualStyle
  2
3dWireframe
 70
     5
177
     2
291
     0
 71
     0
176
     1
 72
     2
176
     1
 73
     0
176
     1
 90
        0
176
     1
 40
-0.6
176
     1
 41
-30.0
176
     1
 62
     5
 63
     7
421
 16777215
176
     1
 74
     1
176
     1
 91
        4
176
     1
 64
     7
176
     1
 65
   257
176
     1
 75
     1
176
     1
175
     1
176
     1
 42
1.0
176
     1
 92
        0
176
     1
 66
   257
176
     1
 43
1.0
176
     1
 76
     1
176
     1
 77
     6
176
     1
 78
     2
176
     1
 67
     7
176
     1
 79
     5
176
     1
170
     0
176
     1
171
     0
176
     1
290
     0
176
     1
 93
        1
176
     1
 44
0.0
176
     1
173
     0
176
     1
  0
VISUALSTYLE
  5
32
102
{ACAD_REACTORS
330
2A
102
}
330
2A
100
AcDbVisualStyle
  2
Basic
 70
     7
177
     2
291
     1
 71
     1
176
     1
 72
     0
176
     1
 73
     1
176
     1
 90
        0
176
     1
 40
-0.6
176
     1
 41
-30.0
176
     1
 62
     5
 63
     7
421
 16777215
176
     1
 74
     0
176
     1
 91
        4
176
     1
 64
     7
176
     1
 65
   257
176
     1
 75
     1
176
     1
175
     1
176
     1
 42
1.0
176
     1
 92
        8
176
     1
 66
     7
176
     1
 43
1.0
176
     1
 76
     1
176
     1
 77
     6
176
     1
 78
     2
176
     1
 67
     7
176
     1
 79
     5
176
     1
170
     0
176
     1
171
     0
176
     1
290
     0
176
     1
 93
        1
176
     1
 44
0.0
176
     1
173
     0
176
     1
  0
VISUALSTYLE
  5
36
102
{ACAD_REACTORS
330
2A
102
}
330
2A
100
AcDbVisualStyle
  2
Brighten
 70
    12
177
     2
291
     1
 71
     2
176
     1
 72
     2
176
     1
 73
     0
176
     1
 90
        0
176
     1
 40
-0.6
176
     1
 41
-30.0
176
     1
 62
     5
 63
     7
421
 16777215
176
     1
 74
     1
176
     1
 91
        4
176
     1
 64
     7
176
     1
 65
   257
176
     1
 75
     1
176
     1
175
     1
176
     1
 42
1.0
176
     1
 92
        8
176
     1
 66
     7
176
     1
 43
1.0
176
     1
 76
     1
176
     1
 77
     6
176
     1
 78
     2
176
     1
 67
     7
176
     1
 79
     5
176
     1
170
     0
176
     1
171
     0
176
     1
290
     0
176
     1
 93
        1
176
     1
 44
50.0
176
     1
173
     0
176
     1
  0
VISUALSTYLE
  5
3A
102
{ACAD_REACTORS
330
2A
102
}
330
2A
100
AcDbVisualStyle
  2
ColorChange
 70
    16
177
     2
291
     1
 71
     2
176
     1
 72
     2
176
     1
 73
     3
176
     1
 90
        0
176
     1
 40
-0.6
176
     1
 41
-30.0
176
     1
 62
     5
 63
     8
421
  8421504
176
     1
 74
     1
176
     1
 91
        4
176
     1
 64
     7
176
     1
 65
   257
176
     1
 75
     1
176
     1
175
     1
176
     1
 42
1.0
176
     1
 92
        8
176
     1
 66
     8
424
  8421504
176
     1
 43
1.0
176
     1
 76
     1
176
     1
 77
     6
176
     1
 78
     2
176
     1
 67
     7
176
     1
 79
     5
176
     1
170
     0
176
     1
171
     0
176
     1
290
     0
176
     1
 93
        1
176
     1
 44
0.0
176
     1
173
     0
176
     1
  0
VISUALSTYLE
  5
34
102
{ACAD_REACTORS
330
2A
102
}
330
2A
100
AcDbVisualStyle
  2
Conceptual
 70
     9
177
     2
291
     0
 71
     3
176
     1
 72
     2
176
     1
 73
     0
176
     1
 90
        0
176
     1
 40
-0.6
176
     1
 41
-30.0
176
     1
 62
     5
 63
     7
421
 16777215
176
     1
 74
     2
176
     1
 91
        2
176
     1
 64
     7
176
     1
 65
   257
176
     1
 75
     1
176
     1
175
     1
176
     1
 42
40.0
176
     1
 92
        8
176
     1
 66
     7
176
     1
 43
1.0
176
     1
 76
     1
176
     1
 77
     6
176
     1
 78
     2
176
     1
 67
     7
176
     1
 79
     3
176
     1
170
     0
176
     1
171
     0
176
     1
290
     0
176
     1
 93
        1
176
     1
 44
0.0
176
     1
173
     0
176
     1
  0
VISUALSTYLE
  5
35
102
{ACAD_REACTORS
330
2A
102
}
330
2A
100
AcDbVisualStyle
  2
Dim
 70
    11
177
     2
291
     1
 71
     2
176
     1
 72
     2
176
     1
 73
     0
176
     1
 90
        0
176
     1
 40
-0.6
176
     1
 41
-30.0
176
     1
 62
     5
 63
     7
421
 16777215
176
     1
 74
     1
176
     1
 91
        4
176
     1
 64
     7
176
     1
 65
   257
176
     1
 75
     1
176
     1
175
     1
176
     1
 42
1.0
176
     1
 92
        8
176
     1
 66
     7
176
     1
 43
1.0
176
     1
 76
     1
176
     1
 77
     6
176
     1
 78
     2
176
     1
 67
     7
176
     1
 79
     5
176
     1
170
     0
176
     1
171
     0
176
     1
290
     0
176
     1
 93
        1
176
     1
 44
-50.0
176
     1
173
     0
176
     1
  0
VISUALSTYLE
  5
39
102
{ACAD_REACTORS
330
2A
102
}
330
2A
100
AcDbVisualStyle
  2
Facepattern
 70
    15
177
     2
291
     1
 71
     2
176
     1
 72
     2
176
     1
 73
     0
176
     1
 90
        0
176
     1
 40
-0.6
176
     1
 41
-30.0
176
     1
 62
     5
 63
     7
421
 16777215
176
     1
 74
     1
176
     1
 91
        4
176
     1
 64
     7
176
     1
 65
   257
176
     1
 75
     1
176
     1
175
     1
176
     1
 42
1.0
176
     1
 92
        8
176
     1
 66
     7
176
     1
 43
1.0
176
     1
 76
     1
176
     1
 77
     6
176
     1
 78
     2
176
     1
 67
     7
176
     1
 79
     5
176
     1
170
     0
176
     1
171
     0
176
     1
290
     0
176
     1
 93
        1
176
     1
 44
0.0
176
     1
173
     0
176
     1
  0
VISUALSTYLE
  5
2B
102
{ACAD_REACTORS
330
2A
102
}
330
2A
100
AcDbVisualStyle
  2
Flat
 70
     0
177
     2
291
     1
 71
     2
176
     1
 72
     1
176
     1
 73
     1
176
     1
 90
        2
176
     1
 40
-0.6
176
     1
 41
30.0
176
     1
 62
     5
 63
     7
421
 16777215
176
     1
 74
     0
176
     1
 91
        4
176
     1
 64
     7
176
     1
 65
   257
176
     1
 75
     1
176
     1
175
     1
176
     1
 42
1.0
176
     1
 92
        8
176
     1
 66
     7
176
     1
 43
1.0
176
     1
 76
     1
176
     1
 77
     6
176
     1
 78
     2
176
     1
 67
     7
176
     1
 79
     5
176
     1
170
     0
176
     1
171
     0
176
     1
290
     0
176
     1
 93
       13
176
     1
 44
0.0
176
     1
173
     0
176
     1
  0
VISUALSTYLE
  5
2C
102
{ACAD_REACTORS
330
2A
102
}
330
2A
100
AcDbVisualStyle
  2
FlatWithEdges
 70
     1
177
     2
291
     1
 71
     2
176
     1
 72
     1
176
     1
 73
     1
176
     1
 90
        2
176
     1
 40
-0.6
176
     1
 41
30.0
176
     1
 62
     5
 63
     7
421
 16777215
176
     1
 74
     1
176
     1
 91
        4
176
     1
 64
     7
176
     1
 65
   257
176
     1
 75
     1
176
     1
175
     1
176
     1
 42
1.0
176
     1
 92
        0
176
     1
 66
   257
176
     1
 43
1.0
176
     1
 76
     1
176
     1
 77
     6
176
     1
 78
     2
176
     1
 67
     7
176
     1
 79
     5
176
     1
170
     0
176
     1
171
     0
176
     1
290
     0
176
     1
 93
       13
176
     1
 44
0.0
176
     1
173
     0
176
     1
  0
VISUALSTYLE
  5
2D
102
{ACAD_REACTORS
330
2A
102
}
330
2A
100
AcDbVisualStyle
  2
Gouraud
 70
     2
177
     2
291
     1
 71
     2
176
     1
 72
     2
176
     1
 73
     1
176
     1
 90
        2
176
     1
 40
-0.6
176
     1
 41
30.0
176
     1
 62
     5
 63
     7
421
 16777215
176
     1
 74
     0
176
     1
 91
        4
176
     1
 64
     7
176
     1
 65
   257
176
     1
 75
     1
176
     1
175
     1
176
     1
 42
1.0
176
     1
 92
        0
176
     1
 66
     7
176
     1
 43
1.0
176
     1
 76
     1
176
     1
 77
     6
176
     1
 78
     2
176
     1
 67
     7
176
     1
 79
     5
176
     1
170
     0
176
     1
171
     0
176
     1
290
     0
176
     1
 93
       13
176
     1
 44
0.0
176
     1
173
     0
176
     1
  0
VISUALSTYLE
  5
2E
102
{ACAD_REACTORS
330
2A
102
}
330
2A
100
AcDbVisualStyle
  2
GouraudWithEdges
 70
     3
177
     2
291
     1
 71
     2
176
     1
 72
     2
176
     1
 73
     1
176
     1
 90
        2
176
     1
 40
-0.6
176
     1
 41
30.0
176
     1
 62
     5
 63
     7
421
 16777215
176
     1
 74
     1
176
     1
 91
        4
176
     1
 64
     7
176
     1
 65
   257
176
     1
 75
     1
176
     1
175
     1
176
     1
 42
1.0
176
     1
 92
        0
176
     1
 66
   257
176
     1
 43
1.0
176
     1
 76
     1
176
     1
 77
     6
176
     1
 78
     2
176
     1
 67
     7
176
     1
 79
     5
176
     1
170
     0
176
     1
171
     0
176
     1
290
     0
176
     1
 93
       13
176
     1
 44
0.0
176
     1
173
     0
176
     1
  0
VISUALSTYLE
  5
38
102
{ACAD_REACTORS
330
2A
102
}
330
2A
100
AcDbVisualStyle
  2
Linepattern
 70
    14
177
     2
291
     1
 71
     2
176
     1
 72
     2
176
     1
 73
     0
176
     1
 90
        0
176
     1
 40
-0.6
176
     1
 41
-30.0
176
     1
 62
     5
 63
     7
421
 16777215
176
     1
 74
     1
176
     1
 91
        4
176
     1
 64
     7
176
     1
 65
   257
176
     1
 75
     7
176
     1
175
     7
176
     1
 42
1.0
176
     1
 92
        8
176
     1
 66
     7
176
     1
 43
1.0
176
     1
 76
     1
176
     1
 77
     6
176
     1
 78
     2
176
     1
 67
     7
176
     1
 79
     5
176
     1
170
     0
176
     1
171
     0
176
     1
290
     0
176
     1
 93
        1
176
     1
 44
0.0
176
     1
173
     0
176
     1
  0
VISUALSTYLE
  5
33
102
{ACAD_REACTORS
330
2A
102
}
330
2A
100
AcDbVisualStyle
  2
Realistic
 70
     8
177
     2
291
     0
 71
     2
176
     1
 72
     2
176
     1
 73
     0
176
     1
 90
        0
176
     1
 40
-0.6
176
     1
 41
-30.0
176
     1
 62
     5
 63
     7
421
 16777215
176
     1
 74
     1
176
     1
 91
        0
176
     1
 64
     7
176
     1
 65
   257
176
     1
 75
     1
176
     1
175
     1
176
     1
 42
1.0
176
     1
 92
        8
176
     1
 66
     8
424
  7895160
176
     1
 43
1.0
176
     1
 76
     1
176
     1
 77
     6
176
     1
 78
     2
176
     1
 67
     7
176
     1
 79
     5
176
     1
170
     0
176
     1
171
     0
176
     1
290
     0
176
     1
 93
       13
176
     1
 44
0.0
176
     1
173
     0
176
     1
  0
VISUALSTYLE
  5
37
102
{ACAD_REACTORS
330
2A
102
}
330
2A
100
AcDbVisualStyle
  2
Thicken
 70
    13
177
     2
291
     1
 71
     2
176
     1
 72
     2
176
     1
 73
     0
176
     1
 90
        0
176
     1
 40
-0.6
176
     1
 41
-30.0
176
     1
 62
     5
 63
     7
421
 16777215
176
     1
 74
     1
176
     1
 91
        4
176
     1
 64
     7
176
     1
 65
   257
176
     1
 75
     1
176
     1
175
     1
176
     1
 42
1.0
176
     1
 92
       12
176
     1
 66
     7
176
     1
 43
1.0
176
     1
 76
     1
176
     1
 77
     6
176
     1
 78
     2
176
     1
 67
     7
176
     1
 79
     5
176
     1
170
     0
176
     1
171
     0
176
     1
290
     0
176
     1
 93
        1
176
     1
 44
0.0
176
     1
173
     0
176
     1
  0
ENDSEC
  0
EOF
