  0
SECTION
  2
HEADER
  9
$ACADVER
  1
AC1024
  9
$ACADMAINTVER
 70
     6
  9
$DWGCODEPAGE
  3
UNDEFINED
  9
$INSBASE
 10
0.0
 20
0.0
 30
0.0
  9
$EXTMIN
 10
1.000000000000000E+20
 20
1.000000000000000E+20
 30
1.000000000000000E+20
  9
$EXTMAX
 10
-1.000000000000000E+20
 20
-1.000000000000000E+20
 30
-1.000000000000000E+20
  9
$LIMMIN
 10
0.0
 20
0.0
  9
$LIMMAX
 10
12.0
 20
9.0
  9
$ORTHOMODE
 70
     0
  9
$REGENMODE
 70
     1
  9
$FILLMODE
 70
     1
  9
$QTEXTMODE
 70
     0
  9
$MIRRTEXT
 70
     1
  9
$LTSCALE
 40
1.0
  9
$ATTMODE
 70
     1
  9
$TEXTSIZE
 40
0.2
  9
$TRACEWID
 40
0.05
  9
$TEXTSTYLE
  7
Standard
  9
$CLAYER
  8
0
  9
$CELTYPE
  6
ByLayer
  9
$CECOLOR
 62
   256
  9
$CELTSCALE
 40
1.0
  9
$DISPSILH
 70
     0
  9
$DIMSCALE
 40
1.0
  9
$DIMASZ
 40
0.18
  9
$DIMEXO
 40
0.0625
  9
$DIMDLI
 40
0.38
  9
$DIMRND
 40
0.0
  9
$DIMDLE
 40
0.0
  9
$DIMEXE
 40
0.18
  9
$DIMTP
 40
0.0
  9
$DIMTM
 40
0.0
  9
$DIMTXT
 40
0.18
  9
$DIMCEN
 40
0.09
  9
$DIMTSZ
 40
0.0
  9
$DIMTOL
 70
     0
  9
$DIMLIM
 70
     0
  9
$DIMTIH
 70
     1
  9
$DIMTOH
 70
     1
  9
$DIMSE1
 70
     0
  9
$DIMSE2
 70
     0
  9
$DIMTAD
 70
     0
  9
$DIMZIN
 70
     0
  9
$DIMBLK
  1

  9
$DIMASO
 70
     1
  9
$DIMSHO
 70
     1
  9
$DIMPOST
  1

  9
$DIMAPOST
  1

  9
$DIMALT
 70
     0
  9
$DIMALTD
 70
     2
  9
$DIMALTF
 40
25.4
  9
$DIMLFAC
 40
1.0
  9
$DIMTOFL
 70
     0
  9
$DIMTVP
 40
0.0
  9
$DIMTIX
 70
     0
  9
$DIMSOXD
 70
     0
  9
$DIMSAH
 70
     0
  9
$DIMBLK1
  1

  9
$DIMBLK2
  1

  9
$DIMSTYLE
  2
Standard
  9
$DIMCLRD
 70
     0
  9
$DIMCLRE
 70
     0
  9
$DIMCLRT
 70
     0
  9
$DIMTFAC
 40
1.0
  9
$DIMGAP
 40
0.09
  9
$DIMJUST
 70
     0
  9
$DIMSD1
 70
     0
  9
$DIMSD2
 70
     0
  9
$DIMTOLJ
 70
     1
  9
$DIMTZIN
 70
     0
  9
$DIMALTZ
 70
     0
  9
$DIMALTTZ
 70
     0
  9
$DIMUPT
 70
     0
  9
$DIMDEC
 70
     4
  9
$DIMTDEC
 70
     4
  9
$DIMALTU
 70
     2
  9
$DIMALTTD
 70
     2
  9
$DIMTXSTY
  7
Standard
  9
$DIMAUNIT
 70
     0
  9
$DIMADEC
 70
     0
  9
$DIMALTRND
 40
0.0
  9
$DIMAZIN
 70
     0
  9
$DIMDSEP
 70
    46
  9
$DIMATFIT
 70
     3
  9
$DIMFRAC
 70
     0
  9
$DIMLDRBLK
  1

  9
$DIMLUNIT
 70
     2
  9
$DIMLWD
 70
    -2
  9
$DIMLWE
 70
    -2
  9
$DIMTMOVE
 70
     0
  9
$DIMFXL
 40
1.0
  9
$DIMFXLON
 70
     0
  9
$DIMJOGANG
 40
0.7853981633974483
  9
$DIMTFILL
 70
     0
  9
$DIMTFILLCLR
 70
     0
  9
$DIMARCSYM
 70
     0
  9
$DIMLTYPE
  6

  9
$DIMLTEX1
  6

  9
$DIMLTEX2
  6

  9
$DIMTXTDIRECTION
 70
     0
  9
$LUNITS
 70
     2
  9
$LUPREC
 70
     4
  9
$SKETCHINC
 40
0.1
  9
$FILLETRAD
 40
0.5
  9
$AUNITS
 70
     0
  9
$AUPREC
 70
     0
  9
$MENU
  1
.
  9
$ELEVATION
 40
0.0
  9
$PELEVATION
 40
0.0
  9
$THICKNESS
 40
0.0
  9
$LIMCHECK
 70
     0
  9
$CHAMFERA
 40
0.5
  9
$CHAMFERB
 40
0.5
  9
$CHAMFERC
 40
1.0
  9
$CHAMFERD
 40
0.0
  9
$SKPOLY
 70
     0
  9
$TDCREATE
 40
2458263.574328704
  9
$TDUCREATE
 40
2458263.199328704
  9
$TDUPDATE
 40
2458263.574328704
  9
$TDUUPDATE
 40
2458263.199328704
  9
$TDINDWG
 40
0.0000000116
  9
$TDUSRTIMER
 40
0.0000000116
  9
$USRTIMER
 70
     1
  9
$ANGBASE
 50
0.0
  9
$ANGDIR
 70
     0
  9
$PDMODE
 70
     0
  9
$PDSIZE
 40
0.0
  9
$PLINEWID
 40
0.0
  9
$SPLFRAME
 70
     0
  9
$SPLINETYPE
 70
     6
  9
$SPLINESEGS
 70
     8
  9
$HANDSEED
  5
187
  9
$SURFTAB1
 70
     6
  9
$SURFTAB2
 70
     6
  9
$SURFTYPE
 70
     6
  9
$SURFU
 70
     6
  9
$SURFV
 70
     6
  9
$UCSBASE
  2

  9
$UCSNAME
  2

  9
$UCSORG
 10
0.0
 20
0.0
 30
0.0
  9
$UCSXDIR
 10
1.0
 20
0.0
 30
0.0
  9
$UCSYDIR
 10
0.0
 20
1.0
 30
0.0
  9
$UCSORTHOREF
  2

  9
$UCSORTHOVIEW
 70
     0
  9
$UCSORGTOP
 10
0.0
 20
0.0
 30
0.0
  9
$UCSORGBOTTOM
 10
0.0
 20
0.0
 30
0.0
  9
$UCSORGLEFT
 10
0.0
 20
0.0
 30
0.0
  9
$UCSORGRIGHT
 10
0.0
 20
0.0
 30
0.0
  9
$UCSORGFRONT
 10
0.0
 20
0.0
 30
0.0
  9
$UCSORGBACK
 10
0.0
 20
0.0
 30
0.0
  9
$PUCSBASE
  2

  9
$PUCSNAME
  2

  9
$PUCSORG
 10
0.0
 20
0.0
 30
0.0
  9
$PUCSXDIR
 10
1.0
 20
0.0
 30
0.0
  9
$PUCSYDIR
 10
0.0
 20
1.0
 30
0.0
  9
$PUCSORTHOREF
  2

  9
$PUCSORTHOVIEW
 70
     0
  9
$PUCSORGTOP
 10
0.0
 20
0.0
 30
0.0
  9
$PUCSORGBOTTOM
 10
0.0
 20
0.0
 30
0.0
  9
$PUCSORGLEFT
 10
0.0
 20
0.0
 30
0.0
  9
$PUCSORGRIGHT
 10
0.0
 20
0.0
 30
0.0
  9
$PUCSORGFRONT
 10
0.0
 20
0.0
 30
0.0
  9
$PUCSORGBACK
 10
0.0
 20
0.0
 30
0.0
  9
$USERI1
 70
     0
  9
$USERI2
 70
     0
  9
$USERI3
 70
     0
  9
$USERI4
 70
     0
  9
$USERI5
 70
     0
  9
$USERR1
 40
0.0
  9
$USERR2
 40
0.0
  9
$USERR3
 40
0.0
  9
$USERR4
 40
0.0
  9
$USERR5
 40
0.0
  9
$WORLDVIEW
 70
     1
  9
$SHADEDGE
 70
     3
  9
$SHADEDIF
 70
    70
  9
$TILEMODE
 70
     1
  9
$MAXACTVP
 70
    64
  9
$PINSBASE
 10
0.0
 20
0.0
 30
0.0
  9
$PLIMCHECK
 70
     0
  9
$PEXTMIN
 10
1.000000000000000E+20
 20
1.000000000000000E+20
 30
1.000000000000000E+20
  9
$PEXTMAX
 10
-1.000000000000000E+20
 20
-1.000000000000000E+20
 30
-1.000000000000000E+20
  9
$PLIMMIN
 10
0.0
 20
0.0
  9
$PLIMMAX
 10
12.0
 20
9.0
  9
$UNITMODE
 70
     0
  9
$VISRETAIN
 70
     1
  9
$PLINEGEN
 70
     0
  9
$PSLTSCALE
 70
     1
  9
$TREEDEPTH
 70
  3020
  9
$CMLSTYLE
  2
Standard
  9
$CMLJUST
 70
     0
  9
$CMLSCALE
 40
1.0
  9
$PROXYGRAPHICS
 70
     1
  9
$MEASUREMENT
 70
     0
  9
$CELWEIGHT
370
    -1
  9
$ENDCAPS
280
     0
  9
$JOINSTYLE
280
     0
  9
$LWDISPLAY
290
     1
  9
$INSUNITS
 70
     1
  9
$HYPERLINKBASE
  1

  9
$STYLESHEET
  1

  9
$XEDIT
290
     1
  9
$CEPSNTYPE
380
     0
  9
$PSTYLEMODE
290
     1
  9
$FINGERPRINTGUID
  2
{708A8592-8743-3062-CC88-C3F7956E6840}
  9
$VERSIONGUID
  2
{FAEB1C32-E019-11D5-929B-00C0DF256EC4}
  9
$EXTNAMES
290
     1
  9
$PSVPSCALE
 40
0.0
  9
$OLESTARTUP
290
     0
  9
$SORTENTS
280
   127
  9
$INDEXCTL
280
     0
  9
$HIDETEXT
280
     1
  9
$XCLIPFRAME
280
     2
  9
$HALOGAP
280
     0
  9
$OBSCOLOR
 70
   257
  9
$OBSLTYPE
280
     0
  9
$INTERSECTIONDISPLAY
280
     0
  9
$INTERSECTIONCOLOR
 70
   257
  9
$DIMASSOC
280
     2
  9
$PROJECTNAME
  1

  9
$CAMERADISPLAY
290
     0
  9
$LENSLENGTH
 40
50.0
  9
$CAMERAHEIGHT
 40
0.0
  9
$STEPSPERSEC
 40
2.0
  9
$STEPSIZE
 40
6.0
  9
$3DDWFPREC
 40
2.0
  9
$PSOLWIDTH
 40
0.25
  9
$PSOLHEIGHT
 40
4.0
  9
$LOFTANG1
 40
1.570796326794897
  9
$LOFTANG2
 40
1.570796326794897
  9
$LOFTMAG1
 40
0.0
  9
$LOFTMAG2
 40
0.0
  9
$LOFTPARAM
 70
     7
  9
$LOFTNORMALS
280
     1
  9
$LATITUDE
 40
37.795
  9
$LONGITUDE
 40
-122.394
  9
$NORTHDIRECTION
 40
0.0
  9
$TIMEZONE
 70
 -8000
  9
$LIGHTGLYPHDISPLAY
280
     1
  9
$TILEMODELIGHTSYNCH
280
     1
  9
$CMATERIAL
347
3C
  9
$SOLIDHIST
280
     1
  9
$SHOWHIST
280
     1
  9
$DWFFRAME
280
     2
  9
$DGNFRAME
280
     2
  9
$REALWORLDSCALE
290
     1
  9
$INTERFERECOLOR
 62
   256
  9
$CSHADOW
280
     0
  9
$SHADOWPLANELOCATION
 40
0.0
  0
ENDSEC
  0
SECTION
  2
CLASSES
  0
CLASS
  1
ACDBDICTIONARYWDFLT
  2
AcDbDictionaryWithDefault
  3
ObjectDBX Classes
 90
        0
 91
        4
280
     0
281
     0
  0
CLASS
  1
VISUALSTYLE
  2
AcDbVisualStyle
  3
ObjectDBX Classes
 90
     4095
 91
        4
280
     0
281
     0
  0
CLASS
  1
MATERIAL
  2
AcDbMaterial
  3
ObjectDBX Classes
 90
     1153
 91
        4
280
     0
281
     0
  0
CLASS
  1
SUN
  2
AcDbSun
  3
SCENEOE
 90
     1024
 91
        4
280
     0
281
     0
  0
ENDSEC
  0
SECTION
  2
TABLES
  0
TABLE
  2
VPORT
  5
8
330
0
100
AcDbSymbolTable
 70
     1
  0
VPORT
  5
29
330
8
100
AcDbSymbolTableRecord
100
AcDbViewportTableRecord
  2
*Active
 70
     0
 10
0.0
 20
0.0
 11
1.0
 21
1.0
 12
0.0
 22
0.0
 13
0.0
 23
0.0
 14
0.5
 24
0.5
 15
0.5
 25
0.5
 16
0.0
 26
0.0
 36
1.0
 17
105.0007777515277
 27
-148.5000416295416
 37
0.0
 40
297.0000832590831
 41
0.7070757462376333
 42
50.0
 43
0.0
 44
0.0
 50
0.0
 51
0.0
 71
     0
 72
   100
 73
     1
 74
     3
 75
     0
 76
     0
 77
     0
 78
     0
281
     0
 65
     1
110
0.0
120
0.0
130
0.0
111
1.0
121
0.0
131
0.0
112
0.0
122
1.0
132
0.0
 79
     0
146
0.0
 60
     3
 61
     5
292
     1
282
     1
141
0.0
142
0.0
 63
   250
361
3F
  0
ENDTAB
  0
TABLE
  2
LTYPE
  5
5
330
0
100
AcDbSymbolTable
 70
     3
  0
LTYPE
  5
14
330
5
100
AcDbSymbolTableRecord
100
AcDbLinetypeTableRecord
  2
ByBlock
 70
     0
  3

 72
    65
 73
     0
 40
0.0
  0
LTYPE
  5
15
330
5
100
AcDbSymbolTableRecord
100
AcDbLinetypeTableRecord
  2
ByLayer
 70
     0
  3

 72
    65
 73
     0
 40
0.0
  0
LTYPE
  5
16
330
5
100
AcDbSymbolTableRecord
100
AcDbLinetypeTableRecord
  2
Continuous
 70
     0
  3
Solid line
 72
    65
 73
     0
 40
0.0
  0
LTYPE
  5
E3
330
5
100
AcDbSymbolTableRecord
100
AcDbLinetypeTableRecord
  2
AI-Linetype-1
 70
     0
  3
Adobe Illustrator Linetype No. 1
 72
    65
 73
     2
 40
1.750130543006359
 49
1.000125013207373
 74
     0
 49
-0.7500055297989862
 74
     0
  0
LTYPE
  5
E9
330
5
100
AcDbSymbolTableRecord
100
AcDbLinetypeTableRecord
  2
AI-Linetype-2
 70
     0
  3
Adobe Illustrator Linetype No. 2
 72
    65
 73
     2
 40
1.750130543006359
 49
1.000125013207373
 74
     0
 49
-0.7500055297989862
 74
     0
  0
ENDTAB
  0
TABLE
  2
LAYER
  5
2
330
0
100
AcDbSymbolTable
 70
     2
  0
LAYER
  5
10
330
2
100
AcDbSymbolTableRecord
100
AcDbLayerTableRecord
  2
0
 70
     0
 62
     7
  6
Continuous
370
    -3
390
F
347
3E
  0
LAYER
  5
40
330
2
100
AcDbSymbolTableRecord
100
AcDbLayerTableRecord
  2
_U+30EC_U+30A4_U+30E4_U+30FC 1
 70
     0
 62
     7
  6
Continuous
370
    -3
390
F
347
3E
  0
ENDTAB
  0
TABLE
  2
STYLE
  5
3
330
0
100
AcDbSymbolTable
 70
     1
  0
STYLE
  5
11
330
3
100
AcDbSymbolTableRecord
100
AcDbTextStyleTableRecord
  2
Standard
 70
     0
 40
0.0
 41
1.0
 50
0.0
 71
     0
 42
0.2
  3
txt
  4

  0
ENDTAB
  0
TABLE
  2
VIEW
  5
6
330
0
100
AcDbSymbolTable
 70
     0
  0
ENDTAB
  0
TABLE
  2
UCS
  5
7
330
0
100
AcDbSymbolTable
 70
     0
  0
ENDTAB
  0
TABLE
  2
APPID
  5
9
330
0
100
AcDbSymbolTable
 70
     1
  0
APPID
  5
12
330
9
100
AcDbSymbolTableRecord
100
AcDbRegAppTableRecord
  2
ACAD
 70
     0
  0
ENDTAB
  0
TABLE
  2
DIMSTYLE
  5
A
330
0
100
AcDbSymbolTable
 70
     1
100
AcDbDimStyleTable
  0
DIMSTYLE
105
27
330
A
100
AcDbSymbolTableRecord
100
AcDbDimStyleTableRecord
  2
Standard
 70
     0
178
     0
340
11
  0
ENDTAB
  0
TABLE
  2
BLOCK_RECORD
  5
1
330
0
100
AcDbSymbolTable
 70
    11
  0
BLOCK_RECORD
  5
1F
330
1
100
AcDbSymbolTableRecord
100
AcDbBlockTableRecord
  2
*Model_Space
340
22
 70
     0
280
     1
281
     0
  0
BLOCK_RECORD
  5
1B
330
1
100
AcDbSymbolTableRecord
100
AcDbBlockTableRecord
  2
*Paper_Space
340
1E
 70
     0
280
     1
281
     0
  0
BLOCK_RECORD
  5
23
330
1
100
AcDbSymbolTableRecord
100
AcDbBlockTableRecord
  2
*Paper_Space0
340
26
 70
     0
280
     1
281
     0
  0
BLOCK_RECORD
  5
57
330
1
100
AcDbSymbolTableRecord
100
AcDbBlockTableRecord
  2
block 2
340
0
102
{BLKREFS
331
58
102
}
 70
     0
280
     1
281
     0
  0
BLOCK_RECORD
  5
6C
330
1
100
AcDbSymbolTableRecord
100
AcDbBlockTableRecord
  2
block 3
340
0
102
{BLKREFS
331
6D
102
}
 70
     0
280
     1
281
     0
  0
BLOCK_RECORD
  5
86
330
1
100
AcDbSymbolTableRecord
100
AcDbBlockTableRecord
  2
block 4
340
0
102
{BLKREFS
331
87
102
}
 70
     0
280
     1
281
     0
  0
BLOCK_RECORD
  5
9D
330
1
100
AcDbSymbolTableRecord
100
AcDbBlockTableRecord
  2
block 5
340
0
102
{BLKREFS
331
9E
102
}
 70
     0
280
     1
281
     0
  0
BLOCK_RECORD
  5
BB
330
1
100
AcDbSymbolTableRecord
100
AcDbBlockTableRecord
  2
block 6
340
0
102
{BLKREFS
331
BC
102
}
 70
     0
280
     1
281
     0
  0
BLOCK_RECORD
  5
D5
330
1
100
AcDbSymbolTableRecord
100
AcDbBlockTableRecord
  2
block 7
340
0
102
{BLKREFS
331
D6
102
}
 70
     0
280
     1
281
     0
  0
BLOCK_RECORD
  5
EB
330
1
100
AcDbSymbolTableRecord
100
AcDbBlockTableRecord
  2
block 8
340
0
102
{BLKREFS
331
EC
102
}
 70
     0
280
     1
281
     0
  0
BLOCK_RECORD
  5
F3
330
1
100
AcDbSymbolTableRecord
100
AcDbBlockTableRecord
  2
block 9
340
0
102
{BLKREFS
331
F4
102
}
 70
     0
280
     1
281
     0
  0
BLOCK_RECORD
  5
F9
330
1
100
AcDbSymbolTableRecord
100
AcDbBlockTableRecord
  2
block 10
340
0
102
{BLKREFS
331
FA
102
}
 70
     0
280
     1
281
     0
  0
BLOCK_RECORD
  5
101
330
1
100
AcDbSymbolTableRecord
100
AcDbBlockTableRecord
  2
block 11
340
0
102
{BLKREFS
331
102
102
}
 70
     0
280
     1
281
     0
  0
ENDTAB
  0
ENDSEC
  0
SECTION
  2
BLOCKS
  0
BLOCK
  5
20
330
1F
100
AcDbEntity
  8
0
100
AcDbBlockBegin
  2
*Model_Space
 70
     0
 10
0.0
 20
0.0
 30
0.0
  3
*Model_Space
  1

  0
ENDBLK
  5
21
330
1F
100
AcDbEntity
  8
0
100
AcDbBlockEnd
  0
BLOCK
  5
1C
330
1B
100
AcDbEntity
 67
     1
  8
0
100
AcDbBlockBegin
  2
*Paper_Space
 70
     0
 10
0.0
 20
0.0
 30
0.0
  3
*Paper_Space
  1

  0
ENDBLK
  5
1D
330
1B
100
AcDbEntity
 67
     1
  8
0
100
AcDbBlockEnd
  0
BLOCK
  5
24
330
23
100
AcDbEntity
  8
0
100
AcDbBlockBegin
  2
*Paper_Space0
 70
     0
 10
0.0
 20
0.0
 30
0.0
  3
*Paper_Space0
  1

  0
ENDBLK
  5
25
330
23
100
AcDbEntity
  8
0
100
AcDbBlockEnd
  0
BLOCK
  5
59
330
57
100
AcDbEntity
  8
0
100
AcDbBlockBegin
  2
block 2
 70
     0
 10
0.0
 20
0.0
 30
0.0
  3
block 2
  1

  0
SPLINE
  5
5B
330
57
100
AcDbEntity
  8
_U+30EC_U+30A4_U+30E4_U+30FC 1
370
     0
100
AcDbSpline
210
0.0
220
0.0
230
1.0
 70
    11
 71
     3
 72
    26
 73
    22
 74
     0
 42
0.0000000001
 43
0.0000000001
 12
1.0
 22
0.0
 32
0.0
 13
1.0
 23
0.0
 33
0.0
 40
0.0
 40
0.0
 40
0.0
 40
0.0
 40
1.0
 40
1.0
 40
1.0
 40
2.0
 40
2.0
 40
2.0
 40
3.0
 40
3.0
 40
3.0
 40
4.0
 40
4.0
 40
4.0
 40
5.0
 40
5.0
 40
5.0
 40
6.0
 40
6.0
 40
6.0
 40
7.0
 40
7.0
 40
7.0
 40
7.0
 10
125.2123399209539
 20
-146.3492065063814
 30
0.0
 10
125.2123399209539
 20
-146.3492065063814
 30
0.0
 10
124.1081868179313
 20
-146.3492065063814
 30
0.0
 10
124.1081868179313
 20
-146.3492065063814
 30
0.0
 10
124.1081868179313
 20
-146.3492065063814
 30
0.0
 10
124.1081868179313
 20
-146.6792466538684
 30
0.0
 10
124.1081868179313
 20
-146.6792466538684
 30
0.0
 10
124.1081868179313
 20
-146.6792466538684
 30
0.0
 10
123.9600477120655
 20
-146.6792466538684
 30
0.0
 10
123.9600477120655
 20
-146.6792466538684
 30
0.0
 10
123.945233801479
 20
-146.3471394490903
 30
0.0
 10
123.7822807850267
 20
-146.3006306600394
 30
0.0
 10
123.6679036149164
 20
-146.2710028388663
 30
0.0
 10
123.6679036149164
 20
-146.2710028388663
 30
0.0
 10
123.6679036149164
 20
-146.1249307902917
 30
0.0
 10
123.6679036149164
 20
-146.1249307902917
 30
0.0
 10
123.6679036149164
 20
-146.1249307902917
 30
0.0
 10
125.2123399209539
 20
-146.1249307902917
 30
0.0
 10
125.2123399209539
 20
-146.1249307902917
 30
0.0
 10
125.2123399209539
 20
-146.1249307902917
 30
0.0
 10
125.2123399209539
 20
-146.3492065063814
 30
0.0
 10
125.2123399209539
 20
-146.3492065063814
 30
0.0
  0
HATCH
  5
5C
330
57
100
AcDbEntity
  8
_U+30EC_U+30A4_U+30E4_U+30FC 1
 62
   179
420
  2234388
100
AcDbHatch
 10
0.0
 20
0.0
 30
0.0
210
0.0
220
0.0
230
1.0
  2
SOLID
 70
     1
 71
     0
 91
        1
 92
        1
 93
        1
 72
     4
 94
        3
 73
     0
 74
     1
 95
       26
 96
       22
 40
0.0
 40
0.0
 40
0.0
 40
0.0
 40
1.0
 40
1.0
 40
1.0
 40
2.0
 40
2.0
 40
2.0
 40
3.0
 40
3.0
 40
3.0
 40
4.0
 40
4.0
 40
4.0
 40
5.0
 40
5.0
 40
5.0
 40
6.0
 40
6.0
 40
6.0
 40
7.0
 40
7.0
 40
7.0
 40
7.0
 10
125.2123399209539
 20
-146.3492065063814
 10
125.2123399209539
 20
-146.3492065063814
 10
124.1081868179313
 20
-146.3492065063814
 10
124.1081868179313
 20
-146.3492065063814
 10
124.1081868179313
 20
-146.3492065063814
 10
124.1081868179313
 20
-146.6792466538684
 10
124.1081868179313
 20
-146.6792466538684
 10
124.1081868179313
 20
-146.6792466538684
 10
123.9600477120655
 20
-146.6792466538684
 10
123.9600477120655
 20
-146.6792466538684
 10
123.945233801479
 20
-146.3471394490903
 10
123.7822807850267
 20
-146.3006306600394
 10
123.6679036149164
 20
-146.2710028388663
 10
123.6679036149164
 20
-146.2710028388663
 10
123.6679036149164
 20
-146.1249307902917
 10
123.6679036149164
 20
-146.1249307902917
 10
123.6679036149164
 20
-146.1249307902917
 10
125.2123399209539
 20
-146.1249307902917
 10
125.2123399209539
 20
-146.1249307902917
 10
125.2123399209539
 20
-146.1249307902917
 10
125.2123399209539
 20
-146.3492065063814
 10
125.2123399209539
 20
-146.3492065063814
 97
        0
 97
        0
 75
     2
 76
     1
 98
        0
  0
SPLINE
  5
5D
330
57
100
AcDbEntity
  8
_U+30EC_U+30A4_U+30E4_U+30FC 1
370
     0
100
AcDbSpline
210
0.0
220
0.0
230
1.0
 70
    11
 71
     3
 72
    29
 73
    25
 74
     0
 42
0.0000000001
 43
0.0000000001
 12
1.0
 22
0.0
 32
0.0
 13
1.0
 23
0.0
 33
0.0
 40
0.0
 40
0.0
 40
0.0
 40
0.0
 40
1.0
 40
1.0
 40
1.0
 40
2.0
 40
2.0
 40
2.0
 40
3.0
 40
3.0
 40
3.0
 40
4.0
 40
4.0
 40
4.0
 40
5.0
 40
5.0
 40
5.0
 40
6.0
 40
6.0
 40
6.0
 40
7.0
 40
7.0
 40
7.0
 40
8.0
 40
8.0
 40
8.0
 40
8.0
 10
125.034572993915
 20
-144.726049768506
 30
0.0
 10
125.2440347994182
 20
-144.8338812571943
 30
0.0
 10
125.262982824587
 20
-145.0073418148766
 30
0.0
 10
125.262982824587
 20
-145.1237860422781
 30
0.0
 10
125.262982824587
 20
-145.284499746665
 30
0.0
 10
125.2164740355362
 20
-145.426265425883
 30
0.0
 10
125.034572993915
 20
-145.5215223160502
 30
0.0
 10
124.8399250989984
 20
-145.6250474353819
 30
0.0
 10
124.6029025296132
 20
-145.6441677153251
 30
0.0
 10
124.4402940227094
 20
-145.6441677153251
 30
0.0
 10
124.2962890314259
 20
-145.6441677153251
 30
0.0
 10
124.0444525514542
 20
-145.6272867474474
 30
0.0
 10
123.8456705419553
 20
-145.5215223160502
 30
0.0
 10
123.642754417874
 20
-145.4135185725876
 30
0.0
 10
123.6193277685743
 20
-145.2528048682007
 30
0.0
 10
123.6193277685743
 20
-145.1237860422781
 30
0.0
 10
123.6193277685743
 20
-144.9651393951823
 30
0.0
 10
123.6637695003341
 20
-144.8213066586732
 30
0.0
 10
123.8456705419553
 20
-144.726049768506
 30
0.0
 10
124.0382513795807
 20
-144.6266587637565
 30
0.0
 10
124.2666612102528
 20
-144.6034043692311
 30
0.0
 10
124.4402940227094
 20
-144.6034043692311
 30
0.0
 10
124.6115152683263
 20
-144.6034043692311
 30
0.0
 10
124.8419921562895
 20
-144.6244194516911
 30
0.0
 10
125.034572993915
 20
-144.726049768506
 30
0.0
  0
SPLINE
  5
5E
330
57
100
AcDbEntity
  8
_U+30EC_U+30A4_U+30E4_U+30FC 1
370
     0
100
AcDbSpline
210
0.0
220
0.0
230
1.0
 70
    11
 71
     3
 72
    17
 73
    13
 74
     0
 42
0.0000000001
 43
0.0000000001
 12
1.0
 22
0.0
 32
0.0
 13
1.0
 23
0.0
 33
0.0
 40
0.0
 40
0.0
 40
0.0
 40
0.0
 40
1.0
 40
1.0
 40
1.0
 40
2.0
 40
2.0
 40
2.0
 40
3.0
 40
3.0
 40
3.0
 40
4.0
 40
4.0
 40
4.0
 40
4.0
 10
123.8119086061998
 20
-145.1237860422781
 30
0.0
 10
123.8119086061998
 20
-145.3733832101844
 30
0.0
 10
124.0954399646359
 20
-145.4198919992353
 30
0.0
 10
124.4402940227094
 20
-145.4198919992353
 30
0.0
 10
124.759654374192
 20
-145.4198919992353
 30
0.0
 10
125.0683349296704
 20
-145.3838907514144
 30
0.0
 10
125.0683349296704
 20
-145.1237860422781
 30
0.0
 10
125.0683349296704
 20
-144.8762559316629
 30
0.0
 10
124.787215138074
 20
-144.8275078305466
 30
0.0
 10
124.4402940227094
 20
-144.8275078305466
 30
0.0
 10
124.1205891616782
 20
-144.8275078305466
 30
0.0
 10
123.8119086061998
 20
-144.8655761356586
 30
0.0
 10
123.8119086061998
 20
-145.1237860422781
 30
0.0
  0
HATCH
  5
5F
330
57
100
AcDbEntity
  8
_U+30EC_U+30A4_U+30E4_U+30FC 1
 62
   179
420
  2234388
100
AcDbHatch
 10
0.0
 20
0.0
 30
0.0
210
0.0
220
0.0
230
1.0
  2
SOLID
 70
     1
 71
     0
 91
        2
 92
        1
 93
        1
 72
     4
 94
        3
 73
     0
 74
     1
 95
       29
 96
       25
 40
0.0
 40
0.0
 40
0.0
 40
0.0
 40
1.0
 40
1.0
 40
1.0
 40
2.0
 40
2.0
 40
2.0
 40
3.0
 40
3.0
 40
3.0
 40
4.0
 40
4.0
 40
4.0
 40
5.0
 40
5.0
 40
5.0
 40
6.0
 40
6.0
 40
6.0
 40
7.0
 40
7.0
 40
7.0
 40
8.0
 40
8.0
 40
8.0
 40
8.0
 10
125.034572993915
 20
-144.726049768506
 10
125.2440347994182
 20
-144.8338812571943
 10
125.262982824587
 20
-145.0073418148766
 10
125.262982824587
 20
-145.1237860422781
 10
125.262982824587
 20
-145.284499746665
 10
125.2164740355362
 20
-145.426265425883
 10
125.034572993915
 20
-145.5215223160502
 10
124.8399250989984
 20
-145.6250474353819
 10
124.6029025296132
 20
-145.6441677153251
 10
124.4402940227094
 20
-145.6441677153251
 10
124.2962890314259
 20
-145.6441677153251
 10
124.0444525514542
 20
-145.6272867474474
 10
123.8456705419553
 20
-145.5215223160502
 10
123.642754417874
 20
-145.4135185725876
 10
123.6193277685743
 20
-145.2528048682007
 10
123.6193277685743
 20
-145.1237860422781
 10
123.6193277685743
 20
-144.9651393951823
 10
123.6637695003341
 20
-144.8213066586732
 10
123.8456705419553
 20
-144.726049768506
 10
124.0382513795807
 20
-144.6266587637565
 10
124.2666612102528
 20
-144.6034043692311
 10
124.4402940227094
 20
-144.6034043692311
 10
124.6115152683263
 20
-144.6034043692311
 10
124.8419921562895
 20
-144.6244194516911
 10
125.034572993915
 20
-144.726049768506
 97
        0
 97
        0
 92
        1
 93
        1
 72
     4
 94
        3
 73
     0
 74
     1
 95
       17
 96
       13
 40
0.0
 40
0.0
 40
0.0
 40
0.0
 40
1.0
 40
1.0
 40
1.0
 40
2.0
 40
2.0
 40
2.0
 40
3.0
 40
3.0
 40
3.0
 40
4.0
 40
4.0
 40
4.0
 40
4.0
 10
123.8119086061998
 20
-145.1237860422781
 10
123.8119086061998
 20
-145.3733832101844
 10
124.0954399646359
 20
-145.4198919992353
 10
124.4402940227094
 20
-145.4198919992353
 10
124.759654374192
 20
-145.4198919992353
 10
125.0683349296704
 20
-145.3838907514144
 10
125.0683349296704
 20
-145.1237860422781
 10
125.0683349296704
 20
-144.8762559316629
 10
124.787215138074
 20
-144.8275078305466
 10
124.4402940227094
 20
-144.8275078305466
 10
124.1205891616782
 20
-144.8275078305466
 10
123.8119086061998
 20
-144.8655761356586
 10
123.8119086061998
 20
-145.1237860422781
 97
        0
 97
        0
 75
     2
 76
     1
 98
        0
  0
ENDBLK
  5
5A
330
57
100
AcDbEntity
  8
0
100
AcDbBlockEnd
  0
BLOCK
  5
6E
330
6C
100
AcDbEntity
  8
0
100
AcDbBlockBegin
  2
block 3
 70
     0
 10
0.0
 20
0.0
 30
0.0
  3
block 3
  1

  0
SPLINE
  5
70
330
6C
100
AcDbEntity
  8
_U+30EC_U+30A4_U+30E4_U+30FC 1
370
     0
100
AcDbSpline
210
0.0
220
0.0
230
1.0
 70
    11
 71
     3
 72
    26
 73
    22
 74
     0
 42
0.0000000001
 43
0.0000000001
 12
1.0
 22
0.0
 32
0.0
 13
1.0
 23
0.0
 33
0.0
 40
0.0
 40
0.0
 40
0.0
 40
0.0
 40
1.0
 40
1.0
 40
1.0
 40
2.0
 40
2.0
 40
2.0
 40
3.0
 40
3.0
 40
3.0
 40
4.0
 40
4.0
 40
4.0
 40
5.0
 40
5.0
 40
5.0
 40
6.0
 40
6.0
 40
6.0
 40
7.0
 40
7.0
 40
7.0
 40
7.0
 10
84.71283092500235
 20
-150.2729980093067
 30
0.0
 10
84.71283092500235
 20
-150.2729980093067
 30
0.0
 10
83.60867782197978
 20
-150.2729980093067
 30
0.0
 10
83.60867782197978
 20
-150.2729980093067
 30
0.0
 10
83.60867782197978
 20
-150.2729980093067
 30
0.0
 10
83.60867782197978
 20
-150.6030381567937
 30
0.0
 10
83.60867782197978
 20
-150.6030381567937
 30
0.0
 10
83.60867782197978
 20
-150.6030381567937
 30
0.0
 10
83.46053871611403
 20
-150.6030381567937
 30
0.0
 10
83.46053871611403
 20
-150.6030381567937
 30
0.0
 10
83.44572480552746
 20
-150.2709309520156
 30
0.0
 10
83.28277178907514
 20
-150.2244221629647
 30
0.0
 10
83.16839461896485
 20
-150.1947943417916
 30
0.0
 10
83.16839461896485
 20
-150.1947943417916
 30
0.0
 10
83.16839461896485
 20
-150.048722293217
 30
0.0
 10
83.16839461896485
 20
-150.048722293217
 30
0.0
 10
83.16839461896485
 20
-150.048722293217
 30
0.0
 10
84.71283092500235
 20
-150.048722293217
 30
0.0
 10
84.71283092500235
 20
-150.048722293217
 30
0.0
 10
84.71283092500235
 20
-150.048722293217
 30
0.0
 10
84.71283092500235
 20
-150.2729980093067
 30
0.0
 10
84.71283092500235
 20
-150.2729980093067
 30
0.0
  0
HATCH
  5
71
330
6C
100
AcDbEntity
  8
_U+30EC_U+30A4_U+30E4_U+30FC 1
 62
   179
420
  2234388
100
AcDbHatch
 10
0.0
 20
0.0
 30
0.0
210
0.0
220
0.0
230
1.0
  2
SOLID
 70
     1
 71
     0
 91
        1
 92
        1
 93
        1
 72
     4
 94
        3
 73
     0
 74
     1
 95
       26
 96
       22
 40
0.0
 40
0.0
 40
0.0
 40
0.0
 40
1.0
 40
1.0
 40
1.0
 40
2.0
 40
2.0
 40
2.0
 40
3.0
 40
3.0
 40
3.0
 40
4.0
 40
4.0
 40
4.0
 40
5.0
 40
5.0
 40
5.0
 40
6.0
 40
6.0
 40
6.0
 40
7.0
 40
7.0
 40
7.0
 40
7.0
 10
84.71283092500235
 20
-150.2729980093067
 10
84.71283092500235
 20
-150.2729980093067
 10
83.60867782197978
 20
-150.2729980093067
 10
83.60867782197978
 20
-150.2729980093067
 10
83.60867782197978
 20
-150.2729980093067
 10
83.60867782197978
 20
-150.6030381567937
 10
83.60867782197978
 20
-150.6030381567937
 10
83.60867782197978
 20
-150.6030381567937
 10
83.46053871611403
 20
-150.6030381567937
 10
83.46053871611403
 20
-150.6030381567937
 10
83.44572480552746
 20
-150.2709309520156
 10
83.28277178907514
 20
-150.2244221629647
 10
83.16839461896485
 20
-150.1947943417916
 10
83.16839461896485
 20
-150.1947943417916
 10
83.16839461896485
 20
-150.048722293217
 10
83.16839461896485
 20
-150.048722293217
 10
83.16839461896485
 20
-150.048722293217
 10
84.71283092500235
 20
-150.048722293217
 10
84.71283092500235
 20
-150.048722293217
 10
84.71283092500235
 20
-150.048722293217
 10
84.71283092500235
 20
-150.2729980093067
 10
84.71283092500235
 20
-150.2729980093067
 97
        0
 97
        0
 75
     2
 76
     1
 98
        0
  0
SPLINE
  5
72
330
6C
100
AcDbEntity
  8
_U+30EC_U+30A4_U+30E4_U+30FC 1
370
     0
100
AcDbSpline
210
0.0
220
0.0
230
1.0
 70
    11
 71
     3
 72
    29
 73
    25
 74
     0
 42
0.0000000001
 43
0.0000000001
 12
1.0
 22
0.0
 32
0.0
 13
1.0
 23
0.0
 33
0.0
 40
0.0
 40
0.0
 40
0.0
 40
0.0
 40
1.0
 40
1.0
 40
1.0
 40
2.0
 40
2.0
 40
2.0
 40
3.0
 40
3.0
 40
3.0
 40
4.0
 40
4.0
 40
4.0
 40
5.0
 40
5.0
 40
5.0
 40
6.0
 40
6.0
 40
6.0
 40
7.0
 40
7.0
 40
7.0
 40
8.0
 40
8.0
 40
8.0
 40
8.0
 10
84.76347382863553
 20
-149.0475775452034
 30
0.0
 10
84.76347382863553
 20
-149.3138834262132
 30
0.0
 10
84.62601451877406
 20
-149.5681314730246
 30
0.0
 10
84.27702634611825
 20
-149.5681314730246
 30
0.0
 10
84.02105575156419
 20
-149.5681314730246
 30
0.0
 10
83.92597111617128
 20
-149.4261935390323
 30
0.0
 10
83.86464841653384
 20
-149.3204291076352
 30
0.0
 10
83.80539277418754
 20
-149.4454860737497
 30
0.0
 10
83.69101560407725
 20
-149.5212781744252
 30
0.0
 10
83.53012964491609
 20
-149.5212781744252
 30
0.0
 10
83.25521102519315
 20
-149.5212781744252
 30
0.0
 10
83.11981877262282
 20
-149.3224961649263
 30
0.0
 10
83.11981877262282
 20
-149.0475775452034
 30
0.0
 10
83.11981877262282
 20
-148.7640461867673
 30
0.0
 10
83.26382376390627
 20
-148.5737046612073
 30
0.0
 10
83.53012964491609
 20
-148.5737046612073
 30
0.0
 10
83.69101560407725
 20
-148.5737046612073
 30
0.0
 10
83.80539277418754
 20
-148.6519083287224
 30
0.0
 10
83.86464841653384
 20
-148.7767930400628
 30
0.0
 10
83.91529132016701
 20
-148.6879095765433
 30
0.0
 10
84.01037595555991
 20
-148.5292629294476
 30
0.0
 10
84.27289223153595
 20
-148.5292629294476
 30
0.0
 10
84.64737411078261
 20
-148.5292629294476
 30
0.0
 10
84.76347382863553
 20
-148.808487918527
 30
0.0
 10
84.76347382863553
 20
-149.0475775452034
 30
0.0
  0
SPLINE
  5
73
330
6C
100
AcDbEntity
  8
_U+30EC_U+30A4_U+30E4_U+30FC 1
370
     0
100
AcDbSpline
210
0.0
220
0.0
230
1.0
 70
    11
 71
     3
 72
    17
 73
    13
 74
     0
 42
0.0000000001
 43
0.0000000001
 12
1.0
 22
0.0
 32
0.0
 13
1.0
 23
0.0
 33
0.0
 40
0.0
 40
0.0
 40
0.0
 40
0.0
 40
1.0
 40
1.0
 40
1.0
 40
2.0
 40
2.0
 40
2.0
 40
3.0
 40
3.0
 40
3.0
 40
4.0
 40
4.0
 40
4.0
 40
4.0
 10
83.31239961024829
 20
-149.0475775452034
 30
0.0
 10
83.31239961024829
 20
-149.2125976189469
 30
0.0
 10
83.40748424564119
 20
-149.297346967884
 30
0.0
 10
83.54287649821151
 20
-149.297346967884
 30
0.0
 10
83.6655218974864
 20
-149.297346967884
 30
0.0
 10
83.784033182179
 20
-149.2249999626937
 30
0.0
 10
83.784033182179
 20
-149.0475775452034
 30
0.0
 10
83.784033182179
 20
-148.8698106181645
 30
0.0
 10
83.6655218974864
 20
-148.7979803772971
 30
0.0
 10
83.54287649821151
 20
-148.7979803772971
 30
0.0
 10
83.40748424564119
 20
-148.7979803772971
 30
0.0
 10
83.31239961024829
 20
-148.8846245287511
 30
0.0
 10
83.31239961024829
 20
-149.0475775452034
 30
0.0
  0
SPLINE
  5
74
330
6C
100
AcDbEntity
  8
_U+30EC_U+30A4_U+30E4_U+30FC 1
370
     0
100
AcDbSpline
210
0.0
220
0.0
230
1.0
 70
    11
 71
     3
 72
    17
 73
    13
 74
     0
 42
0.0000000001
 43
0.0000000001
 12
1.0
 22
0.0
 32
0.0
 13
1.0
 23
0.0
 33
0.0
 40
0.0
 40
0.0
 40
0.0
 40
0.0
 40
1.0
 40
1.0
 40
1.0
 40
2.0
 40
2.0
 40
2.0
 40
3.0
 40
3.0
 40
3.0
 40
4.0
 40
4.0
 40
4.0
 40
4.0
 10
83.97247990522216
 20
-149.0475775452034
 30
0.0
 10
83.97247990522216
 20
-149.1912380269383
 30
0.0
 10
84.05929631145045
 20
-149.3435112473863
 30
0.0
 10
84.26221243553168
 20
-149.3435112473863
 30
0.0
 10
84.46754012645256
 20
-149.3435112473863
 30
0.0
 10
84.56882593371891
 20
-149.2167317335291
 30
0.0
 10
84.56882593371891
 20
-149.0475775452034
 30
0.0
 10
84.56882593371891
 20
-148.8613701342256
 30
0.0
 10
84.44618053444401
 20
-148.7512993334719
 30
0.0
 10
84.26841360740512
 20
-148.7512993334719
 30
0.0
 10
84.04654945815503
 20
-148.7512993334719
 30
0.0
 10
83.97247990522216
 20
-148.9142523499242
 30
0.0
 10
83.97247990522216
 20
-149.0475775452034
 30
0.0
  0
HATCH
  5
75
330
6C
100
AcDbEntity
  8
_U+30EC_U+30A4_U+30E4_U+30FC 1
 62
   179
420
  2234388
100
AcDbHatch
 10
0.0
 20
0.0
 30
0.0
210
0.0
220
0.0
230
1.0
  2
SOLID
 70
     1
 71
     0
 91
        3
 92
        1
 93
        1
 72
     4
 94
        3
 73
     0
 74
     1
 95
       29
 96
       25
 40
0.0
 40
0.0
 40
0.0
 40
0.0
 40
1.0
 40
1.0
 40
1.0
 40
2.0
 40
2.0
 40
2.0
 40
3.0
 40
3.0
 40
3.0
 40
4.0
 40
4.0
 40
4.0
 40
5.0
 40
5.0
 40
5.0
 40
6.0
 40
6.0
 40
6.0
 40
7.0
 40
7.0
 40
7.0
 40
8.0
 40
8.0
 40
8.0
 40
8.0
 10
84.76347382863553
 20
-149.0475775452034
 10
84.76347382863553
 20
-149.3138834262132
 10
84.62601451877406
 20
-149.5681314730246
 10
84.27702634611825
 20
-149.5681314730246
 10
84.02105575156419
 20
-149.5681314730246
 10
83.92597111617128
 20
-149.4261935390323
 10
83.86464841653384
 20
-149.3204291076352
 10
83.80539277418754
 20
-149.4454860737497
 10
83.69101560407725
 20
-149.5212781744252
 10
83.53012964491609
 20
-149.5212781744252
 10
83.25521102519315
 20
-149.5212781744252
 10
83.11981877262282
 20
-149.3224961649263
 10
83.11981877262282
 20
-149.0475775452034
 10
83.11981877262282
 20
-148.7640461867673
 10
83.26382376390627
 20
-148.5737046612073
 10
83.53012964491609
 20
-148.5737046612073
 10
83.69101560407725
 20
-148.5737046612073
 10
83.80539277418754
 20
-148.6519083287224
 10
83.86464841653384
 20
-148.7767930400628
 10
83.91529132016701
 20
-148.6879095765433
 10
84.01037595555991
 20
-148.5292629294476
 10
84.27289223153595
 20
-148.5292629294476
 10
84.64737411078261
 20
-148.5292629294476
 10
84.76347382863553
 20
-148.808487918527
 10
84.76347382863553
 20
-149.0475775452034
 97
        0
 97
        0
 92
        1
 93
        1
 72
     4
 94
        3
 73
     0
 74
     1
 95
       17
 96
       13
 40
0.0
 40
0.0
 40
0.0
 40
0.0
 40
1.0
 40
1.0
 40
1.0
 40
2.0
 40
2.0
 40
2.0
 40
3.0
 40
3.0
 40
3.0
 40
4.0
 40
4.0
 40
4.0
 40
4.0
 10
83.31239961024829
 20
-149.0475775452034
 10
83.31239961024829
 20
-149.2125976189469
 10
83.40748424564119
 20
-149.297346967884
 10
83.54287649821151
 20
-149.297346967884
 10
83.6655218974864
 20
-149.297346967884
 10
83.784033182179
 20
-149.2249999626937
 10
83.784033182179
 20
-149.0475775452034
 10
83.784033182179
 20
-148.8698106181645
 10
83.6655218974864
 20
-148.7979803772971
 10
83.54287649821151
 20
-148.7979803772971
 10
83.40748424564119
 20
-148.7979803772971
 10
83.31239961024829
 20
-148.8846245287511
 10
83.31239961024829
 20
-149.0475775452034
 97
        0
 97
        0
 92
        1
 93
        1
 72
     4
 94
        3
 73
     0
 74
     1
 95
       17
 96
       13
 40
0.0
 40
0.0
 40
0.0
 40
0.0
 40
1.0
 40
1.0
 40
1.0
 40
2.0
 40
2.0
 40
2.0
 40
3.0
 40
3.0
 40
3.0
 40
4.0
 40
4.0
 40
4.0
 40
4.0
 10
83.97247990522216
 20
-149.0475775452034
 10
83.97247990522216
 20
-149.1912380269383
 10
84.05929631145045
 20
-149.3435112473863
 10
84.26221243553168
 20
-149.3435112473863
 10
84.46754012645256
 20
-149.3435112473863
 10
84.56882593371891
 20
-149.2167317335291
 10
84.56882593371891
 20
-149.0475775452034
 10
84.56882593371891
 20
-148.8613701342256
 10
84.44618053444401
 20
-148.7512993334719
 10
84.26841360740512
 20
-148.7512993334719
 10
84.04654945815503
 20
-148.7512993334719
 10
83.97247990522216
 20
-148.9142523499242
 10
83.97247990522216
 20
-149.0475775452034
 97
        0
 97
        0
 75
     2
 76
     1
 98
        0
  0
ENDBLK
  5
6F
330
6C
100
AcDbEntity
  8
0
100
AcDbBlockEnd
  0
BLOCK
  5
88
330
86
100
AcDbEntity
  8
0
100
AcDbBlockBegin
  2
block 4
 70
     0
 10
0.0
 20
0.0
 30
0.0
  3
block 4
  1

  0
SPLINE
  5
8A
330
86
100
AcDbEntity
  8
_U+30EC_U+30A4_U+30E4_U+30FC 1
370
     0
100
AcDbSpline
210
0.0
220
0.0
230
1.0
 70
    11
 71
     3
 72
    44
 73
    40
 74
     0
 42
0.0000000001
 43
0.0000000001
 12
1.0
 22
0.0
 32
0.0
 13
1.0
 23
0.0
 33
0.0
 40
0.0
 40
0.0
 40
0.0
 40
0.0
 40
1.0
 40
1.0
 40
1.0
 40
2.0
 40
2.0
 40
2.0
 40
3.0
 40
3.0
 40
3.0
 40
4.0
 40
4.0
 40
4.0
 40
5.0
 40
5.0
 40
5.0
 40
6.0
 40
6.0
 40
6.0
 40
7.0
 40
7.0
 40
7.0
 40
8.0
 40
8.0
 40
8.0
 40
9.0
 40
9.0
 40
9.0
 40
10.0
 40
10.0
 40
10.0
 40
11.0
 40
11.0
 40
11.0
 40
12.0
 40
12.0
 40
12.0
 40
13.0
 40
13.0
 40
13.0
 40
13.0
 10
86.17871905397615
 20
-137.966255662123
 30
0.0
 10
86.15529240467646
 20
-137.9218139303633
 30
0.0
 10
86.13427732221643
 20
-137.869103969439
 30
0.0
 10
86.13203801015102
 20
-137.6382825719272
 30
0.0
 10
86.12790389556872
 20
-137.3950588306686
 30
0.0
 10
86.06864825322242
 20
-137.325123392318
 30
0.0
 10
85.89088132618353
 20
-137.325123392318
 30
0.0
 10
85.89088132618353
 20
-137.325123392318
 30
0.0
 10
85.48263751118142
 20
-137.325123392318
 30
0.0
 10
85.48263751118142
 20
-137.325123392318
 30
0.0
 10
85.48263751118142
 20
-137.325123392318
 30
0.0
 10
85.48263751118142
 20
-137.966255662123
 30
0.0
 10
85.48263751118142
 20
-137.966255662123
 30
0.0
 10
85.48263751118142
 20
-137.966255662123
 30
0.0
 10
85.24785425386165
 20
-137.966255662123
 30
0.0
 10
85.24785425386165
 20
-137.966255662123
 30
0.0
 10
85.24785425386165
 20
-137.966255662123
 30
0.0
 10
85.24785425386165
 20
-136.4218193560855
 30
0.0
 10
85.24785425386165
 20
-136.4218193560855
 30
0.0
 10
85.24785425386165
 20
-136.4218193560855
 30
0.0
 10
85.9227484594221
 20
-136.4218193560855
 30
0.0
 10
85.9227484594221
 20
-136.4218193560855
 30
0.0
 10
86.22936195760933
 20
-136.4218193560855
 30
0.0
 10
86.39644908864395
 20
-136.593385111251
 30
0.0
 10
86.39644908864395
 20
-136.849355705805
 30
0.0
 10
86.39644908864395
 20
-136.8999986094382
 30
0.0
 10
86.38800860470508
 20
-136.9826809010842
 30
0.0
 10
86.34356687294536
 20
-137.0629516258905
 30
0.0
 10
86.28448348537333
 20
-137.1666489999965
 30
0.0
 10
86.21885441637932
 20
-137.1855970251654
 30
0.0
 10
86.15753171674187
 20
-137.2024779930431
 30
0.0
 10
86.29499102660334
 20
-137.2448526675117
 30
0.0
 10
86.3626871528885
 20
-137.2934285138537
 30
0.0
 10
86.36699352224507
 20
-137.6086547507541
 30
0.0
 10
86.37112763682737
 20
-137.8794392558947
 30
0.0
 10
86.40712888464822
 20
-137.911134134359
 30
0.0
 10
86.47482501093339
 20
-137.966255662123
 30
0.0
 10
86.47482501093339
 20
-137.966255662123
 30
0.0
 10
86.17871905397615
 20
-137.966255662123
 30
0.0
 10
86.17871905397615
 20
-137.966255662123
 30
0.0
  0
SPLINE
  5
8B
330
86
100
AcDbEntity
  8
_U+30EC_U+30A4_U+30E4_U+30FC 1
370
     0
100
AcDbSpline
210
0.0
220
0.0
230
1.0
 70
    11
 71
     3
 72
    20
 73
    16
 74
     0
 42
0.0000000001
 43
0.0000000001
 12
1.0
 22
0.0
 32
0.0
 13
1.0
 23
0.0
 33
0.0
 40
0.0
 40
0.0
 40
0.0
 40
0.0
 40
1.0
 40
1.0
 40
1.0
 40
2.0
 40
2.0
 40
2.0
 40
3.0
 40
3.0
 40
3.0
 40
4.0
 40
4.0
 40
4.0
 40
5.0
 40
5.0
 40
5.0
 40
5.0
 10
85.9268825740044
 20
-136.6333482188799
 30
0.0
 10
85.9268825740044
 20
-136.6333482188799
 30
0.0
 10
85.48263751118142
 20
-136.6333482188799
 30
0.0
 10
85.48263751118142
 20
-136.6333482188799
 30
0.0
 10
85.48263751118142
 20
-136.6333482188799
 30
0.0
 10
85.48263751118142
 20
-137.1135945295237
 30
0.0
 10
85.48263751118142
 20
-137.1135945295237
 30
0.0
 10
85.48263751118142
 20
-137.1135945295237
 30
0.0
 10
85.92481551671324
 20
-137.1135945295237
 30
0.0
 10
85.92481551671324
 20
-137.1135945295237
 30
0.0
 10
86.0242065214627
 20
-137.1135945295237
 30
0.0
 10
86.15959877403301
 20
-137.0374579192997
 30
0.0
 10
86.15959877403301
 20
-136.8662366736827
 30
0.0
 10
86.15959877403301
 20
-136.7880330061676
 30
0.0
 10
86.12566458350331
 20
-136.6333482188799
 30
0.0
 10
85.9268825740044
 20
-136.6333482188799
 30
0.0
  0
HATCH
  5
8C
330
86
100
AcDbEntity
  8
_U+30EC_U+30A4_U+30E4_U+30FC 1
 62
   179
420
  2234388
100
AcDbHatch
 10
0.0
 20
0.0
 30
0.0
210
0.0
220
0.0
230
1.0
  2
SOLID
 70
     1
 71
     0
 91
        2
 92
        1
 93
        1
 72
     4
 94
        3
 73
     0
 74
     1
 95
       44
 96
       40
 40
0.0
 40
0.0
 40
0.0
 40
0.0
 40
1.0
 40
1.0
 40
1.0
 40
2.0
 40
2.0
 40
2.0
 40
3.0
 40
3.0
 40
3.0
 40
4.0
 40
4.0
 40
4.0
 40
5.0
 40
5.0
 40
5.0
 40
6.0
 40
6.0
 40
6.0
 40
7.0
 40
7.0
 40
7.0
 40
8.0
 40
8.0
 40
8.0
 40
9.0
 40
9.0
 40
9.0
 40
10.0
 40
10.0
 40
10.0
 40
11.0
 40
11.0
 40
11.0
 40
12.0
 40
12.0
 40
12.0
 40
13.0
 40
13.0
 40
13.0
 40
13.0
 10
86.17871905397615
 20
-137.966255662123
 10
86.15529240467646
 20
-137.9218139303633
 10
86.13427732221643
 20
-137.869103969439
 10
86.13203801015102
 20
-137.6382825719272
 10
86.12790389556872
 20
-137.3950588306686
 10
86.06864825322242
 20
-137.325123392318
 10
85.89088132618353
 20
-137.325123392318
 10
85.89088132618353
 20
-137.325123392318
 10
85.48263751118142
 20
-137.325123392318
 10
85.48263751118142
 20
-137.325123392318
 10
85.48263751118142
 20
-137.325123392318
 10
85.48263751118142
 20
-137.966255662123
 10
85.48263751118142
 20
-137.966255662123
 10
85.48263751118142
 20
-137.966255662123
 10
85.24785425386165
 20
-137.966255662123
 10
85.24785425386165
 20
-137.966255662123
 10
85.24785425386165
 20
-137.966255662123
 10
85.24785425386165
 20
-136.4218193560855
 10
85.24785425386165
 20
-136.4218193560855
 10
85.24785425386165
 20
-136.4218193560855
 10
85.9227484594221
 20
-136.4218193560855
 10
85.9227484594221
 20
-136.4218193560855
 10
86.22936195760933
 20
-136.4218193560855
 10
86.39644908864395
 20
-136.593385111251
 10
86.39644908864395
 20
-136.849355705805
 10
86.39644908864395
 20
-136.8999986094382
 10
86.38800860470508
 20
-136.9826809010842
 10
86.34356687294536
 20
-137.0629516258905
 10
86.28448348537333
 20
-137.1666489999965
 10
86.21885441637932
 20
-137.1855970251654
 10
86.15753171674187
 20
-137.2024779930431
 10
86.29499102660334
 20
-137.2448526675117
 10
86.3626871528885
 20
-137.2934285138537
 10
86.36699352224507
 20
-137.6086547507541
 10
86.37112763682737
 20
-137.8794392558947
 10
86.40712888464822
 20
-137.911134134359
 10
86.47482501093339
 20
-137.966255662123
 10
86.47482501093339
 20
-137.966255662123
 10
86.17871905397615
 20
-137.966255662123
 10
86.17871905397615
 20
-137.966255662123
 97
        0
 97
        0
 92
        1
 93
        1
 72
     4
 94
        3
 73
     0
 74
     1
 95
       20
 96
       16
 40
0.0
 40
0.0
 40
0.0
 40
0.0
 40
1.0
 40
1.0
 40
1.0
 40
2.0
 40
2.0
 40
2.0
 40
3.0
 40
3.0
 40
3.0
 40
4.0
 40
4.0
 40
4.0
 40
5.0
 40
5.0
 40
5.0
 40
5.0
 10
85.9268825740044
 20
-136.6333482188799
 10
85.9268825740044
 20
-136.6333482188799
 10
85.48263751118142
 20
-136.6333482188799
 10
85.48263751118142
 20
-136.6333482188799
 10
85.48263751118142
 20
-136.6333482188799
 10
85.48263751118142
 20
-137.1135945295237
 10
85.48263751118142
 20
-137.1135945295237
 10
85.48263751118142
 20
-137.1135945295237
 10
85.92481551671324
 20
-137.1135945295237
 10
85.92481551671324
 20
-137.1135945295237
 10
86.0242065214627
 20
-137.1135945295237
 10
86.15959877403301
 20
-137.0374579192997
 10
86.15959877403301
 20
-136.8662366736827
 10
86.15959877403301
 20
-136.7880330061676
 10
86.12566458350331
 20
-136.6333482188799
 10
85.9268825740044
 20
-136.6333482188799
 97
        0
 97
        0
 75
     2
 76
     1
 98
        0
  0
SPLINE
  5
8D
330
86
100
AcDbEntity
  8
_U+30EC_U+30A4_U+30E4_U+30FC 1
370
     0
100
AcDbSpline
210
0.0
220
0.0
230
1.0
 70
    11
 71
     3
 72
    26
 73
    22
 74
     0
 42
0.0000000001
 43
0.0000000001
 12
1.0
 22
0.0
 32
0.0
 13
1.0
 23
0.0
 33
0.0
 40
0.0
 40
0.0
 40
0.0
 40
0.0
 40
1.0
 40
1.0
 40
1.0
 40
2.0
 40
2.0
 40
2.0
 40
3.0
 40
3.0
 40
3.0
 40
4.0
 40
4.0
 40
4.0
 40
5.0
 40
5.0
 40
5.0
 40
6.0
 40
6.0
 40
6.0
 40
7.0
 40
7.0
 40
7.0
 40
7.0
 10
87.06583114142799
 20
-137.966255662123
 30
0.0
 10
87.06583114142799
 20
-137.966255662123
 30
0.0
 10
87.06583114142799
 20
-136.8621025591005
 30
0.0
 10
87.06583114142799
 20
-136.8621025591005
 30
0.0
 10
87.06583114142799
 20
-136.8621025591005
 30
0.0
 10
86.73579099394105
 20
-136.8621025591005
 30
0.0
 10
86.73579099394105
 20
-136.8621025591005
 30
0.0
 10
86.73579099394105
 20
-136.8621025591005
 30
0.0
 10
86.73579099394105
 20
-136.7139634532347
 30
0.0
 10
86.73579099394105
 20
-136.7139634532347
 30
0.0
 10
87.06789819871913
 20
-136.6991495426481
 30
0.0
 10
87.11440698777001
 20
-136.5361965261958
 30
0.0
 10
87.14403480894316
 20
-136.4218193560855
 30
0.0
 10
87.14403480894316
 20
-136.4218193560855
 30
0.0
 10
87.29010685751776
 20
-136.4218193560855
 30
0.0
 10
87.29010685751776
 20
-136.4218193560855
 30
0.0
 10
87.29010685751776
 20
-136.4218193560855
 30
0.0
 10
87.29010685751776
 20
-137.966255662123
 30
0.0
 10
87.29010685751776
 20
-137.966255662123
 30
0.0
 10
87.29010685751776
 20
-137.966255662123
 30
0.0
 10
87.06583114142799
 20
-137.966255662123
 30
0.0
 10
87.06583114142799
 20
-137.966255662123
 30
0.0
  0
HATCH
  5
8E
330
86
100
AcDbEntity
  8
_U+30EC_U+30A4_U+30E4_U+30FC 1
 62
   179
420
  2234388
100
AcDbHatch
 10
0.0
 20
0.0
 30
0.0
210
0.0
220
0.0
230
1.0
  2
SOLID
 70
     1
 71
     0
 91
        1
 92
        1
 93
        1
 72
     4
 94
        3
 73
     0
 74
     1
 95
       26
 96
       22
 40
0.0
 40
0.0
 40
0.0
 40
0.0
 40
1.0
 40
1.0
 40
1.0
 40
2.0
 40
2.0
 40
2.0
 40
3.0
 40
3.0
 40
3.0
 40
4.0
 40
4.0
 40
4.0
 40
5.0
 40
5.0
 40
5.0
 40
6.0
 40
6.0
 40
6.0
 40
7.0
 40
7.0
 40
7.0
 40
7.0
 10
87.06583114142799
 20
-137.966255662123
 10
87.06583114142799
 20
-137.966255662123
 10
87.06583114142799
 20
-136.8621025591005
 10
87.06583114142799
 20
-136.8621025591005
 10
87.06583114142799
 20
-136.8621025591005
 10
86.73579099394105
 20
-136.8621025591005
 10
86.73579099394105
 20
-136.8621025591005
 10
86.73579099394105
 20
-136.8621025591005
 10
86.73579099394105
 20
-136.7139634532347
 10
86.73579099394105
 20
-136.7139634532347
 10
87.06789819871913
 20
-136.6991495426481
 10
87.11440698777001
 20
-136.5361965261958
 10
87.14403480894316
 20
-136.4218193560855
 10
87.14403480894316
 20
-136.4218193560855
 10
87.29010685751776
 20
-136.4218193560855
 10
87.29010685751776
 20
-136.4218193560855
 10
87.29010685751776
 20
-136.4218193560855
 10
87.29010685751776
 20
-137.966255662123
 10
87.29010685751776
 20
-137.966255662123
 10
87.29010685751776
 20
-137.966255662123
 10
87.06583114142799
 20
-137.966255662123
 10
87.06583114142799
 20
-137.966255662123
 97
        0
 97
        0
 75
     2
 76
     1
 98
        0
  0
SPLINE
  5
8F
330
86
100
AcDbEntity
  8
_U+30EC_U+30A4_U+30E4_U+30FC 1
370
     0
100
AcDbSpline
210
0.0
220
0.0
230
1.0
 70
    11
 71
     3
 72
    53
 73
    49
 74
     0
 42
0.0000000001
 43
0.0000000001
 12
1.0
 22
0.0
 32
0.0
 13
1.0
 23
0.0
 33
0.0
 40
0.0
 40
0.0
 40
0.0
 40
0.0
 40
1.0
 40
1.0
 40
1.0
 40
2.0
 40
2.0
 40
2.0
 40
3.0
 40
3.0
 40
3.0
 40
4.0
 40
4.0
 40
4.0
 40
5.0
 40
5.0
 40
5.0
 40
6.0
 40
6.0
 40
6.0
 40
7.0
 40
7.0
 40
7.0
 40
8.0
 40
8.0
 40
8.0
 40
9.0
 40
9.0
 40
9.0
 40
10.0
 40
10.0
 40
10.0
 40
11.0
 40
11.0
 40
11.0
 40
12.0
 40
12.0
 40
12.0
 40
13.0
 40
13.0
 40
13.0
 40
14.0
 40
14.0
 40
14.0
 40
15.0
 40
15.0
 40
15.0
 40
16.0
 40
16.0
 40
16.0
 40
16.0
 10
88.27230358036249
 20
-138.0168985657562
 30
0.0
 10
88.19392765807305
 20
-138.0168985657562
 30
0.0
 10
88.09246959603244
 20
-138.0000175978785
 30
0.0
 10
87.99083927921757
 20
-137.9366278409499
 30
0.0
 10
87.81737872153525
 20
-137.8267292949704
 30
0.0
 10
87.79619138430095
 20
-137.6954711569824
 30
0.0
 10
87.77724335913209
 20
-137.5876396682941
 30
0.0
 10
87.77724335913209
 20
-137.5876396682941
 30
0.0
 10
87.99927976315644
 20
-137.5876396682941
 30
0.0
 10
87.99927976315644
 20
-137.5876396682941
 30
0.0
 10
88.05440129092044
 20
-137.786421677793
 30
0.0
 10
88.18135305955188
 20
-137.8160494989661
 30
0.0
 10
88.27437063765363
 20
-137.8160494989661
 30
0.0
 10
88.41389700480626
 20
-137.8160494989661
 30
0.0
 10
88.56634248002855
 20
-137.7164862394424
 30
0.0
 10
88.56634248002855
 20
-137.483942294188
 30
0.0
 10
88.56634248002855
 20
-137.227971699634
 30
0.0
 10
88.38650849569852
 20
-137.1580362612834
 30
0.0
 10
88.26593015371478
 20
-137.1580362612834
 30
0.0
 10
88.23423527525047
 20
-137.1580362612834
 30
0.0
 10
88.09246959603244
 20
-137.1580362612834
 30
0.0
 10
88.00358613251299
 20
-137.2872273419803
 30
0.0
 10
88.00358613251299
 20
-137.2872273419803
 30
0.0
 10
87.82805851753952
 20
-137.2682793168114
 30
0.0
 10
87.82805851753952
 20
-137.2682793168114
 30
0.0
 10
87.82805851753952
 20
-137.2682793168114
 30
0.0
 10
87.94863685952326
 20
-136.4218193560855
 30
0.0
 10
87.94863685952326
 20
-136.4218193560855
 30
0.0
 10
87.94863685952326
 20
-136.4218193560855
 30
0.0
 10
88.72705618441546
 20
-136.4218193560855
 30
0.0
 10
88.72705618441546
 20
-136.4218193560855
 30
0.0
 10
88.72705618441546
 20
-136.4218193560855
 30
0.0
 10
88.72705618441546
 20
-136.6164672510021
 30
0.0
 10
88.72705618441546
 20
-136.6164672510021
 30
0.0
 10
88.72705618441546
 20
-136.6164672510021
 30
0.0
 10
88.11141762120131
 20
-136.6164672510021
 30
0.0
 10
88.11141762120131
 20
-136.6164672510021
 30
0.0
 10
88.11141762120131
 20
-136.6164672510021
 30
0.0
 10
88.04596080698157
 20
-137.0395249765908
 30
0.0
 10
88.04596080698157
 20
-137.0395249765908
 30
0.0
 10
88.10728350661901
 20
-137.0057630408354
 30
0.0
 10
88.18979354349075
 20
-136.9654554236579
 30
0.0
 10
88.30813257340908
 20
-136.9654554236579
 30
0.0
 10
88.562036110672
 20
-136.9654554236579
 30
0.0
 10
88.79905868005719
 20
-137.15183508941
 30
0.0
 10
88.79905868005719
 20
-137.4649942690192
 30
0.0
 10
88.79905868005719
 20
-137.7822875632107
 30
0.0
 10
88.57478296396742
 20
-138.0168985657562
 30
0.0
 10
88.27230358036249
 20
-138.0168985657562
 30
0.0
  0
HATCH
  5
90
330
86
100
AcDbEntity
  8
_U+30EC_U+30A4_U+30E4_U+30FC 1
 62
   179
420
  2234388
100
AcDbHatch
 10
0.0
 20
0.0
 30
0.0
210
0.0
220
0.0
230
1.0
  2
SOLID
 70
     1
 71
     0
 91
        1
 92
        1
 93
        1
 72
     4
 94
        3
 73
     0
 74
     1
 95
       53
 96
       49
 40
0.0
 40
0.0
 40
0.0
 40
0.0
 40
1.0
 40
1.0
 40
1.0
 40
2.0
 40
2.0
 40
2.0
 40
3.0
 40
3.0
 40
3.0
 40
4.0
 40
4.0
 40
4.0
 40
5.0
 40
5.0
 40
5.0
 40
6.0
 40
6.0
 40
6.0
 40
7.0
 40
7.0
 40
7.0
 40
8.0
 40
8.0
 40
8.0
 40
9.0
 40
9.0
 40
9.0
 40
10.0
 40
10.0
 40
10.0
 40
11.0
 40
11.0
 40
11.0
 40
12.0
 40
12.0
 40
12.0
 40
13.0
 40
13.0
 40
13.0
 40
14.0
 40
14.0
 40
14.0
 40
15.0
 40
15.0
 40
15.0
 40
16.0
 40
16.0
 40
16.0
 40
16.0
 10
88.27230358036249
 20
-138.0168985657562
 10
88.19392765807305
 20
-138.0168985657562
 10
88.09246959603244
 20
-138.0000175978785
 10
87.99083927921757
 20
-137.9366278409499
 10
87.81737872153525
 20
-137.8267292949704
 10
87.79619138430095
 20
-137.6954711569824
 10
87.77724335913209
 20
-137.5876396682941
 10
87.77724335913209
 20
-137.5876396682941
 10
87.99927976315644
 20
-137.5876396682941
 10
87.99927976315644
 20
-137.5876396682941
 10
88.05440129092044
 20
-137.786421677793
 10
88.18135305955188
 20
-137.8160494989661
 10
88.27437063765363
 20
-137.8160494989661
 10
88.41389700480626
 20
-137.8160494989661
 10
88.56634248002855
 20
-137.7164862394424
 10
88.56634248002855
 20
-137.483942294188
 10
88.56634248002855
 20
-137.227971699634
 10
88.38650849569852
 20
-137.1580362612834
 10
88.26593015371478
 20
-137.1580362612834
 10
88.23423527525047
 20
-137.1580362612834
 10
88.09246959603244
 20
-137.1580362612834
 10
88.00358613251299
 20
-137.2872273419803
 10
88.00358613251299
 20
-137.2872273419803
 10
87.82805851753952
 20
-137.2682793168114
 10
87.82805851753952
 20
-137.2682793168114
 10
87.82805851753952
 20
-137.2682793168114
 10
87.94863685952326
 20
-136.4218193560855
 10
87.94863685952326
 20
-136.4218193560855
 10
87.94863685952326
 20
-136.4218193560855
 10
88.72705618441546
 20
-136.4218193560855
 10
88.72705618441546
 20
-136.4218193560855
 10
88.72705618441546
 20
-136.4218193560855
 10
88.72705618441546
 20
-136.6164672510021
 10
88.72705618441546
 20
-136.6164672510021
 10
88.72705618441546
 20
-136.6164672510021
 10
88.11141762120131
 20
-136.6164672510021
 10
88.11141762120131
 20
-136.6164672510021
 10
88.11141762120131
 20
-136.6164672510021
 10
88.04596080698157
 20
-137.0395249765908
 10
88.04596080698157
 20
-137.0395249765908
 10
88.10728350661901
 20
-137.0057630408354
 10
88.18979354349075
 20
-136.9654554236579
 10
88.30813257340908
 20
-136.9654554236579
 10
88.562036110672
 20
-136.9654554236579
 10
88.79905868005719
 20
-137.15183508941
 10
88.79905868005719
 20
-137.4649942690192
 10
88.79905868005719
 20
-137.7822875632107
 10
88.57478296396742
 20
-138.0168985657562
 10
88.27230358036249
 20
-138.0168985657562
 97
        0
 97
        0
 75
     2
 76
     1
 98
        0
  0
ENDBLK
  5
89
330
86
100
AcDbEntity
  8
0
100
AcDbBlockEnd
  0
BLOCK
  5
9F
330
9D
100
AcDbEntity
  8
0
100
AcDbBlockBegin
  2
block 5
 70
     0
 10
0.0
 20
0.0
 30
0.0
  3
block 5
  1

  0
SPLINE
  5
A1
330
9D
100
AcDbEntity
  8
_U+30EC_U+30A4_U+30E4_U+30FC 1
370
     0
100
AcDbSpline
210
0.0
220
0.0
230
1.0
 70
    11
 71
     3
 72
    44
 73
    40
 74
     0
 42
0.0000000001
 43
0.0000000001
 12
1.0
 22
0.0
 32
0.0
 13
1.0
 23
0.0
 33
0.0
 40
0.0
 40
0.0
 40
0.0
 40
0.0
 40
1.0
 40
1.0
 40
1.0
 40
2.0
 40
2.0
 40
2.0
 40
3.0
 40
3.0
 40
3.0
 40
4.0
 40
4.0
 40
4.0
 40
5.0
 40
5.0
 40
5.0
 40
6.0
 40
6.0
 40
6.0
 40
7.0
 40
7.0
 40
7.0
 40
8.0
 40
8.0
 40
8.0
 40
9.0
 40
9.0
 40
9.0
 40
10.0
 40
10.0
 40
10.0
 40
11.0
 40
11.0
 40
11.0
 40
12.0
 40
12.0
 40
12.0
 40
13.0
 40
13.0
 40
13.0
 40
13.0
 10
110.2947319602735
 20
-160.7522894563397
 30
0.0
 10
110.0770019256058
 20
-160.9111083582097
 30
0.0
 10
109.9836398379555
 20
-160.9851779111426
 30
0.0
 10
109.9350639916135
 20
-161.1288383928775
 30
0.0
 10
109.9350639916135
 20
-161.1288383928775
 30
0.0
 10
110.7136555712799
 20
-161.1288383928775
 30
0.0
 10
110.7136555712799
 20
-161.1288383928775
 30
0.0
 10
110.7136555712799
 20
-161.1288383928775
 30
0.0
 10
110.7136555712799
 20
-161.3341660837984
 30
0.0
 10
110.7136555712799
 20
-161.3341660837984
 30
0.0
 10
110.7136555712799
 20
-161.3341660837984
 30
0.0
 10
109.6856390784814
 20
-161.3341660837984
 30
0.0
 10
109.6856390784814
 20
-161.3341660837984
 30
0.0
 10
109.7173339569457
 20
-160.9765651724295
 30
0.0
 10
109.7827907711654
 20
-160.8983615049143
 30
0.0
 10
110.1679524464164
 20
-160.6000162358917
 30
0.0
 10
110.4235785314219
 20
-160.4012342263927
 30
0.0
 10
110.4890353456416
 20
-160.3333658453333
 30
0.0
 10
110.4890353456416
 20
-160.1959065354719
 30
0.0
 10
110.4890353456416
 20
-160.0773952507793
 30
0.0
 10
110.4173773595484
 20
-159.9464816223398
 30
0.0
 10
110.2206624073407
 20
-159.9464816223398
 30
0.0
 10
109.9605576982043
 20
-159.9464816223398
 30
0.0
 10
109.9519449594912
 20
-160.176958510303
 30
0.0
 10
109.9474663353604
 20
-160.2934027377044
 30
0.0
 10
109.9474663353604
 20
-160.2934027377044
 30
0.0
 10
109.7235351288191
 20
-160.2934027377044
 30
0.0
 10
109.7235351288191
 20
-160.2934027377044
 30
0.0
 10
109.7318033579837
 20
-160.1662787142987
 30
0.0
 10
109.742483153988
 20
-160.0543131110281
 30
0.0
 10
109.8227538787943
 20
-159.9358018263355
 30
0.0
 10
109.9329969343223
 20
-159.7749158671743
 30
0.0
 10
110.1190320905258
 20
-159.7411539314189
 30
0.0
 10
110.2354763179273
 20
-159.7411539314189
 30
0.0
 10
110.5124619949413
 20
-159.7411539314189
 30
0.0
 10
110.7198567431534
 20
-159.9251220303312
 30
0.0
 10
110.7198567431534
 20
-160.197973592763
 30
0.0
 10
110.7198567431534
 20
-160.4267279329836
 30
0.0
 10
110.6034125157519
 20
-160.5259466829588
 30
0.0
 10
110.2947319602735
 20
-160.7522894563397
 30
0.0
  0
HATCH
  5
A2
330
9D
100
AcDbEntity
  8
_U+30EC_U+30A4_U+30E4_U+30FC 1
 62
   179
420
  2234388
100
AcDbHatch
 10
0.0
 20
0.0
 30
0.0
210
0.0
220
0.0
230
1.0
  2
SOLID
 70
     1
 71
     0
 91
        1
 92
        1
 93
        1
 72
     4
 94
        3
 73
     0
 74
     1
 95
       44
 96
       40
 40
0.0
 40
0.0
 40
0.0
 40
0.0
 40
1.0
 40
1.0
 40
1.0
 40
2.0
 40
2.0
 40
2.0
 40
3.0
 40
3.0
 40
3.0
 40
4.0
 40
4.0
 40
4.0
 40
5.0
 40
5.0
 40
5.0
 40
6.0
 40
6.0
 40
6.0
 40
7.0
 40
7.0
 40
7.0
 40
8.0
 40
8.0
 40
8.0
 40
9.0
 40
9.0
 40
9.0
 40
10.0
 40
10.0
 40
10.0
 40
11.0
 40
11.0
 40
11.0
 40
12.0
 40
12.0
 40
12.0
 40
13.0
 40
13.0
 40
13.0
 40
13.0
 10
110.2947319602735
 20
-160.7522894563397
 10
110.0770019256058
 20
-160.9111083582097
 10
109.9836398379555
 20
-160.9851779111426
 10
109.9350639916135
 20
-161.1288383928775
 10
109.9350639916135
 20
-161.1288383928775
 10
110.7136555712799
 20
-161.1288383928775
 10
110.7136555712799
 20
-161.1288383928775
 10
110.7136555712799
 20
-161.1288383928775
 10
110.7136555712799
 20
-161.3341660837984
 10
110.7136555712799
 20
-161.3341660837984
 10
110.7136555712799
 20
-161.3341660837984
 10
109.6856390784814
 20
-161.3341660837984
 10
109.6856390784814
 20
-161.3341660837984
 10
109.7173339569457
 20
-160.9765651724295
 10
109.7827907711654
 20
-160.8983615049143
 10
110.1679524464164
 20
-160.6000162358917
 10
110.4235785314219
 20
-160.4012342263927
 10
110.4890353456416
 20
-160.3333658453333
 10
110.4890353456416
 20
-160.1959065354719
 10
110.4890353456416
 20
-160.0773952507793
 10
110.4173773595484
 20
-159.9464816223398
 10
110.2206624073407
 20
-159.9464816223398
 10
109.9605576982043
 20
-159.9464816223398
 10
109.9519449594912
 20
-160.176958510303
 10
109.9474663353604
 20
-160.2934027377044
 10
109.9474663353604
 20
-160.2934027377044
 10
109.7235351288191
 20
-160.2934027377044
 10
109.7235351288191
 20
-160.2934027377044
 10
109.7318033579837
 20
-160.1662787142987
 10
109.742483153988
 20
-160.0543131110281
 10
109.8227538787943
 20
-159.9358018263355
 10
109.9329969343223
 20
-159.7749158671743
 10
110.1190320905258
 20
-159.7411539314189
 10
110.2354763179273
 20
-159.7411539314189
 10
110.5124619949413
 20
-159.7411539314189
 10
110.7198567431534
 20
-159.9251220303312
 10
110.7198567431534
 20
-160.197973592763
 10
110.7198567431534
 20
-160.4267279329836
 10
110.6034125157519
 20
-160.5259466829588
 10
110.2947319602735
 20
-160.7522894563397
 97
        0
 97
        0
 75
     2
 76
     1
 98
        0
  0
SPLINE
  5
A3
330
9D
100
AcDbEntity
  8
_U+30EC_U+30A4_U+30E4_U+30FC 1
370
     0
100
AcDbSpline
210
0.0
220
0.0
230
1.0
 70
    11
 71
     3
 72
    44
 73
    40
 74
     0
 42
0.0000000001
 43
0.0000000001
 12
1.0
 22
0.0
 32
0.0
 13
1.0
 23
0.0
 33
0.0
 40
0.0
 40
0.0
 40
0.0
 40
0.0
 40
1.0
 40
1.0
 40
1.0
 40
2.0
 40
2.0
 40
2.0
 40
3.0
 40
3.0
 40
3.0
 40
4.0
 40
4.0
 40
4.0
 40
5.0
 40
5.0
 40
5.0
 40
6.0
 40
6.0
 40
6.0
 40
7.0
 40
7.0
 40
7.0
 40
8.0
 40
8.0
 40
8.0
 40
9.0
 40
9.0
 40
9.0
 40
10.0
 40
10.0
 40
10.0
 40
11.0
 40
11.0
 40
11.0
 40
12.0
 40
12.0
 40
12.0
 40
13.0
 40
13.0
 40
13.0
 40
13.0
 10
111.4715765780349
 20
-160.7522894563397
 30
0.0
 10
111.2538465433671
 20
-160.9111083582097
 30
0.0
 10
111.1604844557168
 20
-160.9851779111426
 30
0.0
 10
111.1119086093748
 20
-161.1288383928775
 30
0.0
 10
111.1119086093748
 20
-161.1288383928775
 30
0.0
 10
111.8905001890413
 20
-161.1288383928775
 30
0.0
 10
111.8905001890413
 20
-161.1288383928775
 30
0.0
 10
111.8905001890413
 20
-161.1288383928775
 30
0.0
 10
111.8905001890413
 20
-161.3341660837984
 30
0.0
 10
111.8905001890413
 20
-161.3341660837984
 30
0.0
 10
111.8905001890413
 20
-161.3341660837984
 30
0.0
 10
110.8624836962427
 20
-161.3341660837984
 30
0.0
 10
110.8624836962427
 20
-161.3341660837984
 30
0.0
 10
110.894178574707
 20
-160.9765651724295
 30
0.0
 10
110.9596353889268
 20
-160.8983615049143
 30
0.0
 10
111.3447970641777
 20
-160.6000162358917
 30
0.0
 10
111.6004231491832
 20
-160.4012342263927
 30
0.0
 10
111.665879963403
 20
-160.3333658453333
 30
0.0
 10
111.665879963403
 20
-160.1959065354719
 30
0.0
 10
111.665879963403
 20
-160.0773952507793
 30
0.0
 10
111.5942219773098
 20
-159.9464816223398
 30
0.0
 10
111.397507025102
 20
-159.9464816223398
 30
0.0
 10
111.1374023159657
 20
-159.9464816223398
 30
0.0
 10
111.1287895772525
 20
-160.176958510303
 30
0.0
 10
111.1243109531217
 20
-160.2934027377044
 30
0.0
 10
111.1243109531217
 20
-160.2934027377044
 30
0.0
 10
110.9003797465805
 20
-160.2934027377044
 30
0.0
 10
110.9003797465805
 20
-160.2934027377044
 30
0.0
 10
110.9086479757451
 20
-160.1662787142987
 30
0.0
 10
110.9193277717493
 20
-160.0543131110281
 30
0.0
 10
110.9995984965557
 20
-159.9358018263355
 30
0.0
 10
111.1098415520837
 20
-159.7749158671743
 30
0.0
 10
111.2958767082872
 20
-159.7411539314189
 30
0.0
 10
111.4123209356886
 20
-159.7411539314189
 30
0.0
 10
111.6893066127027
 20
-159.7411539314189
 30
0.0
 10
111.8967013609147
 20
-159.9251220303312
 30
0.0
 10
111.8967013609147
 20
-160.197973592763
 30
0.0
 10
111.8967013609147
 20
-160.4267279329836
 30
0.0
 10
111.7802571335133
 20
-160.5259466829588
 30
0.0
 10
111.4715765780349
 20
-160.7522894563397
 30
0.0
  0
HATCH
  5
A4
330
9D
100
AcDbEntity
  8
_U+30EC_U+30A4_U+30E4_U+30FC 1
 62
   179
420
  2234388
100
AcDbHatch
 10
0.0
 20
0.0
 30
0.0
210
0.0
220
0.0
230
1.0
  2
SOLID
 70
     1
 71
     0
 91
        1
 92
        1
 93
        1
 72
     4
 94
        3
 73
     0
 74
     1
 95
       44
 96
       40
 40
0.0
 40
0.0
 40
0.0
 40
0.0
 40
1.0
 40
1.0
 40
1.0
 40
2.0
 40
2.0
 40
2.0
 40
3.0
 40
3.0
 40
3.0
 40
4.0
 40
4.0
 40
4.0
 40
5.0
 40
5.0
 40
5.0
 40
6.0
 40
6.0
 40
6.0
 40
7.0
 40
7.0
 40
7.0
 40
8.0
 40
8.0
 40
8.0
 40
9.0
 40
9.0
 40
9.0
 40
10.0
 40
10.0
 40
10.0
 40
11.0
 40
11.0
 40
11.0
 40
12.0
 40
12.0
 40
12.0
 40
13.0
 40
13.0
 40
13.0
 40
13.0
 10
111.4715765780349
 20
-160.7522894563397
 10
111.2538465433671
 20
-160.9111083582097
 10
111.1604844557168
 20
-160.9851779111426
 10
111.1119086093748
 20
-161.1288383928775
 10
111.1119086093748
 20
-161.1288383928775
 10
111.8905001890413
 20
-161.1288383928775
 10
111.8905001890413
 20
-161.1288383928775
 10
111.8905001890413
 20
-161.1288383928775
 10
111.8905001890413
 20
-161.3341660837984
 10
111.8905001890413
 20
-161.3341660837984
 10
111.8905001890413
 20
-161.3341660837984
 10
110.8624836962427
 20
-161.3341660837984
 10
110.8624836962427
 20
-161.3341660837984
 10
110.894178574707
 20
-160.9765651724295
 10
110.9596353889268
 20
-160.8983615049143
 10
111.3447970641777
 20
-160.6000162358917
 10
111.6004231491832
 20
-160.4012342263927
 10
111.665879963403
 20
-160.3333658453333
 10
111.665879963403
 20
-160.1959065354719
 10
111.665879963403
 20
-160.0773952507793
 10
111.5942219773098
 20
-159.9464816223398
 10
111.397507025102
 20
-159.9464816223398
 10
111.1374023159657
 20
-159.9464816223398
 10
111.1287895772525
 20
-160.176958510303
 10
111.1243109531217
 20
-160.2934027377044
 10
111.1243109531217
 20
-160.2934027377044
 10
110.9003797465805
 20
-160.2934027377044
 10
110.9003797465805
 20
-160.2934027377044
 10
110.9086479757451
 20
-160.1662787142987
 10
110.9193277717493
 20
-160.0543131110281
 10
110.9995984965557
 20
-159.9358018263355
 10
111.1098415520837
 20
-159.7749158671743
 10
111.2958767082872
 20
-159.7411539314189
 10
111.4123209356886
 20
-159.7411539314189
 10
111.6893066127027
 20
-159.7411539314189
 10
111.8967013609147
 20
-159.9251220303312
 10
111.8967013609147
 20
-160.197973592763
 10
111.8967013609147
 20
-160.4267279329836
 10
111.7802571335133
 20
-160.5259466829588
 10
111.4715765780349
 20
-160.7522894563397
 97
        0
 97
        0
 75
     2
 76
     1
 98
        0
  0
POLYLINE
  5
A5
330
9D
100
AcDbEntity
  8
_U+30EC_U+30A4_U+30E4_U+30FC 1
370
     0
100
AcDb2dPolyline
 66
     1
 10
0.0
 20
0.0
 30
0.0
  0
VERTEX
  5
A6
330
A5
100
AcDbEntity
  8
_U+30EC_U+30A4_U+30E4_U+30FC 1
370
     0
100
AcDbVertex
100
AcDb2dVertex
 10
112.1151204146796
 20
-161.3341660837984
 30
0.0
  0
VERTEX
  5
A7
330
A5
100
AcDbEntity
  8
_U+30EC_U+30A4_U+30E4_U+30FC 1
370
     0
100
AcDbVertex
100
AcDb2dVertex
 10
112.1151204146796
 20
-161.0823296038267
 30
0.0
  0
VERTEX
  5
A8
330
A5
100
AcDbEntity
  8
_U+30EC_U+30A4_U+30E4_U+30FC 1
370
     0
100
AcDbVertex
100
AcDb2dVertex
 10
112.3669568946513
 20
-161.0823296038267
 30
0.0
  0
VERTEX
  5
A9
330
A5
100
AcDbEntity
  8
_U+30EC_U+30A4_U+30E4_U+30FC 1
370
     0
100
AcDbVertex
100
AcDb2dVertex
 10
112.3669568946513
 20
-161.3341660837984
 30
0.0
  0
VERTEX
  5
AA
330
A5
100
AcDbEntity
  8
_U+30EC_U+30A4_U+30E4_U+30FC 1
370
     0
100
AcDbVertex
100
AcDb2dVertex
 10
112.1151204146796
 20
-161.3341660837984
 30
0.0
  0
SEQEND
  5
AB
330
A5
100
AcDbEntity
  8
_U+30EC_U+30A4_U+30E4_U+30FC 1
370
     0
  0
HATCH
  5
AC
330
9D
100
AcDbEntity
  8
_U+30EC_U+30A4_U+30E4_U+30FC 1
 62
   179
420
  2234388
100
AcDbHatch
 10
0.0
 20
0.0
 30
0.0
210
0.0
220
0.0
230
1.0
  2
SOLID
 70
     1
 71
     0
 91
        1
 92
        1
 93
        4
 72
     1
 10
112.1151204146796
 20
-161.3341660837984
 11
112.1151204146796
 21
-161.0823296038267
 72
     1
 10
112.1151204146796
 20
-161.0823296038267
 11
112.3669568946513
 21
-161.0823296038267
 72
     1
 10
112.3669568946513
 20
-161.0823296038267
 11
112.3669568946513
 21
-161.3341660837984
 72
     1
 10
112.3669568946513
 20
-161.3341660837984
 11
112.1151204146796
 21
-161.3341660837984
 97
        0
 75
     2
 76
     1
 98
        0
  0
SPLINE
  5
AD
330
9D
100
AcDbEntity
  8
_U+30EC_U+30A4_U+30E4_U+30FC 1
370
     0
100
AcDbSpline
210
0.0
220
0.0
230
1.0
 70
    11
 71
     3
 72
    53
 73
    49
 74
     0
 42
0.0000000001
 43
0.0000000001
 12
1.0
 22
0.0
 32
0.0
 13
1.0
 23
0.0
 33
0.0
 40
0.0
 40
0.0
 40
0.0
 40
0.0
 40
1.0
 40
1.0
 40
1.0
 40
2.0
 40
2.0
 40
2.0
 40
3.0
 40
3.0
 40
3.0
 40
4.0
 40
4.0
 40
4.0
 40
5.0
 40
5.0
 40
5.0
 40
6.0
 40
6.0
 40
6.0
 40
7.0
 40
7.0
 40
7.0
 40
8.0
 40
8.0
 40
8.0
 40
9.0
 40
9.0
 40
9.0
 40
10.0
 40
10.0
 40
10.0
 40
11.0
 40
11.0
 40
11.0
 40
12.0
 40
12.0
 40
12.0
 40
13.0
 40
13.0
 40
13.0
 40
14.0
 40
14.0
 40
14.0
 40
15.0
 40
15.0
 40
15.0
 40
16.0
 40
16.0
 40
16.0
 40
16.0
 10
113.0845702842289
 20
-161.3848089874316
 30
0.0
 10
113.0060221071652
 20
-161.3848089874316
 30
0.0
 10
112.9047362998988
 20
-161.3679280195539
 30
0.0
 10
112.803105983084
 20
-161.3045382626253
 30
0.0
 10
112.6298176801759
 20
-161.1946397166458
 30
0.0
 10
112.6084580881673
 20
-161.0633815786578
 30
0.0
 10
112.5895100629985
 20
-160.9555500899694
 30
0.0
 10
112.5895100629985
 20
-160.9555500899694
 30
0.0
 10
112.8117187217971
 20
-160.9555500899694
 30
0.0
 10
112.8117187217971
 20
-160.9555500899694
 30
0.0
 10
112.8668402495611
 20
-161.1543320994684
 30
0.0
 10
112.9936197634183
 20
-161.1839599206415
 30
0.0
 10
113.08663734152
 20
-161.1839599206415
 30
0.0
 10
113.2261637086726
 20
-161.1839599206415
 30
0.0
 10
113.3787814386692
 20
-161.0843966611178
 30
0.0
 10
113.3787814386692
 20
-160.8518527158634
 30
0.0
 10
113.3787814386692
 20
-160.5958821213094
 30
0.0
 10
113.1989474543392
 20
-160.5259466829588
 30
0.0
 10
113.0783691123554
 20
-160.5259466829588
 30
0.0
 10
113.0466742338911
 20
-160.5259466829588
 30
0.0
 10
112.9047362998988
 20
-160.5259466829588
 30
0.0
 10
112.8158528363794
 20
-160.6551377636557
 30
0.0
 10
112.8158528363794
 20
-160.6551377636557
 30
0.0
 10
112.6401529666316
 20
-160.6361897384868
 30
0.0
 10
112.6401529666316
 20
-160.6361897384868
 30
0.0
 10
112.6401529666316
 20
-160.6361897384868
 30
0.0
 10
112.7607313086154
 20
-159.7897297777609
 30
0.0
 10
112.7607313086154
 20
-159.7897297777609
 30
0.0
 10
112.7607313086154
 20
-159.7897297777609
 30
0.0
 10
113.5393228882818
 20
-159.7897297777609
 30
0.0
 10
113.5393228882818
 20
-159.7897297777609
 30
0.0
 10
113.5393228882818
 20
-159.7897297777609
 30
0.0
 10
113.5393228882818
 20
-159.9843776726775
 30
0.0
 10
113.5393228882818
 20
-159.9843776726775
 30
0.0
 10
113.5393228882818
 20
-159.9843776726775
 30
0.0
 10
112.9236843250677
 20
-159.9843776726775
 30
0.0
 10
112.9236843250677
 20
-159.9843776726775
 30
0.0
 10
112.9236843250677
 20
-159.9843776726775
 30
0.0
 10
112.858227510848
 20
-160.4074353982662
 30
0.0
 10
112.858227510848
 20
-160.4074353982662
 30
0.0
 10
112.9195502104854
 20
-160.3736734625108
 30
0.0
 10
113.0018879925829
 20
-160.3333658453333
 30
0.0
 10
113.1203992772755
 20
-160.3333658453333
 30
0.0
 10
113.3743028145384
 20
-160.3333658453333
 30
0.0
 10
113.6113253839236
 20
-160.5197455110853
 30
0.0
 10
113.6113253839236
 20
-160.8329046906946
 30
0.0
 10
113.6113253839236
 20
-161.1501979848861
 30
0.0
 10
113.3870496678338
 20
-161.3848089874316
 30
0.0
 10
113.0845702842289
 20
-161.3848089874316
 30
0.0
  0
HATCH
  5
AE
330
9D
100
AcDbEntity
  8
_U+30EC_U+30A4_U+30E4_U+30FC 1
 62
   179
420
  2234388
100
AcDbHatch
 10
0.0
 20
0.0
 30
0.0
210
0.0
220
0.0
230
1.0
  2
SOLID
 70
     1
 71
     0
 91
        1
 92
        1
 93
        1
 72
     4
 94
        3
 73
     0
 74
     1
 95
       53
 96
       49
 40
0.0
 40
0.0
 40
0.0
 40
0.0
 40
1.0
 40
1.0
 40
1.0
 40
2.0
 40
2.0
 40
2.0
 40
3.0
 40
3.0
 40
3.0
 40
4.0
 40
4.0
 40
4.0
 40
5.0
 40
5.0
 40
5.0
 40
6.0
 40
6.0
 40
6.0
 40
7.0
 40
7.0
 40
7.0
 40
8.0
 40
8.0
 40
8.0
 40
9.0
 40
9.0
 40
9.0
 40
10.0
 40
10.0
 40
10.0
 40
11.0
 40
11.0
 40
11.0
 40
12.0
 40
12.0
 40
12.0
 40
13.0
 40
13.0
 40
13.0
 40
14.0
 40
14.0
 40
14.0
 40
15.0
 40
15.0
 40
15.0
 40
16.0
 40
16.0
 40
16.0
 40
16.0
 10
113.0845702842289
 20
-161.3848089874316
 10
113.0060221071652
 20
-161.3848089874316
 10
112.9047362998988
 20
-161.3679280195539
 10
112.803105983084
 20
-161.3045382626253
 10
112.6298176801759
 20
-161.1946397166458
 10
112.6084580881673
 20
-161.0633815786578
 10
112.5895100629985
 20
-160.9555500899694
 10
112.5895100629985
 20
-160.9555500899694
 10
112.8117187217971
 20
-160.9555500899694
 10
112.8117187217971
 20
-160.9555500899694
 10
112.8668402495611
 20
-161.1543320994684
 10
112.9936197634183
 20
-161.1839599206415
 10
113.08663734152
 20
-161.1839599206415
 10
113.2261637086726
 20
-161.1839599206415
 10
113.3787814386692
 20
-161.0843966611178
 10
113.3787814386692
 20
-160.8518527158634
 10
113.3787814386692
 20
-160.5958821213094
 10
113.1989474543392
 20
-160.5259466829588
 10
113.0783691123554
 20
-160.5259466829588
 10
113.0466742338911
 20
-160.5259466829588
 10
112.9047362998988
 20
-160.5259466829588
 10
112.8158528363794
 20
-160.6551377636557
 10
112.8158528363794
 20
-160.6551377636557
 10
112.6401529666316
 20
-160.6361897384868
 10
112.6401529666316
 20
-160.6361897384868
 10
112.6401529666316
 20
-160.6361897384868
 10
112.7607313086154
 20
-159.7897297777609
 10
112.7607313086154
 20
-159.7897297777609
 10
112.7607313086154
 20
-159.7897297777609
 10
113.5393228882818
 20
-159.7897297777609
 10
113.5393228882818
 20
-159.7897297777609
 10
113.5393228882818
 20
-159.7897297777609
 10
113.5393228882818
 20
-159.9843776726775
 10
113.5393228882818
 20
-159.9843776726775
 10
113.5393228882818
 20
-159.9843776726775
 10
112.9236843250677
 20
-159.9843776726775
 10
112.9236843250677
 20
-159.9843776726775
 10
112.9236843250677
 20
-159.9843776726775
 10
112.858227510848
 20
-160.4074353982662
 10
112.858227510848
 20
-160.4074353982662
 10
112.9195502104854
 20
-160.3736734625108
 10
113.0018879925829
 20
-160.3333658453333
 10
113.1203992772755
 20
-160.3333658453333
 10
113.3743028145384
 20
-160.3333658453333
 10
113.6113253839236
 20
-160.5197455110853
 10
113.6113253839236
 20
-160.8329046906946
 10
113.6113253839236
 20
-161.1501979848861
 10
113.3870496678338
 20
-161.3848089874316
 10
113.0845702842289
 20
-161.3848089874316
 97
        0
 97
        0
 75
     2
 76
     1
 98
        0
  0
ENDBLK
  5
A0
330
9D
100
AcDbEntity
  8
0
100
AcDbBlockEnd
  0
BLOCK
  5
BD
330
BB
100
AcDbEntity
  8
0
100
AcDbBlockBegin
  2
block 6
 70
     0
 10
0.0
 20
0.0
 30
0.0
  3
block 6
  1

  0
SPLINE
  5
BF
330
BB
100
AcDbEntity
  8
_U+30EC_U+30A4_U+30E4_U+30FC 1
370
     0
100
AcDbSpline
210
0.0
220
0.0
230
1.0
 70
    11
 71
     3
 72
    62
 73
    58
 74
     0
 42
0.0000000001
 43
0.0000000001
 12
1.0
 22
0.0
 32
0.0
 13
1.0
 23
0.0
 33
0.0
 40
0.0
 40
0.0
 40
0.0
 40
0.0
 40
1.0
 40
1.0
 40
1.0
 40
2.0
 40
2.0
 40
2.0
 40
3.0
 40
3.0
 40
3.0
 40
4.0
 40
4.0
 40
4.0
 40
5.0
 40
5.0
 40
5.0
 40
6.0
 40
6.0
 40
6.0
 40
7.0
 40
7.0
 40
7.0
 40
8.0
 40
8.0
 40
8.0
 40
9.0
 40
9.0
 40
9.0
 40
10.0
 40
10.0
 40
10.0
 40
11.0
 40
11.0
 40
11.0
 40
12.0
 40
12.0
 40
12.0
 40
13.0
 40
13.0
 40
13.0
 40
14.0
 40
14.0
 40
14.0
 40
15.0
 40
15.0
 40
15.0
 40
16.0
 40
16.0
 40
16.0
 40
17.0
 40
17.0
 40
17.0
 40
18.0
 40
18.0
 40
18.0
 40
19.0
 40
19.0
 40
19.0
 40
19.0
 10
105.1932345657156
 20
-135.8799058362557
 30
0.0
 10
105.0979776755484
 20
-135.8799058362557
 30
0.0
 10
104.8800753861064
 20
-135.8588907537957
 30
0.0
 10
104.7553629295403
 20
-135.6728555975922
 30
0.0
 10
104.6812933766075
 20
-135.5605454847731
 30
0.0
 10
104.6769870072509
 20
-135.4613267347979
 30
0.0
 10
104.6728528926686
 20
-135.3765773858607
 30
0.0
 10
104.6728528926686
 20
-135.3765773858607
 30
0.0
 10
104.8928222394018
 20
-135.3765773858607
 30
0.0
 10
104.8928222394018
 20
-135.3765773858607
 30
0.0
 10
104.894889296693
 20
-135.4506469387936
 30
0.0
 10
104.9055690926972
 20
-135.6852579413391
 30
0.0
 10
105.1891004511333
 20
-135.6852579413391
 30
0.0
 10
105.3265597609948
 20
-135.6852579413391
 30
0.0
 10
105.4788329814428
 20
-135.6156670125371
 30
0.0
 10
105.4788329814428
 20
-135.387257181865
 30
0.0
 10
105.4788329814428
 20
-135.2708129544636
 30
0.0
 10
105.4407646763308
 20
-135.2222371081215
 30
0.0
 10
105.4090697978665
 20
-135.1905422296572
 30
0.0
 10
105.3350002449336
 20
-135.1164726767244
 30
0.0
 10
105.2185560175322
 20
-135.1037258234289
 30
0.0
 10
105.1636067445424
 20
-135.1037258234289
 30
0.0
 10
105.1446587193736
 20
-135.1037258234289
 30
0.0
 10
105.1086574715527
 20
-135.1057928807201
 30
0.0
 10
105.0810967076707
 20
-135.1099269953024
 30
0.0
 10
105.0810967076707
 20
-135.1099269953024
 30
0.0
 10
105.0810967076707
 20
-134.9152791003858
 30
0.0
 10
105.0810967076707
 20
-134.9152791003858
 30
0.0
 10
105.1191650127827
 20
-134.9218247818077
 30
0.0
 10
105.1615396872513
 20
-134.9238918390989
 30
0.0
 10
105.167913113899
 20
-134.9238918390989
 30
0.0
 10
105.2333699281187
 20
-134.9238918390989
 30
0.0
 10
105.4323241923919
 20
-134.9025322470903
 30
0.0
 10
105.4323241923919
 20
-134.6658541872537
 30
0.0
 10
105.4323241923919
 20
-134.4880872602148
 30
0.0
 10
105.3010660544039
 20
-134.4329657324508
 30
0.0
 10
105.1911675084244
 20
-134.4329657324508
 30
0.0
 10
104.9267564299315
 20
-134.4329657324508
 30
0.0
 10
104.9183159459926
 20
-134.6658541872537
 30
0.0
 10
104.9140095766361
 20
-134.7375121733469
 30
0.0
 10
104.9140095766361
 20
-134.7375121733469
 30
0.0
 10
104.7109211977806
 20
-134.7375121733469
 30
0.0
 10
104.7109211977806
 20
-134.7375121733469
 30
0.0
 10
104.7193616817195
 20
-134.6127997167808
 30
0.0
 10
104.7469224456015
 20
-134.236250780243
 30
0.0
 10
105.2037421069456
 20
-134.236250780243
 30
0.0
 10
105.4280178230354
 20
-134.236250780243
 30
0.0
 10
105.6693467617771
 20
-134.3633748036488
 30
0.0
 10
105.6693467617771
 20
-134.6593085058317
 30
0.0
 10
105.6693467617771
 20
-134.8456881715837
 30
0.0
 10
105.5742621263842
 20
-134.9280259536812
 30
0.0
 10
105.4745266120862
 20
-134.9893486533186
 30
0.0
 10
105.536021566498
 20
-135.0169094172007
 30
0.0
 10
105.7179226081191
 20
-135.0971801420069
 30
0.0
 10
105.7179226081191
 20
-135.3745103285696
 30
0.0
 10
105.7179226081191
 20
-135.7128187052211
 30
0.0
 10
105.4703924975039
 20
-135.8799058362557
 30
0.0
 10
105.1932345657156
 20
-135.8799058362557
 30
0.0
  0
HATCH
  5
C0
330
BB
100
AcDbEntity
  8
_U+30EC_U+30A4_U+30E4_U+30FC 1
 62
   179
420
  2234388
100
AcDbHatch
 10
0.0
 20
0.0
 30
0.0
210
0.0
220
0.0
230
1.0
  2
SOLID
 70
     1
 71
     0
 91
        1
 92
        1
 93
        1
 72
     4
 94
        3
 73
     0
 74
     1
 95
       62
 96
       58
 40
0.0
 40
0.0
 40
0.0
 40
0.0
 40
1.0
 40
1.0
 40
1.0
 40
2.0
 40
2.0
 40
2.0
 40
3.0
 40
3.0
 40
3.0
 40
4.0
 40
4.0
 40
4.0
 40
5.0
 40
5.0
 40
5.0
 40
6.0
 40
6.0
 40
6.0
 40
7.0
 40
7.0
 40
7.0
 40
8.0
 40
8.0
 40
8.0
 40
9.0
 40
9.0
 40
9.0
 40
10.0
 40
10.0
 40
10.0
 40
11.0
 40
11.0
 40
11.0
 40
12.0
 40
12.0
 40
12.0
 40
13.0
 40
13.0
 40
13.0
 40
14.0
 40
14.0
 40
14.0
 40
15.0
 40
15.0
 40
15.0
 40
16.0
 40
16.0
 40
16.0
 40
17.0
 40
17.0
 40
17.0
 40
18.0
 40
18.0
 40
18.0
 40
19.0
 40
19.0
 40
19.0
 40
19.0
 10
105.1932345657156
 20
-135.8799058362557
 10
105.0979776755484
 20
-135.8799058362557
 10
104.8800753861064
 20
-135.8588907537957
 10
104.7553629295403
 20
-135.6728555975922
 10
104.6812933766075
 20
-135.5605454847731
 10
104.6769870072509
 20
-135.4613267347979
 10
104.6728528926686
 20
-135.3765773858607
 10
104.6728528926686
 20
-135.3765773858607
 10
104.8928222394018
 20
-135.3765773858607
 10
104.8928222394018
 20
-135.3765773858607
 10
104.894889296693
 20
-135.4506469387936
 10
104.9055690926972
 20
-135.6852579413391
 10
105.1891004511333
 20
-135.6852579413391
 10
105.3265597609948
 20
-135.6852579413391
 10
105.4788329814428
 20
-135.6156670125371
 10
105.4788329814428
 20
-135.387257181865
 10
105.4788329814428
 20
-135.2708129544636
 10
105.4407646763308
 20
-135.2222371081215
 10
105.4090697978665
 20
-135.1905422296572
 10
105.3350002449336
 20
-135.1164726767244
 10
105.2185560175322
 20
-135.1037258234289
 10
105.1636067445424
 20
-135.1037258234289
 10
105.1446587193736
 20
-135.1037258234289
 10
105.1086574715527
 20
-135.1057928807201
 10
105.0810967076707
 20
-135.1099269953024
 10
105.0810967076707
 20
-135.1099269953024
 10
105.0810967076707
 20
-134.9152791003858
 10
105.0810967076707
 20
-134.9152791003858
 10
105.1191650127827
 20
-134.9218247818077
 10
105.1615396872513
 20
-134.9238918390989
 10
105.167913113899
 20
-134.9238918390989
 10
105.2333699281187
 20
-134.9238918390989
 10
105.4323241923919
 20
-134.9025322470903
 10
105.4323241923919
 20
-134.6658541872537
 10
105.4323241923919
 20
-134.4880872602148
 10
105.3010660544039
 20
-134.4329657324508
 10
105.1911675084244
 20
-134.4329657324508
 10
104.9267564299315
 20
-134.4329657324508
 10
104.9183159459926
 20
-134.6658541872537
 10
104.9140095766361
 20
-134.7375121733469
 10
104.9140095766361
 20
-134.7375121733469
 10
104.7109211977806
 20
-134.7375121733469
 10
104.7109211977806
 20
-134.7375121733469
 10
104.7193616817195
 20
-134.6127997167808
 10
104.7469224456015
 20
-134.236250780243
 10
105.2037421069456
 20
-134.236250780243
 10
105.4280178230354
 20
-134.236250780243
 10
105.6693467617771
 20
-134.3633748036488
 10
105.6693467617771
 20
-134.6593085058317
 10
105.6693467617771
 20
-134.8456881715837
 10
105.5742621263842
 20
-134.9280259536812
 10
105.4745266120862
 20
-134.9893486533186
 10
105.536021566498
 20
-135.0169094172007
 10
105.7179226081191
 20
-135.0971801420069
 10
105.7179226081191
 20
-135.3745103285696
 10
105.7179226081191
 20
-135.7128187052211
 10
105.4703924975039
 20
-135.8799058362557
 10
105.1932345657156
 20
-135.8799058362557
 97
        0
 97
        0
 75
     2
 76
     1
 98
        0
  0
SPLINE
  5
C1
330
BB
100
AcDbEntity
  8
_U+30EC_U+30A4_U+30E4_U+30FC 1
370
     0
100
AcDbSpline
210
0.0
220
0.0
230
1.0
 70
    11
 71
     3
 72
    44
 73
    40
 74
     0
 42
0.0000000001
 43
0.0000000001
 12
1.0
 22
0.0
 32
0.0
 13
1.0
 23
0.0
 33
0.0
 40
0.0
 40
0.0
 40
0.0
 40
0.0
 40
1.0
 40
1.0
 40
1.0
 40
2.0
 40
2.0
 40
2.0
 40
3.0
 40
3.0
 40
3.0
 40
4.0
 40
4.0
 40
4.0
 40
5.0
 40
5.0
 40
5.0
 40
6.0
 40
6.0
 40
6.0
 40
7.0
 40
7.0
 40
7.0
 40
8.0
 40
8.0
 40
8.0
 40
9.0
 40
9.0
 40
9.0
 40
10.0
 40
10.0
 40
10.0
 40
11.0
 40
11.0
 40
11.0
 40
12.0
 40
12.0
 40
12.0
 40
13.0
 40
13.0
 40
13.0
 40
13.0
 10
106.4717095002918
 20
-135.2473863051638
 30
0.0
 10
106.2536349560755
 20
-135.4062052070339
 30
0.0
 10
106.1606173779737
 20
-135.4802747599667
 30
0.0
 10
106.1120415316317
 20
-135.6239352417017
 30
0.0
 10
106.1120415316317
 20
-135.6239352417017
 30
0.0
 10
106.8902886017497
 20
-135.6239352417017
 30
0.0
 10
106.8902886017497
 20
-135.6239352417017
 30
0.0
 10
106.8902886017497
 20
-135.6239352417017
 30
0.0
 10
106.8902886017497
 20
-135.8292629326226
 30
0.0
 10
106.8902886017497
 20
-135.8292629326226
 30
0.0
 10
106.8902886017497
 20
-135.8292629326226
 30
0.0
 10
105.8622721089511
 20
-135.8292629326226
 30
0.0
 10
105.8622721089511
 20
-135.8292629326226
 30
0.0
 10
105.8939669874154
 20
-135.4716620212536
 30
0.0
 10
105.9597683111837
 20
-135.3934583537385
 30
0.0
 10
106.3445854768861
 20
-135.0951130847158
 30
0.0
 10
106.6009005809887
 20
-134.8963310752169
 30
0.0
 10
106.6663573952084
 20
-134.8284626941575
 30
0.0
 10
106.6663573952084
 20
-134.691003384296
 30
0.0
 10
106.6663573952084
 20
-134.5724920996034
 30
0.0
 10
106.5943548995667
 20
-134.4415784711639
 30
0.0
 10
106.3976399473589
 20
-134.4415784711639
 30
0.0
 10
106.137190728674
 20
-134.4415784711639
 30
0.0
 10
106.1289224995094
 20
-134.6720553591271
 30
0.0
 10
106.1247883849271
 20
-134.7884995865286
 30
0.0
 10
106.1247883849271
 20
-134.7884995865286
 30
0.0
 10
105.9005126688374
 20
-134.7884995865286
 30
0.0
 10
105.9005126688374
 20
-134.7884995865286
 30
0.0
 10
105.9091254075505
 20
-134.6613755631228
 30
0.0
 10
105.9194606940062
 20
-134.5494099598522
 30
0.0
 10
106.0000759283611
 20
-134.4308986751597
 30
0.0
 10
106.109629964792
 20
-134.2700127159985
 30
0.0
 10
106.2960096305441
 20
-134.236250780243
 30
0.0
 10
106.4124538579455
 20
-134.236250780243
 30
0.0
 10
106.6897840445081
 20
-134.236250780243
 30
0.0
 10
106.8968342831716
 20
-134.4202188791554
 30
0.0
 10
106.8968342831716
 20
-134.6930704415872
 30
0.0
 10
106.8968342831716
 20
-134.9218247818077
 30
0.0
 10
106.7807345653187
 20
-135.0210435317829
 30
0.0
 10
106.4717095002918
 20
-135.2473863051638
 30
0.0
  0
HATCH
  5
C2
330
BB
100
AcDbEntity
  8
_U+30EC_U+30A4_U+30E4_U+30FC 1
 62
   179
420
  2234388
100
AcDbHatch
 10
0.0
 20
0.0
 30
0.0
210
0.0
220
0.0
230
1.0
  2
SOLID
 70
     1
 71
     0
 91
        1
 92
        1
 93
        1
 72
     4
 94
        3
 73
     0
 74
     1
 95
       44
 96
       40
 40
0.0
 40
0.0
 40
0.0
 40
0.0
 40
1.0
 40
1.0
 40
1.0
 40
2.0
 40
2.0
 40
2.0
 40
3.0
 40
3.0
 40
3.0
 40
4.0
 40
4.0
 40
4.0
 40
5.0
 40
5.0
 40
5.0
 40
6.0
 40
6.0
 40
6.0
 40
7.0
 40
7.0
 40
7.0
 40
8.0
 40
8.0
 40
8.0
 40
9.0
 40
9.0
 40
9.0
 40
10.0
 40
10.0
 40
10.0
 40
11.0
 40
11.0
 40
11.0
 40
12.0
 40
12.0
 40
12.0
 40
13.0
 40
13.0
 40
13.0
 40
13.0
 10
106.4717095002918
 20
-135.2473863051638
 10
106.2536349560755
 20
-135.4062052070339
 10
106.1606173779737
 20
-135.4802747599667
 10
106.1120415316317
 20
-135.6239352417017
 10
106.1120415316317
 20
-135.6239352417017
 10
106.8902886017497
 20
-135.6239352417017
 10
106.8902886017497
 20
-135.6239352417017
 10
106.8902886017497
 20
-135.6239352417017
 10
106.8902886017497
 20
-135.8292629326226
 10
106.8902886017497
 20
-135.8292629326226
 10
106.8902886017497
 20
-135.8292629326226
 10
105.8622721089511
 20
-135.8292629326226
 10
105.8622721089511
 20
-135.8292629326226
 10
105.8939669874154
 20
-135.4716620212536
 10
105.9597683111837
 20
-135.3934583537385
 10
106.3445854768861
 20
-135.0951130847158
 10
106.6009005809887
 20
-134.8963310752169
 10
106.6663573952084
 20
-134.8284626941575
 10
106.6663573952084
 20
-134.691003384296
 10
106.6663573952084
 20
-134.5724920996034
 10
106.5943548995667
 20
-134.4415784711639
 10
106.3976399473589
 20
-134.4415784711639
 10
106.137190728674
 20
-134.4415784711639
 10
106.1289224995094
 20
-134.6720553591271
 10
106.1247883849271
 20
-134.7884995865286
 10
106.1247883849271
 20
-134.7884995865286
 10
105.9005126688374
 20
-134.7884995865286
 10
105.9005126688374
 20
-134.7884995865286
 10
105.9091254075505
 20
-134.6613755631228
 10
105.9194606940062
 20
-134.5494099598522
 10
106.0000759283611
 20
-134.4308986751597
 10
106.109629964792
 20
-134.2700127159985
 10
106.2960096305441
 20
-134.236250780243
 10
106.4124538579455
 20
-134.236250780243
 10
106.6897840445081
 20
-134.236250780243
 10
106.8968342831716
 20
-134.4202188791554
 10
106.8968342831716
 20
-134.6930704415872
 10
106.8968342831716
 20
-134.9218247818077
 10
106.7807345653187
 20
-135.0210435317829
 10
106.4717095002918
 20
-135.2473863051638
 97
        0
 97
        0
 75
     2
 76
     1
 98
        0
  0
POLYLINE
  5
C3
330
BB
100
AcDbEntity
  8
_U+30EC_U+30A4_U+30E4_U+30FC 1
370
     0
100
AcDb2dPolyline
 66
     1
 10
0.0
 20
0.0
 30
0.0
  0
VERTEX
  5
C4
330
C3
100
AcDbEntity
  8
_U+30EC_U+30A4_U+30E4_U+30FC 1
370
     0
100
AcDbVertex
100
AcDb2dVertex
 10
107.115597846485
 20
-135.8292629326226
 30
0.0
  0
VERTEX
  5
C5
330
C3
100
AcDbEntity
  8
_U+30EC_U+30A4_U+30E4_U+30FC 1
370
     0
100
AcDbVertex
100
AcDb2dVertex
 10
107.115597846485
 20
-135.5774264526508
 30
0.0
  0
VERTEX
  5
C6
330
C3
100
AcDbEntity
  8
_U+30EC_U+30A4_U+30E4_U+30FC 1
370
     0
100
AcDbVertex
100
AcDb2dVertex
 10
107.3670898169082
 20
-135.5774264526508
 30
0.0
  0
VERTEX
  5
C7
330
C3
100
AcDbEntity
  8
_U+30EC_U+30A4_U+30E4_U+30FC 1
370
     0
100
AcDbVertex
100
AcDb2dVertex
 10
107.3670898169082
 20
-135.8292629326226
 30
0.0
  0
VERTEX
  5
C8
330
C3
100
AcDbEntity
  8
_U+30EC_U+30A4_U+30E4_U+30FC 1
370
     0
100
AcDbVertex
100
AcDb2dVertex
 10
107.115597846485
 20
-135.8292629326226
 30
0.0
  0
SEQEND
  5
C9
330
C3
100
AcDbEntity
  8
_U+30EC_U+30A4_U+30E4_U+30FC 1
370
     0
  0
HATCH
  5
CA
330
BB
100
AcDbEntity
  8
_U+30EC_U+30A4_U+30E4_U+30FC 1
 62
   179
420
  2234388
100
AcDbHatch
 10
0.0
 20
0.0
 30
0.0
210
0.0
220
0.0
230
1.0
  2
SOLID
 70
     1
 71
     0
 91
        1
 92
        1
 93
        4
 72
     1
 10
107.115597846485
 20
-135.8292629326226
 11
107.115597846485
 21
-135.5774264526508
 72
     1
 10
107.115597846485
 20
-135.5774264526508
 11
107.3670898169082
 21
-135.5774264526508
 72
     1
 10
107.3670898169082
 20
-135.5774264526508
 11
107.3670898169082
 21
-135.8292629326226
 72
     1
 10
107.3670898169082
 20
-135.8292629326226
 11
107.115597846485
 21
-135.8292629326226
 97
        0
 75
     2
 76
     1
 98
        0
  0
SPLINE
  5
CB
330
BB
100
AcDbEntity
  8
_U+30EC_U+30A4_U+30E4_U+30FC 1
370
     0
100
AcDbSpline
210
0.0
220
0.0
230
1.0
 70
    11
 71
     3
 72
    53
 73
    49
 74
     0
 42
0.0000000001
 43
0.0000000001
 12
1.0
 22
0.0
 32
0.0
 13
1.0
 23
0.0
 33
0.0
 40
0.0
 40
0.0
 40
0.0
 40
0.0
 40
1.0
 40
1.0
 40
1.0
 40
2.0
 40
2.0
 40
2.0
 40
3.0
 40
3.0
 40
3.0
 40
4.0
 40
4.0
 40
4.0
 40
5.0
 40
5.0
 40
5.0
 40
6.0
 40
6.0
 40
6.0
 40
7.0
 40
7.0
 40
7.0
 40
8.0
 40
8.0
 40
8.0
 40
9.0
 40
9.0
 40
9.0
 40
10.0
 40
10.0
 40
10.0
 40
11.0
 40
11.0
 40
11.0
 40
12.0
 40
12.0
 40
12.0
 40
13.0
 40
13.0
 40
13.0
 40
14.0
 40
14.0
 40
14.0
 40
15.0
 40
15.0
 40
15.0
 40
16.0
 40
16.0
 40
16.0
 40
16.0
 10
108.0847032064858
 20
-135.8799058362557
 30
0.0
 10
108.0064995389706
 20
-135.8799058362557
 30
0.0
 10
107.9048692221557
 20
-135.863024868378
 30
0.0
 10
107.8032389053409
 20
-135.7996351114494
 30
0.0
 10
107.6296060928843
 20
-135.6897365654699
 30
0.0
 10
107.6085910104242
 20
-135.5584784274819
 30
0.0
 10
107.5896429852554
 20
-135.4506469387936
 30
0.0
 10
107.5896429852554
 20
-135.4506469387936
 30
0.0
 10
107.8115071345055
 20
-135.4506469387936
 30
0.0
 10
107.8115071345055
 20
-135.4506469387936
 30
0.0
 10
107.8666286622695
 20
-135.6494289482925
 30
0.0
 10
107.9937526856752
 20
-135.6790567694657
 30
0.0
 10
108.0867702637769
 20
-135.6790567694657
 30
0.0
 10
108.2262966309295
 20
-135.6790567694657
 30
0.0
 10
108.3785698513776
 20
-135.5794935099419
 30
0.0
 10
108.3785698513776
 20
-135.3469495646876
 30
0.0
 10
108.3785698513776
 20
-135.0909789701335
 30
0.0
 10
108.1987358670475
 20
-135.0210435317829
 30
0.0
 10
108.0781575250638
 20
-135.0210435317829
 30
0.0
 10
108.0464626465995
 20
-135.0210435317829
 30
0.0
 10
107.9048692221557
 20
-135.0210435317829
 30
0.0
 10
107.8159857586363
 20
-135.1502346124798
 30
0.0
 10
107.8159857586363
 20
-135.1502346124798
 30
0.0
 10
107.6406303984371
 20
-135.1312865873109
 30
0.0
 10
107.6406303984371
 20
-135.1312865873109
 30
0.0
 10
107.6406303984371
 20
-135.1312865873109
 30
0.0
 10
107.7612087404208
 20
-134.284826626585
 30
0.0
 10
107.7612087404208
 20
-134.284826626585
 30
0.0
 10
107.7612087404208
 20
-134.284826626585
 30
0.0
 10
108.5394558105388
 20
-134.284826626585
 30
0.0
 10
108.5394558105388
 20
-134.284826626585
 30
0.0
 10
108.5394558105388
 20
-134.284826626585
 30
0.0
 10
108.5394558105388
 20
-134.4794745215017
 30
0.0
 10
108.5394558105388
 20
-134.4794745215017
 30
0.0
 10
108.5394558105388
 20
-134.4794745215017
 30
0.0
 10
107.9238172473246
 20
-134.4794745215017
 30
0.0
 10
107.9238172473246
 20
-134.4794745215017
 30
0.0
 10
107.9238172473246
 20
-134.4794745215017
 30
0.0
 10
107.8583604331049
 20
-134.9025322470903
 30
0.0
 10
107.8583604331049
 20
-134.9025322470903
 30
0.0
 10
107.9196831327423
 20
-134.8687703113349
 30
0.0
 10
108.0023654243883
 20
-134.8284626941575
 30
0.0
 10
108.1205321995324
 20
-134.8284626941575
 30
0.0
 10
108.3744357367953
 20
-134.8284626941575
 30
0.0
 10
108.6114583061805
 20
-135.0148423599095
 30
0.0
 10
108.6114583061805
 20
-135.3280015395187
 30
0.0
 10
108.6114583061805
 20
-135.6452948337102
 30
0.0
 10
108.3871825900907
 20
-135.8799058362557
 30
0.0
 10
108.0847032064858
 20
-135.8799058362557
 30
0.0
  0
HATCH
  5
CC
330
BB
100
AcDbEntity
  8
_U+30EC_U+30A4_U+30E4_U+30FC 1
 62
   179
420
  2234388
100
AcDbHatch
 10
0.0
 20
0.0
 30
0.0
210
0.0
220
0.0
230
1.0
  2
SOLID
 70
     1
 71
     0
 91
        1
 92
        1
 93
        1
 72
     4
 94
        3
 73
     0
 74
     1
 95
       53
 96
       49
 40
0.0
 40
0.0
 40
0.0
 40
0.0
 40
1.0
 40
1.0
 40
1.0
 40
2.0
 40
2.0
 40
2.0
 40
3.0
 40
3.0
 40
3.0
 40
4.0
 40
4.0
 40
4.0
 40
5.0
 40
5.0
 40
5.0
 40
6.0
 40
6.0
 40
6.0
 40
7.0
 40
7.0
 40
7.0
 40
8.0
 40
8.0
 40
8.0
 40
9.0
 40
9.0
 40
9.0
 40
10.0
 40
10.0
 40
10.0
 40
11.0
 40
11.0
 40
11.0
 40
12.0
 40
12.0
 40
12.0
 40
13.0
 40
13.0
 40
13.0
 40
14.0
 40
14.0
 40
14.0
 40
15.0
 40
15.0
 40
15.0
 40
16.0
 40
16.0
 40
16.0
 40
16.0
 10
108.0847032064858
 20
-135.8799058362557
 10
108.0064995389706
 20
-135.8799058362557
 10
107.9048692221557
 20
-135.863024868378
 10
107.8032389053409
 20
-135.7996351114494
 10
107.6296060928843
 20
-135.6897365654699
 10
107.6085910104242
 20
-135.5584784274819
 10
107.5896429852554
 20
-135.4506469387936
 10
107.5896429852554
 20
-135.4506469387936
 10
107.8115071345055
 20
-135.4506469387936
 10
107.8115071345055
 20
-135.4506469387936
 10
107.8666286622695
 20
-135.6494289482925
 10
107.9937526856752
 20
-135.6790567694657
 10
108.0867702637769
 20
-135.6790567694657
 10
108.2262966309295
 20
-135.6790567694657
 10
108.3785698513776
 20
-135.5794935099419
 10
108.3785698513776
 20
-135.3469495646876
 10
108.3785698513776
 20
-135.0909789701335
 10
108.1987358670475
 20
-135.0210435317829
 10
108.0781575250638
 20
-135.0210435317829
 10
108.0464626465995
 20
-135.0210435317829
 10
107.9048692221557
 20
-135.0210435317829
 10
107.8159857586363
 20
-135.1502346124798
 10
107.8159857586363
 20
-135.1502346124798
 10
107.6406303984371
 20
-135.1312865873109
 10
107.6406303984371
 20
-135.1312865873109
 10
107.6406303984371
 20
-135.1312865873109
 10
107.7612087404208
 20
-134.284826626585
 10
107.7612087404208
 20
-134.284826626585
 10
107.7612087404208
 20
-134.284826626585
 10
108.5394558105388
 20
-134.284826626585
 10
108.5394558105388
 20
-134.284826626585
 10
108.5394558105388
 20
-134.284826626585
 10
108.5394558105388
 20
-134.4794745215017
 10
108.5394558105388
 20
-134.4794745215017
 10
108.5394558105388
 20
-134.4794745215017
 10
107.9238172473246
 20
-134.4794745215017
 10
107.9238172473246
 20
-134.4794745215017
 10
107.9238172473246
 20
-134.4794745215017
 10
107.8583604331049
 20
-134.9025322470903
 10
107.8583604331049
 20
-134.9025322470903
 10
107.9196831327423
 20
-134.8687703113349
 10
108.0023654243883
 20
-134.8284626941575
 10
108.1205321995324
 20
-134.8284626941575
 10
108.3744357367953
 20
-134.8284626941575
 10
108.6114583061805
 20
-135.0148423599095
 10
108.6114583061805
 20
-135.3280015395187
 10
108.6114583061805
 20
-135.6452948337102
 10
108.3871825900907
 20
-135.8799058362557
 10
108.0847032064858
 20
-135.8799058362557
 97
        0
 97
        0
 75
     2
 76
     1
 98
        0
  0
ENDBLK
  5
BE
330
BB
100
AcDbEntity
  8
0
100
AcDbBlockEnd
  0
BLOCK
  5
D7
330
D5
100
AcDbEntity
  8
0
100
AcDbBlockBegin
  2
block 7
 70
     0
 10
0.0
 20
0.0
 30
0.0
  3
block 7
  1

  0
SPLINE
  5
D9
330
D5
100
AcDbEntity
  8
_U+30EC_U+30A4_U+30E4_U+30FC 1
370
     0
100
AcDbSpline
210
0.0
220
0.0
230
1.0
 70
    11
 71
     3
 72
    26
 73
    22
 74
     0
 42
0.0000000001
 43
0.0000000001
 12
1.0
 22
0.0
 32
0.0
 13
1.0
 23
0.0
 33
0.0
 40
0.0
 40
0.0
 40
0.0
 40
0.0
 40
1.0
 40
1.0
 40
1.0
 40
2.0
 40
2.0
 40
2.0
 40
3.0
 40
3.0
 40
3.0
 40
4.0
 40
4.0
 40
4.0
 40
5.0
 40
5.0
 40
5.0
 40
6.0
 40
6.0
 40
6.0
 40
7.0
 40
7.0
 40
7.0
 40
7.0
 10
94.74546574237266
 20
-161.3341660837984
 30
0.0
 10
94.74546574237266
 20
-161.3341660837984
 30
0.0
 10
94.74546574237266
 20
-160.2300129807758
 30
0.0
 10
94.74546574237266
 20
-160.2300129807758
 30
0.0
 10
94.74546574237266
 20
-160.2300129807758
 30
0.0
 10
94.41542559488573
 20
-160.2300129807758
 30
0.0
 10
94.41542559488573
 20
-160.2300129807758
 30
0.0
 10
94.41542559488573
 20
-160.2300129807758
 30
0.0
 10
94.41542559488573
 20
-160.0818738749101
 30
0.0
 10
94.41542559488573
 20
-160.0818738749101
 30
0.0
 10
94.74753279966382
 20
-160.0670599643235
 30
0.0
 10
94.79404158871469
 20
-159.9041069478712
 30
0.0
 10
94.82366940988784
 20
-159.7897297777609
 30
0.0
 10
94.82366940988784
 20
-159.7897297777609
 30
0.0
 10
94.96974145846244
 20
-159.7897297777609
 30
0.0
 10
94.96974145846244
 20
-159.7897297777609
 30
0.0
 10
94.96974145846244
 20
-159.7897297777609
 30
0.0
 10
94.96974145846244
 20
-161.3341660837984
 30
0.0
 10
94.96974145846244
 20
-161.3341660837984
 30
0.0
 10
94.96974145846244
 20
-161.3341660837984
 30
0.0
 10
94.74546574237266
 20
-161.3341660837984
 30
0.0
 10
94.74546574237266
 20
-161.3341660837984
 30
0.0
  0
HATCH
  5
DA
330
D5
100
AcDbEntity
  8
_U+30EC_U+30A4_U+30E4_U+30FC 1
 62
   179
420
  2234388
100
AcDbHatch
 10
0.0
 20
0.0
 30
0.0
210
0.0
220
0.0
230
1.0
  2
SOLID
 70
     1
 71
     0
 91
        1
 92
        1
 93
        1
 72
     4
 94
        3
 73
     0
 74
     1
 95
       26
 96
       22
 40
0.0
 40
0.0
 40
0.0
 40
0.0
 40
1.0
 40
1.0
 40
1.0
 40
2.0
 40
2.0
 40
2.0
 40
3.0
 40
3.0
 40
3.0
 40
4.0
 40
4.0
 40
4.0
 40
5.0
 40
5.0
 40
5.0
 40
6.0
 40
6.0
 40
6.0
 40
7.0
 40
7.0
 40
7.0
 40
7.0
 10
94.74546574237266
 20
-161.3341660837984
 10
94.74546574237266
 20
-161.3341660837984
 10
94.74546574237266
 20
-160.2300129807758
 10
94.74546574237266
 20
-160.2300129807758
 10
94.74546574237266
 20
-160.2300129807758
 10
94.41542559488573
 20
-160.2300129807758
 10
94.41542559488573
 20
-160.2300129807758
 10
94.41542559488573
 20
-160.2300129807758
 10
94.41542559488573
 20
-160.0818738749101
 10
94.41542559488573
 20
-160.0818738749101
 10
94.74753279966382
 20
-160.0670599643235
 10
94.79404158871469
 20
-159.9041069478712
 10
94.82366940988784
 20
-159.7897297777609
 10
94.82366940988784
 20
-159.7897297777609
 10
94.96974145846244
 20
-159.7897297777609
 10
94.96974145846244
 20
-159.7897297777609
 10
94.96974145846244
 20
-159.7897297777609
 10
94.96974145846244
 20
-161.3341660837984
 10
94.96974145846244
 20
-161.3341660837984
 10
94.96974145846244
 20
-161.3341660837984
 10
94.74546574237266
 20
-161.3341660837984
 10
94.74546574237266
 20
-161.3341660837984
 97
        0
 97
        0
 75
     2
 76
     1
 98
        0
  0
SPLINE
  5
DB
330
D5
100
AcDbEntity
  8
_U+30EC_U+30A4_U+30E4_U+30FC 1
370
     0
100
AcDbSpline
210
0.0
220
0.0
230
1.0
 70
    11
 71
     3
 72
    29
 73
    25
 74
     0
 42
0.0000000001
 43
0.0000000001
 12
1.0
 22
0.0
 32
0.0
 13
1.0
 23
0.0
 33
0.0
 40
0.0
 40
0.0
 40
0.0
 40
0.0
 40
1.0
 40
1.0
 40
1.0
 40
2.0
 40
2.0
 40
2.0
 40
3.0
 40
3.0
 40
3.0
 40
4.0
 40
4.0
 40
4.0
 40
5.0
 40
5.0
 40
5.0
 40
6.0
 40
6.0
 40
6.0
 40
7.0
 40
7.0
 40
7.0
 40
8.0
 40
8.0
 40
8.0
 40
8.0
 10
96.36862248024812
 20
-161.1563991567595
 30
0.0
 10
96.2607909915598
 20
-161.3658609622627
 30
0.0
 10
96.08733043387748
 20
-161.3848089874316
 30
0.0
 10
95.97088620647604
 20
-161.3848089874316
 30
0.0
 10
95.81017250208913
 20
-161.3848089874316
 30
0.0
 10
95.66840682287109
 20
-161.3383001983807
 30
0.0
 10
95.57314993270394
 20
-161.1563991567595
 30
0.0
 10
95.46962481337218
 20
-160.9617512618429
 30
0.0
 10
95.45050453342904
 20
-160.7247286924577
 30
0.0
 10
95.45050453342904
 20
-160.5621201855539
 30
0.0
 10
95.45050453342904
 20
-160.4181151942705
 30
0.0
 10
95.46738550130677
 20
-160.1662787142987
 30
0.0
 10
95.57314993270394
 20
-159.9674967047998
 30
0.0
 10
95.68115367616652
 20
-159.7645805807186
 30
0.0
 10
95.84186738055342
 20
-159.7411539314189
 30
0.0
 10
95.97088620647604
 20
-159.7411539314189
 30
0.0
 10
96.12953285357179
 20
-159.7411539314189
 30
0.0
 10
96.27336559008097
 20
-159.7855956631786
 30
0.0
 10
96.36862248024812
 20
-159.9674967047998
 30
0.0
 10
96.46801348499758
 20
-160.1600775424253
 30
0.0
 10
96.49126787952302
 20
-160.3884873730973
 30
0.0
 10
96.49126787952302
 20
-160.5621201855539
 30
0.0
 10
96.49126787952302
 20
-160.7333414311708
 30
0.0
 10
96.470252797063
 20
-160.963818319134
 30
0.0
 10
96.36862248024812
 20
-161.1563991567595
 30
0.0
  0
SPLINE
  5
DC
330
D5
100
AcDbEntity
  8
_U+30EC_U+30A4_U+30E4_U+30FC 1
370
     0
100
AcDbSpline
210
0.0
220
0.0
230
1.0
 70
    11
 71
     3
 72
    17
 73
    13
 74
     0
 42
0.0000000001
 43
0.0000000001
 12
1.0
 22
0.0
 32
0.0
 13
1.0
 23
0.0
 33
0.0
 40
0.0
 40
0.0
 40
0.0
 40
0.0
 40
1.0
 40
1.0
 40
1.0
 40
2.0
 40
2.0
 40
2.0
 40
3.0
 40
3.0
 40
3.0
 40
4.0
 40
4.0
 40
4.0
 40
4.0
 10
95.97088620647604
 20
-159.9337347690443
 30
0.0
 10
95.72128903856968
 20
-159.9337347690443
 30
0.0
 10
95.6747802495188
 20
-160.2172661274804
 30
0.0
 10
95.6747802495188
 20
-160.5621201855539
 30
0.0
 10
95.6747802495188
 20
-160.8814805370366
 30
0.0
 10
95.71078149733967
 20
-161.190161092515
 30
0.0
 10
95.97088620647604
 20
-161.190161092515
 30
0.0
 10
96.21841631709124
 20
-161.190161092515
 30
0.0
 10
96.26716441820751
 20
-160.9090413009186
 30
0.0
 10
96.26716441820751
 20
-160.5621201855539
 30
0.0
 10
96.26716441820751
 20
-160.2424153245227
 30
0.0
 10
96.22909611309551
 20
-159.9337347690443
 30
0.0
 10
95.97088620647604
 20
-159.9337347690443
 30
0.0
  0
HATCH
  5
DD
330
D5
100
AcDbEntity
  8
_U+30EC_U+30A4_U+30E4_U+30FC 1
 62
   179
420
  2234388
100
AcDbHatch
 10
0.0
 20
0.0
 30
0.0
210
0.0
220
0.0
230
1.0
  2
SOLID
 70
     1
 71
     0
 91
        2
 92
        1
 93
        1
 72
     4
 94
        3
 73
     0
 74
     1
 95
       29
 96
       25
 40
0.0
 40
0.0
 40
0.0
 40
0.0
 40
1.0
 40
1.0
 40
1.0
 40
2.0
 40
2.0
 40
2.0
 40
3.0
 40
3.0
 40
3.0
 40
4.0
 40
4.0
 40
4.0
 40
5.0
 40
5.0
 40
5.0
 40
6.0
 40
6.0
 40
6.0
 40
7.0
 40
7.0
 40
7.0
 40
8.0
 40
8.0
 40
8.0
 40
8.0
 10
96.36862248024812
 20
-161.1563991567595
 10
96.2607909915598
 20
-161.3658609622627
 10
96.08733043387748
 20
-161.3848089874316
 10
95.97088620647604
 20
-161.3848089874316
 10
95.81017250208913
 20
-161.3848089874316
 10
95.66840682287109
 20
-161.3383001983807
 10
95.57314993270394
 20
-161.1563991567595
 10
95.46962481337218
 20
-160.9617512618429
 10
95.45050453342904
 20
-160.7247286924577
 10
95.45050453342904
 20
-160.5621201855539
 10
95.45050453342904
 20
-160.4181151942705
 10
95.46738550130677
 20
-160.1662787142987
 10
95.57314993270394
 20
-159.9674967047998
 10
95.68115367616652
 20
-159.7645805807186
 10
95.84186738055342
 20
-159.7411539314189
 10
95.97088620647604
 20
-159.7411539314189
 10
96.12953285357179
 20
-159.7411539314189
 10
96.27336559008097
 20
-159.7855956631786
 10
96.36862248024812
 20
-159.9674967047998
 10
96.46801348499758
 20
-160.1600775424253
 10
96.49126787952302
 20
-160.3884873730973
 10
96.49126787952302
 20
-160.5621201855539
 10
96.49126787952302
 20
-160.7333414311708
 10
96.470252797063
 20
-160.963818319134
 10
96.36862248024812
 20
-161.1563991567595
 97
        0
 97
        0
 92
        1
 93
        1
 72
     4
 94
        3
 73
     0
 74
     1
 95
       17
 96
       13
 40
0.0
 40
0.0
 40
0.0
 40
0.0
 40
1.0
 40
1.0
 40
1.0
 40
2.0
 40
2.0
 40
2.0
 40
3.0
 40
3.0
 40
3.0
 40
4.0
 40
4.0
 40
4.0
 40
4.0
 10
95.97088620647604
 20
-159.9337347690443
 10
95.72128903856968
 20
-159.9337347690443
 10
95.6747802495188
 20
-160.2172661274804
 10
95.6747802495188
 20
-160.5621201855539
 10
95.6747802495188
 20
-160.8814805370366
 10
95.71078149733967
 20
-161.190161092515
 10
95.97088620647604
 20
-161.190161092515
 10
96.21841631709124
 20
-161.190161092515
 10
96.26716441820751
 20
-160.9090413009186
 10
96.26716441820751
 20
-160.5621201855539
 10
96.26716441820751
 20
-160.2424153245227
 10
96.22909611309551
 20
-159.9337347690443
 10
95.97088620647604
 20
-159.9337347690443
 97
        0
 97
        0
 75
     2
 76
     1
 98
        0
  0
ENDBLK
  5
D8
330
D5
100
AcDbEntity
  8
0
100
AcDbBlockEnd
  0
BLOCK
  5
ED
330
EB
100
AcDbEntity
  8
0
100
AcDbBlockBegin
  2
block 8
 70
     0
 10
0.0
 20
0.0
 30
0.0
  3
block 8
  1

  0
SPLINE
  5
EF
330
EB
100
AcDbEntity
  8
_U+30EC_U+30A4_U+30E4_U+30FC 1
370
     0
100
AcDbSpline
210
0.0
220
0.0
230
1.0
 70
    11
 71
     3
 72
    74
 73
    70
 74
     0
 42
0.0000000001
 43
0.0000000001
 12
1.0
 22
0.0
 32
0.0
 13
1.0
 23
0.0
 33
0.0
 40
0.0
 40
0.0
 40
0.0
 40
0.0
 40
1.0
 40
1.0
 40
1.0
 40
2.0
 40
2.0
 40
2.0
 40
3.0
 40
3.0
 40
3.0
 40
4.0
 40
4.0
 40
4.0
 40
5.0
 40
5.0
 40
5.0
 40
6.0
 40
6.0
 40
6.0
 40
7.0
 40
7.0
 40
7.0
 40
8.0
 40
8.0
 40
8.0
 40
9.0
 40
9.0
 40
9.0
 40
10.0
 40
10.0
 40
10.0
 40
11.0
 40
11.0
 40
11.0
 40
12.0
 40
12.0
 40
12.0
 40
13.0
 40
13.0
 40
13.0
 40
14.0
 40
14.0
 40
14.0
 40
15.0
 40
15.0
 40
15.0
 40
16.0
 40
16.0
 40
16.0
 40
17.0
 40
17.0
 40
17.0
 40
18.0
 40
18.0
 40
18.0
 40
19.0
 40
19.0
 40
19.0
 40
20.0
 40
20.0
 40
20.0
 40
21.0
 40
21.0
 40
21.0
 40
22.0
 40
22.0
 40
22.0
 40
23.0
 40
23.0
 40
23.0
 40
23.0
 10
114.4040418550796
 20
-144.7923678565971
 30
0.0
 10
113.7990830878697
 20
-144.7923678565971
 30
0.0
 10
113.7294921590676
 20
-144.6845363679087
 30
0.0
 10
113.7294921590676
 20
-144.3631089591349
 30
0.0
 10
113.7294921590676
 20
-144.3631089591349
 30
0.0
 10
113.7294921590676
 20
-143.7264553134607
 30
0.0
 10
113.7294921590676
 20
-143.7264553134607
 30
0.0
 10
113.7294921590676
 20
-143.578316207595
 30
0.0
 10
113.7294921590676
 20
-143.3940035991342
 30
0.0
 10
113.727080592228
 20
-143.2799709385724
 30
0.0
 10
113.7250135349368
 20
-143.2145141243526
 30
0.0
 10
113.7229464776457
 20
-143.1869533604706
 30
0.0
 10
113.7184678535148
 20
-143.1445786860021
 30
0.0
 10
113.7184678535148
 20
-143.1445786860021
 30
0.0
 10
113.9706488430351
 20
-143.1910874750529
 30
0.0
 10
113.9706488430351
 20
-143.1910874750529
 30
0.0
 10
114.0023437214994
 20
-143.1972886469264
 30
0.0
 10
114.0209472371198
 20
-143.1997002137661
 30
0.0
 10
114.0209472371198
 20
-143.2293280349392
 30
0.0
 10
114.0209472371198
 20
-143.2417303786861
 30
0.0
 10
114.0147460652463
 20
-143.2544772319815
 30
0.0
 10
114.0085448933729
 20
-143.2630899706946
 30
0.0
 10
113.9851182440732
 20
-143.2906507345766
 30
0.0
 10
113.9809841294909
 20
-143.294784849159
 30
0.0
 10
113.9661702189043
 20
-143.3202785557498
 30
0.0
 10
113.9596245374823
 20
-143.4005492805561
 30
0.0
 10
113.9430880791531
 20
-143.6692667284056
 30
0.0
 10
113.941021021862
 20
-143.7367905999165
 30
0.0
 10
113.941021021862
 20
-143.7367905999165
 30
0.0
 10
113.9386094550223
 20
-143.8215399488537
 30
0.0
 10
113.9386094550223
 20
-143.8215399488537
 30
0.0
 10
114.0636664211369
 20
-143.8194728915625
 30
0.0
 10
114.603168374127
 20
-143.6840806389922
 30
0.0
 10
114.9077148150231
 20
-143.5104478265356
 30
0.0
 10
114.9077148150231
 20
-143.5104478265356
 30
0.0
 10
115.030360214298
 20
-143.7240437466211
 30
0.0
 10
115.030360214298
 20
-143.7240437466211
 30
0.0
 10
115.0344943288803
 20
-143.7305894280431
 30
0.0
 10
115.0427625580449
 20
-143.7474703959208
 30
0.0
 10
115.0427625580449
 20
-143.758150191925
 30
0.0
 10
115.0427625580449
 20
-143.7684854783808
 30
0.0
 10
115.0344943288803
 20
-143.7791652743851
 30
0.0
 10
115.0090006222894
 20
-143.7791652743851
 30
0.0
 10
114.9965982785425
 20
-143.7791652743851
 30
0.0
 10
114.9859184825383
 20
-143.7791652743851
 30
0.0
 10
114.9583577186562
 20
-143.758150191925
 30
0.0
 10
114.5735405529538
 20
-143.8869967630734
 30
0.0
 10
114.4505506441304
 20
-143.9207586988288
 30
0.0
 10
114.3027560478132
 20
-143.950386520002
 30
0.0
 10
114.1797661389898
 20
-143.9758802265928
 30
0.0
 10
114.0126790079552
 20
-144.005508047766
 30
0.0
 10
113.9386094550223
 20
-144.0075751050571
 30
0.0
 10
113.9386094550223
 20
-144.0075751050571
 30
0.0
 10
113.9386094550223
 20
-144.3524291631306
 30
0.0
 10
113.9386094550223
 20
-144.3524291631306
 30
0.0
 10
113.9386094550223
 20
-144.3799899270126
 30
0.0
 10
113.9386094550223
 20
-144.4964341544141
 30
0.0
 10
113.9913194159466
 20
-144.536397262043
 30
0.0
 10
114.0802028794661
 20
-144.6042656431024
 30
0.0
 10
114.2834635130958
 20
-144.6149454391067
 30
0.0
 10
114.3978406832061
 20
-144.6149454391067
 30
0.0
 10
114.569061928823
 20
-144.6149454391067
 30
0.0
 10
114.9077148150231
 20
-144.5725707646381
 30
0.0
 10
115.0620550927623
 20
-144.5112480650007
 30
0.0
 10
115.0620550927623
 20
-144.5112480650007
 30
0.0
 10
115.0641221500534
 20
-144.743792010255
 30
0.0
 10
115.0641221500534
 20
-144.743792010255
 30
0.0
 10
114.8443250580945
 20
-144.7754868887193
 30
0.0
 10
114.624183456587
 20
-144.7923678565971
 30
0.0
 10
114.4040418550796
 20
-144.7923678565971
 30
0.0
  0
SPLINE
  5
F0
330
EB
100
AcDbEntity
  8
_U+30EC_U+30A4_U+30E4_U+30FC 1
370
     0
100
AcDbSpline
210
0.0
220
0.0
230
1.0
 70
    11
 71
     3
 72
    17
 73
    13
 74
     0
 42
0.0000000001
 43
0.0000000001
 12
1.0
 22
0.0
 32
0.0
 13
1.0
 23
0.0
 33
0.0
 40
0.0
 40
0.0
 40
0.0
 40
0.0
 40
1.0
 40
1.0
 40
1.0
 40
2.0
 40
2.0
 40
2.0
 40
3.0
 40
3.0
 40
3.0
 40
4.0
 40
4.0
 40
4.0
 40
4.0
 10
115.0007323931248
 20
-143.4408568977335
 30
0.0
 10
114.947677922652
 20
-143.370921459383
 30
0.0
 10
114.8270995806682
 20
-143.2820379958635
 30
0.0
 10
114.7468288558619
 20
-143.2462090028169
 30
0.0
 10
114.7468288558619
 20
-143.2462090028169
 30
0.0
 10
114.8398464339637
 20
-143.1276977181243
 30
0.0
 10
114.8398464339637
 20
-143.1276977181243
 30
0.0
 10
114.9307969547743
 20
-143.1614596538798
 30
0.0
 10
115.0344943288803
 20
-143.2437974359773
 30
0.0
 10
115.0999511431
 20
-143.3178669889101
 30
0.0
 10
115.0999511431
 20
-143.3178669889101
 30
0.0
 10
115.0007323931248
 20
-143.4408568977335
 30
0.0
 10
115.0007323931248
 20
-143.4408568977335
 30
0.0
  0
SPLINE
  5
F1
330
EB
100
AcDbEntity
  8
_U+30EC_U+30A4_U+30E4_U+30FC 1
370
     0
100
AcDbSpline
210
0.0
220
0.0
230
1.0
 70
    11
 71
     3
 72
    17
 73
    13
 74
     0
 42
0.0000000001
 43
0.0000000001
 12
1.0
 22
0.0
 32
0.0
 13
1.0
 23
0.0
 33
0.0
 40
0.0
 40
0.0
 40
0.0
 40
0.0
 40
1.0
 40
1.0
 40
1.0
 40
2.0
 40
2.0
 40
2.0
 40
3.0
 40
3.0
 40
3.0
 40
4.0
 40
4.0
 40
4.0
 40
4.0
 10
115.2715168982655
 20
-143.2651570279858
 30
0.0
 10
115.1657524668683
 20
-143.1700723925929
 30
0.0
 10
115.1612738427375
 20
-143.1700723925929
 30
0.0
 10
115.0110676795806
 20
-143.0746432476515
 30
0.0
 10
115.0110676795806
 20
-143.0746432476515
 30
0.0
 10
115.1126979963954
 20
-142.9561319629589
 30
0.0
 10
115.1126979963954
 20
-142.9561319629589
 30
0.0
 10
115.2122612559192
 20
-143.0005736947186
 30
0.0
 10
115.2777180701389
 20
-143.0494940506092
 30
0.0
 10
115.3686685909495
 20
-143.1487128005843
 30
0.0
 10
115.3686685909495
 20
-143.1487128005843
 30
0.0
 10
115.2715168982655
 20
-143.2651570279858
 30
0.0
 10
115.2715168982655
 20
-143.2651570279858
 30
0.0
  0
HATCH
  5
F2
330
EB
100
AcDbEntity
  8
_U+30EC_U+30A4_U+30E4_U+30FC 1
 62
   179
420
  2234388
100
AcDbHatch
 10
0.0
 20
0.0
 30
0.0
210
0.0
220
0.0
230
1.0
  2
SOLID
 70
     1
 71
     0
 91
        3
 92
        1
 93
        1
 72
     4
 94
        3
 73
     0
 74
     1
 95
       74
 96
       70
 40
0.0
 40
0.0
 40
0.0
 40
0.0
 40
1.0
 40
1.0
 40
1.0
 40
2.0
 40
2.0
 40
2.0
 40
3.0
 40
3.0
 40
3.0
 40
4.0
 40
4.0
 40
4.0
 40
5.0
 40
5.0
 40
5.0
 40
6.0
 40
6.0
 40
6.0
 40
7.0
 40
7.0
 40
7.0
 40
8.0
 40
8.0
 40
8.0
 40
9.0
 40
9.0
 40
9.0
 40
10.0
 40
10.0
 40
10.0
 40
11.0
 40
11.0
 40
11.0
 40
12.0
 40
12.0
 40
12.0
 40
13.0
 40
13.0
 40
13.0
 40
14.0
 40
14.0
 40
14.0
 40
15.0
 40
15.0
 40
15.0
 40
16.0
 40
16.0
 40
16.0
 40
17.0
 40
17.0
 40
17.0
 40
18.0
 40
18.0
 40
18.0
 40
19.0
 40
19.0
 40
19.0
 40
20.0
 40
20.0
 40
20.0
 40
21.0
 40
21.0
 40
21.0
 40
22.0
 40
22.0
 40
22.0
 40
23.0
 40
23.0
 40
23.0
 40
23.0
 10
114.4040418550796
 20
-144.7923678565971
 10
113.7990830878697
 20
-144.7923678565971
 10
113.7294921590676
 20
-144.6845363679087
 10
113.7294921590676
 20
-144.3631089591349
 10
113.7294921590676
 20
-144.3631089591349
 10
113.7294921590676
 20
-143.7264553134607
 10
113.7294921590676
 20
-143.7264553134607
 10
113.7294921590676
 20
-143.578316207595
 10
113.7294921590676
 20
-143.3940035991342
 10
113.727080592228
 20
-143.2799709385724
 10
113.7250135349368
 20
-143.2145141243526
 10
113.7229464776457
 20
-143.1869533604706
 10
113.7184678535148
 20
-143.1445786860021
 10
113.7184678535148
 20
-143.1445786860021
 10
113.9706488430351
 20
-143.1910874750529
 10
113.9706488430351
 20
-143.1910874750529
 10
114.0023437214994
 20
-143.1972886469264
 10
114.0209472371198
 20
-143.1997002137661
 10
114.0209472371198
 20
-143.2293280349392
 10
114.0209472371198
 20
-143.2417303786861
 10
114.0147460652463
 20
-143.2544772319815
 10
114.0085448933729
 20
-143.2630899706946
 10
113.9851182440732
 20
-143.2906507345766
 10
113.9809841294909
 20
-143.294784849159
 10
113.9661702189043
 20
-143.3202785557498
 10
113.9596245374823
 20
-143.4005492805561
 10
113.9430880791531
 20
-143.6692667284056
 10
113.941021021862
 20
-143.7367905999165
 10
113.941021021862
 20
-143.7367905999165
 10
113.9386094550223
 20
-143.8215399488537
 10
113.9386094550223
 20
-143.8215399488537
 10
114.0636664211369
 20
-143.8194728915625
 10
114.603168374127
 20
-143.6840806389922
 10
114.9077148150231
 20
-143.5104478265356
 10
114.9077148150231
 20
-143.5104478265356
 10
115.030360214298
 20
-143.7240437466211
 10
115.030360214298
 20
-143.7240437466211
 10
115.0344943288803
 20
-143.7305894280431
 10
115.0427625580449
 20
-143.7474703959208
 10
115.0427625580449
 20
-143.758150191925
 10
115.0427625580449
 20
-143.7684854783808
 10
115.0344943288803
 20
-143.7791652743851
 10
115.0090006222894
 20
-143.7791652743851
 10
114.9965982785425
 20
-143.7791652743851
 10
114.9859184825383
 20
-143.7791652743851
 10
114.9583577186562
 20
-143.758150191925
 10
114.5735405529538
 20
-143.8869967630734
 10
114.4505506441304
 20
-143.9207586988288
 10
114.3027560478132
 20
-143.950386520002
 10
114.1797661389898
 20
-143.9758802265928
 10
114.0126790079552
 20
-144.005508047766
 10
113.9386094550223
 20
-144.0075751050571
 10
113.9386094550223
 20
-144.0075751050571
 10
113.9386094550223
 20
-144.3524291631306
 10
113.9386094550223
 20
-144.3524291631306
 10
113.9386094550223
 20
-144.3799899270126
 10
113.9386094550223
 20
-144.4964341544141
 10
113.9913194159466
 20
-144.536397262043
 10
114.0802028794661
 20
-144.6042656431024
 10
114.2834635130958
 20
-144.6149454391067
 10
114.3978406832061
 20
-144.6149454391067
 10
114.569061928823
 20
-144.6149454391067
 10
114.9077148150231
 20
-144.5725707646381
 10
115.0620550927623
 20
-144.5112480650007
 10
115.0620550927623
 20
-144.5112480650007
 10
115.0641221500534
 20
-144.743792010255
 10
115.0641221500534
 20
-144.743792010255
 10
114.8443250580945
 20
-144.7754868887193
 10
114.624183456587
 20
-144.7923678565971
 10
114.4040418550796
 20
-144.7923678565971
 97
        0
 97
        0
 92
        1
 93
        1
 72
     4
 94
        3
 73
     0
 74
     1
 95
       17
 96
       13
 40
0.0
 40
0.0
 40
0.0
 40
0.0
 40
1.0
 40
1.0
 40
1.0
 40
2.0
 40
2.0
 40
2.0
 40
3.0
 40
3.0
 40
3.0
 40
4.0
 40
4.0
 40
4.0
 40
4.0
 10
115.0007323931248
 20
-143.4408568977335
 10
114.947677922652
 20
-143.370921459383
 10
114.8270995806682
 20
-143.2820379958635
 10
114.7468288558619
 20
-143.2462090028169
 10
114.7468288558619
 20
-143.2462090028169
 10
114.8398464339637
 20
-143.1276977181243
 10
114.8398464339637
 20
-143.1276977181243
 10
114.9307969547743
 20
-143.1614596538798
 10
115.0344943288803
 20
-143.2437974359773
 10
115.0999511431
 20
-143.3178669889101
 10
115.0999511431
 20
-143.3178669889101
 10
115.0007323931248
 20
-143.4408568977335
 10
115.0007323931248
 20
-143.4408568977335
 97
        0
 97
        0
 92
        1
 93
        1
 72
     4
 94
        3
 73
     0
 74
     1
 95
       17
 96
       13
 40
0.0
 40
0.0
 40
0.0
 40
0.0
 40
1.0
 40
1.0
 40
1.0
 40
2.0
 40
2.0
 40
2.0
 40
3.0
 40
3.0
 40
3.0
 40
4.0
 40
4.0
 40
4.0
 40
4.0
 10
115.2715168982655
 20
-143.2651570279858
 10
115.1657524668683
 20
-143.1700723925929
 10
115.1612738427375
 20
-143.1700723925929
 10
115.0110676795806
 20
-143.0746432476515
 10
115.0110676795806
 20
-143.0746432476515
 10
115.1126979963954
 20
-142.9561319629589
 10
115.1126979963954
 20
-142.9561319629589
 10
115.2122612559192
 20
-143.0005736947186
 10
115.2777180701389
 20
-143.0494940506092
 10
115.3686685909495
 20
-143.1487128005843
 10
115.3686685909495
 20
-143.1487128005843
 10
115.2715168982655
 20
-143.2651570279858
 10
115.2715168982655
 20
-143.2651570279858
 97
        0
 97
        0
 75
     2
 76
     1
 98
        0
  0
ENDBLK
  5
EE
330
EB
100
AcDbEntity
  8
0
100
AcDbBlockEnd
  0
BLOCK
  5
F5
330
F3
100
AcDbEntity
  8
0
100
AcDbBlockBegin
  2
block 9
 70
     0
 10
0.0
 20
0.0
 30
0.0
  3
block 9
  1

  0
SPLINE
  5
F7
330
F3
100
AcDbEntity
  8
_U+30EC_U+30A4_U+30E4_U+30FC 1
370
     0
100
AcDbSpline
210
0.0
220
0.0
230
1.0
 70
    11
 71
     3
 72
    56
 73
    52
 74
     0
 42
0.0000000001
 43
0.0000000001
 12
1.0
 22
0.0
 32
0.0
 13
1.0
 23
0.0
 33
0.0
 40
0.0
 40
0.0
 40
0.0
 40
0.0
 40
1.0
 40
1.0
 40
1.0
 40
2.0
 40
2.0
 40
2.0
 40
3.0
 40
3.0
 40
3.0
 40
4.0
 40
4.0
 40
4.0
 40
5.0
 40
5.0
 40
5.0
 40
6.0
 40
6.0
 40
6.0
 40
7.0
 40
7.0
 40
7.0
 40
8.0
 40
8.0
 40
8.0
 40
9.0
 40
9.0
 40
9.0
 40
10.0
 40
10.0
 40
10.0
 40
11.0
 40
11.0
 40
11.0
 40
12.0
 40
12.0
 40
12.0
 40
13.0
 40
13.0
 40
13.0
 40
14.0
 40
14.0
 40
14.0
 40
15.0
 40
15.0
 40
15.0
 40
16.0
 40
16.0
 40
16.0
 40
17.0
 40
17.0
 40
17.0
 40
17.0
 10
115.1192436778174
 20
-147.2859279688209
 30
0.0
 10
114.926662840192
 20
-146.9772474133425
 30
0.0
 10
114.6686251883467
 20
-146.7719197224216
 30
0.0
 10
114.5776746675361
 20
-146.7064629082019
 30
0.0
 10
114.2834635130958
 20
-147.0447712848534
 30
0.0
 10
113.9937309827863
 20
-147.1970445053014
 30
0.0
 10
113.7949489732874
 20
-147.2904065929517
 30
0.0
 10
113.7949489732874
 20
-147.2904065929517
 30
0.0
 10
113.6361300714174
 20
-147.1019598699085
 30
0.0
 10
113.6361300714174
 20
-147.1019598699085
 30
0.0
 10
113.7398274455234
 20
-147.0661308768619
 30
0.0
 10
113.9534233656089
 20
-146.9899942666379
 30
0.0
 10
114.1863118204118
 20
-146.8036146008859
 30
0.0
 10
114.4508951536789
 20
-146.5920857380916
 30
0.0
 10
114.6369303098824
 20
-146.3044202650732
 30
0.0
 10
114.7595757091573
 20
-145.991261085464
 30
0.0
 10
114.7595757091573
 20
-145.991261085464
 30
0.0
 10
114.3830267726195
 20
-145.991261085464
 30
0.0
 10
114.3830267726195
 20
-145.991261085464
 30
0.0
 10
114.230409042623
 20
-145.991261085464
 30
0.0
 10
114.0212917466683
 20
-145.9957397095948
 30
0.0
 10
113.8710855835114
 20
-146.0146877347637
 30
0.0
 10
113.8710855835114
 20
-146.0146877347637
 30
0.0
 10
113.8710855835114
 20
-145.8031588719693
 30
0.0
 10
113.8710855835114
 20
-145.8031588719693
 30
0.0
 10
113.9389539645708
 20
-145.8093600438428
 30
0.0
 10
114.1987141641587
 20
-145.8200398398471
 30
0.0
 10
114.285530570387
 20
-145.8200398398471
 30
0.0
 10
114.285530570387
 20
-145.8200398398471
 30
0.0
 10
114.596622692705
 20
-145.8200398398471
 30
0.0
 10
114.596622692705
 20
-145.8200398398471
 30
0.0
 10
114.8040174409171
 20
-145.8200398398471
 30
0.0
 10
114.8270995806682
 20
-145.8134941584251
 30
0.0
 10
114.8505262299679
 20
-145.8093600438428
 30
0.0
 10
114.8949679617277
 20
-145.8031588719693
 30
0.0
 10
114.9332085216139
 20
-145.7776651653785
 30
0.0
 10
114.9542236040739
 20
-145.7607841975008
 30
0.0
 10
114.9542236040739
 20
-145.7607841975008
 30
0.0
 10
115.1106309391043
 20
-145.9340725004089
 30
0.0
 10
115.1106309391043
 20
-145.9340725004089
 30
0.0
 10
115.0703233219269
 20
-145.9616332642908
 30
0.0
 10
115.05792097818
 20
-145.9723130602951
 30
0.0
 10
115.0090006222894
 20
-146.0081420533417
 30
0.0
 10
114.8801540511411
 20
-146.2558444187312
 30
0.0
 10
114.7995388167862
 20
-146.4060505818881
 30
0.0
 10
114.6961859522287
 20
-146.5521226304627
 30
0.0
 10
115.0090006222894
 20
-146.7698526651305
 30
0.0
 10
115.23775496251
 20
-147.0554510808577
 30
0.0
 10
115.2904649234343
 20
-147.1336547483728
 30
0.0
 10
115.2904649234343
 20
-147.1336547483728
 30
0.0
 10
115.1192436778174
 20
-147.2859279688209
 30
0.0
 10
115.1192436778174
 20
-147.2859279688209
 30
0.0
  0
HATCH
  5
F8
330
F3
100
AcDbEntity
  8
_U+30EC_U+30A4_U+30E4_U+30FC 1
 62
   179
420
  2234388
100
AcDbHatch
 10
0.0
 20
0.0
 30
0.0
210
0.0
220
0.0
230
1.0
  2
SOLID
 70
     1
 71
     0
 91
        1
 92
        1
 93
        1
 72
     4
 94
        3
 73
     0
 74
     1
 95
       56
 96
       52
 40
0.0
 40
0.0
 40
0.0
 40
0.0
 40
1.0
 40
1.0
 40
1.0
 40
2.0
 40
2.0
 40
2.0
 40
3.0
 40
3.0
 40
3.0
 40
4.0
 40
4.0
 40
4.0
 40
5.0
 40
5.0
 40
5.0
 40
6.0
 40
6.0
 40
6.0
 40
7.0
 40
7.0
 40
7.0
 40
8.0
 40
8.0
 40
8.0
 40
9.0
 40
9.0
 40
9.0
 40
10.0
 40
10.0
 40
10.0
 40
11.0
 40
11.0
 40
11.0
 40
12.0
 40
12.0
 40
12.0
 40
13.0
 40
13.0
 40
13.0
 40
14.0
 40
14.0
 40
14.0
 40
15.0
 40
15.0
 40
15.0
 40
16.0
 40
16.0
 40
16.0
 40
17.0
 40
17.0
 40
17.0
 40
17.0
 10
115.1192436778174
 20
-147.2859279688209
 10
114.926662840192
 20
-146.9772474133425
 10
114.6686251883467
 20
-146.7719197224216
 10
114.5776746675361
 20
-146.7064629082019
 10
114.2834635130958
 20
-147.0447712848534
 10
113.9937309827863
 20
-147.1970445053014
 10
113.7949489732874
 20
-147.2904065929517
 10
113.7949489732874
 20
-147.2904065929517
 10
113.6361300714174
 20
-147.1019598699085
 10
113.6361300714174
 20
-147.1019598699085
 10
113.7398274455234
 20
-147.0661308768619
 10
113.9534233656089
 20
-146.9899942666379
 10
114.1863118204118
 20
-146.8036146008859
 10
114.4508951536789
 20
-146.5920857380916
 10
114.6369303098824
 20
-146.3044202650732
 10
114.7595757091573
 20
-145.991261085464
 10
114.7595757091573
 20
-145.991261085464
 10
114.3830267726195
 20
-145.991261085464
 10
114.3830267726195
 20
-145.991261085464
 10
114.230409042623
 20
-145.991261085464
 10
114.0212917466683
 20
-145.9957397095948
 10
113.8710855835114
 20
-146.0146877347637
 10
113.8710855835114
 20
-146.0146877347637
 10
113.8710855835114
 20
-145.8031588719693
 10
113.8710855835114
 20
-145.8031588719693
 10
113.9389539645708
 20
-145.8093600438428
 10
114.1987141641587
 20
-145.8200398398471
 10
114.285530570387
 20
-145.8200398398471
 10
114.285530570387
 20
-145.8200398398471
 10
114.596622692705
 20
-145.8200398398471
 10
114.596622692705
 20
-145.8200398398471
 10
114.8040174409171
 20
-145.8200398398471
 10
114.8270995806682
 20
-145.8134941584251
 10
114.8505262299679
 20
-145.8093600438428
 10
114.8949679617277
 20
-145.8031588719693
 10
114.9332085216139
 20
-145.7776651653785
 10
114.9542236040739
 20
-145.7607841975008
 10
114.9542236040739
 20
-145.7607841975008
 10
115.1106309391043
 20
-145.9340725004089
 10
115.1106309391043
 20
-145.9340725004089
 10
115.0703233219269
 20
-145.9616332642908
 10
115.05792097818
 20
-145.9723130602951
 10
115.0090006222894
 20
-146.0081420533417
 10
114.8801540511411
 20
-146.2558444187312
 10
114.7995388167862
 20
-146.4060505818881
 10
114.6961859522287
 20
-146.5521226304627
 10
115.0090006222894
 20
-146.7698526651305
 10
115.23775496251
 20
-147.0554510808577
 10
115.2904649234343
 20
-147.1336547483728
 10
115.2904649234343
 20
-147.1336547483728
 10
115.1192436778174
 20
-147.2859279688209
 10
115.1192436778174
 20
-147.2859279688209
 97
        0
 97
        0
 75
     2
 76
     1
 98
        0
  0
ENDBLK
  5
F6
330
F3
100
AcDbEntity
  8
0
100
AcDbBlockEnd
  0
BLOCK
  5
FB
330
F9
100
AcDbEntity
  8
0
100
AcDbBlockBegin
  2
block 10
 70
     0
 10
0.0
 20
0.0
 30
0.0
  3
block 10
  1

  0
SPLINE
  5
FD
330
F9
100
AcDbEntity
  8
_U+30EC_U+30A4_U+30E4_U+30FC 1
370
     0
100
AcDbSpline
210
0.0
220
0.0
230
1.0
 70
    11
 71
     3
 72
    26
 73
    22
 74
     0
 42
0.0000000001
 43
0.0000000001
 12
1.0
 22
0.0
 32
0.0
 13
1.0
 23
0.0
 33
0.0
 40
0.0
 40
0.0
 40
0.0
 40
0.0
 40
1.0
 40
1.0
 40
1.0
 40
2.0
 40
2.0
 40
2.0
 40
3.0
 40
3.0
 40
3.0
 40
4.0
 40
4.0
 40
4.0
 40
5.0
 40
5.0
 40
5.0
 40
6.0
 40
6.0
 40
6.0
 40
7.0
 40
7.0
 40
7.0
 40
7.0
 10
114.3110242769778
 20
-149.08340653825
 30
0.0
 10
114.3089572196867
 20
-149.0854735955411
 30
0.0
 10
114.2751952839312
 20
-149.0920192769631
 30
0.0
 10
114.2731282266401
 20
-149.0920192769631
 30
0.0
 10
114.1904459349941
 20
-149.4217149149015
 30
0.0
 10
114.0147460652463
 20
-149.8258246153213
 30
0.0
 10
113.7019313951856
 20
-150.0122042810733
 30
0.0
 10
113.7019313951856
 20
-150.0122042810733
 30
0.0
 10
113.5155517294336
 20
-149.8599310606253
 30
0.0
 10
113.5155517294336
 20
-149.8599310606253
 30
0.0
 10
113.9809841294909
 20
-149.6311767204047
 30
0.0
 10
114.0615993638457
 20
-149.0982204488366
 30
0.0
 10
114.0891601277277
 20
-148.9142523499242
 30
0.0
 10
114.0891601277277
 20
-148.9142523499242
 30
0.0
 10
114.3068901623955
 20
-149.0134710998994
 30
0.0
 10
114.3068901623955
 20
-149.0134710998994
 30
0.0
 10
114.3279052448555
 20
-149.0241508959037
 30
0.0
 10
114.340652098151
 20
-149.0327636346168
 30
0.0
 10
114.340652098151
 20
-149.0517116597857
 30
0.0
 10
114.340652098151
 20
-149.0772053663765
 30
0.0
 10
114.3217040729821
 20
-149.0813394809588
 30
0.0
 10
114.3110242769778
 20
-149.08340653825
 30
0.0
  0
SPLINE
  5
FE
330
F9
100
AcDbEntity
  8
_U+30EC_U+30A4_U+30E4_U+30FC 1
370
     0
100
AcDbSpline
210
0.0
220
0.0
230
1.0
 70
    11
 71
     3
 72
    68
 73
    64
 74
     0
 42
0.0000000001
 43
0.0000000001
 12
1.0
 22
0.0
 32
0.0
 13
1.0
 23
0.0
 33
0.0
 40
0.0
 40
0.0
 40
0.0
 40
0.0
 40
1.0
 40
1.0
 40
1.0
 40
2.0
 40
2.0
 40
2.0
 40
3.0
 40
3.0
 40
3.0
 40
4.0
 40
4.0
 40
4.0
 40
5.0
 40
5.0
 40
5.0
 40
6.0
 40
6.0
 40
6.0
 40
7.0
 40
7.0
 40
7.0
 40
8.0
 40
8.0
 40
8.0
 40
9.0
 40
9.0
 40
9.0
 40
10.0
 40
10.0
 40
10.0
 40
11.0
 40
11.0
 40
11.0
 40
12.0
 40
12.0
 40
12.0
 40
13.0
 40
13.0
 40
13.0
 40
14.0
 40
14.0
 40
14.0
 40
15.0
 40
15.0
 40
15.0
 40
16.0
 40
16.0
 40
16.0
 40
17.0
 40
17.0
 40
17.0
 40
18.0
 40
18.0
 40
18.0
 40
19.0
 40
19.0
 40
19.0
 40
20.0
 40
20.0
 40
20.0
 40
21.0
 40
21.0
 40
21.0
 40
21.0
 10
115.1426703271171
 20
-148.8699828729387
 30
0.0
 10
115.1447373844083
 20
-148.8465562236391
 30
0.0
 10
115.1509385562817
 20
-148.7810994094193
 30
0.0
 10
115.1509385562817
 20
-148.7325235630773
 30
0.0
 10
115.1509385562817
 20
-148.7028957419041
 30
0.0
 10
115.1447373844083
 20
-148.5675034893338
 30
0.0
 10
115.1468044416994
 20
-148.5399427254518
 30
0.0
 10
115.1468044416994
 20
-148.5399427254518
 30
0.0
 10
113.7908148587051
 20
-148.5399427254518
 30
0.0
 10
113.7908148587051
 20
-148.5399427254518
 30
0.0
 10
113.7908148587051
 20
-148.563024865203
 30
0.0
 10
113.7949489732874
 20
-148.7959133200059
 30
0.0
 10
113.7949489732874
 20
-148.8021144918793
 30
0.0
 10
113.7949489732874
 20
-148.8296752557613
 30
0.0
 10
113.7970160305785
 20
-148.8486232809302
 30
0.0
 10
113.7990830878697
 20
-148.8780788473291
 30
0.0
 10
113.7990830878697
 20
-148.8780788473291
 30
0.0
 10
113.5641275757756
 20
-148.8780788473291
 30
0.0
 10
113.5641275757756
 20
-148.8780788473291
 30
0.0
 10
113.5682616903579
 20
-148.8403550517656
 30
0.0
 10
113.5706732571976
 20
-148.8214070265967
 30
0.0
 10
113.5727403144888
 20
-148.7683525561239
 30
0.0
 10
113.5748073717799
 20
-148.6539753860136
 30
0.0
 10
113.5748073717799
 20
-148.5675034893338
 30
0.0
 10
113.5748073717799
 20
-148.4300441794724
 30
0.0
 10
113.5748073717799
 20
-148.4086845874638
 30
0.0
 10
113.5748073717799
 20
-148.3897365622949
 30
0.0
 10
113.5727403144888
 20
-148.3473618878264
 30
0.0
 10
113.6488769247128
 20
-148.3494289451175
 30
0.0
 10
114.065733478428
 20
-148.3601087411218
 30
0.0
 10
114.0974283568923
 20
-148.3601087411218
 30
0.0
 10
114.0974283568923
 20
-148.3601087411218
 30
0.0
 10
114.3533989514464
 20
-148.3601087411218
 30
0.0
 10
114.3533989514464
 20
-148.3601087411218
 30
0.0
 10
114.3489203273156
 20
-148.1950886673783
 30
0.0
 10
114.3489203273156
 20
-148.1761406422094
 30
0.0
 10
114.3447862127333
 20
-148.1062052038589
 30
0.0
 10
114.3447862127333
 20
-148.1062052038589
 30
0.0
 10
114.5838758394096
 20
-148.1296318531586
 30
0.0
 10
114.5838758394096
 20
-148.1296318531586
 30
0.0
 10
114.6073024887093
 20
-148.1316989104497
 30
0.0
 10
114.6262505138782
 20
-148.1485798783274
 30
0.0
 10
114.6262505138782
 20
-148.1654608462052
 30
0.0
 10
114.6262505138782
 20
-148.1885429859563
 30
0.0
 10
114.6135036605827
 20
-148.1930216100872
 30
0.0
 10
114.5714734956627
 20
-148.2140366925472
 30
0.0
 10
114.5669948715319
 20
-148.2564113670158
 30
0.0
 10
114.5649278142407
 20
-148.3156670093621
 30
0.0
 10
114.5649278142407
 20
-148.3601087411218
 30
0.0
 10
114.5649278142407
 20
-148.3601087411218
 30
0.0
 10
114.8632730832634
 20
-148.3601087411218
 30
0.0
 10
114.8632730832634
 20
-148.3601087411218
 30
0.0
 10
114.8842881657234
 20
-148.3601087411218
 30
0.0
 10
115.1847004920372
 20
-148.3494289451175
 30
0.0
 10
115.3624674190761
 20
-148.3411607159529
 30
0.0
 10
115.3562662472026
 20
-148.3897365622949
 30
0.0
 10
115.3562662472026
 20
-148.4321112367635
 30
0.0
 10
115.3562662472026
 20
-148.4806870831055
 30
0.0
 10
115.3562662472026
 20
-148.5926526863761
 30
0.0
 10
115.3604003617849
 20
-148.7597398174108
 30
0.0
 10
115.3707356482407
 20
-148.8699828729387
 30
0.0
 10
115.3707356482407
 20
-148.8699828729387
 30
0.0
 10
115.1426703271171
 20
-148.8699828729387
 30
0.0
 10
115.1426703271171
 20
-148.8699828729387
 30
0.0
  0
SPLINE
  5
FF
330
F9
100
AcDbEntity
  8
_U+30EC_U+30A4_U+30E4_U+30FC 1
370
     0
100
AcDbSpline
210
0.0
220
0.0
230
1.0
 70
    11
 71
     3
 72
    32
 73
    28
 74
     0
 42
0.0000000001
 43
0.0000000001
 12
1.0
 22
0.0
 32
0.0
 13
1.0
 23
0.0
 33
0.0
 40
0.0
 40
0.0
 40
0.0
 40
0.0
 40
1.0
 40
1.0
 40
1.0
 40
2.0
 40
2.0
 40
2.0
 40
3.0
 40
3.0
 40
3.0
 40
4.0
 40
4.0
 40
4.0
 40
5.0
 40
5.0
 40
5.0
 40
6.0
 40
6.0
 40
6.0
 40
7.0
 40
7.0
 40
7.0
 40
8.0
 40
8.0
 40
8.0
 40
9.0
 40
9.0
 40
9.0
 40
9.0
 10
115.2039930267546
 20
-149.9994574277779
 30
0.0
 10
114.6431314817559
 20
-149.6608045415779
 30
0.0
 10
114.603168374127
 20
-149.1636772630563
 30
0.0
 10
114.5880099539919
 20
-148.9838432787263
 30
0.0
 10
114.5266872543544
 20
-148.9838432787263
 30
0.0
 10
114.4147216510838
 20
-148.9924560174394
 30
0.0
 10
114.3489203273156
 20
-148.9965901320217
 30
0.0
 10
114.3489203273156
 20
-148.9965901320217
 30
0.0
 10
114.3489203273156
 20
-148.7790323521282
 30
0.0
 10
114.3489203273156
 20
-148.7790323521282
 30
0.0
 10
114.395773625915
 20
-148.7831664667105
 30
0.0
 10
114.4612304401347
 20
-148.7893676385839
 30
0.0
 10
114.5776746675361
 20
-148.7893676385839
 30
0.0
 10
114.6982530095199
 20
-148.7893676385839
 30
0.0
 10
114.7447617985708
 20
-148.7831664667105
 30
0.0
 10
114.7995388167862
 20
-148.7745537279973
 30
0.0
 10
114.7954047022039
 20
-148.8317423130525
 30
0.0
 10
114.7933376449128
 20
-148.8699828729387
 30
0.0
 10
114.7933376449128
 20
-148.92458763638
 30
0.0
 10
114.7933376449128
 20
-149.0410318637814
 30
0.0
 10
114.7933376449128
 20
-149.2821885477489
 30
0.0
 10
114.9965982785425
 20
-149.5402261995941
 30
0.0
 10
115.106496824522
 20
-149.6800970762953
 30
0.0
 10
115.2673827836832
 20
-149.7793158262704
 30
0.0
 10
115.3879611256669
 20
-149.849251264621
 30
0.0
 10
115.3879611256669
 20
-149.849251264621
 30
0.0
 10
115.2039930267546
 20
-149.9994574277779
 30
0.0
 10
115.2039930267546
 20
-149.9994574277779
 30
0.0
  0
HATCH
  5
100
330
F9
100
AcDbEntity
  8
_U+30EC_U+30A4_U+30E4_U+30FC 1
 62
   179
420
  2234388
100
AcDbHatch
 10
0.0
 20
0.0
 30
0.0
210
0.0
220
0.0
230
1.0
  2
SOLID
 70
     1
 71
     0
 91
        3
 92
        1
 93
        1
 72
     4
 94
        3
 73
     0
 74
     1
 95
       26
 96
       22
 40
0.0
 40
0.0
 40
0.0
 40
0.0
 40
1.0
 40
1.0
 40
1.0
 40
2.0
 40
2.0
 40
2.0
 40
3.0
 40
3.0
 40
3.0
 40
4.0
 40
4.0
 40
4.0
 40
5.0
 40
5.0
 40
5.0
 40
6.0
 40
6.0
 40
6.0
 40
7.0
 40
7.0
 40
7.0
 40
7.0
 10
114.3110242769778
 20
-149.08340653825
 10
114.3089572196867
 20
-149.0854735955411
 10
114.2751952839312
 20
-149.0920192769631
 10
114.2731282266401
 20
-149.0920192769631
 10
114.1904459349941
 20
-149.4217149149015
 10
114.0147460652463
 20
-149.8258246153213
 10
113.7019313951856
 20
-150.0122042810733
 10
113.7019313951856
 20
-150.0122042810733
 10
113.5155517294336
 20
-149.8599310606253
 10
113.5155517294336
 20
-149.8599310606253
 10
113.9809841294909
 20
-149.6311767204047
 10
114.0615993638457
 20
-149.0982204488366
 10
114.0891601277277
 20
-148.9142523499242
 10
114.0891601277277
 20
-148.9142523499242
 10
114.3068901623955
 20
-149.0134710998994
 10
114.3068901623955
 20
-149.0134710998994
 10
114.3279052448555
 20
-149.0241508959037
 10
114.340652098151
 20
-149.0327636346168
 10
114.340652098151
 20
-149.0517116597857
 10
114.340652098151
 20
-149.0772053663765
 10
114.3217040729821
 20
-149.0813394809588
 10
114.3110242769778
 20
-149.08340653825
 97
        0
 97
        0
 92
        1
 93
        1
 72
     4
 94
        3
 73
     0
 74
     1
 95
       68
 96
       64
 40
0.0
 40
0.0
 40
0.0
 40
0.0
 40
1.0
 40
1.0
 40
1.0
 40
2.0
 40
2.0
 40
2.0
 40
3.0
 40
3.0
 40
3.0
 40
4.0
 40
4.0
 40
4.0
 40
5.0
 40
5.0
 40
5.0
 40
6.0
 40
6.0
 40
6.0
 40
7.0
 40
7.0
 40
7.0
 40
8.0
 40
8.0
 40
8.0
 40
9.0
 40
9.0
 40
9.0
 40
10.0
 40
10.0
 40
10.0
 40
11.0
 40
11.0
 40
11.0
 40
12.0
 40
12.0
 40
12.0
 40
13.0
 40
13.0
 40
13.0
 40
14.0
 40
14.0
 40
14.0
 40
15.0
 40
15.0
 40
15.0
 40
16.0
 40
16.0
 40
16.0
 40
17.0
 40
17.0
 40
17.0
 40
18.0
 40
18.0
 40
18.0
 40
19.0
 40
19.0
 40
19.0
 40
20.0
 40
20.0
 40
20.0
 40
21.0
 40
21.0
 40
21.0
 40
21.0
 10
115.1426703271171
 20
-148.8699828729387
 10
115.1447373844083
 20
-148.8465562236391
 10
115.1509385562817
 20
-148.7810994094193
 10
115.1509385562817
 20
-148.7325235630773
 10
115.1509385562817
 20
-148.7028957419041
 10
115.1447373844083
 20
-148.5675034893338
 10
115.1468044416994
 20
-148.5399427254518
 10
115.1468044416994
 20
-148.5399427254518
 10
113.7908148587051
 20
-148.5399427254518
 10
113.7908148587051
 20
-148.5399427254518
 10
113.7908148587051
 20
-148.563024865203
 10
113.7949489732874
 20
-148.7959133200059
 10
113.7949489732874
 20
-148.8021144918793
 10
113.7949489732874
 20
-148.8296752557613
 10
113.7970160305785
 20
-148.8486232809302
 10
113.7990830878697
 20
-148.8780788473291
 10
113.7990830878697
 20
-148.8780788473291
 10
113.5641275757756
 20
-148.8780788473291
 10
113.5641275757756
 20
-148.8780788473291
 10
113.5682616903579
 20
-148.8403550517656
 10
113.5706732571976
 20
-148.8214070265967
 10
113.5727403144888
 20
-148.7683525561239
 10
113.5748073717799
 20
-148.6539753860136
 10
113.5748073717799
 20
-148.5675034893338
 10
113.5748073717799
 20
-148.4300441794724
 10
113.5748073717799
 20
-148.4086845874638
 10
113.5748073717799
 20
-148.3897365622949
 10
113.5727403144888
 20
-148.3473618878264
 10
113.6488769247128
 20
-148.3494289451175
 10
114.065733478428
 20
-148.3601087411218
 10
114.0974283568923
 20
-148.3601087411218
 10
114.0974283568923
 20
-148.3601087411218
 10
114.3533989514464
 20
-148.3601087411218
 10
114.3533989514464
 20
-148.3601087411218
 10
114.3489203273156
 20
-148.1950886673783
 10
114.3489203273156
 20
-148.1761406422094
 10
114.3447862127333
 20
-148.1062052038589
 10
114.3447862127333
 20
-148.1062052038589
 10
114.5838758394096
 20
-148.1296318531586
 10
114.5838758394096
 20
-148.1296318531586
 10
114.6073024887093
 20
-148.1316989104497
 10
114.6262505138782
 20
-148.1485798783274
 10
114.6262505138782
 20
-148.1654608462052
 10
114.6262505138782
 20
-148.1885429859563
 10
114.6135036605827
 20
-148.1930216100872
 10
114.5714734956627
 20
-148.2140366925472
 10
114.5669948715319
 20
-148.2564113670158
 10
114.5649278142407
 20
-148.3156670093621
 10
114.5649278142407
 20
-148.3601087411218
 10
114.5649278142407
 20
-148.3601087411218
 10
114.8632730832634
 20
-148.3601087411218
 10
114.8632730832634
 20
-148.3601087411218
 10
114.8842881657234
 20
-148.3601087411218
 10
115.1847004920372
 20
-148.3494289451175
 10
115.3624674190761
 20
-148.3411607159529
 10
115.3562662472026
 20
-148.3897365622949
 10
115.3562662472026
 20
-148.4321112367635
 10
115.3562662472026
 20
-148.4806870831055
 10
115.3562662472026
 20
-148.5926526863761
 10
115.3604003617849
 20
-148.7597398174108
 10
115.3707356482407
 20
-148.8699828729387
 10
115.3707356482407
 20
-148.8699828729387
 10
115.1426703271171
 20
-148.8699828729387
 10
115.1426703271171
 20
-148.8699828729387
 97
        0
 97
        0
 92
        1
 93
        1
 72
     4
 94
        3
 73
     0
 74
     1
 95
       32
 96
       28
 40
0.0
 40
0.0
 40
0.0
 40
0.0
 40
1.0
 40
1.0
 40
1.0
 40
2.0
 40
2.0
 40
2.0
 40
3.0
 40
3.0
 40
3.0
 40
4.0
 40
4.0
 40
4.0
 40
5.0
 40
5.0
 40
5.0
 40
6.0
 40
6.0
 40
6.0
 40
7.0
 40
7.0
 40
7.0
 40
8.0
 40
8.0
 40
8.0
 40
9.0
 40
9.0
 40
9.0
 40
9.0
 10
115.2039930267546
 20
-149.9994574277779
 10
114.6431314817559
 20
-149.6608045415779
 10
114.603168374127
 20
-149.1636772630563
 10
114.5880099539919
 20
-148.9838432787263
 10
114.5266872543544
 20
-148.9838432787263
 10
114.4147216510838
 20
-148.9924560174394
 10
114.3489203273156
 20
-148.9965901320217
 10
114.3489203273156
 20
-148.9965901320217
 10
114.3489203273156
 20
-148.7790323521282
 10
114.3489203273156
 20
-148.7790323521282
 10
114.395773625915
 20
-148.7831664667105
 10
114.4612304401347
 20
-148.7893676385839
 10
114.5776746675361
 20
-148.7893676385839
 10
114.6982530095199
 20
-148.7893676385839
 10
114.7447617985708
 20
-148.7831664667105
 10
114.7995388167862
 20
-148.7745537279973
 10
114.7954047022039
 20
-148.8317423130525
 10
114.7933376449128
 20
-148.8699828729387
 10
114.7933376449128
 20
-148.92458763638
 10
114.7933376449128
 20
-149.0410318637814
 10
114.7933376449128
 20
-149.2821885477489
 10
114.9965982785425
 20
-149.5402261995941
 10
115.106496824522
 20
-149.6800970762953
 10
115.2673827836832
 20
-149.7793158262704
 10
115.3879611256669
 20
-149.849251264621
 10
115.3879611256669
 20
-149.849251264621
 10
115.2039930267546
 20
-149.9994574277779
 10
115.2039930267546
 20
-149.9994574277779
 97
        0
 97
        0
 75
     2
 76
     1
 98
        0
  0
ENDBLK
  5
FC
330
F9
100
AcDbEntity
  8
0
100
AcDbBlockEnd
  0
BLOCK
  5
103
330
101
100
AcDbEntity
  8
0
100
AcDbBlockBegin
  2
block 11
 70
     0
 10
0.0
 20
0.0
 30
0.0
  3
block 11
  1

  0
SPLINE
  5
105
330
101
100
AcDbEntity
  8
_U+30EC_U+30A4_U+30E4_U+30FC 1
370
     0
100
AcDbSpline
210
0.0
220
0.0
230
1.0
 70
    11
 71
     3
 72
    35
 73
    31
 74
     0
 42
0.0000000001
 43
0.0000000001
 12
1.0
 22
0.0
 32
0.0
 13
1.0
 23
0.0
 33
0.0
 40
0.0
 40
0.0
 40
0.0
 40
0.0
 40
1.0
 40
1.0
 40
1.0
 40
2.0
 40
2.0
 40
2.0
 40
3.0
 40
3.0
 40
3.0
 40
4.0
 40
4.0
 40
4.0
 40
5.0
 40
5.0
 40
5.0
 40
6.0
 40
6.0
 40
6.0
 40
7.0
 40
7.0
 40
7.0
 40
8.0
 40
8.0
 40
8.0
 40
9.0
 40
9.0
 40
9.0
 40
10.0
 40
10.0
 40
10.0
 40
10.0
 10
108.9173827852707
 20
-145.1995781429536
 30
0.0
 10
108.9173827852707
 20
-145.1995781429536
 30
0.0
 10
108.8667398816375
 20
-145.4638169666723
 30
0.0
 10
108.8667398816375
 20
-145.4638169666723
 30
0.0
 10
109.0062662487901
 20
-145.4765638199677
 30
0.0
 10
109.3342393389859
 20
-145.5675143407783
 30
0.0
 10
109.3342393389859
 20
-145.9588771879027
 30
0.0
 10
109.3342393389859
 20
-146.4370564412553
 30
0.0
 10
108.9280625812749
 20
-146.5617688978214
 30
0.0
 10
108.653143961552
 20
-146.5617688978214
 30
0.0
 10
108.653143961552
 20
-146.5617688978214
 30
0.0
 10
108.5852755804926
 20
-146.915235694608
 30
0.0
 10
108.5852755804926
 20
-146.915235694608
 30
0.0
 10
108.5852755804926
 20
-146.915235694608
 30
0.0
 10
108.3778808322805
 20
-146.915235694608
 30
0.0
 10
108.3778808322805
 20
-146.915235694608
 30
0.0
 10
108.3778808322805
 20
-146.915235694608
 30
0.0
 10
108.4502278374708
 20
-146.5469549872348
 30
0.0
 10
108.4502278374708
 20
-146.5469549872348
 30
0.0
 10
108.3420518392339
 20
-146.5280069620659
 30
0.0
 10
107.990996609287
 20
-146.4666842624285
 30
0.0
 10
107.990996609287
 20
-146.0498277087133
 30
0.0
 10
107.990996609287
 20
-145.6016207860822
 30
0.0
 10
108.3461859538162
 20
-145.4514146229253
 30
0.0
 10
108.6617567002651
 20
-145.4514146229253
 30
0.0
 10
108.6617567002651
 20
-145.4514146229253
 30
0.0
 10
108.7103325466071
 20
-145.1995781429536
 30
0.0
 10
108.7103325466071
 20
-145.1995781429536
 30
0.0
 10
108.7103325466071
 20
-145.1995781429536
 30
0.0
 10
108.9173827852707
 20
-145.1995781429536
 30
0.0
 10
108.9173827852707
 20
-145.1995781429536
 30
0.0
  0
SPLINE
  5
106
330
101
100
AcDbEntity
  8
_U+30EC_U+30A4_U+30E4_U+30FC 1
370
     0
100
AcDbSpline
210
0.0
220
0.0
230
1.0
 70
    11
 71
     3
 72
    14
 73
    10
 74
     0
 42
0.0000000001
 43
0.0000000001
 12
1.0
 22
0.0
 32
0.0
 13
1.0
 23
0.0
 33
0.0
 40
0.0
 40
0.0
 40
0.0
 40
0.0
 40
1.0
 40
1.0
 40
1.0
 40
2.0
 40
2.0
 40
2.0
 40
3.0
 40
3.0
 40
3.0
 40
3.0
 10
108.6279947645097
 20
-145.6247029258334
 30
0.0
 10
108.5074164225259
 20
-145.6333156645465
 30
0.0
 10
108.2132052680856
 20
-145.6563978042977
 30
0.0
 10
108.2132052680856
 20
-146.0543063328441
 30
0.0
 10
108.2132052680856
 20
-146.1176960897727
 30
0.0
 10
108.2132052680856
 20
-146.3312920098581
 30
0.0
 10
108.4819227159351
 20
-146.3757337416179
 30
0.0
 10
108.4819227159351
 20
-146.3757337416179
 30
0.0
 10
108.6279947645097
 20
-145.6247029258334
 30
0.0
 10
108.6279947645097
 20
-145.6247029258334
 30
0.0
  0
SPLINE
  5
107
330
101
100
AcDbEntity
  8
_U+30EC_U+30A4_U+30E4_U+30FC 1
370
     0
100
AcDbSpline
210
0.0
220
0.0
230
1.0
 70
    11
 71
     3
 72
    14
 73
    10
 74
     0
 42
0.0000000001
 43
0.0000000001
 12
1.0
 22
0.0
 32
0.0
 13
1.0
 23
0.0
 33
0.0
 40
0.0
 40
0.0
 40
0.0
 40
0.0
 40
1.0
 40
1.0
 40
1.0
 40
2.0
 40
2.0
 40
2.0
 40
3.0
 40
3.0
 40
3.0
 40
3.0
 10
108.6893174641471
 20
-146.384346480331
 30
0.0
 10
108.8712185057683
 20
-146.3798678562002
 30
0.0
 10
109.1144422470269
 20
-146.2995971313939
 30
0.0
 10
109.1144422470269
 20
-145.9440632773161
 30
0.0
 10
109.1144422470269
 20
-145.8510456992143
 30
0.0
 10
109.1016953937315
 20
-145.6629434857197
 30
0.0
 10
108.8309108885909
 20
-145.6353827218377
 30
0.0
 10
108.8309108885909
 20
-145.6353827218377
 30
0.0
 10
108.6893174641471
 20
-146.384346480331
 30
0.0
 10
108.6893174641471
 20
-146.384346480331
 30
0.0
  0
HATCH
  5
108
330
101
100
AcDbEntity
  8
_U+30EC_U+30A4_U+30E4_U+30FC 1
 62
   179
420
  2234388
100
AcDbHatch
 10
0.0
 20
0.0
 30
0.0
210
0.0
220
0.0
230
1.0
  2
SOLID
 70
     1
 71
     0
 91
        3
 92
        1
 93
        1
 72
     4
 94
        3
 73
     0
 74
     1
 95
       35
 96
       31
 40
0.0
 40
0.0
 40
0.0
 40
0.0
 40
1.0
 40
1.0
 40
1.0
 40
2.0
 40
2.0
 40
2.0
 40
3.0
 40
3.0
 40
3.0
 40
4.0
 40
4.0
 40
4.0
 40
5.0
 40
5.0
 40
5.0
 40
6.0
 40
6.0
 40
6.0
 40
7.0
 40
7.0
 40
7.0
 40
8.0
 40
8.0
 40
8.0
 40
9.0
 40
9.0
 40
9.0
 40
10.0
 40
10.0
 40
10.0
 40
10.0
 10
108.9173827852707
 20
-145.1995781429536
 10
108.9173827852707
 20
-145.1995781429536
 10
108.8667398816375
 20
-145.4638169666723
 10
108.8667398816375
 20
-145.4638169666723
 10
109.0062662487901
 20
-145.4765638199677
 10
109.3342393389859
 20
-145.5675143407783
 10
109.3342393389859
 20
-145.9588771879027
 10
109.3342393389859
 20
-146.4370564412553
 10
108.9280625812749
 20
-146.5617688978214
 10
108.653143961552
 20
-146.5617688978214
 10
108.653143961552
 20
-146.5617688978214
 10
108.5852755804926
 20
-146.915235694608
 10
108.5852755804926
 20
-146.915235694608
 10
108.5852755804926
 20
-146.915235694608
 10
108.3778808322805
 20
-146.915235694608
 10
108.3778808322805
 20
-146.915235694608
 10
108.3778808322805
 20
-146.915235694608
 10
108.4502278374708
 20
-146.5469549872348
 10
108.4502278374708
 20
-146.5469549872348
 10
108.3420518392339
 20
-146.5280069620659
 10
107.990996609287
 20
-146.4666842624285
 10
107.990996609287
 20
-146.0498277087133
 10
107.990996609287
 20
-145.6016207860822
 10
108.3461859538162
 20
-145.4514146229253
 10
108.6617567002651
 20
-145.4514146229253
 10
108.6617567002651
 20
-145.4514146229253
 10
108.7103325466071
 20
-145.1995781429536
 10
108.7103325466071
 20
-145.1995781429536
 10
108.7103325466071
 20
-145.1995781429536
 10
108.9173827852707
 20
-145.1995781429536
 10
108.9173827852707
 20
-145.1995781429536
 97
        0
 97
        0
 92
        1
 93
        1
 72
     4
 94
        3
 73
     0
 74
     1
 95
       14
 96
       10
 40
0.0
 40
0.0
 40
0.0
 40
0.0
 40
1.0
 40
1.0
 40
1.0
 40
2.0
 40
2.0
 40
2.0
 40
3.0
 40
3.0
 40
3.0
 40
3.0
 10
108.6279947645097
 20
-145.6247029258334
 10
108.5074164225259
 20
-145.6333156645465
 10
108.2132052680856
 20
-145.6563978042977
 10
108.2132052680856
 20
-146.0543063328441
 10
108.2132052680856
 20
-146.1176960897727
 10
108.2132052680856
 20
-146.3312920098581
 10
108.4819227159351
 20
-146.3757337416179
 10
108.4819227159351
 20
-146.3757337416179
 10
108.6279947645097
 20
-145.6247029258334
 10
108.6279947645097
 20
-145.6247029258334
 97
        0
 97
        0
 92
        1
 93
        1
 72
     4
 94
        3
 73
     0
 74
     1
 95
       14
 96
       10
 40
0.0
 40
0.0
 40
0.0
 40
0.0
 40
1.0
 40
1.0
 40
1.0
 40
2.0
 40
2.0
 40
2.0
 40
3.0
 40
3.0
 40
3.0
 40
3.0
 10
108.6893174641471
 20
-146.384346480331
 10
108.8712185057683
 20
-146.3798678562002
 10
109.1144422470269
 20
-146.2995971313939
 10
109.1144422470269
 20
-145.9440632773161
 10
109.1144422470269
 20
-145.8510456992143
 10
109.1016953937315
 20
-145.6629434857197
 10
108.8309108885909
 20
-145.6353827218377
 10
108.8309108885909
 20
-145.6353827218377
 10
108.6893174641471
 20
-146.384346480331
 10
108.6893174641471
 20
-146.384346480331
 97
        0
 97
        0
 75
     2
 76
     1
 98
        0
  0
SPLINE
  5
109
330
101
100
AcDbEntity
  8
_U+30EC_U+30A4_U+30E4_U+30FC 1
370
     0
100
AcDbSpline
210
0.0
220
0.0
230
1.0
 70
    11
 71
     3
 72
    62
 73
    58
 74
     0
 42
0.0000000001
 43
0.0000000001
 12
1.0
 22
0.0
 32
0.0
 13
1.0
 23
0.0
 33
0.0
 40
0.0
 40
0.0
 40
0.0
 40
0.0
 40
1.0
 40
1.0
 40
1.0
 40
2.0
 40
2.0
 40
2.0
 40
3.0
 40
3.0
 40
3.0
 40
4.0
 40
4.0
 40
4.0
 40
5.0
 40
5.0
 40
5.0
 40
6.0
 40
6.0
 40
6.0
 40
7.0
 40
7.0
 40
7.0
 40
8.0
 40
8.0
 40
8.0
 40
9.0
 40
9.0
 40
9.0
 40
10.0
 40
10.0
 40
10.0
 40
11.0
 40
11.0
 40
11.0
 40
12.0
 40
12.0
 40
12.0
 40
13.0
 40
13.0
 40
13.0
 40
14.0
 40
14.0
 40
14.0
 40
15.0
 40
15.0
 40
15.0
 40
16.0
 40
16.0
 40
16.0
 40
17.0
 40
17.0
 40
17.0
 40
18.0
 40
18.0
 40
18.0
 40
19.0
 40
19.0
 40
19.0
 40
19.0
 10
110.0377278370739
 20
-146.6210245401677
 30
0.0
 10
109.942643201681
 20
-146.6210245401677
 30
0.0
 10
109.7245686574647
 20
-146.6000094577076
 30
0.0
 10
109.5998562008987
 20
-146.4139743015041
 30
0.0
 10
109.5257866479658
 20
-146.301664188685
 30
0.0
 10
109.5216525333835
 20
-146.2024454387098
 30
0.0
 10
109.5175184188012
 20
-146.1176960897727
 30
0.0
 10
109.5175184188012
 20
-146.1176960897727
 30
0.0
 10
109.7373155107601
 20
-146.1176960897727
 30
0.0
 10
109.7373155107601
 20
-146.1176960897727
 30
0.0
 10
109.7393825680513
 20
-146.1917656427055
 30
0.0
 10
109.7500623640556
 20
-146.4263766452511
 30
0.0
 10
110.0335937224916
 20
-146.4263766452511
 30
0.0
 10
110.1710530323531
 20
-146.4263766452511
 30
0.0
 10
110.3233262528011
 20
-146.356785716449
 30
0.0
 10
110.3233262528011
 20
-146.1283758857769
 30
0.0
 10
110.3233262528011
 20
-146.0119316583755
 30
0.0
 10
110.2850856929148
 20
-145.9633558120335
 30
0.0
 10
110.2533908144505
 20
-145.9316609335692
 30
0.0
 10
110.1796657710662
 20
-145.8575913806363
 30
0.0
 10
110.0632215436648
 20
-145.8448445273409
 30
0.0
 10
110.0081000159008
 20
-145.8448445273409
 30
0.0
 10
109.9891519907319
 20
-145.8448445273409
 30
0.0
 10
109.9529784881368
 20
-145.846911584632
 30
0.0
 10
109.9254177242548
 20
-145.8510456992143
 30
0.0
 10
109.9254177242548
 20
-145.8510456992143
 30
0.0
 10
109.9254177242548
 20
-145.6563978042977
 30
0.0
 10
109.9254177242548
 20
-145.6563978042977
 30
0.0
 10
109.963658284141
 20
-145.6629434857197
 30
0.0
 10
110.0060329586096
 20
-145.6650105430109
 30
0.0
 10
110.0122341304831
 20
-145.6650105430109
 30
0.0
 10
110.0776909447028
 20
-145.6650105430109
 30
0.0
 10
110.2768174637502
 20
-145.6436509510023
 30
0.0
 10
110.2768174637502
 20
-145.4069728911656
 30
0.0
 10
110.2768174637502
 20
-145.2292059641267
 30
0.0
 10
110.1455593257622
 20
-145.1740844363627
 30
0.0
 10
110.0356607797828
 20
-145.1740844363627
 30
0.0
 10
109.7710774465156
 20
-145.1740844363627
 30
0.0
 10
109.762809217351
 20
-145.4069728911656
 30
0.0
 10
109.7586751027687
 20
-145.4786308772588
 30
0.0
 10
109.7586751027687
 20
-145.4786308772588
 30
0.0
 10
109.5554144691389
 20
-145.4786308772588
 30
0.0
 10
109.5554144691389
 20
-145.4786308772588
 30
0.0
 10
109.5636826983035
 20
-145.3539184206928
 30
0.0
 10
109.5912434621855
 20
-144.977369484155
 30
0.0
 10
110.0480631235297
 20
-144.977369484155
 30
0.0
 10
110.2726833491679
 20
-144.977369484155
 30
0.0
 10
110.5138400331354
 20
-145.1044935075607
 30
0.0
 10
110.5138400331354
 20
-145.4004272097436
 30
0.0
 10
110.5138400331354
 20
-145.5868068754957
 30
0.0
 10
110.4187553977425
 20
-145.6691446575931
 30
0.0
 10
110.3188476286703
 20
-145.7304673572306
 30
0.0
 10
110.3805148378563
 20
-145.7580281211126
 30
0.0
 10
110.5624158794775
 20
-145.8382988459189
 30
0.0
 10
110.5624158794775
 20
-146.1156290324815
 30
0.0
 10
110.5624158794775
 20
-146.4539374091331
 30
0.0
 10
110.314713514088
 20
-146.6210245401677
 30
0.0
 10
110.0377278370739
 20
-146.6210245401677
 30
0.0
  0
HATCH
  5
10A
330
101
100
AcDbEntity
  8
_U+30EC_U+30A4_U+30E4_U+30FC 1
 62
   179
420
  2234388
100
AcDbHatch
 10
0.0
 20
0.0
 30
0.0
210
0.0
220
0.0
230
1.0
  2
SOLID
 70
     1
 71
     0
 91
        1
 92
        1
 93
        1
 72
     4
 94
        3
 73
     0
 74
     1
 95
       62
 96
       58
 40
0.0
 40
0.0
 40
0.0
 40
0.0
 40
1.0
 40
1.0
 40
1.0
 40
2.0
 40
2.0
 40
2.0
 40
3.0
 40
3.0
 40
3.0
 40
4.0
 40
4.0
 40
4.0
 40
5.0
 40
5.0
 40
5.0
 40
6.0
 40
6.0
 40
6.0
 40
7.0
 40
7.0
 40
7.0
 40
8.0
 40
8.0
 40
8.0
 40
9.0
 40
9.0
 40
9.0
 40
10.0
 40
10.0
 40
10.0
 40
11.0
 40
11.0
 40
11.0
 40
12.0
 40
12.0
 40
12.0
 40
13.0
 40
13.0
 40
13.0
 40
14.0
 40
14.0
 40
14.0
 40
15.0
 40
15.0
 40
15.0
 40
16.0
 40
16.0
 40
16.0
 40
17.0
 40
17.0
 40
17.0
 40
18.0
 40
18.0
 40
18.0
 40
19.0
 40
19.0
 40
19.0
 40
19.0
 10
110.0377278370739
 20
-146.6210245401677
 10
109.942643201681
 20
-146.6210245401677
 10
109.7245686574647
 20
-146.6000094577076
 10
109.5998562008987
 20
-146.4139743015041
 10
109.5257866479658
 20
-146.301664188685
 10
109.5216525333835
 20
-146.2024454387098
 10
109.5175184188012
 20
-146.1176960897727
 10
109.5175184188012
 20
-146.1176960897727
 10
109.7373155107601
 20
-146.1176960897727
 10
109.7373155107601
 20
-146.1176960897727
 10
109.7393825680513
 20
-146.1917656427055
 10
109.7500623640556
 20
-146.4263766452511
 10
110.0335937224916
 20
-146.4263766452511
 10
110.1710530323531
 20
-146.4263766452511
 10
110.3233262528011
 20
-146.356785716449
 10
110.3233262528011
 20
-146.1283758857769
 10
110.3233262528011
 20
-146.0119316583755
 10
110.2850856929148
 20
-145.9633558120335
 10
110.2533908144505
 20
-145.9316609335692
 10
110.1796657710662
 20
-145.8575913806363
 10
110.0632215436648
 20
-145.8448445273409
 10
110.0081000159008
 20
-145.8448445273409
 10
109.9891519907319
 20
-145.8448445273409
 10
109.9529784881368
 20
-145.846911584632
 10
109.9254177242548
 20
-145.8510456992143
 10
109.9254177242548
 20
-145.8510456992143
 10
109.9254177242548
 20
-145.6563978042977
 10
109.9254177242548
 20
-145.6563978042977
 10
109.963658284141
 20
-145.6629434857197
 10
110.0060329586096
 20
-145.6650105430109
 10
110.0122341304831
 20
-145.6650105430109
 10
110.0776909447028
 20
-145.6650105430109
 10
110.2768174637502
 20
-145.6436509510023
 10
110.2768174637502
 20
-145.4069728911656
 10
110.2768174637502
 20
-145.2292059641267
 10
110.1455593257622
 20
-145.1740844363627
 10
110.0356607797828
 20
-145.1740844363627
 10
109.7710774465156
 20
-145.1740844363627
 10
109.762809217351
 20
-145.4069728911656
 10
109.7586751027687
 20
-145.4786308772588
 10
109.7586751027687
 20
-145.4786308772588
 10
109.5554144691389
 20
-145.4786308772588
 10
109.5554144691389
 20
-145.4786308772588
 10
109.5636826983035
 20
-145.3539184206928
 10
109.5912434621855
 20
-144.977369484155
 10
110.0480631235297
 20
-144.977369484155
 10
110.2726833491679
 20
-144.977369484155
 10
110.5138400331354
 20
-145.1044935075607
 10
110.5138400331354
 20
-145.4004272097436
 10
110.5138400331354
 20
-145.5868068754957
 10
110.4187553977425
 20
-145.6691446575931
 10
110.3188476286703
 20
-145.7304673572306
 10
110.3805148378563
 20
-145.7580281211126
 10
110.5624158794775
 20
-145.8382988459189
 10
110.5624158794775
 20
-146.1156290324815
 10
110.5624158794775
 20
-146.4539374091331
 10
110.314713514088
 20
-146.6210245401677
 10
110.0377278370739
 20
-146.6210245401677
 97
        0
 97
        0
 75
     2
 76
     1
 98
        0
  0
POLYLINE
  5
10B
330
101
100
AcDbEntity
  8
_U+30EC_U+30A4_U+30E4_U+30FC 1
370
     0
100
AcDb2dPolyline
 66
     1
 10
0.0
 20
0.0
 30
0.0
  0
VERTEX
  5
10C
330
10B
100
AcDbEntity
  8
_U+30EC_U+30A4_U+30E4_U+30FC 1
370
     0
100
AcDbVertex
100
AcDb2dVertex
 10
110.783246500082
 20
-146.5703816365345
 30
0.0
  0
VERTEX
  5
10D
330
10B
100
AcDbEntity
  8
_U+30EC_U+30A4_U+30E4_U+30FC 1
370
     0
100
AcDbVertex
100
AcDb2dVertex
 10
110.783246500082
 20
-146.3185451565627
 30
0.0
  0
VERTEX
  5
10E
330
10B
100
AcDbEntity
  8
_U+30EC_U+30A4_U+30E4_U+30FC 1
370
     0
100
AcDbVertex
100
AcDb2dVertex
 10
111.0347384705052
 20
-146.3185451565627
 30
0.0
  0
VERTEX
  5
10F
330
10B
100
AcDbEntity
  8
_U+30EC_U+30A4_U+30E4_U+30FC 1
370
     0
100
AcDbVertex
100
AcDb2dVertex
 10
111.0347384705052
 20
-146.5703816365345
 30
0.0
  0
VERTEX
  5
110
330
10B
100
AcDbEntity
  8
_U+30EC_U+30A4_U+30E4_U+30FC 1
370
     0
100
AcDbVertex
100
AcDb2dVertex
 10
110.783246500082
 20
-146.5703816365345
 30
0.0
  0
SEQEND
  5
111
330
10B
100
AcDbEntity
  8
_U+30EC_U+30A4_U+30E4_U+30FC 1
370
     0
  0
HATCH
  5
112
330
101
100
AcDbEntity
  8
_U+30EC_U+30A4_U+30E4_U+30FC 1
 62
   179
420
  2234388
100
AcDbHatch
 10
0.0
 20
0.0
 30
0.0
210
0.0
220
0.0
230
1.0
  2
SOLID
 70
     1
 71
     0
 91
        1
 92
        1
 93
        4
 72
     1
 10
110.783246500082
 20
-146.5703816365345
 11
110.783246500082
 21
-146.3185451565627
 72
     1
 10
110.783246500082
 20
-146.3185451565627
 11
111.0347384705052
 21
-146.3185451565627
 72
     1
 10
111.0347384705052
 20
-146.3185451565627
 11
111.0347384705052
 21
-146.5703816365345
 72
     1
 10
111.0347384705052
 20
-146.5703816365345
 11
110.783246500082
 21
-146.5703816365345
 97
        0
 75
     2
 76
     1
 98
        0
  0
SPLINE
  5
113
330
101
100
AcDbEntity
  8
_U+30EC_U+30A4_U+30E4_U+30FC 1
370
     0
100
AcDbSpline
210
0.0
220
0.0
230
1.0
 70
    11
 71
     3
 72
    62
 73
    58
 74
     0
 42
0.0000000001
 43
0.0000000001
 12
1.0
 22
0.0
 32
0.0
 13
1.0
 23
0.0
 33
0.0
 40
0.0
 40
0.0
 40
0.0
 40
0.0
 40
1.0
 40
1.0
 40
1.0
 40
2.0
 40
2.0
 40
2.0
 40
3.0
 40
3.0
 40
3.0
 40
4.0
 40
4.0
 40
4.0
 40
5.0
 40
5.0
 40
5.0
 40
6.0
 40
6.0
 40
6.0
 40
7.0
 40
7.0
 40
7.0
 40
8.0
 40
8.0
 40
8.0
 40
9.0
 40
9.0
 40
9.0
 40
10.0
 40
10.0
 40
10.0
 40
11.0
 40
11.0
 40
11.0
 40
12.0
 40
12.0
 40
12.0
 40
13.0
 40
13.0
 40
13.0
 40
14.0
 40
14.0
 40
14.0
 40
15.0
 40
15.0
 40
15.0
 40
16.0
 40
16.0
 40
16.0
 40
17.0
 40
17.0
 40
17.0
 40
18.0
 40
18.0
 40
18.0
 40
19.0
 40
19.0
 40
19.0
 40
19.0
 10
111.7626871465385
 20
-146.6210245401677
 30
0.0
 10
111.6672580015971
 20
-146.6210245401677
 30
0.0
 10
111.4495279669293
 20
-146.6000094577076
 30
0.0
 10
111.3248155103633
 20
-146.4139743015041
 30
0.0
 10
111.2507459574304
 20
-146.301664188685
 30
0.0
 10
111.2462673332996
 20
-146.2024454387098
 30
0.0
 10
111.2421332187172
 20
-146.1176960897727
 30
0.0
 10
111.2421332187172
 20
-146.1176960897727
 30
0.0
 10
111.4622748202247
 20
-146.1176960897727
 30
0.0
 10
111.4622748202247
 20
-146.1176960897727
 30
0.0
 10
111.4643418775159
 20
-146.1917656427055
 30
0.0
 10
111.4750216735201
 20
-146.4263766452511
 30
0.0
 10
111.7585530319562
 20
-146.4263766452511
 30
0.0
 10
111.8960123418177
 20
-146.4263766452511
 30
0.0
 10
112.0482855622657
 20
-146.356785716449
 30
0.0
 10
112.0482855622657
 20
-146.1283758857769
 30
0.0
 10
112.0482855622657
 20
-146.0119316583755
 30
0.0
 10
112.010389511928
 20
-145.9633558120335
 30
0.0
 10
111.9786946334637
 20
-145.9316609335692
 30
0.0
 10
111.9042805709823
 20
-145.8575913806363
 30
0.0
 10
111.7878363435808
 20
-145.8448445273409
 30
0.0
 10
111.7330593253653
 20
-145.8448445273409
 30
0.0
 10
111.7141113001965
 20
-145.8448445273409
 30
0.0
 10
111.6782823071499
 20
-145.846911584632
 30
0.0
 10
111.6507215432679
 20
-145.8510456992143
 30
0.0
 10
111.6507215432679
 20
-145.8510456992143
 30
0.0
 10
111.6507215432679
 20
-145.6563978042977
 30
0.0
 10
111.6507215432679
 20
-145.6563978042977
 30
0.0
 10
111.6886175936056
 20
-145.6629434857197
 30
0.0
 10
111.7309922680742
 20
-145.6650105430109
 30
0.0
 10
111.7375379494962
 20
-145.6650105430109
 30
0.0
 10
111.8029947637159
 20
-145.6650105430109
 30
0.0
 10
112.0017767732148
 20
-145.6436509510023
 30
0.0
 10
112.0017767732148
 20
-145.4069728911656
 30
0.0
 10
112.0017767732148
 20
-145.2292059641267
 30
0.0
 10
111.8705186352268
 20
-145.1740844363627
 30
0.0
 10
111.7606200892474
 20
-145.1740844363627
 30
0.0
 10
111.4963812655287
 20
-145.1740844363627
 30
0.0
 10
111.4877685268156
 20
-145.4069728911656
 30
0.0
 10
111.4832899026847
 20
-145.4786308772588
 30
0.0
 10
111.4832899026847
 20
-145.4786308772588
 30
0.0
 10
111.2803737786035
 20
-145.4786308772588
 30
0.0
 10
111.2803737786035
 20
-145.4786308772588
 30
0.0
 10
111.2889865173166
 20
-145.3539184206928
 30
0.0
 10
111.3165472811987
 20
-144.977369484155
 30
0.0
 10
111.7733669425428
 20
-144.977369484155
 30
0.0
 10
111.997298149084
 20
-144.977369484155
 30
0.0
 10
112.2384548330515
 20
-145.1044935075607
 30
0.0
 10
112.2384548330515
 20
-145.4004272097436
 30
0.0
 10
112.2384548330515
 20
-145.5868068754957
 30
0.0
 10
112.1433701976586
 20
-145.6691446575931
 30
0.0
 10
112.0441514476834
 20
-145.7304673572306
 30
0.0
 10
112.1054741473209
 20
-145.7580281211126
 30
0.0
 10
112.2873751889421
 20
-145.8382988459189
 30
0.0
 10
112.2873751889421
 20
-146.1156290324815
 30
0.0
 10
112.2873751889421
 20
-146.4539374091331
 30
0.0
 10
112.0400173331011
 20
-146.6210245401677
 30
0.0
 10
111.7626871465385
 20
-146.6210245401677
 30
0.0
  0
HATCH
  5
114
330
101
100
AcDbEntity
  8
_U+30EC_U+30A4_U+30E4_U+30FC 1
 62
   179
420
  2234388
100
AcDbHatch
 10
0.0
 20
0.0
 30
0.0
210
0.0
220
0.0
230
1.0
  2
SOLID
 70
     1
 71
     0
 91
        1
 92
        1
 93
        1
 72
     4
 94
        3
 73
     0
 74
     1
 95
       62
 96
       58
 40
0.0
 40
0.0
 40
0.0
 40
0.0
 40
1.0
 40
1.0
 40
1.0
 40
2.0
 40
2.0
 40
2.0
 40
3.0
 40
3.0
 40
3.0
 40
4.0
 40
4.0
 40
4.0
 40
5.0
 40
5.0
 40
5.0
 40
6.0
 40
6.0
 40
6.0
 40
7.0
 40
7.0
 40
7.0
 40
8.0
 40
8.0
 40
8.0
 40
9.0
 40
9.0
 40
9.0
 40
10.0
 40
10.0
 40
10.0
 40
11.0
 40
11.0
 40
11.0
 40
12.0
 40
12.0
 40
12.0
 40
13.0
 40
13.0
 40
13.0
 40
14.0
 40
14.0
 40
14.0
 40
15.0
 40
15.0
 40
15.0
 40
16.0
 40
16.0
 40
16.0
 40
17.0
 40
17.0
 40
17.0
 40
18.0
 40
18.0
 40
18.0
 40
19.0
 40
19.0
 40
19.0
 40
19.0
 10
111.7626871465385
 20
-146.6210245401677
 10
111.6672580015971
 20
-146.6210245401677
 10
111.4495279669293
 20
-146.6000094577076
 10
111.3248155103633
 20
-146.4139743015041
 10
111.2507459574304
 20
-146.301664188685
 10
111.2462673332996
 20
-146.2024454387098
 10
111.2421332187172
 20
-146.1176960897727
 10
111.2421332187172
 20
-146.1176960897727
 10
111.4622748202247
 20
-146.1176960897727
 10
111.4622748202247
 20
-146.1176960897727
 10
111.4643418775159
 20
-146.1917656427055
 10
111.4750216735201
 20
-146.4263766452511
 10
111.7585530319562
 20
-146.4263766452511
 10
111.8960123418177
 20
-146.4263766452511
 10
112.0482855622657
 20
-146.356785716449
 10
112.0482855622657
 20
-146.1283758857769
 10
112.0482855622657
 20
-146.0119316583755
 10
112.010389511928
 20
-145.9633558120335
 10
111.9786946334637
 20
-145.9316609335692
 10
111.9042805709823
 20
-145.8575913806363
 10
111.7878363435808
 20
-145.8448445273409
 10
111.7330593253653
 20
-145.8448445273409
 10
111.7141113001965
 20
-145.8448445273409
 10
111.6782823071499
 20
-145.846911584632
 10
111.6507215432679
 20
-145.8510456992143
 10
111.6507215432679
 20
-145.8510456992143
 10
111.6507215432679
 20
-145.6563978042977
 10
111.6507215432679
 20
-145.6563978042977
 10
111.6886175936056
 20
-145.6629434857197
 10
111.7309922680742
 20
-145.6650105430109
 10
111.7375379494962
 20
-145.6650105430109
 10
111.8029947637159
 20
-145.6650105430109
 10
112.0017767732148
 20
-145.6436509510023
 10
112.0017767732148
 20
-145.4069728911656
 10
112.0017767732148
 20
-145.2292059641267
 10
111.8705186352268
 20
-145.1740844363627
 10
111.7606200892474
 20
-145.1740844363627
 10
111.4963812655287
 20
-145.1740844363627
 10
111.4877685268156
 20
-145.4069728911656
 10
111.4832899026847
 20
-145.4786308772588
 10
111.4832899026847
 20
-145.4786308772588
 10
111.2803737786035
 20
-145.4786308772588
 10
111.2803737786035
 20
-145.4786308772588
 10
111.2889865173166
 20
-145.3539184206928
 10
111.3165472811987
 20
-144.977369484155
 10
111.7733669425428
 20
-144.977369484155
 10
111.997298149084
 20
-144.977369484155
 10
112.2384548330515
 20
-145.1044935075607
 10
112.2384548330515
 20
-145.4004272097436
 10
112.2384548330515
 20
-145.5868068754957
 10
112.1433701976586
 20
-145.6691446575931
 10
112.0441514476834
 20
-145.7304673572306
 10
112.1054741473209
 20
-145.7580281211126
 10
112.2873751889421
 20
-145.8382988459189
 10
112.2873751889421
 20
-146.1156290324815
 10
112.2873751889421
 20
-146.4539374091331
 10
112.0400173331011
 20
-146.6210245401677
 10
111.7626871465385
 20
-146.6210245401677
 97
        0
 97
        0
 75
     2
 76
     1
 98
        0
  0
ENDBLK
  5
104
330
101
100
AcDbEntity
  8
0
100
AcDbBlockEnd
  0
ENDSEC
  0
SECTION
  2
ENTITIES
  0
SPLINE
  5
41
330
1F
100
AcDbEntity
  8
_U+30EC_U+30A4_U+30E4_U+30FC 1
 62
   179
420
  2234388
370
    25
100
AcDbSpline
210
0.0
220
0.0
230
1.0
 70
     8
 71
     3
 72
    41
 73
    37
 74
     0
 42
0.0000000001
 43
0.0000000001
 12
1.0
 22
0.0
 32
0.0
 13
1.0
 23
0.0
 33
0.0
 40
0.0
 40
0.0
 40
0.0
 40
0.0
 40
1.0
 40
1.0
 40
1.0
 40
2.0
 40
2.0
 40
2.0
 40
3.0
 40
3.0
 40
3.0
 40
4.0
 40
4.0
 40
4.0
 40
5.0
 40
5.0
 40
5.0
 40
6.0
 40
6.0
 40
6.0
 40
7.0
 40
7.0
 40
7.0
 40
8.0
 40
8.0
 40
8.0
 40
9.0
 40
9.0
 40
9.0
 40
10.0
 40
10.0
 40
10.0
 40
11.0
 40
11.0
 40
11.0
 40
12.0
 40
12.0
 40
12.0
 40
12.0
 10
117.9106107628943
 20
-140.6371628303735
 30
0.0
 10
122.1418232082612
 20
-140.6371628303735
 30
0.0
 10
122.5136512873919
 20
-142.3534286566995
 30
0.0
 10
122.5136512873919
 20
-145.6212093836929
 30
0.0
 10
122.5136512873919
 20
-145.6212093836929
 30
0.0
 10
122.5136512873919
 20
-148.482942544056
 30
0.0
 10
122.5136512873919
 20
-148.482942544056
 30
0.0
 10
122.5136512873919
 20
-149.2766925438576
 30
0.0
 10
121.7449482083604
 20
-150.6362994771114
 30
0.0
 10
120.0692537643349
 20
-150.6362994771114
 30
0.0
 10
120.0692537643349
 20
-150.6362994771114
 30
0.0
 10
102.0775871021661
 20
-150.6362994771114
 30
0.0
 10
102.0775871021661
 20
-150.6362994771114
 30
0.0
 10
102.0775871021661
 20
-150.6362994771114
 30
0.0
 10
102.0775871021661
 20
-149.6361721088583
 30
0.0
 10
102.0775871021661
 20
-149.6361721088583
 30
0.0
 10
102.0775871021661
 20
-149.6361721088583
 30
0.0
 10
99.97608962208714
 20
-149.6361721088583
 30
0.0
 10
99.97608962208714
 20
-149.6361721088583
 30
0.0
 10
99.46138697362912
 20
-149.6361721088583
 30
0.0
 10
99.01336307169578
 20
-150.033402384231
 30
0.0
 10
99.01336307169578
 20
-150.6913294945266
 30
0.0
 10
99.01336307169578
 20
-150.6913294945266
 30
0.0
 10
99.01336307169578
 20
-152.6361935551841
 30
0.0
 10
99.01336307169578
 20
-152.6361935551841
 30
0.0
 10
99.01336307169578
 20
-152.6361935551841
 30
0.0
 10
100.013135164477
 20
-152.6361935551841
 30
0.0
 10
100.013135164477
 20
-152.6361935551841
 30
0.0
 10
100.013135164477
 20
-152.6361935551841
 30
0.0
 10
100.013135164477
 20
-157.4346786529292
 30
0.0
 10
100.013135164477
 20
-157.4346786529292
 30
0.0
 10
99.96092043602866
 20
-158.3021590790768
 30
0.0
 10
99.46138697362912
 20
-158.6362418307972
 30
0.0
 10
98.81439265853751
 20
-158.6362418307972
 30
0.0
 10
98.81439265853751
 20
-158.6362418307972
 30
0.0
 10
94.08047080337062
 20
-158.6362418307972
 30
0.0
 10
94.08047080337062
 20
-158.6362418307972
 30
0.0
  0
SPLINE
  5
42
330
1F
100
AcDbEntity
  8
_U+30EC_U+30A4_U+30E4_U+30FC 1
 62
   179
420
  2234388
370
     9
100
AcDbSpline
210
0.0
220
0.0
230
1.0
 70
    11
 71
     3
 72
    17
 73
    13
 74
     0
 42
0.0000000001
 43
0.0000000001
 12
1.0
 22
0.0
 32
0.0
 13
1.0
 23
0.0
 33
0.0
 40
0.0
 40
0.0
 40
0.0
 40
0.0
 40
1.0
 40
1.0
 40
1.0
 40
2.0
 40
2.0
 40
2.0
 40
3.0
 40
3.0
 40
3.0
 40
4.0
 40
4.0
 40
4.0
 40
4.0
 10
85.91341978680344
 20
-158.6360588100996
 30
0.0
 10
85.91341978680344
 20
-158.5810287926844
 30
0.0
 10
85.95822217699677
 20
-158.5362264024911
 30
0.0
 10
86.01325488589279
 20
-158.5362264024911
 30
0.0
 10
86.06828759478881
 20
-158.5362264024911
 30
0.0
 10
86.11308998498215
 20
-158.5810287926844
 30
0.0
 10
86.11308998498215
 20
-158.6360588100996
 30
0.0
 10
86.11308998498215
 20
-158.6914494859483
 30
0.0
 10
86.06828759478881
 20
-158.7362518761417
 30
0.0
 10
86.01325488589279
 20
-158.7362518761417
 30
0.0
 10
85.95822217699677
 20
-158.7362518761417
 30
0.0
 10
85.91341978680344
 20
-158.6914494859483
 30
0.0
 10
85.91341978680344
 20
-158.6360588100996
 30
0.0
  0
SPLINE
  5
43
330
1F
100
AcDbEntity
  8
_U+30EC_U+30A4_U+30E4_U+30FC 1
 62
   179
420
  2234388
370
     9
100
AcDbSpline
210
0.0
220
0.0
230
1.0
 70
    11
 71
     3
 72
    17
 73
    13
 74
     0
 42
0.0000000001
 43
0.0000000001
 12
1.0
 22
0.0
 32
0.0
 13
1.0
 23
0.0
 33
0.0
 40
0.0
 40
0.0
 40
0.0
 40
0.0
 40
1.0
 40
1.0
 40
1.0
 40
2.0
 40
2.0
 40
2.0
 40
3.0
 40
3.0
 40
3.0
 40
4.0
 40
4.0
 40
4.0
 40
4.0
 10
85.91341978680344
 20
-140.6361400676513
 30
0.0
 10
85.91341978680344
 20
-140.5811100502361
 30
0.0
 10
85.95822217699677
 20
-140.5363076600428
 30
0.0
 10
86.01325488589279
 20
-140.5363076600428
 30
0.0
 10
86.06828759478881
 20
-140.5363076600428
 30
0.0
 10
86.11308998498215
 20
-140.5811100502361
 30
0.0
 10
86.11308998498215
 20
-140.6361400676513
 30
0.0
 10
86.11308998498215
 20
-140.6915307435001
 30
0.0
 10
86.06828759478881
 20
-140.7363331336934
 30
0.0
 10
86.01325488589279
 20
-140.7363331336934
 30
0.0
 10
85.95822217699677
 20
-140.7363331336934
 30
0.0
 10
85.91341978680344
 20
-140.6915307435001
 30
0.0
 10
85.91341978680344
 20
-140.6361400676513
 30
0.0
  0
SPLINE
  5
44
330
1F
100
AcDbEntity
  8
_U+30EC_U+30A4_U+30E4_U+30FC 1
 62
   179
420
  2234388
370
     9
100
AcDbSpline
210
0.0
220
0.0
230
1.0
 70
    11
 71
     3
 72
    17
 73
    13
 74
     0
 42
0.0000000001
 43
0.0000000001
 12
1.0
 22
0.0
 32
0.0
 13
1.0
 23
0.0
 33
0.0
 40
0.0
 40
0.0
 40
0.0
 40
0.0
 40
1.0
 40
1.0
 40
1.0
 40
2.0
 40
2.0
 40
2.0
 40
3.0
 40
3.0
 40
3.0
 40
4.0
 40
4.0
 40
4.0
 40
4.0
 10
126.4136124188903
 20
-150.6362241156477
 30
0.0
 10
126.4136124188903
 20
-150.5808388227606
 30
0.0
 10
126.4584148090836
 20
-150.5363917080392
 30
0.0
 10
126.5134448264988
 20
-150.5363917080392
 30
0.0
 10
126.5684802268757
 20
-150.5363917080392
 30
0.0
 10
126.613282617069
 20
-150.5808388227606
 30
0.0
 10
126.613282617069
 20
-150.6362241156477
 30
0.0
 10
126.613282617069
 20
-150.6912595160246
 30
0.0
 10
126.5684802268757
 20
-150.7360619062179
 30
0.0
 10
126.5134448264988
 20
-150.7360619062179
 30
0.0
 10
126.4584148090836
 20
-150.7360619062179
 30
0.0
 10
126.4136124188903
 20
-150.6912595160246
 30
0.0
 10
126.4136124188903
 20
-150.6362241156477
 30
0.0
  0
SPLINE
  5
45
330
1F
100
AcDbEntity
  8
_U+30EC_U+30A4_U+30E4_U+30FC 1
 62
   179
420
  2234388
370
     9
100
AcDbSpline
210
0.0
220
0.0
230
1.0
 70
    11
 71
     3
 72
    17
 73
    13
 74
     0
 42
0.0000000001
 43
0.0000000001
 12
1.0
 22
0.0
 32
0.0
 13
1.0
 23
0.0
 33
0.0
 40
0.0
 40
0.0
 40
0.0
 40
0.0
 40
1.0
 40
1.0
 40
1.0
 40
2.0
 40
2.0
 40
2.0
 40
3.0
 40
3.0
 40
3.0
 40
4.0
 40
4.0
 40
4.0
 40
4.0
 10
126.4136124188903
 20
-140.6361400676513
 30
0.0
 10
126.4136124188903
 20
-140.5811100502361
 30
0.0
 10
126.4584148090836
 20
-140.5363076600428
 30
0.0
 10
126.5134448264988
 20
-140.5363076600428
 30
0.0
 10
126.5684802268757
 20
-140.5363076600428
 30
0.0
 10
126.613282617069
 20
-140.5811100502361
 30
0.0
 10
126.613282617069
 20
-140.6361400676513
 30
0.0
 10
126.613282617069
 20
-140.6915307435001
 30
0.0
 10
126.5684802268757
 20
-140.7363331336934
 30
0.0
 10
126.5134448264988
 20
-140.7363331336934
 30
0.0
 10
126.4584148090836
 20
-140.7363331336934
 30
0.0
 10
126.4136124188903
 20
-140.6915307435001
 30
0.0
 10
126.4136124188903
 20
-140.6361400676513
 30
0.0
  0
SPLINE
  5
46
330
1F
100
AcDbEntity
  8
_U+30EC_U+30A4_U+30E4_U+30FC 1
 62
   179
420
  2234388
370
     9
100
AcDbSpline
210
0.0
220
0.0
230
1.0
 70
    11
 71
     3
 72
    17
 73
    13
 74
     0
 42
0.0000000001
 43
0.0000000001
 12
1.0
 22
0.0
 32
0.0
 13
1.0
 23
0.0
 33
0.0
 40
0.0
 40
0.0
 40
0.0
 40
0.0
 40
1.0
 40
1.0
 40
1.0
 40
2.0
 40
2.0
 40
2.0
 40
3.0
 40
3.0
 40
3.0
 40
4.0
 40
4.0
 40
4.0
 40
4.0
 10
122.4133236473074
 20
-162.6361699439466
 30
0.0
 10
122.4133236473074
 20
-162.5811399265314
 30
0.0
 10
122.4581260375007
 20
-162.536337536338
 30
0.0
 10
122.5135113303878
 20
-162.536337536338
 30
0.0
 10
122.568541347803
 20
-162.536337536338
 30
0.0
 10
122.6133437379963
 20
-162.5811399265314
 30
0.0
 10
122.6133437379963
 20
-162.6361699439466
 30
0.0
 10
122.6133437379963
 20
-162.6912053443234
 30
0.0
 10
122.568541347803
 20
-162.7360077345167
 30
0.0
 10
122.5135113303878
 20
-162.7360077345167
 30
0.0
 10
122.4581260375007
 20
-162.7360077345167
 30
0.0
 10
122.4133236473074
 20
-162.6912053443234
 30
0.0
 10
122.4133236473074
 20
-162.6361699439466
 30
0.0
  0
SPLINE
  5
47
330
1F
100
AcDbEntity
  8
_U+30EC_U+30A4_U+30E4_U+30FC 1
 62
   179
420
  2234388
370
     9
100
AcDbSpline
210
0.0
220
0.0
230
1.0
 70
    11
 71
     3
 72
    17
 73
    13
 74
     0
 42
0.0000000001
 43
0.0000000001
 12
1.0
 22
0.0
 32
0.0
 13
1.0
 23
0.0
 33
0.0
 40
0.0
 40
0.0
 40
0.0
 40
0.0
 40
1.0
 40
1.0
 40
1.0
 40
2.0
 40
2.0
 40
2.0
 40
3.0
 40
3.0
 40
3.0
 40
4.0
 40
4.0
 40
4.0
 40
4.0
 10
122.4133236473074
 20
-137.1310783891113
 30
0.0
 10
122.4133236473074
 20
-137.0760483716962
 30
0.0
 10
122.4581260375007
 20
-137.0312459815028
 30
0.0
 10
122.5135113303878
 20
-137.0312459815028
 30
0.0
 10
122.568541347803
 20
-137.0312459815028
 30
0.0
 10
122.6133437379963
 20
-137.0760483716962
 30
0.0
 10
122.6133437379963
 20
-137.1310783891113
 30
0.0
 10
122.6133437379963
 20
-137.1861137894882
 30
0.0
 10
122.568541347803
 20
-137.2309161796815
 30
0.0
 10
122.5135113303878
 20
-137.2309161796815
 30
0.0
 10
122.4581260375007
 20
-137.2309161796815
 30
0.0
 10
122.4133236473074
 20
-137.1861137894882
 30
0.0
 10
122.4133236473074
 20
-137.1310783891113
 30
0.0
  0
SPLINE
  5
48
330
1F
100
AcDbEntity
  8
_U+30EC_U+30A4_U+30E4_U+30FC 1
 62
   179
420
  2234388
370
     9
100
AcDbSpline
210
0.0
220
0.0
230
1.0
 70
    11
 71
     3
 72
    17
 73
    13
 74
     0
 42
0.0000000001
 43
0.0000000001
 12
1.0
 22
0.0
 32
0.0
 13
1.0
 23
0.0
 33
0.0
 40
0.0
 40
0.0
 40
0.0
 40
0.0
 40
1.0
 40
1.0
 40
1.0
 40
2.0
 40
2.0
 40
2.0
 40
3.0
 40
3.0
 40
3.0
 40
4.0
 40
4.0
 40
4.0
 40
4.0
 10
99.91322739540473
 20
-162.6361699439466
 30
0.0
 10
99.91322739540473
 20
-162.5811399265314
 30
0.0
 10
99.95802978559806
 20
-162.536337536338
 30
0.0
 10
100.0130598030135
 20
-162.536337536338
 30
0.0
 10
100.0684450959003
 20
-162.536337536338
 30
0.0
 10
100.1132474860937
 20
-162.5811399265314
 30
0.0
 10
100.1132474860937
 20
-162.6361699439466
 30
0.0
 10
100.1132474860937
 20
-162.6912053443234
 30
0.0
 10
100.0684450959003
 20
-162.7360077345167
 30
0.0
 10
100.0130598030135
 20
-162.7360077345167
 30
0.0
 10
99.95802978559806
 20
-162.7360077345167
 30
0.0
 10
99.91322739540473
 20
-162.6912053443234
 30
0.0
 10
99.91322739540473
 20
-162.6361699439466
 30
0.0
  0
SPLINE
  5
49
330
1F
100
AcDbEntity
  8
_U+30EC_U+30A4_U+30E4_U+30FC 1
 62
   179
420
  2234388
370
     9
100
AcDbSpline
210
0.0
220
0.0
230
1.0
 70
    11
 71
     3
 72
    17
 73
    13
 74
     0
 42
0.0000000001
 43
0.0000000001
 12
1.0
 22
0.0
 32
0.0
 13
1.0
 23
0.0
 33
0.0
 40
0.0
 40
0.0
 40
0.0
 40
0.0
 40
1.0
 40
1.0
 40
1.0
 40
2.0
 40
2.0
 40
2.0
 40
3.0
 40
3.0
 40
3.0
 40
4.0
 40
4.0
 40
4.0
 40
4.0
 10
89.91317833665936
 20
-162.6361699439466
 30
0.0
 10
89.91317833665936
 20
-162.5811399265314
 30
0.0
 10
89.95798072685268
 20
-162.536337536338
 30
0.0
 10
90.01336601973978
 20
-162.536337536338
 30
0.0
 10
90.06839872863578
 20
-162.536337536338
 30
0.0
 10
90.11320111882912
 20
-162.5811399265314
 30
0.0
 10
90.11320111882912
 20
-162.6361699439466
 30
0.0
 10
90.11320111882912
 20
-162.6912053443234
 30
0.0
 10
90.06839872863578
 20
-162.7360077345167
 30
0.0
 10
90.01336601973978
 20
-162.7360077345167
 30
0.0
 10
89.95798072685268
 20
-162.7360077345167
 30
0.0
 10
89.91317833665936
 20
-162.6912053443234
 30
0.0
 10
89.91317833665936
 20
-162.6361699439466
 30
0.0
  0
SPLINE
  5
4A
330
1F
100
AcDbEntity
  8
_U+30EC_U+30A4_U+30E4_U+30FC 1
 62
   179
420
  2234388
370
     9
100
AcDbSpline
210
0.0
220
0.0
230
1.0
 70
    11
 71
     3
 72
    17
 73
    13
 74
     0
 42
0.0000000001
 43
0.0000000001
 12
1.0
 22
0.0
 32
0.0
 13
1.0
 23
0.0
 33
0.0
 40
0.0
 40
0.0
 40
0.0
 40
0.0
 40
1.0
 40
1.0
 40
1.0
 40
2.0
 40
2.0
 40
2.0
 40
3.0
 40
3.0
 40
3.0
 40
4.0
 40
4.0
 40
4.0
 40
4.0
 10
89.91317833665936
 20
-137.1310783891113
 30
0.0
 10
89.91317833665936
 20
-137.0760483716962
 30
0.0
 10
89.95798072685268
 20
-137.0312459815028
 30
0.0
 10
90.01336601973978
 20
-137.0312459815028
 30
0.0
 10
90.06839872863578
 20
-137.0312459815028
 30
0.0
 10
90.11320111882912
 20
-137.0760483716962
 30
0.0
 10
90.11320111882912
 20
-137.1310783891113
 30
0.0
 10
90.11320111882912
 20
-137.1861137894882
 30
0.0
 10
90.06839872863578
 20
-137.2309161796815
 30
0.0
 10
90.01336601973978
 20
-137.2309161796815
 30
0.0
 10
89.95798072685268
 20
-137.2309161796815
 30
0.0
 10
89.91317833665936
 20
-137.1861137894882
 30
0.0
 10
89.91317833665936
 20
-137.1310783891113
 30
0.0
  0
POLYLINE
  5
4B
330
1F
100
AcDbEntity
  8
_U+30EC_U+30A4_U+30E4_U+30FC 1
 62
   179
420
  2234388
370
     9
100
AcDb2dPolyline
 66
     1
 10
0.0
 20
0.0
 30
0.0
  0
VERTEX
  5
4C
330
4B
100
AcDbEntity
  8
_U+30EC_U+30A4_U+30E4_U+30FC 1
 62
   179
420
  2234388
370
     9
100
AcDbVertex
100
AcDb2dVertex
 10
126.5135201879626
 20
-150.6362241156477
 30
0.0
  0
VERTEX
  5
4D
330
4B
100
AcDbEntity
  8
_U+30EC_U+30A4_U+30E4_U+30FC 1
 62
   179
420
  2234388
370
     9
100
AcDbVertex
100
AcDb2dVertex
 10
126.5135201879626
 20
-140.6360324084174
 30
0.0
  0
SEQEND
  5
4E
330
4B
100
AcDbEntity
  8
_U+30EC_U+30A4_U+30E4_U+30FC 1
 62
   179
420
  2234388
370
     9
  0
POLYLINE
  5
4F
330
1F
100
AcDbEntity
  8
_U+30EC_U+30A4_U+30E4_U+30FC 1
 62
   179
420
  2234388
370
     9
100
AcDb2dPolyline
 66
     1
 10
0.0
 20
0.0
 30
0.0
  0
VERTEX
  5
50
330
4F
100
AcDbEntity
  8
_U+30EC_U+30A4_U+30E4_U+30FC 1
 62
   179
420
  2234388
370
     9
100
AcDbVertex
100
AcDb2dVertex
 10
125.0534779553903
 20
-150.6362241156477
 30
0.0
  0
VERTEX
  5
51
330
4F
100
AcDbEntity
  8
_U+30EC_U+30A4_U+30E4_U+30FC 1
 62
   179
420
  2234388
370
     9
100
AcDbVertex
100
AcDb2dVertex
 10
127.513394557016
 20
-150.6362241156477
 30
0.0
  0
SEQEND
  5
52
330
4F
100
AcDbEntity
  8
_U+30EC_U+30A4_U+30E4_U+30FC 1
 62
   179
420
  2234388
370
     9
  0
POLYLINE
  5
53
330
1F
100
AcDbEntity
  8
_U+30EC_U+30A4_U+30E4_U+30FC 1
 62
   179
420
  2234388
370
     9
100
AcDb2dPolyline
 66
     1
 10
0.0
 20
0.0
 30
0.0
  0
VERTEX
  5
54
330
53
100
AcDbEntity
  8
_U+30EC_U+30A4_U+30E4_U+30FC 1
 62
   179
420
  2234388
370
     9
100
AcDbVertex
100
AcDb2dVertex
 10
122.0533165520605
 20
-140.6361400676513
 30
0.0
  0
VERTEX
  5
55
330
53
100
AcDbEntity
  8
_U+30EC_U+30A4_U+30E4_U+30FC 1
 62
   179
420
  2234388
370
     9
100
AcDbVertex
100
AcDb2dVertex
 10
127.5132546000119
 20
-140.6361400676513
 30
0.0
  0
SEQEND
  5
56
330
53
100
AcDbEntity
  8
_U+30EC_U+30A4_U+30E4_U+30FC 1
 62
   179
420
  2234388
370
     9
  0
INSERT
  5
58
330
1F
100
AcDbEntity
  8
_U+30EC_U+30A4_U+30E4_U+30FC 1
100
AcDbBlockReference
  2
block 2
 10
0.0
 20
0.0
 30
0.0
  0
POLYLINE
  5
60
330
1F
100
AcDbEntity
  8
_U+30EC_U+30A4_U+30E4_U+30FC 1
 62
   179
420
  2234388
370
     9
100
AcDb2dPolyline
 66
     1
 10
0.0
 20
0.0
 30
0.0
  0
VERTEX
  5
61
330
60
100
AcDbEntity
  8
_U+30EC_U+30A4_U+30E4_U+30FC 1
 62
   179
420
  2234388
370
     9
100
AcDbVertex
100
AcDb2dVertex
 10
86.01332486439483
 20
-158.6360588100996
 30
0.0
  0
VERTEX
  5
62
330
60
100
AcDbEntity
  8
_U+30EC_U+30A4_U+30E4_U+30FC 1
 62
   179
420
  2234388
370
     9
100
AcDbVertex
100
AcDb2dVertex
 10
86.01332486439483
 20
-140.6362800246554
 30
0.0
  0
SEQEND
  5
63
330
60
100
AcDbEntity
  8
_U+30EC_U+30A4_U+30E4_U+30FC 1
 62
   179
420
  2234388
370
     9
  0
POLYLINE
  5
64
330
1F
100
AcDbEntity
  8
_U+30EC_U+30A4_U+30E4_U+30FC 1
 62
   179
420
  2234388
370
     9
100
AcDb2dPolyline
 66
     1
 10
0.0
 20
0.0
 30
0.0
  0
VERTEX
  5
65
330
64
100
AcDbEntity
  8
_U+30EC_U+30A4_U+30E4_U+30FC 1
 62
   179
420
  2234388
370
     9
100
AcDbVertex
100
AcDb2dVertex
 10
89.47322887726955
 20
-158.6360588100996
 30
0.0
  0
VERTEX
  5
66
330
64
100
AcDbEntity
  8
_U+30EC_U+30A4_U+30E4_U+30FC 1
 62
   179
420
  2234388
370
     9
100
AcDbVertex
100
AcDb2dVertex
 10
85.01305753913763
 20
-158.6360588100996
 30
0.0
  0
SEQEND
  5
67
330
64
100
AcDbEntity
  8
_U+30EC_U+30A4_U+30E4_U+30FC 1
 62
   179
420
  2234388
370
     9
  0
POLYLINE
  5
68
330
1F
100
AcDbEntity
  8
_U+30EC_U+30A4_U+30E4_U+30FC 1
 62
   179
420
  2234388
370
     9
100
AcDb2dPolyline
 66
     1
 10
0.0
 20
0.0
 30
0.0
  0
VERTEX
  5
69
330
68
100
AcDbEntity
  8
_U+30EC_U+30A4_U+30E4_U+30FC 1
 62
   179
420
  2234388
370
     9
100
AcDbVertex
100
AcDb2dVertex
 10
88.47310420049729
 20
-140.6361400676513
 30
0.0
  0
VERTEX
  5
6A
330
68
100
AcDbEntity
  8
_U+30EC_U+30A4_U+30E4_U+30FC 1
 62
   179
420
  2234388
370
     9
100
AcDbVertex
100
AcDb2dVertex
 10
85.01305753913763
 20
-140.6361400676513
 30
0.0
  0
SEQEND
  5
6B
330
68
100
AcDbEntity
  8
_U+30EC_U+30A4_U+30E4_U+30FC 1
 62
   179
420
  2234388
370
     9
  0
INSERT
  5
6D
330
1F
100
AcDbEntity
  8
_U+30EC_U+30A4_U+30E4_U+30FC 1
100
AcDbBlockReference
  2
block 3
 10
0.0
 20
0.0
 30
0.0
  0
POLYLINE
  5
76
330
1F
100
AcDbEntity
  8
_U+30EC_U+30A4_U+30E4_U+30FC 1
 62
   179
420
  2234388
370
     9
100
AcDb2dPolyline
 66
     1
 10
0.0
 20
0.0
 30
0.0
  0
VERTEX
  5
77
330
76
100
AcDbEntity
  8
_U+30EC_U+30A4_U+30E4_U+30FC 1
 62
   179
420
  2234388
370
     9
100
AcDbVertex
100
AcDb2dVertex
 10
93.79182832280449
 20
-144.8053730920539
 30
0.0
  0
VERTEX
  5
78
330
76
100
AcDbEntity
  8
_U+30EC_U+30A4_U+30E4_U+30FC 1
 62
   179
420
  2234388
370
     9
100
AcDbVertex
100
AcDb2dVertex
 10
93.2912344169509
 20
-143.9396582773425
 30
0.0
  0
SEQEND
  5
79
330
76
100
AcDbEntity
  8
_U+30EC_U+30A4_U+30E4_U+30FC 1
 62
   179
420
  2234388
370
     9
  0
POLYLINE
  5
7A
330
1F
100
AcDbEntity
  8
_U+30EC_U+30A4_U+30E4_U+30FC 1
 62
   179
420
  2234388
370
     9
100
AcDb2dPolyline
 66
     1
 10
0.0
 20
0.0
 30
0.0
  0
VERTEX
  5
7B
330
7A
100
AcDbEntity
  8
_U+30EC_U+30A4_U+30E4_U+30FC 1
 62
   179
420
  2234388
370
     9
100
AcDbVertex
100
AcDb2dVertex
 10
93.79182832280449
 20
-144.8053730920539
 30
0.0
  0
VERTEX
  5
7C
330
7A
100
AcDbEntity
  8
_U+30EC_U+30A4_U+30E4_U+30FC 1
 62
   179
420
  2234388
370
     9
100
AcDbVertex
100
AcDb2dVertex
 10
92.92540564863009
 20
-144.305845012616
 30
0.0
  0
SEQEND
  5
7D
330
7A
100
AcDbEntity
  8
_U+30EC_U+30A4_U+30E4_U+30FC 1
 62
   179
420
  2234388
370
     9
  0
POLYLINE
  5
7E
330
1F
100
AcDbEntity
  8
_U+30EC_U+30A4_U+30E4_U+30FC 1
 62
   179
420
  2234388
370
     9
100
AcDb2dPolyline
 66
     1
 10
0.0
 20
0.0
 30
0.0
  0
VERTEX
  5
7F
330
7E
100
AcDbEntity
  8
_U+30EC_U+30A4_U+30E4_U+30FC 1
 62
   179
420
  2234388
370
     9
100
AcDbVertex
100
AcDb2dVertex
 10
93.79182832280449
 20
-144.8053730920539
 30
0.0
  0
VERTEX
  5
80
330
7E
100
AcDbEntity
  8
_U+30EC_U+30A4_U+30E4_U+30FC 1
 62
   179
420
  2234388
370
     9
100
AcDbVertex
100
AcDb2dVertex
 10
87.69300539155603
 20
-138.7372464998752
 30
0.0
  0
SEQEND
  5
81
330
7E
100
AcDbEntity
  8
_U+30EC_U+30A4_U+30E4_U+30FC 1
 62
   179
420
  2234388
370
     9
  0
POLYLINE
  5
82
330
1F
100
AcDbEntity
  8
_U+30EC_U+30A4_U+30E4_U+30FC 1
 62
   179
420
  2234388
370
     9
100
AcDb2dPolyline
 66
     1
 10
0.0
 20
0.0
 30
0.0
  0
VERTEX
  5
83
330
82
100
AcDbEntity
  8
_U+30EC_U+30A4_U+30E4_U+30FC 1
 62
   179
420
  2234388
370
     9
100
AcDbVertex
100
AcDb2dVertex
 10
87.69297040230501
 20
-138.7372088191433
 30
0.0
  0
VERTEX
  5
84
330
82
100
AcDbEntity
  8
_U+30EC_U+30A4_U+30E4_U+30FC 1
 62
   179
420
  2234388
370
     9
100
AcDbVertex
100
AcDb2dVertex
 10
85.17872087680374
 20
-138.7372088191433
 30
0.0
  0
SEQEND
  5
85
330
82
100
AcDbEntity
  8
_U+30EC_U+30A4_U+30E4_U+30FC 1
 62
   179
420
  2234388
370
     9
  0
INSERT
  5
87
330
1F
100
AcDbEntity
  8
_U+30EC_U+30A4_U+30E4_U+30FC 1
100
AcDbBlockReference
  2
block 4
 10
0.0
 20
0.0
 30
0.0
  0
POLYLINE
  5
91
330
1F
100
AcDbEntity
  8
_U+30EC_U+30A4_U+30E4_U+30FC 1
 62
   179
420
  2234388
370
     9
100
AcDb2dPolyline
 66
     1
 10
0.0
 20
0.0
 30
0.0
  0
VERTEX
  5
92
330
91
100
AcDbEntity
  8
_U+30EC_U+30A4_U+30E4_U+30FC 1
 62
   179
420
  2234388
370
     9
100
AcDbVertex
100
AcDb2dVertex
 10
122.5135813088898
 20
-162.6361699439466
 30
0.0
  0
VERTEX
  5
93
330
91
100
AcDbEntity
  8
_U+30EC_U+30A4_U+30E4_U+30FC 1
 62
   179
420
  2234388
370
     9
100
AcDbVertex
100
AcDb2dVertex
 10
100.0130598030135
 20
-162.6361699439466
 30
0.0
  0
SEQEND
  5
94
330
91
100
AcDbEntity
  8
_U+30EC_U+30A4_U+30E4_U+30FC 1
 62
   179
420
  2234388
370
     9
  0
POLYLINE
  5
95
330
1F
100
AcDbEntity
  8
_U+30EC_U+30A4_U+30E4_U+30FC 1
 62
   179
420
  2234388
370
     9
100
AcDb2dPolyline
 66
     1
 10
0.0
 20
0.0
 30
0.0
  0
VERTEX
  5
96
330
95
100
AcDbEntity
  8
_U+30EC_U+30A4_U+30E4_U+30FC 1
 62
   179
420
  2234388
370
     9
100
AcDbVertex
100
AcDb2dVertex
 10
122.5135813088898
 20
-156.176282165478
 30
0.0
  0
VERTEX
  5
97
330
95
100
AcDbEntity
  8
_U+30EC_U+30A4_U+30E4_U+30FC 1
 62
   179
420
  2234388
370
     9
100
AcDbVertex
100
AcDb2dVertex
 10
122.5135813088898
 20
-163.6361250574254
 30
0.0
  0
SEQEND
  5
98
330
95
100
AcDbEntity
  8
_U+30EC_U+30A4_U+30E4_U+30FC 1
 62
   179
420
  2234388
370
     9
  0
POLYLINE
  5
99
330
1F
100
AcDbEntity
  8
_U+30EC_U+30A4_U+30E4_U+30FC 1
 62
   179
420
  2234388
370
     9
100
AcDb2dPolyline
 66
     1
 10
0.0
 20
0.0
 30
0.0
  0
VERTEX
  5
9A
330
99
100
AcDbEntity
  8
_U+30EC_U+30A4_U+30E4_U+30FC 1
 62
   179
420
  2234388
370
     9
100
AcDbVertex
100
AcDb2dVertex
 10
100.013135164477
 20
-161.176133094336
 30
0.0
  0
VERTEX
  5
9B
330
99
100
AcDbEntity
  8
_U+30EC_U+30A4_U+30E4_U+30FC 1
 62
   179
420
  2234388
370
     9
100
AcDbVertex
100
AcDb2dVertex
 10
100.013135164477
 20
-163.6364103543953
 30
0.0
  0
SEQEND
  5
9C
330
99
100
AcDbEntity
  8
_U+30EC_U+30A4_U+30E4_U+30FC 1
 62
   179
420
  2234388
370
     9
  0
INSERT
  5
9E
330
1F
100
AcDbEntity
  8
_U+30EC_U+30A4_U+30E4_U+30FC 1
100
AcDbBlockReference
  2
block 5
 10
0.0
 20
0.0
 30
0.0
  0
POLYLINE
  5
AF
330
1F
100
AcDbEntity
  8
_U+30EC_U+30A4_U+30E4_U+30FC 1
 62
   179
420
  2234388
370
     9
100
AcDb2dPolyline
 66
     1
 10
0.0
 20
0.0
 30
0.0
  0
VERTEX
  5
B0
330
AF
100
AcDbEntity
  8
_U+30EC_U+30A4_U+30E4_U+30FC 1
 62
   179
420
  2234388
370
     9
100
AcDbVertex
100
AcDb2dVertex
 10
122.5135813088898
 20
-137.1310783891113
 30
0.0
  0
VERTEX
  5
B1
330
AF
100
AcDbEntity
  8
_U+30EC_U+30A4_U+30E4_U+30FC 1
 62
   179
420
  2234388
370
     9
100
AcDbVertex
100
AcDb2dVertex
 10
90.0135759552459
 20
-137.1310783891113
 30
0.0
  0
SEQEND
  5
B2
330
AF
100
AcDbEntity
  8
_U+30EC_U+30A4_U+30E4_U+30FC 1
 62
   179
420
  2234388
370
     9
  0
POLYLINE
  5
B3
330
1F
100
AcDbEntity
  8
_U+30EC_U+30A4_U+30E4_U+30FC 1
 62
   179
420
  2234388
370
     5
100
AcDb2dPolyline
 66
     1
 10
0.0
 20
0.0
 30
0.0
  0
VERTEX
  5
B4
330
B3
100
AcDbEntity
  8
_U+30EC_U+30A4_U+30E4_U+30FC 1
 62
   179
420
  2234388
370
     5
100
AcDbVertex
100
AcDb2dVertex
 10
122.5135813088898
 20
-136.1761086865235
 30
0.0
  0
VERTEX
  5
B5
330
B3
100
AcDbEntity
  8
_U+30EC_U+30A4_U+30E4_U+30FC 1
 62
   179
420
  2234388
370
     5
100
AcDbVertex
100
AcDb2dVertex
 10
122.5135813088898
 20
-139.636158039364
 30
0.0
  0
SEQEND
  5
B6
330
B3
100
AcDbEntity
  8
_U+30EC_U+30A4_U+30E4_U+30FC 1
 62
   179
420
  2234388
370
     5
  0
POLYLINE
  5
B7
330
1F
100
AcDbEntity
  8
_U+30EC_U+30A4_U+30E4_U+30FC 1
 62
   179
420
  2234388
370
     5
100
AcDb2dPolyline
 66
     1
 10
0.0
 20
0.0
 30
0.0
  0
VERTEX
  5
B8
330
B7
100
AcDbEntity
  8
_U+30EC_U+30A4_U+30E4_U+30FC 1
 62
   179
420
  2234388
370
     5
100
AcDbVertex
100
AcDb2dVertex
 10
90.0134010089908
 20
-136.1761086865235
 30
0.0
  0
VERTEX
  5
B9
330
B7
100
AcDbEntity
  8
_U+30EC_U+30A4_U+30E4_U+30FC 1
 62
   179
420
  2234388
370
     5
100
AcDbVertex
100
AcDb2dVertex
 10
90.0134010089908
 20
-139.636158039364
 30
0.0
  0
SEQEND
  5
BA
330
B7
100
AcDbEntity
  8
_U+30EC_U+30A4_U+30E4_U+30FC 1
 62
   179
420
  2234388
370
     5
  0
INSERT
  5
BC
330
1F
100
AcDbEntity
  8
_U+30EC_U+30A4_U+30E4_U+30FC 1
100
AcDbBlockReference
  2
block 6
 10
0.0
 20
0.0
 30
0.0
  0
POLYLINE
  5
CD
330
1F
100
AcDbEntity
  8
_U+30EC_U+30A4_U+30E4_U+30FC 1
 62
   179
420
  2234388
370
     9
100
AcDb2dPolyline
 66
     1
 10
0.0
 20
0.0
 30
0.0
  0
VERTEX
  5
CE
330
CD
100
AcDbEntity
  8
_U+30EC_U+30A4_U+30E4_U+30FC 1
 62
   179
420
  2234388
370
     9
100
AcDbVertex
100
AcDb2dVertex
 10
100.013135164477
 20
-162.6361699439466
 30
0.0
  0
VERTEX
  5
CF
330
CD
100
AcDbEntity
  8
_U+30EC_U+30A4_U+30E4_U+30FC 1
 62
   179
420
  2234388
370
     9
100
AcDbVertex
100
AcDb2dVertex
 10
90.01329604123772
 20
-162.6361699439466
 30
0.0
  0
SEQEND
  5
D0
330
CD
100
AcDbEntity
  8
_U+30EC_U+30A4_U+30E4_U+30FC 1
 62
   179
420
  2234388
370
     9
  0
POLYLINE
  5
D1
330
1F
100
AcDbEntity
  8
_U+30EC_U+30A4_U+30E4_U+30FC 1
 62
   179
420
  2234388
370
     9
100
AcDb2dPolyline
 66
     1
 10
0.0
 20
0.0
 30
0.0
  0
VERTEX
  5
D2
330
D1
100
AcDbEntity
  8
_U+30EC_U+30A4_U+30E4_U+30FC 1
 62
   179
420
  2234388
370
     9
100
AcDbVertex
100
AcDb2dVertex
 10
90.0134010089908
 20
-158.1761439457804
 30
0.0
  0
VERTEX
  5
D3
330
D1
100
AcDbEntity
  8
_U+30EC_U+30A4_U+30E4_U+30FC 1
 62
   179
420
  2234388
370
     9
100
AcDbVertex
100
AcDb2dVertex
 10
90.0134010089908
 20
-163.6364426521654
 30
0.0
  0
SEQEND
  5
D4
330
D1
100
AcDbEntity
  8
_U+30EC_U+30A4_U+30E4_U+30FC 1
 62
   179
420
  2234388
370
     9
  0
INSERT
  5
D6
330
1F
100
AcDbEntity
  8
_U+30EC_U+30A4_U+30E4_U+30FC 1
100
AcDbBlockReference
  2
block 7
 10
0.0
 20
0.0
 30
0.0
  0
SPLINE
  5
DE
330
1F
100
AcDbEntity
  8
_U+30EC_U+30A4_U+30E4_U+30FC 1
 62
   179
420
  2234388
370
    25
100
AcDbSpline
210
0.0
220
0.0
230
1.0
 70
     8
 71
     3
 72
    20
 73
    16
 74
     0
 42
0.0000000001
 43
0.0000000001
 12
1.0
 22
0.0
 32
0.0
 13
1.0
 23
0.0
 33
0.0
 40
0.0
 40
0.0
 40
0.0
 40
0.0
 40
1.0
 40
1.0
 40
1.0
 40
2.0
 40
2.0
 40
2.0
 40
3.0
 40
3.0
 40
3.0
 40
4.0
 40
4.0
 40
4.0
 40
5.0
 40
5.0
 40
5.0
 40
5.0
 10
94.01333719658267
 20
-158.6360588100996
 30
0.0
 10
90.96498213719121
 20
-158.6360588100996
 30
0.0
 10
90.24919626310937
 20
-157.0623176605907
 30
0.0
 10
90.03576721483644
 20
-155.0599528030997
 30
0.0
 10
90.03576721483644
 20
-155.0599528030997
 30
0.0
 10
89.95956600907208
 20
-154.7717328850267
 30
0.0
 10
89.98990438118905
 20
-154.0718240564663
 30
0.0
 10
90.04564494954805
 20
-152.7880630535049
 30
0.0
 10
90.28659169800942
 20
-152.3968347804229
 30
0.0
 10
90.61220435950163
 20
-151.3494342425581
 30
0.0
 10
92.11150991468236
 20
-146.528023110951
 30
0.0
 10
98.55746389680161
 20
-140.6486285387853
 30
0.0
 10
102.6362821037525
 20
-140.6362800246554
 30
0.0
 10
103.2317694511886
 20
-140.6345144132192
 30
0.0
 10
103.842078882324
 20
-140.6362800246554
 30
0.0
 10
103.842078882324
 20
-140.6362800246554
 30
0.0
  0
POLYLINE
  5
DF
330
1F
100
AcDbEntity
  8
_U+30EC_U+30A4_U+30E4_U+30FC 1
  6
AI-Linetype-1
 62
   179
420
  2234388
370
    25
100
AcDb2dPolyline
 66
     1
 10
0.0
 20
0.0
 30
0.0
  0
VERTEX
  5
E0
330
DF
100
AcDbEntity
  8
_U+30EC_U+30A4_U+30E4_U+30FC 1
  6
AI-Linetype-1
 62
   179
420
  2234388
370
    25
100
AcDbVertex
100
AcDb2dVertex
 10
110.7129181055276
 20
-140.621320774103
 30
0.0
  0
VERTEX
  5
E1
330
DF
100
AcDbEntity
  8
_U+30EC_U+30A4_U+30E4_U+30FC 1
  6
AI-Linetype-1
 62
   179
420
  2234388
370
    25
100
AcDbVertex
100
AcDb2dVertex
 10
112.7131674590722
 20
-142.6212202351373
 30
0.0
  0
VERTEX
  5
E2
330
DF
100
AcDbEntity
  8
_U+30EC_U+30A4_U+30E4_U+30FC 1
  6
AI-Linetype-1
 62
   179
420
  2234388
370
    25
100
AcDbVertex
100
AcDb2dVertex
 10
112.7131674590722
 20
-150.6363317748816
 30
0.0
  0
SEQEND
  5
E4
330
DF
100
AcDbEntity
  8
_U+30EC_U+30A4_U+30E4_U+30FC 1
  6
AI-Linetype-1
 62
   179
420
  2234388
370
    25
  0
POLYLINE
  5
E5
330
1F
100
AcDbEntity
  8
_U+30EC_U+30A4_U+30E4_U+30FC 1
  6
AI-Linetype-2
 62
   179
420
  2234388
370
    25
100
AcDb2dPolyline
 66
     1
 10
0.0
 20
0.0
 30
0.0
  0
VERTEX
  5
E6
330
E5
100
AcDbEntity
  8
_U+30EC_U+30A4_U+30E4_U+30FC 1
  6
AI-Linetype-2
 62
   179
420
  2234388
370
    25
100
AcDbVertex
100
AcDb2dVertex
 10
118.2129071258016
 20
-140.621320774103
 30
0.0
  0
VERTEX
  5
E7
330
E5
100
AcDbEntity
  8
_U+30EC_U+30A4_U+30E4_U+30FC 1
  6
AI-Linetype-2
 62
   179
420
  2234388
370
    25
100
AcDbVertex
100
AcDb2dVertex
 10
116.2130076647673
 20
-142.6212202351373
 30
0.0
  0
VERTEX
  5
E8
330
E5
100
AcDbEntity
  8
_U+30EC_U+30A4_U+30E4_U+30FC 1
  6
AI-Linetype-2
 62
   179
420
  2234388
370
    25
100
AcDbVertex
100
AcDb2dVertex
 10
116.2130076647673
 20
-150.6363317748816
 30
0.0
  0
SEQEND
  5
EA
330
E5
100
AcDbEntity
  8
_U+30EC_U+30A4_U+30E4_U+30FC 1
  6
AI-Linetype-2
 62
   179
420
  2234388
370
    25
  0
INSERT
  5
EC
330
1F
100
AcDbEntity
  8
_U+30EC_U+30A4_U+30E4_U+30FC 1
100
AcDbBlockReference
  2
block 8
 10
0.0
 20
0.0
 30
0.0
  0
INSERT
  5
F4
330
1F
100
AcDbEntity
  8
_U+30EC_U+30A4_U+30E4_U+30FC 1
100
AcDbBlockReference
  2
block 9
 10
0.0
 20
0.0
 30
0.0
  0
INSERT
  5
FA
330
1F
100
AcDbEntity
  8
_U+30EC_U+30A4_U+30E4_U+30FC 1
100
AcDbBlockReference
  2
block 10
 10
0.0
 20
0.0
 30
0.0
  0
INSERT
  5
102
330
1F
100
AcDbEntity
  8
_U+30EC_U+30A4_U+30E4_U+30FC 1
100
AcDbBlockReference
  2
block 11
 10
0.0
 20
0.0
 30
0.0
  0
POLYLINE
  5
115
330
1F
100
AcDbEntity
  8
_U+30EC_U+30A4_U+30E4_U+30FC 1
 62
   179
420
  2234388
370
    25
100
AcDb2dPolyline
 66
     1
 10
0.0
 20
0.0
 30
0.0
  0
VERTEX
  5
116
330
115
100
AcDbEntity
  8
_U+30EC_U+30A4_U+30E4_U+30FC 1
 62
   179
420
  2234388
370
    25
100
AcDbVertex
100
AcDb2dVertex
 10
108.3782038099823
 20
-140.4211553434483
 30
0.0
  0
VERTEX
  5
117
330
115
100
AcDbEntity
  8
_U+30EC_U+30A4_U+30E4_U+30FC 1
 62
   179
420
  2234388
370
    25
100
AcDbVertex
100
AcDb2dVertex
 10
107.8783150721108
 20
-140.8215615662215
 30
0.0
  0
SEQEND
  5
118
330
115
100
AcDbEntity
  8
_U+30EC_U+30A4_U+30E4_U+30FC 1
 62
   179
420
  2234388
370
    25
  0
POLYLINE
  5
119
330
1F
100
AcDbEntity
  8
_U+30EC_U+30A4_U+30E4_U+30FC 1
 62
   179
420
  2234388
370
    25
100
AcDb2dPolyline
 66
     1
 10
0.0
 20
0.0
 30
0.0
  0
VERTEX
  5
11A
330
119
100
AcDbEntity
  8
_U+30EC_U+30A4_U+30E4_U+30FC 1
 62
   179
420
  2234388
370
    25
100
AcDbVertex
100
AcDb2dVertex
 10
113.3778717181426
 20
-140.4204878561981
 30
0.0
  0
VERTEX
  5
11B
330
119
100
AcDbEntity
  8
_U+30EC_U+30A4_U+30E4_U+30FC 1
 62
   179
420
  2234388
370
    25
100
AcDbVertex
100
AcDb2dVertex
 10
112.8779829802712
 20
-140.8208940789712
 30
0.0
  0
SEQEND
  5
11C
330
119
100
AcDbEntity
  8
_U+30EC_U+30A4_U+30E4_U+30FC 1
 62
   179
420
  2234388
370
    25
  0
POLYLINE
  5
11D
330
1F
100
AcDbEntity
  8
_U+30EC_U+30A4_U+30E4_U+30FC 1
 62
   179
420
  2234388
370
    25
100
AcDb2dPolyline
 66
     1
 10
0.0
 20
0.0
 30
0.0
  0
VERTEX
  5
11E
330
11D
100
AcDbEntity
  8
_U+30EC_U+30A4_U+30E4_U+30FC 1
 62
   179
420
  2234388
370
    25
100
AcDbVertex
100
AcDb2dVertex
 10
108.8775596346458
 20
-140.8214862047577
 30
0.0
  0
VERTEX
  5
11F
330
11D
100
AcDbEntity
  8
_U+30EC_U+30A4_U+30E4_U+30FC 1
 62
   179
420
  2234388
370
    25
100
AcDbVertex
100
AcDb2dVertex
 10
108.3780261722463
 20
-140.4210853649463
 30
0.0
  0
SEQEND
  5
120
330
11D
100
AcDbEntity
  8
_U+30EC_U+30A4_U+30E4_U+30FC 1
 62
   179
420
  2234388
370
    25
  0
POLYLINE
  5
121
330
1F
100
AcDbEntity
  8
_U+30EC_U+30A4_U+30E4_U+30FC 1
 62
   179
420
  2234388
370
    25
100
AcDb2dPolyline
 66
     1
 10
0.0
 20
0.0
 30
0.0
  0
VERTEX
  5
122
330
121
100
AcDbEntity
  8
_U+30EC_U+30A4_U+30E4_U+30FC 1
 62
   179
420
  2234388
370
    25
100
AcDbVertex
100
AcDb2dVertex
 10
109.8781768524133
 20
-140.8214862047577
 30
0.0
  0
VERTEX
  5
123
330
121
100
AcDbEntity
  8
_U+30EC_U+30A4_U+30E4_U+30FC 1
 62
   179
420
  2234388
370
    25
100
AcDbVertex
100
AcDb2dVertex
 10
109.3775829465597
 20
-140.4210853649463
 30
0.0
  0
SEQEND
  5
124
330
121
100
AcDbEntity
  8
_U+30EC_U+30A4_U+30E4_U+30FC 1
 62
   179
420
  2234388
370
    25
  0
POLYLINE
  5
125
330
1F
100
AcDbEntity
  8
_U+30EC_U+30A4_U+30E4_U+30FC 1
 62
   179
420
  2234388
370
    25
100
AcDb2dPolyline
 66
     1
 10
0.0
 20
0.0
 30
0.0
  0
VERTEX
  5
126
330
125
100
AcDbEntity
  8
_U+30EC_U+30A4_U+30E4_U+30FC 1
 62
   179
420
  2234388
370
    25
100
AcDbVertex
100
AcDb2dVertex
 10
107.8783150721108
 20
-140.8214862047577
 30
0.0
  0
VERTEX
  5
127
330
125
100
AcDbEntity
  8
_U+30EC_U+30A4_U+30E4_U+30FC 1
 62
   179
420
  2234388
370
    25
100
AcDbVertex
100
AcDb2dVertex
 10
107.3777211662572
 20
-140.4217905329287
 30
0.0
  0
SEQEND
  5
128
330
125
100
AcDbEntity
  8
_U+30EC_U+30A4_U+30E4_U+30FC 1
 62
   179
420
  2234388
370
    25
  0
POLYLINE
  5
129
330
1F
100
AcDbEntity
  8
_U+30EC_U+30A4_U+30E4_U+30FC 1
 62
   179
420
  2234388
370
    25
100
AcDb2dPolyline
 66
     1
 10
0.0
 20
0.0
 30
0.0
  0
VERTEX
  5
12A
330
129
100
AcDbEntity
  8
_U+30EC_U+30A4_U+30E4_U+30FC 1
 62
   179
420
  2234388
370
    25
100
AcDbVertex
100
AcDb2dVertex
 10
109.3774429895556
 20
-140.4211553434483
 30
0.0
  0
VERTEX
  5
12B
330
129
100
AcDbEntity
  8
_U+30EC_U+30A4_U+30E4_U+30FC 1
 62
   179
420
  2234388
370
    25
100
AcDbVertex
100
AcDb2dVertex
 10
108.8775542516842
 20
-140.8215615662215
 30
0.0
  0
SEQEND
  5
12C
330
129
100
AcDbEntity
  8
_U+30EC_U+30A4_U+30E4_U+30FC 1
 62
   179
420
  2234388
370
    25
  0
POLYLINE
  5
12D
330
1F
100
AcDbEntity
  8
_U+30EC_U+30A4_U+30E4_U+30FC 1
 62
   179
420
  2234388
370
    25
100
AcDb2dPolyline
 66
     1
 10
0.0
 20
0.0
 30
0.0
  0
VERTEX
  5
12E
330
12D
100
AcDbEntity
  8
_U+30EC_U+30A4_U+30E4_U+30FC 1
 62
   179
420
  2234388
370
    25
100
AcDbVertex
100
AcDb2dVertex
 10
117.3779882349513
 20
-140.4197826882159
 30
0.0
  0
VERTEX
  5
12F
330
12D
100
AcDbEntity
  8
_U+30EC_U+30A4_U+30E4_U+30FC 1
 62
   179
420
  2234388
370
    25
100
AcDbVertex
100
AcDb2dVertex
 10
116.8780994970798
 20
-140.8201889109891
 30
0.0
  0
SEQEND
  5
130
330
12D
100
AcDbEntity
  8
_U+30EC_U+30A4_U+30E4_U+30FC 1
 62
   179
420
  2234388
370
    25
  0
POLYLINE
  5
131
330
1F
100
AcDbEntity
  8
_U+30EC_U+30A4_U+30E4_U+30FC 1
 62
   179
420
  2234388
370
    25
100
AcDb2dPolyline
 66
     1
 10
0.0
 20
0.0
 30
0.0
  0
VERTEX
  5
132
330
131
100
AcDbEntity
  8
_U+30EC_U+30A4_U+30E4_U+30FC 1
 62
   179
420
  2234388
370
    25
100
AcDbVertex
100
AcDb2dVertex
 10
110.3780655902847
 20
-140.4211553434483
 30
0.0
  0
VERTEX
  5
133
330
131
100
AcDbEntity
  8
_U+30EC_U+30A4_U+30E4_U+30FC 1
 62
   179
420
  2234388
370
    25
100
AcDbVertex
100
AcDb2dVertex
 10
109.8781768524133
 20
-140.8215615662215
 30
0.0
  0
SEQEND
  5
134
330
131
100
AcDbEntity
  8
_U+30EC_U+30A4_U+30E4_U+30FC 1
 62
   179
420
  2234388
370
    25
  0
POLYLINE
  5
135
330
1F
100
AcDbEntity
  8
_U+30EC_U+30A4_U+30E4_U+30FC 1
 62
   179
420
  2234388
370
    25
100
AcDb2dPolyline
 66
     1
 10
0.0
 20
0.0
 30
0.0
  0
VERTEX
  5
136
330
135
100
AcDbEntity
  8
_U+30EC_U+30A4_U+30E4_U+30FC 1
 62
   179
420
  2234388
370
    25
100
AcDbVertex
100
AcDb2dVertex
 10
111.3778376830659
 20
-140.4211553434483
 30
0.0
  0
VERTEX
  5
137
330
135
100
AcDbEntity
  8
_U+30EC_U+30A4_U+30E4_U+30FC 1
 62
   179
420
  2234388
370
    25
100
AcDbVertex
100
AcDb2dVertex
 10
110.8779489451945
 20
-140.8208563982394
 30
0.0
  0
SEQEND
  5
138
330
135
100
AcDbEntity
  8
_U+30EC_U+30A4_U+30E4_U+30FC 1
 62
   179
420
  2234388
370
    25
  0
POLYLINE
  5
139
330
1F
100
AcDbEntity
  8
_U+30EC_U+30A4_U+30E4_U+30FC 1
 62
   179
420
  2234388
370
    25
100
AcDb2dPolyline
 66
     1
 10
0.0
 20
0.0
 30
0.0
  0
VERTEX
  5
13A
330
139
100
AcDbEntity
  8
_U+30EC_U+30A4_U+30E4_U+30FC 1
 62
   179
420
  2234388
370
    25
100
AcDbVertex
100
AcDb2dVertex
 10
110.8779489451945
 20
-140.8207810367756
 30
0.0
  0
VERTEX
  5
13B
330
139
100
AcDbEntity
  8
_U+30EC_U+30A4_U+30E4_U+30FC 1
 62
   179
420
  2234388
370
    25
100
AcDbVertex
100
AcDb2dVertex
 10
110.378060207323
 20
-140.4210853649463
 30
0.0
  0
SEQEND
  5
13C
330
139
100
AcDbEntity
  8
_U+30EC_U+30A4_U+30E4_U+30FC 1
 62
   179
420
  2234388
370
    25
  0
POLYLINE
  5
13D
330
1F
100
AcDbEntity
  8
_U+30EC_U+30A4_U+30E4_U+30FC 1
 62
   179
420
  2234388
370
    25
100
AcDb2dPolyline
 66
     1
 10
0.0
 20
0.0
 30
0.0
  0
VERTEX
  5
13E
330
13D
100
AcDbEntity
  8
_U+30EC_U+30A4_U+30E4_U+30FC 1
 62
   179
420
  2234388
370
    25
100
AcDbVertex
100
AcDb2dVertex
 10
111.8780763134476
 20
-140.8207810367756
 30
0.0
  0
VERTEX
  5
13F
330
13D
100
AcDbEntity
  8
_U+30EC_U+30A4_U+30E4_U+30FC 1
 62
   179
420
  2234388
370
    25
100
AcDbVertex
100
AcDb2dVertex
 10
111.3778323001042
 20
-140.4210853649463
 30
0.0
  0
SEQEND
  5
140
330
13D
100
AcDbEntity
  8
_U+30EC_U+30A4_U+30E4_U+30FC 1
 62
   179
420
  2234388
370
    25
  0
POLYLINE
  5
141
330
1F
100
AcDbEntity
  8
_U+30EC_U+30A4_U+30E4_U+30FC 1
 62
   179
420
  2234388
370
    25
100
AcDb2dPolyline
 66
     1
 10
0.0
 20
0.0
 30
0.0
  0
VERTEX
  5
142
330
141
100
AcDbEntity
  8
_U+30EC_U+30A4_U+30E4_U+30FC 1
 62
   179
420
  2234388
370
    25
100
AcDbVertex
100
AcDb2dVertex
 10
116.8780994970798
 20
-140.8201135495253
 30
0.0
  0
VERTEX
  5
143
330
141
100
AcDbEntity
  8
_U+30EC_U+30A4_U+30E4_U+30FC 1
 62
   179
420
  2234388
370
    25
100
AcDbVertex
100
AcDb2dVertex
 10
116.3778554837365
 20
-140.4197127097139
 30
0.0
  0
SEQEND
  5
144
330
141
100
AcDbEntity
  8
_U+30EC_U+30A4_U+30E4_U+30FC 1
 62
   179
420
  2234388
370
    25
  0
POLYLINE
  5
145
330
1F
100
AcDbEntity
  8
_U+30EC_U+30A4_U+30E4_U+30FC 1
 62
   179
420
  2234388
370
    25
100
AcDb2dPolyline
 66
     1
 10
0.0
 20
0.0
 30
0.0
  0
VERTEX
  5
146
330
145
100
AcDbEntity
  8
_U+30EC_U+30A4_U+30E4_U+30FC 1
 62
   179
420
  2234388
370
    25
100
AcDbVertex
100
AcDb2dVertex
 10
112.3777820306214
 20
-140.4204878561981
 30
0.0
  0
VERTEX
  5
147
330
145
100
AcDbEntity
  8
_U+30EC_U+30A4_U+30E4_U+30FC 1
 62
   179
420
  2234388
370
    25
100
AcDbVertex
100
AcDb2dVertex
 10
111.8778932927499
 20
-140.8208940789712
 30
0.0
  0
SEQEND
  5
148
330
145
100
AcDbEntity
  8
_U+30EC_U+30A4_U+30E4_U+30FC 1
 62
   179
420
  2234388
370
    25
  0
POLYLINE
  5
149
330
1F
100
AcDbEntity
  8
_U+30EC_U+30A4_U+30E4_U+30FC 1
 62
   179
420
  2234388
370
    25
100
AcDb2dPolyline
 66
     1
 10
0.0
 20
0.0
 30
0.0
  0
VERTEX
  5
14A
330
149
100
AcDbEntity
  8
_U+30EC_U+30A4_U+30E4_U+30FC 1
 62
   179
420
  2234388
370
    25
100
AcDbVertex
100
AcDb2dVertex
 10
112.8779883632329
 20
-140.8207810367756
 30
0.0
  0
VERTEX
  5
14B
330
149
100
AcDbEntity
  8
_U+30EC_U+30A4_U+30E4_U+30FC 1
 62
   179
420
  2234388
370
    25
100
AcDbVertex
100
AcDb2dVertex
 10
112.3777443498895
 20
-140.4203801969641
 30
0.0
  0
SEQEND
  5
14C
330
149
100
AcDbEntity
  8
_U+30EC_U+30A4_U+30E4_U+30FC 1
 62
   179
420
  2234388
370
    25
  0
POLYLINE
  5
14D
330
1F
100
AcDbEntity
  8
_U+30EC_U+30A4_U+30E4_U+30FC 1
 62
   179
420
  2234388
370
    25
100
AcDb2dPolyline
 66
     1
 10
0.0
 20
0.0
 30
0.0
  0
VERTEX
  5
14E
330
14D
100
AcDbEntity
  8
_U+30EC_U+30A4_U+30E4_U+30FC 1
 62
   179
420
  2234388
370
    25
100
AcDbVertex
100
AcDb2dVertex
 10
117.9106107628943
 20
-140.6371628303735
 30
0.0
  0
VERTEX
  5
14F
330
14D
100
AcDbEntity
  8
_U+30EC_U+30A4_U+30E4_U+30FC 1
 62
   179
420
  2234388
370
    25
100
AcDbVertex
100
AcDb2dVertex
 10
117.3779128734876
 20
-140.419852666718
 30
0.0
  0
SEQEND
  5
150
330
14D
100
AcDbEntity
  8
_U+30EC_U+30A4_U+30E4_U+30FC 1
 62
   179
420
  2234388
370
    25
  0
POLYLINE
  5
151
330
1F
100
AcDbEntity
  8
_U+30EC_U+30A4_U+30E4_U+30FC 1
 62
   179
420
  2234388
370
    25
100
AcDb2dPolyline
 66
     1
 10
0.0
 20
0.0
 30
0.0
  0
VERTEX
  5
152
330
151
100
AcDbEntity
  8
_U+30EC_U+30A4_U+30E4_U+30FC 1
 62
   179
420
  2234388
370
    25
100
AcDbVertex
100
AcDb2dVertex
 10
114.3776438109238
 20
-140.4204878561981
 30
0.0
  0
VERTEX
  5
153
330
151
100
AcDbEntity
  8
_U+30EC_U+30A4_U+30E4_U+30FC 1
 62
   179
420
  2234388
370
    25
100
AcDbVertex
100
AcDb2dVertex
 10
113.8777550730524
 20
-140.8201889109891
 30
0.0
  0
SEQEND
  5
154
330
151
100
AcDbEntity
  8
_U+30EC_U+30A4_U+30E4_U+30FC 1
 62
   179
420
  2234388
370
    25
  0
POLYLINE
  5
155
330
1F
100
AcDbEntity
  8
_U+30EC_U+30A4_U+30E4_U+30FC 1
 62
   179
420
  2234388
370
    25
100
AcDb2dPolyline
 66
     1
 10
0.0
 20
0.0
 30
0.0
  0
VERTEX
  5
156
330
155
100
AcDbEntity
  8
_U+30EC_U+30A4_U+30E4_U+30FC 1
 62
   179
420
  2234388
370
    25
100
AcDbVertex
100
AcDb2dVertex
 10
115.378088773917
 20
-140.4204878561981
 30
0.0
  0
VERTEX
  5
157
330
155
100
AcDbEntity
  8
_U+30EC_U+30A4_U+30E4_U+30FC 1
 62
   179
420
  2234388
370
    25
100
AcDbVertex
100
AcDb2dVertex
 10
114.8778447605736
 20
-140.8201889109891
 30
0.0
  0
SEQEND
  5
158
330
155
100
AcDbEntity
  8
_U+30EC_U+30A4_U+30E4_U+30FC 1
 62
   179
420
  2234388
370
    25
  0
POLYLINE
  5
159
330
1F
100
AcDbEntity
  8
_U+30EC_U+30A4_U+30E4_U+30FC 1
 62
   179
420
  2234388
370
    25
100
AcDb2dPolyline
 66
     1
 10
0.0
 20
0.0
 30
0.0
  0
VERTEX
  5
15A
330
159
100
AcDbEntity
  8
_U+30EC_U+30A4_U+30E4_U+30FC 1
 62
   179
420
  2234388
370
    25
100
AcDbVertex
100
AcDb2dVertex
 10
114.8778878242672
 20
-140.8201135495253
 30
0.0
  0
VERTEX
  5
15B
330
159
100
AcDbEntity
  8
_U+30EC_U+30A4_U+30E4_U+30FC 1
 62
   179
420
  2234388
370
    25
100
AcDbVertex
100
AcDb2dVertex
 10
114.3776438109238
 20
-140.420417877696
 30
0.0
  0
SEQEND
  5
15C
330
159
100
AcDbEntity
  8
_U+30EC_U+30A4_U+30E4_U+30FC 1
 62
   179
420
  2234388
370
    25
  0
POLYLINE
  5
15D
330
1F
100
AcDbEntity
  8
_U+30EC_U+30A4_U+30E4_U+30FC 1
 62
   179
420
  2234388
370
    25
100
AcDb2dPolyline
 66
     1
 10
0.0
 20
0.0
 30
0.0
  0
VERTEX
  5
15E
330
15D
100
AcDbEntity
  8
_U+30EC_U+30A4_U+30E4_U+30FC 1
 62
   179
420
  2234388
370
    25
100
AcDbVertex
100
AcDb2dVertex
 10
113.8777604560141
 20
-140.8201135495253
 30
0.0
  0
VERTEX
  5
15F
330
15D
100
AcDbEntity
  8
_U+30EC_U+30A4_U+30E4_U+30FC 1
 62
   179
420
  2234388
370
    25
100
AcDbVertex
100
AcDb2dVertex
 10
113.3778717181426
 20
-140.420417877696
 30
0.0
  0
SEQEND
  5
160
330
15D
100
AcDbEntity
  8
_U+30EC_U+30A4_U+30E4_U+30FC 1
 62
   179
420
  2234388
370
    25
  0
POLYLINE
  5
161
330
1F
100
AcDbEntity
  8
_U+30EC_U+30A4_U+30E4_U+30FC 1
 62
   179
420
  2234388
370
    25
100
AcDb2dPolyline
 66
     1
 10
0.0
 20
0.0
 30
0.0
  0
VERTEX
  5
162
330
161
100
AcDbEntity
  8
_U+30EC_U+30A4_U+30E4_U+30FC 1
 62
   179
420
  2234388
370
    25
100
AcDbVertex
100
AcDb2dVertex
 10
116.3778608666982
 20
-140.4197826882159
 30
0.0
  0
VERTEX
  5
163
330
161
100
AcDbEntity
  8
_U+30EC_U+30A4_U+30E4_U+30FC 1
 62
   179
420
  2234388
370
    25
100
AcDbVertex
100
AcDb2dVertex
 10
115.8776168533548
 20
-140.8201889109891
 30
0.0
  0
SEQEND
  5
164
330
161
100
AcDbEntity
  8
_U+30EC_U+30A4_U+30E4_U+30FC 1
 62
   179
420
  2234388
370
    25
  0
POLYLINE
  5
165
330
1F
100
AcDbEntity
  8
_U+30EC_U+30A4_U+30E4_U+30FC 1
 62
   179
420
  2234388
370
    25
100
AcDb2dPolyline
 66
     1
 10
0.0
 20
0.0
 30
0.0
  0
VERTEX
  5
166
330
165
100
AcDbEntity
  8
_U+30EC_U+30A4_U+30E4_U+30FC 1
 62
   179
420
  2234388
370
    25
100
AcDbVertex
100
AcDb2dVertex
 10
115.8776599170484
 20
-140.8201135495253
 30
0.0
  0
VERTEX
  5
167
330
165
100
AcDbEntity
  8
_U+30EC_U+30A4_U+30E4_U+30FC 1
 62
   179
420
  2234388
370
    25
100
AcDbVertex
100
AcDb2dVertex
 10
115.3781264546489
 20
-140.420417877696
 30
0.0
  0
SEQEND
  5
168
330
165
100
AcDbEntity
  8
_U+30EC_U+30A4_U+30E4_U+30FC 1
 62
   179
420
  2234388
370
    25
  0
POLYLINE
  5
169
330
1F
100
AcDbEntity
  8
_U+30EC_U+30A4_U+30E4_U+30FC 1
 62
   179
420
  2234388
370
    25
100
AcDb2dPolyline
 66
     1
 10
0.0
 20
0.0
 30
0.0
  0
VERTEX
  5
16A
330
169
100
AcDbEntity
  8
_U+30EC_U+30A4_U+30E4_U+30FC 1
 62
   179
420
  2234388
370
    25
100
AcDbVertex
100
AcDb2dVertex
 10
107.377548911483
 20
-140.4218605114305
 30
0.0
  0
VERTEX
  5
16B
330
169
100
AcDbEntity
  8
_U+30EC_U+30A4_U+30E4_U+30FC 1
 62
   179
420
  2234388
370
    25
100
AcDbVertex
100
AcDb2dVertex
 10
106.8776601736115
 20
-140.8222667342036
 30
0.0
  0
SEQEND
  5
16C
330
169
100
AcDbEntity
  8
_U+30EC_U+30A4_U+30E4_U+30FC 1
 62
   179
420
  2234388
370
    25
  0
POLYLINE
  5
16D
330
1F
100
AcDbEntity
  8
_U+30EC_U+30A4_U+30E4_U+30FC 1
 62
   179
420
  2234388
370
    25
100
AcDb2dPolyline
 66
     1
 10
0.0
 20
0.0
 30
0.0
  0
VERTEX
  5
16E
330
16D
100
AcDbEntity
  8
_U+30EC_U+30A4_U+30E4_U+30FC 1
 62
   179
420
  2234388
370
    25
100
AcDbVertex
100
AcDb2dVertex
 10
106.8776601736115
 20
-140.8221590749697
 30
0.0
  0
VERTEX
  5
16F
330
16D
100
AcDbEntity
  8
_U+30EC_U+30A4_U+30E4_U+30FC 1
 62
   179
420
  2234388
370
    25
100
AcDbVertex
100
AcDb2dVertex
 10
106.3777714357401
 20
-140.4217582351583
 30
0.0
  0
SEQEND
  5
170
330
16D
100
AcDbEntity
  8
_U+30EC_U+30A4_U+30E4_U+30FC 1
 62
   179
420
  2234388
370
    25
  0
POLYLINE
  5
171
330
1F
100
AcDbEntity
  8
_U+30EC_U+30A4_U+30E4_U+30FC 1
 62
   179
420
  2234388
370
    25
100
AcDb2dPolyline
 66
     1
 10
0.0
 20
0.0
 30
0.0
  0
VERTEX
  5
172
330
171
100
AcDbEntity
  8
_U+30EC_U+30A4_U+30E4_U+30FC 1
 62
   179
420
  2234388
370
    25
100
AcDbVertex
100
AcDb2dVertex
 10
105.3778593859548
 20
-140.4197826882159
 30
0.0
  0
VERTEX
  5
173
330
171
100
AcDbEntity
  8
_U+30EC_U+30A4_U+30E4_U+30FC 1
 62
   179
420
  2234388
370
    25
100
AcDbVertex
100
AcDb2dVertex
 10
104.8779706480833
 20
-140.8201889109891
 30
0.0
  0
SEQEND
  5
174
330
171
100
AcDbEntity
  8
_U+30EC_U+30A4_U+30E4_U+30FC 1
 62
   179
420
  2234388
370
    25
  0
POLYLINE
  5
175
330
1F
100
AcDbEntity
  8
_U+30EC_U+30A4_U+30E4_U+30FC 1
 62
   179
420
  2234388
370
    25
100
AcDb2dPolyline
 66
     1
 10
0.0
 20
0.0
 30
0.0
  0
VERTEX
  5
176
330
175
100
AcDbEntity
  8
_U+30EC_U+30A4_U+30E4_U+30FC 1
 62
   179
420
  2234388
370
    25
100
AcDbVertex
100
AcDb2dVertex
 10
104.8779760310451
 20
-140.8201135495253
 30
0.0
  0
VERTEX
  5
177
330
175
100
AcDbEntity
  8
_U+30EC_U+30A4_U+30E4_U+30FC 1
 62
   179
420
  2234388
370
    25
100
AcDbVertex
100
AcDb2dVertex
 10
104.3777320177017
 20
-140.4197127097139
 30
0.0
  0
SEQEND
  5
178
330
175
100
AcDbEntity
  8
_U+30EC_U+30A4_U+30E4_U+30FC 1
 62
   179
420
  2234388
370
    25
  0
POLYLINE
  5
179
330
1F
100
AcDbEntity
  8
_U+30EC_U+30A4_U+30E4_U+30FC 1
 62
   179
420
  2234388
370
    25
100
AcDb2dPolyline
 66
     1
 10
0.0
 20
0.0
 30
0.0
  0
VERTEX
  5
17A
330
179
100
AcDbEntity
  8
_U+30EC_U+30A4_U+30E4_U+30FC 1
 62
   179
420
  2234388
370
    25
100
AcDbVertex
100
AcDb2dVertex
 10
105.8779257615622
 20
-140.8194083815432
 30
0.0
  0
VERTEX
  5
17B
330
179
100
AcDbEntity
  8
_U+30EC_U+30A4_U+30E4_U+30FC 1
 62
   179
420
  2234388
370
    25
100
AcDbVertex
100
AcDb2dVertex
 10
105.3780370236908
 20
-140.4197127097139
 30
0.0
  0
SEQEND
  5
17C
330
179
100
AcDbEntity
  8
_U+30EC_U+30A4_U+30E4_U+30FC 1
 62
   179
420
  2234388
370
    25
  0
POLYLINE
  5
17D
330
1F
100
AcDbEntity
  8
_U+30EC_U+30A4_U+30E4_U+30FC 1
 62
   179
420
  2234388
370
    25
100
AcDb2dPolyline
 66
     1
 10
0.0
 20
0.0
 30
0.0
  0
VERTEX
  5
17E
330
17D
100
AcDbEntity
  8
_U+30EC_U+30A4_U+30E4_U+30FC 1
 62
   179
420
  2234388
370
    25
100
AcDbVertex
100
AcDb2dVertex
 10
106.377809116472
 20
-140.4190775202338
 30
0.0
  0
VERTEX
  5
17F
330
17D
100
AcDbEntity
  8
_U+30EC_U+30A4_U+30E4_U+30FC 1
 62
   179
420
  2234388
370
    25
100
AcDbVertex
100
AcDb2dVertex
 10
105.8779203786005
 20
-140.8194837430069
 30
0.0
  0
SEQEND
  5
180
330
17D
100
AcDbEntity
  8
_U+30EC_U+30A4_U+30E4_U+30FC 1
 62
   179
420
  2234388
370
    25
  0
POLYLINE
  5
181
330
1F
100
AcDbEntity
  8
_U+30EC_U+30A4_U+30E4_U+30FC 1
 62
   179
420
  2234388
370
    25
100
AcDb2dPolyline
 66
     1
 10
0.0
 20
0.0
 30
0.0
  0
VERTEX
  5
182
330
181
100
AcDbEntity
  8
_U+30EC_U+30A4_U+30E4_U+30FC 1
 62
   179
420
  2234388
370
    25
100
AcDbVertex
100
AcDb2dVertex
 10
104.3777374006637
 20
-140.4197826882159
 30
0.0
  0
VERTEX
  5
183
330
181
100
AcDbEntity
  8
_U+30EC_U+30A4_U+30E4_U+30FC 1
 62
   179
420
  2234388
370
    25
100
AcDbVertex
100
AcDb2dVertex
 10
103.8418635638562
 20
-140.6360377913791
 30
0.0
  0
SEQEND
  5
184
330
181
100
AcDbEntity
  8
_U+30EC_U+30A4_U+30E4_U+30FC 1
 62
   179
420
  2234388
370
    25
  0
ENDSEC
  0
SECTION
  2
OBJECTS
  0
DICTIONARY
  5
C
330
0
100
AcDbDictionary
281
     1
  3
ACAD_GROUP
350
D
  3
ACAD_LAYOUT
350
1A
  3
ACAD_MATERIAL
350
3B
  3
ACAD_MLEADERSTYLE
350
186
  3
ACAD_MLINESTYLE
350
17
  3
ACAD_PLOTSETTINGS
350
19
  3
ACAD_PLOTSTYLENAME
350
E
  3
ACAD_TABLESTYLE
350
185
  3
ACAD_VISUALSTYLE
350
2A
  0
SUN
  5
3F
330
29
100
AcDbSun
 90
        1
290
     0
 63
     7
421
 16777215
 40
1.0
291
     1
 91
  2455826
 92
 54000000
292
     0
 70
     2
 71
   256
280
     1
  0
DICTIONARY
  5
D
102
{ACAD_REACTORS
330
C
102
}
330
C
100
AcDbDictionary
281
     1
  0
DICTIONARY
  5
1A
102
{ACAD_REACTORS
330
C
102
}
330
C
100
AcDbDictionary
281
     1
  3
Layout1
350
1E
  3
Layout2
350
26
  3
Model
350
22
  0
DICTIONARY
  5
3B
102
{ACAD_REACTORS
330
C
102
}
330
C
100
AcDbDictionary
281
     1
  3
ByBlock
350
3D
  3
ByLayer
350
3C
  3
Global
350
3E
  0
DICTIONARY
  5
186
102
{ACAD_REACTORS
330
C
102
}
330
C
100
AcDbDictionary
281
     1
  0
DICTIONARY
  5
17
102
{ACAD_REACTORS
330
C
102
}
330
C
100
AcDbDictionary
281
     1
  3
Standard
350
18
  0
DICTIONARY
  5
19
102
{ACAD_REACTORS
330
C
102
}
330
C
100
AcDbDictionary
281
     1
  0
ACDBDICTIONARYWDFLT
  5
E
102
{ACAD_REACTORS
330
C
102
}
330
C
100
AcDbDictionary
281
     1
  3
Normal
350
F
100
AcDbDictionaryWithDefault
340
F
  0
DICTIONARY
  5
185
102
{ACAD_REACTORS
330
C
102
}
330
C
100
AcDbDictionary
281
     1
  0
DICTIONARY
  5
2A
102
{ACAD_REACTORS
330
C
102
}
330
C
100
AcDbDictionary
281
     1
  3
2dWireframe
350
2F
  3
3D Hidden
350
31
  3
3dWireframe
350
30
  3
Basic
350
32
  3
Brighten
350
36
  3
ColorChange
350
3A
  3
Conceptual
350
34
  3
Dim
350
35
  3
Facepattern
350
39
  3
Flat
350
2B
  3
FlatWithEdges
350
2C
  3
Gouraud
350
2D
  3
GouraudWithEdges
350
2E
  3
Linepattern
350
38
  3
Realistic
350
33
  3
Thicken
350
37
  0
LAYOUT
  5
1E
102
{ACAD_REACTORS
330
1A
102
}
330
1A
100
AcDbPlotSettings
  1

  2
none_device
  4

  6

 40
0.0
 41
0.0
 42
0.0
 43
0.0
 44
0.0
 45
0.0
 46
0.0
 47
0.0
 48
0.0
 49
0.0
140
0.0
141
0.0
142
1.0
143
1.0
 70
   688
 72
     0
 73
     0
 74
     5
  7

 75
    16
 76
     0
 77
     2
 78
   300
147
1.0
148
0.0
149
0.0
100
AcDbLayout
  1
Layout1
 70
     1
 71
     1
 10
0.0
 20
0.0
 11
12.0
 21
9.0
 12
0.0
 22
0.0
 32
0.0
 14
1.000000000000000E+20
 24
1.000000000000000E+20
 34
1.000000000000000E+20
 15
-1.000000000000000E+20
 25
-1.000000000000000E+20
 35
-1.000000000000000E+20
146
0.0
 13
0.0
 23
0.0
 33
0.0
 16
1.0
 26
0.0
 36
0.0
 17
0.0
 27
1.0
 37
0.0
 76
     0
330
1B
  0
LAYOUT
  5
26
102
{ACAD_REACTORS
330
1A
102
}
330
1A
100
AcDbPlotSettings
  1

  2
none_device
  4

  6

 40
0.0
 41
0.0
 42
0.0
 43
0.0
 44
0.0
 45
0.0
 46
0.0
 47
0.0
 48
0.0
 49
0.0
140
0.0
141
0.0
142
1.0
143
1.0
 70
   688
 72
     0
 73
     0
 74
     5
  7

 75
    16
 76
     0
 77
     2
 78
   300
147
1.0
148
0.0
149
0.0
100
AcDbLayout
  1
Layout2
 70
     1
 71
     2
 10
0.0
 20
0.0
 11
0.0
 21
0.0
 12
0.0
 22
0.0
 32
0.0
 14
0.0
 24
0.0
 34
0.0
 15
0.0
 25
0.0
 35
0.0
146
0.0
 13
0.0
 23
0.0
 33
0.0
 16
1.0
 26
0.0
 36
0.0
 17
0.0
 27
1.0
 37
0.0
 76
     0
330
23
  0
LAYOUT
  5
22
102
{ACAD_REACTORS
330
1A
102
}
330
1A
100
AcDbPlotSettings
  1

  2
none_device
  4

  6

 40
0.0
 41
0.0
 42
0.0
 43
0.0
 44
0.0
 45
0.0
 46
0.0
 47
0.0
 48
0.0
 49
0.0
140
0.0
141
0.0
142
1.0
143
1.0
 70
  1712
 72
     0
 73
     0
 74
     0
  7

 75
     0
 76
     0
 77
     2
 78
   300
147
1.0
148
0.0
149
0.0
100
AcDbLayout
  1
Model
 70
     1
 71
     0
 10
0.0
 20
0.0
 11
12.0
 21
9.0
 12
0.0
 22
0.0
 32
0.0
 14
1.000000000000000E+20
 24
1.000000000000000E+20
 34
1.000000000000000E+20
 15
-1.000000000000000E+20
 25
-1.000000000000000E+20
 35
-1.000000000000000E+20
146
0.0
 13
0.0
 23
0.0
 33
0.0
 16
1.0
 26
0.0
 36
0.0
 17
0.0
 27
1.0
 37
0.0
 76
     0
330
1F
331
29
  0
MATERIAL
  5
3D
102
{ACAD_REACTORS
330
3B
102
}
330
3B
100
AcDbMaterial
  1
ByBlock
 72
     1
 94
      127
  0
MATERIAL
  5
3C
102
{ACAD_REACTORS
330
3B
102
}
330
3B
100
AcDbMaterial
  1
ByLayer
 72
     1
 94
      127
  0
MATERIAL
  5
3E
102
{ACAD_REACTORS
330
3B
102
}
330
3B
100
AcDbMaterial
  1
Global
 72
     1
 94
      127
  0
MLINESTYLE
  5
18
102
{ACAD_REACTORS
330
17
102
}
330
17
100
AcDbMlineStyle
  2
Standard
 70
     0
  3

 62
   256
 51
90.0
 52
90.0
 71
     2
 49
0.5
 62
   256
  6
BYLAYER
 49
-0.5
 62
   256
  6
BYLAYER
  0
ACDBPLACEHOLDER
  5
F
102
{ACAD_REACTORS
330
E
102
}
330
E
  0
VISUALSTYLE
  5
2F
102
{ACAD_REACTORS
330
2A
102
}
330
2A
100
AcDbVisualStyle
  2
2dWireframe
 70
     4
177
     2
291
     0
 71
     0
176
     1
 72
     2
176
     1
 73
     0
176
     1
 90
        0
176
     1
 40
-0.6
176
     1
 41
-30.0
176
     1
 62
     5
 63
     7
421
 16777215
176
     1
 74
     1
176
     1
 91
        4
176
     1
 64
     7
176
     1
 65
   257
176
     1
 75
     1
176
     1
175
     1
176
     1
 42
1.0
176
     1
 92
        0
176
     1
 66
   257
176
     1
 43
1.0
176
     1
 76
     1
176
     1
 77
     6
176
     1
 78
     2
176
     1
 67
     7
176
     1
 79
     5
176
     1
170
     0
176
     1
171
     0
176
     1
290
     0
176
     1
 93
        1
176
     1
 44
0.0
176
     1
173
     0
176
     1
  0
VISUALSTYLE
  5
31
102
{ACAD_REACTORS
330
2A
102
}
330
2A
100
AcDbVisualStyle
  2
3D Hidden
 70
     6
177
     2
291
     0
 71
     1
176
     1
 72
     2
176
     1
 73
     2
176
     1
 90
        0
176
     1
 40
-0.6
176
     1
 41
-30.0
176
     1
 62
     5
 63
     7
421
 16777215
176
     1
 74
     2
176
     1
 91
        2
176
     1
 64
     7
176
     1
 65
   257
176
     1
 75
     2
176
     1
175
     1
176
     1
 42
40.0
176
     1
 92
        0
176
     1
 66
   257
176
     1
 43
1.0
176
     1
 76
     1
176
     1
 77
     6
176
     1
 78
     2
176
     1
 67
     7
176
     1
 79
     3
176
     1
170
     0
176
     1
171
     0
176
     1
290
     0
176
     1
 93
        1
176
     1
 44
0.0
176
     1
173
     0
176
     1
  0
VISUALSTYLE
  5
30
102
{ACAD_REACTORS
330
2A
102
}
330
2A
100
AcDbVisualStyle
  2
3dWireframe
 70
     5
177
     2
291
     0
 71
     0
176
     1
 72
     2
176
     1
 73
     0
176
     1
 90
        0
176
     1
 40
-0.6
176
     1
 41
-30.0
176
     1
 62
     5
 63
     7
421
 16777215
176
     1
 74
     1
176
     1
 91
        4
176
     1
 64
     7
176
     1
 65
   257
176
     1
 75
     1
176
     1
175
     1
176
     1
 42
1.0
176
     1
 92
        0
176
     1
 66
   257
176
     1
 43
1.0
176
     1
 76
     1
176
     1
 77
     6
176
     1
 78
     2
176
     1
 67
     7
176
     1
 79
     5
176
     1
170
     0
176
     1
171
     0
176
     1
290
     0
176
     1
 93
        1
176
     1
 44
0.0
176
     1
173
     0
176
     1
  0
VISUALSTYLE
  5
32
102
{ACAD_REACTORS
330
2A
102
}
330
2A
100
AcDbVisualStyle
  2
Basic
 70
     7
177
     2
291
     1
 71
     1
176
     1
 72
     0
176
     1
 73
     1
176
     1
 90
        0
176
     1
 40
-0.6
176
     1
 41
-30.0
176
     1
 62
     5
 63
     7
421
 16777215
176
     1
 74
     0
176
     1
 91
        4
176
     1
 64
     7
176
     1
 65
   257
176
     1
 75
     1
176
     1
175
     1
176
     1
 42
1.0
176
     1
 92
        8
176
     1
 66
     7
176
     1
 43
1.0
176
     1
 76
     1
176
     1
 77
     6
176
     1
 78
     2
176
     1
 67
     7
176
     1
 79
     5
176
     1
170
     0
176
     1
171
     0
176
     1
290
     0
176
     1
 93
        1
176
     1
 44
0.0
176
     1
173
     0
176
     1
  0
VISUALSTYLE
  5
36
102
{ACAD_REACTORS
330
2A
102
}
330
2A
100
AcDbVisualStyle
  2
Brighten
 70
    12
177
     2
291
     1
 71
     2
176
     1
 72
     2
176
     1
 73
     0
176
     1
 90
        0
176
     1
 40
-0.6
176
     1
 41
-30.0
176
     1
 62
     5
 63
     7
421
 16777215
176
     1
 74
     1
176
     1
 91
        4
176
     1
 64
     7
176
     1
 65
   257
176
     1
 75
     1
176
     1
175
     1
176
     1
 42
1.0
176
     1
 92
        8
176
     1
 66
     7
176
     1
 43
1.0
176
     1
 76
     1
176
     1
 77
     6
176
     1
 78
     2
176
     1
 67
     7
176
     1
 79
     5
176
     1
170
     0
176
     1
171
     0
176
     1
290
     0
176
     1
 93
        1
176
     1
 44
50.0
176
     1
173
     0
176
     1
  0
VISUALSTYLE
  5
3A
102
{ACAD_REACTORS
330
2A
102
}
330
2A
100
AcDbVisualStyle
  2
ColorChange
 70
    16
177
     2
291
     1
 71
     2
176
     1
 72
     2
176
     1
 73
     3
176
     1
 90
        0
176
     1
 40
-0.6
176
     1
 41
-30.0
176
     1
 62
     5
 63
     8
421
  8421504
176
     1
 74
     1
176
     1
 91
        4
176
     1
 64
     7
176
     1
 65
   257
176
     1
 75
     1
176
     1
175
     1
176
     1
 42
1.0
176
     1
 92
        8
176
     1
 66
     8
424
  8421504
176
     1
 43
1.0
176
     1
 76
     1
176
     1
 77
     6
176
     1
 78
     2
176
     1
 67
     7
176
     1
 79
     5
176
     1
170
     0
176
     1
171
     0
176
     1
290
     0
176
     1
 93
        1
176
     1
 44
0.0
176
     1
173
     0
176
     1
  0
VISUALSTYLE
  5
34
102
{ACAD_REACTORS
330
2A
102
}
330
2A
100
AcDbVisualStyle
  2
Conceptual
 70
     9
177
     2
291
     0
 71
     3
176
     1
 72
     2
176
     1
 73
     0
176
     1
 90
        0
176
     1
 40
-0.6
176
     1
 41
-30.0
176
     1
 62
     5
 63
     7
421
 16777215
176
     1
 74
     2
176
     1
 91
        2
176
     1
 64
     7
176
     1
 65
   257
176
     1
 75
     1
176
     1
175
     1
176
     1
 42
40.0
176
     1
 92
        8
176
     1
 66
     7
176
     1
 43
1.0
176
     1
 76
     1
176
     1
 77
     6
176
     1
 78
     2
176
     1
 67
     7
176
     1
 79
     3
176
     1
170
     0
176
     1
171
     0
176
     1
290
     0
176
     1
 93
        1
176
     1
 44
0.0
176
     1
173
     0
176
     1
  0
VISUALSTYLE
  5
35
102
{ACAD_REACTORS
330
2A
102
}
330
2A
100
AcDbVisualStyle
  2
Dim
 70
    11
177
     2
291
     1
 71
     2
176
     1
 72
     2
176
     1
 73
     0
176
     1
 90
        0
176
     1
 40
-0.6
176
     1
 41
-30.0
176
     1
 62
     5
 63
     7
421
 16777215
176
     1
 74
     1
176
     1
 91
        4
176
     1
 64
     7
176
     1
 65
   257
176
     1
 75
     1
176
     1
175
     1
176
     1
 42
1.0
176
     1
 92
        8
176
     1
 66
     7
176
     1
 43
1.0
176
     1
 76
     1
176
     1
 77
     6
176
     1
 78
     2
176
     1
 67
     7
176
     1
 79
     5
176
     1
170
     0
176
     1
171
     0
176
     1
290
     0
176
     1
 93
        1
176
     1
 44
-50.0
176
     1
173
     0
176
     1
  0
VISUALSTYLE
  5
39
102
{ACAD_REACTORS
330
2A
102
}
330
2A
100
AcDbVisualStyle
  2
Facepattern
 70
    15
177
     2
291
     1
 71
     2
176
     1
 72
     2
176
     1
 73
     0
176
     1
 90
        0
176
     1
 40
-0.6
176
     1
 41
-30.0
176
     1
 62
     5
 63
     7
421
 16777215
176
     1
 74
     1
176
     1
 91
        4
176
     1
 64
     7
176
     1
 65
   257
176
     1
 75
     1
176
     1
175
     1
176
     1
 42
1.0
176
     1
 92
        8
176
     1
 66
     7
176
     1
 43
1.0
176
     1
 76
     1
176
     1
 77
     6
176
     1
 78
     2
176
     1
 67
     7
176
     1
 79
     5
176
     1
170
     0
176
     1
171
     0
176
     1
290
     0
176
     1
 93
        1
176
     1
 44
0.0
176
     1
173
     0
176
     1
  0
VISUALSTYLE
  5
2B
102
{ACAD_REACTORS
330
2A
102
}
330
2A
100
AcDbVisualStyle
  2
Flat
 70
     0
177
     2
291
     1
 71
     2
176
     1
 72
     1
176
     1
 73
     1
176
     1
 90
        2
176
     1
 40
-0.6
176
     1
 41
30.0
176
     1
 62
     5
 63
     7
421
 16777215
176
     1
 74
     0
176
     1
 91
        4
176
     1
 64
     7
176
     1
 65
   257
176
     1
 75
     1
176
     1
175
     1
176
     1
 42
1.0
176
     1
 92
        8
176
     1
 66
     7
176
     1
 43
1.0
176
     1
 76
     1
176
     1
 77
     6
176
     1
 78
     2
176
     1
 67
     7
176
     1
 79
     5
176
     1
170
     0
176
     1
171
     0
176
     1
290
     0
176
     1
 93
       13
176
     1
 44
0.0
176
     1
173
     0
176
     1
  0
VISUALSTYLE
  5
2C
102
{ACAD_REACTORS
330
2A
102
}
330
2A
100
AcDbVisualStyle
  2
FlatWithEdges
 70
     1
177
     2
291
     1
 71
     2
176
     1
 72
     1
176
     1
 73
     1
176
     1
 90
        2
176
     1
 40
-0.6
176
     1
 41
30.0
176
     1
 62
     5
 63
     7
421
 16777215
176
     1
 74
     1
176
     1
 91
        4
176
     1
 64
     7
176
     1
 65
   257
176
     1
 75
     1
176
     1
175
     1
176
     1
 42
1.0
176
     1
 92
        0
176
     1
 66
   257
176
     1
 43
1.0
176
     1
 76
     1
176
     1
 77
     6
176
     1
 78
     2
176
     1
 67
     7
176
     1
 79
     5
176
     1
170
     0
176
     1
171
     0
176
     1
290
     0
176
     1
 93
       13
176
     1
 44
0.0
176
     1
173
     0
176
     1
  0
VISUALSTYLE
  5
2D
102
{ACAD_REACTORS
330
2A
102
}
330
2A
100
AcDbVisualStyle
  2
Gouraud
 70
     2
177
     2
291
     1
 71
     2
176
     1
 72
     2
176
     1
 73
     1
176
     1
 90
        2
176
     1
 40
-0.6
176
     1
 41
30.0
176
     1
 62
     5
 63
     7
421
 16777215
176
     1
 74
     0
176
     1
 91
        4
176
     1
 64
     7
176
     1
 65
   257
176
     1
 75
     1
176
     1
175
     1
176
     1
 42
1.0
176
     1
 92
        0
176
     1
 66
     7
176
     1
 43
1.0
176
     1
 76
     1
176
     1
 77
     6
176
     1
 78
     2
176
     1
 67
     7
176
     1
 79
     5
176
     1
170
     0
176
     1
171
     0
176
     1
290
     0
176
     1
 93
       13
176
     1
 44
0.0
176
     1
173
     0
176
     1
  0
VISUALSTYLE
  5
2E
102
{ACAD_REACTORS
330
2A
102
}
330
2A
100
AcDbVisualStyle
  2
GouraudWithEdges
 70
     3
177
     2
291
     1
 71
     2
176
     1
 72
     2
176
     1
 73
     1
176
     1
 90
        2
176
     1
 40
-0.6
176
     1
 41
30.0
176
     1
 62
     5
 63
     7
421
 16777215
176
     1
 74
     1
176
     1
 91
        4
176
     1
 64
     7
176
     1
 65
   257
176
     1
 75
     1
176
     1
175
     1
176
     1
 42
1.0
176
     1
 92
        0
176
     1
 66
   257
176
     1
 43
1.0
176
     1
 76
     1
176
     1
 77
     6
176
     1
 78
     2
176
     1
 67
     7
176
     1
 79
     5
176
     1
170
     0
176
     1
171
     0
176
     1
290
     0
176
     1
 93
       13
176
     1
 44
0.0
176
     1
173
     0
176
     1
  0
VISUALSTYLE
  5
38
102
{ACAD_REACTORS
330
2A
102
}
330
2A
100
AcDbVisualStyle
  2
Linepattern
 70
    14
177
     2
291
     1
 71
     2
176
     1
 72
     2
176
     1
 73
     0
176
     1
 90
        0
176
     1
 40
-0.6
176
     1
 41
-30.0
176
     1
 62
     5
 63
     7
421
 16777215
176
     1
 74
     1
176
     1
 91
        4
176
     1
 64
     7
176
     1
 65
   257
176
     1
 75
     7
176
     1
175
     7
176
     1
 42
1.0
176
     1
 92
        8
176
     1
 66
     7
176
     1
 43
1.0
176
     1
 76
     1
176
     1
 77
     6
176
     1
 78
     2
176
     1
 67
     7
176
     1
 79
     5
176
     1
170
     0
176
     1
171
     0
176
     1
290
     0
176
     1
 93
        1
176
     1
 44
0.0
176
     1
173
     0
176
     1
  0
VISUALSTYLE
  5
33
102
{ACAD_REACTORS
330
2A
102
}
330
2A
100
AcDbVisualStyle
  2
Realistic
 70
     8
177
     2
291
     0
 71
     2
176
     1
 72
     2
176
     1
 73
     0
176
     1
 90
        0
176
     1
 40
-0.6
176
     1
 41
-30.0
176
     1
 62
     5
 63
     7
421
 16777215
176
     1
 74
     1
176
     1
 91
        0
176
     1
 64
     7
176
     1
 65
   257
176
     1
 75
     1
176
     1
175
     1
176
     1
 42
1.0
176
     1
 92
        8
176
     1
 66
     8
424
  7895160
176
     1
 43
1.0
176
     1
 76
     1
176
     1
 77
     6
176
     1
 78
     2
176
     1
 67
     7
176
     1
 79
     5
176
     1
170
     0
176
     1
171
     0
176
     1
290
     0
176
     1
 93
       13
176
     1
 44
0.0
176
     1
173
     0
176
     1
  0
VISUALSTYLE
  5
37
102
{ACAD_REACTORS
330
2A
102
}
330
2A
100
AcDbVisualStyle
  2
Thicken
 70
    13
177
     2
291
     1
 71
     2
176
     1
 72
     2
176
     1
 73
     0
176
     1
 90
        0
176
     1
 40
-0.6
176
     1
 41
-30.0
176
     1
 62
     5
 63
     7
421
 16777215
176
     1
 74
     1
176
     1
 91
        4
176
     1
 64
     7
176
     1
 65
   257
176
     1
 75
     1
176
     1
175
     1
176
     1
 42
1.0
176
     1
 92
       12
176
     1
 66
     7
176
     1
 43
1.0
176
     1
 76
     1
176
     1
 77
     6
176
     1
 78
     2
176
     1
 67
     7
176
     1
 79
     5
176
     1
170
     0
176
     1
171
     0
176
     1
290
     0
176
     1
 93
        1
176
     1
 44
0.0
176
     1
173
     0
176
     1
  0
ENDSEC
  0
EOF
