  0
SECTION
  2
HEADER
  9
$ACADVER
  1
AC1024
  9
$ACADMAINTVER
 70
     6
  9
$DWGCODEPAGE
  3
UNDEFINED
  9
$INSBASE
 10
0.0
 20
0.0
 30
0.0
  9
$EXTMIN
 10
1.000000000000000E+20
 20
1.000000000000000E+20
 30
1.000000000000000E+20
  9
$EXTMAX
 10
-1.000000000000000E+20
 20
-1.000000000000000E+20
 30
-1.000000000000000E+20
  9
$LIMMIN
 10
0.0
 20
0.0
  9
$LIMMAX
 10
12.0
 20
9.0
  9
$ORTHOMODE
 70
     0
  9
$REGENMODE
 70
     1
  9
$FILLMODE
 70
     1
  9
$QTEXTMODE
 70
     0
  9
$MIRRTEXT
 70
     1
  9
$LTSCALE
 40
1.0
  9
$ATTMODE
 70
     1
  9
$TEXTSIZE
 40
0.2
  9
$TRACEWID
 40
0.05
  9
$TEXTSTYLE
  7
Standard
  9
$CLAYER
  8
0
  9
$CELTYPE
  6
ByLayer
  9
$CECOLOR
 62
   256
  9
$CELTSCALE
 40
1.0
  9
$DISPSILH
 70
     0
  9
$DIMSCALE
 40
1.0
  9
$DIMASZ
 40
0.18
  9
$DIMEXO
 40
0.0625
  9
$DIMDLI
 40
0.38
  9
$DIMRND
 40
0.0
  9
$DIMDLE
 40
0.0
  9
$DIMEXE
 40
0.18
  9
$DIMTP
 40
0.0
  9
$DIMTM
 40
0.0
  9
$DIMTXT
 40
0.18
  9
$DIMCEN
 40
0.09
  9
$DIMTSZ
 40
0.0
  9
$DIMTOL
 70
     0
  9
$DIMLIM
 70
     0
  9
$DIMTIH
 70
     1
  9
$DIMTOH
 70
     1
  9
$DIMSE1
 70
     0
  9
$DIMSE2
 70
     0
  9
$DIMTAD
 70
     0
  9
$DIMZIN
 70
     0
  9
$DIMBLK
  1

  9
$DIMASO
 70
     1
  9
$DIMSHO
 70
     1
  9
$DIMPOST
  1

  9
$DIMAPOST
  1

  9
$DIMALT
 70
     0
  9
$DIMALTD
 70
     2
  9
$DIMALTF
 40
25.4
  9
$DIMLFAC
 40
1.0
  9
$DIMTOFL
 70
     0
  9
$DIMTVP
 40
0.0
  9
$DIMTIX
 70
     0
  9
$DIMSOXD
 70
     0
  9
$DIMSAH
 70
     0
  9
$DIMBLK1
  1

  9
$DIMBLK2
  1

  9
$DIMSTYLE
  2
Standard
  9
$DIMCLRD
 70
     0
  9
$DIMCLRE
 70
     0
  9
$DIMCLRT
 70
     0
  9
$DIMTFAC
 40
1.0
  9
$DIMGAP
 40
0.09
  9
$DIMJUST
 70
     0
  9
$DIMSD1
 70
     0
  9
$DIMSD2
 70
     0
  9
$DIMTOLJ
 70
     1
  9
$DIMTZIN
 70
     0
  9
$DIMALTZ
 70
     0
  9
$DIMALTTZ
 70
     0
  9
$DIMUPT
 70
     0
  9
$DIMDEC
 70
     4
  9
$DIMTDEC
 70
     4
  9
$DIMALTU
 70
     2
  9
$DIMALTTD
 70
     2
  9
$DIMTXSTY
  7
Standard
  9
$DIMAUNIT
 70
     0
  9
$DIMADEC
 70
     0
  9
$DIMALTRND
 40
0.0
  9
$DIMAZIN
 70
     0
  9
$DIMDSEP
 70
    46
  9
$DIMATFIT
 70
     3
  9
$DIMFRAC
 70
     0
  9
$DIMLDRBLK
  1

  9
$DIMLUNIT
 70
     2
  9
$DIMLWD
 70
    -2
  9
$DIMLWE
 70
    -2
  9
$DIMTMOVE
 70
     0
  9
$DIMFXL
 40
1.0
  9
$DIMFXLON
 70
     0
  9
$DIMJOGANG
 40
0.7853981633974483
  9
$DIMTFILL
 70
     0
  9
$DIMTFILLCLR
 70
     0
  9
$DIMARCSYM
 70
     0
  9
$DIMLTYPE
  6

  9
$DIMLTEX1
  6

  9
$DIMLTEX2
  6

  9
$DIMTXTDIRECTION
 70
     0
  9
$LUNITS
 70
     2
  9
$LUPREC
 70
     4
  9
$SKETCHINC
 40
0.1
  9
$FILLETRAD
 40
0.5
  9
$AUNITS
 70
     0
  9
$AUPREC
 70
     0
  9
$MENU
  1
.
  9
$ELEVATION
 40
0.0
  9
$PELEVATION
 40
0.0
  9
$THICKNESS
 40
0.0
  9
$LIMCHECK
 70
     0
  9
$CHAMFERA
 40
0.5
  9
$CHAMFERB
 40
0.5
  9
$CHAMFERC
 40
1.0
  9
$CHAMFERD
 40
0.0
  9
$SKPOLY
 70
     0
  9
$TDCREATE
 40
2457917.585902778
  9
$TDUCREATE
 40
2457917.210902778
  9
$TDUPDATE
 40
2457917.585902778
  9
$TDUUPDATE
 40
2457917.210902778
  9
$TDINDWG
 40
0.0000000116
  9
$TDUSRTIMER
 40
0.0000000116
  9
$USRTIMER
 70
     1
  9
$ANGBASE
 50
0.0
  9
$ANGDIR
 70
     0
  9
$PDMODE
 70
     0
  9
$PDSIZE
 40
0.0
  9
$PLINEWID
 40
0.0
  9
$SPLFRAME
 70
     0
  9
$SPLINETYPE
 70
     6
  9
$SPLINESEGS
 70
     8
  9
$HANDSEED
  5
379
  9
$SURFTAB1
 70
     6
  9
$SURFTAB2
 70
     6
  9
$SURFTYPE
 70
     6
  9
$SURFU
 70
     6
  9
$SURFV
 70
     6
  9
$UCSBASE
  2

  9
$UCSNAME
  2

  9
$UCSORG
 10
0.0
 20
0.0
 30
0.0
  9
$UCSXDIR
 10
1.0
 20
0.0
 30
0.0
  9
$UCSYDIR
 10
0.0
 20
1.0
 30
0.0
  9
$UCSORTHOREF
  2

  9
$UCSORTHOVIEW
 70
     0
  9
$UCSORGTOP
 10
0.0
 20
0.0
 30
0.0
  9
$UCSORGBOTTOM
 10
0.0
 20
0.0
 30
0.0
  9
$UCSORGLEFT
 10
0.0
 20
0.0
 30
0.0
  9
$UCSORGRIGHT
 10
0.0
 20
0.0
 30
0.0
  9
$UCSORGFRONT
 10
0.0
 20
0.0
 30
0.0
  9
$UCSORGBACK
 10
0.0
 20
0.0
 30
0.0
  9
$PUCSBASE
  2

  9
$PUCSNAME
  2

  9
$PUCSORG
 10
0.0
 20
0.0
 30
0.0
  9
$PUCSXDIR
 10
1.0
 20
0.0
 30
0.0
  9
$PUCSYDIR
 10
0.0
 20
1.0
 30
0.0
  9
$PUCSORTHOREF
  2

  9
$PUCSORTHOVIEW
 70
     0
  9
$PUCSORGTOP
 10
0.0
 20
0.0
 30
0.0
  9
$PUCSORGBOTTOM
 10
0.0
 20
0.0
 30
0.0
  9
$PUCSORGLEFT
 10
0.0
 20
0.0
 30
0.0
  9
$PUCSORGRIGHT
 10
0.0
 20
0.0
 30
0.0
  9
$PUCSORGFRONT
 10
0.0
 20
0.0
 30
0.0
  9
$PUCSORGBACK
 10
0.0
 20
0.0
 30
0.0
  9
$USERI1
 70
     0
  9
$USERI2
 70
     0
  9
$USERI3
 70
     0
  9
$USERI4
 70
     0
  9
$USERI5
 70
     0
  9
$USERR1
 40
0.0
  9
$USERR2
 40
0.0
  9
$USERR3
 40
0.0
  9
$USERR4
 40
0.0
  9
$USERR5
 40
0.0
  9
$WORLDVIEW
 70
     1
  9
$SHADEDGE
 70
     3
  9
$SHADEDIF
 70
    70
  9
$TILEMODE
 70
     1
  9
$MAXACTVP
 70
    64
  9
$PINSBASE
 10
0.0
 20
0.0
 30
0.0
  9
$PLIMCHECK
 70
     0
  9
$PEXTMIN
 10
1.000000000000000E+20
 20
1.000000000000000E+20
 30
1.000000000000000E+20
  9
$PEXTMAX
 10
-1.000000000000000E+20
 20
-1.000000000000000E+20
 30
-1.000000000000000E+20
  9
$PLIMMIN
 10
0.0
 20
0.0
  9
$PLIMMAX
 10
12.0
 20
9.0
  9
$UNITMODE
 70
     0
  9
$VISRETAIN
 70
     1
  9
$PLINEGEN
 70
     0
  9
$PSLTSCALE
 70
     1
  9
$TREEDEPTH
 70
  3020
  9
$CMLSTYLE
  2
Standard
  9
$CMLJUST
 70
     0
  9
$CMLSCALE
 40
1.0
  9
$PROXYGRAPHICS
 70
     1
  9
$MEASUREMENT
 70
     0
  9
$CELWEIGHT
370
    -1
  9
$ENDCAPS
280
     0
  9
$JOINSTYLE
280
     0
  9
$LWDISPLAY
290
     1
  9
$INSUNITS
 70
     1
  9
$HYPERLINKBASE
  1

  9
$STYLESHEET
  1

  9
$XEDIT
290
     1
  9
$CEPSNTYPE
380
     0
  9
$PSTYLEMODE
290
     1
  9
$FINGERPRINTGUID
  2
{03048150-823C-D9FC-09CE-5C1723FFB698}
  9
$VERSIONGUID
  2
{FAEB1C32-E019-11D5-929B-00C0DF256EC4}
  9
$EXTNAMES
290
     1
  9
$PSVPSCALE
 40
0.0
  9
$OLESTARTUP
290
     0
  9
$SORTENTS
280
   127
  9
$INDEXCTL
280
     0
  9
$HIDETEXT
280
     1
  9
$XCLIPFRAME
280
     2
  9
$HALOGAP
280
     0
  9
$OBSCOLOR
 70
   257
  9
$OBSLTYPE
280
     0
  9
$INTERSECTIONDISPLAY
280
     0
  9
$INTERSECTIONCOLOR
 70
   257
  9
$DIMASSOC
280
     2
  9
$PROJECTNAME
  1

  9
$CAMERADISPLAY
290
     0
  9
$LENSLENGTH
 40
50.0
  9
$CAMERAHEIGHT
 40
0.0
  9
$STEPSPERSEC
 40
2.0
  9
$STEPSIZE
 40
6.0
  9
$3DDWFPREC
 40
2.0
  9
$PSOLWIDTH
 40
0.25
  9
$PSOLHEIGHT
 40
4.0
  9
$LOFTANG1
 40
1.570796326794897
  9
$LOFTANG2
 40
1.570796326794897
  9
$LOFTMAG1
 40
0.0
  9
$LOFTMAG2
 40
0.0
  9
$LOFTPARAM
 70
     7
  9
$LOFTNORMALS
280
     1
  9
$LATITUDE
 40
37.795
  9
$LONGITUDE
 40
-122.394
  9
$NORTHDIRECTION
 40
0.0
  9
$TIMEZONE
 70
 -8000
  9
$LIGHTGLYPHDISPLAY
280
     1
  9
$TILEMODELIGHTSYNCH
280
     1
  9
$CMATERIAL
347
3C
  9
$SOLIDHIST
280
     1
  9
$SHOWHIST
280
     1
  9
$DWFFRAME
280
     2
  9
$DGNFRAME
280
     2
  9
$REALWORLDSCALE
290
     1
  9
$INTERFERECOLOR
 62
   256
  9
$CSHADOW
280
     0
  9
$SHADOWPLANELOCATION
 40
0.0
  0
ENDSEC
  0
SECTION
  2
CLASSES
  0
CLASS
  1
ACDBDICTIONARYWDFLT
  2
AcDbDictionaryWithDefault
  3
ObjectDBX Classes
 90
        0
 91
        4
280
     0
281
     0
  0
CLASS
  1
VISUALSTYLE
  2
AcDbVisualStyle
  3
ObjectDBX Classes
 90
     4095
 91
        4
280
     0
281
     0
  0
CLASS
  1
MATERIAL
  2
AcDbMaterial
  3
ObjectDBX Classes
 90
     1153
 91
        4
280
     0
281
     0
  0
CLASS
  1
SUN
  2
AcDbSun
  3
SCENEOE
 90
     1024
 91
        4
280
     0
281
     0
  0
ENDSEC
  0
SECTION
  2
TABLES
  0
TABLE
  2
VPORT
  5
8
330
0
100
AcDbSymbolTable
 70
     1
  0
VPORT
  5
29
330
8
100
AcDbSymbolTableRecord
100
AcDbViewportTableRecord
  2
*Active
 70
     0
 10
0.0
 20
0.0
 11
1.0
 21
1.0
 12
0.0
 22
0.0
 13
0.0
 23
0.0
 14
0.5
 24
0.5
 15
0.5
 25
0.5
 16
0.0
 26
0.0
 36
1.0
 17
91.00082462281999
 27
-128.4993055234307
 37
0.0
 40
256.9986110468615
 41
0.7081814508812795
 42
50.0
 43
0.0
 44
0.0
 50
0.0
 51
0.0
 71
     0
 72
   100
 73
     1
 74
     3
 75
     0
 76
     0
 77
     0
 78
     0
281
     0
 65
     1
110
0.0
120
0.0
130
0.0
111
1.0
121
0.0
131
0.0
112
0.0
122
1.0
132
0.0
 79
     0
146
0.0
 60
     3
 61
     5
292
     1
282
     1
141
0.0
142
0.0
 63
   250
361
3F
  0
ENDTAB
  0
TABLE
  2
LTYPE
  5
5
330
0
100
AcDbSymbolTable
 70
     4
  0
LTYPE
  5
14
330
5
100
AcDbSymbolTableRecord
100
AcDbLinetypeTableRecord
  2
ByBlock
 70
     0
  3

 72
    65
 73
     0
 40
0.0
  0
LTYPE
  5
15
330
5
100
AcDbSymbolTableRecord
100
AcDbLinetypeTableRecord
  2
ByLayer
 70
     0
  3

 72
    65
 73
     0
 40
0.0
  0
LTYPE
  5
16
330
5
100
AcDbSymbolTableRecord
100
AcDbLinetypeTableRecord
  2
Continuous
 70
     0
  3
Solid line
 72
    65
 73
     0
 40
0.0
  0
LTYPE
  5
55
330
5
100
AcDbSymbolTableRecord
100
AcDbLinetypeTableRecord
  2
AI-Linetype-1
 70
     0
  3
Adobe Illustrator Linetype No. 1
 72
    65
 73
     2
 40
1.750000006185238
 49
1.000001541523478
 74
     0
 49
-0.7499984646617606
 74
     0
  0
LTYPE
  5
5B
330
5
100
AcDbSymbolTableRecord
100
AcDbLinetypeTableRecord
  2
AI-Linetype-2
 70
     0
  3
Adobe Illustrator Linetype No. 2
 72
    65
 73
     2
 40
1.750000006185238
 49
1.000001541523478
 74
     0
 49
-0.7499984646617606
 74
     0
  0
LTYPE
  5
373
330
5
100
AcDbSymbolTableRecord
100
AcDbLinetypeTableRecord
  2
AI-Linetype-3
 70
     0
  3
Adobe Illustrator Linetype No. 3
 72
    65
 73
     4
 40
1.510000701036714
 49
0.7100005359993934
 74
     0
 49
-0.3000001092001821
 74
     0
 49
0.1999999466369566
 74
     0
 49
-0.3000001092001821
 74
     0
  0
ENDTAB
  0
TABLE
  2
LAYER
  5
2
330
0
100
AcDbSymbolTable
 70
     2
  0
LAYER
  5
10
330
2
100
AcDbSymbolTableRecord
100
AcDbLayerTableRecord
  2
0
 70
     0
 62
     7
  6
Continuous
370
    -3
390
F
347
3E
  0
LAYER
  5
40
330
2
100
AcDbSymbolTableRecord
100
AcDbLayerTableRecord
  2
_U+30EC_U+30A4_U+30E4_U+30FC 1
 70
     0
 62
     7
  6
Continuous
370
    -3
390
F
347
3E
  0
ENDTAB
  0
TABLE
  2
STYLE
  5
3
330
0
100
AcDbSymbolTable
 70
     1
  0
STYLE
  5
11
330
3
100
AcDbSymbolTableRecord
100
AcDbTextStyleTableRecord
  2
Standard
 70
     0
 40
0.0
 41
1.0
 50
0.0
 71
     0
 42
0.2
  3
txt
  4

  0
ENDTAB
  0
TABLE
  2
VIEW
  5
6
330
0
100
AcDbSymbolTable
 70
     0
  0
ENDTAB
  0
TABLE
  2
UCS
  5
7
330
0
100
AcDbSymbolTable
 70
     0
  0
ENDTAB
  0
TABLE
  2
APPID
  5
9
330
0
100
AcDbSymbolTable
 70
     1
  0
APPID
  5
12
330
9
100
AcDbSymbolTableRecord
100
AcDbRegAppTableRecord
  2
ACAD
 70
     0
  0
ENDTAB
  0
TABLE
  2
DIMSTYLE
  5
A
330
0
100
AcDbSymbolTable
 70
     1
100
AcDbDimStyleTable
  0
DIMSTYLE
105
27
330
A
100
AcDbSymbolTableRecord
100
AcDbDimStyleTableRecord
  2
Standard
 70
     0
178
     0
340
11
  0
ENDTAB
  0
TABLE
  2
BLOCK_RECORD
  5
1
330
0
100
AcDbSymbolTable
 70
    40
  0
BLOCK_RECORD
  5
1F
330
1
100
AcDbSymbolTableRecord
100
AcDbBlockTableRecord
  2
*Model_Space
340
22
 70
     0
280
     1
281
     0
  0
BLOCK_RECORD
  5
1B
330
1
100
AcDbSymbolTableRecord
100
AcDbBlockTableRecord
  2
*Paper_Space
340
1E
 70
     0
280
     1
281
     0
  0
BLOCK_RECORD
  5
23
330
1
100
AcDbSymbolTableRecord
100
AcDbBlockTableRecord
  2
*Paper_Space0
340
26
 70
     0
280
     1
281
     0
  0
BLOCK_RECORD
  5
41
330
1
100
AcDbSymbolTableRecord
100
AcDbBlockTableRecord
  2
block 2
340
0
102
{BLKREFS
331
42
102
}
 70
     0
280
     1
281
     0
  0
BLOCK_RECORD
  5
4D
330
1
100
AcDbSymbolTableRecord
100
AcDbBlockTableRecord
  2
block 3
340
0
102
{BLKREFS
331
4E
102
}
 70
     0
280
     1
281
     0
  0
BLOCK_RECORD
  5
69
330
1
100
AcDbSymbolTableRecord
100
AcDbBlockTableRecord
  2
block 4
340
0
102
{BLKREFS
331
6A
102
}
 70
     0
280
     1
281
     0
  0
BLOCK_RECORD
  5
87
330
1
100
AcDbSymbolTableRecord
100
AcDbBlockTableRecord
  2
block 5
340
0
102
{BLKREFS
331
88
102
}
 70
     0
280
     1
281
     0
  0
BLOCK_RECORD
  5
AC
330
1
100
AcDbSymbolTableRecord
100
AcDbBlockTableRecord
  2
block 6
340
0
102
{BLKREFS
331
AD
102
}
 70
     0
280
     1
281
     0
  0
BLOCK_RECORD
  5
B5
330
1
100
AcDbSymbolTableRecord
100
AcDbBlockTableRecord
  2
block 7
340
0
102
{BLKREFS
331
B6
102
}
 70
     0
280
     1
281
     0
  0
BLOCK_RECORD
  5
D3
330
1
100
AcDbSymbolTableRecord
100
AcDbBlockTableRecord
  2
block 8
340
0
102
{BLKREFS
331
D4
102
}
 70
     0
280
     1
281
     0
  0
BLOCK_RECORD
  5
E5
330
1
100
AcDbSymbolTableRecord
100
AcDbBlockTableRecord
  2
block 9
340
0
102
{BLKREFS
331
E6
102
}
 70
     0
280
     1
281
     0
  0
BLOCK_RECORD
  5
FB
330
1
100
AcDbSymbolTableRecord
100
AcDbBlockTableRecord
  2
block 10
340
0
102
{BLKREFS
331
FC
102
}
 70
     0
280
     1
281
     0
  0
BLOCK_RECORD
  5
FF
330
1
100
AcDbSymbolTableRecord
100
AcDbBlockTableRecord
  2
block 11
340
0
102
{BLKREFS
331
100
102
}
 70
     0
280
     1
281
     0
  0
BLOCK_RECORD
  5
103
330
1
100
AcDbSymbolTableRecord
100
AcDbBlockTableRecord
  2
block 12
340
0
102
{BLKREFS
331
104
102
}
 70
     0
280
     1
281
     0
  0
BLOCK_RECORD
  5
107
330
1
100
AcDbSymbolTableRecord
100
AcDbBlockTableRecord
  2
block 13
340
0
102
{BLKREFS
331
108
102
}
 70
     0
280
     1
281
     0
  0
BLOCK_RECORD
  5
11F
330
1
100
AcDbSymbolTableRecord
100
AcDbBlockTableRecord
  2
block 14
340
0
102
{BLKREFS
331
120
102
}
 70
     0
280
     1
281
     0
  0
BLOCK_RECORD
  5
123
330
1
100
AcDbSymbolTableRecord
100
AcDbBlockTableRecord
  2
block 15
340
0
102
{BLKREFS
331
124
102
}
 70
     0
280
     1
281
     0
  0
BLOCK_RECORD
  5
157
330
1
100
AcDbSymbolTableRecord
100
AcDbBlockTableRecord
  2
block 16
340
0
102
{BLKREFS
331
158
102
}
 70
     0
280
     1
281
     0
  0
BLOCK_RECORD
  5
183
330
1
100
AcDbSymbolTableRecord
100
AcDbBlockTableRecord
  2
block 17
340
0
102
{BLKREFS
331
184
102
}
 70
     0
280
     1
281
     0
  0
BLOCK_RECORD
  5
187
330
1
100
AcDbSymbolTableRecord
100
AcDbBlockTableRecord
  2
block 18
340
0
102
{BLKREFS
331
188
102
}
 70
     0
280
     1
281
     0
  0
BLOCK_RECORD
  5
18B
330
1
100
AcDbSymbolTableRecord
100
AcDbBlockTableRecord
  2
block 19
340
0
102
{BLKREFS
331
18C
102
}
 70
     0
280
     1
281
     0
  0
BLOCK_RECORD
  5
1AB
330
1
100
AcDbSymbolTableRecord
100
AcDbBlockTableRecord
  2
block 20
340
0
102
{BLKREFS
331
1AC
102
}
 70
     0
280
     1
281
     0
  0
BLOCK_RECORD
  5
1AF
330
1
100
AcDbSymbolTableRecord
100
AcDbBlockTableRecord
  2
block 21
340
0
102
{BLKREFS
331
1B0
102
}
 70
     0
280
     1
281
     0
  0
BLOCK_RECORD
  5
1B3
330
1
100
AcDbSymbolTableRecord
100
AcDbBlockTableRecord
  2
block 22
340
0
102
{BLKREFS
331
1B4
102
}
 70
     0
280
     1
281
     0
  0
BLOCK_RECORD
  5
1B7
330
1
100
AcDbSymbolTableRecord
100
AcDbBlockTableRecord
  2
block 23
340
0
102
{BLKREFS
331
1B8
102
}
 70
     0
280
     1
281
     0
  0
BLOCK_RECORD
  5
1BB
330
1
100
AcDbSymbolTableRecord
100
AcDbBlockTableRecord
  2
block 24
340
0
102
{BLKREFS
331
1BC
102
}
 70
     0
280
     1
281
     0
  0
BLOCK_RECORD
  5
1DF
330
1
100
AcDbSymbolTableRecord
100
AcDbBlockTableRecord
  2
block 25
340
0
102
{BLKREFS
331
1E0
102
}
 70
     0
280
     1
281
     0
  0
BLOCK_RECORD
  5
1E3
330
1
100
AcDbSymbolTableRecord
100
AcDbBlockTableRecord
  2
block 26
340
0
102
{BLKREFS
331
1E4
102
}
 70
     0
280
     1
281
     0
  0
BLOCK_RECORD
  5
213
330
1
100
AcDbSymbolTableRecord
100
AcDbBlockTableRecord
  2
block 27
340
0
102
{BLKREFS
331
214
102
}
 70
     0
280
     1
281
     0
  0
BLOCK_RECORD
  5
23F
330
1
100
AcDbSymbolTableRecord
100
AcDbBlockTableRecord
  2
block 28
340
0
102
{BLKREFS
331
240
102
}
 70
     0
280
     1
281
     0
  0
BLOCK_RECORD
  5
243
330
1
100
AcDbSymbolTableRecord
100
AcDbBlockTableRecord
  2
block 29
340
0
102
{BLKREFS
331
244
102
}
 70
     0
280
     1
281
     0
  0
BLOCK_RECORD
  5
247
330
1
100
AcDbSymbolTableRecord
100
AcDbBlockTableRecord
  2
block 30
340
0
102
{BLKREFS
331
248
102
}
 70
     0
280
     1
281
     0
  0
BLOCK_RECORD
  5
2A3
330
1
100
AcDbSymbolTableRecord
100
AcDbBlockTableRecord
  2
block 31
340
0
102
{BLKREFS
331
2A4
102
}
 70
     0
280
     1
281
     0
  0
BLOCK_RECORD
  5
2CB
330
1
100
AcDbSymbolTableRecord
100
AcDbBlockTableRecord
  2
block 32
340
0
102
{BLKREFS
331
2CC
102
}
 70
     0
280
     1
281
     0
  0
BLOCK_RECORD
  5
2CF
330
1
100
AcDbSymbolTableRecord
100
AcDbBlockTableRecord
  2
block 33
340
0
102
{BLKREFS
331
2D0
102
}
 70
     0
280
     1
281
     0
  0
BLOCK_RECORD
  5
2FF
330
1
100
AcDbSymbolTableRecord
100
AcDbBlockTableRecord
  2
block 34
340
0
102
{BLKREFS
331
300
102
}
 70
     0
280
     1
281
     0
  0
BLOCK_RECORD
  5
32B
330
1
100
AcDbSymbolTableRecord
100
AcDbBlockTableRecord
  2
block 35
340
0
102
{BLKREFS
331
32C
102
}
 70
     0
280
     1
281
     0
  0
BLOCK_RECORD
  5
32F
330
1
100
AcDbSymbolTableRecord
100
AcDbBlockTableRecord
  2
block 36
340
0
102
{BLKREFS
331
330
102
}
 70
     0
280
     1
281
     0
  0
BLOCK_RECORD
  5
333
330
1
100
AcDbSymbolTableRecord
100
AcDbBlockTableRecord
  2
block 37
340
0
102
{BLKREFS
331
334
102
}
 70
     0
280
     1
281
     0
  0
BLOCK_RECORD
  5
337
330
1
100
AcDbSymbolTableRecord
100
AcDbBlockTableRecord
  2
block 38
340
0
102
{BLKREFS
331
338
102
}
 70
     0
280
     1
281
     0
  0
BLOCK_RECORD
  5
357
330
1
100
AcDbSymbolTableRecord
100
AcDbBlockTableRecord
  2
block 39
340
0
102
{BLKREFS
331
358
102
}
 70
     0
280
     1
281
     0
  0
BLOCK_RECORD
  5
35B
330
1
100
AcDbSymbolTableRecord
100
AcDbBlockTableRecord
  2
block 40
340
0
102
{BLKREFS
331
35C
102
}
 70
     0
280
     1
281
     0
  0
ENDTAB
  0
ENDSEC
  0
SECTION
  2
BLOCKS
  0
BLOCK
  5
20
330
1F
100
AcDbEntity
  8
0
100
AcDbBlockBegin
  2
*Model_Space
 70
     0
 10
0.0
 20
0.0
 30
0.0
  3
*Model_Space
  1

  0
ENDBLK
  5
21
330
1F
100
AcDbEntity
  8
0
100
AcDbBlockEnd
  0
BLOCK
  5
1C
330
1B
100
AcDbEntity
 67
     1
  8
0
100
AcDbBlockBegin
  2
*Paper_Space
 70
     0
 10
0.0
 20
0.0
 30
0.0
  3
*Paper_Space
  1

  0
ENDBLK
  5
1D
330
1B
100
AcDbEntity
 67
     1
  8
0
100
AcDbBlockEnd
  0
BLOCK
  5
24
330
23
100
AcDbEntity
  8
0
100
AcDbBlockBegin
  2
*Paper_Space0
 70
     0
 10
0.0
 20
0.0
 30
0.0
  3
*Paper_Space0
  1

  0
ENDBLK
  5
25
330
23
100
AcDbEntity
  8
0
100
AcDbBlockEnd
  0
BLOCK
  5
43
330
41
100
AcDbEntity
  8
0
100
AcDbBlockBegin
  2
block 2
 70
     0
 10
0.0
 20
0.0
 30
0.0
  3
block 2
  1

  0
SPLINE
  5
45
330
41
100
AcDbEntity
  8
_U+30EC_U+30A4_U+30E4_U+30FC 1
 62
   179
420
  2234388
370
     9
100
AcDbSpline
210
0.0
220
0.0
230
1.0
 70
    11
 71
     3
 72
    17
 73
    13
 74
     0
 42
0.0000000001
 43
0.0000000001
 12
1.0
 22
0.0
 32
0.0
 13
1.0
 23
0.0
 33
0.0
 40
0.0
 40
0.0
 40
0.0
 40
0.0
 40
1.0
 40
1.0
 40
1.0
 40
2.0
 40
2.0
 40
2.0
 40
3.0
 40
3.0
 40
3.0
 40
4.0
 40
4.0
 40
4.0
 40
4.0
 10
63.13998866694246
 20
-141.0635566314008
 30
0.0
 10
63.13998866694246
 20
-141.0084527425259
 30
0.0
 10
63.18475616580035
 20
-140.9636499647592
 30
0.0
 10
63.2398953310603
 20
-140.9636499647592
 30
0.0
 10
63.29499921854337
 20
-140.9636499647592
 30
0.0
 10
63.33980199517814
 20
-141.0084527425259
 30
0.0
 10
63.33980199517814
 20
-141.0635566314008
 30
0.0
 10
63.33980199517814
 20
-141.1186957980539
 30
0.0
 10
63.29499921854337
 20
-141.1634632980425
 30
0.0
 10
63.2398953310603
 20
-141.1634632980425
 30
0.0
 10
63.18475616580035
 20
-141.1634632980425
 30
0.0
 10
63.13998866694246
 20
-141.1186957980539
 30
0.0
 10
63.13998866694246
 20
-141.0635566314008
 30
0.0
  0
SPLINE
  5
46
330
41
100
AcDbEntity
  8
_U+30EC_U+30A4_U+30E4_U+30FC 1
 62
   179
420
  2234388
370
     9
100
AcDbSpline
210
0.0
220
0.0
230
1.0
 70
    11
 71
     3
 72
    17
 73
    13
 74
     0
 42
0.0000000001
 43
0.0000000001
 12
1.0
 22
0.0
 32
0.0
 13
1.0
 23
0.0
 33
0.0
 40
0.0
 40
0.0
 40
0.0
 40
0.0
 40
1.0
 40
1.0
 40
1.0
 40
2.0
 40
2.0
 40
2.0
 40
3.0
 40
3.0
 40
3.0
 40
4.0
 40
4.0
 40
4.0
 40
4.0
 10
63.13998866694246
 20
-120.2634613588231
 30
0.0
 10
63.13998866694246
 20
-120.20832219217
 30
0.0
 10
63.18475616580035
 20
-120.1635546921814
 30
0.0
 10
63.2398953310603
 20
-120.1635546921814
 30
0.0
 10
63.29499921854337
 20
-120.1635546921814
 30
0.0
 10
63.33980199517814
 20
-120.20832219217
 30
0.0
 10
63.33980199517814
 20
-120.2634613588231
 30
0.0
 10
63.33980199517814
 20
-120.3189180254758
 30
0.0
 10
63.29499921854337
 20
-120.3637208032425
 30
0.0
 10
63.2398953310603
 20
-120.3637208032425
 30
0.0
 10
63.18475616580035
 20
-120.3637208032425
 30
0.0
 10
63.13998866694246
 20
-120.3189180254758
 30
0.0
 10
63.13998866694246
 20
-120.2634613588231
 30
0.0
  0
SPLINE
  5
47
330
41
100
AcDbEntity
  8
_U+30EC_U+30A4_U+30E4_U+30FC 1
 62
   179
420
  2234388
370
     9
100
AcDbSpline
210
0.0
220
0.0
230
1.0
 70
    11
 71
     3
 72
    17
 73
    13
 74
     0
 42
0.0000000001
 43
0.0000000001
 12
1.0
 22
0.0
 32
0.0
 13
1.0
 23
0.0
 33
0.0
 40
0.0
 40
0.0
 40
0.0
 40
0.0
 40
1.0
 40
1.0
 40
1.0
 40
2.0
 40
2.0
 40
2.0
 40
3.0
 40
3.0
 40
3.0
 40
4.0
 40
4.0
 40
4.0
 40
4.0
 10
121.1391938539261
 20
-132.7636480223648
 30
0.0
 10
121.1391938539261
 20
-132.7078385779344
 30
0.0
 10
121.1839966305609
 20
-132.6637413557232
 30
0.0
 10
121.239100518044
 20
-132.6637413557232
 30
0.0
 10
121.2942396833039
 20
-132.6637413557232
 30
0.0
 10
121.3390071821618
 20
-132.7078385779344
 30
0.0
 10
121.3390071821618
 20
-132.7636480223648
 30
0.0
 10
121.3390071821618
 20
-132.8187519112397
 30
0.0
 10
121.2942396833039
 20
-132.8635546890064
 30
0.0
 10
121.239100518044
 20
-132.8635546890064
 30
0.0
 10
121.1839966305609
 20
-132.8635546890064
 30
0.0
 10
121.1391938539261
 20
-132.8187519112397
 30
0.0
 10
121.1391938539261
 20
-132.7636480223648
 30
0.0
  0
SPLINE
  5
48
330
41
100
AcDbEntity
  8
_U+30EC_U+30A4_U+30E4_U+30FC 1
 62
   179
420
  2234388
370
     9
100
AcDbSpline
210
0.0
220
0.0
230
1.0
 70
    11
 71
     3
 72
    17
 73
    13
 74
     0
 42
0.0000000001
 43
0.0000000001
 12
1.0
 22
0.0
 32
0.0
 13
1.0
 23
0.0
 33
0.0
 40
0.0
 40
0.0
 40
0.0
 40
0.0
 40
1.0
 40
1.0
 40
1.0
 40
2.0
 40
2.0
 40
2.0
 40
3.0
 40
3.0
 40
3.0
 40
4.0
 40
4.0
 40
4.0
 40
4.0
 10
121.1391938539261
 20
-120.2634613588231
 30
0.0
 10
121.1391938539261
 20
-120.20832219217
 30
0.0
 10
121.1839966305609
 20
-120.1635546921814
 30
0.0
 10
121.239100518044
 20
-120.1635546921814
 30
0.0
 10
121.2942396833039
 20
-120.1635546921814
 30
0.0
 10
121.3390071821618
 20
-120.20832219217
 30
0.0
 10
121.3390071821618
 20
-120.2634613588231
 30
0.0
 10
121.3390071821618
 20
-120.3189180254758
 30
0.0
 10
121.2942396833039
 20
-120.3637208032425
 30
0.0
 10
121.239100518044
 20
-120.3637208032425
 30
0.0
 10
121.1839966305609
 20
-120.3637208032425
 30
0.0
 10
121.1391938539261
 20
-120.3189180254758
 30
0.0
 10
121.1391938539261
 20
-120.2634613588231
 30
0.0
  0
SPLINE
  5
49
330
41
100
AcDbEntity
  8
_U+30EC_U+30A4_U+30E4_U+30FC 1
 62
   179
420
  2234388
370
     9
100
AcDbSpline
210
0.0
220
0.0
230
1.0
 70
    11
 71
     3
 72
    17
 73
    13
 74
     0
 42
0.0000000001
 43
0.0000000001
 12
1.0
 22
0.0
 32
0.0
 13
1.0
 23
0.0
 33
0.0
 40
0.0
 40
0.0
 40
0.0
 40
0.0
 40
1.0
 40
1.0
 40
1.0
 40
2.0
 40
2.0
 40
2.0
 40
3.0
 40
3.0
 40
3.0
 40
4.0
 40
4.0
 40
4.0
 40
4.0
 10
117.1394347893018
 20
-114.1567016381274
 30
0.0
 10
117.1394347893018
 20
-114.1015624714746
 30
0.0
 10
117.1842375659366
 20
-114.0567596937079
 30
0.0
 10
117.2393444151347
 20
-114.0567596937079
 30
0.0
 10
117.2944806186796
 20
-114.0567596937079
 30
0.0
 10
117.3392481175375
 20
-114.1015624714746
 30
0.0
 10
117.3392481175375
 20
-114.1567016381274
 30
0.0
 10
117.3392481175375
 20
-114.2118055270026
 30
0.0
 10
117.2944806186796
 20
-114.2566083047693
 30
0.0
 10
117.2393444151347
 20
-114.2566083047693
 30
0.0
 10
117.1842375659366
 20
-114.2566083047693
 30
0.0
 10
117.1394347893018
 20
-114.2118055270026
 30
0.0
 10
117.1394347893018
 20
-114.1567016381274
 30
0.0
  0
SPLINE
  5
4A
330
41
100
AcDbEntity
  8
_U+30EC_U+30A4_U+30E4_U+30FC 1
 62
   179
420
  2234388
370
     9
100
AcDbSpline
210
0.0
220
0.0
230
1.0
 70
    11
 71
     3
 72
    17
 73
    13
 74
     0
 42
0.0000000001
 43
0.0000000001
 12
1.0
 22
0.0
 32
0.0
 13
1.0
 23
0.0
 33
0.0
 40
0.0
 40
0.0
 40
0.0
 40
0.0
 40
1.0
 40
1.0
 40
1.0
 40
2.0
 40
2.0
 40
2.0
 40
3.0
 40
3.0
 40
3.0
 40
4.0
 40
4.0
 40
4.0
 40
4.0
 10
79.63958331342344
 20
-143.3645496863809
 30
0.0
 10
79.63958331342344
 20
-143.3094105197284
 30
0.0
 10
79.68438609119016
 20
-143.2646430197392
 30
0.0
 10
79.73948796567618
 20
-143.2646430197392
 30
0.0
 10
79.79462713093614
 20
-143.2646430197392
 30
0.0
 10
79.83939462979401
 20
-143.3094105197284
 30
0.0
 10
79.83939462979401
 20
-143.3645496863809
 30
0.0
 10
79.83939462979401
 20
-143.4196535752564
 30
0.0
 10
79.79462713093614
 20
-143.4644563530225
 30
0.0
 10
79.73948796567618
 20
-143.4644563530225
 30
0.0
 10
79.68438609119016
 20
-143.4644563530225
 30
0.0
 10
79.63958331342344
 20
-143.4196535752564
 30
0.0
 10
79.63958331342344
 20
-143.3645496863809
 30
0.0
  0
SPLINE
  5
4B
330
41
100
AcDbEntity
  8
_U+30EC_U+30A4_U+30E4_U+30FC 1
 62
   179
420
  2234388
370
     9
100
AcDbSpline
210
0.0
220
0.0
230
1.0
 70
    11
 71
     3
 72
    17
 73
    13
 74
     0
 42
0.0000000001
 43
0.0000000001
 12
1.0
 22
0.0
 32
0.0
 13
1.0
 23
0.0
 33
0.0
 40
0.0
 40
0.0
 40
0.0
 40
0.0
 40
1.0
 40
1.0
 40
1.0
 40
2.0
 40
2.0
 40
2.0
 40
3.0
 40
3.0
 40
3.0
 40
4.0
 40
4.0
 40
4.0
 40
4.0
 10
67.13974773156679
 20
-143.3645496863809
 30
0.0
 10
67.13974773156679
 20
-143.3094105197284
 30
0.0
 10
67.18451523042467
 20
-143.2646430197392
 30
0.0
 10
67.24000717345339
 20
-143.2646430197392
 30
0.0
 10
67.29511106093646
 20
-143.2646430197392
 30
0.0
 10
67.33991383757123
 20
-143.3094105197284
 30
0.0
 10
67.33991383757123
 20
-143.3645496863809
 30
0.0
 10
67.33991383757123
 20
-143.4196535752564
 30
0.0
 10
67.29511106093646
 20
-143.4644563530225
 30
0.0
 10
67.24000717345339
 20
-143.4644563530225
 30
0.0
 10
67.18451523042467
 20
-143.4644563530225
 30
0.0
 10
67.13974773156679
 20
-143.4196535752564
 30
0.0
 10
67.13974773156679
 20
-143.3645496863809
 30
0.0
  0
SPLINE
  5
4C
330
41
100
AcDbEntity
  8
_U+30EC_U+30A4_U+30E4_U+30FC 1
 62
   179
420
  2234388
370
     9
100
AcDbSpline
210
0.0
220
0.0
230
1.0
 70
    11
 71
     3
 72
    17
 73
    13
 74
     0
 42
0.0000000001
 43
0.0000000001
 12
1.0
 22
0.0
 32
0.0
 13
1.0
 23
0.0
 33
0.0
 40
0.0
 40
0.0
 40
0.0
 40
0.0
 40
1.0
 40
1.0
 40
1.0
 40
2.0
 40
2.0
 40
2.0
 40
3.0
 40
3.0
 40
3.0
 40
4.0
 40
4.0
 40
4.0
 40
4.0
 10
67.13974773156679
 20
-114.1567016381274
 30
0.0
 10
67.13974773156679
 20
-114.1015624714746
 30
0.0
 10
67.18451523042467
 20
-114.0567596937079
 30
0.0
 10
67.24000717345339
 20
-114.0567596937079
 30
0.0
 10
67.29511106093646
 20
-114.0567596937079
 30
0.0
 10
67.33991383757123
 20
-114.1015624714746
 30
0.0
 10
67.33991383757123
 20
-114.1567016381274
 30
0.0
 10
67.33991383757123
 20
-114.2118055270026
 30
0.0
 10
67.29511106093646
 20
-114.2566083047693
 30
0.0
 10
67.24000717345339
 20
-114.2566083047693
 30
0.0
 10
67.18451523042467
 20
-114.2566083047693
 30
0.0
 10
67.13974773156679
 20
-114.2118055270026
 30
0.0
 10
67.13974773156679
 20
-114.1567016381274
 30
0.0
  0
INSERT
  5
4E
330
41
100
AcDbEntity
  8
_U+30EC_U+30A4_U+30E4_U+30FC 1
100
AcDbBlockReference
  2
block 3
 10
0.0
 20
0.0
 30
0.0
  0
POLYLINE
  5
5D
330
41
100
AcDbEntity
  8
_U+30EC_U+30A4_U+30E4_U+30FC 1
 62
   179
420
  2234388
370
     9
100
AcDb2dPolyline
 66
     1
 10
0.0
 20
0.0
 30
0.0
  0
VERTEX
  5
5E
330
5D
100
AcDbEntity
  8
_U+30EC_U+30A4_U+30E4_U+30FC 1
 62
   179
420
  2234388
370
     9
100
AcDbVertex
100
AcDb2dVertex
 10
121.239100518044
 20
-132.7636480223648
 30
0.0
  0
VERTEX
  5
5F
330
5D
100
AcDbEntity
  8
_U+30EC_U+30A4_U+30E4_U+30FC 1
 62
   179
420
  2234388
370
     9
100
AcDbVertex
100
AcDb2dVertex
 10
121.239100518044
 20
-120.2634613588231
 30
0.0
  0
SEQEND
  5
60
330
5D
100
AcDbEntity
  8
_U+30EC_U+30A4_U+30E4_U+30FC 1
 62
   179
420
  2234388
370
     9
  0
POLYLINE
  5
61
330
41
100
AcDbEntity
  8
_U+30EC_U+30A4_U+30E4_U+30FC 1
 62
   179
420
  2234388
370
     9
100
AcDb2dPolyline
 66
     1
 10
0.0
 20
0.0
 30
0.0
  0
VERTEX
  5
62
330
61
100
AcDbEntity
  8
_U+30EC_U+30A4_U+30E4_U+30FC 1
 62
   179
420
  2234388
370
     9
100
AcDbVertex
100
AcDb2dVertex
 10
119.7790944441807
 20
-132.7636480223648
 30
0.0
  0
VERTEX
  5
63
330
61
100
AcDbEntity
  8
_U+30EC_U+30A4_U+30E4_U+30FC 1
 62
   179
420
  2234388
370
     9
100
AcDbVertex
100
AcDb2dVertex
 10
122.2395782702974
 20
-132.7636480223648
 30
0.0
  0
SEQEND
  5
64
330
61
100
AcDbEntity
  8
_U+30EC_U+30A4_U+30E4_U+30FC 1
 62
   179
420
  2234388
370
     9
  0
POLYLINE
  5
65
330
41
100
AcDbEntity
  8
_U+30EC_U+30A4_U+30E4_U+30FC 1
 62
   179
420
  2234388
370
     9
100
AcDb2dPolyline
 66
     1
 10
0.0
 20
0.0
 30
0.0
  0
VERTEX
  5
66
330
65
100
AcDbEntity
  8
_U+30EC_U+30A4_U+30E4_U+30FC 1
 62
   179
420
  2234388
370
     9
100
AcDbVertex
100
AcDb2dVertex
 10
116.7790722984954
 20
-120.2634613588231
 30
0.0
  0
VERTEX
  5
67
330
65
100
AcDbEntity
  8
_U+30EC_U+30A4_U+30E4_U+30FC 1
 62
   179
420
  2234388
370
     9
100
AcDbVertex
100
AcDb2dVertex
 10
122.2395782702974
 20
-120.2634613588231
 30
0.0
  0
SEQEND
  5
68
330
65
100
AcDbEntity
  8
_U+30EC_U+30A4_U+30E4_U+30FC 1
 62
   179
420
  2234388
370
     9
  0
INSERT
  5
6A
330
41
100
AcDbEntity
  8
_U+30EC_U+30A4_U+30E4_U+30FC 1
100
AcDbBlockReference
  2
block 4
 10
0.0
 20
0.0
 30
0.0
  0
POLYLINE
  5
7B
330
41
100
AcDbEntity
  8
_U+30EC_U+30A4_U+30E4_U+30FC 1
 62
   179
420
  2234388
370
     9
100
AcDb2dPolyline
 66
     1
 10
0.0
 20
0.0
 30
0.0
  0
VERTEX
  5
7C
330
7B
100
AcDbEntity
  8
_U+30EC_U+30A4_U+30E4_U+30FC 1
 62
   179
420
  2234388
370
     9
100
AcDbVertex
100
AcDb2dVertex
 10
63.2398953310603
 20
-141.0635566314008
 30
0.0
  0
VERTEX
  5
7D
330
7B
100
AcDbEntity
  8
_U+30EC_U+30A4_U+30E4_U+30FC 1
 62
   179
420
  2234388
370
     9
100
AcDbVertex
100
AcDb2dVertex
 10
63.2398953310603
 20
-120.2634613588231
 30
0.0
  0
SEQEND
  5
7E
330
7B
100
AcDbEntity
  8
_U+30EC_U+30A4_U+30E4_U+30FC 1
 62
   179
420
  2234388
370
     9
  0
POLYLINE
  5
7F
330
41
100
AcDbEntity
  8
_U+30EC_U+30A4_U+30E4_U+30FC 1
 62
   179
420
  2234388
370
     9
100
AcDb2dPolyline
 66
     1
 10
0.0
 20
0.0
 30
0.0
  0
VERTEX
  5
80
330
7F
100
AcDbEntity
  8
_U+30EC_U+30A4_U+30E4_U+30FC 1
 62
   179
420
  2234388
370
     9
100
AcDbVertex
100
AcDb2dVertex
 10
65.69970887941633
 20
-120.2634613588231
 30
0.0
  0
VERTEX
  5
81
330
7F
100
AcDbEntity
  8
_U+30EC_U+30A4_U+30E4_U+30FC 1
 62
   179
420
  2234388
370
     9
100
AcDbVertex
100
AcDb2dVertex
 10
62.23977035657562
 20
-120.2634613588231
 30
0.0
  0
SEQEND
  5
82
330
7F
100
AcDbEntity
  8
_U+30EC_U+30A4_U+30E4_U+30FC 1
 62
   179
420
  2234388
370
     9
  0
POLYLINE
  5
83
330
41
100
AcDbEntity
  8
_U+30EC_U+30A4_U+30E4_U+30FC 1
 62
   179
420
  2234388
370
     9
100
AcDb2dPolyline
 66
     1
 10
0.0
 20
0.0
 30
0.0
  0
VERTEX
  5
84
330
83
100
AcDbEntity
  8
_U+30EC_U+30A4_U+30E4_U+30FC 1
 62
   179
420
  2234388
370
     9
100
AcDbVertex
100
AcDb2dVertex
 10
65.69970887941633
 20
-141.0635566314008
 30
0.0
  0
VERTEX
  5
85
330
83
100
AcDbEntity
  8
_U+30EC_U+30A4_U+30E4_U+30FC 1
 62
   179
420
  2234388
370
     9
100
AcDbVertex
100
AcDb2dVertex
 10
62.23977035657562
 20
-141.0635566314008
 30
0.0
  0
SEQEND
  5
86
330
83
100
AcDbEntity
  8
_U+30EC_U+30A4_U+30E4_U+30FC 1
 62
   179
420
  2234388
370
     9
  0
INSERT
  5
88
330
41
100
AcDbEntity
  8
_U+30EC_U+30A4_U+30E4_U+30FC 1
100
AcDbBlockReference
  2
block 5
 10
0.0
 20
0.0
 30
0.0
  0
POLYLINE
  5
9C
330
41
100
AcDbEntity
  8
_U+30EC_U+30A4_U+30E4_U+30FC 1
 62
   179
420
  2234388
370
     9
100
AcDb2dPolyline
 66
     1
 10
0.0
 20
0.0
 30
0.0
  0
VERTEX
  5
9D
330
9C
100
AcDbEntity
  8
_U+30EC_U+30A4_U+30E4_U+30FC 1
 62
   179
420
  2234388
370
     9
100
AcDbVertex
100
AcDb2dVertex
 10
79.73948796567618
 20
-141.9045082978571
 30
0.0
  0
VERTEX
  5
9E
330
9C
100
AcDbEntity
  8
_U+30EC_U+30A4_U+30E4_U+30FC 1
 62
   179
420
  2234388
370
     9
100
AcDbVertex
100
AcDb2dVertex
 10
79.73948796567618
 20
-144.3646746861311
 30
0.0
  0
SEQEND
  5
9F
330
9C
100
AcDbEntity
  8
_U+30EC_U+30A4_U+30E4_U+30FC 1
 62
   179
420
  2234388
370
     9
  0
POLYLINE
  5
A0
330
41
100
AcDbEntity
  8
_U+30EC_U+30A4_U+30E4_U+30FC 1
 62
   179
420
  2234388
370
     9
100
AcDb2dPolyline
 66
     1
 10
0.0
 20
0.0
 30
0.0
  0
VERTEX
  5
A1
330
A0
100
AcDbEntity
  8
_U+30EC_U+30A4_U+30E4_U+30FC 1
 62
   179
420
  2234388
370
     9
100
AcDbVertex
100
AcDb2dVertex
 10
117.2345436757643
 20
-114.1567016381274
 30
0.0
  0
VERTEX
  5
A2
330
A0
100
AcDbEntity
  8
_U+30EC_U+30A4_U+30E4_U+30FC 1
 62
   179
420
  2234388
370
     9
100
AcDbVertex
100
AcDb2dVertex
 10
67.23482134025237
 20
-114.1567016381274
 30
0.0
  0
SEQEND
  5
A3
330
A0
100
AcDbEntity
  8
_U+30EC_U+30A4_U+30E4_U+30FC 1
 62
   179
420
  2234388
370
     9
  0
POLYLINE
  5
A4
330
41
100
AcDbEntity
  8
_U+30EC_U+30A4_U+30E4_U+30FC 1
 62
   179
420
  2234388
370
     9
100
AcDb2dPolyline
 66
     1
 10
0.0
 20
0.0
 30
0.0
  0
VERTEX
  5
A5
330
A4
100
AcDbEntity
  8
_U+30EC_U+30A4_U+30E4_U+30FC 1
 62
   179
420
  2234388
370
     9
100
AcDbVertex
100
AcDb2dVertex
 10
117.2393444151347
 20
-113.201696916144
 30
0.0
  0
VERTEX
  5
A6
330
A4
100
AcDbEntity
  8
_U+30EC_U+30A4_U+30E4_U+30FC 1
 62
   179
420
  2234388
370
     9
100
AcDbVertex
100
AcDb2dVertex
 10
117.2393444151347
 20
-119.2533527479645
 30
0.0
  0
SEQEND
  5
A7
330
A4
100
AcDbEntity
  8
_U+30EC_U+30A4_U+30E4_U+30FC 1
 62
   179
420
  2234388
370
     9
  0
POLYLINE
  5
A8
330
41
100
AcDbEntity
  8
_U+30EC_U+30A4_U+30E4_U+30FC 1
 62
   179
420
  2234388
370
     5
100
AcDb2dPolyline
 66
     1
 10
0.0
 20
0.0
 30
0.0
  0
VERTEX
  5
A9
330
A8
100
AcDbEntity
  8
_U+30EC_U+30A4_U+30E4_U+30FC 1
 62
   179
420
  2234388
370
     5
100
AcDbVertex
100
AcDb2dVertex
 10
67.24000717345339
 20
-113.201696916144
 30
0.0
  0
VERTEX
  5
AA
330
A8
100
AcDbEntity
  8
_U+30EC_U+30A4_U+30E4_U+30FC 1
 62
   179
420
  2234388
370
     5
100
AcDbVertex
100
AcDb2dVertex
 10
67.24000717345339
 20
-115.2605080267405
 30
0.0
  0
SEQEND
  5
AB
330
A8
100
AcDbEntity
  8
_U+30EC_U+30A4_U+30E4_U+30FC 1
 62
   179
420
  2234388
370
     5
  0
INSERT
  5
AD
330
41
100
AcDbEntity
  8
_U+30EC_U+30A4_U+30E4_U+30FC 1
100
AcDbBlockReference
  2
block 6
 10
0.0
 20
0.0
 30
0.0
  0
INSERT
  5
B6
330
41
100
AcDbEntity
  8
_U+30EC_U+30A4_U+30E4_U+30FC 1
100
AcDbBlockReference
  2
block 7
 10
0.0
 20
0.0
 30
0.0
  0
SPLINE
  5
BD
330
41
100
AcDbEntity
  8
_U+30EC_U+30A4_U+30E4_U+30FC 1
 62
   179
420
  2234388
370
     9
100
AcDbSpline
210
0.0
220
0.0
230
1.0
 70
    11
 71
     3
 72
    17
 73
    13
 74
     0
 42
0.0000000001
 43
0.0000000001
 12
1.0
 22
0.0
 32
0.0
 13
1.0
 23
0.0
 33
0.0
 40
0.0
 40
0.0
 40
0.0
 40
0.0
 40
1.0
 40
1.0
 40
1.0
 40
2.0
 40
2.0
 40
2.0
 40
3.0
 40
3.0
 40
3.0
 40
4.0
 40
4.0
 40
4.0
 40
4.0
 10
117.1394347893018
 20
-118.2205252482226
 30
0.0
 10
117.1394347893018
 20
-118.1653860815699
 30
0.0
 10
117.1842375659366
 20
-118.120618581581
 30
0.0
 10
117.2393444151347
 20
-118.120618581581
 30
0.0
 10
117.2944806186796
 20
-118.120618581581
 30
0.0
 10
117.3392481175375
 20
-118.1653860815699
 30
0.0
 10
117.3392481175375
 20
-118.2205252482226
 30
0.0
 10
117.3392481175375
 20
-118.2756291370979
 30
0.0
 10
117.2944806186796
 20
-118.3204319148643
 30
0.0
 10
117.2393444151347
 20
-118.3204319148643
 30
0.0
 10
117.1842375659366
 20
-118.3204319148643
 30
0.0
 10
117.1394347893018
 20
-118.2756291370979
 30
0.0
 10
117.1394347893018
 20
-118.2205252482226
 30
0.0
  0
SPLINE
  5
BE
330
41
100
AcDbEntity
  8
_U+30EC_U+30A4_U+30E4_U+30FC 1
 62
   179
420
  2234388
370
     9
100
AcDbSpline
210
0.0
220
0.0
230
1.0
 70
    11
 71
     3
 72
    17
 73
    13
 74
     0
 42
0.0000000001
 43
0.0000000001
 12
1.0
 22
0.0
 32
0.0
 13
1.0
 23
0.0
 33
0.0
 40
0.0
 40
0.0
 40
0.0
 40
0.0
 40
1.0
 40
1.0
 40
1.0
 40
2.0
 40
2.0
 40
2.0
 40
3.0
 40
3.0
 40
3.0
 40
4.0
 40
4.0
 40
4.0
 40
4.0
 10
105.1394873176682
 20
-118.2205252482226
 30
0.0
 10
105.1394873176682
 20
-118.1653860815699
 30
0.0
 10
105.184290094303
 20
-118.120618581581
 30
0.0
 10
105.2393939817861
 20
-118.120618581581
 30
0.0
 10
105.294533147046
 20
-118.120618581581
 30
0.0
 10
105.3393006459039
 20
-118.1653860815699
 30
0.0
 10
105.3393006459039
 20
-118.2205252482226
 30
0.0
 10
105.3393006459039
 20
-118.2756291370979
 30
0.0
 10
105.294533147046
 20
-118.3204319148643
 30
0.0
 10
105.2393939817861
 20
-118.3204319148643
 30
0.0
 10
105.184290094303
 20
-118.3204319148643
 30
0.0
 10
105.1394873176682
 20
-118.2756291370979
 30
0.0
 10
105.1394873176682
 20
-118.2205252482226
 30
0.0
  0
POLYLINE
  5
BF
330
41
100
AcDbEntity
  8
_U+30EC_U+30A4_U+30E4_U+30FC 1
 62
   179
420
  2234388
370
     9
100
AcDb2dPolyline
 66
     1
 10
0.0
 20
0.0
 30
0.0
  0
VERTEX
  5
C0
330
BF
100
AcDbEntity
  8
_U+30EC_U+30A4_U+30E4_U+30FC 1
 62
   179
420
  2234388
370
     9
100
AcDbVertex
100
AcDb2dVertex
 10
117.2345436757643
 20
-118.2205252482226
 30
0.0
  0
VERTEX
  5
C1
330
BF
100
AcDbEntity
  8
_U+30EC_U+30A4_U+30E4_U+30FC 1
 62
   179
420
  2234388
370
     9
100
AcDbVertex
100
AcDb2dVertex
 10
105.2345609263538
 20
-118.2205252482226
 30
0.0
  0
SEQEND
  5
C2
330
BF
100
AcDbEntity
  8
_U+30EC_U+30A4_U+30E4_U+30FC 1
 62
   179
420
  2234388
370
     9
  0
POLYLINE
  5
C3
330
41
100
AcDbEntity
  8
_U+30EC_U+30A4_U+30E4_U+30FC 1
 62
   179
420
  2234388
370
     9
100
AcDb2dPolyline
 66
     1
 10
0.0
 20
0.0
 30
0.0
  0
VERTEX
  5
C4
330
C3
100
AcDbEntity
  8
_U+30EC_U+30A4_U+30E4_U+30FC 1
 62
   179
420
  2234388
370
     9
100
AcDbVertex
100
AcDb2dVertex
 10
107.0584219909343
 20
-123.3358030247216
 30
0.0
  0
VERTEX
  5
C5
330
C3
100
AcDbEntity
  8
_U+30EC_U+30A4_U+30E4_U+30FC 1
 62
   179
420
  2234388
370
     9
100
AcDbVertex
100
AcDb2dVertex
 10
103.5878295794765
 20
-123.3358030247216
 30
0.0
  0
SEQEND
  5
C6
330
C3
100
AcDbEntity
  8
_U+30EC_U+30A4_U+30E4_U+30FC 1
 62
   179
420
  2234388
370
     9
  0
POLYLINE
  5
C7
330
41
100
AcDbEntity
  8
_U+30EC_U+30A4_U+30E4_U+30FC 1
 62
   179
420
  2234388
370
     9
100
AcDb2dPolyline
 66
     1
 10
0.0
 20
0.0
 30
0.0
  0
VERTEX
  5
C8
330
C7
100
AcDbEntity
  8
_U+30EC_U+30A4_U+30E4_U+30FC 1
 62
   179
420
  2234388
370
     9
100
AcDbVertex
100
AcDb2dVertex
 10
105.2387237040254
 20
-117.2655558040168
 30
0.0
  0
VERTEX
  5
C9
330
C7
100
AcDbEntity
  8
_U+30EC_U+30A4_U+30E4_U+30FC 1
 62
   179
420
  2234388
370
     9
100
AcDbVertex
100
AcDb2dVertex
 10
105.2387237040254
 20
-119.3126194146162
 30
0.0
  0
SEQEND
  5
CA
330
C7
100
AcDbEntity
  8
_U+30EC_U+30A4_U+30E4_U+30FC 1
 62
   179
420
  2234388
370
     9
  0
POLYLINE
  5
CB
330
41
100
AcDbEntity
  8
_U+30EC_U+30A4_U+30E4_U+30FC 1
 62
   179
420
  2234388
370
     9
100
AcDb2dPolyline
 66
     1
 10
0.0
 20
0.0
 30
0.0
  0
VERTEX
  5
CC
330
CB
100
AcDbEntity
  8
_U+30EC_U+30A4_U+30E4_U+30FC 1
 62
   179
420
  2234388
370
     9
100
AcDbVertex
100
AcDb2dVertex
 10
79.73948796567618
 20
-143.3645496863809
 30
0.0
  0
VERTEX
  5
CD
330
CB
100
AcDbEntity
  8
_U+30EC_U+30A4_U+30E4_U+30FC 1
 62
   179
420
  2234388
370
     9
100
AcDbVertex
100
AcDb2dVertex
 10
67.24000717345339
 20
-143.3645496863809
 30
0.0
  0
SEQEND
  5
CE
330
CB
100
AcDbEntity
  8
_U+30EC_U+30A4_U+30E4_U+30FC 1
 62
   179
420
  2234388
370
     9
  0
POLYLINE
  5
CF
330
41
100
AcDbEntity
  8
_U+30EC_U+30A4_U+30E4_U+30FC 1
 62
   179
420
  2234388
370
     9
100
AcDb2dPolyline
 66
     1
 10
0.0
 20
0.0
 30
0.0
  0
VERTEX
  5
D0
330
CF
100
AcDbEntity
  8
_U+30EC_U+30A4_U+30E4_U+30FC 1
 62
   179
420
  2234388
370
     9
100
AcDbVertex
100
AcDb2dVertex
 10
67.24000717345339
 20
-141.9041555200794
 30
0.0
  0
VERTEX
  5
D1
330
CF
100
AcDbEntity
  8
_U+30EC_U+30A4_U+30E4_U+30FC 1
 62
   179
420
  2234388
370
     9
100
AcDbVertex
100
AcDb2dVertex
 10
67.24000717345339
 20
-144.3639691305756
 30
0.0
  0
SEQEND
  5
D2
330
CF
100
AcDbEntity
  8
_U+30EC_U+30A4_U+30E4_U+30FC 1
 62
   179
420
  2234388
370
     9
  0
INSERT
  5
D4
330
41
100
AcDbEntity
  8
_U+30EC_U+30A4_U+30E4_U+30FC 1
100
AcDbBlockReference
  2
block 8
 10
0.0
 20
0.0
 30
0.0
  0
INSERT
  5
E6
330
41
100
AcDbEntity
  8
_U+30EC_U+30A4_U+30E4_U+30FC 1
100
AcDbBlockReference
  2
block 9
 10
0.0
 20
0.0
 30
0.0
  0
SPLINE
  5
F9
330
41
100
AcDbEntity
  8
_U+30EC_U+30A4_U+30E4_U+30FC 1
 62
   179
420
  2234388
370
    25
100
AcDbSpline
210
0.0
220
0.0
230
1.0
 70
     8
 71
     3
 72
    17
 73
    13
 74
     0
 42
0.0000000001
 43
0.0000000001
 12
1.0
 22
0.0
 32
0.0
 13
1.0
 23
0.0
 33
0.0
 40
0.0
 40
0.0
 40
0.0
 40
0.0
 40
1.0
 40
1.0
 40
1.0
 40
2.0
 40
2.0
 40
2.0
 40
3.0
 40
3.0
 40
3.0
 40
4.0
 40
4.0
 40
4.0
 40
4.0
 10
115.2391267822272
 20
-120.2793010810413
 30
0.0
 10
116.3395111985985
 20
-120.2793010810413
 30
0.0
 10
117.2393444151347
 20
-121.1791666363719
 30
0.0
 10
117.2393444151347
 20
-122.2795158027634
 30
0.0
 10
117.2393444151347
 20
-122.2795158027634
 30
0.0
 10
117.2393444151347
 20
-124.2790602467079
 30
0.0
 10
117.2393444151347
 20
-124.2790602467079
 30
0.0
 10
117.2393444151347
 20
-124.2790602467079
 30
0.0
 10
117.2393444151347
 20
-125.2636630242395
 30
0.0
 10
117.2393444151347
 20
-125.2636630242395
 30
0.0
 10
117.2393444151347
 20
-125.2636630242395
 30
0.0
 10
117.2393444151347
 20
-132.7636480223648
 30
0.0
 10
117.2393444151347
 20
-132.7636480223648
 30
0.0
  0
SPLINE
  5
FA
330
41
100
AcDbEntity
  8
_U+30EC_U+30A4_U+30E4_U+30FC 1
 62
   179
420
  2234388
370
    25
100
AcDbSpline
210
0.0
220
0.0
230
1.0
 70
     8
 71
     3
 72
    11
 73
     7
 74
     0
 42
0.0000000001
 43
0.0000000001
 12
1.0
 22
0.0
 32
0.0
 13
1.0
 23
0.0
 33
0.0
 40
0.0
 40
0.0
 40
0.0
 40
0.0
 40
1.0
 40
1.0
 40
1.0
 40
2.0
 40
2.0
 40
2.0
 40
2.0
 10
71.27282151501217
 20
-141.0635566314008
 30
0.0
 10
71.27282151501217
 20
-141.0635566314008
 30
0.0
 10
69.27278323270407
 20
-141.0635566314008
 30
0.0
 10
69.27278323270407
 20
-141.0635566314008
 30
0.0
 10
68.17292798298593
 20
-141.0635566314008
 30
0.0
 10
67.27270967261909
 20
-140.1633735760703
 30
0.0
 10
67.27270967261909
 20
-139.0633419096784
 30
0.0
  0
INSERT
  5
FC
330
41
100
AcDbEntity
  8
_U+30EC_U+30A4_U+30E4_U+30FC 1
100
AcDbBlockReference
  2
block 10
 10
0.0
 20
0.0
 30
0.0
  0
INSERT
  5
1AC
330
41
100
AcDbEntity
  8
_U+30EC_U+30A4_U+30E4_U+30FC 1
100
AcDbBlockReference
  2
block 20
 10
0.0
 20
0.0
 30
0.0
  0
SPLINE
  5
36B
330
41
100
AcDbEntity
  8
_U+30EC_U+30A4_U+30E4_U+30FC 1
 62
   179
420
  2234388
370
    25
100
AcDbSpline
210
0.0
220
0.0
230
1.0
 70
     8
 71
     3
 72
    32
 73
    28
 74
     0
 42
0.0000000001
 43
0.0000000001
 12
1.0
 22
0.0
 32
0.0
 13
1.0
 23
0.0
 33
0.0
 40
0.0
 40
0.0
 40
0.0
 40
0.0
 40
1.0
 40
1.0
 40
1.0
 40
2.0
 40
2.0
 40
2.0
 40
3.0
 40
3.0
 40
3.0
 40
4.0
 40
4.0
 40
4.0
 40
5.0
 40
5.0
 40
5.0
 40
6.0
 40
6.0
 40
6.0
 40
7.0
 40
7.0
 40
7.0
 40
8.0
 40
8.0
 40
8.0
 40
9.0
 40
9.0
 40
9.0
 40
9.0
 10
91.23990211672061
 20
-130.7634333006424
 30
0.0
 10
91.23990211672061
 20
-130.7634333006424
 30
0.0
 10
80.72409071833465
 20
-130.7634333006424
 30
0.0
 10
80.72409071833465
 20
-130.7634333006424
 30
0.0
 10
80.72409071833465
 20
-130.7634333006424
 30
0.0
 10
79.80563379732199
 20
-130.7634333006424
 30
0.0
 10
79.80563379732199
 20
-130.7634333006424
 30
0.0
 10
79.80563379732199
 20
-130.7634333006424
 30
0.0
 10
78.73971576896027
 20
-130.7634333006424
 30
0.0
 10
78.73971576896027
 20
-130.7634333006424
 30
0.0
 10
78.46479605375184
 20
-130.7634333006424
 30
0.0
 10
78.23951217061042
 20
-130.988717189475
 30
0.0
 10
78.23951217061042
 20
-131.2636369116286
 30
0.0
 10
78.23951217061042
 20
-131.2636369116286
 30
0.0
 10
78.23951217061042
 20
-132.7636480223648
 30
0.0
 10
78.23951217061042
 20
-132.7636480223648
 30
0.0
 10
78.23951217061042
 20
-133.0385677445184
 30
0.0
 10
78.46479605375184
 20
-133.2635341333508
 30
0.0
 10
78.73971576896027
 20
-133.2635341333508
 30
0.0
 10
78.73971576896027
 20
-133.2635341333508
 30
0.0
 10
79.73948796567618
 20
-133.2635341333508
 30
0.0
 10
79.73948796567618
 20
-133.2635341333508
 30
0.0
 10
79.73948796567618
 20
-133.2635341333508
 30
0.0
 10
79.73948796567618
 20
-141.0635566314008
 30
0.0
 10
79.73948796567618
 20
-141.0635566314008
 30
0.0
 10
79.73948796567618
 20
-141.0635566314008
 30
0.0
 10
71.3065823474842
 20
-141.0635566314008
 30
0.0
 10
71.3065823474842
 20
-141.0635566314008
 30
0.0
  0
POLYLINE
  5
36C
330
41
100
AcDbEntity
  8
_U+30EC_U+30A4_U+30E4_U+30FC 1
 62
   179
420
  2234388
370
    25
100
AcDb2dPolyline
 66
     1
 10
0.0
 20
0.0
 30
0.0
  0
VERTEX
  5
36D
330
36C
100
AcDbEntity
  8
_U+30EC_U+30A4_U+30E4_U+30FC 1
 62
   179
420
  2234388
370
    25
100
AcDbVertex
100
AcDb2dVertex
 10
117.2393444151347
 20
-132.7636480223648
 30
0.0
  0
VERTEX
  5
36E
330
36C
100
AcDbEntity
  8
_U+30EC_U+30A4_U+30E4_U+30FC 1
 62
   179
420
  2234388
370
    25
100
AcDbVertex
100
AcDb2dVertex
 10
93.23944651015243
 20
-132.7636480223648
 30
0.0
  0
SEQEND
  5
36F
330
36C
100
AcDbEntity
  8
_U+30EC_U+30A4_U+30E4_U+30FC 1
 62
   179
420
  2234388
370
    25
  0
POLYLINE
  5
370
330
41
100
AcDbEntity
  8
_U+30EC_U+30A4_U+30E4_U+30FC 1
  6
AI-Linetype-3
 62
   179
420
  2234388
370
     9
100
AcDb2dPolyline
 66
     1
 10
0.0
 20
0.0
 30
0.0
  0
VERTEX
  5
371
330
370
100
AcDbEntity
  8
_U+30EC_U+30A4_U+30E4_U+30FC 1
  6
AI-Linetype-3
 62
   179
420
  2234388
370
     9
100
AcDbVertex
100
AcDb2dVertex
 10
105.2387237040254
 20
-119.3126194146162
 30
0.0
  0
VERTEX
  5
372
330
370
100
AcDbEntity
  8
_U+30EC_U+30A4_U+30E4_U+30FC 1
  6
AI-Linetype-3
 62
   179
420
  2234388
370
     9
100
AcDbVertex
100
AcDb2dVertex
 10
105.2387237040254
 20
-134.2636238553229
 30
0.0
  0
SEQEND
  5
374
330
370
100
AcDbEntity
  8
_U+30EC_U+30A4_U+30E4_U+30FC 1
  6
AI-Linetype-3
 62
   179
420
  2234388
370
     9
  0
ENDBLK
  5
44
330
41
100
AcDbEntity
  8
0
100
AcDbBlockEnd
  0
BLOCK
  5
4F
330
4D
100
AcDbEntity
  8
0
100
AcDbBlockBegin
  2
block 3
 70
     0
 10
0.0
 20
0.0
 30
0.0
  3
block 3
  1

  0
POLYLINE
  5
51
330
4D
100
AcDbEntity
  8
_U+30EC_U+30A4_U+30E4_U+30FC 1
  6
AI-Linetype-1
 62
   179
420
  2234388
370
    25
100
AcDb2dPolyline
 66
     1
 10
0.0
 20
0.0
 30
0.0
  0
VERTEX
  5
52
330
51
100
AcDbEntity
  8
_U+30EC_U+30A4_U+30E4_U+30FC 1
  6
AI-Linetype-1
 62
   179
420
  2234388
370
    25
100
AcDbVertex
100
AcDb2dVertex
 10
101.537979076217
 20
-120.2634613588231
 30
0.0
  0
VERTEX
  5
53
330
51
100
AcDbEntity
  8
_U+30EC_U+30A4_U+30E4_U+30FC 1
  6
AI-Linetype-1
 62
   179
420
  2234388
370
    25
100
AcDbVertex
100
AcDb2dVertex
 10
103.5381937474095
 20
-122.2633233027674
 30
0.0
  0
VERTEX
  5
54
330
51
100
AcDbEntity
  8
_U+30EC_U+30A4_U+30E4_U+30FC 1
  6
AI-Linetype-1
 62
   179
420
  2234388
370
    25
100
AcDbVertex
100
AcDb2dVertex
 10
103.5381937474095
 20
-132.7636480223648
 30
0.0
  0
SEQEND
  5
56
330
51
100
AcDbEntity
  8
_U+30EC_U+30A4_U+30E4_U+30FC 1
  6
AI-Linetype-1
 62
   179
420
  2234388
370
    25
  0
POLYLINE
  5
57
330
4D
100
AcDbEntity
  8
_U+30EC_U+30A4_U+30E4_U+30FC 1
  6
AI-Linetype-2
 62
   179
420
  2234388
370
    25
100
AcDb2dPolyline
 66
     1
 10
0.0
 20
0.0
 30
0.0
  0
VERTEX
  5
58
330
57
100
AcDbEntity
  8
_U+30EC_U+30A4_U+30E4_U+30FC 1
  6
AI-Linetype-2
 62
   179
420
  2234388
370
    25
100
AcDbVertex
100
AcDb2dVertex
 10
109.0379666394074
 20
-120.2634613588231
 30
0.0
  0
VERTEX
  5
59
330
57
100
AcDbEntity
  8
_U+30EC_U+30A4_U+30E4_U+30FC 1
  6
AI-Linetype-2
 62
   179
420
  2234388
370
    25
100
AcDbVertex
100
AcDb2dVertex
 10
107.0384221954624
 20
-122.2633233027674
 30
0.0
  0
VERTEX
  5
5A
330
57
100
AcDbEntity
  8
_U+30EC_U+30A4_U+30E4_U+30FC 1
  6
AI-Linetype-2
 62
   179
420
  2234388
370
    25
100
AcDbVertex
100
AcDb2dVertex
 10
107.0384221954624
 20
-132.7636480223648
 30
0.0
  0
SEQEND
  5
5C
330
57
100
AcDbEntity
  8
_U+30EC_U+30A4_U+30E4_U+30FC 1
  6
AI-Linetype-2
 62
   179
420
  2234388
370
    25
  0
ENDBLK
  5
50
330
4D
100
AcDbEntity
  8
0
100
AcDbBlockEnd
  0
BLOCK
  5
6B
330
69
100
AcDbEntity
  8
0
100
AcDbBlockBegin
  2
block 4
 70
     0
 10
0.0
 20
0.0
 30
0.0
  3
block 4
  1

  0
SPLINE
  5
6D
330
69
100
AcDbEntity
  8
_U+30EC_U+30A4_U+30E4_U+30FC 1
370
     0
100
AcDbSpline
210
0.0
220
0.0
230
1.0
 70
    11
 71
     3
 72
    26
 73
    22
 74
     0
 42
0.0000000001
 43
0.0000000001
 12
1.0
 22
0.0
 32
0.0
 13
1.0
 23
0.0
 33
0.0
 40
0.0
 40
0.0
 40
0.0
 40
0.0
 40
1.0
 40
1.0
 40
1.0
 40
2.0
 40
2.0
 40
2.0
 40
3.0
 40
3.0
 40
3.0
 40
4.0
 40
4.0
 40
4.0
 40
5.0
 40
5.0
 40
5.0
 40
6.0
 40
6.0
 40
6.0
 40
7.0
 40
7.0
 40
7.0
 40
7.0
 10
119.9372097139393
 20
-128.0075181429113
 30
0.0
 10
119.9372097139393
 20
-128.0075181429113
 30
0.0
 10
118.8330566109167
 20
-128.0075181429113
 30
0.0
 10
118.8330566109167
 20
-128.0075181429113
 30
0.0
 10
118.8330566109167
 20
-128.0075181429113
 30
0.0
 10
118.8330566109167
 20
-128.3375582903982
 30
0.0
 10
118.8330566109167
 20
-128.3375582903982
 30
0.0
 10
118.8330566109167
 20
-128.3375582903982
 30
0.0
 10
118.684917505051
 20
-128.3375582903982
 30
0.0
 10
118.684917505051
 20
-128.3375582903982
 30
0.0
 10
118.6701035944644
 20
-128.0054510856202
 30
0.0
 10
118.5071505780121
 20
-127.9589422965693
 30
0.0
 10
118.3927734079018
 20
-127.9293144753962
 30
0.0
 10
118.3927734079018
 20
-127.9293144753962
 30
0.0
 10
118.3927734079018
 20
-127.7832424268216
 30
0.0
 10
118.3927734079018
 20
-127.7832424268216
 30
0.0
 10
118.3927734079018
 20
-127.7832424268216
 30
0.0
 10
119.9372097139393
 20
-127.7832424268216
 30
0.0
 10
119.9372097139393
 20
-127.7832424268216
 30
0.0
 10
119.9372097139393
 20
-127.7832424268216
 30
0.0
 10
119.9372097139393
 20
-128.0075181429113
 30
0.0
 10
119.9372097139393
 20
-128.0075181429113
 30
0.0
  0
HATCH
  5
6E
330
69
100
AcDbEntity
  8
_U+30EC_U+30A4_U+30E4_U+30FC 1
 62
   179
420
  2234388
100
AcDbHatch
 10
0.0
 20
0.0
 30
0.0
210
0.0
220
0.0
230
1.0
  2
SOLID
 70
     1
 71
     0
 91
        1
 92
        1
 93
        1
 72
     4
 94
        3
 73
     0
 74
     1
 95
       26
 96
       22
 40
0.0
 40
0.0
 40
0.0
 40
0.0
 40
1.0
 40
1.0
 40
1.0
 40
2.0
 40
2.0
 40
2.0
 40
3.0
 40
3.0
 40
3.0
 40
4.0
 40
4.0
 40
4.0
 40
5.0
 40
5.0
 40
5.0
 40
6.0
 40
6.0
 40
6.0
 40
7.0
 40
7.0
 40
7.0
 40
7.0
 10
119.9372097139393
 20
-128.0075181429113
 10
119.9372097139393
 20
-128.0075181429113
 10
118.8330566109167
 20
-128.0075181429113
 10
118.8330566109167
 20
-128.0075181429113
 10
118.8330566109167
 20
-128.0075181429113
 10
118.8330566109167
 20
-128.3375582903982
 10
118.8330566109167
 20
-128.3375582903982
 10
118.8330566109167
 20
-128.3375582903982
 10
118.684917505051
 20
-128.3375582903982
 10
118.684917505051
 20
-128.3375582903982
 10
118.6701035944644
 20
-128.0054510856202
 10
118.5071505780121
 20
-127.9589422965693
 10
118.3927734079018
 20
-127.9293144753962
 10
118.3927734079018
 20
-127.9293144753962
 10
118.3927734079018
 20
-127.7832424268216
 10
118.3927734079018
 20
-127.7832424268216
 10
118.3927734079018
 20
-127.7832424268216
 10
119.9372097139393
 20
-127.7832424268216
 10
119.9372097139393
 20
-127.7832424268216
 10
119.9372097139393
 20
-127.7832424268216
 10
119.9372097139393
 20
-128.0075181429113
 10
119.9372097139393
 20
-128.0075181429113
 97
        0
 97
        0
 75
     2
 76
     1
 98
        0
  0
SPLINE
  5
6F
330
69
100
AcDbEntity
  8
_U+30EC_U+30A4_U+30E4_U+30FC 1
370
     0
100
AcDbSpline
210
0.0
220
0.0
230
1.0
 70
    11
 71
     3
 72
    44
 73
    40
 74
     0
 42
0.0000000001
 43
0.0000000001
 12
1.0
 22
0.0
 32
0.0
 13
1.0
 23
0.0
 33
0.0
 40
0.0
 40
0.0
 40
0.0
 40
0.0
 40
1.0
 40
1.0
 40
1.0
 40
2.0
 40
2.0
 40
2.0
 40
3.0
 40
3.0
 40
3.0
 40
4.0
 40
4.0
 40
4.0
 40
5.0
 40
5.0
 40
5.0
 40
6.0
 40
6.0
 40
6.0
 40
7.0
 40
7.0
 40
7.0
 40
8.0
 40
8.0
 40
8.0
 40
9.0
 40
9.0
 40
9.0
 40
10.0
 40
10.0
 40
10.0
 40
11.0
 40
11.0
 40
11.0
 40
12.0
 40
12.0
 40
12.0
 40
13.0
 40
13.0
 40
13.0
 40
13.0
 10
119.3553330864806
 20
-126.6890801007062
 30
0.0
 10
119.5141519883506
 20
-126.906810135374
 30
0.0
 10
119.5882215412835
 20
-126.9998277134757
 30
0.0
 10
119.732226532567
 20
-127.0487480693663
 30
0.0
 10
119.732226532567
 20
-127.0487480693663
 30
0.0
 10
119.732226532567
 20
-126.2701564896998
 30
0.0
 10
119.732226532567
 20
-126.2701564896998
 30
0.0
 10
119.732226532567
 20
-126.2701564896998
 30
0.0
 10
119.9372097139393
 20
-126.2701564896998
 30
0.0
 10
119.9372097139393
 20
-126.2701564896998
 30
0.0
 10
119.9372097139393
 20
-126.2701564896998
 30
0.0
 10
119.9372097139393
 20
-127.2981729824984
 30
0.0
 10
119.9372097139393
 20
-127.2981729824984
 30
0.0
 10
119.5796088025704
 20
-127.2664781040341
 30
0.0
 10
119.5014051350552
 20
-127.2010212898143
 30
0.0
 10
119.2030598660326
 20
-126.8158596145634
 30
0.0
 10
119.0042778565337
 20
-126.5598890200093
 30
0.0
 10
118.9364094754742
 20
-126.4944322057896
 30
0.0
 10
118.7992946751613
 20
-126.4944322057896
 30
0.0
 10
118.6807833904687
 20
-126.4944322057896
 30
0.0
 10
118.5491807429322
 20
-126.5664347014313
 30
0.0
 10
118.5491807429322
 20
-126.7631496536391
 30
0.0
 10
118.5491807429322
 20
-127.0232543627754
 30
0.0
 10
118.7800021404439
 20
-127.0318671014886
 30
0.0
 10
118.8964463678453
 20
-127.0360012160709
 30
0.0
 10
118.8964463678453
 20
-127.0360012160709
 30
0.0
 10
118.8964463678453
 20
-127.2602769321606
 30
0.0
 10
118.8964463678453
 20
-127.2602769321606
 30
0.0
 10
118.7696668539881
 20
-127.2516641934475
 30
0.0
 10
118.657356741169
 20
-127.2409843974432
 30
0.0
 10
118.5388454564764
 20
-127.1607136726369
 30
0.0
 10
118.3783040068638
 20
-127.0508151266574
 30
0.0
 10
118.3441975615598
 20
-126.8644354609054
 30
0.0
 10
118.3441975615598
 20
-126.7483357430525
 30
0.0
 10
118.3441975615598
 20
-126.4710055564899
 30
0.0
 10
118.5285101700207
 20
-126.2636108082778
 30
0.0
 10
118.8013617324524
 20
-126.2636108082778
 30
0.0
 10
119.029427053576
 20
-126.2636108082778
 30
0.0
 10
119.1293348226482
 20
-126.3800550356793
 30
0.0
 10
119.3553330864806
 20
-126.6890801007062
 30
0.0
  0
HATCH
  5
70
330
69
100
AcDbEntity
  8
_U+30EC_U+30A4_U+30E4_U+30FC 1
 62
   179
420
  2234388
100
AcDbHatch
 10
0.0
 20
0.0
 30
0.0
210
0.0
220
0.0
230
1.0
  2
SOLID
 70
     1
 71
     0
 91
        1
 92
        1
 93
        1
 72
     4
 94
        3
 73
     0
 74
     1
 95
       44
 96
       40
 40
0.0
 40
0.0
 40
0.0
 40
0.0
 40
1.0
 40
1.0
 40
1.0
 40
2.0
 40
2.0
 40
2.0
 40
3.0
 40
3.0
 40
3.0
 40
4.0
 40
4.0
 40
4.0
 40
5.0
 40
5.0
 40
5.0
 40
6.0
 40
6.0
 40
6.0
 40
7.0
 40
7.0
 40
7.0
 40
8.0
 40
8.0
 40
8.0
 40
9.0
 40
9.0
 40
9.0
 40
10.0
 40
10.0
 40
10.0
 40
11.0
 40
11.0
 40
11.0
 40
12.0
 40
12.0
 40
12.0
 40
13.0
 40
13.0
 40
13.0
 40
13.0
 10
119.3553330864806
 20
-126.6890801007062
 10
119.5141519883506
 20
-126.906810135374
 10
119.5882215412835
 20
-126.9998277134757
 10
119.732226532567
 20
-127.0487480693663
 10
119.732226532567
 20
-127.0487480693663
 10
119.732226532567
 20
-126.2701564896998
 10
119.732226532567
 20
-126.2701564896998
 10
119.732226532567
 20
-126.2701564896998
 10
119.9372097139393
 20
-126.2701564896998
 10
119.9372097139393
 20
-126.2701564896998
 10
119.9372097139393
 20
-126.2701564896998
 10
119.9372097139393
 20
-127.2981729824984
 10
119.9372097139393
 20
-127.2981729824984
 10
119.5796088025704
 20
-127.2664781040341
 10
119.5014051350552
 20
-127.2010212898143
 10
119.2030598660326
 20
-126.8158596145634
 10
119.0042778565337
 20
-126.5598890200093
 10
118.9364094754742
 20
-126.4944322057896
 10
118.7992946751613
 20
-126.4944322057896
 10
118.6807833904687
 20
-126.4944322057896
 10
118.5491807429322
 20
-126.5664347014313
 10
118.5491807429322
 20
-126.7631496536391
 10
118.5491807429322
 20
-127.0232543627754
 10
118.7800021404439
 20
-127.0318671014886
 10
118.8964463678453
 20
-127.0360012160709
 10
118.8964463678453
 20
-127.0360012160709
 10
118.8964463678453
 20
-127.2602769321606
 10
118.8964463678453
 20
-127.2602769321606
 10
118.7696668539881
 20
-127.2516641934475
 10
118.657356741169
 20
-127.2409843974432
 10
118.5388454564764
 20
-127.1607136726369
 10
118.3783040068638
 20
-127.0508151266574
 10
118.3441975615598
 20
-126.8644354609054
 10
118.3441975615598
 20
-126.7483357430525
 10
118.3441975615598
 20
-126.4710055564899
 10
118.5285101700207
 20
-126.2636108082778
 10
118.8013617324524
 20
-126.2636108082778
 10
119.029427053576
 20
-126.2636108082778
 10
119.1293348226482
 20
-126.3800550356793
 10
119.3553330864806
 20
-126.6890801007062
 97
        0
 97
        0
 75
     2
 76
     1
 98
        0
  0
POLYLINE
  5
71
330
69
100
AcDbEntity
  8
_U+30EC_U+30A4_U+30E4_U+30FC 1
370
     0
100
AcDb2dPolyline
 66
     1
 10
0.0
 20
0.0
 30
0.0
  0
VERTEX
  5
72
330
71
100
AcDbEntity
  8
_U+30EC_U+30A4_U+30E4_U+30FC 1
370
     0
100
AcDbVertex
100
AcDb2dVertex
 10
119.9372097139393
 20
-126.045191754513
 30
0.0
  0
VERTEX
  5
73
330
71
100
AcDbEntity
  8
_U+30EC_U+30A4_U+30E4_U+30FC 1
370
     0
100
AcDbVertex
100
AcDb2dVertex
 10
119.6853732339676
 20
-126.045191754513
 30
0.0
  0
VERTEX
  5
74
330
71
100
AcDbEntity
  8
_U+30EC_U+30A4_U+30E4_U+30FC 1
370
     0
100
AcDbVertex
100
AcDb2dVertex
 10
119.6853732339676
 20
-125.7933552745413
 30
0.0
  0
VERTEX
  5
75
330
71
100
AcDbEntity
  8
_U+30EC_U+30A4_U+30E4_U+30FC 1
370
     0
100
AcDbVertex
100
AcDb2dVertex
 10
119.9372097139393
 20
-125.7933552745413
 30
0.0
  0
VERTEX
  5
76
330
71
100
AcDbEntity
  8
_U+30EC_U+30A4_U+30E4_U+30FC 1
370
     0
100
AcDbVertex
100
AcDb2dVertex
 10
119.9372097139393
 20
-126.045191754513
 30
0.0
  0
SEQEND
  5
77
330
71
100
AcDbEntity
  8
_U+30EC_U+30A4_U+30E4_U+30FC 1
370
     0
  0
HATCH
  5
78
330
69
100
AcDbEntity
  8
_U+30EC_U+30A4_U+30E4_U+30FC 1
 62
   179
420
  2234388
100
AcDbHatch
 10
0.0
 20
0.0
 30
0.0
210
0.0
220
0.0
230
1.0
  2
SOLID
 70
     1
 71
     0
 91
        1
 92
        1
 93
        4
 72
     1
 10
119.9372097139393
 20
-126.045191754513
 11
119.6853732339676
 21
-126.045191754513
 72
     1
 10
119.6853732339676
 20
-126.045191754513
 11
119.6853732339676
 21
-125.7933552745413
 72
     1
 10
119.6853732339676
 20
-125.7933552745413
 11
119.9372097139393
 21
-125.7933552745413
 72
     1
 10
119.9372097139393
 20
-125.7933552745413
 11
119.9372097139393
 21
-126.045191754513
 97
        0
 75
     2
 76
     1
 98
        0
  0
SPLINE
  5
79
330
69
100
AcDbEntity
  8
_U+30EC_U+30A4_U+30E4_U+30FC 1
370
     0
100
AcDbSpline
210
0.0
220
0.0
230
1.0
 70
    11
 71
     3
 72
    53
 73
    49
 74
     0
 42
0.0000000001
 43
0.0000000001
 12
1.0
 22
0.0
 32
0.0
 13
1.0
 23
0.0
 33
0.0
 40
0.0
 40
0.0
 40
0.0
 40
0.0
 40
1.0
 40
1.0
 40
1.0
 40
2.0
 40
2.0
 40
2.0
 40
3.0
 40
3.0
 40
3.0
 40
4.0
 40
4.0
 40
4.0
 40
5.0
 40
5.0
 40
5.0
 40
6.0
 40
6.0
 40
6.0
 40
7.0
 40
7.0
 40
7.0
 40
8.0
 40
8.0
 40
8.0
 40
9.0
 40
9.0
 40
9.0
 40
10.0
 40
10.0
 40
10.0
 40
11.0
 40
11.0
 40
11.0
 40
12.0
 40
12.0
 40
12.0
 40
13.0
 40
13.0
 40
13.0
 40
14.0
 40
14.0
 40
14.0
 40
15.0
 40
15.0
 40
15.0
 40
16.0
 40
16.0
 40
16.0
 40
16.0
 10
119.9878526175725
 20
-125.0760863945122
 30
0.0
 10
119.9878526175725
 20
-125.1544623168017
 30
0.0
 10
119.9713161592433
 20
-125.2559203788423
 30
0.0
 10
119.9075818927662
 20
-125.3575506956571
 30
0.0
 10
119.7976833467867
 20
-125.5308389985652
 30
0.0
 10
119.6664252087987
 20
-125.5521985905738
 30
0.0
 10
119.5585937201104
 20
-125.5711466157426
 30
0.0
 10
119.5585937201104
 20
-125.5711466157426
 30
0.0
 10
119.5585937201104
 20
-125.3491102117183
 30
0.0
 10
119.5585937201104
 20
-125.3491102117183
 30
0.0
 10
119.7573757296093
 20
-125.2939886839543
 30
0.0
 10
119.7870035507824
 20
-125.1670369153228
 30
0.0
 10
119.7870035507824
 20
-125.0740193372211
 30
0.0
 10
119.7870035507824
 20
-124.9344929700685
 30
0.0
 10
119.6874402912587
 20
-124.7820474948462
 30
0.0
 10
119.4548963460043
 20
-124.7820474948462
 30
0.0
 10
119.1989257514503
 20
-124.7820474948462
 30
0.0
 10
119.1293348226482
 20
-124.9618814791762
 30
0.0
 10
119.1293348226482
 20
-125.0824598211599
 30
0.0
 10
119.1293348226482
 20
-125.1141546996243
 30
0.0
 10
119.1293348226482
 20
-125.2559203788423
 30
0.0
 10
119.2581813937966
 20
-125.3448038423617
 30
0.0
 10
119.2581813937966
 20
-125.3448038423617
 30
0.0
 10
119.2388888590792
 20
-125.5205037121095
 30
0.0
 10
119.2388888590792
 20
-125.5205037121095
 30
0.0
 10
119.2388888590792
 20
-125.5205037121095
 30
0.0
 10
118.3927734079018
 20
-125.3999253701257
 30
0.0
 10
118.3927734079018
 20
-125.3999253701257
 30
0.0
 10
118.3927734079018
 20
-125.3999253701257
 30
0.0
 10
118.3927734079018
 20
-124.6213337904593
 30
0.0
 10
118.3927734079018
 20
-124.6213337904593
 30
0.0
 10
118.3927734079018
 20
-124.6213337904593
 30
0.0
 10
118.587765812367
 20
-124.6213337904593
 30
0.0
 10
118.587765812367
 20
-124.6213337904593
 30
0.0
 10
118.587765812367
 20
-124.6213337904593
 30
0.0
 10
118.587765812367
 20
-125.2369723536734
 30
0.0
 10
118.587765812367
 20
-125.2369723536734
 30
0.0
 10
118.587765812367
 20
-125.2369723536734
 30
0.0
 10
119.0108235379556
 20
-125.3024291678932
 30
0.0
 10
119.0108235379556
 20
-125.3024291678932
 30
0.0
 10
118.9767170926517
 20
-125.2411064682557
 30
0.0
 10
118.9364094754742
 20
-125.158596431384
 30
0.0
 10
118.9364094754742
 20
-125.0402574014656
 30
0.0
 10
118.9364094754742
 20
-124.7863538642027
 30
0.0
 10
119.1227891412262
 20
-124.5493312948175
 30
0.0
 10
119.4359483208355
 20
-124.5493312948175
 30
0.0
 10
119.753241615027
 20
-124.5493312948175
 30
0.0
 10
119.9878526175725
 20
-124.7736070109073
 30
0.0
 10
119.9878526175725
 20
-125.0760863945122
 30
0.0
  0
HATCH
  5
7A
330
69
100
AcDbEntity
  8
_U+30EC_U+30A4_U+30E4_U+30FC 1
 62
   179
420
  2234388
100
AcDbHatch
 10
0.0
 20
0.0
 30
0.0
210
0.0
220
0.0
230
1.0
  2
SOLID
 70
     1
 71
     0
 91
        1
 92
        1
 93
        1
 72
     4
 94
        3
 73
     0
 74
     1
 95
       53
 96
       49
 40
0.0
 40
0.0
 40
0.0
 40
0.0
 40
1.0
 40
1.0
 40
1.0
 40
2.0
 40
2.0
 40
2.0
 40
3.0
 40
3.0
 40
3.0
 40
4.0
 40
4.0
 40
4.0
 40
5.0
 40
5.0
 40
5.0
 40
6.0
 40
6.0
 40
6.0
 40
7.0
 40
7.0
 40
7.0
 40
8.0
 40
8.0
 40
8.0
 40
9.0
 40
9.0
 40
9.0
 40
10.0
 40
10.0
 40
10.0
 40
11.0
 40
11.0
 40
11.0
 40
12.0
 40
12.0
 40
12.0
 40
13.0
 40
13.0
 40
13.0
 40
14.0
 40
14.0
 40
14.0
 40
15.0
 40
15.0
 40
15.0
 40
16.0
 40
16.0
 40
16.0
 40
16.0
 10
119.9878526175725
 20
-125.0760863945122
 10
119.9878526175725
 20
-125.1544623168017
 10
119.9713161592433
 20
-125.2559203788423
 10
119.9075818927662
 20
-125.3575506956571
 10
119.7976833467867
 20
-125.5308389985652
 10
119.6664252087987
 20
-125.5521985905738
 10
119.5585937201104
 20
-125.5711466157426
 10
119.5585937201104
 20
-125.5711466157426
 10
119.5585937201104
 20
-125.3491102117183
 10
119.5585937201104
 20
-125.3491102117183
 10
119.7573757296093
 20
-125.2939886839543
 10
119.7870035507824
 20
-125.1670369153228
 10
119.7870035507824
 20
-125.0740193372211
 10
119.7870035507824
 20
-124.9344929700685
 10
119.6874402912587
 20
-124.7820474948462
 10
119.4548963460043
 20
-124.7820474948462
 10
119.1989257514503
 20
-124.7820474948462
 10
119.1293348226482
 20
-124.9618814791762
 10
119.1293348226482
 20
-125.0824598211599
 10
119.1293348226482
 20
-125.1141546996243
 10
119.1293348226482
 20
-125.2559203788423
 10
119.2581813937966
 20
-125.3448038423617
 10
119.2581813937966
 20
-125.3448038423617
 10
119.2388888590792
 20
-125.5205037121095
 10
119.2388888590792
 20
-125.5205037121095
 10
119.2388888590792
 20
-125.5205037121095
 10
118.3927734079018
 20
-125.3999253701257
 10
118.3927734079018
 20
-125.3999253701257
 10
118.3927734079018
 20
-125.3999253701257
 10
118.3927734079018
 20
-124.6213337904593
 10
118.3927734079018
 20
-124.6213337904593
 10
118.3927734079018
 20
-124.6213337904593
 10
118.587765812367
 20
-124.6213337904593
 10
118.587765812367
 20
-124.6213337904593
 10
118.587765812367
 20
-124.6213337904593
 10
118.587765812367
 20
-125.2369723536734
 10
118.587765812367
 20
-125.2369723536734
 10
118.587765812367
 20
-125.2369723536734
 10
119.0108235379556
 20
-125.3024291678932
 10
119.0108235379556
 20
-125.3024291678932
 10
118.9767170926517
 20
-125.2411064682557
 10
118.9364094754742
 20
-125.158596431384
 10
118.9364094754742
 20
-125.0402574014656
 10
118.9364094754742
 20
-124.7863538642027
 10
119.1227891412262
 20
-124.5493312948175
 10
119.4359483208355
 20
-124.5493312948175
 10
119.753241615027
 20
-124.5493312948175
 10
119.9878526175725
 20
-124.7736070109073
 10
119.9878526175725
 20
-125.0760863945122
 97
        0
 97
        0
 75
     2
 76
     1
 98
        0
  0
ENDBLK
  5
6C
330
69
100
AcDbEntity
  8
0
100
AcDbBlockEnd
  0
BLOCK
  5
89
330
87
100
AcDbEntity
  8
0
100
AcDbBlockBegin
  2
block 5
 70
     0
 10
0.0
 20
0.0
 30
0.0
  3
block 5
  1

  0
SPLINE
  5
8B
330
87
100
AcDbEntity
  8
_U+30EC_U+30A4_U+30E4_U+30FC 1
370
     0
100
AcDbSpline
210
0.0
220
0.0
230
1.0
 70
    11
 71
     3
 72
    44
 73
    40
 74
     0
 42
0.0000000001
 43
0.0000000001
 12
1.0
 22
0.0
 32
0.0
 13
1.0
 23
0.0
 33
0.0
 40
0.0
 40
0.0
 40
0.0
 40
0.0
 40
1.0
 40
1.0
 40
1.0
 40
2.0
 40
2.0
 40
2.0
 40
3.0
 40
3.0
 40
3.0
 40
4.0
 40
4.0
 40
4.0
 40
5.0
 40
5.0
 40
5.0
 40
6.0
 40
6.0
 40
6.0
 40
7.0
 40
7.0
 40
7.0
 40
8.0
 40
8.0
 40
8.0
 40
9.0
 40
9.0
 40
9.0
 40
10.0
 40
10.0
 40
10.0
 40
11.0
 40
11.0
 40
11.0
 40
12.0
 40
12.0
 40
12.0
 40
13.0
 40
13.0
 40
13.0
 40
13.0
 10
61.35594480887977
 20
-132.0215711475502
 30
0.0
 10
61.51476371074978
 20
-132.239301182218
 30
0.0
 10
61.58883326368266
 20
-132.3323187603197
 30
0.0
 10
61.73249374541757
 20
-132.3812391162103
 30
0.0
 10
61.73249374541757
 20
-132.3812391162103
 30
0.0
 10
61.73249374541757
 20
-131.6026475365438
 30
0.0
 10
61.73249374541757
 20
-131.6026475365438
 30
0.0
 10
61.73249374541757
 20
-131.6026475365438
 30
0.0
 10
61.93782143633847
 20
-131.6026475365438
 30
0.0
 10
61.93782143633847
 20
-131.6026475365438
 30
0.0
 10
61.93782143633847
 20
-131.6026475365438
 30
0.0
 10
61.93782143633847
 20
-132.6306640293423
 30
0.0
 10
61.93782143633847
 20
-132.6306640293423
 30
0.0
 10
61.58022052496953
 20
-132.598969150878
 30
0.0
 10
61.50201685745436
 20
-132.5335123366583
 30
0.0
 10
61.20367158843172
 20
-132.1483506614074
 30
0.0
 10
61.00488957893281
 20
-131.8920355573048
 30
0.0
 10
60.93702119787338
 20
-131.826578743085
 30
0.0
 10
60.79956188801192
 20
-131.826578743085
 30
0.0
 10
60.68105060331932
 20
-131.826578743085
 30
0.0
 10
60.55013697487983
 20
-131.8989257482753
 30
0.0
 10
60.55013697487983
 20
-132.0952961909345
 30
0.0
 10
60.55013697487983
 20
-132.3557454096194
 30
0.0
 10
60.78061386284304
 20
-132.364013638784
 30
0.0
 10
60.89705809024449
 20
-132.3681477533663
 30
0.0
 10
60.89705809024449
 20
-132.3681477533663
 30
0.0
 10
60.89705809024449
 20
-132.5927679790046
 30
0.0
 10
60.89705809024449
 20
-132.5927679790046
 30
0.0
 10
60.76993406683877
 20
-132.583810730743
 30
0.0
 10
60.65796846356815
 20
-132.5734754442872
 30
0.0
 10
60.53945717887556
 20
-132.4928602099324
 30
0.0
 10
60.37857121971439
 20
-132.3833061735014
 30
0.0
 10
60.34480928395894
 20
-132.1965819982009
 30
0.0
 10
60.34480928395894
 20
-132.0808267898965
 30
0.0
 10
60.34480928395894
 20
-131.8031520937853
 30
0.0
 10
60.52877738287128
 20
-131.5957573455733
 30
0.0
 10
60.80162894530307
 20
-131.5957573455733
 30
0.0
 10
61.03038328552365
 20
-131.5957573455733
 30
0.0
 10
61.12960203549886
 20
-131.7122015729747
 30
0.0
 10
61.35594480887977
 20
-132.0215711475502
 30
0.0
  0
HATCH
  5
8C
330
87
100
AcDbEntity
  8
_U+30EC_U+30A4_U+30E4_U+30FC 1
 62
   179
420
  2234388
100
AcDbHatch
 10
0.0
 20
0.0
 30
0.0
210
0.0
220
0.0
230
1.0
  2
SOLID
 70
     1
 71
     0
 91
        1
 92
        1
 93
        1
 72
     4
 94
        3
 73
     0
 74
     1
 95
       44
 96
       40
 40
0.0
 40
0.0
 40
0.0
 40
0.0
 40
1.0
 40
1.0
 40
1.0
 40
2.0
 40
2.0
 40
2.0
 40
3.0
 40
3.0
 40
3.0
 40
4.0
 40
4.0
 40
4.0
 40
5.0
 40
5.0
 40
5.0
 40
6.0
 40
6.0
 40
6.0
 40
7.0
 40
7.0
 40
7.0
 40
8.0
 40
8.0
 40
8.0
 40
9.0
 40
9.0
 40
9.0
 40
10.0
 40
10.0
 40
10.0
 40
11.0
 40
11.0
 40
11.0
 40
12.0
 40
12.0
 40
12.0
 40
13.0
 40
13.0
 40
13.0
 40
13.0
 10
61.35594480887977
 20
-132.0215711475502
 10
61.51476371074978
 20
-132.239301182218
 10
61.58883326368266
 20
-132.3323187603197
 10
61.73249374541757
 20
-132.3812391162103
 10
61.73249374541757
 20
-132.3812391162103
 10
61.73249374541757
 20
-131.6026475365438
 10
61.73249374541757
 20
-131.6026475365438
 10
61.73249374541757
 20
-131.6026475365438
 10
61.93782143633847
 20
-131.6026475365438
 10
61.93782143633847
 20
-131.6026475365438
 10
61.93782143633847
 20
-131.6026475365438
 10
61.93782143633847
 20
-132.6306640293423
 10
61.93782143633847
 20
-132.6306640293423
 10
61.58022052496953
 20
-132.598969150878
 10
61.50201685745436
 20
-132.5335123366583
 10
61.20367158843172
 20
-132.1483506614074
 10
61.00488957893281
 20
-131.8920355573048
 10
60.93702119787338
 20
-131.826578743085
 10
60.79956188801192
 20
-131.826578743085
 10
60.68105060331932
 20
-131.826578743085
 10
60.55013697487983
 20
-131.8989257482753
 10
60.55013697487983
 20
-132.0952961909345
 10
60.55013697487983
 20
-132.3557454096194
 10
60.78061386284304
 20
-132.364013638784
 10
60.89705809024449
 20
-132.3681477533663
 10
60.89705809024449
 20
-132.3681477533663
 10
60.89705809024449
 20
-132.5927679790046
 10
60.89705809024449
 20
-132.5927679790046
 10
60.76993406683877
 20
-132.583810730743
 10
60.65796846356815
 20
-132.5734754442872
 10
60.53945717887556
 20
-132.4928602099324
 10
60.37857121971439
 20
-132.3833061735014
 10
60.34480928395894
 20
-132.1965819982009
 10
60.34480928395894
 20
-132.0808267898965
 10
60.34480928395894
 20
-131.8031520937853
 10
60.52877738287128
 20
-131.5957573455733
 10
60.80162894530307
 20
-131.5957573455733
 10
61.03038328552365
 20
-131.5957573455733
 10
61.12960203549886
 20
-131.7122015729747
 10
61.35594480887977
 20
-132.0215711475502
 97
        0
 97
        0
 75
     2
 76
     1
 98
        0
  0
SPLINE
  5
8D
330
87
100
AcDbEntity
  8
_U+30EC_U+30A4_U+30E4_U+30FC 1
370
     0
100
AcDbSpline
210
0.0
220
0.0
230
1.0
 70
    11
 71
     3
 72
    29
 73
    25
 74
     0
 42
0.0000000001
 43
0.0000000001
 12
1.0
 22
0.0
 32
0.0
 13
1.0
 23
0.0
 33
0.0
 40
0.0
 40
0.0
 40
0.0
 40
0.0
 40
1.0
 40
1.0
 40
1.0
 40
2.0
 40
2.0
 40
2.0
 40
3.0
 40
3.0
 40
3.0
 40
4.0
 40
4.0
 40
4.0
 40
5.0
 40
5.0
 40
5.0
 40
6.0
 40
6.0
 40
6.0
 40
7.0
 40
7.0
 40
7.0
 40
8.0
 40
8.0
 40
8.0
 40
8.0
 10
61.76005450929957
 20
-130.5394910697957
 30
0.0
 10
61.96951631480276
 20
-130.6476670680325
 30
0.0
 10
61.98846433997164
 20
-130.8212998804891
 30
0.0
 10
61.98846433997164
 20
-130.9377441078906
 30
0.0
 10
61.98846433997164
 20
-131.0982855575032
 30
0.0
 10
61.94195555092077
 20
-131.2402234914955
 30
0.0
 10
61.76005450929957
 20
-131.3353081268884
 30
0.0
 10
61.56540661438296
 20
-131.4386609914459
 30
0.0
 10
61.32838404499777
 20
-131.4579535261633
 30
0.0
 10
61.16577553809397
 20
-131.4579535261633
 30
0.0
 10
61.02177054681053
 20
-131.4579535261633
 30
0.0
 10
60.76993406683877
 20
-131.440728048737
 30
0.0
 10
60.57115205733985
 20
-131.3353081268884
 30
0.0
 10
60.36823593325864
 20
-131.2271321286516
 30
0.0
 10
60.34480928395894
 20
-131.0665906790389
 30
0.0
 10
60.34480928395894
 20
-130.9377441078906
 30
0.0
 10
60.34480928395894
 20
-130.778580696472
 30
0.0
 10
60.38925101571866
 20
-130.6352647242856
 30
0.0
 10
60.57115205733985
 20
-130.5394910697957
 30
0.0
 10
60.76373289496532
 20
-130.4402723198205
 30
0.0
 10
60.99214272563739
 20
-130.4168456705208
 30
0.0
 10
61.16577553809397
 20
-130.4168456705208
 30
0.0
 10
61.33699678371089
 20
-130.4168456705208
 30
0.0
 10
61.56747367167411
 20
-130.4382052625294
 30
0.0
 10
61.76005450929957
 20
-130.5394910697957
 30
0.0
  0
SPLINE
  5
8E
330
87
100
AcDbEntity
  8
_U+30EC_U+30A4_U+30E4_U+30FC 1
370
     0
100
AcDbSpline
210
0.0
220
0.0
230
1.0
 70
    11
 71
     3
 72
    17
 73
    13
 74
     0
 42
0.0000000001
 43
0.0000000001
 12
1.0
 22
0.0
 32
0.0
 13
1.0
 23
0.0
 33
0.0
 40
0.0
 40
0.0
 40
0.0
 40
0.0
 40
1.0
 40
1.0
 40
1.0
 40
2.0
 40
2.0
 40
2.0
 40
3.0
 40
3.0
 40
3.0
 40
4.0
 40
4.0
 40
4.0
 40
4.0
 10
60.53739012158441
 20
-130.9377441078906
 30
0.0
 10
60.53739012158441
 20
-131.1871690210227
 30
0.0
 10
60.82092148002047
 20
-131.2340223196221
 30
0.0
 10
61.16577553809397
 20
-131.2340223196221
 30
0.0
 10
61.48513588957663
 20
-131.2340223196221
 30
0.0
 10
61.79381644505502
 20
-131.1975043074784
 30
0.0
 10
61.79381644505502
 20
-130.9377441078906
 30
0.0
 10
61.79381644505502
 20
-130.6896972329526
 30
0.0
 10
61.51269665345863
 20
-130.6414658961591
 30
0.0
 10
61.16577553809397
 20
-130.6414658961591
 30
0.0
 10
60.84607067706279
 20
-130.6414658961591
 30
0.0
 10
60.53739012158441
 20
-130.6793619464968
 30
0.0
 10
60.53739012158441
 20
-130.9377441078906
 30
0.0
  0
HATCH
  5
8F
330
87
100
AcDbEntity
  8
_U+30EC_U+30A4_U+30E4_U+30FC 1
 62
   179
420
  2234388
100
AcDbHatch
 10
0.0
 20
0.0
 30
0.0
210
0.0
220
0.0
230
1.0
  2
SOLID
 70
     1
 71
     0
 91
        2
 92
        1
 93
        1
 72
     4
 94
        3
 73
     0
 74
     1
 95
       29
 96
       25
 40
0.0
 40
0.0
 40
0.0
 40
0.0
 40
1.0
 40
1.0
 40
1.0
 40
2.0
 40
2.0
 40
2.0
 40
3.0
 40
3.0
 40
3.0
 40
4.0
 40
4.0
 40
4.0
 40
5.0
 40
5.0
 40
5.0
 40
6.0
 40
6.0
 40
6.0
 40
7.0
 40
7.0
 40
7.0
 40
8.0
 40
8.0
 40
8.0
 40
8.0
 10
61.76005450929957
 20
-130.5394910697957
 10
61.96951631480276
 20
-130.6476670680325
 10
61.98846433997164
 20
-130.8212998804891
 10
61.98846433997164
 20
-130.9377441078906
 10
61.98846433997164
 20
-131.0982855575032
 10
61.94195555092077
 20
-131.2402234914955
 10
61.76005450929957
 20
-131.3353081268884
 10
61.56540661438296
 20
-131.4386609914459
 10
61.32838404499777
 20
-131.4579535261633
 10
61.16577553809397
 20
-131.4579535261633
 10
61.02177054681053
 20
-131.4579535261633
 10
60.76993406683877
 20
-131.440728048737
 10
60.57115205733985
 20
-131.3353081268884
 10
60.36823593325864
 20
-131.2271321286516
 10
60.34480928395894
 20
-131.0665906790389
 10
60.34480928395894
 20
-130.9377441078906
 10
60.34480928395894
 20
-130.778580696472
 10
60.38925101571866
 20
-130.6352647242856
 10
60.57115205733985
 20
-130.5394910697957
 10
60.76373289496532
 20
-130.4402723198205
 10
60.99214272563739
 20
-130.4168456705208
 10
61.16577553809397
 20
-130.4168456705208
 10
61.33699678371089
 20
-130.4168456705208
 10
61.56747367167411
 20
-130.4382052625294
 10
61.76005450929957
 20
-130.5394910697957
 97
        0
 97
        0
 92
        1
 93
        1
 72
     4
 94
        3
 73
     0
 74
     1
 95
       17
 96
       13
 40
0.0
 40
0.0
 40
0.0
 40
0.0
 40
1.0
 40
1.0
 40
1.0
 40
2.0
 40
2.0
 40
2.0
 40
3.0
 40
3.0
 40
3.0
 40
4.0
 40
4.0
 40
4.0
 40
4.0
 10
60.53739012158441
 20
-130.9377441078906
 10
60.53739012158441
 20
-131.1871690210227
 10
60.82092148002047
 20
-131.2340223196221
 10
61.16577553809397
 20
-131.2340223196221
 10
61.48513588957663
 20
-131.2340223196221
 10
61.79381644505502
 20
-131.1975043074784
 10
61.79381644505502
 20
-130.9377441078906
 10
61.79381644505502
 20
-130.6896972329526
 10
61.51269665345863
 20
-130.6414658961591
 10
61.16577553809397
 20
-130.6414658961591
 10
60.84607067706279
 20
-130.6414658961591
 10
60.53739012158441
 20
-130.6793619464968
 10
60.53739012158441
 20
-130.9377441078906
 97
        0
 97
        0
 75
     2
 76
     1
 98
        0
  0
POLYLINE
  5
90
330
87
100
AcDbEntity
  8
_U+30EC_U+30A4_U+30E4_U+30FC 1
370
     0
100
AcDb2dPolyline
 66
     1
 10
0.0
 20
0.0
 30
0.0
  0
VERTEX
  5
91
330
90
100
AcDbEntity
  8
_U+30EC_U+30A4_U+30E4_U+30FC 1
370
     0
100
AcDbVertex
100
AcDb2dVertex
 10
61.93782143633847
 20
-130.2004936740471
 30
0.0
  0
VERTEX
  5
92
330
90
100
AcDbEntity
  8
_U+30EC_U+30A4_U+30E4_U+30FC 1
370
     0
100
AcDbVertex
100
AcDb2dVertex
 10
61.6859849563667
 20
-130.2004936740471
 30
0.0
  0
VERTEX
  5
93
330
90
100
AcDbEntity
  8
_U+30EC_U+30A4_U+30E4_U+30FC 1
370
     0
100
AcDbVertex
100
AcDb2dVertex
 10
61.6859849563667
 20
-129.9490017036239
 30
0.0
  0
VERTEX
  5
94
330
90
100
AcDbEntity
  8
_U+30EC_U+30A4_U+30E4_U+30FC 1
370
     0
100
AcDbVertex
100
AcDb2dVertex
 10
61.93782143633847
 20
-129.9490017036239
 30
0.0
  0
VERTEX
  5
95
330
90
100
AcDbEntity
  8
_U+30EC_U+30A4_U+30E4_U+30FC 1
370
     0
100
AcDbVertex
100
AcDb2dVertex
 10
61.93782143633847
 20
-130.2004936740471
 30
0.0
  0
SEQEND
  5
96
330
90
100
AcDbEntity
  8
_U+30EC_U+30A4_U+30E4_U+30FC 1
370
     0
  0
HATCH
  5
97
330
87
100
AcDbEntity
  8
_U+30EC_U+30A4_U+30E4_U+30FC 1
 62
   179
420
  2234388
100
AcDbHatch
 10
0.0
 20
0.0
 30
0.0
210
0.0
220
0.0
230
1.0
  2
SOLID
 70
     1
 71
     0
 91
        1
 92
        1
 93
        4
 72
     1
 10
61.93782143633847
 20
-130.2004936740471
 11
61.6859849563667
 21
-130.2004936740471
 72
     1
 10
61.6859849563667
 20
-130.2004936740471
 11
61.6859849563667
 21
-129.9490017036239
 72
     1
 10
61.6859849563667
 20
-129.9490017036239
 11
61.93782143633847
 21
-129.9490017036239
 72
     1
 10
61.93782143633847
 20
-129.9490017036239
 11
61.93782143633847
 21
-130.2004936740471
 97
        0
 75
     2
 76
     1
 98
        0
  0
SPLINE
  5
98
330
87
100
AcDbEntity
  8
_U+30EC_U+30A4_U+30E4_U+30FC 1
370
     0
100
AcDbSpline
210
0.0
220
0.0
230
1.0
 70
    11
 71
     3
 72
    29
 73
    25
 74
     0
 42
0.0000000001
 43
0.0000000001
 12
1.0
 22
0.0
 32
0.0
 13
1.0
 23
0.0
 33
0.0
 40
0.0
 40
0.0
 40
0.0
 40
0.0
 40
1.0
 40
1.0
 40
1.0
 40
2.0
 40
2.0
 40
2.0
 40
3.0
 40
3.0
 40
3.0
 40
4.0
 40
4.0
 40
4.0
 40
5.0
 40
5.0
 40
5.0
 40
6.0
 40
6.0
 40
6.0
 40
7.0
 40
7.0
 40
7.0
 40
8.0
 40
8.0
 40
8.0
 40
8.0
 10
61.98846433997164
 20
-129.2124402888774
 30
0.0
 10
61.98846433997164
 20
-129.4790906794358
 30
0.0
 10
61.85100503011017
 20
-129.7326497071502
 30
0.0
 10
61.50201685745436
 20
-129.7326497071502
 30
0.0
 10
61.24604626290029
 20
-129.7326497071502
 30
0.0
 10
61.1509616275074
 20
-129.5914007922549
 30
0.0
 10
61.08963892786996
 20
-129.4852918513092
 30
0.0
 10
61.03038328552365
 20
-129.6100043078753
 30
0.0
 10
60.91600611541336
 20
-129.6864854276478
 30
0.0
 10
60.7551201562522
 20
-129.6864854276478
 30
0.0
 10
60.48020153652926
 20
-129.6864854276478
 30
0.0
 10
60.34480928395894
 20
-129.4873589086004
 30
0.0
 10
60.34480928395894
 20
-129.2124402888774
 30
0.0
 10
60.34480928395894
 20
-128.9292534399899
 30
0.0
 10
60.48881427524238
 20
-128.7385674048813
 30
0.0
 10
60.7551201562522
 20
-128.7385674048813
 30
0.0
 10
60.91600611541336
 20
-128.7385674048813
 30
0.0
 10
61.03038328552365
 20
-128.8169433271708
 30
0.0
 10
61.08963892786996
 20
-128.9416557837368
 30
0.0
 10
61.14028183150312
 20
-128.8527723202174
 30
0.0
 10
61.23536646689602
 20
-128.6941256731216
 30
0.0
 10
61.49788274287206
 20
-128.6941256731216
 30
0.0
 10
61.87236462211872
 20
-128.6941256731216
 30
0.0
 10
61.98846433997164
 20
-128.9733506622011
 30
0.0
 10
61.98846433997164
 20
-129.2124402888774
 30
0.0
  0
SPLINE
  5
99
330
87
100
AcDbEntity
  8
_U+30EC_U+30A4_U+30E4_U+30FC 1
370
     0
100
AcDbSpline
210
0.0
220
0.0
230
1.0
 70
    11
 71
     3
 72
    17
 73
    13
 74
     0
 42
0.0000000001
 43
0.0000000001
 12
1.0
 22
0.0
 32
0.0
 13
1.0
 23
0.0
 33
0.0
 40
0.0
 40
0.0
 40
0.0
 40
0.0
 40
1.0
 40
1.0
 40
1.0
 40
2.0
 40
2.0
 40
2.0
 40
3.0
 40
3.0
 40
3.0
 40
4.0
 40
4.0
 40
4.0
 40
4.0
 10
60.53739012158441
 20
-129.2124402888774
 30
0.0
 10
60.53739012158441
 20
-129.3778048721694
 30
0.0
 10
60.6324747569773
 20
-129.4618652020095
 30
0.0
 10
60.76786700954762
 20
-129.4618652020095
 30
0.0
 10
60.89051240882252
 20
-129.4618652020095
 30
0.0
 10
61.00902369351511
 20
-129.3902072159163
 30
0.0
 10
61.00902369351511
 20
-129.2124402888774
 30
0.0
 10
61.00902369351511
 20
-129.0346733618386
 30
0.0
 10
60.89051240882252
 20
-128.9630153757454
 30
0.0
 10
60.76786700954762
 20
-128.9630153757454
 30
0.0
 10
60.6324747569773
 20
-128.9630153757454
 30
0.0
 10
60.53739012158441
 20
-129.0498317819737
 30
0.0
 10
60.53739012158441
 20
-129.2124402888774
 30
0.0
  0
SPLINE
  5
9A
330
87
100
AcDbEntity
  8
_U+30EC_U+30A4_U+30E4_U+30FC 1
370
     0
100
AcDbSpline
210
0.0
220
0.0
230
1.0
 70
    11
 71
     3
 72
    17
 73
    13
 74
     0
 42
0.0000000001
 43
0.0000000001
 12
1.0
 22
0.0
 32
0.0
 13
1.0
 23
0.0
 33
0.0
 40
0.0
 40
0.0
 40
0.0
 40
0.0
 40
1.0
 40
1.0
 40
1.0
 40
2.0
 40
2.0
 40
2.0
 40
3.0
 40
3.0
 40
3.0
 40
4.0
 40
4.0
 40
4.0
 40
4.0
 10
61.19747041655828
 20
-129.2124402888774
 30
0.0
 10
61.19747041655828
 20
-129.3564452801609
 30
0.0
 10
61.28428682278657
 20
-129.5087185006089
 30
0.0
 10
61.48720294686778
 20
-129.5087185006089
 30
0.0
 10
61.69253063778868
 20
-129.5087185006089
 30
0.0
 10
61.79381644505502
 20
-129.3819389867517
 30
0.0
 10
61.79381644505502
 20
-129.2124402888774
 30
0.0
 10
61.79381644505502
 20
-129.026405132674
 30
0.0
 10
61.67117104578013
 20
-128.916162077146
 30
0.0
 10
61.49340411874123
 20
-128.916162077146
 30
0.0
 10
61.27153996949114
 20
-128.916162077146
 30
0.0
 10
61.19747041655828
 20
-129.0794596031468
 30
0.0
 10
61.19747041655828
 20
-129.2124402888774
 30
0.0
  0
HATCH
  5
9B
330
87
100
AcDbEntity
  8
_U+30EC_U+30A4_U+30E4_U+30FC 1
 62
   179
420
  2234388
100
AcDbHatch
 10
0.0
 20
0.0
 30
0.0
210
0.0
220
0.0
230
1.0
  2
SOLID
 70
     1
 71
     0
 91
        3
 92
        1
 93
        1
 72
     4
 94
        3
 73
     0
 74
     1
 95
       29
 96
       25
 40
0.0
 40
0.0
 40
0.0
 40
0.0
 40
1.0
 40
1.0
 40
1.0
 40
2.0
 40
2.0
 40
2.0
 40
3.0
 40
3.0
 40
3.0
 40
4.0
 40
4.0
 40
4.0
 40
5.0
 40
5.0
 40
5.0
 40
6.0
 40
6.0
 40
6.0
 40
7.0
 40
7.0
 40
7.0
 40
8.0
 40
8.0
 40
8.0
 40
8.0
 10
61.98846433997164
 20
-129.2124402888774
 10
61.98846433997164
 20
-129.4790906794358
 10
61.85100503011017
 20
-129.7326497071502
 10
61.50201685745436
 20
-129.7326497071502
 10
61.24604626290029
 20
-129.7326497071502
 10
61.1509616275074
 20
-129.5914007922549
 10
61.08963892786996
 20
-129.4852918513092
 10
61.03038328552365
 20
-129.6100043078753
 10
60.91600611541336
 20
-129.6864854276478
 10
60.7551201562522
 20
-129.6864854276478
 10
60.48020153652926
 20
-129.6864854276478
 10
60.34480928395894
 20
-129.4873589086004
 10
60.34480928395894
 20
-129.2124402888774
 10
60.34480928395894
 20
-128.9292534399899
 10
60.48881427524238
 20
-128.7385674048813
 10
60.7551201562522
 20
-128.7385674048813
 10
60.91600611541336
 20
-128.7385674048813
 10
61.03038328552365
 20
-128.8169433271708
 10
61.08963892786996
 20
-128.9416557837368
 10
61.14028183150312
 20
-128.8527723202174
 10
61.23536646689602
 20
-128.6941256731216
 10
61.49788274287206
 20
-128.6941256731216
 10
61.87236462211872
 20
-128.6941256731216
 10
61.98846433997164
 20
-128.9733506622011
 10
61.98846433997164
 20
-129.2124402888774
 97
        0
 97
        0
 92
        1
 93
        1
 72
     4
 94
        3
 73
     0
 74
     1
 95
       17
 96
       13
 40
0.0
 40
0.0
 40
0.0
 40
0.0
 40
1.0
 40
1.0
 40
1.0
 40
2.0
 40
2.0
 40
2.0
 40
3.0
 40
3.0
 40
3.0
 40
4.0
 40
4.0
 40
4.0
 40
4.0
 10
60.53739012158441
 20
-129.2124402888774
 10
60.53739012158441
 20
-129.3778048721694
 10
60.6324747569773
 20
-129.4618652020095
 10
60.76786700954762
 20
-129.4618652020095
 10
60.89051240882252
 20
-129.4618652020095
 10
61.00902369351511
 20
-129.3902072159163
 10
61.00902369351511
 20
-129.2124402888774
 10
61.00902369351511
 20
-129.0346733618386
 10
60.89051240882252
 20
-128.9630153757454
 10
60.76786700954762
 20
-128.9630153757454
 10
60.6324747569773
 20
-128.9630153757454
 10
60.53739012158441
 20
-129.0498317819737
 10
60.53739012158441
 20
-129.2124402888774
 97
        0
 97
        0
 92
        1
 93
        1
 72
     4
 94
        3
 73
     0
 74
     1
 95
       17
 96
       13
 40
0.0
 40
0.0
 40
0.0
 40
0.0
 40
1.0
 40
1.0
 40
1.0
 40
2.0
 40
2.0
 40
2.0
 40
3.0
 40
3.0
 40
3.0
 40
4.0
 40
4.0
 40
4.0
 40
4.0
 10
61.19747041655828
 20
-129.2124402888774
 10
61.19747041655828
 20
-129.3564452801609
 10
61.28428682278657
 20
-129.5087185006089
 10
61.48720294686778
 20
-129.5087185006089
 10
61.69253063778868
 20
-129.5087185006089
 10
61.79381644505502
 20
-129.3819389867517
 10
61.79381644505502
 20
-129.2124402888774
 10
61.79381644505502
 20
-129.026405132674
 10
61.67117104578013
 20
-128.916162077146
 10
61.49340411874123
 20
-128.916162077146
 10
61.27153996949114
 20
-128.916162077146
 10
61.19747041655828
 20
-129.0794596031468
 10
61.19747041655828
 20
-129.2124402888774
 97
        0
 97
        0
 75
     2
 76
     1
 98
        0
  0
ENDBLK
  5
8A
330
87
100
AcDbEntity
  8
0
100
AcDbBlockEnd
  0
BLOCK
  5
AE
330
AC
100
AcDbEntity
  8
0
100
AcDbBlockBegin
  2
block 6
 70
     0
 10
0.0
 20
0.0
 30
0.0
  3
block 6
  1

  0
SPLINE
  5
B0
330
AC
100
AcDbEntity
  8
_U+30EC_U+30A4_U+30E4_U+30FC 1
370
     0
100
AcDbSpline
210
0.0
220
0.0
230
1.0
 70
    11
 71
     3
 72
    53
 73
    49
 74
     0
 42
0.0000000001
 43
0.0000000001
 12
1.0
 22
0.0
 32
0.0
 13
1.0
 23
0.0
 33
0.0
 40
0.0
 40
0.0
 40
0.0
 40
0.0
 40
1.0
 40
1.0
 40
1.0
 40
2.0
 40
2.0
 40
2.0
 40
3.0
 40
3.0
 40
3.0
 40
4.0
 40
4.0
 40
4.0
 40
5.0
 40
5.0
 40
5.0
 40
6.0
 40
6.0
 40
6.0
 40
7.0
 40
7.0
 40
7.0
 40
8.0
 40
8.0
 40
8.0
 40
9.0
 40
9.0
 40
9.0
 40
10.0
 40
10.0
 40
10.0
 40
11.0
 40
11.0
 40
11.0
 40
12.0
 40
12.0
 40
12.0
 40
13.0
 40
13.0
 40
13.0
 40
14.0
 40
14.0
 40
14.0
 40
15.0
 40
15.0
 40
15.0
 40
16.0
 40
16.0
 40
16.0
 40
16.0
 10
90.12697073484674
 20
-112.9066311024157
 30
0.0
 10
90.0485948125573
 20
-112.9066311024157
 30
0.0
 10
89.94713675051669
 20
-112.889750134538
 30
0.0
 10
89.84550643370183
 20
-112.8263603776094
 30
0.0
 10
89.6720458760195
 20
-112.7164618316299
 30
0.0
 10
89.6508585387852
 20
-112.5852036936419
 30
0.0
 10
89.63191051361633
 20
-112.4773722049536
 30
0.0
 10
89.63191051361633
 20
-112.4773722049536
 30
0.0
 10
89.85394691764068
 20
-112.4773722049536
 30
0.0
 10
89.85394691764068
 20
-112.4773722049536
 30
0.0
 10
89.90906844540469
 20
-112.6761542144525
 30
0.0
 10
90.03602021403614
 20
-112.7057820356256
 30
0.0
 10
90.12903779213788
 20
-112.7057820356256
 30
0.0
 10
90.2685641592905
 20
-112.7057820356256
 30
0.0
 10
90.42100963451281
 20
-112.6062187761019
 30
0.0
 10
90.42100963451281
 20
-112.3736748308476
 30
0.0
 10
90.42100963451281
 20
-112.1177042362935
 30
0.0
 10
90.24117565018277
 20
-112.0477687979429
 30
0.0
 10
90.12059730819902
 20
-112.0477687979429
 30
0.0
 10
90.08890242973472
 20
-112.0477687979429
 30
0.0
 10
89.94713675051669
 20
-112.0477687979429
 30
0.0
 10
89.85825328699724
 20
-112.1769598786398
 30
0.0
 10
89.85825328699724
 20
-112.1769598786398
 30
0.0
 10
89.68272567202376
 20
-112.1580118534709
 30
0.0
 10
89.68272567202376
 20
-112.1580118534709
 30
0.0
 10
89.68272567202376
 20
-112.1580118534709
 30
0.0
 10
89.80330401400751
 20
-111.311551892745
 30
0.0
 10
89.80330401400751
 20
-111.311551892745
 30
0.0
 10
89.80330401400751
 20
-111.311551892745
 30
0.0
 10
90.5817233388997
 20
-111.311551892745
 30
0.0
 10
90.5817233388997
 20
-111.311551892745
 30
0.0
 10
90.5817233388997
 20
-111.311551892745
 30
0.0
 10
90.5817233388997
 20
-111.5061997876616
 30
0.0
 10
90.5817233388997
 20
-111.5061997876616
 30
0.0
 10
90.5817233388997
 20
-111.5061997876616
 30
0.0
 10
89.96608477568557
 20
-111.5061997876616
 30
0.0
 10
89.96608477568557
 20
-111.5061997876616
 30
0.0
 10
89.96608477568557
 20
-111.5061997876616
 30
0.0
 10
89.90062796146582
 20
-111.9292575132503
 30
0.0
 10
89.90062796146582
 20
-111.9292575132503
 30
0.0
 10
89.96195066110327
 20
-111.8954955774949
 30
0.0
 10
90.044460697975
 20
-111.8551879603175
 30
0.0
 10
90.16279972789333
 20
-111.8551879603175
 30
0.0
 10
90.41670326515624
 20
-111.8551879603175
 30
0.0
 10
90.65372583454143
 20
-112.0415676260695
 30
0.0
 10
90.65372583454143
 20
-112.3547268056787
 30
0.0
 10
90.65372583454143
 20
-112.6720200998702
 30
0.0
 10
90.42945011845167
 20
-112.9066311024157
 30
0.0
 10
90.12697073484674
 20
-112.9066311024157
 30
0.0
  0
HATCH
  5
B1
330
AC
100
AcDbEntity
  8
_U+30EC_U+30A4_U+30E4_U+30FC 1
 62
   179
420
  2234388
100
AcDbHatch
 10
0.0
 20
0.0
 30
0.0
210
0.0
220
0.0
230
1.0
  2
SOLID
 70
     1
 71
     0
 91
        1
 92
        1
 93
        1
 72
     4
 94
        3
 73
     0
 74
     1
 95
       53
 96
       49
 40
0.0
 40
0.0
 40
0.0
 40
0.0
 40
1.0
 40
1.0
 40
1.0
 40
2.0
 40
2.0
 40
2.0
 40
3.0
 40
3.0
 40
3.0
 40
4.0
 40
4.0
 40
4.0
 40
5.0
 40
5.0
 40
5.0
 40
6.0
 40
6.0
 40
6.0
 40
7.0
 40
7.0
 40
7.0
 40
8.0
 40
8.0
 40
8.0
 40
9.0
 40
9.0
 40
9.0
 40
10.0
 40
10.0
 40
10.0
 40
11.0
 40
11.0
 40
11.0
 40
12.0
 40
12.0
 40
12.0
 40
13.0
 40
13.0
 40
13.0
 40
14.0
 40
14.0
 40
14.0
 40
15.0
 40
15.0
 40
15.0
 40
16.0
 40
16.0
 40
16.0
 40
16.0
 10
90.12697073484674
 20
-112.9066311024157
 10
90.0485948125573
 20
-112.9066311024157
 10
89.94713675051669
 20
-112.889750134538
 10
89.84550643370183
 20
-112.8263603776094
 10
89.6720458760195
 20
-112.7164618316299
 10
89.6508585387852
 20
-112.5852036936419
 10
89.63191051361633
 20
-112.4773722049536
 10
89.63191051361633
 20
-112.4773722049536
 10
89.85394691764068
 20
-112.4773722049536
 10
89.85394691764068
 20
-112.4773722049536
 10
89.90906844540469
 20
-112.6761542144525
 10
90.03602021403614
 20
-112.7057820356256
 10
90.12903779213788
 20
-112.7057820356256
 10
90.2685641592905
 20
-112.7057820356256
 10
90.42100963451281
 20
-112.6062187761019
 10
90.42100963451281
 20
-112.3736748308476
 10
90.42100963451281
 20
-112.1177042362935
 10
90.24117565018277
 20
-112.0477687979429
 10
90.12059730819902
 20
-112.0477687979429
 10
90.08890242973472
 20
-112.0477687979429
 10
89.94713675051669
 20
-112.0477687979429
 10
89.85825328699724
 20
-112.1769598786398
 10
89.85825328699724
 20
-112.1769598786398
 10
89.68272567202376
 20
-112.1580118534709
 10
89.68272567202376
 20
-112.1580118534709
 10
89.68272567202376
 20
-112.1580118534709
 10
89.80330401400751
 20
-111.311551892745
 10
89.80330401400751
 20
-111.311551892745
 10
89.80330401400751
 20
-111.311551892745
 10
90.5817233388997
 20
-111.311551892745
 10
90.5817233388997
 20
-111.311551892745
 10
90.5817233388997
 20
-111.311551892745
 10
90.5817233388997
 20
-111.5061997876616
 10
90.5817233388997
 20
-111.5061997876616
 10
90.5817233388997
 20
-111.5061997876616
 10
89.96608477568557
 20
-111.5061997876616
 10
89.96608477568557
 20
-111.5061997876616
 10
89.96608477568557
 20
-111.5061997876616
 10
89.90062796146582
 20
-111.9292575132503
 10
89.90062796146582
 20
-111.9292575132503
 10
89.96195066110327
 20
-111.8954955774949
 10
90.044460697975
 20
-111.8551879603175
 10
90.16279972789333
 20
-111.8551879603175
 10
90.41670326515624
 20
-111.8551879603175
 10
90.65372583454143
 20
-112.0415676260695
 10
90.65372583454143
 20
-112.3547268056787
 10
90.65372583454143
 20
-112.6720200998702
 10
90.42945011845167
 20
-112.9066311024157
 10
90.12697073484674
 20
-112.9066311024157
 97
        0
 97
        0
 75
     2
 76
     1
 98
        0
  0
SPLINE
  5
B2
330
AC
100
AcDbEntity
  8
_U+30EC_U+30A4_U+30E4_U+30FC 1
370
     0
100
AcDbSpline
210
0.0
220
0.0
230
1.0
 70
    11
 71
     3
 72
    29
 73
    25
 74
     0
 42
0.0000000001
 43
0.0000000001
 12
1.0
 22
0.0
 32
0.0
 13
1.0
 23
0.0
 33
0.0
 40
0.0
 40
0.0
 40
0.0
 40
0.0
 40
1.0
 40
1.0
 40
1.0
 40
2.0
 40
2.0
 40
2.0
 40
3.0
 40
3.0
 40
3.0
 40
4.0
 40
4.0
 40
4.0
 40
5.0
 40
5.0
 40
5.0
 40
6.0
 40
6.0
 40
6.0
 40
7.0
 40
7.0
 40
7.0
 40
8.0
 40
8.0
 40
8.0
 40
8.0
 10
91.72049965154905
 20
-112.6782212717436
 30
0.0
 10
91.61266816286073
 20
-112.8876830772468
 30
0.0
 10
91.43903535040414
 20
-112.9066311024157
 30
0.0
 10
91.32276337777695
 20
-112.9066311024157
 30
0.0
 10
91.16204967339004
 20
-112.9066311024157
 30
0.0
 10
91.02028399417202
 20
-112.8601223133648
 30
0.0
 10
90.92502710400485
 20
-112.6782212717436
 30
0.0
 10
90.8215019846731
 20
-112.483573376827
 30
0.0
 10
90.80238170472997
 20
-112.2465508074418
 30
0.0
 10
90.80238170472997
 20
-112.083942300538
 30
0.0
 10
90.80238170472997
 20
-111.9399373092546
 30
0.0
 10
90.81926267260769
 20
-111.6881008292828
 30
0.0
 10
90.92502710400485
 20
-111.4893188197839
 30
0.0
 10
91.03303084746744
 20
-111.2864026957027
 30
0.0
 10
91.19374455185435
 20
-111.262976046403
 30
0.0
 10
91.32276337777695
 20
-111.262976046403
 30
0.0
 10
91.4814100248727
 20
-111.262976046403
 30
0.0
 10
91.62507050660763
 20
-111.3074177781627
 30
0.0
 10
91.72049965154905
 20
-111.4893188197839
 30
0.0
 10
91.81971840152424
 20
-111.6818996574094
 30
0.0
 10
91.84314505082394
 20
-111.9103094880815
 30
0.0
 10
91.84314505082394
 20
-112.083942300538
 30
0.0
 10
91.84314505082394
 20
-112.255163546155
 30
0.0
 10
91.82212996836391
 20
-112.4856404341182
 30
0.0
 10
91.72049965154905
 20
-112.6782212717436
 30
0.0
  0
SPLINE
  5
B3
330
AC
100
AcDbEntity
  8
_U+30EC_U+30A4_U+30E4_U+30FC 1
370
     0
100
AcDbSpline
210
0.0
220
0.0
230
1.0
 70
    11
 71
     3
 72
    17
 73
    13
 74
     0
 42
0.0000000001
 43
0.0000000001
 12
1.0
 22
0.0
 32
0.0
 13
1.0
 23
0.0
 33
0.0
 40
0.0
 40
0.0
 40
0.0
 40
0.0
 40
1.0
 40
1.0
 40
1.0
 40
2.0
 40
2.0
 40
2.0
 40
3.0
 40
3.0
 40
3.0
 40
4.0
 40
4.0
 40
4.0
 40
4.0
 10
91.32276337777695
 20
-111.4555568840285
 30
0.0
 10
91.0731662098706
 20
-111.4555568840285
 30
0.0
 10
91.02665742081973
 20
-111.7390882424645
 30
0.0
 10
91.02665742081973
 20
-112.083942300538
 30
0.0
 10
91.02665742081973
 20
-112.4033026520207
 30
0.0
 10
91.0626586686406
 20
-112.7119832074991
 30
0.0
 10
91.32276337777695
 20
-112.7119832074991
 30
0.0
 10
91.57029348839215
 20
-112.7119832074991
 30
0.0
 10
91.61886933473417
 20
-112.4308634159027
 30
0.0
 10
91.61886933473417
 20
-112.083942300538
 30
0.0
 10
91.61886933473417
 20
-111.7642374395069
 30
0.0
 10
91.58062877484791
 20
-111.4555568840285
 30
0.0
 10
91.32276337777695
 20
-111.4555568840285
 30
0.0
  0
HATCH
  5
B4
330
AC
100
AcDbEntity
  8
_U+30EC_U+30A4_U+30E4_U+30FC 1
 62
   179
420
  2234388
100
AcDbHatch
 10
0.0
 20
0.0
 30
0.0
210
0.0
220
0.0
230
1.0
  2
SOLID
 70
     1
 71
     0
 91
        2
 92
        1
 93
        1
 72
     4
 94
        3
 73
     0
 74
     1
 95
       29
 96
       25
 40
0.0
 40
0.0
 40
0.0
 40
0.0
 40
1.0
 40
1.0
 40
1.0
 40
2.0
 40
2.0
 40
2.0
 40
3.0
 40
3.0
 40
3.0
 40
4.0
 40
4.0
 40
4.0
 40
5.0
 40
5.0
 40
5.0
 40
6.0
 40
6.0
 40
6.0
 40
7.0
 40
7.0
 40
7.0
 40
8.0
 40
8.0
 40
8.0
 40
8.0
 10
91.72049965154905
 20
-112.6782212717436
 10
91.61266816286073
 20
-112.8876830772468
 10
91.43903535040414
 20
-112.9066311024157
 10
91.32276337777695
 20
-112.9066311024157
 10
91.16204967339004
 20
-112.9066311024157
 10
91.02028399417202
 20
-112.8601223133648
 10
90.92502710400485
 20
-112.6782212717436
 10
90.8215019846731
 20
-112.483573376827
 10
90.80238170472997
 20
-112.2465508074418
 10
90.80238170472997
 20
-112.083942300538
 10
90.80238170472997
 20
-111.9399373092546
 10
90.81926267260769
 20
-111.6881008292828
 10
90.92502710400485
 20
-111.4893188197839
 10
91.03303084746744
 20
-111.2864026957027
 10
91.19374455185435
 20
-111.262976046403
 10
91.32276337777695
 20
-111.262976046403
 10
91.4814100248727
 20
-111.262976046403
 10
91.62507050660763
 20
-111.3074177781627
 10
91.72049965154905
 20
-111.4893188197839
 10
91.81971840152424
 20
-111.6818996574094
 10
91.84314505082394
 20
-111.9103094880815
 10
91.84314505082394
 20
-112.083942300538
 10
91.84314505082394
 20
-112.255163546155
 10
91.82212996836391
 20
-112.4856404341182
 10
91.72049965154905
 20
-112.6782212717436
 97
        0
 97
        0
 92
        1
 93
        1
 72
     4
 94
        3
 73
     0
 74
     1
 95
       17
 96
       13
 40
0.0
 40
0.0
 40
0.0
 40
0.0
 40
1.0
 40
1.0
 40
1.0
 40
2.0
 40
2.0
 40
2.0
 40
3.0
 40
3.0
 40
3.0
 40
4.0
 40
4.0
 40
4.0
 40
4.0
 10
91.32276337777695
 20
-111.4555568840285
 10
91.0731662098706
 20
-111.4555568840285
 10
91.02665742081973
 20
-111.7390882424645
 10
91.02665742081973
 20
-112.083942300538
 10
91.02665742081973
 20
-112.4033026520207
 10
91.0626586686406
 20
-112.7119832074991
 10
91.32276337777695
 20
-112.7119832074991
 10
91.57029348839215
 20
-112.7119832074991
 10
91.61886933473417
 20
-112.4308634159027
 10
91.61886933473417
 20
-112.083942300538
 10
91.61886933473417
 20
-111.7642374395069
 10
91.58062877484791
 20
-111.4555568840285
 10
91.32276337777695
 20
-111.4555568840285
 97
        0
 97
        0
 75
     2
 76
     1
 98
        0
  0
ENDBLK
  5
AF
330
AC
100
AcDbEntity
  8
0
100
AcDbBlockEnd
  0
BLOCK
  5
B7
330
B5
100
AcDbEntity
  8
0
100
AcDbBlockBegin
  2
block 7
 70
     0
 10
0.0
 20
0.0
 30
0.0
  3
block 7
  1

  0
SPLINE
  5
B9
330
B5
100
AcDbEntity
  8
_U+30EC_U+30A4_U+30E4_U+30FC 1
370
     0
100
AcDbSpline
210
0.0
220
0.0
230
1.0
 70
    11
 71
     3
 72
    26
 73
    22
 74
     0
 42
0.0000000001
 43
0.0000000001
 12
1.0
 22
0.0
 32
0.0
 13
1.0
 23
0.0
 33
0.0
 40
0.0
 40
0.0
 40
0.0
 40
0.0
 40
1.0
 40
1.0
 40
1.0
 40
2.0
 40
2.0
 40
2.0
 40
3.0
 40
3.0
 40
3.0
 40
4.0
 40
4.0
 40
4.0
 40
5.0
 40
5.0
 40
5.0
 40
6.0
 40
6.0
 40
6.0
 40
7.0
 40
7.0
 40
7.0
 40
7.0
 10
110.4428710661393
 20
-117.3725083799451
 30
0.0
 10
110.4428710661393
 20
-117.3725083799451
 30
0.0
 10
110.4428710661393
 20
-116.2683552769225
 30
0.0
 10
110.4428710661393
 20
-116.2683552769225
 30
0.0
 10
110.4428710661393
 20
-116.2683552769225
 30
0.0
 10
110.1128309186523
 20
-116.2683552769225
 30
0.0
 10
110.1128309186523
 20
-116.2683552769225
 30
0.0
 10
110.1128309186523
 20
-116.2683552769225
 30
0.0
 10
110.1128309186523
 20
-116.1202161710568
 30
0.0
 10
110.1128309186523
 20
-116.1202161710568
 30
0.0
 10
110.4449381234304
 20
-116.1054022604702
 30
0.0
 10
110.4914469124813
 20
-115.9424492440179
 30
0.0
 10
110.5210747336545
 20
-115.8280720739076
 30
0.0
 10
110.5210747336545
 20
-115.8280720739076
 30
0.0
 10
110.6671467822291
 20
-115.8280720739076
 30
0.0
 10
110.6671467822291
 20
-115.8280720739076
 30
0.0
 10
110.6671467822291
 20
-115.8280720739076
 30
0.0
 10
110.6671467822291
 20
-117.3725083799451
 30
0.0
 10
110.6671467822291
 20
-117.3725083799451
 30
0.0
 10
110.6671467822291
 20
-117.3725083799451
 30
0.0
 10
110.4428710661393
 20
-117.3725083799451
 30
0.0
 10
110.4428710661393
 20
-117.3725083799451
 30
0.0
  0
HATCH
  5
BA
330
B5
100
AcDbEntity
  8
_U+30EC_U+30A4_U+30E4_U+30FC 1
 62
   179
420
  2234388
100
AcDbHatch
 10
0.0
 20
0.0
 30
0.0
210
0.0
220
0.0
230
1.0
  2
SOLID
 70
     1
 71
     0
 91
        1
 92
        1
 93
        1
 72
     4
 94
        3
 73
     0
 74
     1
 95
       26
 96
       22
 40
0.0
 40
0.0
 40
0.0
 40
0.0
 40
1.0
 40
1.0
 40
1.0
 40
2.0
 40
2.0
 40
2.0
 40
3.0
 40
3.0
 40
3.0
 40
4.0
 40
4.0
 40
4.0
 40
5.0
 40
5.0
 40
5.0
 40
6.0
 40
6.0
 40
6.0
 40
7.0
 40
7.0
 40
7.0
 40
7.0
 10
110.4428710661393
 20
-117.3725083799451
 10
110.4428710661393
 20
-117.3725083799451
 10
110.4428710661393
 20
-116.2683552769225
 10
110.4428710661393
 20
-116.2683552769225
 10
110.4428710661393
 20
-116.2683552769225
 10
110.1128309186523
 20
-116.2683552769225
 10
110.1128309186523
 20
-116.2683552769225
 10
110.1128309186523
 20
-116.2683552769225
 10
110.1128309186523
 20
-116.1202161710568
 10
110.1128309186523
 20
-116.1202161710568
 10
110.4449381234304
 20
-116.1054022604702
 10
110.4914469124813
 20
-115.9424492440179
 10
110.5210747336545
 20
-115.8280720739076
 10
110.5210747336545
 20
-115.8280720739076
 10
110.6671467822291
 20
-115.8280720739076
 10
110.6671467822291
 20
-115.8280720739076
 10
110.6671467822291
 20
-115.8280720739076
 10
110.6671467822291
 20
-117.3725083799451
 10
110.6671467822291
 20
-117.3725083799451
 10
110.6671467822291
 20
-117.3725083799451
 10
110.4428710661393
 20
-117.3725083799451
 10
110.4428710661393
 20
-117.3725083799451
 97
        0
 97
        0
 75
     2
 76
     1
 98
        0
  0
SPLINE
  5
BB
330
B5
100
AcDbEntity
  8
_U+30EC_U+30A4_U+30E4_U+30FC 1
370
     0
100
AcDbSpline
210
0.0
220
0.0
230
1.0
 70
    11
 71
     3
 72
    44
 73
    40
 74
     0
 42
0.0000000001
 43
0.0000000001
 12
1.0
 22
0.0
 32
0.0
 13
1.0
 23
0.0
 33
0.0
 40
0.0
 40
0.0
 40
0.0
 40
0.0
 40
1.0
 40
1.0
 40
1.0
 40
2.0
 40
2.0
 40
2.0
 40
3.0
 40
3.0
 40
3.0
 40
4.0
 40
4.0
 40
4.0
 40
5.0
 40
5.0
 40
5.0
 40
6.0
 40
6.0
 40
6.0
 40
7.0
 40
7.0
 40
7.0
 40
8.0
 40
8.0
 40
8.0
 40
9.0
 40
9.0
 40
9.0
 40
10.0
 40
10.0
 40
10.0
 40
11.0
 40
11.0
 40
11.0
 40
12.0
 40
12.0
 40
12.0
 40
13.0
 40
13.0
 40
13.0
 40
13.0
 10
111.7613091083444
 20
-116.7906317524864
 30
0.0
 10
111.5435790736766
 20
-116.9494506543564
 30
0.0
 10
111.4502169860263
 20
-117.0235202072893
 30
0.0
 10
111.4016411396843
 20
-117.1671806890242
 30
0.0
 10
111.4016411396843
 20
-117.1671806890242
 30
0.0
 10
112.1802327193508
 20
-117.1671806890242
 30
0.0
 10
112.1802327193508
 20
-117.1671806890242
 30
0.0
 10
112.1802327193508
 20
-117.1671806890242
 30
0.0
 10
112.1802327193508
 20
-117.3725083799451
 30
0.0
 10
112.1802327193508
 20
-117.3725083799451
 30
0.0
 10
112.1802327193508
 20
-117.3725083799451
 30
0.0
 10
111.1522162265522
 20
-117.3725083799451
 30
0.0
 10
111.1522162265522
 20
-117.3725083799451
 30
0.0
 10
111.1839111050165
 20
-117.0149074685761
 30
0.0
 10
111.2493679192363
 20
-116.936703801061
 30
0.0
 10
111.6345295944872
 20
-116.6383585320383
 30
0.0
 10
111.8905001890413
 20
-116.4395765225394
 30
0.0
 10
111.955957003261
 20
-116.37170814148
 30
0.0
 10
111.955957003261
 20
-116.2342488316185
 30
0.0
 10
111.955957003261
 20
-116.1157375469259
 30
0.0
 10
111.8839545076193
 20
-115.9848239184864
 30
0.0
 10
111.6872395554115
 20
-115.9848239184864
 30
0.0
 10
111.4271348462752
 20
-115.9848239184864
 30
0.0
 10
111.418522107562
 20
-116.2153008064496
 30
0.0
 10
111.4143879929797
 20
-116.3317450338511
 30
0.0
 10
111.4143879929797
 20
-116.3317450338511
 30
0.0
 10
111.19011227689
 20
-116.3317450338511
 30
0.0
 10
111.19011227689
 20
-116.3317450338511
 30
0.0
 10
111.1987250156031
 20
-116.2046210104454
 30
0.0
 10
111.2090603020588
 20
-116.0926554071748
 30
0.0
 10
111.2896755364137
 20
-115.9741441224822
 30
0.0
 10
111.3995740823932
 20
-115.813258163321
 30
0.0
 10
111.5856092385967
 20
-115.7794962275655
 30
0.0
 10
111.7020534659981
 20
-115.7794962275655
 30
0.0
 10
111.9793836525607
 20
-115.7794962275655
 30
0.0
 10
112.1864338912242
 20
-115.9634643264779
 30
0.0
 10
112.1864338912242
 20
-116.2363158889097
 30
0.0
 10
112.1864338912242
 20
-116.4650702291303
 30
0.0
 10
112.0703341733713
 20
-116.5642889791055
 30
0.0
 10
111.7613091083444
 20
-116.7906317524864
 30
0.0
  0
HATCH
  5
BC
330
B5
100
AcDbEntity
  8
_U+30EC_U+30A4_U+30E4_U+30FC 1
 62
   179
420
  2234388
100
AcDbHatch
 10
0.0
 20
0.0
 30
0.0
210
0.0
220
0.0
230
1.0
  2
SOLID
 70
     1
 71
     0
 91
        1
 92
        1
 93
        1
 72
     4
 94
        3
 73
     0
 74
     1
 95
       44
 96
       40
 40
0.0
 40
0.0
 40
0.0
 40
0.0
 40
1.0
 40
1.0
 40
1.0
 40
2.0
 40
2.0
 40
2.0
 40
3.0
 40
3.0
 40
3.0
 40
4.0
 40
4.0
 40
4.0
 40
5.0
 40
5.0
 40
5.0
 40
6.0
 40
6.0
 40
6.0
 40
7.0
 40
7.0
 40
7.0
 40
8.0
 40
8.0
 40
8.0
 40
9.0
 40
9.0
 40
9.0
 40
10.0
 40
10.0
 40
10.0
 40
11.0
 40
11.0
 40
11.0
 40
12.0
 40
12.0
 40
12.0
 40
13.0
 40
13.0
 40
13.0
 40
13.0
 10
111.7613091083444
 20
-116.7906317524864
 10
111.5435790736766
 20
-116.9494506543564
 10
111.4502169860263
 20
-117.0235202072893
 10
111.4016411396843
 20
-117.1671806890242
 10
111.4016411396843
 20
-117.1671806890242
 10
112.1802327193508
 20
-117.1671806890242
 10
112.1802327193508
 20
-117.1671806890242
 10
112.1802327193508
 20
-117.1671806890242
 10
112.1802327193508
 20
-117.3725083799451
 10
112.1802327193508
 20
-117.3725083799451
 10
112.1802327193508
 20
-117.3725083799451
 10
111.1522162265522
 20
-117.3725083799451
 10
111.1522162265522
 20
-117.3725083799451
 10
111.1839111050165
 20
-117.0149074685761
 10
111.2493679192363
 20
-116.936703801061
 10
111.6345295944872
 20
-116.6383585320383
 10
111.8905001890413
 20
-116.4395765225394
 10
111.955957003261
 20
-116.37170814148
 10
111.955957003261
 20
-116.2342488316185
 10
111.955957003261
 20
-116.1157375469259
 10
111.8839545076193
 20
-115.9848239184864
 10
111.6872395554115
 20
-115.9848239184864
 10
111.4271348462752
 20
-115.9848239184864
 10
111.418522107562
 20
-116.2153008064496
 10
111.4143879929797
 20
-116.3317450338511
 10
111.4143879929797
 20
-116.3317450338511
 10
111.19011227689
 20
-116.3317450338511
 10
111.19011227689
 20
-116.3317450338511
 10
111.1987250156031
 20
-116.2046210104454
 10
111.2090603020588
 20
-116.0926554071748
 10
111.2896755364137
 20
-115.9741441224822
 10
111.3995740823932
 20
-115.813258163321
 10
111.5856092385967
 20
-115.7794962275655
 10
111.7020534659981
 20
-115.7794962275655
 10
111.9793836525607
 20
-115.7794962275655
 10
112.1864338912242
 20
-115.9634643264779
 10
112.1864338912242
 20
-116.2363158889097
 10
112.1864338912242
 20
-116.4650702291303
 10
112.0703341733713
 20
-116.5642889791055
 10
111.7613091083444
 20
-116.7906317524864
 97
        0
 97
        0
 75
     2
 76
     1
 98
        0
  0
ENDBLK
  5
B8
330
B5
100
AcDbEntity
  8
0
100
AcDbBlockEnd
  0
BLOCK
  5
D5
330
D3
100
AcDbEntity
  8
0
100
AcDbBlockBegin
  2
block 8
 70
     0
 10
0.0
 20
0.0
 30
0.0
  3
block 8
  1

  0
SPLINE
  5
D7
330
D3
100
AcDbEntity
  8
_U+30EC_U+30A4_U+30E4_U+30FC 1
370
     0
100
AcDbSpline
210
0.0
220
0.0
230
1.0
 70
    11
 71
     3
 72
    26
 73
    22
 74
     0
 42
0.0000000001
 43
0.0000000001
 12
1.0
 22
0.0
 32
0.0
 13
1.0
 23
0.0
 33
0.0
 40
0.0
 40
0.0
 40
0.0
 40
0.0
 40
1.0
 40
1.0
 40
1.0
 40
2.0
 40
2.0
 40
2.0
 40
3.0
 40
3.0
 40
3.0
 40
4.0
 40
4.0
 40
4.0
 40
5.0
 40
5.0
 40
5.0
 40
6.0
 40
6.0
 40
6.0
 40
7.0
 40
7.0
 40
7.0
 40
7.0
 10
71.92050236917265
 20
-145.7606119427265
 30
0.0
 10
71.92050236917265
 20
-145.7606119427265
 30
0.0
 10
71.92050236917265
 20
-144.656458839704
 30
0.0
 10
71.92050236917265
 20
-144.656458839704
 30
0.0
 10
71.92050236917265
 20
-144.656458839704
 30
0.0
 10
71.59046222168573
 20
-144.656458839704
 30
0.0
 10
71.59046222168573
 20
-144.656458839704
 30
0.0
 10
71.59046222168573
 20
-144.656458839704
 30
0.0
 10
71.59046222168573
 20
-144.5083197338382
 30
0.0
 10
71.59046222168573
 20
-144.5083197338382
 30
0.0
 10
71.92256942646381
 20
-144.4935058232516
 30
0.0
 10
71.96907821551468
 20
-144.3305528067993
 30
0.0
 10
71.99870603668782
 20
-144.216175636689
 30
0.0
 10
71.99870603668782
 20
-144.216175636689
 30
0.0
 10
72.14477808526242
 20
-144.216175636689
 30
0.0
 10
72.14477808526242
 20
-144.216175636689
 30
0.0
 10
72.14477808526242
 20
-144.216175636689
 30
0.0
 10
72.14477808526242
 20
-145.7606119427265
 30
0.0
 10
72.14477808526242
 20
-145.7606119427265
 30
0.0
 10
72.14477808526242
 20
-145.7606119427265
 30
0.0
 10
71.92050236917265
 20
-145.7606119427265
 30
0.0
 10
71.92050236917265
 20
-145.7606119427265
 30
0.0
  0
HATCH
  5
D8
330
D3
100
AcDbEntity
  8
_U+30EC_U+30A4_U+30E4_U+30FC 1
 62
   179
420
  2234388
100
AcDbHatch
 10
0.0
 20
0.0
 30
0.0
210
0.0
220
0.0
230
1.0
  2
SOLID
 70
     1
 71
     0
 91
        1
 92
        1
 93
        1
 72
     4
 94
        3
 73
     0
 74
     1
 95
       26
 96
       22
 40
0.0
 40
0.0
 40
0.0
 40
0.0
 40
1.0
 40
1.0
 40
1.0
 40
2.0
 40
2.0
 40
2.0
 40
3.0
 40
3.0
 40
3.0
 40
4.0
 40
4.0
 40
4.0
 40
5.0
 40
5.0
 40
5.0
 40
6.0
 40
6.0
 40
6.0
 40
7.0
 40
7.0
 40
7.0
 40
7.0
 10
71.92050236917265
 20
-145.7606119427265
 10
71.92050236917265
 20
-145.7606119427265
 10
71.92050236917265
 20
-144.656458839704
 10
71.92050236917265
 20
-144.656458839704
 10
71.92050236917265
 20
-144.656458839704
 10
71.59046222168573
 20
-144.656458839704
 10
71.59046222168573
 20
-144.656458839704
 10
71.59046222168573
 20
-144.656458839704
 10
71.59046222168573
 20
-144.5083197338382
 10
71.59046222168573
 20
-144.5083197338382
 10
71.92256942646381
 20
-144.4935058232516
 10
71.96907821551468
 20
-144.3305528067993
 10
71.99870603668782
 20
-144.216175636689
 10
71.99870603668782
 20
-144.216175636689
 10
72.14477808526242
 20
-144.216175636689
 10
72.14477808526242
 20
-144.216175636689
 10
72.14477808526242
 20
-144.216175636689
 10
72.14477808526242
 20
-145.7606119427265
 10
72.14477808526242
 20
-145.7606119427265
 10
72.14477808526242
 20
-145.7606119427265
 10
71.92050236917265
 20
-145.7606119427265
 10
71.92050236917265
 20
-145.7606119427265
 97
        0
 97
        0
 75
     2
 76
     1
 98
        0
  0
SPLINE
  5
D9
330
D3
100
AcDbEntity
  8
_U+30EC_U+30A4_U+30E4_U+30FC 1
370
     0
100
AcDbSpline
210
0.0
220
0.0
230
1.0
 70
    11
 71
     3
 72
    44
 73
    40
 74
     0
 42
0.0000000001
 43
0.0000000001
 12
1.0
 22
0.0
 32
0.0
 13
1.0
 23
0.0
 33
0.0
 40
0.0
 40
0.0
 40
0.0
 40
0.0
 40
1.0
 40
1.0
 40
1.0
 40
2.0
 40
2.0
 40
2.0
 40
3.0
 40
3.0
 40
3.0
 40
4.0
 40
4.0
 40
4.0
 40
5.0
 40
5.0
 40
5.0
 40
6.0
 40
6.0
 40
6.0
 40
7.0
 40
7.0
 40
7.0
 40
8.0
 40
8.0
 40
8.0
 40
9.0
 40
9.0
 40
9.0
 40
10.0
 40
10.0
 40
10.0
 40
11.0
 40
11.0
 40
11.0
 40
12.0
 40
12.0
 40
12.0
 40
13.0
 40
13.0
 40
13.0
 40
13.0
 10
73.23894041137777
 20
-145.1787353152678
 30
0.0
 10
73.02121037670997
 20
-145.3375542171378
 30
0.0
 10
72.92819279860824
 20
-145.4116237700707
 30
0.0
 10
72.87927244271769
 20
-145.5552842518056
 30
0.0
 10
72.87927244271769
 20
-145.5552842518056
 30
0.0
 10
73.65786402238415
 20
-145.5552842518056
 30
0.0
 10
73.65786402238415
 20
-145.5552842518056
 30
0.0
 10
73.65786402238415
 20
-145.5552842518056
 30
0.0
 10
73.65786402238415
 20
-145.7606119427265
 30
0.0
 10
73.65786402238415
 20
-145.7606119427265
 30
0.0
 10
73.65786402238415
 20
-145.7606119427265
 30
0.0
 10
72.6298475295856
 20
-145.7606119427265
 30
0.0
 10
72.6298475295856
 20
-145.7606119427265
 30
0.0
 10
72.6615424080499
 20
-145.4030110313576
 30
0.0
 10
72.72699922226964
 20
-145.3248073638424
 30
0.0
 10
73.11216089752057
 20
-145.0264620948198
 30
0.0
 10
73.36813149207464
 20
-144.8276800853209
 30
0.0
 10
73.43358830629438
 20
-144.7598117042614
 30
0.0
 10
73.43358830629438
 20
-144.6223523944
 30
0.0
 10
73.43358830629438
 20
-144.5038411097074
 30
0.0
 10
73.36158581065266
 20
-144.3729274812679
 30
0.0
 10
73.1648708584449
 20
-144.3729274812679
 30
0.0
 10
72.90476614930853
 20
-144.3729274812679
 30
0.0
 10
72.8961534105954
 20
-144.6034043692311
 30
0.0
 10
72.8920192960131
 20
-144.7198485966325
 30
0.0
 10
72.8920192960131
 20
-144.7198485966325
 30
0.0
 10
72.66774357992334
 20
-144.7198485966325
 30
0.0
 10
72.66774357992334
 20
-144.7198485966325
 30
0.0
 10
72.67635631863646
 20
-144.5927245732268
 30
0.0
 10
72.68703611464075
 20
-144.4807589699562
 30
0.0
 10
72.76730683944706
 20
-144.3622476852636
 30
0.0
 10
72.87720538542654
 20
-144.2013617261024
 30
0.0
 10
73.06358505117855
 20
-144.167599790347
 30
0.0
 10
73.17968476903147
 20
-144.167599790347
 30
0.0
 10
73.45701495559408
 20
-144.167599790347
 30
0.0
 10
73.66440970380613
 20
-144.3515678892593
 30
0.0
 10
73.66440970380613
 20
-144.6244194516911
 30
0.0
 10
73.66440970380613
 20
-144.8531737919117
 30
0.0
 10
73.54796547640468
 20
-144.9523925418869
 30
0.0
 10
73.23894041137777
 20
-145.1787353152678
 30
0.0
  0
HATCH
  5
DA
330
D3
100
AcDbEntity
  8
_U+30EC_U+30A4_U+30E4_U+30FC 1
 62
   179
420
  2234388
100
AcDbHatch
 10
0.0
 20
0.0
 30
0.0
210
0.0
220
0.0
230
1.0
  2
SOLID
 70
     1
 71
     0
 91
        1
 92
        1
 93
        1
 72
     4
 94
        3
 73
     0
 74
     1
 95
       44
 96
       40
 40
0.0
 40
0.0
 40
0.0
 40
0.0
 40
1.0
 40
1.0
 40
1.0
 40
2.0
 40
2.0
 40
2.0
 40
3.0
 40
3.0
 40
3.0
 40
4.0
 40
4.0
 40
4.0
 40
5.0
 40
5.0
 40
5.0
 40
6.0
 40
6.0
 40
6.0
 40
7.0
 40
7.0
 40
7.0
 40
8.0
 40
8.0
 40
8.0
 40
9.0
 40
9.0
 40
9.0
 40
10.0
 40
10.0
 40
10.0
 40
11.0
 40
11.0
 40
11.0
 40
12.0
 40
12.0
 40
12.0
 40
13.0
 40
13.0
 40
13.0
 40
13.0
 10
73.23894041137777
 20
-145.1787353152678
 10
73.02121037670997
 20
-145.3375542171378
 10
72.92819279860824
 20
-145.4116237700707
 10
72.87927244271769
 20
-145.5552842518056
 10
72.87927244271769
 20
-145.5552842518056
 10
73.65786402238415
 20
-145.5552842518056
 10
73.65786402238415
 20
-145.5552842518056
 10
73.65786402238415
 20
-145.5552842518056
 10
73.65786402238415
 20
-145.7606119427265
 10
73.65786402238415
 20
-145.7606119427265
 10
73.65786402238415
 20
-145.7606119427265
 10
72.6298475295856
 20
-145.7606119427265
 10
72.6298475295856
 20
-145.7606119427265
 10
72.6615424080499
 20
-145.4030110313576
 10
72.72699922226964
 20
-145.3248073638424
 10
73.11216089752057
 20
-145.0264620948198
 10
73.36813149207464
 20
-144.8276800853209
 10
73.43358830629438
 20
-144.7598117042614
 10
73.43358830629438
 20
-144.6223523944
 10
73.43358830629438
 20
-144.5038411097074
 10
73.36158581065266
 20
-144.3729274812679
 10
73.1648708584449
 20
-144.3729274812679
 10
72.90476614930853
 20
-144.3729274812679
 10
72.8961534105954
 20
-144.6034043692311
 10
72.8920192960131
 20
-144.7198485966325
 10
72.8920192960131
 20
-144.7198485966325
 10
72.66774357992334
 20
-144.7198485966325
 10
72.66774357992334
 20
-144.7198485966325
 10
72.67635631863646
 20
-144.5927245732268
 10
72.68703611464075
 20
-144.4807589699562
 10
72.76730683944706
 20
-144.3622476852636
 10
72.87720538542654
 20
-144.2013617261024
 10
73.06358505117855
 20
-144.167599790347
 10
73.17968476903147
 20
-144.167599790347
 10
73.45701495559408
 20
-144.167599790347
 10
73.66440970380613
 20
-144.3515678892593
 10
73.66440970380613
 20
-144.6244194516911
 10
73.66440970380613
 20
-144.8531737919117
 10
73.54796547640468
 20
-144.9523925418869
 10
73.23894041137777
 20
-145.1787353152678
 97
        0
 97
        0
 75
     2
 76
     1
 98
        0
  0
POLYLINE
  5
DB
330
D3
100
AcDbEntity
  8
_U+30EC_U+30A4_U+30E4_U+30FC 1
370
     0
100
AcDb2dPolyline
 66
     1
 10
0.0
 20
0.0
 30
0.0
  0
VERTEX
  5
DC
330
DB
100
AcDbEntity
  8
_U+30EC_U+30A4_U+30E4_U+30FC 1
370
     0
100
AcDbVertex
100
AcDb2dVertex
 10
73.88282875757096
 20
-145.7606119427265
 30
0.0
  0
VERTEX
  5
DD
330
DB
100
AcDbEntity
  8
_U+30EC_U+30A4_U+30E4_U+30FC 1
370
     0
100
AcDbVertex
100
AcDb2dVertex
 10
73.88282875757096
 20
-145.5087754627548
 30
0.0
  0
VERTEX
  5
DE
330
DB
100
AcDbEntity
  8
_U+30EC_U+30A4_U+30E4_U+30FC 1
370
     0
100
AcDbVertex
100
AcDb2dVertex
 10
74.13466523754272
 20
-145.5087754627548
 30
0.0
  0
VERTEX
  5
DF
330
DB
100
AcDbEntity
  8
_U+30EC_U+30A4_U+30E4_U+30FC 1
370
     0
100
AcDbVertex
100
AcDb2dVertex
 10
74.13466523754272
 20
-145.7606119427265
 30
0.0
  0
VERTEX
  5
E0
330
DB
100
AcDbEntity
  8
_U+30EC_U+30A4_U+30E4_U+30FC 1
370
     0
100
AcDbVertex
100
AcDb2dVertex
 10
73.88282875757096
 20
-145.7606119427265
 30
0.0
  0
SEQEND
  5
E1
330
DB
100
AcDbEntity
  8
_U+30EC_U+30A4_U+30E4_U+30FC 1
370
     0
  0
HATCH
  5
E2
330
D3
100
AcDbEntity
  8
_U+30EC_U+30A4_U+30E4_U+30FC 1
 62
   179
420
  2234388
100
AcDbHatch
 10
0.0
 20
0.0
 30
0.0
210
0.0
220
0.0
230
1.0
  2
SOLID
 70
     1
 71
     0
 91
        1
 92
        1
 93
        4
 72
     1
 10
73.88282875757096
 20
-145.7606119427265
 11
73.88282875757096
 21
-145.5087754627548
 72
     1
 10
73.88282875757096
 20
-145.5087754627548
 11
74.13466523754272
 21
-145.5087754627548
 72
     1
 10
74.13466523754272
 20
-145.5087754627548
 11
74.13466523754272
 21
-145.7606119427265
 72
     1
 10
74.13466523754272
 20
-145.7606119427265
 11
73.88282875757096
 21
-145.7606119427265
 97
        0
 75
     2
 76
     1
 98
        0
  0
SPLINE
  5
E3
330
D3
100
AcDbEntity
  8
_U+30EC_U+30A4_U+30E4_U+30FC 1
370
     0
100
AcDbSpline
210
0.0
220
0.0
230
1.0
 70
    11
 71
     3
 72
    53
 73
    49
 74
     0
 42
0.0000000001
 43
0.0000000001
 12
1.0
 22
0.0
 32
0.0
 13
1.0
 23
0.0
 33
0.0
 40
0.0
 40
0.0
 40
0.0
 40
0.0
 40
1.0
 40
1.0
 40
1.0
 40
2.0
 40
2.0
 40
2.0
 40
3.0
 40
3.0
 40
3.0
 40
4.0
 40
4.0
 40
4.0
 40
5.0
 40
5.0
 40
5.0
 40
6.0
 40
6.0
 40
6.0
 40
7.0
 40
7.0
 40
7.0
 40
8.0
 40
8.0
 40
8.0
 40
9.0
 40
9.0
 40
9.0
 40
10.0
 40
10.0
 40
10.0
 40
11.0
 40
11.0
 40
11.0
 40
12.0
 40
12.0
 40
12.0
 40
13.0
 40
13.0
 40
13.0
 40
14.0
 40
14.0
 40
14.0
 40
15.0
 40
15.0
 40
15.0
 40
16.0
 40
16.0
 40
16.0
 40
16.0
 10
74.85193411757174
 20
-145.8112548463597
 30
0.0
 10
74.77373045005658
 20
-145.8112548463597
 30
0.0
 10
74.6721001332417
 20
-145.794373878482
 30
0.0
 10
74.57046981642684
 20
-145.7309841215534
 30
0.0
 10
74.39718151351876
 20
-145.6210855755739
 30
0.0
 10
74.37582192151021
 20
-145.4898274375859
 30
0.0
 10
74.35687389634134
 20
-145.3819959488976
 30
0.0
 10
74.35687389634134
 20
-145.3819959488976
 30
0.0
 10
74.57908255513996
 20
-145.3819959488976
 30
0.0
 10
74.57908255513996
 20
-145.3819959488976
 30
0.0
 10
74.63385957335542
 20
-145.5807779583965
 30
0.0
 10
74.76098359676115
 20
-145.6104057795696
 30
0.0
 10
74.85400117486289
 20
-145.6104057795696
 30
0.0
 10
74.99352754201551
 20
-145.6104057795696
 30
0.0
 10
75.14580076246355
 20
-145.5108425200459
 30
0.0
 10
75.14580076246355
 20
-145.2782985747915
 30
0.0
 10
75.14580076246355
 20
-145.0223279802375
 30
0.0
 10
74.9659667781335
 20
-144.9523925418869
 30
0.0
 10
74.84538843614976
 20
-144.9523925418869
 30
0.0
 10
74.81369355768547
 20
-144.9523925418869
 30
0.0
 10
74.6721001332417
 20
-144.9523925418869
 30
0.0
 10
74.58321666972226
 20
-145.0815836225838
 30
0.0
 10
74.58321666972226
 20
-145.0815836225838
 30
0.0
 10
74.40751679997452
 20
-145.0626355974149
 30
0.0
 10
74.40751679997452
 20
-145.0626355974149
 30
0.0
 10
74.40751679997452
 20
-145.0626355974149
 30
0.0
 10
74.52809514195826
 20
-144.216175636689
 30
0.0
 10
74.52809514195826
 20
-144.216175636689
 30
0.0
 10
74.52809514195826
 20
-144.216175636689
 30
0.0
 10
75.30668672162471
 20
-144.216175636689
 30
0.0
 10
75.30668672162471
 20
-144.216175636689
 30
0.0
 10
75.30668672162471
 20
-144.216175636689
 30
0.0
 10
75.30668672162471
 20
-144.4108235316056
 30
0.0
 10
75.30668672162471
 20
-144.4108235316056
 30
0.0
 10
75.30668672162471
 20
-144.4108235316056
 30
0.0
 10
74.69104815841058
 20
-144.4108235316056
 30
0.0
 10
74.69104815841058
 20
-144.4108235316056
 30
0.0
 10
74.69104815841058
 20
-144.4108235316056
 30
0.0
 10
74.62559134419082
 20
-144.8338812571943
 30
0.0
 10
74.62559134419082
 20
-144.8338812571943
 30
0.0
 10
74.68691404382828
 20
-144.8001193214389
 30
0.0
 10
74.76925182592575
 20
-144.7598117042614
 30
0.0
 10
74.88776311061834
 20
-144.7598117042614
 30
0.0
 10
75.14166664788125
 20
-144.7598117042614
 30
0.0
 10
75.37868921726644
 20
-144.9461913700135
 30
0.0
 10
75.37868921726644
 20
-145.2593505496227
 30
0.0
 10
75.37868921726644
 20
-145.5766438438142
 30
0.0
 10
75.15441350117668
 20
-145.8112548463597
 30
0.0
 10
74.85193411757174
 20
-145.8112548463597
 30
0.0
  0
HATCH
  5
E4
330
D3
100
AcDbEntity
  8
_U+30EC_U+30A4_U+30E4_U+30FC 1
 62
   179
420
  2234388
100
AcDbHatch
 10
0.0
 20
0.0
 30
0.0
210
0.0
220
0.0
230
1.0
  2
SOLID
 70
     1
 71
     0
 91
        1
 92
        1
 93
        1
 72
     4
 94
        3
 73
     0
 74
     1
 95
       53
 96
       49
 40
0.0
 40
0.0
 40
0.0
 40
0.0
 40
1.0
 40
1.0
 40
1.0
 40
2.0
 40
2.0
 40
2.0
 40
3.0
 40
3.0
 40
3.0
 40
4.0
 40
4.0
 40
4.0
 40
5.0
 40
5.0
 40
5.0
 40
6.0
 40
6.0
 40
6.0
 40
7.0
 40
7.0
 40
7.0
 40
8.0
 40
8.0
 40
8.0
 40
9.0
 40
9.0
 40
9.0
 40
10.0
 40
10.0
 40
10.0
 40
11.0
 40
11.0
 40
11.0
 40
12.0
 40
12.0
 40
12.0
 40
13.0
 40
13.0
 40
13.0
 40
14.0
 40
14.0
 40
14.0
 40
15.0
 40
15.0
 40
15.0
 40
16.0
 40
16.0
 40
16.0
 40
16.0
 10
74.85193411757174
 20
-145.8112548463597
 10
74.77373045005658
 20
-145.8112548463597
 10
74.6721001332417
 20
-145.794373878482
 10
74.57046981642684
 20
-145.7309841215534
 10
74.39718151351876
 20
-145.6210855755739
 10
74.37582192151021
 20
-145.4898274375859
 10
74.35687389634134
 20
-145.3819959488976
 10
74.35687389634134
 20
-145.3819959488976
 10
74.57908255513996
 20
-145.3819959488976
 10
74.57908255513996
 20
-145.3819959488976
 10
74.63385957335542
 20
-145.5807779583965
 10
74.76098359676115
 20
-145.6104057795696
 10
74.85400117486289
 20
-145.6104057795696
 10
74.99352754201551
 20
-145.6104057795696
 10
75.14580076246355
 20
-145.5108425200459
 10
75.14580076246355
 20
-145.2782985747915
 10
75.14580076246355
 20
-145.0223279802375
 10
74.9659667781335
 20
-144.9523925418869
 10
74.84538843614976
 20
-144.9523925418869
 10
74.81369355768547
 20
-144.9523925418869
 10
74.6721001332417
 20
-144.9523925418869
 10
74.58321666972226
 20
-145.0815836225838
 10
74.58321666972226
 20
-145.0815836225838
 10
74.40751679997452
 20
-145.0626355974149
 10
74.40751679997452
 20
-145.0626355974149
 10
74.40751679997452
 20
-145.0626355974149
 10
74.52809514195826
 20
-144.216175636689
 10
74.52809514195826
 20
-144.216175636689
 10
74.52809514195826
 20
-144.216175636689
 10
75.30668672162471
 20
-144.216175636689
 10
75.30668672162471
 20
-144.216175636689
 10
75.30668672162471
 20
-144.216175636689
 10
75.30668672162471
 20
-144.4108235316056
 10
75.30668672162471
 20
-144.4108235316056
 10
75.30668672162471
 20
-144.4108235316056
 10
74.69104815841058
 20
-144.4108235316056
 10
74.69104815841058
 20
-144.4108235316056
 10
74.69104815841058
 20
-144.4108235316056
 10
74.62559134419082
 20
-144.8338812571943
 10
74.62559134419082
 20
-144.8338812571943
 10
74.68691404382828
 20
-144.8001193214389
 10
74.76925182592575
 20
-144.7598117042614
 10
74.88776311061834
 20
-144.7598117042614
 10
75.14166664788125
 20
-144.7598117042614
 10
75.37868921726644
 20
-144.9461913700135
 10
75.37868921726644
 20
-145.2593505496227
 10
75.37868921726644
 20
-145.5766438438142
 10
75.15441350117668
 20
-145.8112548463597
 10
74.85193411757174
 20
-145.8112548463597
 97
        0
 97
        0
 75
     2
 76
     1
 98
        0
  0
ENDBLK
  5
D6
330
D3
100
AcDbEntity
  8
0
100
AcDbBlockEnd
  0
BLOCK
  5
E7
330
E5
100
AcDbEntity
  8
0
100
AcDbBlockBegin
  2
block 9
 70
     0
 10
0.0
 20
0.0
 30
0.0
  3
block 9
  1

  0
SPLINE
  5
E9
330
E5
100
AcDbEntity
  8
_U+30EC_U+30A4_U+30E4_U+30FC 1
370
     0
100
AcDbSpline
210
0.0
220
0.0
230
1.0
 70
    11
 71
     3
 72
    35
 73
    31
 74
     0
 42
0.0000000001
 43
0.0000000001
 12
1.0
 22
0.0
 32
0.0
 13
1.0
 23
0.0
 33
0.0
 40
0.0
 40
0.0
 40
0.0
 40
0.0
 40
1.0
 40
1.0
 40
1.0
 40
2.0
 40
2.0
 40
2.0
 40
3.0
 40
3.0
 40
3.0
 40
4.0
 40
4.0
 40
4.0
 40
5.0
 40
5.0
 40
5.0
 40
6.0
 40
6.0
 40
6.0
 40
7.0
 40
7.0
 40
7.0
 40
8.0
 40
8.0
 40
8.0
 40
9.0
 40
9.0
 40
9.0
 40
10.0
 40
10.0
 40
10.0
 40
10.0
 10
99.19015568266774
 20
-123.7411118939779
 30
0.0
 10
99.19015568266774
 20
-123.7411118939779
 30
0.0
 10
99.13951277903458
 20
-124.0053507176966
 30
0.0
 10
99.13951277903458
 20
-124.0053507176966
 30
0.0
 10
99.27903914618719
 20
-124.018097570992
 30
0.0
 10
99.60701223638297
 20
-124.1090480918026
 30
0.0
 10
99.60701223638297
 20
-124.500410938927
 30
0.0
 10
99.60701223638297
 20
-124.9785901922797
 30
0.0
 10
99.20083547867202
 20
-125.1033026488457
 30
0.0
 10
98.92591685894908
 20
-125.1033026488457
 30
0.0
 10
98.92591685894908
 20
-125.1033026488457
 30
0.0
 10
98.85804847788965
 20
-125.4567694456323
 30
0.0
 10
98.85804847788965
 20
-125.4567694456323
 30
0.0
 10
98.85804847788965
 20
-125.4567694456323
 30
0.0
 10
98.65065372967761
 20
-125.4567694456323
 30
0.0
 10
98.65065372967761
 20
-125.4567694456323
 30
0.0
 10
98.65065372967761
 20
-125.4567694456323
 30
0.0
 10
98.72265622531934
 20
-125.0884887382591
 30
0.0
 10
98.72265622531934
 20
-125.0884887382591
 30
0.0
 10
98.61482473663102
 20
-125.0695407130903
 30
0.0
 10
98.26376950668406
 20
-125.0082180134528
 30
0.0
 10
98.26376950668406
 20
-124.5913614597376
 30
0.0
 10
98.26376950668406
 20
-124.1431545371066
 30
0.0
 10
98.61895885121332
 20
-123.9929483739497
 30
0.0
 10
98.93418508811368
 20
-123.9929483739497
 30
0.0
 10
98.93418508811368
 20
-123.9929483739497
 30
0.0
 10
98.98310544400422
 20
-123.7411118939779
 30
0.0
 10
98.98310544400422
 20
-123.7411118939779
 30
0.0
 10
98.98310544400422
 20
-123.7411118939779
 30
0.0
 10
99.19015568266774
 20
-123.7411118939779
 30
0.0
 10
99.19015568266774
 20
-123.7411118939779
 30
0.0
  0
SPLINE
  5
EA
330
E5
100
AcDbEntity
  8
_U+30EC_U+30A4_U+30E4_U+30FC 1
370
     0
100
AcDbSpline
210
0.0
220
0.0
230
1.0
 70
    11
 71
     3
 72
    14
 73
    10
 74
     0
 42
0.0000000001
 43
0.0000000001
 12
1.0
 22
0.0
 32
0.0
 13
1.0
 23
0.0
 33
0.0
 40
0.0
 40
0.0
 40
0.0
 40
0.0
 40
1.0
 40
1.0
 40
1.0
 40
2.0
 40
2.0
 40
2.0
 40
3.0
 40
3.0
 40
3.0
 40
3.0
 10
98.90042315235823
 20
-124.1662366768577
 30
0.0
 10
98.77984481037448
 20
-124.1748494155709
 30
0.0
 10
98.48563365593415
 20
-124.1979315553221
 30
0.0
 10
98.48563365593415
 20
-124.5958400838684
 30
0.0
 10
98.48563365593415
 20
-124.659229840797
 30
0.0
 10
98.48563365593415
 20
-124.8728257608825
 30
0.0
 10
98.75435110378363
 20
-124.9172674926422
 30
0.0
 10
98.75435110378363
 20
-124.9172674926422
 30
0.0
 10
98.90042315235823
 20
-124.1662366768577
 30
0.0
 10
98.90042315235823
 20
-124.1662366768577
 30
0.0
  0
SPLINE
  5
EB
330
E5
100
AcDbEntity
  8
_U+30EC_U+30A4_U+30E4_U+30FC 1
370
     0
100
AcDbSpline
210
0.0
220
0.0
230
1.0
 70
    11
 71
     3
 72
    14
 73
    10
 74
     0
 42
0.0000000001
 43
0.0000000001
 12
1.0
 22
0.0
 32
0.0
 13
1.0
 23
0.0
 33
0.0
 40
0.0
 40
0.0
 40
0.0
 40
0.0
 40
1.0
 40
1.0
 40
1.0
 40
2.0
 40
2.0
 40
2.0
 40
3.0
 40
3.0
 40
3.0
 40
3.0
 10
98.96174585199567
 20
-124.9258802313553
 30
0.0
 10
99.14364689361688
 20
-124.9214016072245
 30
0.0
 10
99.3868706348755
 20
-124.8411308824182
 30
0.0
 10
99.3868706348755
 20
-124.4855970283404
 30
0.0
 10
99.3868706348755
 20
-124.3925794502387
 30
0.0
 10
99.37446829112861
 20
-124.204477236744
 30
0.0
 10
99.10368378598797
 20
-124.176916472862
 30
0.0
 10
99.10368378598797
 20
-124.176916472862
 30
0.0
 10
98.96174585199567
 20
-124.9258802313553
 30
0.0
 10
98.96174585199567
 20
-124.9258802313553
 30
0.0
  0
HATCH
  5
EC
330
E5
100
AcDbEntity
  8
_U+30EC_U+30A4_U+30E4_U+30FC 1
 62
   179
420
  2234388
100
AcDbHatch
 10
0.0
 20
0.0
 30
0.0
210
0.0
220
0.0
230
1.0
  2
SOLID
 70
     1
 71
     0
 91
        3
 92
        1
 93
        1
 72
     4
 94
        3
 73
     0
 74
     1
 95
       35
 96
       31
 40
0.0
 40
0.0
 40
0.0
 40
0.0
 40
1.0
 40
1.0
 40
1.0
 40
2.0
 40
2.0
 40
2.0
 40
3.0
 40
3.0
 40
3.0
 40
4.0
 40
4.0
 40
4.0
 40
5.0
 40
5.0
 40
5.0
 40
6.0
 40
6.0
 40
6.0
 40
7.0
 40
7.0
 40
7.0
 40
8.0
 40
8.0
 40
8.0
 40
9.0
 40
9.0
 40
9.0
 40
10.0
 40
10.0
 40
10.0
 40
10.0
 10
99.19015568266774
 20
-123.7411118939779
 10
99.19015568266774
 20
-123.7411118939779
 10
99.13951277903458
 20
-124.0053507176966
 10
99.13951277903458
 20
-124.0053507176966
 10
99.27903914618719
 20
-124.018097570992
 10
99.60701223638297
 20
-124.1090480918026
 10
99.60701223638297
 20
-124.500410938927
 10
99.60701223638297
 20
-124.9785901922797
 10
99.20083547867202
 20
-125.1033026488457
 10
98.92591685894908
 20
-125.1033026488457
 10
98.92591685894908
 20
-125.1033026488457
 10
98.85804847788965
 20
-125.4567694456323
 10
98.85804847788965
 20
-125.4567694456323
 10
98.85804847788965
 20
-125.4567694456323
 10
98.65065372967761
 20
-125.4567694456323
 10
98.65065372967761
 20
-125.4567694456323
 10
98.65065372967761
 20
-125.4567694456323
 10
98.72265622531934
 20
-125.0884887382591
 10
98.72265622531934
 20
-125.0884887382591
 10
98.61482473663102
 20
-125.0695407130903
 10
98.26376950668406
 20
-125.0082180134528
 10
98.26376950668406
 20
-124.5913614597376
 10
98.26376950668406
 20
-124.1431545371066
 10
98.61895885121332
 20
-123.9929483739497
 10
98.93418508811368
 20
-123.9929483739497
 10
98.93418508811368
 20
-123.9929483739497
 10
98.98310544400422
 20
-123.7411118939779
 10
98.98310544400422
 20
-123.7411118939779
 10
98.98310544400422
 20
-123.7411118939779
 10
99.19015568266774
 20
-123.7411118939779
 10
99.19015568266774
 20
-123.7411118939779
 97
        0
 97
        0
 92
        1
 93
        1
 72
     4
 94
        3
 73
     0
 74
     1
 95
       14
 96
       10
 40
0.0
 40
0.0
 40
0.0
 40
0.0
 40
1.0
 40
1.0
 40
1.0
 40
2.0
 40
2.0
 40
2.0
 40
3.0
 40
3.0
 40
3.0
 40
3.0
 10
98.90042315235823
 20
-124.1662366768577
 10
98.77984481037448
 20
-124.1748494155709
 10
98.48563365593415
 20
-124.1979315553221
 10
98.48563365593415
 20
-124.5958400838684
 10
98.48563365593415
 20
-124.659229840797
 10
98.48563365593415
 20
-124.8728257608825
 10
98.75435110378363
 20
-124.9172674926422
 10
98.75435110378363
 20
-124.9172674926422
 10
98.90042315235823
 20
-124.1662366768577
 10
98.90042315235823
 20
-124.1662366768577
 97
        0
 97
        0
 92
        1
 93
        1
 72
     4
 94
        3
 73
     0
 74
     1
 95
       14
 96
       10
 40
0.0
 40
0.0
 40
0.0
 40
0.0
 40
1.0
 40
1.0
 40
1.0
 40
2.0
 40
2.0
 40
2.0
 40
3.0
 40
3.0
 40
3.0
 40
3.0
 10
98.96174585199567
 20
-124.9258802313553
 10
99.14364689361688
 20
-124.9214016072245
 10
99.3868706348755
 20
-124.8411308824182
 10
99.3868706348755
 20
-124.4855970283404
 10
99.3868706348755
 20
-124.3925794502387
 10
99.37446829112861
 20
-124.204477236744
 10
99.10368378598797
 20
-124.176916472862
 10
99.10368378598797
 20
-124.176916472862
 10
98.96174585199567
 20
-124.9258802313553
 10
98.96174585199567
 20
-124.9258802313553
 97
        0
 97
        0
 75
     2
 76
     1
 98
        0
  0
SPLINE
  5
ED
330
E5
100
AcDbEntity
  8
_U+30EC_U+30A4_U+30E4_U+30FC 1
370
     0
100
AcDbSpline
210
0.0
220
0.0
230
1.0
 70
    11
 71
     3
 72
    62
 73
    58
 74
     0
 42
0.0000000001
 43
0.0000000001
 12
1.0
 22
0.0
 32
0.0
 13
1.0
 23
0.0
 33
0.0
 40
0.0
 40
0.0
 40
0.0
 40
0.0
 40
1.0
 40
1.0
 40
1.0
 40
2.0
 40
2.0
 40
2.0
 40
3.0
 40
3.0
 40
3.0
 40
4.0
 40
4.0
 40
4.0
 40
5.0
 40
5.0
 40
5.0
 40
6.0
 40
6.0
 40
6.0
 40
7.0
 40
7.0
 40
7.0
 40
8.0
 40
8.0
 40
8.0
 40
9.0
 40
9.0
 40
9.0
 40
10.0
 40
10.0
 40
10.0
 40
11.0
 40
11.0
 40
11.0
 40
12.0
 40
12.0
 40
12.0
 40
13.0
 40
13.0
 40
13.0
 40
14.0
 40
14.0
 40
14.0
 40
15.0
 40
15.0
 40
15.0
 40
16.0
 40
16.0
 40
16.0
 40
17.0
 40
17.0
 40
17.0
 40
18.0
 40
18.0
 40
18.0
 40
19.0
 40
19.0
 40
19.0
 40
19.0
 10
100.3101562249225
 20
-125.162558291192
 30
0.0
 10
100.2150715895296
 20
-125.162558291192
 30
0.0
 10
99.99734155486178
 20
-125.141543208732
 30
0.0
 10
99.87262909829573
 20
-124.9555080525285
 30
0.0
 10
99.79821503581434
 20
-124.8431979397093
 30
0.0
 10
99.79408092123204
 20
-124.7439791897341
 30
0.0
 10
99.78994680664974
 20
-124.659229840797
 30
0.0
 10
99.78994680664974
 20
-124.659229840797
 30
0.0
 10
100.0097438986087
 20
-124.659229840797
 30
0.0
 10
100.0097438986087
 20
-124.659229840797
 30
0.0
 10
100.0118109558998
 20
-124.7332993937299
 30
0.0
 10
100.0228352614526
 20
-124.9679103962754
 30
0.0
 10
100.3060221103402
 20
-124.9679103962754
 30
0.0
 10
100.4438259297502
 20
-124.9679103962754
 30
0.0
 10
100.5960991501982
 20
-124.8983194674733
 30
0.0
 10
100.5960991501982
 20
-124.6699096368013
 30
0.0
 10
100.5960991501982
 20
-124.5534654093998
 30
0.0
 10
100.5578585903119
 20
-124.5048895630578
 30
0.0
 10
100.5261637118476
 20
-124.4731946845935
 30
0.0
 10
100.4520941589148
 20
-124.3991251316606
 30
0.0
 10
100.3356499315133
 20
-124.3863782783652
 30
0.0
 10
100.2805284037493
 20
-124.3863782783652
 30
0.0
 10
100.261924888129
 20
-124.3863782783652
 30
0.0
 10
100.2257513855338
 20
-124.3884453356564
 30
0.0
 10
100.1981906216518
 20
-124.3925794502387
 30
0.0
 10
100.1981906216518
 20
-124.3925794502387
 30
0.0
 10
100.1981906216518
 20
-124.1979315553221
 30
0.0
 10
100.1981906216518
 20
-124.1979315553221
 30
0.0
 10
100.2364311815381
 20
-124.204477236744
 30
0.0
 10
100.2784613464582
 20
-124.2065442940352
 30
0.0
 10
100.2850070278801
 20
-124.2065442940352
 30
0.0
 10
100.3504638420999
 20
-124.2065442940352
 30
0.0
 10
100.5492458515988
 20
-124.1851847020266
 30
0.0
 10
100.5492458515988
 20
-123.94850664219
 30
0.0
 10
100.5492458515988
 20
-123.7707397151511
 30
0.0
 10
100.4183322231593
 20
-123.7156181873871
 30
0.0
 10
100.3080891676313
 20
-123.7156181873871
 30
0.0
 10
100.0438503439127
 20
-123.7156181873871
 30
0.0
 10
100.0352376051995
 20
-123.94850664219
 30
0.0
 10
100.0311034906172
 20
-124.0201646282832
 30
0.0
 10
100.0311034906172
 20
-124.0201646282832
 30
0.0
 10
99.82784285698749
 20
-124.0201646282832
 30
0.0
 10
99.82784285698749
 20
-124.0201646282832
 30
0.0
 10
99.83645559570061
 20
-123.8954521717171
 30
0.0
 10
99.8640163595826
 20
-123.5189032351793
 30
0.0
 10
100.3208360209267
 20
-123.5189032351793
 30
0.0
 10
100.5451117370165
 20
-123.5189032351793
 30
0.0
 10
100.786268420984
 20
-123.646027258585
 30
0.0
 10
100.786268420984
 20
-123.941960960768
 30
0.0
 10
100.786268420984
 20
-124.12834062652
 30
0.0
 10
100.6911837855911
 20
-124.2106784086175
 30
0.0
 10
100.5916205260674
 20
-124.2720011082549
 30
0.0
 10
100.6532877352533
 20
-124.2995618721369
 30
0.0
 10
100.8351887768745
 20
-124.3798325969432
 30
0.0
 10
100.8351887768745
 20
-124.6571627835059
 30
0.0
 10
100.8351887768745
 20
-124.9954711601574
 30
0.0
 10
100.5874864114851
 20
-125.162558291192
 30
0.0
 10
100.3101562249225
 20
-125.162558291192
 30
0.0
  0
HATCH
  5
EE
330
E5
100
AcDbEntity
  8
_U+30EC_U+30A4_U+30E4_U+30FC 1
 62
   179
420
  2234388
100
AcDbHatch
 10
0.0
 20
0.0
 30
0.0
210
0.0
220
0.0
230
1.0
  2
SOLID
 70
     1
 71
     0
 91
        1
 92
        1
 93
        1
 72
     4
 94
        3
 73
     0
 74
     1
 95
       62
 96
       58
 40
0.0
 40
0.0
 40
0.0
 40
0.0
 40
1.0
 40
1.0
 40
1.0
 40
2.0
 40
2.0
 40
2.0
 40
3.0
 40
3.0
 40
3.0
 40
4.0
 40
4.0
 40
4.0
 40
5.0
 40
5.0
 40
5.0
 40
6.0
 40
6.0
 40
6.0
 40
7.0
 40
7.0
 40
7.0
 40
8.0
 40
8.0
 40
8.0
 40
9.0
 40
9.0
 40
9.0
 40
10.0
 40
10.0
 40
10.0
 40
11.0
 40
11.0
 40
11.0
 40
12.0
 40
12.0
 40
12.0
 40
13.0
 40
13.0
 40
13.0
 40
14.0
 40
14.0
 40
14.0
 40
15.0
 40
15.0
 40
15.0
 40
16.0
 40
16.0
 40
16.0
 40
17.0
 40
17.0
 40
17.0
 40
18.0
 40
18.0
 40
18.0
 40
19.0
 40
19.0
 40
19.0
 40
19.0
 10
100.3101562249225
 20
-125.162558291192
 10
100.2150715895296
 20
-125.162558291192
 10
99.99734155486178
 20
-125.141543208732
 10
99.87262909829573
 20
-124.9555080525285
 10
99.79821503581434
 20
-124.8431979397093
 10
99.79408092123204
 20
-124.7439791897341
 10
99.78994680664974
 20
-124.659229840797
 10
99.78994680664974
 20
-124.659229840797
 10
100.0097438986087
 20
-124.659229840797
 10
100.0097438986087
 20
-124.659229840797
 10
100.0118109558998
 20
-124.7332993937299
 10
100.0228352614526
 20
-124.9679103962754
 10
100.3060221103402
 20
-124.9679103962754
 10
100.4438259297502
 20
-124.9679103962754
 10
100.5960991501982
 20
-124.8983194674733
 10
100.5960991501982
 20
-124.6699096368013
 10
100.5960991501982
 20
-124.5534654093998
 10
100.5578585903119
 20
-124.5048895630578
 10
100.5261637118476
 20
-124.4731946845935
 10
100.4520941589148
 20
-124.3991251316606
 10
100.3356499315133
 20
-124.3863782783652
 10
100.2805284037493
 20
-124.3863782783652
 10
100.261924888129
 20
-124.3863782783652
 10
100.2257513855338
 20
-124.3884453356564
 10
100.1981906216518
 20
-124.3925794502387
 10
100.1981906216518
 20
-124.3925794502387
 10
100.1981906216518
 20
-124.1979315553221
 10
100.1981906216518
 20
-124.1979315553221
 10
100.2364311815381
 20
-124.204477236744
 10
100.2784613464582
 20
-124.2065442940352
 10
100.2850070278801
 20
-124.2065442940352
 10
100.3504638420999
 20
-124.2065442940352
 10
100.5492458515988
 20
-124.1851847020266
 10
100.5492458515988
 20
-123.94850664219
 10
100.5492458515988
 20
-123.7707397151511
 10
100.4183322231593
 20
-123.7156181873871
 10
100.3080891676313
 20
-123.7156181873871
 10
100.0438503439127
 20
-123.7156181873871
 10
100.0352376051995
 20
-123.94850664219
 10
100.0311034906172
 20
-124.0201646282832
 10
100.0311034906172
 20
-124.0201646282832
 10
99.82784285698749
 20
-124.0201646282832
 10
99.82784285698749
 20
-124.0201646282832
 10
99.83645559570061
 20
-123.8954521717171
 10
99.8640163595826
 20
-123.5189032351793
 10
100.3208360209267
 20
-123.5189032351793
 10
100.5451117370165
 20
-123.5189032351793
 10
100.786268420984
 20
-123.646027258585
 10
100.786268420984
 20
-123.941960960768
 10
100.786268420984
 20
-124.12834062652
 10
100.6911837855911
 20
-124.2106784086175
 10
100.5916205260674
 20
-124.2720011082549
 10
100.6532877352533
 20
-124.2995618721369
 10
100.8351887768745
 20
-124.3798325969432
 10
100.8351887768745
 20
-124.6571627835059
 10
100.8351887768745
 20
-124.9954711601574
 10
100.5874864114851
 20
-125.162558291192
 10
100.3101562249225
 20
-125.162558291192
 97
        0
 97
        0
 75
     2
 76
     1
 98
        0
  0
POLYLINE
  5
EF
330
E5
100
AcDbEntity
  8
_U+30EC_U+30A4_U+30E4_U+30FC 1
370
     0
100
AcDb2dPolyline
 66
     1
 10
0.0
 20
0.0
 30
0.0
  0
VERTEX
  5
F0
330
EF
100
AcDbEntity
  8
_U+30EC_U+30A4_U+30E4_U+30FC 1
370
     0
100
AcDbVertex
100
AcDb2dVertex
 10
101.0556748879305
 20
-125.1119153875588
 30
0.0
  0
VERTEX
  5
F1
330
EF
100
AcDbEntity
  8
_U+30EC_U+30A4_U+30E4_U+30FC 1
370
     0
100
AcDbVertex
100
AcDb2dVertex
 10
101.0556748879305
 20
-124.8600789075871
 30
0.0
  0
VERTEX
  5
F2
330
EF
100
AcDbEntity
  8
_U+30EC_U+30A4_U+30E4_U+30FC 1
370
     0
100
AcDbVertex
100
AcDb2dVertex
 10
101.3071668583538
 20
-124.8600789075871
 30
0.0
  0
VERTEX
  5
F3
330
EF
100
AcDbEntity
  8
_U+30EC_U+30A4_U+30E4_U+30FC 1
370
     0
100
AcDbVertex
100
AcDb2dVertex
 10
101.3071668583538
 20
-125.1119153875588
 30
0.0
  0
VERTEX
  5
F4
330
EF
100
AcDbEntity
  8
_U+30EC_U+30A4_U+30E4_U+30FC 1
370
     0
100
AcDbVertex
100
AcDb2dVertex
 10
101.0556748879305
 20
-125.1119153875588
 30
0.0
  0
SEQEND
  5
F5
330
EF
100
AcDbEntity
  8
_U+30EC_U+30A4_U+30E4_U+30FC 1
370
     0
  0
HATCH
  5
F6
330
E5
100
AcDbEntity
  8
_U+30EC_U+30A4_U+30E4_U+30FC 1
 62
   179
420
  2234388
100
AcDbHatch
 10
0.0
 20
0.0
 30
0.0
210
0.0
220
0.0
230
1.0
  2
SOLID
 70
     1
 71
     0
 91
        1
 92
        1
 93
        4
 72
     1
 10
101.0556748879305
 20
-125.1119153875588
 11
101.0556748879305
 21
-124.8600789075871
 72
     1
 10
101.0556748879305
 20
-124.8600789075871
 11
101.3071668583538
 21
-124.8600789075871
 72
     1
 10
101.3071668583538
 20
-124.8600789075871
 11
101.3071668583538
 21
-125.1119153875588
 72
     1
 10
101.3071668583538
 20
-125.1119153875588
 11
101.0556748879305
 21
-125.1119153875588
 97
        0
 75
     2
 76
     1
 98
        0
  0
SPLINE
  5
F7
330
E5
100
AcDbEntity
  8
_U+30EC_U+30A4_U+30E4_U+30FC 1
370
     0
100
AcDbSpline
210
0.0
220
0.0
230
1.0
 70
    11
 71
     3
 72
    62
 73
    58
 74
     0
 42
0.0000000001
 43
0.0000000001
 12
1.0
 22
0.0
 32
0.0
 13
1.0
 23
0.0
 33
0.0
 40
0.0
 40
0.0
 40
0.0
 40
0.0
 40
1.0
 40
1.0
 40
1.0
 40
2.0
 40
2.0
 40
2.0
 40
3.0
 40
3.0
 40
3.0
 40
4.0
 40
4.0
 40
4.0
 40
5.0
 40
5.0
 40
5.0
 40
6.0
 40
6.0
 40
6.0
 40
7.0
 40
7.0
 40
7.0
 40
8.0
 40
8.0
 40
8.0
 40
9.0
 40
9.0
 40
9.0
 40
10.0
 40
10.0
 40
10.0
 40
11.0
 40
11.0
 40
11.0
 40
12.0
 40
12.0
 40
12.0
 40
13.0
 40
13.0
 40
13.0
 40
14.0
 40
14.0
 40
14.0
 40
15.0
 40
15.0
 40
15.0
 40
16.0
 40
16.0
 40
16.0
 40
17.0
 40
17.0
 40
17.0
 40
18.0
 40
18.0
 40
18.0
 40
19.0
 40
19.0
 40
19.0
 40
19.0
 10
102.0354600439356
 20
-125.162558291192
 30
0.0
 10
101.9403754085427
 20
-125.162558291192
 30
0.0
 10
101.7223008643264
 20
-125.141543208732
 30
0.0
 10
101.5975884077603
 20
-124.9555080525285
 30
0.0
 10
101.5235188548275
 20
-124.8431979397093
 30
0.0
 10
101.5193847402452
 20
-124.7439791897341
 30
0.0
 10
101.5152506256629
 20
-124.659229840797
 30
0.0
 10
101.5152506256629
 20
-124.659229840797
 30
0.0
 10
101.7350477176218
 20
-124.659229840797
 30
0.0
 10
101.7350477176218
 20
-124.659229840797
 30
0.0
 10
101.737114774913
 20
-124.7332993937299
 30
0.0
 10
101.7477945709172
 20
-124.9679103962754
 30
0.0
 10
102.0313259293533
 20
-124.9679103962754
 30
0.0
 10
102.1687852392148
 20
-124.9679103962754
 30
0.0
 10
102.3210584596628
 20
-124.8983194674733
 30
0.0
 10
102.3210584596628
 20
-124.6699096368013
 30
0.0
 10
102.3210584596628
 20
-124.5534654093998
 30
0.0
 10
102.2828178997765
 20
-124.5048895630578
 30
0.0
 10
102.2511230213122
 20
-124.4731946845935
 30
0.0
 10
102.1773979779279
 20
-124.3991251316606
 30
0.0
 10
102.0609537505264
 20
-124.3863782783652
 30
0.0
 10
102.0058322227624
 20
-124.3863782783652
 30
0.0
 10
101.9868841975936
 20
-124.3863782783652
 30
0.0
 10
101.9507106949984
 20
-124.3884453356564
 30
0.0
 10
101.9231499311164
 20
-124.3925794502387
 30
0.0
 10
101.9231499311164
 20
-124.3925794502387
 30
0.0
 10
101.9231499311164
 20
-124.1979315553221
 30
0.0
 10
101.9231499311164
 20
-124.1979315553221
 30
0.0
 10
101.9613904910027
 20
-124.204477236744
 30
0.0
 10
102.0037651654713
 20
-124.2065442940352
 30
0.0
 10
102.0099663373447
 20
-124.2065442940352
 30
0.0
 10
102.0754231515645
 20
-124.2065442940352
 30
0.0
 10
102.2745496706119
 20
-124.1851847020266
 30
0.0
 10
102.2745496706119
 20
-123.94850664219
 30
0.0
 10
102.2745496706119
 20
-123.7707397151511
 30
0.0
 10
102.1432915326239
 20
-123.7156181873871
 30
0.0
 10
102.0333929866444
 20
-123.7156181873871
 30
0.0
 10
101.7688096533772
 20
-123.7156181873871
 30
0.0
 10
101.7605414242126
 20
-123.94850664219
 30
0.0
 10
101.7564073096303
 20
-124.0201646282832
 30
0.0
 10
101.7564073096303
 20
-124.0201646282832
 30
0.0
 10
101.5531466760006
 20
-124.0201646282832
 30
0.0
 10
101.5531466760006
 20
-124.0201646282832
 30
0.0
 10
101.5614149051652
 20
-123.8954521717171
 30
0.0
 10
101.5889756690472
 20
-123.5189032351793
 30
0.0
 10
102.0457953303913
 20
-123.5189032351793
 30
0.0
 10
102.2704155560296
 20
-123.5189032351793
 30
0.0
 10
102.5115722399971
 20
-123.646027258585
 30
0.0
 10
102.5115722399971
 20
-123.941960960768
 30
0.0
 10
102.5115722399971
 20
-124.12834062652
 30
0.0
 10
102.4164876046042
 20
-124.2106784086175
 30
0.0
 10
102.316579835532
 20
-124.2720011082549
 30
0.0
 10
102.3782470447179
 20
-124.2995618721369
 30
0.0
 10
102.5601480863391
 20
-124.3798325969432
 30
0.0
 10
102.5601480863391
 20
-124.6571627835059
 30
0.0
 10
102.5601480863391
 20
-124.9954711601574
 30
0.0
 10
102.3124457209497
 20
-125.162558291192
 30
0.0
 10
102.0354600439356
 20
-125.162558291192
 30
0.0
  0
HATCH
  5
F8
330
E5
100
AcDbEntity
  8
_U+30EC_U+30A4_U+30E4_U+30FC 1
 62
   179
420
  2234388
100
AcDbHatch
 10
0.0
 20
0.0
 30
0.0
210
0.0
220
0.0
230
1.0
  2
SOLID
 70
     1
 71
     0
 91
        1
 92
        1
 93
        1
 72
     4
 94
        3
 73
     0
 74
     1
 95
       62
 96
       58
 40
0.0
 40
0.0
 40
0.0
 40
0.0
 40
1.0
 40
1.0
 40
1.0
 40
2.0
 40
2.0
 40
2.0
 40
3.0
 40
3.0
 40
3.0
 40
4.0
 40
4.0
 40
4.0
 40
5.0
 40
5.0
 40
5.0
 40
6.0
 40
6.0
 40
6.0
 40
7.0
 40
7.0
 40
7.0
 40
8.0
 40
8.0
 40
8.0
 40
9.0
 40
9.0
 40
9.0
 40
10.0
 40
10.0
 40
10.0
 40
11.0
 40
11.0
 40
11.0
 40
12.0
 40
12.0
 40
12.0
 40
13.0
 40
13.0
 40
13.0
 40
14.0
 40
14.0
 40
14.0
 40
15.0
 40
15.0
 40
15.0
 40
16.0
 40
16.0
 40
16.0
 40
17.0
 40
17.0
 40
17.0
 40
18.0
 40
18.0
 40
18.0
 40
19.0
 40
19.0
 40
19.0
 40
19.0
 10
102.0354600439356
 20
-125.162558291192
 10
101.9403754085427
 20
-125.162558291192
 10
101.7223008643264
 20
-125.141543208732
 10
101.5975884077603
 20
-124.9555080525285
 10
101.5235188548275
 20
-124.8431979397093
 10
101.5193847402452
 20
-124.7439791897341
 10
101.5152506256629
 20
-124.659229840797
 10
101.5152506256629
 20
-124.659229840797
 10
101.7350477176218
 20
-124.659229840797
 10
101.7350477176218
 20
-124.659229840797
 10
101.737114774913
 20
-124.7332993937299
 10
101.7477945709172
 20
-124.9679103962754
 10
102.0313259293533
 20
-124.9679103962754
 10
102.1687852392148
 20
-124.9679103962754
 10
102.3210584596628
 20
-124.8983194674733
 10
102.3210584596628
 20
-124.6699096368013
 10
102.3210584596628
 20
-124.5534654093998
 10
102.2828178997765
 20
-124.5048895630578
 10
102.2511230213122
 20
-124.4731946845935
 10
102.1773979779279
 20
-124.3991251316606
 10
102.0609537505264
 20
-124.3863782783652
 10
102.0058322227624
 20
-124.3863782783652
 10
101.9868841975936
 20
-124.3863782783652
 10
101.9507106949984
 20
-124.3884453356564
 10
101.9231499311164
 20
-124.3925794502387
 10
101.9231499311164
 20
-124.3925794502387
 10
101.9231499311164
 20
-124.1979315553221
 10
101.9231499311164
 20
-124.1979315553221
 10
101.9613904910027
 20
-124.204477236744
 10
102.0037651654713
 20
-124.2065442940352
 10
102.0099663373447
 20
-124.2065442940352
 10
102.0754231515645
 20
-124.2065442940352
 10
102.2745496706119
 20
-124.1851847020266
 10
102.2745496706119
 20
-123.94850664219
 10
102.2745496706119
 20
-123.7707397151511
 10
102.1432915326239
 20
-123.7156181873871
 10
102.0333929866444
 20
-123.7156181873871
 10
101.7688096533772
 20
-123.7156181873871
 10
101.7605414242126
 20
-123.94850664219
 10
101.7564073096303
 20
-124.0201646282832
 10
101.7564073096303
 20
-124.0201646282832
 10
101.5531466760006
 20
-124.0201646282832
 10
101.5531466760006
 20
-124.0201646282832
 10
101.5614149051652
 20
-123.8954521717171
 10
101.5889756690472
 20
-123.5189032351793
 10
102.0457953303913
 20
-123.5189032351793
 10
102.2704155560296
 20
-123.5189032351793
 10
102.5115722399971
 20
-123.646027258585
 10
102.5115722399971
 20
-123.941960960768
 10
102.5115722399971
 20
-124.12834062652
 10
102.4164876046042
 20
-124.2106784086175
 10
102.316579835532
 20
-124.2720011082549
 10
102.3782470447179
 20
-124.2995618721369
 10
102.5601480863391
 20
-124.3798325969432
 10
102.5601480863391
 20
-124.6571627835059
 10
102.5601480863391
 20
-124.9954711601574
 10
102.3124457209497
 20
-125.162558291192
 10
102.0354600439356
 20
-125.162558291192
 97
        0
 97
        0
 75
     2
 76
     1
 98
        0
  0
ENDBLK
  5
E8
330
E5
100
AcDbEntity
  8
0
100
AcDbBlockEnd
  0
BLOCK
  5
FD
330
FB
100
AcDbEntity
  8
0
100
AcDbBlockBegin
  2
block 10
 70
     0
 10
0.0
 20
0.0
 30
0.0
  3
block 10
  1

  0
INSERT
  5
100
330
FB
100
AcDbEntity
  8
_U+30EC_U+30A4_U+30E4_U+30FC 1
100
AcDbBlockReference
  2
block 11
 10
0.0
 20
0.0
 30
0.0
  0
INSERT
  5
184
330
FB
100
AcDbEntity
  8
_U+30EC_U+30A4_U+30E4_U+30FC 1
100
AcDbBlockReference
  2
block 17
 10
0.0
 20
0.0
 30
0.0
  0
ENDBLK
  5
FE
330
FB
100
AcDbEntity
  8
0
100
AcDbBlockEnd
  0
BLOCK
  5
101
330
FF
100
AcDbEntity
  8
0
100
AcDbBlockBegin
  2
block 11
 70
     0
 10
0.0
 20
0.0
 30
0.0
  3
block 11
  1

  0
INSERT
  5
104
330
FF
100
AcDbEntity
  8
_U+30EC_U+30A4_U+30E4_U+30FC 1
100
AcDbBlockReference
  2
block 12
 10
0.0
 20
0.0
 30
0.0
  0
INSERT
  5
120
330
FF
100
AcDbEntity
  8
_U+30EC_U+30A4_U+30E4_U+30FC 1
100
AcDbBlockReference
  2
block 14
 10
0.0
 20
0.0
 30
0.0
  0
ENDBLK
  5
102
330
FF
100
AcDbEntity
  8
0
100
AcDbBlockEnd
  0
BLOCK
  5
105
330
103
100
AcDbEntity
  8
0
100
AcDbBlockBegin
  2
block 12
 70
     0
 10
0.0
 20
0.0
 30
0.0
  3
block 12
  1

  0
INSERT
  5
108
330
103
100
AcDbEntity
  8
_U+30EC_U+30A4_U+30E4_U+30FC 1
100
AcDbBlockReference
  2
block 13
 10
0.0
 20
0.0
 30
0.0
  0
ENDBLK
  5
106
330
103
100
AcDbEntity
  8
0
100
AcDbBlockEnd
  0
BLOCK
  5
109
330
107
100
AcDbEntity
  8
0
100
AcDbBlockBegin
  2
block 13
 70
     0
 10
0.0
 20
0.0
 30
0.0
  3
block 13
  1

  0
POLYLINE
  5
10B
330
107
100
AcDbEntity
  8
_U+30EC_U+30A4_U+30E4_U+30FC 1
 62
   179
420
  2234388
370
    25
100
AcDb2dPolyline
 66
     1
 10
0.0
 20
0.0
 30
0.0
  0
VERTEX
  5
10C
330
10B
100
AcDbEntity
  8
_U+30EC_U+30A4_U+30E4_U+30FC 1
 62
   179
420
  2234388
370
    25
100
AcDbVertex
100
AcDb2dVertex
 10
67.05638634480462
 20
-133.0475283000712
 30
0.0
  0
VERTEX
  5
10D
330
10B
100
AcDbEntity
  8
_U+30EC_U+30A4_U+30E4_U+30FC 1
 62
   179
420
  2234388
370
    25
100
AcDbVertex
100
AcDb2dVertex
 10
67.45668327903664
 20
-133.5477319110574
 30
0.0
  0
SEQEND
  5
10E
330
10B
100
AcDbEntity
  8
_U+30EC_U+30A4_U+30E4_U+30FC 1
 62
   179
420
  2234388
370
    25
  0
POLYLINE
  5
10F
330
107
100
AcDbEntity
  8
_U+30EC_U+30A4_U+30E4_U+30FC 1
 62
   179
420
  2234388
370
    25
100
AcDb2dPolyline
 66
     1
 10
0.0
 20
0.0
 30
0.0
  0
VERTEX
  5
110
330
10F
100
AcDbEntity
  8
_U+30EC_U+30A4_U+30E4_U+30FC 1
 62
   179
420
  2234388
370
    25
100
AcDbVertex
100
AcDb2dVertex
 10
67.45668327903664
 20
-133.5477319110574
 30
0.0
  0
VERTEX
  5
111
330
10F
100
AcDbEntity
  8
_U+30EC_U+30A4_U+30E4_U+30FC 1
 62
   179
420
  2234388
370
    25
100
AcDbVertex
100
AcDb2dVertex
 10
67.05638634480462
 20
-134.0479707998211
 30
0.0
  0
SEQEND
  5
112
330
10F
100
AcDbEntity
  8
_U+30EC_U+30A4_U+30E4_U+30FC 1
 62
   179
420
  2234388
370
    25
  0
POLYLINE
  5
113
330
107
100
AcDbEntity
  8
_U+30EC_U+30A4_U+30E4_U+30FC 1
 62
   179
420
  2234388
370
    25
100
AcDb2dPolyline
 66
     1
 10
0.0
 20
0.0
 30
0.0
  0
VERTEX
  5
114
330
113
100
AcDbEntity
  8
_U+30EC_U+30A4_U+30E4_U+30FC 1
 62
   179
420
  2234388
370
    25
100
AcDbVertex
100
AcDb2dVertex
 10
67.05705831656894
 20
-135.0477430217936
 30
0.0
  0
VERTEX
  5
115
330
113
100
AcDbEntity
  8
_U+30EC_U+30A4_U+30E4_U+30FC 1
 62
   179
420
  2234388
370
    25
100
AcDbVertex
100
AcDb2dVertex
 10
67.45668327903664
 20
-135.5479819105573
 30
0.0
  0
SEQEND
  5
116
330
113
100
AcDbEntity
  8
_U+30EC_U+30A4_U+30E4_U+30FC 1
 62
   179
420
  2234388
370
    25
  0
POLYLINE
  5
117
330
107
100
AcDbEntity
  8
_U+30EC_U+30A4_U+30E4_U+30FC 1
 62
   179
420
  2234388
370
    25
100
AcDb2dPolyline
 66
     1
 10
0.0
 20
0.0
 30
0.0
  0
VERTEX
  5
118
330
117
100
AcDbEntity
  8
_U+30EC_U+30A4_U+30E4_U+30FC 1
 62
   179
420
  2234388
370
    25
100
AcDbVertex
100
AcDb2dVertex
 10
67.05638634480462
 20
-134.0479707998211
 30
0.0
  0
VERTEX
  5
119
330
117
100
AcDbEntity
  8
_U+30EC_U+30A4_U+30E4_U+30FC 1
 62
   179
420
  2234388
370
    25
100
AcDbVertex
100
AcDb2dVertex
 10
67.45668327903664
 20
-134.5482096885854
 30
0.0
  0
SEQEND
  5
11A
330
117
100
AcDbEntity
  8
_U+30EC_U+30A4_U+30E4_U+30FC 1
 62
   179
420
  2234388
370
    25
  0
POLYLINE
  5
11B
330
107
100
AcDbEntity
  8
_U+30EC_U+30A4_U+30E4_U+30FC 1
 62
   179
420
  2234388
370
    25
100
AcDb2dPolyline
 66
     1
 10
0.0
 20
0.0
 30
0.0
  0
VERTEX
  5
11C
330
11B
100
AcDbEntity
  8
_U+30EC_U+30A4_U+30E4_U+30FC 1
 62
   179
420
  2234388
370
    25
100
AcDbVertex
100
AcDb2dVertex
 10
67.45668327903664
 20
-134.5482096885854
 30
0.0
  0
VERTEX
  5
11D
330
11B
100
AcDbEntity
  8
_U+30EC_U+30A4_U+30E4_U+30FC 1
 62
   179
420
  2234388
370
    25
100
AcDbVertex
100
AcDb2dVertex
 10
67.05705831656894
 20
-135.0477430217936
 30
0.0
  0
SEQEND
  5
11E
330
11B
100
AcDbEntity
  8
_U+30EC_U+30A4_U+30E4_U+30FC 1
 62
   179
420
  2234388
370
    25
  0
ENDBLK
  5
10A
330
107
100
AcDbEntity
  8
0
100
AcDbBlockEnd
  0
BLOCK
  5
121
330
11F
100
AcDbEntity
  8
0
100
AcDbBlockBegin
  2
block 14
 70
     0
 10
0.0
 20
0.0
 30
0.0
  3
block 14
  1

  0
INSERT
  5
124
330
11F
100
AcDbEntity
  8
_U+30EC_U+30A4_U+30E4_U+30FC 1
100
AcDbBlockReference
  2
block 15
 10
0.0
 20
0.0
 30
0.0
  0
INSERT
  5
158
330
11F
100
AcDbEntity
  8
_U+30EC_U+30A4_U+30E4_U+30FC 1
100
AcDbBlockReference
  2
block 16
 10
0.0
 20
0.0
 30
0.0
  0
ENDBLK
  5
122
330
11F
100
AcDbEntity
  8
0
100
AcDbBlockEnd
  0
BLOCK
  5
125
330
123
100
AcDbEntity
  8
0
100
AcDbBlockBegin
  2
block 15
 70
     0
 10
0.0
 20
0.0
 30
0.0
  3
block 15
  1

  0
POLYLINE
  5
127
330
123
100
AcDbEntity
  8
_U+30EC_U+30A4_U+30E4_U+30FC 1
 62
   179
420
  2234388
370
    25
100
AcDb2dPolyline
 66
     1
 10
0.0
 20
0.0
 30
0.0
  0
VERTEX
  5
128
330
127
100
AcDbEntity
  8
_U+30EC_U+30A4_U+30E4_U+30FC 1
 62
   179
420
  2234388
370
    25
100
AcDbVertex
100
AcDb2dVertex
 10
67.05807967809474
 20
-126.0470766351551
 30
0.0
  0
VERTEX
  5
129
330
127
100
AcDbEntity
  8
_U+30EC_U+30A4_U+30E4_U+30FC 1
 62
   179
420
  2234388
370
    25
100
AcDbVertex
100
AcDb2dVertex
 10
67.45841189010365
 20
-126.5473155239188
 30
0.0
  0
SEQEND
  5
12A
330
127
100
AcDbEntity
  8
_U+30EC_U+30A4_U+30E4_U+30FC 1
 62
   179
420
  2234388
370
    25
  0
POLYLINE
  5
12B
330
123
100
AcDbEntity
  8
_U+30EC_U+30A4_U+30E4_U+30FC 1
 62
   179
420
  2234388
370
    25
100
AcDb2dPolyline
 66
     1
 10
0.0
 20
0.0
 30
0.0
  0
VERTEX
  5
12C
330
12B
100
AcDbEntity
  8
_U+30EC_U+30A4_U+30E4_U+30FC 1
 62
   179
420
  2234388
370
    25
100
AcDbVertex
100
AcDb2dVertex
 10
67.45805911233487
 20
-125.547896079724
 30
0.0
  0
VERTEX
  5
12D
330
12B
100
AcDbEntity
  8
_U+30EC_U+30A4_U+30E4_U+30FC 1
 62
   179
420
  2234388
370
    25
100
AcDbVertex
100
AcDb2dVertex
 10
67.05807967809474
 20
-126.0470766351551
 30
0.0
  0
SEQEND
  5
12E
330
12B
100
AcDbEntity
  8
_U+30EC_U+30A4_U+30E4_U+30FC 1
 62
   179
420
  2234388
370
    25
  0
POLYLINE
  5
12F
330
123
100
AcDbEntity
  8
_U+30EC_U+30A4_U+30E4_U+30FC 1
 62
   179
420
  2234388
370
    25
100
AcDb2dPolyline
 66
     1
 10
0.0
 20
0.0
 30
0.0
  0
VERTEX
  5
130
330
12F
100
AcDbEntity
  8
_U+30EC_U+30A4_U+30E4_U+30FC 1
 62
   179
420
  2234388
370
    25
100
AcDbVertex
100
AcDb2dVertex
 10
67.45805911233487
 20
-124.5471008021967
 30
0.0
  0
VERTEX
  5
131
330
12F
100
AcDbEntity
  8
_U+30EC_U+30A4_U+30E4_U+30FC 1
 62
   179
420
  2234388
370
    25
100
AcDbVertex
100
AcDb2dVertex
 10
67.05807967809474
 20
-125.0480099687381
 30
0.0
  0
SEQEND
  5
132
330
12F
100
AcDbEntity
  8
_U+30EC_U+30A4_U+30E4_U+30FC 1
 62
   179
420
  2234388
370
    25
  0
POLYLINE
  5
133
330
123
100
AcDbEntity
  8
_U+30EC_U+30A4_U+30E4_U+30FC 1
 62
   179
420
  2234388
370
    25
100
AcDb2dPolyline
 66
     1
 10
0.0
 20
0.0
 30
0.0
  0
VERTEX
  5
134
330
133
100
AcDbEntity
  8
_U+30EC_U+30A4_U+30E4_U+30FC 1
 62
   179
420
  2234388
370
    25
100
AcDbVertex
100
AcDb2dVertex
 10
67.45841189010365
 20
-126.5473155239188
 30
0.0
  0
VERTEX
  5
135
330
133
100
AcDbEntity
  8
_U+30EC_U+30A4_U+30E4_U+30FC 1
 62
   179
420
  2234388
370
    25
100
AcDbVertex
100
AcDb2dVertex
 10
67.0587852336323
 20
-127.0478719126824
 30
0.0
  0
SEQEND
  5
136
330
133
100
AcDbEntity
  8
_U+30EC_U+30A4_U+30E4_U+30FC 1
 62
   179
420
  2234388
370
    25
  0
POLYLINE
  5
137
330
123
100
AcDbEntity
  8
_U+30EC_U+30A4_U+30E4_U+30FC 1
 62
   179
420
  2234388
370
    25
100
AcDb2dPolyline
 66
     1
 10
0.0
 20
0.0
 30
0.0
  0
VERTEX
  5
138
330
137
100
AcDbEntity
  8
_U+30EC_U+30A4_U+30E4_U+30FC 1
 62
   179
420
  2234388
370
    25
100
AcDbVertex
100
AcDb2dVertex
 10
67.05807967809474
 20
-125.0480099687381
 30
0.0
  0
VERTEX
  5
139
330
137
100
AcDbEntity
  8
_U+30EC_U+30A4_U+30E4_U+30FC 1
 62
   179
420
  2234388
370
    25
100
AcDbVertex
100
AcDb2dVertex
 10
67.45805911233487
 20
-125.547896079724
 30
0.0
  0
SEQEND
  5
13A
330
137
100
AcDbEntity
  8
_U+30EC_U+30A4_U+30E4_U+30FC 1
 62
   179
420
  2234388
370
    25
  0
POLYLINE
  5
13B
330
123
100
AcDbEntity
  8
_U+30EC_U+30A4_U+30E4_U+30FC 1
 62
   179
420
  2234388
370
    25
100
AcDb2dPolyline
 66
     1
 10
0.0
 20
0.0
 30
0.0
  0
VERTEX
  5
13C
330
13B
100
AcDbEntity
  8
_U+30EC_U+30A4_U+30E4_U+30FC 1
 62
   179
420
  2234388
370
    25
100
AcDbVertex
100
AcDb2dVertex
 10
67.05807967809474
 20
-124.0475674689881
 30
0.0
  0
VERTEX
  5
13D
330
13B
100
AcDbEntity
  8
_U+30EC_U+30A4_U+30E4_U+30FC 1
 62
   179
420
  2234388
370
    25
100
AcDbVertex
100
AcDb2dVertex
 10
67.45805911233487
 20
-124.5471008021967
 30
0.0
  0
SEQEND
  5
13E
330
13B
100
AcDbEntity
  8
_U+30EC_U+30A4_U+30E4_U+30FC 1
 62
   179
420
  2234388
370
    25
  0
POLYLINE
  5
13F
330
123
100
AcDbEntity
  8
_U+30EC_U+30A4_U+30E4_U+30FC 1
 62
   179
420
  2234388
370
    25
100
AcDb2dPolyline
 66
     1
 10
0.0
 20
0.0
 30
0.0
  0
VERTEX
  5
140
330
13F
100
AcDbEntity
  8
_U+30EC_U+30A4_U+30E4_U+30FC 1
 62
   179
420
  2234388
370
    25
100
AcDbVertex
100
AcDb2dVertex
 10
67.05776387212447
 20
-123.0477952470159
 30
0.0
  0
VERTEX
  5
141
330
13F
100
AcDbEntity
  8
_U+30EC_U+30A4_U+30E4_U+30FC 1
 62
   179
420
  2234388
370
    25
100
AcDbVertex
100
AcDb2dVertex
 10
67.45774161234297
 20
-123.5473285802244
 30
0.0
  0
SEQEND
  5
142
330
13F
100
AcDbEntity
  8
_U+30EC_U+30A4_U+30E4_U+30FC 1
 62
   179
420
  2234388
370
    25
  0
POLYLINE
  5
143
330
123
100
AcDbEntity
  8
_U+30EC_U+30A4_U+30E4_U+30FC 1
 62
   179
420
  2234388
370
    25
100
AcDb2dPolyline
 66
     1
 10
0.0
 20
0.0
 30
0.0
  0
VERTEX
  5
144
330
143
100
AcDbEntity
  8
_U+30EC_U+30A4_U+30E4_U+30FC 1
 62
   179
420
  2234388
370
    25
100
AcDbVertex
100
AcDb2dVertex
 10
67.45774161234297
 20
-123.5473285802244
 30
0.0
  0
VERTEX
  5
145
330
143
100
AcDbEntity
  8
_U+30EC_U+30A4_U+30E4_U+30FC 1
 62
   179
420
  2234388
370
    25
100
AcDbVertex
100
AcDb2dVertex
 10
67.05807967809474
 20
-124.0475674689881
 30
0.0
  0
SEQEND
  5
146
330
143
100
AcDbEntity
  8
_U+30EC_U+30A4_U+30E4_U+30FC 1
 62
   179
420
  2234388
370
    25
  0
POLYLINE
  5
147
330
123
100
AcDbEntity
  8
_U+30EC_U+30A4_U+30E4_U+30FC 1
 62
   179
420
  2234388
370
    25
100
AcDb2dPolyline
 66
     1
 10
0.0
 20
0.0
 30
0.0
  0
VERTEX
  5
148
330
147
100
AcDbEntity
  8
_U+30EC_U+30A4_U+30E4_U+30FC 1
 62
   179
420
  2234388
370
    25
100
AcDbVertex
100
AcDb2dVertex
 10
67.45774161234297
 20
-122.5475563582519
 30
0.0
  0
VERTEX
  5
149
330
147
100
AcDbEntity
  8
_U+30EC_U+30A4_U+30E4_U+30FC 1
 62
   179
420
  2234388
370
    25
100
AcDbVertex
100
AcDb2dVertex
 10
67.05776387212447
 20
-123.0477952470159
 30
0.0
  0
SEQEND
  5
14A
330
147
100
AcDbEntity
  8
_U+30EC_U+30A4_U+30E4_U+30FC 1
 62
   179
420
  2234388
370
    25
  0
POLYLINE
  5
14B
330
123
100
AcDbEntity
  8
_U+30EC_U+30A4_U+30E4_U+30FC 1
 62
   179
420
  2234388
370
    25
100
AcDb2dPolyline
 66
     1
 10
0.0
 20
0.0
 30
0.0
  0
VERTEX
  5
14C
330
14B
100
AcDbEntity
  8
_U+30EC_U+30A4_U+30E4_U+30FC 1
 62
   179
420
  2234388
370
    25
100
AcDbVertex
100
AcDb2dVertex
 10
67.27270967261909
 20
-121.6790527473582
 30
0.0
  0
VERTEX
  5
14D
330
14B
100
AcDbEntity
  8
_U+30EC_U+30A4_U+30E4_U+30FC 1
 62
   179
420
  2234388
370
    25
100
AcDbVertex
100
AcDb2dVertex
 10
67.45774161234297
 20
-122.5475563582519
 30
0.0
  0
SEQEND
  5
14E
330
14B
100
AcDbEntity
  8
_U+30EC_U+30A4_U+30E4_U+30FC 1
 62
   179
420
  2234388
370
    25
  0
POLYLINE
  5
14F
330
123
100
AcDbEntity
  8
_U+30EC_U+30A4_U+30E4_U+30FC 1
 62
   179
420
  2234388
370
    25
100
AcDb2dPolyline
 66
     1
 10
0.0
 20
0.0
 30
0.0
  0
VERTEX
  5
150
330
14F
100
AcDbEntity
  8
_U+30EC_U+30A4_U+30E4_U+30FC 1
 62
   179
420
  2234388
370
    25
100
AcDbVertex
100
AcDb2dVertex
 10
67.0587852336323
 20
-127.0478719126824
 30
0.0
  0
VERTEX
  5
151
330
14F
100
AcDbEntity
  8
_U+30EC_U+30A4_U+30E4_U+30FC 1
 62
   179
420
  2234388
370
    25
100
AcDbVertex
100
AcDb2dVertex
 10
67.4591174456412
 20
-127.5477580236687
 30
0.0
  0
SEQEND
  5
152
330
14F
100
AcDbEntity
  8
_U+30EC_U+30A4_U+30E4_U+30FC 1
 62
   179
420
  2234388
370
    25
  0
POLYLINE
  5
153
330
123
100
AcDbEntity
  8
_U+30EC_U+30A4_U+30E4_U+30FC 1
 62
   179
420
  2234388
370
    25
100
AcDb2dPolyline
 66
     1
 10
0.0
 20
0.0
 30
0.0
  0
VERTEX
  5
154
330
153
100
AcDbEntity
  8
_U+30EC_U+30A4_U+30E4_U+30FC 1
 62
   179
420
  2234388
370
    25
100
AcDbVertex
100
AcDb2dVertex
 10
67.4591174456412
 20
-127.5477580236687
 30
0.0
  0
VERTEX
  5
155
330
153
100
AcDbEntity
  8
_U+30EC_U+30A4_U+30E4_U+30FC 1
 62
   179
420
  2234388
370
    25
100
AcDbVertex
100
AcDb2dVertex
 10
67.0587852336323
 20
-128.0476441346546
 30
0.0
  0
SEQEND
  5
156
330
153
100
AcDbEntity
  8
_U+30EC_U+30A4_U+30E4_U+30FC 1
 62
   179
420
  2234388
370
    25
  0
ENDBLK
  5
126
330
123
100
AcDbEntity
  8
0
100
AcDbBlockEnd
  0
BLOCK
  5
159
330
157
100
AcDbEntity
  8
0
100
AcDbBlockBegin
  2
block 16
 70
     0
 10
0.0
 20
0.0
 30
0.0
  3
block 16
  1

  0
POLYLINE
  5
15B
330
157
100
AcDbEntity
  8
_U+30EC_U+30A4_U+30E4_U+30FC 1
 62
   179
420
  2234388
370
    25
100
AcDb2dPolyline
 66
     1
 10
0.0
 20
0.0
 30
0.0
  0
VERTEX
  5
15C
330
15B
100
AcDbEntity
  8
_U+30EC_U+30A4_U+30E4_U+30FC 1
 62
   179
420
  2234388
370
    25
100
AcDbVertex
100
AcDb2dVertex
 10
67.05638634480462
 20
-129.0477691344049
 30
0.0
  0
VERTEX
  5
15D
330
15B
100
AcDbEntity
  8
_U+30EC_U+30A4_U+30E4_U+30FC 1
 62
   179
420
  2234388
370
    25
100
AcDbVertex
100
AcDb2dVertex
 10
67.45668327903664
 20
-129.5473024676131
 30
0.0
  0
SEQEND
  5
15E
330
15B
100
AcDbEntity
  8
_U+30EC_U+30A4_U+30E4_U+30FC 1
 62
   179
420
  2234388
370
    25
  0
POLYLINE
  5
15F
330
157
100
AcDbEntity
  8
_U+30EC_U+30A4_U+30E4_U+30FC 1
 62
   179
420
  2234388
370
    25
100
AcDb2dPolyline
 66
     1
 10
0.0
 20
0.0
 30
0.0
  0
VERTEX
  5
160
330
15F
100
AcDbEntity
  8
_U+30EC_U+30A4_U+30E4_U+30FC 1
 62
   179
420
  2234388
370
    25
100
AcDbVertex
100
AcDb2dVertex
 10
67.45668327903664
 20
-129.5473024676131
 30
0.0
  0
VERTEX
  5
161
330
15F
100
AcDbEntity
  8
_U+30EC_U+30A4_U+30E4_U+30FC 1
 62
   179
420
  2234388
370
    25
100
AcDbVertex
100
AcDb2dVertex
 10
67.05638634480462
 20
-130.0475413563768
 30
0.0
  0
SEQEND
  5
162
330
15F
100
AcDbEntity
  8
_U+30EC_U+30A4_U+30E4_U+30FC 1
 62
   179
420
  2234388
370
    25
  0
POLYLINE
  5
163
330
157
100
AcDbEntity
  8
_U+30EC_U+30A4_U+30E4_U+30FC 1
 62
   179
420
  2234388
370
    25
100
AcDb2dPolyline
 66
     1
 10
0.0
 20
0.0
 30
0.0
  0
VERTEX
  5
164
330
163
100
AcDbEntity
  8
_U+30EC_U+30A4_U+30E4_U+30FC 1
 62
   179
420
  2234388
370
    25
100
AcDbVertex
100
AcDb2dVertex
 10
67.45633050126786
 20
-128.5475302456409
 30
0.0
  0
VERTEX
  5
165
330
163
100
AcDbEntity
  8
_U+30EC_U+30A4_U+30E4_U+30FC 1
 62
   179
420
  2234388
370
    25
100
AcDbVertex
100
AcDb2dVertex
 10
67.05638634480462
 20
-129.0477691344049
 30
0.0
  0
SEQEND
  5
166
330
163
100
AcDbEntity
  8
_U+30EC_U+30A4_U+30E4_U+30FC 1
 62
   179
420
  2234388
370
    25
  0
POLYLINE
  5
167
330
157
100
AcDbEntity
  8
_U+30EC_U+30A4_U+30E4_U+30FC 1
 62
   179
420
  2234388
370
    25
100
AcDb2dPolyline
 66
     1
 10
0.0
 20
0.0
 30
0.0
  0
VERTEX
  5
168
330
167
100
AcDbEntity
  8
_U+30EC_U+30A4_U+30E4_U+30FC 1
 62
   179
420
  2234388
370
    25
100
AcDbVertex
100
AcDb2dVertex
 10
67.05705831656894
 20
-132.0477560780993
 30
0.0
  0
VERTEX
  5
169
330
167
100
AcDbEntity
  8
_U+30EC_U+30A4_U+30E4_U+30FC 1
 62
   179
420
  2234388
370
    25
100
AcDbVertex
100
AcDb2dVertex
 10
67.4570360568054
 20
-132.547994966863
 30
0.0
  0
SEQEND
  5
16A
330
167
100
AcDbEntity
  8
_U+30EC_U+30A4_U+30E4_U+30FC 1
 62
   179
420
  2234388
370
    25
  0
POLYLINE
  5
16B
330
157
100
AcDbEntity
  8
_U+30EC_U+30A4_U+30E4_U+30FC 1
 62
   179
420
  2234388
370
    25
100
AcDb2dPolyline
 66
     1
 10
0.0
 20
0.0
 30
0.0
  0
VERTEX
  5
16C
330
16B
100
AcDbEntity
  8
_U+30EC_U+30A4_U+30E4_U+30FC 1
 62
   179
420
  2234388
370
    25
100
AcDbVertex
100
AcDb2dVertex
 10
67.05705831656894
 20
-131.0473135783494
 30
0.0
  0
VERTEX
  5
16D
330
16B
100
AcDbEntity
  8
_U+30EC_U+30A4_U+30E4_U+30FC 1
 62
   179
420
  2234388
370
    25
100
AcDbVertex
100
AcDb2dVertex
 10
67.45668327903664
 20
-131.5475171893356
 30
0.0
  0
SEQEND
  5
16E
330
16B
100
AcDbEntity
  8
_U+30EC_U+30A4_U+30E4_U+30FC 1
 62
   179
420
  2234388
370
    25
  0
POLYLINE
  5
16F
330
157
100
AcDbEntity
  8
_U+30EC_U+30A4_U+30E4_U+30FC 1
 62
   179
420
  2234388
370
    25
100
AcDb2dPolyline
 66
     1
 10
0.0
 20
0.0
 30
0.0
  0
VERTEX
  5
170
330
16F
100
AcDbEntity
  8
_U+30EC_U+30A4_U+30E4_U+30FC 1
 62
   179
420
  2234388
370
    25
100
AcDbVertex
100
AcDb2dVertex
 10
67.45668327903664
 20
-131.5475171893356
 30
0.0
  0
VERTEX
  5
171
330
16F
100
AcDbEntity
  8
_U+30EC_U+30A4_U+30E4_U+30FC 1
 62
   179
420
  2234388
370
    25
100
AcDbVertex
100
AcDb2dVertex
 10
67.05705831656894
 20
-132.0477560780993
 30
0.0
  0
SEQEND
  5
172
330
16F
100
AcDbEntity
  8
_U+30EC_U+30A4_U+30E4_U+30FC 1
 62
   179
420
  2234388
370
    25
  0
POLYLINE
  5
173
330
157
100
AcDbEntity
  8
_U+30EC_U+30A4_U+30E4_U+30FC 1
 62
   179
420
  2234388
370
    25
100
AcDb2dPolyline
 66
     1
 10
0.0
 20
0.0
 30
0.0
  0
VERTEX
  5
174
330
173
100
AcDbEntity
  8
_U+30EC_U+30A4_U+30E4_U+30FC 1
 62
   179
420
  2234388
370
    25
100
AcDbVertex
100
AcDb2dVertex
 10
67.05568078926706
 20
-128.0476441346546
 30
0.0
  0
VERTEX
  5
175
330
173
100
AcDbEntity
  8
_U+30EC_U+30A4_U+30E4_U+30FC 1
 62
   179
420
  2234388
370
    25
100
AcDbVertex
100
AcDb2dVertex
 10
67.45633050126786
 20
-128.5475302456409
 30
0.0
  0
SEQEND
  5
176
330
173
100
AcDbEntity
  8
_U+30EC_U+30A4_U+30E4_U+30FC 1
 62
   179
420
  2234388
370
    25
  0
POLYLINE
  5
177
330
157
100
AcDbEntity
  8
_U+30EC_U+30A4_U+30E4_U+30FC 1
 62
   179
420
  2234388
370
    25
100
AcDb2dPolyline
 66
     1
 10
0.0
 20
0.0
 30
0.0
  0
VERTEX
  5
178
330
177
100
AcDbEntity
  8
_U+30EC_U+30A4_U+30E4_U+30FC 1
 62
   179
420
  2234388
370
    25
100
AcDbVertex
100
AcDb2dVertex
 10
67.4570360568054
 20
-132.547994966863
 30
0.0
  0
VERTEX
  5
179
330
177
100
AcDbEntity
  8
_U+30EC_U+30A4_U+30E4_U+30FC 1
 62
   179
420
  2234388
370
    25
100
AcDbVertex
100
AcDb2dVertex
 10
67.05705831656894
 20
-133.0475283000712
 30
0.0
  0
SEQEND
  5
17A
330
177
100
AcDbEntity
  8
_U+30EC_U+30A4_U+30E4_U+30FC 1
 62
   179
420
  2234388
370
    25
  0
POLYLINE
  5
17B
330
157
100
AcDbEntity
  8
_U+30EC_U+30A4_U+30E4_U+30FC 1
 62
   179
420
  2234388
370
    25
100
AcDb2dPolyline
 66
     1
 10
0.0
 20
0.0
 30
0.0
  0
VERTEX
  5
17C
330
17B
100
AcDbEntity
  8
_U+30EC_U+30A4_U+30E4_U+30FC 1
 62
   179
420
  2234388
370
    25
100
AcDbVertex
100
AcDb2dVertex
 10
67.05638634480462
 20
-130.0475413563768
 30
0.0
  0
VERTEX
  5
17D
330
17B
100
AcDbEntity
  8
_U+30EC_U+30A4_U+30E4_U+30FC 1
 62
   179
420
  2234388
370
    25
100
AcDbVertex
100
AcDb2dVertex
 10
67.45668327903664
 20
-130.547744967363
 30
0.0
  0
SEQEND
  5
17E
330
17B
100
AcDbEntity
  8
_U+30EC_U+30A4_U+30E4_U+30FC 1
 62
   179
420
  2234388
370
    25
  0
POLYLINE
  5
17F
330
157
100
AcDbEntity
  8
_U+30EC_U+30A4_U+30E4_U+30FC 1
 62
   179
420
  2234388
370
    25
100
AcDb2dPolyline
 66
     1
 10
0.0
 20
0.0
 30
0.0
  0
VERTEX
  5
180
330
17F
100
AcDbEntity
  8
_U+30EC_U+30A4_U+30E4_U+30FC 1
 62
   179
420
  2234388
370
    25
100
AcDbVertex
100
AcDb2dVertex
 10
67.45668327903664
 20
-130.547744967363
 30
0.0
  0
VERTEX
  5
181
330
17F
100
AcDbEntity
  8
_U+30EC_U+30A4_U+30E4_U+30FC 1
 62
   179
420
  2234388
370
    25
100
AcDbVertex
100
AcDb2dVertex
 10
67.05705831656894
 20
-131.0473135783494
 30
0.0
  0
SEQEND
  5
182
330
17F
100
AcDbEntity
  8
_U+30EC_U+30A4_U+30E4_U+30FC 1
 62
   179
420
  2234388
370
    25
  0
ENDBLK
  5
15A
330
157
100
AcDbEntity
  8
0
100
AcDbBlockEnd
  0
BLOCK
  5
185
330
183
100
AcDbEntity
  8
0
100
AcDbBlockBegin
  2
block 17
 70
     0
 10
0.0
 20
0.0
 30
0.0
  3
block 17
  1

  0
INSERT
  5
188
330
183
100
AcDbEntity
  8
_U+30EC_U+30A4_U+30E4_U+30FC 1
100
AcDbBlockReference
  2
block 18
 10
0.0
 20
0.0
 30
0.0
  0
ENDBLK
  5
186
330
183
100
AcDbEntity
  8
0
100
AcDbBlockEnd
  0
BLOCK
  5
189
330
187
100
AcDbEntity
  8
0
100
AcDbBlockBegin
  2
block 18
 70
     0
 10
0.0
 20
0.0
 30
0.0
  3
block 18
  1

  0
INSERT
  5
18C
330
187
100
AcDbEntity
  8
_U+30EC_U+30A4_U+30E4_U+30FC 1
100
AcDbBlockReference
  2
block 19
 10
0.0
 20
0.0
 30
0.0
  0
ENDBLK
  5
18A
330
187
100
AcDbEntity
  8
0
100
AcDbBlockEnd
  0
BLOCK
  5
18D
330
18B
100
AcDbEntity
  8
0
100
AcDbBlockBegin
  2
block 19
 70
     0
 10
0.0
 20
0.0
 30
0.0
  3
block 19
  1

  0
POLYLINE
  5
18F
330
18B
100
AcDbEntity
  8
_U+30EC_U+30A4_U+30E4_U+30FC 1
 62
   179
420
  2234388
370
    25
100
AcDb2dPolyline
 66
     1
 10
0.0
 20
0.0
 30
0.0
  0
VERTEX
  5
190
330
18F
100
AcDbEntity
  8
_U+30EC_U+30A4_U+30E4_U+30FC 1
 62
   179
420
  2234388
370
    25
100
AcDbVertex
100
AcDb2dVertex
 10
67.45805911233487
 20
-138.5483216320294
 30
0.0
  0
VERTEX
  5
191
330
18F
100
AcDbEntity
  8
_U+30EC_U+30A4_U+30E4_U+30FC 1
 62
   179
420
  2234388
370
    25
100
AcDbVertex
100
AcDb2dVertex
 10
67.27270967261909
 20
-139.0633419096784
 30
0.0
  0
SEQEND
  5
192
330
18F
100
AcDbEntity
  8
_U+30EC_U+30A4_U+30E4_U+30FC 1
 62
   179
420
  2234388
370
    25
  0
POLYLINE
  5
193
330
18B
100
AcDbEntity
  8
_U+30EC_U+30A4_U+30E4_U+30FC 1
 62
   179
420
  2234388
370
    25
100
AcDb2dPolyline
 66
     1
 10
0.0
 20
0.0
 30
0.0
  0
VERTEX
  5
194
330
193
100
AcDbEntity
  8
_U+30EC_U+30A4_U+30E4_U+30FC 1
 62
   179
420
  2234388
370
    25
100
AcDbVertex
100
AcDb2dVertex
 10
67.45805911233487
 20
-137.5474910767243
 30
0.0
  0
VERTEX
  5
195
330
193
100
AcDbEntity
  8
_U+30EC_U+30A4_U+30E4_U+30FC 1
 62
   179
420
  2234388
370
    25
100
AcDbVertex
100
AcDb2dVertex
 10
67.05807967809474
 20
-138.0484355210435
 30
0.0
  0
SEQEND
  5
196
330
193
100
AcDbEntity
  8
_U+30EC_U+30A4_U+30E4_U+30FC 1
 62
   179
420
  2234388
370
    25
  0
POLYLINE
  5
197
330
18B
100
AcDbEntity
  8
_U+30EC_U+30A4_U+30E4_U+30FC 1
 62
   179
420
  2234388
370
    25
100
AcDb2dPolyline
 66
     1
 10
0.0
 20
0.0
 30
0.0
  0
VERTEX
  5
198
330
197
100
AcDbEntity
  8
_U+30EC_U+30A4_U+30E4_U+30FC 1
 62
   179
420
  2234388
370
    25
100
AcDbVertex
100
AcDb2dVertex
 10
67.05807967809474
 20
-138.0484355210435
 30
0.0
  0
VERTEX
  5
199
330
197
100
AcDbEntity
  8
_U+30EC_U+30A4_U+30E4_U+30FC 1
 62
   179
420
  2234388
370
    25
100
AcDbVertex
100
AcDb2dVertex
 10
67.45805911233487
 20
-138.5483216320294
 30
0.0
  0
SEQEND
  5
19A
330
197
100
AcDbEntity
  8
_U+30EC_U+30A4_U+30E4_U+30FC 1
 62
   179
420
  2234388
370
    25
  0
POLYLINE
  5
19B
330
18B
100
AcDbEntity
  8
_U+30EC_U+30A4_U+30E4_U+30FC 1
 62
   179
420
  2234388
370
    25
100
AcDb2dPolyline
 66
     1
 10
0.0
 20
0.0
 30
0.0
  0
VERTEX
  5
19C
330
19B
100
AcDbEntity
  8
_U+30EC_U+30A4_U+30E4_U+30FC 1
 62
   179
420
  2234388
370
    25
100
AcDbVertex
100
AcDb2dVertex
 10
67.05807967809474
 20
-137.0479577435161
 30
0.0
  0
VERTEX
  5
19D
330
19B
100
AcDbEntity
  8
_U+30EC_U+30A4_U+30E4_U+30FC 1
 62
   179
420
  2234388
370
    25
100
AcDbVertex
100
AcDb2dVertex
 10
67.45805911233487
 20
-137.5474910767243
 30
0.0
  0
SEQEND
  5
19E
330
19B
100
AcDbEntity
  8
_U+30EC_U+30A4_U+30E4_U+30FC 1
 62
   179
420
  2234388
370
    25
  0
POLYLINE
  5
19F
330
18B
100
AcDbEntity
  8
_U+30EC_U+30A4_U+30E4_U+30FC 1
 62
   179
420
  2234388
370
    25
100
AcDb2dPolyline
 66
     1
 10
0.0
 20
0.0
 30
0.0
  0
VERTEX
  5
1A0
330
19F
100
AcDbEntity
  8
_U+30EC_U+30A4_U+30E4_U+30FC 1
 62
   179
420
  2234388
370
    25
100
AcDbVertex
100
AcDb2dVertex
 10
67.05776387212447
 20
-136.0481855215435
 30
0.0
  0
VERTEX
  5
1A1
330
19F
100
AcDbEntity
  8
_U+30EC_U+30A4_U+30E4_U+30FC 1
 62
   179
420
  2234388
370
    25
100
AcDbVertex
100
AcDb2dVertex
 10
67.45774161234297
 20
-136.5477541325299
 30
0.0
  0
SEQEND
  5
1A2
330
19F
100
AcDbEntity
  8
_U+30EC_U+30A4_U+30E4_U+30FC 1
 62
   179
420
  2234388
370
    25
  0
POLYLINE
  5
1A3
330
18B
100
AcDbEntity
  8
_U+30EC_U+30A4_U+30E4_U+30FC 1
 62
   179
420
  2234388
370
    25
100
AcDb2dPolyline
 66
     1
 10
0.0
 20
0.0
 30
0.0
  0
VERTEX
  5
1A4
330
1A3
100
AcDbEntity
  8
_U+30EC_U+30A4_U+30E4_U+30FC 1
 62
   179
420
  2234388
370
    25
100
AcDbVertex
100
AcDb2dVertex
 10
67.45774161234297
 20
-136.5477541325299
 30
0.0
  0
VERTEX
  5
1A5
330
1A3
100
AcDbEntity
  8
_U+30EC_U+30A4_U+30E4_U+30FC 1
 62
   179
420
  2234388
370
    25
100
AcDbVertex
100
AcDb2dVertex
 10
67.05807967809474
 20
-137.0479577435161
 30
0.0
  0
SEQEND
  5
1A6
330
1A3
100
AcDbEntity
  8
_U+30EC_U+30A4_U+30E4_U+30FC 1
 62
   179
420
  2234388
370
    25
  0
POLYLINE
  5
1A7
330
18B
100
AcDbEntity
  8
_U+30EC_U+30A4_U+30E4_U+30FC 1
 62
   179
420
  2234388
370
    25
100
AcDb2dPolyline
 66
     1
 10
0.0
 20
0.0
 30
0.0
  0
VERTEX
  5
1A8
330
1A7
100
AcDbEntity
  8
_U+30EC_U+30A4_U+30E4_U+30FC 1
 62
   179
420
  2234388
370
    25
100
AcDbVertex
100
AcDb2dVertex
 10
67.45774161234297
 20
-135.5479819105573
 30
0.0
  0
VERTEX
  5
1A9
330
1A7
100
AcDbEntity
  8
_U+30EC_U+30A4_U+30E4_U+30FC 1
 62
   179
420
  2234388
370
    25
100
AcDbVertex
100
AcDb2dVertex
 10
67.05776387212447
 20
-136.0481855215435
 30
0.0
  0
SEQEND
  5
1AA
330
1A7
100
AcDbEntity
  8
_U+30EC_U+30A4_U+30E4_U+30FC 1
 62
   179
420
  2234388
370
    25
  0
ENDBLK
  5
18E
330
18B
100
AcDbEntity
  8
0
100
AcDbBlockEnd
  0
BLOCK
  5
1AD
330
1AB
100
AcDbEntity
  8
0
100
AcDbBlockBegin
  2
block 20
 70
     0
 10
0.0
 20
0.0
 30
0.0
  3
block 20
  1

  0
INSERT
  5
1B0
330
1AB
100
AcDbEntity
  8
_U+30EC_U+30A4_U+30E4_U+30FC 1
100
AcDbBlockReference
  2
block 21
 10
0.0
 20
0.0
 30
0.0
  0
INSERT
  5
32C
330
1AB
100
AcDbEntity
  8
_U+30EC_U+30A4_U+30E4_U+30FC 1
100
AcDbBlockReference
  2
block 35
 10
0.0
 20
0.0
 30
0.0
  0
ENDBLK
  5
1AE
330
1AB
100
AcDbEntity
  8
0
100
AcDbBlockEnd
  0
BLOCK
  5
1B1
330
1AF
100
AcDbEntity
  8
0
100
AcDbBlockBegin
  2
block 21
 70
     0
 10
0.0
 20
0.0
 30
0.0
  3
block 21
  1

  0
INSERT
  5
1B4
330
1AF
100
AcDbEntity
  8
_U+30EC_U+30A4_U+30E4_U+30FC 1
100
AcDbBlockReference
  2
block 22
 10
0.0
 20
0.0
 30
0.0
  0
INSERT
  5
240
330
1AF
100
AcDbEntity
  8
_U+30EC_U+30A4_U+30E4_U+30FC 1
100
AcDbBlockReference
  2
block 28
 10
0.0
 20
0.0
 30
0.0
  0
ENDBLK
  5
1B2
330
1AF
100
AcDbEntity
  8
0
100
AcDbBlockEnd
  0
BLOCK
  5
1B5
330
1B3
100
AcDbEntity
  8
0
100
AcDbBlockBegin
  2
block 22
 70
     0
 10
0.0
 20
0.0
 30
0.0
  3
block 22
  1

  0
INSERT
  5
1B8
330
1B3
100
AcDbEntity
  8
_U+30EC_U+30A4_U+30E4_U+30FC 1
100
AcDbBlockReference
  2
block 23
 10
0.0
 20
0.0
 30
0.0
  0
INSERT
  5
1E0
330
1B3
100
AcDbEntity
  8
_U+30EC_U+30A4_U+30E4_U+30FC 1
100
AcDbBlockReference
  2
block 25
 10
0.0
 20
0.0
 30
0.0
  0
ENDBLK
  5
1B6
330
1B3
100
AcDbEntity
  8
0
100
AcDbBlockEnd
  0
BLOCK
  5
1B9
330
1B7
100
AcDbEntity
  8
0
100
AcDbBlockBegin
  2
block 23
 70
     0
 10
0.0
 20
0.0
 30
0.0
  3
block 23
  1

  0
INSERT
  5
1BC
330
1B7
100
AcDbEntity
  8
_U+30EC_U+30A4_U+30E4_U+30FC 1
100
AcDbBlockReference
  2
block 24
 10
0.0
 20
0.0
 30
0.0
  0
ENDBLK
  5
1BA
330
1B7
100
AcDbEntity
  8
0
100
AcDbBlockEnd
  0
BLOCK
  5
1BD
330
1BB
100
AcDbEntity
  8
0
100
AcDbBlockBegin
  2
block 24
 70
     0
 10
0.0
 20
0.0
 30
0.0
  3
block 24
  1

  0
POLYLINE
  5
1BF
330
1BB
100
AcDbEntity
  8
_U+30EC_U+30A4_U+30E4_U+30FC 1
 62
   179
420
  2234388
370
    25
100
AcDb2dPolyline
 66
     1
 10
0.0
 20
0.0
 30
0.0
  0
VERTEX
  5
1C0
330
1BF
100
AcDbEntity
  8
_U+30EC_U+30A4_U+30E4_U+30FC 1
 62
   179
420
  2234388
370
    25
100
AcDbVertex
100
AcDb2dVertex
 10
73.47080340338142
 20
-120.0629424699843
 30
0.0
  0
VERTEX
  5
1C1
330
1BF
100
AcDbEntity
  8
_U+30EC_U+30A4_U+30E4_U+30FC 1
 62
   179
420
  2234388
370
    25
100
AcDbVertex
100
AcDb2dVertex
 10
72.9705645272547
 20
-120.4632746921064
 30
0.0
  0
SEQEND
  5
1C2
330
1BF
100
AcDbEntity
  8
_U+30EC_U+30A4_U+30E4_U+30FC 1
 62
   179
420
  2234388
370
    25
  0
POLYLINE
  5
1C3
330
1BB
100
AcDbEntity
  8
_U+30EC_U+30A4_U+30E4_U+30FC 1
 62
   179
420
  2234388
370
    25
100
AcDb2dPolyline
 66
     1
 10
0.0
 20
0.0
 30
0.0
  0
VERTEX
  5
1C4
330
1C3
100
AcDbEntity
  8
_U+30EC_U+30A4_U+30E4_U+30FC 1
 62
   179
420
  2234388
370
    25
100
AcDbVertex
100
AcDb2dVertex
 10
72.9705645272547
 20
-120.4632746921064
 30
0.0
  0
VERTEX
  5
1C5
330
1C3
100
AcDbEntity
  8
_U+30EC_U+30A4_U+30E4_U+30FC 1
 62
   179
420
  2234388
370
    25
100
AcDbVertex
100
AcDb2dVertex
 10
72.47032565112796
 20
-120.0629424699843
 30
0.0
  0
SEQEND
  5
1C6
330
1C3
100
AcDbEntity
  8
_U+30EC_U+30A4_U+30E4_U+30FC 1
 62
   179
420
  2234388
370
    25
  0
POLYLINE
  5
1C7
330
1BB
100
AcDbEntity
  8
_U+30EC_U+30A4_U+30E4_U+30FC 1
 62
   179
420
  2234388
370
    25
100
AcDb2dPolyline
 66
     1
 10
0.0
 20
0.0
 30
0.0
  0
VERTEX
  5
1C8
330
1C7
100
AcDbEntity
  8
_U+30EC_U+30A4_U+30E4_U+30FC 1
 62
   179
420
  2234388
370
    25
100
AcDbVertex
100
AcDb2dVertex
 10
70.47028736881985
 20
-120.0636480255398
 30
0.0
  0
VERTEX
  5
1C9
330
1C7
100
AcDbEntity
  8
_U+30EC_U+30A4_U+30E4_U+30FC 1
 62
   179
420
  2234388
370
    25
100
AcDbVertex
100
AcDb2dVertex
 10
69.97075404823067
 20
-120.4632746921064
 30
0.0
  0
SEQEND
  5
1CA
330
1C7
100
AcDbEntity
  8
_U+30EC_U+30A4_U+30E4_U+30FC 1
 62
   179
420
  2234388
370
    25
  0
POLYLINE
  5
1CB
330
1BB
100
AcDbEntity
  8
_U+30EC_U+30A4_U+30E4_U+30FC 1
 62
   179
420
  2234388
370
    25
100
AcDb2dPolyline
 66
     1
 10
0.0
 20
0.0
 30
0.0
  0
VERTEX
  5
1CC
330
1CB
100
AcDbEntity
  8
_U+30EC_U+30A4_U+30E4_U+30FC 1
 62
   179
420
  2234388
370
    25
100
AcDbVertex
100
AcDb2dVertex
 10
71.47058873218893
 20
-120.0636480255398
 30
0.0
  0
VERTEX
  5
1CD
330
1CB
100
AcDbEntity
  8
_U+30EC_U+30A4_U+30E4_U+30FC 1
 62
   179
420
  2234388
370
    25
100
AcDbVertex
100
AcDb2dVertex
 10
70.9703498560622
 20
-120.4632746921064
 30
0.0
  0
SEQEND
  5
1CE
330
1CB
100
AcDbEntity
  8
_U+30EC_U+30A4_U+30E4_U+30FC 1
 62
   179
420
  2234388
370
    25
  0
POLYLINE
  5
1CF
330
1BB
100
AcDbEntity
  8
_U+30EC_U+30A4_U+30E4_U+30FC 1
 62
   179
420
  2234388
370
    25
100
AcDb2dPolyline
 66
     1
 10
0.0
 20
0.0
 30
0.0
  0
VERTEX
  5
1D0
330
1CF
100
AcDbEntity
  8
_U+30EC_U+30A4_U+30E4_U+30FC 1
 62
   179
420
  2234388
370
    25
100
AcDbVertex
100
AcDb2dVertex
 10
70.9703498560622
 20
-120.4632746921064
 30
0.0
  0
VERTEX
  5
1D1
330
1CF
100
AcDbEntity
  8
_U+30EC_U+30A4_U+30E4_U+30FC 1
 62
   179
420
  2234388
370
    25
100
AcDbVertex
100
AcDb2dVertex
 10
70.47028736881985
 20
-120.0636480255398
 30
0.0
  0
SEQEND
  5
1D2
330
1CF
100
AcDbEntity
  8
_U+30EC_U+30A4_U+30E4_U+30FC 1
 62
   179
420
  2234388
370
    25
  0
POLYLINE
  5
1D3
330
1BB
100
AcDbEntity
  8
_U+30EC_U+30A4_U+30E4_U+30FC 1
 62
   179
420
  2234388
370
    25
100
AcDb2dPolyline
 66
     1
 10
0.0
 20
0.0
 30
0.0
  0
VERTEX
  5
1D4
330
1D3
100
AcDbEntity
  8
_U+30EC_U+30A4_U+30E4_U+30FC 1
 62
   179
420
  2234388
370
    25
100
AcDbVertex
100
AcDb2dVertex
 10
69.97075404823067
 20
-120.4632746921064
 30
0.0
  0
VERTEX
  5
1D5
330
1D3
100
AcDbEntity
  8
_U+30EC_U+30A4_U+30E4_U+30FC 1
 62
   179
420
  2234388
370
    25
100
AcDbVertex
100
AcDb2dVertex
 10
68.67281408134389
 20
-120.2793010810413
 30
0.0
  0
SEQEND
  5
1D6
330
1D3
100
AcDbEntity
  8
_U+30EC_U+30A4_U+30E4_U+30FC 1
 62
   179
420
  2234388
370
    25
  0
POLYLINE
  5
1D7
330
1BB
100
AcDbEntity
  8
_U+30EC_U+30A4_U+30E4_U+30FC 1
 62
   179
420
  2234388
370
    25
100
AcDb2dPolyline
 66
     1
 10
0.0
 20
0.0
 30
0.0
  0
VERTEX
  5
1D8
330
1D7
100
AcDbEntity
  8
_U+30EC_U+30A4_U+30E4_U+30FC 1
 62
   179
420
  2234388
370
    25
100
AcDbVertex
100
AcDb2dVertex
 10
72.47032565112796
 20
-120.0629424699843
 30
0.0
  0
VERTEX
  5
1D9
330
1D7
100
AcDbEntity
  8
_U+30EC_U+30A4_U+30E4_U+30FC 1
 62
   179
420
  2234388
370
    25
100
AcDbVertex
100
AcDb2dVertex
 10
71.97012205277811
 20
-120.4632746921064
 30
0.0
  0
SEQEND
  5
1DA
330
1D7
100
AcDbEntity
  8
_U+30EC_U+30A4_U+30E4_U+30FC 1
 62
   179
420
  2234388
370
    25
  0
POLYLINE
  5
1DB
330
1BB
100
AcDbEntity
  8
_U+30EC_U+30A4_U+30E4_U+30FC 1
 62
   179
420
  2234388
370
    25
100
AcDb2dPolyline
 66
     1
 10
0.0
 20
0.0
 30
0.0
  0
VERTEX
  5
1DC
330
1DB
100
AcDbEntity
  8
_U+30EC_U+30A4_U+30E4_U+30FC 1
 62
   179
420
  2234388
370
    25
100
AcDbVertex
100
AcDb2dVertex
 10
71.97012205277811
 20
-120.4632746921064
 30
0.0
  0
VERTEX
  5
1DD
330
1DB
100
AcDbEntity
  8
_U+30EC_U+30A4_U+30E4_U+30FC 1
 62
   179
420
  2234388
370
    25
100
AcDbVertex
100
AcDb2dVertex
 10
71.47058873218893
 20
-120.0636480255398
 30
0.0
  0
SEQEND
  5
1DE
330
1DB
100
AcDbEntity
  8
_U+30EC_U+30A4_U+30E4_U+30FC 1
 62
   179
420
  2234388
370
    25
  0
ENDBLK
  5
1BE
330
1BB
100
AcDbEntity
  8
0
100
AcDbBlockEnd
  0
BLOCK
  5
1E1
330
1DF
100
AcDbEntity
  8
0
100
AcDbBlockBegin
  2
block 25
 70
     0
 10
0.0
 20
0.0
 30
0.0
  3
block 25
  1

  0
INSERT
  5
1E4
330
1DF
100
AcDbEntity
  8
_U+30EC_U+30A4_U+30E4_U+30FC 1
100
AcDbBlockReference
  2
block 26
 10
0.0
 20
0.0
 30
0.0
  0
INSERT
  5
214
330
1DF
100
AcDbEntity
  8
_U+30EC_U+30A4_U+30E4_U+30FC 1
100
AcDbBlockReference
  2
block 27
 10
0.0
 20
0.0
 30
0.0
  0
ENDBLK
  5
1E2
330
1DF
100
AcDbEntity
  8
0
100
AcDbBlockEnd
  0
BLOCK
  5
1E5
330
1E3
100
AcDbEntity
  8
0
100
AcDbBlockBegin
  2
block 26
 70
     0
 10
0.0
 20
0.0
 30
0.0
  3
block 26
  1

  0
POLYLINE
  5
1E7
330
1E3
100
AcDbEntity
  8
_U+30EC_U+30A4_U+30E4_U+30FC 1
 62
   179
420
  2234388
370
    25
100
AcDb2dPolyline
 66
     1
 10
0.0
 20
0.0
 30
0.0
  0
VERTEX
  5
1E8
330
1E7
100
AcDbEntity
  8
_U+30EC_U+30A4_U+30E4_U+30FC 1
 62
   179
420
  2234388
370
    25
100
AcDbVertex
100
AcDb2dVertex
 10
80.47121961367482
 20
-120.0643183033172
 30
0.0
  0
VERTEX
  5
1E9
330
1E7
100
AcDbEntity
  8
_U+30EC_U+30A4_U+30E4_U+30FC 1
 62
   179
420
  2234388
370
    25
100
AcDbVertex
100
AcDb2dVertex
 10
79.97101601532496
 20
-120.4646505254392
 30
0.0
  0
SEQEND
  5
1EA
330
1E7
100
AcDbEntity
  8
_U+30EC_U+30A4_U+30E4_U+30FC 1
 62
   179
420
  2234388
370
    25
  0
POLYLINE
  5
1EB
330
1E3
100
AcDbEntity
  8
_U+30EC_U+30A4_U+30E4_U+30FC 1
 62
   179
420
  2234388
370
    25
100
AcDb2dPolyline
 66
     1
 10
0.0
 20
0.0
 30
0.0
  0
VERTEX
  5
1EC
330
1EB
100
AcDbEntity
  8
_U+30EC_U+30A4_U+30E4_U+30FC 1
 62
   179
420
  2234388
370
    25
100
AcDbVertex
100
AcDb2dVertex
 10
80.970752934264
 20
-120.4646505254392
 30
0.0
  0
VERTEX
  5
1ED
330
1EB
100
AcDbEntity
  8
_U+30EC_U+30A4_U+30E4_U+30FC 1
 62
   179
420
  2234388
370
    25
100
AcDbVertex
100
AcDb2dVertex
 10
80.47121961367482
 20
-120.0643183033172
 30
0.0
  0
SEQEND
  5
1EE
330
1EB
100
AcDbEntity
  8
_U+30EC_U+30A4_U+30E4_U+30FC 1
 62
   179
420
  2234388
370
    25
  0
POLYLINE
  5
1EF
330
1E3
100
AcDbEntity
  8
_U+30EC_U+30A4_U+30E4_U+30FC 1
 62
   179
420
  2234388
370
    25
100
AcDb2dPolyline
 66
     1
 10
0.0
 20
0.0
 30
0.0
  0
VERTEX
  5
1F0
330
1EF
100
AcDbEntity
  8
_U+30EC_U+30A4_U+30E4_U+30FC 1
 62
   179
420
  2234388
370
    25
100
AcDbVertex
100
AcDb2dVertex
 10
81.97123068651746
 20
-120.4646505254392
 30
0.0
  0
VERTEX
  5
1F1
330
1EF
100
AcDbEntity
  8
_U+30EC_U+30A4_U+30E4_U+30FC 1
 62
   179
420
  2234388
370
    25
100
AcDbVertex
100
AcDb2dVertex
 10
81.47032153263005
 20
-120.0643183033172
 30
0.0
  0
SEQEND
  5
1F2
330
1EF
100
AcDbEntity
  8
_U+30EC_U+30A4_U+30E4_U+30FC 1
 62
   179
420
  2234388
370
    25
  0
POLYLINE
  5
1F3
330
1E3
100
AcDbEntity
  8
_U+30EC_U+30A4_U+30E4_U+30FC 1
 62
   179
420
  2234388
370
    25
100
AcDb2dPolyline
 66
     1
 10
0.0
 20
0.0
 30
0.0
  0
VERTEX
  5
1F4
330
1F3
100
AcDbEntity
  8
_U+30EC_U+30A4_U+30E4_U+30FC 1
 62
   179
420
  2234388
370
    25
100
AcDbVertex
100
AcDb2dVertex
 10
79.97101601532496
 20
-120.4646505254392
 30
0.0
  0
VERTEX
  5
1F5
330
1F3
100
AcDbEntity
  8
_U+30EC_U+30A4_U+30E4_U+30FC 1
 62
   179
420
  2234388
370
    25
100
AcDbVertex
100
AcDb2dVertex
 10
79.47077713919823
 20
-120.0650238588727
 30
0.0
  0
SEQEND
  5
1F6
330
1F3
100
AcDbEntity
  8
_U+30EC_U+30A4_U+30E4_U+30FC 1
 62
   179
420
  2234388
370
    25
  0
POLYLINE
  5
1F7
330
1E3
100
AcDbEntity
  8
_U+30EC_U+30A4_U+30E4_U+30FC 1
 62
   179
420
  2234388
370
    25
100
AcDb2dPolyline
 66
     1
 10
0.0
 20
0.0
 30
0.0
  0
VERTEX
  5
1F8
330
1F7
100
AcDbEntity
  8
_U+30EC_U+30A4_U+30E4_U+30FC 1
 62
   179
420
  2234388
370
    25
100
AcDbVertex
100
AcDb2dVertex
 10
81.47032153263005
 20
-120.0643183033172
 30
0.0
  0
VERTEX
  5
1F9
330
1F7
100
AcDbEntity
  8
_U+30EC_U+30A4_U+30E4_U+30FC 1
 62
   179
420
  2234388
370
    25
100
AcDbVertex
100
AcDb2dVertex
 10
80.970752934264
 20
-120.4646505254392
 30
0.0
  0
SEQEND
  5
1FA
330
1F7
100
AcDbEntity
  8
_U+30EC_U+30A4_U+30E4_U+30FC 1
 62
   179
420
  2234388
370
    25
  0
POLYLINE
  5
1FB
330
1E3
100
AcDbEntity
  8
_U+30EC_U+30A4_U+30E4_U+30FC 1
 62
   179
420
  2234388
370
    25
100
AcDb2dPolyline
 66
     1
 10
0.0
 20
0.0
 30
0.0
  0
VERTEX
  5
1FC
330
1FB
100
AcDbEntity
  8
_U+30EC_U+30A4_U+30E4_U+30FC 1
 62
   179
420
  2234388
370
    25
100
AcDbVertex
100
AcDb2dVertex
 10
82.47076400710664
 20
-120.0643183033172
 30
0.0
  0
VERTEX
  5
1FD
330
1FB
100
AcDbEntity
  8
_U+30EC_U+30A4_U+30E4_U+30FC 1
 62
   179
420
  2234388
370
    25
100
AcDbVertex
100
AcDb2dVertex
 10
81.97123068651746
 20
-120.4646505254392
 30
0.0
  0
SEQEND
  5
1FE
330
1FB
100
AcDbEntity
  8
_U+30EC_U+30A4_U+30E4_U+30FC 1
 62
   179
420
  2234388
370
    25
  0
POLYLINE
  5
1FF
330
1E3
100
AcDbEntity
  8
_U+30EC_U+30A4_U+30E4_U+30FC 1
 62
   179
420
  2234388
370
    25
100
AcDb2dPolyline
 66
     1
 10
0.0
 20
0.0
 30
0.0
  0
VERTEX
  5
200
330
1FF
100
AcDbEntity
  8
_U+30EC_U+30A4_U+30E4_U+30FC 1
 62
   179
420
  2234388
370
    25
100
AcDbVertex
100
AcDb2dVertex
 10
83.47053620382255
 20
-120.0643183033172
 30
0.0
  0
VERTEX
  5
201
330
1FF
100
AcDbEntity
  8
_U+30EC_U+30A4_U+30E4_U+30FC 1
 62
   179
420
  2234388
370
    25
100
AcDbVertex
100
AcDb2dVertex
 10
82.97100288323337
 20
-120.4639802476619
 30
0.0
  0
SEQEND
  5
202
330
1FF
100
AcDbEntity
  8
_U+30EC_U+30A4_U+30E4_U+30FC 1
 62
   179
420
  2234388
370
    25
  0
POLYLINE
  5
203
330
1E3
100
AcDbEntity
  8
_U+30EC_U+30A4_U+30E4_U+30FC 1
 62
   179
420
  2234388
370
    25
100
AcDb2dPolyline
 66
     1
 10
0.0
 20
0.0
 30
0.0
  0
VERTEX
  5
204
330
203
100
AcDbEntity
  8
_U+30EC_U+30A4_U+30E4_U+30FC 1
 62
   179
420
  2234388
370
    25
100
AcDbVertex
100
AcDb2dVertex
 10
82.97100288323337
 20
-120.4639802476619
 30
0.0
  0
VERTEX
  5
205
330
203
100
AcDbEntity
  8
_U+30EC_U+30A4_U+30E4_U+30FC 1
 62
   179
420
  2234388
370
    25
100
AcDbVertex
100
AcDb2dVertex
 10
82.47076400710664
 20
-120.0643183033172
 30
0.0
  0
SEQEND
  5
206
330
203
100
AcDbEntity
  8
_U+30EC_U+30A4_U+30E4_U+30FC 1
 62
   179
420
  2234388
370
    25
  0
POLYLINE
  5
207
330
1E3
100
AcDbEntity
  8
_U+30EC_U+30A4_U+30E4_U+30FC 1
 62
   179
420
  2234388
370
    25
100
AcDb2dPolyline
 66
     1
 10
0.0
 20
0.0
 30
0.0
  0
VERTEX
  5
208
330
207
100
AcDbEntity
  8
_U+30EC_U+30A4_U+30E4_U+30FC 1
 62
   179
420
  2234388
370
    25
100
AcDbVertex
100
AcDb2dVertex
 10
83.9707398021724
 20
-120.4639802476619
 30
0.0
  0
VERTEX
  5
209
330
207
100
AcDbEntity
  8
_U+30EC_U+30A4_U+30E4_U+30FC 1
 62
   179
420
  2234388
370
    25
100
AcDbVertex
100
AcDb2dVertex
 10
83.47053620382255
 20
-120.0643183033172
 30
0.0
  0
SEQEND
  5
20A
330
207
100
AcDbEntity
  8
_U+30EC_U+30A4_U+30E4_U+30FC 1
 62
   179
420
  2234388
370
    25
  0
POLYLINE
  5
20B
330
1E3
100
AcDbEntity
  8
_U+30EC_U+30A4_U+30E4_U+30FC 1
 62
   179
420
  2234388
370
    25
100
AcDb2dPolyline
 66
     1
 10
0.0
 20
0.0
 30
0.0
  0
VERTEX
  5
20C
330
20B
100
AcDbEntity
  8
_U+30EC_U+30A4_U+30E4_U+30FC 1
 62
   179
420
  2234388
370
    25
100
AcDbVertex
100
AcDb2dVertex
 10
79.47077713919823
 20
-120.0650238588727
 30
0.0
  0
VERTEX
  5
20D
330
20B
100
AcDbEntity
  8
_U+30EC_U+30A4_U+30E4_U+30FC 1
 62
   179
420
  2234388
370
    25
100
AcDbVertex
100
AcDb2dVertex
 10
78.9705382630715
 20
-120.4653560809948
 30
0.0
  0
SEQEND
  5
20E
330
20B
100
AcDbEntity
  8
_U+30EC_U+30A4_U+30E4_U+30FC 1
 62
   179
420
  2234388
370
    25
  0
POLYLINE
  5
20F
330
1E3
100
AcDbEntity
  8
_U+30EC_U+30A4_U+30E4_U+30FC 1
 62
   179
420
  2234388
370
    25
100
AcDb2dPolyline
 66
     1
 10
0.0
 20
0.0
 30
0.0
  0
VERTEX
  5
210
330
20F
100
AcDbEntity
  8
_U+30EC_U+30A4_U+30E4_U+30FC 1
 62
   179
420
  2234388
370
    25
100
AcDbVertex
100
AcDb2dVertex
 10
78.9705382630715
 20
-120.4653560809948
 30
0.0
  0
VERTEX
  5
211
330
20F
100
AcDbEntity
  8
_U+30EC_U+30A4_U+30E4_U+30FC 1
 62
   179
420
  2234388
370
    25
100
AcDbVertex
100
AcDb2dVertex
 10
78.47100494248232
 20
-120.0650238588727
 30
0.0
  0
SEQEND
  5
212
330
20F
100
AcDbEntity
  8
_U+30EC_U+30A4_U+30E4_U+30FC 1
 62
   179
420
  2234388
370
    25
  0
ENDBLK
  5
1E6
330
1E3
100
AcDbEntity
  8
0
100
AcDbBlockEnd
  0
BLOCK
  5
215
330
213
100
AcDbEntity
  8
0
100
AcDbBlockBegin
  2
block 27
 70
     0
 10
0.0
 20
0.0
 30
0.0
  3
block 27
  1

  0
POLYLINE
  5
217
330
213
100
AcDbEntity
  8
_U+30EC_U+30A4_U+30E4_U+30FC 1
 62
   179
420
  2234388
370
    25
100
AcDb2dPolyline
 66
     1
 10
0.0
 20
0.0
 30
0.0
  0
VERTEX
  5
218
330
217
100
AcDbEntity
  8
_U+30EC_U+30A4_U+30E4_U+30FC 1
 62
   179
420
  2234388
370
    25
100
AcDbVertex
100
AcDb2dVertex
 10
77.47056246800574
 20
-120.0629424699843
 30
0.0
  0
VERTEX
  5
219
330
217
100
AcDbEntity
  8
_U+30EC_U+30A4_U+30E4_U+30FC 1
 62
   179
420
  2234388
370
    25
100
AcDbVertex
100
AcDb2dVertex
 10
76.97099386963968
 20
-120.4632746921064
 30
0.0
  0
SEQEND
  5
21A
330
217
100
AcDbEntity
  8
_U+30EC_U+30A4_U+30E4_U+30FC 1
 62
   179
420
  2234388
370
    25
  0
POLYLINE
  5
21B
330
213
100
AcDbEntity
  8
_U+30EC_U+30A4_U+30E4_U+30FC 1
 62
   179
420
  2234388
370
    25
100
AcDb2dPolyline
 66
     1
 10
0.0
 20
0.0
 30
0.0
  0
VERTEX
  5
21C
330
21B
100
AcDbEntity
  8
_U+30EC_U+30A4_U+30E4_U+30FC 1
 62
   179
420
  2234388
370
    25
100
AcDbVertex
100
AcDb2dVertex
 10
76.97099386963968
 20
-120.4632746921064
 30
0.0
  0
VERTEX
  5
21D
330
21B
100
AcDbEntity
  8
_U+30EC_U+30A4_U+30E4_U+30FC 1
 62
   179
420
  2234388
370
    25
100
AcDbVertex
100
AcDb2dVertex
 10
76.47079027128983
 20
-120.0629424699843
 30
0.0
  0
SEQEND
  5
21E
330
21B
100
AcDbEntity
  8
_U+30EC_U+30A4_U+30E4_U+30FC 1
 62
   179
420
  2234388
370
    25
  0
POLYLINE
  5
21F
330
213
100
AcDbEntity
  8
_U+30EC_U+30A4_U+30E4_U+30FC 1
 62
   179
420
  2234388
370
    25
100
AcDb2dPolyline
 66
     1
 10
0.0
 20
0.0
 30
0.0
  0
VERTEX
  5
220
330
21F
100
AcDbEntity
  8
_U+30EC_U+30A4_U+30E4_U+30FC 1
 62
   179
420
  2234388
370
    25
100
AcDbVertex
100
AcDb2dVertex
 10
77.9707660663556
 20
-120.4626044143287
 30
0.0
  0
VERTEX
  5
221
330
21F
100
AcDbEntity
  8
_U+30EC_U+30A4_U+30E4_U+30FC 1
 62
   179
420
  2234388
370
    25
100
AcDbVertex
100
AcDb2dVertex
 10
77.47056246800574
 20
-120.0629424699843
 30
0.0
  0
SEQEND
  5
222
330
21F
100
AcDbEntity
  8
_U+30EC_U+30A4_U+30E4_U+30FC 1
 62
   179
420
  2234388
370
    25
  0
POLYLINE
  5
223
330
213
100
AcDbEntity
  8
_U+30EC_U+30A4_U+30E4_U+30FC 1
 62
   179
420
  2234388
370
    25
100
AcDb2dPolyline
 66
     1
 10
0.0
 20
0.0
 30
0.0
  0
VERTEX
  5
224
330
223
100
AcDbEntity
  8
_U+30EC_U+30A4_U+30E4_U+30FC 1
 62
   179
420
  2234388
370
    25
100
AcDbVertex
100
AcDb2dVertex
 10
74.47057560009733
 20
-120.0636480255398
 30
0.0
  0
VERTEX
  5
225
330
223
100
AcDbEntity
  8
_U+30EC_U+30A4_U+30E4_U+30FC 1
 62
   179
420
  2234388
370
    25
100
AcDbVertex
100
AcDb2dVertex
 10
73.9703367239706
 20
-120.4632746921064
 30
0.0
  0
SEQEND
  5
226
330
223
100
AcDbEntity
  8
_U+30EC_U+30A4_U+30E4_U+30FC 1
 62
   179
420
  2234388
370
    25
  0
POLYLINE
  5
227
330
213
100
AcDbEntity
  8
_U+30EC_U+30A4_U+30E4_U+30FC 1
 62
   179
420
  2234388
370
    25
100
AcDb2dPolyline
 66
     1
 10
0.0
 20
0.0
 30
0.0
  0
VERTEX
  5
228
330
227
100
AcDbEntity
  8
_U+30EC_U+30A4_U+30E4_U+30FC 1
 62
   179
420
  2234388
370
    25
100
AcDbVertex
100
AcDb2dVertex
 10
75.47101807457392
 20
-120.0636480255398
 30
0.0
  0
VERTEX
  5
229
330
227
100
AcDbEntity
  8
_U+30EC_U+30A4_U+30E4_U+30FC 1
 62
   179
420
  2234388
370
    25
100
AcDbVertex
100
AcDb2dVertex
 10
74.97077919844719
 20
-120.4632746921064
 30
0.0
  0
SEQEND
  5
22A
330
227
100
AcDbEntity
  8
_U+30EC_U+30A4_U+30E4_U+30FC 1
 62
   179
420
  2234388
370
    25
  0
POLYLINE
  5
22B
330
213
100
AcDbEntity
  8
_U+30EC_U+30A4_U+30E4_U+30FC 1
 62
   179
420
  2234388
370
    25
100
AcDb2dPolyline
 66
     1
 10
0.0
 20
0.0
 30
0.0
  0
VERTEX
  5
22C
330
22B
100
AcDbEntity
  8
_U+30EC_U+30A4_U+30E4_U+30FC 1
 62
   179
420
  2234388
370
    25
100
AcDbVertex
100
AcDb2dVertex
 10
74.97077919844719
 20
-120.4632746921064
 30
0.0
  0
VERTEX
  5
22D
330
22B
100
AcDbEntity
  8
_U+30EC_U+30A4_U+30E4_U+30FC 1
 62
   179
420
  2234388
370
    25
100
AcDbVertex
100
AcDb2dVertex
 10
74.47057560009733
 20
-120.0636480255398
 30
0.0
  0
SEQEND
  5
22E
330
22B
100
AcDbEntity
  8
_U+30EC_U+30A4_U+30E4_U+30FC 1
 62
   179
420
  2234388
370
    25
  0
POLYLINE
  5
22F
330
213
100
AcDbEntity
  8
_U+30EC_U+30A4_U+30E4_U+30FC 1
 62
   179
420
  2234388
370
    25
100
AcDb2dPolyline
 66
     1
 10
0.0
 20
0.0
 30
0.0
  0
VERTEX
  5
230
330
22F
100
AcDbEntity
  8
_U+30EC_U+30A4_U+30E4_U+30FC 1
 62
   179
420
  2234388
370
    25
100
AcDbVertex
100
AcDb2dVertex
 10
78.47100494248232
 20
-120.0622721922066
 30
0.0
  0
VERTEX
  5
231
330
22F
100
AcDbEntity
  8
_U+30EC_U+30A4_U+30E4_U+30FC 1
 62
   179
420
  2234388
370
    25
100
AcDbVertex
100
AcDb2dVertex
 10
77.9707660663556
 20
-120.4626044143287
 30
0.0
  0
SEQEND
  5
232
330
22F
100
AcDbEntity
  8
_U+30EC_U+30A4_U+30E4_U+30FC 1
 62
   179
420
  2234388
370
    25
  0
POLYLINE
  5
233
330
213
100
AcDbEntity
  8
_U+30EC_U+30A4_U+30E4_U+30FC 1
 62
   179
420
  2234388
370
    25
100
AcDb2dPolyline
 66
     1
 10
0.0
 20
0.0
 30
0.0
  0
VERTEX
  5
234
330
233
100
AcDbEntity
  8
_U+30EC_U+30A4_U+30E4_U+30FC 1
 62
   179
420
  2234388
370
    25
100
AcDbVertex
100
AcDb2dVertex
 10
73.9703367239706
 20
-120.4632746921064
 30
0.0
  0
VERTEX
  5
235
330
233
100
AcDbEntity
  8
_U+30EC_U+30A4_U+30E4_U+30FC 1
 62
   179
420
  2234388
370
    25
100
AcDbVertex
100
AcDb2dVertex
 10
73.47080340338142
 20
-120.0636480255398
 30
0.0
  0
SEQEND
  5
236
330
233
100
AcDbEntity
  8
_U+30EC_U+30A4_U+30E4_U+30FC 1
 62
   179
420
  2234388
370
    25
  0
POLYLINE
  5
237
330
213
100
AcDbEntity
  8
_U+30EC_U+30A4_U+30E4_U+30FC 1
 62
   179
420
  2234388
370
    25
100
AcDb2dPolyline
 66
     1
 10
0.0
 20
0.0
 30
0.0
  0
VERTEX
  5
238
330
237
100
AcDbEntity
  8
_U+30EC_U+30A4_U+30E4_U+30FC 1
 62
   179
420
  2234388
370
    25
100
AcDbVertex
100
AcDb2dVertex
 10
76.47079027128983
 20
-120.0629424699843
 30
0.0
  0
VERTEX
  5
239
330
237
100
AcDbEntity
  8
_U+30EC_U+30A4_U+30E4_U+30FC 1
 62
   179
420
  2234388
370
    25
100
AcDbVertex
100
AcDb2dVertex
 10
75.9705513951631
 20
-120.4632746921064
 30
0.0
  0
SEQEND
  5
23A
330
237
100
AcDbEntity
  8
_U+30EC_U+30A4_U+30E4_U+30FC 1
 62
   179
420
  2234388
370
    25
  0
POLYLINE
  5
23B
330
213
100
AcDbEntity
  8
_U+30EC_U+30A4_U+30E4_U+30FC 1
 62
   179
420
  2234388
370
    25
100
AcDb2dPolyline
 66
     1
 10
0.0
 20
0.0
 30
0.0
  0
VERTEX
  5
23C
330
23B
100
AcDbEntity
  8
_U+30EC_U+30A4_U+30E4_U+30FC 1
 62
   179
420
  2234388
370
    25
100
AcDbVertex
100
AcDb2dVertex
 10
75.9705513951631
 20
-120.4632746921064
 30
0.0
  0
VERTEX
  5
23D
330
23B
100
AcDbEntity
  8
_U+30EC_U+30A4_U+30E4_U+30FC 1
 62
   179
420
  2234388
370
    25
100
AcDbVertex
100
AcDb2dVertex
 10
75.47101807457392
 20
-120.0636480255398
 30
0.0
  0
SEQEND
  5
23E
330
23B
100
AcDbEntity
  8
_U+30EC_U+30A4_U+30E4_U+30FC 1
 62
   179
420
  2234388
370
    25
  0
ENDBLK
  5
216
330
213
100
AcDbEntity
  8
0
100
AcDbBlockEnd
  0
BLOCK
  5
241
330
23F
100
AcDbEntity
  8
0
100
AcDbBlockBegin
  2
block 28
 70
     0
 10
0.0
 20
0.0
 30
0.0
  3
block 28
  1

  0
INSERT
  5
244
330
23F
100
AcDbEntity
  8
_U+30EC_U+30A4_U+30E4_U+30FC 1
100
AcDbBlockReference
  2
block 29
 10
0.0
 20
0.0
 30
0.0
  0
INSERT
  5
2CC
330
23F
100
AcDbEntity
  8
_U+30EC_U+30A4_U+30E4_U+30FC 1
100
AcDbBlockReference
  2
block 32
 10
0.0
 20
0.0
 30
0.0
  0
ENDBLK
  5
242
330
23F
100
AcDbEntity
  8
0
100
AcDbBlockEnd
  0
BLOCK
  5
245
330
243
100
AcDbEntity
  8
0
100
AcDbBlockBegin
  2
block 29
 70
     0
 10
0.0
 20
0.0
 30
0.0
  3
block 29
  1

  0
INSERT
  5
248
330
243
100
AcDbEntity
  8
_U+30EC_U+30A4_U+30E4_U+30FC 1
100
AcDbBlockReference
  2
block 30
 10
0.0
 20
0.0
 30
0.0
  0
INSERT
  5
2A4
330
243
100
AcDbEntity
  8
_U+30EC_U+30A4_U+30E4_U+30FC 1
100
AcDbBlockReference
  2
block 31
 10
0.0
 20
0.0
 30
0.0
  0
ENDBLK
  5
246
330
243
100
AcDbEntity
  8
0
100
AcDbBlockEnd
  0
BLOCK
  5
249
330
247
100
AcDbEntity
  8
0
100
AcDbBlockBegin
  2
block 30
 70
     0
 10
0.0
 20
0.0
 30
0.0
  3
block 30
  1

  0
POLYLINE
  5
24B
330
247
100
AcDbEntity
  8
_U+30EC_U+30A4_U+30E4_U+30FC 1
 62
   179
420
  2234388
370
    25
100
AcDb2dPolyline
 66
     1
 10
0.0
 20
0.0
 30
0.0
  0
VERTEX
  5
24C
330
24B
100
AcDbEntity
  8
_U+30EC_U+30A4_U+30E4_U+30FC 1
 62
   179
420
  2234388
370
    25
100
AcDbVertex
100
AcDb2dVertex
 10
90.47165796965349
 20
-120.0643183033172
 30
0.0
  0
VERTEX
  5
24D
330
24B
100
AcDbEntity
  8
_U+30EC_U+30A4_U+30E4_U+30FC 1
 62
   179
420
  2234388
370
    25
100
AcDbVertex
100
AcDb2dVertex
 10
89.97141909352676
 20
-120.4646505254392
 30
0.0
  0
SEQEND
  5
24E
330
24B
100
AcDbEntity
  8
_U+30EC_U+30A4_U+30E4_U+30FC 1
 62
   179
420
  2234388
370
    25
  0
POLYLINE
  5
24F
330
247
100
AcDbEntity
  8
_U+30EC_U+30A4_U+30E4_U+30FC 1
 62
   179
420
  2234388
370
    25
100
AcDb2dPolyline
 66
     1
 10
0.0
 20
0.0
 30
0.0
  0
VERTEX
  5
250
330
24F
100
AcDbEntity
  8
_U+30EC_U+30A4_U+30E4_U+30FC 1
 62
   179
420
  2234388
370
    25
100
AcDbVertex
100
AcDb2dVertex
 10
95.47119164279901
 20
-120.0636480255398
 30
0.0
  0
VERTEX
  5
251
330
24F
100
AcDbEntity
  8
_U+30EC_U+30A4_U+30E4_U+30FC 1
 62
   179
420
  2234388
370
    25
100
AcDbVertex
100
AcDb2dVertex
 10
94.97162063262766
 20
-120.4639802476619
 30
0.0
  0
SEQEND
  5
252
330
24F
100
AcDbEntity
  8
_U+30EC_U+30A4_U+30E4_U+30FC 1
 62
   179
420
  2234388
370
    25
  0
POLYLINE
  5
253
330
247
100
AcDbEntity
  8
_U+30EC_U+30A4_U+30E4_U+30FC 1
 62
   179
420
  2234388
370
    25
100
AcDb2dPolyline
 66
     1
 10
0.0
 20
0.0
 30
0.0
  0
VERTEX
  5
254
330
253
100
AcDbEntity
  8
_U+30EC_U+30A4_U+30E4_U+30FC 1
 62
   179
420
  2234388
370
    25
100
AcDbVertex
100
AcDb2dVertex
 10
90.97119129024267
 20
-120.4646505254392
 30
0.0
  0
VERTEX
  5
255
330
253
100
AcDbEntity
  8
_U+30EC_U+30A4_U+30E4_U+30FC 1
 62
   179
420
  2234388
370
    25
100
AcDbVertex
100
AcDb2dVertex
 10
90.47165796965349
 20
-120.0643183033172
 30
0.0
  0
SEQEND
  5
256
330
253
100
AcDbEntity
  8
_U+30EC_U+30A4_U+30E4_U+30FC 1
 62
   179
420
  2234388
370
    25
  0
POLYLINE
  5
257
330
247
100
AcDbEntity
  8
_U+30EC_U+30A4_U+30E4_U+30FC 1
 62
   179
420
  2234388
370
    25
100
AcDb2dPolyline
 66
     1
 10
0.0
 20
0.0
 30
0.0
  0
VERTEX
  5
258
330
257
100
AcDbEntity
  8
_U+30EC_U+30A4_U+30E4_U+30FC 1
 62
   179
420
  2234388
370
    25
100
AcDbVertex
100
AcDb2dVertex
 10
91.97163608811833
 20
-120.4646505254392
 30
0.0
  0
VERTEX
  5
259
330
257
100
AcDbEntity
  8
_U+30EC_U+30A4_U+30E4_U+30FC 1
 62
   179
420
  2234388
370
    25
100
AcDbVertex
100
AcDb2dVertex
 10
91.47072461083185
 20
-120.0643183033172
 30
0.0
  0
SEQEND
  5
25A
330
257
100
AcDbEntity
  8
_U+30EC_U+30A4_U+30E4_U+30FC 1
 62
   179
420
  2234388
370
    25
  0
POLYLINE
  5
25B
330
247
100
AcDbEntity
  8
_U+30EC_U+30A4_U+30E4_U+30FC 1
 62
   179
420
  2234388
370
    25
100
AcDb2dPolyline
 66
     1
 10
0.0
 20
0.0
 30
0.0
  0
VERTEX
  5
25C
330
25B
100
AcDbEntity
  8
_U+30EC_U+30A4_U+30E4_U+30FC 1
 62
   179
420
  2234388
370
    25
100
AcDbVertex
100
AcDb2dVertex
 10
89.97141909352676
 20
-120.4646505254392
 30
0.0
  0
VERTEX
  5
25D
330
25B
100
AcDbEntity
  8
_U+30EC_U+30A4_U+30E4_U+30FC 1
 62
   179
420
  2234388
370
    25
100
AcDbVertex
100
AcDb2dVertex
 10
89.47118021740003
 20
-120.0650238588727
 30
0.0
  0
SEQEND
  5
25E
330
25B
100
AcDbEntity
  8
_U+30EC_U+30A4_U+30E4_U+30FC 1
 62
   179
420
  2234388
370
    25
  0
POLYLINE
  5
25F
330
247
100
AcDbEntity
  8
_U+30EC_U+30A4_U+30E4_U+30FC 1
 62
   179
420
  2234388
370
    25
100
AcDb2dPolyline
 66
     1
 10
0.0
 20
0.0
 30
0.0
  0
VERTEX
  5
260
330
25F
100
AcDbEntity
  8
_U+30EC_U+30A4_U+30E4_U+30FC 1
 62
   179
420
  2234388
370
    25
100
AcDbVertex
100
AcDb2dVertex
 10
91.47072461083185
 20
-120.0643183033172
 30
0.0
  0
VERTEX
  5
261
330
25F
100
AcDbEntity
  8
_U+30EC_U+30A4_U+30E4_U+30FC 1
 62
   179
420
  2234388
370
    25
100
AcDbVertex
100
AcDb2dVertex
 10
90.97119129024267
 20
-120.4646505254392
 30
0.0
  0
SEQEND
  5
262
330
25F
100
AcDbEntity
  8
_U+30EC_U+30A4_U+30E4_U+30FC 1
 62
   179
420
  2234388
370
    25
  0
POLYLINE
  5
263
330
247
100
AcDbEntity
  8
_U+30EC_U+30A4_U+30E4_U+30FC 1
 62
   179
420
  2234388
370
    25
100
AcDb2dPolyline
 66
     1
 10
0.0
 20
0.0
 30
0.0
  0
VERTEX
  5
264
330
263
100
AcDbEntity
  8
_U+30EC_U+30A4_U+30E4_U+30FC 1
 62
   179
420
  2234388
370
    25
100
AcDbVertex
100
AcDb2dVertex
 10
99.4716185733787
 20
-120.0629424699843
 30
0.0
  0
VERTEX
  5
265
330
263
100
AcDbEntity
  8
_U+30EC_U+30A4_U+30E4_U+30FC 1
 62
   179
420
  2234388
370
    25
100
AcDbVertex
100
AcDb2dVertex
 10
98.97137969725198
 20
-120.4632746921064
 30
0.0
  0
SEQEND
  5
266
330
263
100
AcDbEntity
  8
_U+30EC_U+30A4_U+30E4_U+30FC 1
 62
   179
420
  2234388
370
    25
  0
POLYLINE
  5
267
330
247
100
AcDbEntity
  8
_U+30EC_U+30A4_U+30E4_U+30FC 1
 62
   179
420
  2234388
370
    25
100
AcDb2dPolyline
 66
     1
 10
0.0
 20
0.0
 30
0.0
  0
VERTEX
  5
268
330
267
100
AcDbEntity
  8
_U+30EC_U+30A4_U+30E4_U+30FC 1
 62
   179
420
  2234388
370
    25
100
AcDbVertex
100
AcDb2dVertex
 10
92.47187497688203
 20
-120.0643183033172
 30
0.0
  0
VERTEX
  5
269
330
267
100
AcDbEntity
  8
_U+30EC_U+30A4_U+30E4_U+30FC 1
 62
   179
420
  2234388
370
    25
100
AcDbVertex
100
AcDb2dVertex
 10
91.97163608811833
 20
-120.4646505254392
 30
0.0
  0
SEQEND
  5
26A
330
267
100
AcDbEntity
  8
_U+30EC_U+30A4_U+30E4_U+30FC 1
 62
   179
420
  2234388
370
    25
  0
POLYLINE
  5
26B
330
247
100
AcDbEntity
  8
_U+30EC_U+30A4_U+30E4_U+30FC 1
 62
   179
420
  2234388
370
    25
100
AcDb2dPolyline
 66
     1
 10
0.0
 20
0.0
 30
0.0
  0
VERTEX
  5
26C
330
26B
100
AcDbEntity
  8
_U+30EC_U+30A4_U+30E4_U+30FC 1
 62
   179
420
  2234388
370
    25
100
AcDbVertex
100
AcDb2dVertex
 10
93.47164719885458
 20
-120.0643183033172
 30
0.0
  0
VERTEX
  5
26D
330
26B
100
AcDbEntity
  8
_U+30EC_U+30A4_U+30E4_U+30FC 1
 62
   179
420
  2234388
370
    25
100
AcDbVertex
100
AcDb2dVertex
 10
92.97140831009023
 20
-120.4639802476619
 30
0.0
  0
SEQEND
  5
26E
330
26B
100
AcDbEntity
  8
_U+30EC_U+30A4_U+30E4_U+30FC 1
 62
   179
420
  2234388
370
    25
  0
POLYLINE
  5
26F
330
247
100
AcDbEntity
  8
_U+30EC_U+30A4_U+30E4_U+30FC 1
 62
   179
420
  2234388
370
    25
100
AcDb2dPolyline
 66
     1
 10
0.0
 20
0.0
 30
0.0
  0
VERTEX
  5
270
330
26F
100
AcDbEntity
  8
_U+30EC_U+30A4_U+30E4_U+30FC 1
 62
   179
420
  2234388
370
    25
100
AcDbVertex
100
AcDb2dVertex
 10
92.97140831009023
 20
-120.4639802476619
 30
0.0
  0
VERTEX
  5
271
330
26F
100
AcDbEntity
  8
_U+30EC_U+30A4_U+30E4_U+30FC 1
 62
   179
420
  2234388
370
    25
100
AcDbVertex
100
AcDb2dVertex
 10
92.47187497688203
 20
-120.0643183033172
 30
0.0
  0
SEQEND
  5
272
330
26F
100
AcDbEntity
  8
_U+30EC_U+30A4_U+30E4_U+30FC 1
 62
   179
420
  2234388
370
    25
  0
POLYLINE
  5
273
330
247
100
AcDbEntity
  8
_U+30EC_U+30A4_U+30E4_U+30FC 1
 62
   179
420
  2234388
370
    25
100
AcDb2dPolyline
 66
     1
 10
0.0
 20
0.0
 30
0.0
  0
VERTEX
  5
274
330
273
100
AcDbEntity
  8
_U+30EC_U+30A4_U+30E4_U+30FC 1
 62
   179
420
  2234388
370
    25
100
AcDbVertex
100
AcDb2dVertex
 10
93.97188608761829
 20
-120.4639802476619
 30
0.0
  0
VERTEX
  5
275
330
273
100
AcDbEntity
  8
_U+30EC_U+30A4_U+30E4_U+30FC 1
 62
   179
420
  2234388
370
    25
100
AcDbVertex
100
AcDb2dVertex
 10
93.47164719885458
 20
-120.0643183033172
 30
0.0
  0
SEQEND
  5
276
330
273
100
AcDbEntity
  8
_U+30EC_U+30A4_U+30E4_U+30FC 1
 62
   179
420
  2234388
370
    25
  0
POLYLINE
  5
277
330
247
100
AcDbEntity
  8
_U+30EC_U+30A4_U+30E4_U+30FC 1
 62
   179
420
  2234388
370
    25
100
AcDb2dPolyline
 66
     1
 10
0.0
 20
0.0
 30
0.0
  0
VERTEX
  5
278
330
277
100
AcDbEntity
  8
_U+30EC_U+30A4_U+30E4_U+30FC 1
 62
   179
420
  2234388
370
    25
100
AcDbVertex
100
AcDb2dVertex
 10
98.97137969725198
 20
-120.4632746921064
 30
0.0
  0
VERTEX
  5
279
330
277
100
AcDbEntity
  8
_U+30EC_U+30A4_U+30E4_U+30FC 1
 62
   179
420
  2234388
370
    25
100
AcDbVertex
100
AcDb2dVertex
 10
98.47117609890212
 20
-120.0629424699843
 30
0.0
  0
SEQEND
  5
27A
330
277
100
AcDbEntity
  8
_U+30EC_U+30A4_U+30E4_U+30FC 1
 62
   179
420
  2234388
370
    25
  0
POLYLINE
  5
27B
330
247
100
AcDbEntity
  8
_U+30EC_U+30A4_U+30E4_U+30FC 1
 62
   179
420
  2234388
370
    25
100
AcDb2dPolyline
 66
     1
 10
0.0
 20
0.0
 30
0.0
  0
VERTEX
  5
27C
330
27B
100
AcDbEntity
  8
_U+30EC_U+30A4_U+30E4_U+30FC 1
 62
   179
420
  2234388
370
    25
100
AcDbVertex
100
AcDb2dVertex
 10
94.47141942082648
 20
-120.0636480255398
 30
0.0
  0
VERTEX
  5
27D
330
27B
100
AcDbEntity
  8
_U+30EC_U+30A4_U+30E4_U+30FC 1
 62
   179
420
  2234388
370
    25
100
AcDbVertex
100
AcDb2dVertex
 10
93.97188608761829
 20
-120.4639802476619
 30
0.0
  0
SEQEND
  5
27E
330
27B
100
AcDbEntity
  8
_U+30EC_U+30A4_U+30E4_U+30FC 1
 62
   179
420
  2234388
370
    25
  0
POLYLINE
  5
27F
330
247
100
AcDbEntity
  8
_U+30EC_U+30A4_U+30E4_U+30FC 1
 62
   179
420
  2234388
370
    25
100
AcDb2dPolyline
 66
     1
 10
0.0
 20
0.0
 30
0.0
  0
VERTEX
  5
280
330
27F
100
AcDbEntity
  8
_U+30EC_U+30A4_U+30E4_U+30FC 1
 62
   179
420
  2234388
370
    25
100
AcDbVertex
100
AcDb2dVertex
 10
94.97162063262766
 20
-120.4639802476619
 30
0.0
  0
VERTEX
  5
281
330
27F
100
AcDbEntity
  8
_U+30EC_U+30A4_U+30E4_U+30FC 1
 62
   179
420
  2234388
370
    25
100
AcDbVertex
100
AcDb2dVertex
 10
94.47141942082648
 20
-120.0636480255398
 30
0.0
  0
SEQEND
  5
282
330
27F
100
AcDbEntity
  8
_U+30EC_U+30A4_U+30E4_U+30FC 1
 62
   179
420
  2234388
370
    25
  0
POLYLINE
  5
283
330
247
100
AcDbEntity
  8
_U+30EC_U+30A4_U+30E4_U+30FC 1
 62
   179
420
  2234388
370
    25
100
AcDb2dPolyline
 66
     1
 10
0.0
 20
0.0
 30
0.0
  0
VERTEX
  5
284
330
283
100
AcDbEntity
  8
_U+30EC_U+30A4_U+30E4_U+30FC 1
 62
   179
420
  2234388
370
    25
100
AcDbVertex
100
AcDb2dVertex
 10
96.47092614993274
 20
-120.0636480255398
 30
0.0
  0
VERTEX
  5
285
330
283
100
AcDbEntity
  8
_U+30EC_U+30A4_U+30E4_U+30FC 1
 62
   179
420
  2234388
370
    25
100
AcDbVertex
100
AcDb2dVertex
 10
95.97139282934357
 20
-120.4632746921064
 30
0.0
  0
SEQEND
  5
286
330
283
100
AcDbEntity
  8
_U+30EC_U+30A4_U+30E4_U+30FC 1
 62
   179
420
  2234388
370
    25
  0
POLYLINE
  5
287
330
247
100
AcDbEntity
  8
_U+30EC_U+30A4_U+30E4_U+30FC 1
 62
   179
420
  2234388
370
    25
100
AcDb2dPolyline
 66
     1
 10
0.0
 20
0.0
 30
0.0
  0
VERTEX
  5
288
330
287
100
AcDbEntity
  8
_U+30EC_U+30A4_U+30E4_U+30FC 1
 62
   179
420
  2234388
370
    25
100
AcDbVertex
100
AcDb2dVertex
 10
97.47140390218621
 20
-120.0636480255398
 30
0.0
  0
VERTEX
  5
289
330
287
100
AcDbEntity
  8
_U+30EC_U+30A4_U+30E4_U+30FC 1
 62
   179
420
  2234388
370
    25
100
AcDbVertex
100
AcDb2dVertex
 10
96.97116502605948
 20
-120.4632746921064
 30
0.0
  0
SEQEND
  5
28A
330
287
100
AcDbEntity
  8
_U+30EC_U+30A4_U+30E4_U+30FC 1
 62
   179
420
  2234388
370
    25
  0
POLYLINE
  5
28B
330
247
100
AcDbEntity
  8
_U+30EC_U+30A4_U+30E4_U+30FC 1
 62
   179
420
  2234388
370
    25
100
AcDb2dPolyline
 66
     1
 10
0.0
 20
0.0
 30
0.0
  0
VERTEX
  5
28C
330
28B
100
AcDbEntity
  8
_U+30EC_U+30A4_U+30E4_U+30FC 1
 62
   179
420
  2234388
370
    25
100
AcDbVertex
100
AcDb2dVertex
 10
96.97116502605948
 20
-120.4632746921064
 30
0.0
  0
VERTEX
  5
28D
330
28B
100
AcDbEntity
  8
_U+30EC_U+30A4_U+30E4_U+30FC 1
 62
   179
420
  2234388
370
    25
100
AcDbVertex
100
AcDb2dVertex
 10
96.47092614993274
 20
-120.0636480255398
 30
0.0
  0
SEQEND
  5
28E
330
28B
100
AcDbEntity
  8
_U+30EC_U+30A4_U+30E4_U+30FC 1
 62
   179
420
  2234388
370
    25
  0
POLYLINE
  5
28F
330
247
100
AcDbEntity
  8
_U+30EC_U+30A4_U+30E4_U+30FC 1
 62
   179
420
  2234388
370
    25
100
AcDb2dPolyline
 66
     1
 10
0.0
 20
0.0
 30
0.0
  0
VERTEX
  5
290
330
28F
100
AcDbEntity
  8
_U+30EC_U+30A4_U+30E4_U+30FC 1
 62
   179
420
  2234388
370
    25
100
AcDbVertex
100
AcDb2dVertex
 10
95.97139282934357
 20
-120.4632746921064
 30
0.0
  0
VERTEX
  5
291
330
28F
100
AcDbEntity
  8
_U+30EC_U+30A4_U+30E4_U+30FC 1
 62
   179
420
  2234388
370
    25
100
AcDbVertex
100
AcDb2dVertex
 10
95.47119164279901
 20
-120.0636480255398
 30
0.0
  0
SEQEND
  5
292
330
28F
100
AcDbEntity
  8
_U+30EC_U+30A4_U+30E4_U+30FC 1
 62
   179
420
  2234388
370
    25
  0
POLYLINE
  5
293
330
247
100
AcDbEntity
  8
_U+30EC_U+30A4_U+30E4_U+30FC 1
 62
   179
420
  2234388
370
    25
100
AcDb2dPolyline
 66
     1
 10
0.0
 20
0.0
 30
0.0
  0
VERTEX
  5
294
330
293
100
AcDbEntity
  8
_U+30EC_U+30A4_U+30E4_U+30FC 1
 62
   179
420
  2234388
370
    25
100
AcDbVertex
100
AcDb2dVertex
 10
98.47117609890212
 20
-120.0629424699843
 30
0.0
  0
VERTEX
  5
295
330
293
100
AcDbEntity
  8
_U+30EC_U+30A4_U+30E4_U+30FC 1
 62
   179
420
  2234388
370
    25
100
AcDbVertex
100
AcDb2dVertex
 10
97.97093722277538
 20
-120.4632746921064
 30
0.0
  0
SEQEND
  5
296
330
293
100
AcDbEntity
  8
_U+30EC_U+30A4_U+30E4_U+30FC 1
 62
   179
420
  2234388
370
    25
  0
POLYLINE
  5
297
330
247
100
AcDbEntity
  8
_U+30EC_U+30A4_U+30E4_U+30FC 1
 62
   179
420
  2234388
370
    25
100
AcDb2dPolyline
 66
     1
 10
0.0
 20
0.0
 30
0.0
  0
VERTEX
  5
298
330
297
100
AcDbEntity
  8
_U+30EC_U+30A4_U+30E4_U+30FC 1
 62
   179
420
  2234388
370
    25
100
AcDbVertex
100
AcDb2dVertex
 10
97.97093722277538
 20
-120.4632746921064
 30
0.0
  0
VERTEX
  5
299
330
297
100
AcDbEntity
  8
_U+30EC_U+30A4_U+30E4_U+30FC 1
 62
   179
420
  2234388
370
    25
100
AcDbVertex
100
AcDb2dVertex
 10
97.47140390218621
 20
-120.0636480255398
 30
0.0
  0
SEQEND
  5
29A
330
297
100
AcDbEntity
  8
_U+30EC_U+30A4_U+30E4_U+30FC 1
 62
   179
420
  2234388
370
    25
  0
POLYLINE
  5
29B
330
247
100
AcDbEntity
  8
_U+30EC_U+30A4_U+30E4_U+30FC 1
 62
   179
420
  2234388
370
    25
100
AcDb2dPolyline
 66
     1
 10
0.0
 20
0.0
 30
0.0
  0
VERTEX
  5
29C
330
29B
100
AcDbEntity
  8
_U+30EC_U+30A4_U+30E4_U+30FC 1
 62
   179
420
  2234388
370
    25
100
AcDbVertex
100
AcDb2dVertex
 10
89.47118021740003
 20
-120.0650238588727
 30
0.0
  0
VERTEX
  5
29D
330
29B
100
AcDbEntity
  8
_U+30EC_U+30A4_U+30E4_U+30FC 1
 62
   179
420
  2234388
370
    25
100
AcDbVertex
100
AcDb2dVertex
 10
88.97097661905018
 20
-120.4653560809948
 30
0.0
  0
SEQEND
  5
29E
330
29B
100
AcDbEntity
  8
_U+30EC_U+30A4_U+30E4_U+30FC 1
 62
   179
420
  2234388
370
    25
  0
POLYLINE
  5
29F
330
247
100
AcDbEntity
  8
_U+30EC_U+30A4_U+30E4_U+30FC 1
 62
   179
420
  2234388
370
    25
100
AcDb2dPolyline
 66
     1
 10
0.0
 20
0.0
 30
0.0
  0
VERTEX
  5
2A0
330
29F
100
AcDbEntity
  8
_U+30EC_U+30A4_U+30E4_U+30FC 1
 62
   179
420
  2234388
370
    25
100
AcDbVertex
100
AcDb2dVertex
 10
88.97097661905018
 20
-120.4653560809948
 30
0.0
  0
VERTEX
  5
2A1
330
29F
100
AcDbEntity
  8
_U+30EC_U+30A4_U+30E4_U+30FC 1
 62
   179
420
  2234388
370
    25
100
AcDbVertex
100
AcDb2dVertex
 10
88.471443298461
 20
-120.0650238588727
 30
0.0
  0
SEQEND
  5
2A2
330
29F
100
AcDbEntity
  8
_U+30EC_U+30A4_U+30E4_U+30FC 1
 62
   179
420
  2234388
370
    25
  0
ENDBLK
  5
24A
330
247
100
AcDbEntity
  8
0
100
AcDbBlockEnd
  0
BLOCK
  5
2A5
330
2A3
100
AcDbEntity
  8
0
100
AcDbBlockBegin
  2
block 31
 70
     0
 10
0.0
 20
0.0
 30
0.0
  3
block 31
  1

  0
POLYLINE
  5
2A7
330
2A3
100
AcDbEntity
  8
_U+30EC_U+30A4_U+30E4_U+30FC 1
 62
   179
420
  2234388
370
    25
100
AcDb2dPolyline
 66
     1
 10
0.0
 20
0.0
 30
0.0
  0
VERTEX
  5
2A8
330
2A7
100
AcDbEntity
  8
_U+30EC_U+30A4_U+30E4_U+30FC 1
 62
   179
420
  2234388
370
    25
100
AcDbVertex
100
AcDb2dVertex
 10
87.47096554620754
 20
-120.0629424699843
 30
0.0
  0
VERTEX
  5
2A9
330
2A7
100
AcDbEntity
  8
_U+30EC_U+30A4_U+30E4_U+30FC 1
 62
   179
420
  2234388
370
    25
100
AcDbVertex
100
AcDb2dVertex
 10
86.97143222561836
 20
-120.4632746921064
 30
0.0
  0
SEQEND
  5
2AA
330
2A7
100
AcDbEntity
  8
_U+30EC_U+30A4_U+30E4_U+30FC 1
 62
   179
420
  2234388
370
    25
  0
POLYLINE
  5
2AB
330
2A3
100
AcDbEntity
  8
_U+30EC_U+30A4_U+30E4_U+30FC 1
 62
   179
420
  2234388
370
    25
100
AcDb2dPolyline
 66
     1
 10
0.0
 20
0.0
 30
0.0
  0
VERTEX
  5
2AC
330
2AB
100
AcDbEntity
  8
_U+30EC_U+30A4_U+30E4_U+30FC 1
 62
   179
420
  2234388
370
    25
100
AcDbVertex
100
AcDb2dVertex
 10
86.97143222561836
 20
-120.4632746921064
 30
0.0
  0
VERTEX
  5
2AD
330
2AB
100
AcDbEntity
  8
_U+30EC_U+30A4_U+30E4_U+30FC 1
 62
   179
420
  2234388
370
    25
100
AcDbVertex
100
AcDb2dVertex
 10
86.47119334949163
 20
-120.0629424699843
 30
0.0
  0
SEQEND
  5
2AE
330
2AB
100
AcDbEntity
  8
_U+30EC_U+30A4_U+30E4_U+30FC 1
 62
   179
420
  2234388
370
    25
  0
POLYLINE
  5
2AF
330
2A3
100
AcDbEntity
  8
_U+30EC_U+30A4_U+30E4_U+30FC 1
 62
   179
420
  2234388
370
    25
100
AcDb2dPolyline
 66
     1
 10
0.0
 20
0.0
 30
0.0
  0
VERTEX
  5
2B0
330
2AF
100
AcDbEntity
  8
_U+30EC_U+30A4_U+30E4_U+30FC 1
 62
   179
420
  2234388
370
    25
100
AcDbVertex
100
AcDb2dVertex
 10
87.97120442233427
 20
-120.4626044143287
 30
0.0
  0
VERTEX
  5
2B1
330
2AF
100
AcDbEntity
  8
_U+30EC_U+30A4_U+30E4_U+30FC 1
 62
   179
420
  2234388
370
    25
100
AcDbVertex
100
AcDb2dVertex
 10
87.47096554620754
 20
-120.0629424699843
 30
0.0
  0
SEQEND
  5
2B2
330
2AF
100
AcDbEntity
  8
_U+30EC_U+30A4_U+30E4_U+30FC 1
 62
   179
420
  2234388
370
    25
  0
POLYLINE
  5
2B3
330
2A3
100
AcDbEntity
  8
_U+30EC_U+30A4_U+30E4_U+30FC 1
 62
   179
420
  2234388
370
    25
100
AcDb2dPolyline
 66
     1
 10
0.0
 20
0.0
 30
0.0
  0
VERTEX
  5
2B4
330
2B3
100
AcDbEntity
  8
_U+30EC_U+30A4_U+30E4_U+30FC 1
 62
   179
420
  2234388
370
    25
100
AcDbVertex
100
AcDb2dVertex
 10
84.47097867829913
 20
-120.0636480255398
 30
0.0
  0
VERTEX
  5
2B5
330
2B3
100
AcDbEntity
  8
_U+30EC_U+30A4_U+30E4_U+30FC 1
 62
   179
420
  2234388
370
    25
100
AcDbVertex
100
AcDb2dVertex
 10
83.9707398021724
 20
-120.4632746921064
 30
0.0
  0
SEQEND
  5
2B6
330
2B3
100
AcDbEntity
  8
_U+30EC_U+30A4_U+30E4_U+30FC 1
 62
   179
420
  2234388
370
    25
  0
POLYLINE
  5
2B7
330
2A3
100
AcDbEntity
  8
_U+30EC_U+30A4_U+30E4_U+30FC 1
 62
   179
420
  2234388
370
    25
100
AcDb2dPolyline
 66
     1
 10
0.0
 20
0.0
 30
0.0
  0
VERTEX
  5
2B8
330
2B7
100
AcDbEntity
  8
_U+30EC_U+30A4_U+30E4_U+30FC 1
 62
   179
420
  2234388
370
    25
100
AcDbVertex
100
AcDb2dVertex
 10
85.47145643055259
 20
-120.0636480255398
 30
0.0
  0
VERTEX
  5
2B9
330
2B7
100
AcDbEntity
  8
_U+30EC_U+30A4_U+30E4_U+30FC 1
 62
   179
420
  2234388
370
    25
100
AcDbVertex
100
AcDb2dVertex
 10
84.97121755442586
 20
-120.4632746921064
 30
0.0
  0
SEQEND
  5
2BA
330
2B7
100
AcDbEntity
  8
_U+30EC_U+30A4_U+30E4_U+30FC 1
 62
   179
420
  2234388
370
    25
  0
POLYLINE
  5
2BB
330
2A3
100
AcDbEntity
  8
_U+30EC_U+30A4_U+30E4_U+30FC 1
 62
   179
420
  2234388
370
    25
100
AcDb2dPolyline
 66
     1
 10
0.0
 20
0.0
 30
0.0
  0
VERTEX
  5
2BC
330
2BB
100
AcDbEntity
  8
_U+30EC_U+30A4_U+30E4_U+30FC 1
 62
   179
420
  2234388
370
    25
100
AcDbVertex
100
AcDb2dVertex
 10
84.97121755442586
 20
-120.4632746921064
 30
0.0
  0
VERTEX
  5
2BD
330
2BB
100
AcDbEntity
  8
_U+30EC_U+30A4_U+30E4_U+30FC 1
 62
   179
420
  2234388
370
    25
100
AcDbVertex
100
AcDb2dVertex
 10
84.47097867829913
 20
-120.0636480255398
 30
0.0
  0
SEQEND
  5
2BE
330
2BB
100
AcDbEntity
  8
_U+30EC_U+30A4_U+30E4_U+30FC 1
 62
   179
420
  2234388
370
    25
  0
POLYLINE
  5
2BF
330
2A3
100
AcDbEntity
  8
_U+30EC_U+30A4_U+30E4_U+30FC 1
 62
   179
420
  2234388
370
    25
100
AcDb2dPolyline
 66
     1
 10
0.0
 20
0.0
 30
0.0
  0
VERTEX
  5
2C0
330
2BF
100
AcDbEntity
  8
_U+30EC_U+30A4_U+30E4_U+30FC 1
 62
   179
420
  2234388
370
    25
100
AcDbVertex
100
AcDb2dVertex
 10
88.471443298461
 20
-120.0622721922066
 30
0.0
  0
VERTEX
  5
2C1
330
2BF
100
AcDbEntity
  8
_U+30EC_U+30A4_U+30E4_U+30FC 1
 62
   179
420
  2234388
370
    25
100
AcDbVertex
100
AcDb2dVertex
 10
87.97120442233427
 20
-120.4626044143287
 30
0.0
  0
SEQEND
  5
2C2
330
2BF
100
AcDbEntity
  8
_U+30EC_U+30A4_U+30E4_U+30FC 1
 62
   179
420
  2234388
370
    25
  0
POLYLINE
  5
2C3
330
2A3
100
AcDbEntity
  8
_U+30EC_U+30A4_U+30E4_U+30FC 1
 62
   179
420
  2234388
370
    25
100
AcDb2dPolyline
 66
     1
 10
0.0
 20
0.0
 30
0.0
  0
VERTEX
  5
2C4
330
2C3
100
AcDbEntity
  8
_U+30EC_U+30A4_U+30E4_U+30FC 1
 62
   179
420
  2234388
370
    25
100
AcDbVertex
100
AcDb2dVertex
 10
86.47119334949163
 20
-120.0629424699843
 30
0.0
  0
VERTEX
  5
2C5
330
2C3
100
AcDbEntity
  8
_U+30EC_U+30A4_U+30E4_U+30FC 1
 62
   179
420
  2234388
370
    25
100
AcDbVertex
100
AcDb2dVertex
 10
85.97098975114177
 20
-120.4632746921064
 30
0.0
  0
SEQEND
  5
2C6
330
2C3
100
AcDbEntity
  8
_U+30EC_U+30A4_U+30E4_U+30FC 1
 62
   179
420
  2234388
370
    25
  0
POLYLINE
  5
2C7
330
2A3
100
AcDbEntity
  8
_U+30EC_U+30A4_U+30E4_U+30FC 1
 62
   179
420
  2234388
370
    25
100
AcDb2dPolyline
 66
     1
 10
0.0
 20
0.0
 30
0.0
  0
VERTEX
  5
2C8
330
2C7
100
AcDbEntity
  8
_U+30EC_U+30A4_U+30E4_U+30FC 1
 62
   179
420
  2234388
370
    25
100
AcDbVertex
100
AcDb2dVertex
 10
85.97098975114177
 20
-120.4632746921064
 30
0.0
  0
VERTEX
  5
2C9
330
2C7
100
AcDbEntity
  8
_U+30EC_U+30A4_U+30E4_U+30FC 1
 62
   179
420
  2234388
370
    25
100
AcDbVertex
100
AcDb2dVertex
 10
85.47145643055259
 20
-120.0636480255398
 30
0.0
  0
SEQEND
  5
2CA
330
2C7
100
AcDbEntity
  8
_U+30EC_U+30A4_U+30E4_U+30FC 1
 62
   179
420
  2234388
370
    25
  0
ENDBLK
  5
2A6
330
2A3
100
AcDbEntity
  8
0
100
AcDbBlockEnd
  0
BLOCK
  5
2CD
330
2CB
100
AcDbEntity
  8
0
100
AcDbBlockBegin
  2
block 32
 70
     0
 10
0.0
 20
0.0
 30
0.0
  3
block 32
  1

  0
INSERT
  5
2D0
330
2CB
100
AcDbEntity
  8
_U+30EC_U+30A4_U+30E4_U+30FC 1
100
AcDbBlockReference
  2
block 33
 10
0.0
 20
0.0
 30
0.0
  0
INSERT
  5
300
330
2CB
100
AcDbEntity
  8
_U+30EC_U+30A4_U+30E4_U+30FC 1
100
AcDbBlockReference
  2
block 34
 10
0.0
 20
0.0
 30
0.0
  0
ENDBLK
  5
2CE
330
2CB
100
AcDbEntity
  8
0
100
AcDbBlockEnd
  0
BLOCK
  5
2D1
330
2CF
100
AcDbEntity
  8
0
100
AcDbBlockBegin
  2
block 33
 70
     0
 10
0.0
 20
0.0
 30
0.0
  3
block 33
  1

  0
POLYLINE
  5
2D3
330
2CF
100
AcDbEntity
  8
_U+30EC_U+30A4_U+30E4_U+30FC 1
 62
   179
420
  2234388
370
    25
100
AcDb2dPolyline
 66
     1
 10
0.0
 20
0.0
 30
0.0
  0
VERTEX
  5
2D4
330
2D3
100
AcDbEntity
  8
_U+30EC_U+30A4_U+30E4_U+30FC 1
 62
   179
420
  2234388
370
    25
100
AcDbVertex
100
AcDb2dVertex
 10
106.4720347836721
 20
-120.0643183033172
 30
0.0
  0
VERTEX
  5
2D5
330
2D3
100
AcDbEntity
  8
_U+30EC_U+30A4_U+30E4_U+30FC 1
 62
   179
420
  2234388
370
    25
100
AcDbVertex
100
AcDb2dVertex
 10
105.9718311853222
 20
-120.4646505254392
 30
0.0
  0
SEQEND
  5
2D6
330
2D3
100
AcDbEntity
  8
_U+30EC_U+30A4_U+30E4_U+30FC 1
 62
   179
420
  2234388
370
    25
  0
POLYLINE
  5
2D7
330
2CF
100
AcDbEntity
  8
_U+30EC_U+30A4_U+30E4_U+30FC 1
 62
   179
420
  2234388
370
    25
100
AcDb2dPolyline
 66
     1
 10
0.0
 20
0.0
 30
0.0
  0
VERTEX
  5
2D8
330
2D7
100
AcDbEntity
  8
_U+30EC_U+30A4_U+30E4_U+30FC 1
 62
   179
420
  2234388
370
    25
100
AcDbVertex
100
AcDb2dVertex
 10
106.9716033820382
 20
-120.4646505254392
 30
0.0
  0
VERTEX
  5
2D9
330
2D7
100
AcDbEntity
  8
_U+30EC_U+30A4_U+30E4_U+30FC 1
 62
   179
420
  2234388
370
    25
100
AcDbVertex
100
AcDb2dVertex
 10
106.4720347836721
 20
-120.0643183033172
 30
0.0
  0
SEQEND
  5
2DA
330
2D7
100
AcDbEntity
  8
_U+30EC_U+30A4_U+30E4_U+30FC 1
 62
   179
420
  2234388
370
    25
  0
POLYLINE
  5
2DB
330
2CF
100
AcDbEntity
  8
_U+30EC_U+30A4_U+30E4_U+30FC 1
 62
   179
420
  2234388
370
    25
100
AcDb2dPolyline
 66
     1
 10
0.0
 20
0.0
 30
0.0
  0
VERTEX
  5
2DC
330
2DB
100
AcDbEntity
  8
_U+30EC_U+30A4_U+30E4_U+30FC 1
 62
   179
420
  2234388
370
    25
100
AcDbVertex
100
AcDb2dVertex
 10
107.9720458565147
 20
-120.4646505254392
 30
0.0
  0
VERTEX
  5
2DD
330
2DB
100
AcDbEntity
  8
_U+30EC_U+30A4_U+30E4_U+30FC 1
 62
   179
420
  2234388
370
    25
100
AcDbVertex
100
AcDb2dVertex
 10
107.4711367026273
 20
-120.0643183033172
 30
0.0
  0
SEQEND
  5
2DE
330
2DB
100
AcDbEntity
  8
_U+30EC_U+30A4_U+30E4_U+30FC 1
 62
   179
420
  2234388
370
    25
  0
POLYLINE
  5
2DF
330
2CF
100
AcDbEntity
  8
_U+30EC_U+30A4_U+30E4_U+30FC 1
 62
   179
420
  2234388
370
    25
100
AcDb2dPolyline
 66
     1
 10
0.0
 20
0.0
 30
0.0
  0
VERTEX
  5
2E0
330
2DF
100
AcDbEntity
  8
_U+30EC_U+30A4_U+30E4_U+30FC 1
 62
   179
420
  2234388
370
    25
100
AcDbVertex
100
AcDb2dVertex
 10
105.9718311853222
 20
-120.4646505254392
 30
0.0
  0
VERTEX
  5
2E1
330
2DF
100
AcDbEntity
  8
_U+30EC_U+30A4_U+30E4_U+30FC 1
 62
   179
420
  2234388
370
    25
100
AcDbVertex
100
AcDb2dVertex
 10
105.4715923091955
 20
-120.0650238588727
 30
0.0
  0
SEQEND
  5
2E2
330
2DF
100
AcDbEntity
  8
_U+30EC_U+30A4_U+30E4_U+30FC 1
 62
   179
420
  2234388
370
    25
  0
POLYLINE
  5
2E3
330
2CF
100
AcDbEntity
  8
_U+30EC_U+30A4_U+30E4_U+30FC 1
 62
   179
420
  2234388
370
    25
100
AcDb2dPolyline
 66
     1
 10
0.0
 20
0.0
 30
0.0
  0
VERTEX
  5
2E4
330
2E3
100
AcDbEntity
  8
_U+30EC_U+30A4_U+30E4_U+30FC 1
 62
   179
420
  2234388
370
    25
100
AcDbVertex
100
AcDb2dVertex
 10
107.4711367026273
 20
-120.0643183033172
 30
0.0
  0
VERTEX
  5
2E5
330
2E3
100
AcDbEntity
  8
_U+30EC_U+30A4_U+30E4_U+30FC 1
 62
   179
420
  2234388
370
    25
100
AcDbVertex
100
AcDb2dVertex
 10
106.9716033820382
 20
-120.4646505254392
 30
0.0
  0
SEQEND
  5
2E6
330
2E3
100
AcDbEntity
  8
_U+30EC_U+30A4_U+30E4_U+30FC 1
 62
   179
420
  2234388
370
    25
  0
POLYLINE
  5
2E7
330
2CF
100
AcDbEntity
  8
_U+30EC_U+30A4_U+30E4_U+30FC 1
 62
   179
420
  2234388
370
    25
100
AcDb2dPolyline
 66
     1
 10
0.0
 20
0.0
 30
0.0
  0
VERTEX
  5
2E8
330
2E7
100
AcDbEntity
  8
_U+30EC_U+30A4_U+30E4_U+30FC 1
 62
   179
420
  2234388
370
    25
100
AcDbVertex
100
AcDb2dVertex
 10
108.4715791771039
 20
-120.0643183033172
 30
0.0
  0
VERTEX
  5
2E9
330
2E7
100
AcDbEntity
  8
_U+30EC_U+30A4_U+30E4_U+30FC 1
 62
   179
420
  2234388
370
    25
100
AcDbVertex
100
AcDb2dVertex
 10
107.9720458565147
 20
-120.4646505254392
 30
0.0
  0
SEQEND
  5
2EA
330
2E7
100
AcDbEntity
  8
_U+30EC_U+30A4_U+30E4_U+30FC 1
 62
   179
420
  2234388
370
    25
  0
POLYLINE
  5
2EB
330
2CF
100
AcDbEntity
  8
_U+30EC_U+30A4_U+30E4_U+30FC 1
 62
   179
420
  2234388
370
    25
100
AcDb2dPolyline
 66
     1
 10
0.0
 20
0.0
 30
0.0
  0
VERTEX
  5
2EC
330
2EB
100
AcDbEntity
  8
_U+30EC_U+30A4_U+30E4_U+30FC 1
 62
   179
420
  2234388
370
    25
100
AcDbVertex
100
AcDb2dVertex
 10
109.4713513738198
 20
-120.0643183033172
 30
0.0
  0
VERTEX
  5
2ED
330
2EB
100
AcDbEntity
  8
_U+30EC_U+30A4_U+30E4_U+30FC 1
 62
   179
420
  2234388
370
    25
100
AcDbVertex
100
AcDb2dVertex
 10
108.9718180532306
 20
-120.4639802476619
 30
0.0
  0
SEQEND
  5
2EE
330
2EB
100
AcDbEntity
  8
_U+30EC_U+30A4_U+30E4_U+30FC 1
 62
   179
420
  2234388
370
    25
  0
POLYLINE
  5
2EF
330
2CF
100
AcDbEntity
  8
_U+30EC_U+30A4_U+30E4_U+30FC 1
 62
   179
420
  2234388
370
    25
100
AcDb2dPolyline
 66
     1
 10
0.0
 20
0.0
 30
0.0
  0
VERTEX
  5
2F0
330
2EF
100
AcDbEntity
  8
_U+30EC_U+30A4_U+30E4_U+30FC 1
 62
   179
420
  2234388
370
    25
100
AcDbVertex
100
AcDb2dVertex
 10
108.9718180532306
 20
-120.4639802476619
 30
0.0
  0
VERTEX
  5
2F1
330
2EF
100
AcDbEntity
  8
_U+30EC_U+30A4_U+30E4_U+30FC 1
 62
   179
420
  2234388
370
    25
100
AcDbVertex
100
AcDb2dVertex
 10
108.4715791771039
 20
-120.0643183033172
 30
0.0
  0
SEQEND
  5
2F2
330
2EF
100
AcDbEntity
  8
_U+30EC_U+30A4_U+30E4_U+30FC 1
 62
   179
420
  2234388
370
    25
  0
POLYLINE
  5
2F3
330
2CF
100
AcDbEntity
  8
_U+30EC_U+30A4_U+30E4_U+30FC 1
 62
   179
420
  2234388
370
    25
100
AcDb2dPolyline
 66
     1
 10
0.0
 20
0.0
 30
0.0
  0
VERTEX
  5
2F4
330
2F3
100
AcDbEntity
  8
_U+30EC_U+30A4_U+30E4_U+30FC 1
 62
   179
420
  2234388
370
    25
100
AcDbVertex
100
AcDb2dVertex
 10
109.9715902499465
 20
-120.4639802476619
 30
0.0
  0
VERTEX
  5
2F5
330
2F3
100
AcDbEntity
  8
_U+30EC_U+30A4_U+30E4_U+30FC 1
 62
   179
420
  2234388
370
    25
100
AcDbVertex
100
AcDb2dVertex
 10
109.4713513738198
 20
-120.0643183033172
 30
0.0
  0
SEQEND
  5
2F6
330
2F3
100
AcDbEntity
  8
_U+30EC_U+30A4_U+30E4_U+30FC 1
 62
   179
420
  2234388
370
    25
  0
POLYLINE
  5
2F7
330
2CF
100
AcDbEntity
  8
_U+30EC_U+30A4_U+30E4_U+30FC 1
 62
   179
420
  2234388
370
    25
100
AcDb2dPolyline
 66
     1
 10
0.0
 20
0.0
 30
0.0
  0
VERTEX
  5
2F8
330
2F7
100
AcDbEntity
  8
_U+30EC_U+30A4_U+30E4_U+30FC 1
 62
   179
420
  2234388
370
    25
100
AcDbVertex
100
AcDb2dVertex
 10
105.4715923091955
 20
-120.0650238588727
 30
0.0
  0
VERTEX
  5
2F9
330
2F7
100
AcDbEntity
  8
_U+30EC_U+30A4_U+30E4_U+30FC 1
 62
   179
420
  2234388
370
    25
100
AcDbVertex
100
AcDb2dVertex
 10
104.9713534330688
 20
-120.4653560809948
 30
0.0
  0
SEQEND
  5
2FA
330
2F7
100
AcDbEntity
  8
_U+30EC_U+30A4_U+30E4_U+30FC 1
 62
   179
420
  2234388
370
    25
  0
POLYLINE
  5
2FB
330
2CF
100
AcDbEntity
  8
_U+30EC_U+30A4_U+30E4_U+30FC 1
 62
   179
420
  2234388
370
    25
100
AcDb2dPolyline
 66
     1
 10
0.0
 20
0.0
 30
0.0
  0
VERTEX
  5
2FC
330
2FB
100
AcDbEntity
  8
_U+30EC_U+30A4_U+30E4_U+30FC 1
 62
   179
420
  2234388
370
    25
100
AcDbVertex
100
AcDb2dVertex
 10
104.9713534330688
 20
-120.4653560809948
 30
0.0
  0
VERTEX
  5
2FD
330
2FB
100
AcDbEntity
  8
_U+30EC_U+30A4_U+30E4_U+30FC 1
 62
   179
420
  2234388
370
    25
100
AcDbVertex
100
AcDb2dVertex
 10
104.4718201124796
 20
-120.0650238588727
 30
0.0
  0
SEQEND
  5
2FE
330
2FB
100
AcDbEntity
  8
_U+30EC_U+30A4_U+30E4_U+30FC 1
 62
   179
420
  2234388
370
    25
  0
ENDBLK
  5
2D2
330
2CF
100
AcDbEntity
  8
0
100
AcDbBlockEnd
  0
BLOCK
  5
301
330
2FF
100
AcDbEntity
  8
0
100
AcDbBlockBegin
  2
block 34
 70
     0
 10
0.0
 20
0.0
 30
0.0
  3
block 34
  1

  0
POLYLINE
  5
303
330
2FF
100
AcDbEntity
  8
_U+30EC_U+30A4_U+30E4_U+30FC 1
 62
   179
420
  2234388
370
    25
100
AcDb2dPolyline
 66
     1
 10
0.0
 20
0.0
 30
0.0
  0
VERTEX
  5
304
330
303
100
AcDbEntity
  8
_U+30EC_U+30A4_U+30E4_U+30FC 1
 62
   179
420
  2234388
370
    25
100
AcDbVertex
100
AcDb2dVertex
 10
103.471377638003
 20
-120.0629424699843
 30
0.0
  0
VERTEX
  5
305
330
303
100
AcDbEntity
  8
_U+30EC_U+30A4_U+30E4_U+30FC 1
 62
   179
420
  2234388
370
    25
100
AcDbVertex
100
AcDb2dVertex
 10
102.9718443174138
 20
-120.4632746921064
 30
0.0
  0
SEQEND
  5
306
330
303
100
AcDbEntity
  8
_U+30EC_U+30A4_U+30E4_U+30FC 1
 62
   179
420
  2234388
370
    25
  0
POLYLINE
  5
307
330
2FF
100
AcDbEntity
  8
_U+30EC_U+30A4_U+30E4_U+30FC 1
 62
   179
420
  2234388
370
    25
100
AcDb2dPolyline
 66
     1
 10
0.0
 20
0.0
 30
0.0
  0
VERTEX
  5
308
330
307
100
AcDbEntity
  8
_U+30EC_U+30A4_U+30E4_U+30FC 1
 62
   179
420
  2234388
370
    25
100
AcDbVertex
100
AcDb2dVertex
 10
102.9718443174138
 20
-120.4632746921064
 30
0.0
  0
VERTEX
  5
309
330
307
100
AcDbEntity
  8
_U+30EC_U+30A4_U+30E4_U+30FC 1
 62
   179
420
  2234388
370
    25
100
AcDbVertex
100
AcDb2dVertex
 10
102.4716054412871
 20
-120.0629424699843
 30
0.0
  0
SEQEND
  5
30A
330
307
100
AcDbEntity
  8
_U+30EC_U+30A4_U+30E4_U+30FC 1
 62
   179
420
  2234388
370
    25
  0
POLYLINE
  5
30B
330
2FF
100
AcDbEntity
  8
_U+30EC_U+30A4_U+30E4_U+30FC 1
 62
   179
420
  2234388
370
    25
100
AcDb2dPolyline
 66
     1
 10
0.0
 20
0.0
 30
0.0
  0
VERTEX
  5
30C
330
30B
100
AcDbEntity
  8
_U+30EC_U+30A4_U+30E4_U+30FC 1
 62
   179
420
  2234388
370
    25
100
AcDbVertex
100
AcDb2dVertex
 10
103.9716165141297
 20
-120.4626044143287
 30
0.0
  0
VERTEX
  5
30D
330
30B
100
AcDbEntity
  8
_U+30EC_U+30A4_U+30E4_U+30FC 1
 62
   179
420
  2234388
370
    25
100
AcDbVertex
100
AcDb2dVertex
 10
103.471377638003
 20
-120.0629424699843
 30
0.0
  0
SEQEND
  5
30E
330
30B
100
AcDbEntity
  8
_U+30EC_U+30A4_U+30E4_U+30FC 1
 62
   179
420
  2234388
370
    25
  0
POLYLINE
  5
30F
330
2FF
100
AcDbEntity
  8
_U+30EC_U+30A4_U+30E4_U+30FC 1
 62
   179
420
  2234388
370
    25
100
AcDb2dPolyline
 66
     1
 10
0.0
 20
0.0
 30
0.0
  0
VERTEX
  5
310
330
30F
100
AcDbEntity
  8
_U+30EC_U+30A4_U+30E4_U+30FC 1
 62
   179
420
  2234388
370
    25
100
AcDbVertex
100
AcDb2dVertex
 10
100.4713907700946
 20
-120.0636480255398
 30
0.0
  0
VERTEX
  5
311
330
30F
100
AcDbEntity
  8
_U+30EC_U+30A4_U+30E4_U+30FC 1
 62
   179
420
  2234388
370
    25
100
AcDbVertex
100
AcDb2dVertex
 10
99.97115189396787
 20
-120.4632746921064
 30
0.0
  0
SEQEND
  5
312
330
30F
100
AcDbEntity
  8
_U+30EC_U+30A4_U+30E4_U+30FC 1
 62
   179
420
  2234388
370
    25
  0
POLYLINE
  5
313
330
2FF
100
AcDbEntity
  8
_U+30EC_U+30A4_U+30E4_U+30FC 1
 62
   179
420
  2234388
370
    25
100
AcDb2dPolyline
 66
     1
 10
0.0
 20
0.0
 30
0.0
  0
VERTEX
  5
314
330
313
100
AcDbEntity
  8
_U+30EC_U+30A4_U+30E4_U+30FC 1
 62
   179
420
  2234388
370
    25
100
AcDbVertex
100
AcDb2dVertex
 10
101.4718332445712
 20
-120.0636480255398
 30
0.0
  0
VERTEX
  5
315
330
313
100
AcDbEntity
  8
_U+30EC_U+30A4_U+30E4_U+30FC 1
 62
   179
420
  2234388
370
    25
100
AcDbVertex
100
AcDb2dVertex
 10
100.9716296462213
 20
-120.4632746921064
 30
0.0
  0
SEQEND
  5
316
330
313
100
AcDbEntity
  8
_U+30EC_U+30A4_U+30E4_U+30FC 1
 62
   179
420
  2234388
370
    25
  0
POLYLINE
  5
317
330
2FF
100
AcDbEntity
  8
_U+30EC_U+30A4_U+30E4_U+30FC 1
 62
   179
420
  2234388
370
    25
100
AcDb2dPolyline
 66
     1
 10
0.0
 20
0.0
 30
0.0
  0
VERTEX
  5
318
330
317
100
AcDbEntity
  8
_U+30EC_U+30A4_U+30E4_U+30FC 1
 62
   179
420
  2234388
370
    25
100
AcDbVertex
100
AcDb2dVertex
 10
100.9716296462213
 20
-120.4632746921064
 30
0.0
  0
VERTEX
  5
319
330
317
100
AcDbEntity
  8
_U+30EC_U+30A4_U+30E4_U+30FC 1
 62
   179
420
  2234388
370
    25
100
AcDbVertex
100
AcDb2dVertex
 10
100.4713907700946
 20
-120.0636480255398
 30
0.0
  0
SEQEND
  5
31A
330
317
100
AcDbEntity
  8
_U+30EC_U+30A4_U+30E4_U+30FC 1
 62
   179
420
  2234388
370
    25
  0
POLYLINE
  5
31B
330
2FF
100
AcDbEntity
  8
_U+30EC_U+30A4_U+30E4_U+30FC 1
 62
   179
420
  2234388
370
    25
100
AcDb2dPolyline
 66
     1
 10
0.0
 20
0.0
 30
0.0
  0
VERTEX
  5
31C
330
31B
100
AcDbEntity
  8
_U+30EC_U+30A4_U+30E4_U+30FC 1
 62
   179
420
  2234388
370
    25
100
AcDbVertex
100
AcDb2dVertex
 10
104.4718201124796
 20
-120.0622721922066
 30
0.0
  0
VERTEX
  5
31D
330
31B
100
AcDbEntity
  8
_U+30EC_U+30A4_U+30E4_U+30FC 1
 62
   179
420
  2234388
370
    25
100
AcDbVertex
100
AcDb2dVertex
 10
103.9716165141297
 20
-120.4626044143287
 30
0.0
  0
SEQEND
  5
31E
330
31B
100
AcDbEntity
  8
_U+30EC_U+30A4_U+30E4_U+30FC 1
 62
   179
420
  2234388
370
    25
  0
POLYLINE
  5
31F
330
2FF
100
AcDbEntity
  8
_U+30EC_U+30A4_U+30E4_U+30FC 1
 62
   179
420
  2234388
370
    25
100
AcDb2dPolyline
 66
     1
 10
0.0
 20
0.0
 30
0.0
  0
VERTEX
  5
320
330
31F
100
AcDbEntity
  8
_U+30EC_U+30A4_U+30E4_U+30FC 1
 62
   179
420
  2234388
370
    25
100
AcDbVertex
100
AcDb2dVertex
 10
99.97115189396787
 20
-120.4632746921064
 30
0.0
  0
VERTEX
  5
321
330
31F
100
AcDbEntity
  8
_U+30EC_U+30A4_U+30E4_U+30FC 1
 62
   179
420
  2234388
370
    25
100
AcDbVertex
100
AcDb2dVertex
 10
99.4716185733787
 20
-120.0636480255398
 30
0.0
  0
SEQEND
  5
322
330
31F
100
AcDbEntity
  8
_U+30EC_U+30A4_U+30E4_U+30FC 1
 62
   179
420
  2234388
370
    25
  0
POLYLINE
  5
323
330
2FF
100
AcDbEntity
  8
_U+30EC_U+30A4_U+30E4_U+30FC 1
 62
   179
420
  2234388
370
    25
100
AcDb2dPolyline
 66
     1
 10
0.0
 20
0.0
 30
0.0
  0
VERTEX
  5
324
330
323
100
AcDbEntity
  8
_U+30EC_U+30A4_U+30E4_U+30FC 1
 62
   179
420
  2234388
370
    25
100
AcDbVertex
100
AcDb2dVertex
 10
102.4716054412871
 20
-120.0629424699843
 30
0.0
  0
VERTEX
  5
325
330
323
100
AcDbEntity
  8
_U+30EC_U+30A4_U+30E4_U+30FC 1
 62
   179
420
  2234388
370
    25
100
AcDbVertex
100
AcDb2dVertex
 10
101.9713665651604
 20
-120.4632746921064
 30
0.0
  0
SEQEND
  5
326
330
323
100
AcDbEntity
  8
_U+30EC_U+30A4_U+30E4_U+30FC 1
 62
   179
420
  2234388
370
    25
  0
POLYLINE
  5
327
330
2FF
100
AcDbEntity
  8
_U+30EC_U+30A4_U+30E4_U+30FC 1
 62
   179
420
  2234388
370
    25
100
AcDb2dPolyline
 66
     1
 10
0.0
 20
0.0
 30
0.0
  0
VERTEX
  5
328
330
327
100
AcDbEntity
  8
_U+30EC_U+30A4_U+30E4_U+30FC 1
 62
   179
420
  2234388
370
    25
100
AcDbVertex
100
AcDb2dVertex
 10
101.9713665651604
 20
-120.4632746921064
 30
0.0
  0
VERTEX
  5
329
330
327
100
AcDbEntity
  8
_U+30EC_U+30A4_U+30E4_U+30FC 1
 62
   179
420
  2234388
370
    25
100
AcDbVertex
100
AcDb2dVertex
 10
101.4718332445712
 20
-120.0636480255398
 30
0.0
  0
SEQEND
  5
32A
330
327
100
AcDbEntity
  8
_U+30EC_U+30A4_U+30E4_U+30FC 1
 62
   179
420
  2234388
370
    25
  0
ENDBLK
  5
302
330
2FF
100
AcDbEntity
  8
0
100
AcDbBlockEnd
  0
BLOCK
  5
32D
330
32B
100
AcDbEntity
  8
0
100
AcDbBlockBegin
  2
block 35
 70
     0
 10
0.0
 20
0.0
 30
0.0
  3
block 35
  1

  0
INSERT
  5
330
330
32B
100
AcDbEntity
  8
_U+30EC_U+30A4_U+30E4_U+30FC 1
100
AcDbBlockReference
  2
block 36
 10
0.0
 20
0.0
 30
0.0
  0
ENDBLK
  5
32E
330
32B
100
AcDbEntity
  8
0
100
AcDbBlockEnd
  0
BLOCK
  5
331
330
32F
100
AcDbEntity
  8
0
100
AcDbBlockBegin
  2
block 36
 70
     0
 10
0.0
 20
0.0
 30
0.0
  3
block 36
  1

  0
INSERT
  5
334
330
32F
100
AcDbEntity
  8
_U+30EC_U+30A4_U+30E4_U+30FC 1
100
AcDbBlockReference
  2
block 37
 10
0.0
 20
0.0
 30
0.0
  0
INSERT
  5
358
330
32F
100
AcDbEntity
  8
_U+30EC_U+30A4_U+30E4_U+30FC 1
100
AcDbBlockReference
  2
block 39
 10
0.0
 20
0.0
 30
0.0
  0
ENDBLK
  5
332
330
32F
100
AcDbEntity
  8
0
100
AcDbBlockEnd
  0
BLOCK
  5
335
330
333
100
AcDbEntity
  8
0
100
AcDbBlockBegin
  2
block 37
 70
     0
 10
0.0
 20
0.0
 30
0.0
  3
block 37
  1

  0
INSERT
  5
338
330
333
100
AcDbEntity
  8
_U+30EC_U+30A4_U+30E4_U+30FC 1
100
AcDbBlockReference
  2
block 38
 10
0.0
 20
0.0
 30
0.0
  0
ENDBLK
  5
336
330
333
100
AcDbEntity
  8
0
100
AcDbBlockEnd
  0
BLOCK
  5
339
330
337
100
AcDbEntity
  8
0
100
AcDbBlockBegin
  2
block 38
 70
     0
 10
0.0
 20
0.0
 30
0.0
  3
block 38
  1

  0
POLYLINE
  5
33B
330
337
100
AcDbEntity
  8
_U+30EC_U+30A4_U+30E4_U+30FC 1
 62
   179
420
  2234388
370
    25
100
AcDb2dPolyline
 66
     1
 10
0.0
 20
0.0
 30
0.0
  0
VERTEX
  5
33C
330
33B
100
AcDbEntity
  8
_U+30EC_U+30A4_U+30E4_U+30FC 1
 62
   179
420
  2234388
370
    25
100
AcDbVertex
100
AcDb2dVertex
 10
113.4717807162048
 20
-120.0629424699843
 30
0.0
  0
VERTEX
  5
33D
330
33B
100
AcDbEntity
  8
_U+30EC_U+30A4_U+30E4_U+30FC 1
 62
   179
420
  2234388
370
    25
100
AcDbVertex
100
AcDb2dVertex
 10
112.9715771178549
 20
-120.4632746921064
 30
0.0
  0
SEQEND
  5
33E
330
33B
100
AcDbEntity
  8
_U+30EC_U+30A4_U+30E4_U+30FC 1
 62
   179
420
  2234388
370
    25
  0
POLYLINE
  5
33F
330
337
100
AcDbEntity
  8
_U+30EC_U+30A4_U+30E4_U+30FC 1
 62
   179
420
  2234388
370
    25
100
AcDb2dPolyline
 66
     1
 10
0.0
 20
0.0
 30
0.0
  0
VERTEX
  5
340
330
33F
100
AcDbEntity
  8
_U+30EC_U+30A4_U+30E4_U+30FC 1
 62
   179
420
  2234388
370
    25
100
AcDbVertex
100
AcDb2dVertex
 10
112.9715771178549
 20
-120.4632746921064
 30
0.0
  0
VERTEX
  5
341
330
33F
100
AcDbEntity
  8
_U+30EC_U+30A4_U+30E4_U+30FC 1
 62
   179
420
  2234388
370
    25
100
AcDbVertex
100
AcDb2dVertex
 10
112.4713382417282
 20
-120.0629424699843
 30
0.0
  0
SEQEND
  5
342
330
33F
100
AcDbEntity
  8
_U+30EC_U+30A4_U+30E4_U+30FC 1
 62
   179
420
  2234388
370
    25
  0
POLYLINE
  5
343
330
337
100
AcDbEntity
  8
_U+30EC_U+30A4_U+30E4_U+30FC 1
 62
   179
420
  2234388
370
    25
100
AcDb2dPolyline
 66
     1
 10
0.0
 20
0.0
 30
0.0
  0
VERTEX
  5
344
330
343
100
AcDbEntity
  8
_U+30EC_U+30A4_U+30E4_U+30FC 1
 62
   179
420
  2234388
370
    25
100
AcDbVertex
100
AcDb2dVertex
 10
110.4711235705357
 20
-120.0636480255398
 30
0.0
  0
VERTEX
  5
345
330
343
100
AcDbEntity
  8
_U+30EC_U+30A4_U+30E4_U+30FC 1
 62
   179
420
  2234388
370
    25
100
AcDbVertex
100
AcDb2dVertex
 10
109.9715902499465
 20
-120.4632746921064
 30
0.0
  0
SEQEND
  5
346
330
343
100
AcDbEntity
  8
_U+30EC_U+30A4_U+30E4_U+30FC 1
 62
   179
420
  2234388
370
    25
  0
POLYLINE
  5
347
330
337
100
AcDbEntity
  8
_U+30EC_U+30A4_U+30E4_U+30FC 1
 62
   179
420
  2234388
370
    25
100
AcDb2dPolyline
 66
     1
 10
0.0
 20
0.0
 30
0.0
  0
VERTEX
  5
348
330
347
100
AcDbEntity
  8
_U+30EC_U+30A4_U+30E4_U+30FC 1
 62
   179
420
  2234388
370
    25
100
AcDbVertex
100
AcDb2dVertex
 10
111.4715660450123
 20
-120.0636480255398
 30
0.0
  0
VERTEX
  5
349
330
347
100
AcDbEntity
  8
_U+30EC_U+30A4_U+30E4_U+30FC 1
 62
   179
420
  2234388
370
    25
100
AcDbVertex
100
AcDb2dVertex
 10
110.9713624466625
 20
-120.4632746921064
 30
0.0
  0
SEQEND
  5
34A
330
347
100
AcDbEntity
  8
_U+30EC_U+30A4_U+30E4_U+30FC 1
 62
   179
420
  2234388
370
    25
  0
POLYLINE
  5
34B
330
337
100
AcDbEntity
  8
_U+30EC_U+30A4_U+30E4_U+30FC 1
 62
   179
420
  2234388
370
    25
100
AcDb2dPolyline
 66
     1
 10
0.0
 20
0.0
 30
0.0
  0
VERTEX
  5
34C
330
34B
100
AcDbEntity
  8
_U+30EC_U+30A4_U+30E4_U+30FC 1
 62
   179
420
  2234388
370
    25
100
AcDbVertex
100
AcDb2dVertex
 10
110.9713624466625
 20
-120.4632746921064
 30
0.0
  0
VERTEX
  5
34D
330
34B
100
AcDbEntity
  8
_U+30EC_U+30A4_U+30E4_U+30FC 1
 62
   179
420
  2234388
370
    25
100
AcDbVertex
100
AcDb2dVertex
 10
110.4711235705357
 20
-120.0636480255398
 30
0.0
  0
SEQEND
  5
34E
330
34B
100
AcDbEntity
  8
_U+30EC_U+30A4_U+30E4_U+30FC 1
 62
   179
420
  2234388
370
    25
  0
POLYLINE
  5
34F
330
337
100
AcDbEntity
  8
_U+30EC_U+30A4_U+30E4_U+30FC 1
 62
   179
420
  2234388
370
    25
100
AcDb2dPolyline
 66
     1
 10
0.0
 20
0.0
 30
0.0
  0
VERTEX
  5
350
330
34F
100
AcDbEntity
  8
_U+30EC_U+30A4_U+30E4_U+30FC 1
 62
   179
420
  2234388
370
    25
100
AcDbVertex
100
AcDb2dVertex
 10
112.4713382417282
 20
-120.0629424699843
 30
0.0
  0
VERTEX
  5
351
330
34F
100
AcDbEntity
  8
_U+30EC_U+30A4_U+30E4_U+30FC 1
 62
   179
420
  2234388
370
    25
100
AcDbVertex
100
AcDb2dVertex
 10
111.9710993656015
 20
-120.4632746921064
 30
0.0
  0
SEQEND
  5
352
330
34F
100
AcDbEntity
  8
_U+30EC_U+30A4_U+30E4_U+30FC 1
 62
   179
420
  2234388
370
    25
  0
POLYLINE
  5
353
330
337
100
AcDbEntity
  8
_U+30EC_U+30A4_U+30E4_U+30FC 1
 62
   179
420
  2234388
370
    25
100
AcDb2dPolyline
 66
     1
 10
0.0
 20
0.0
 30
0.0
  0
VERTEX
  5
354
330
353
100
AcDbEntity
  8
_U+30EC_U+30A4_U+30E4_U+30FC 1
 62
   179
420
  2234388
370
    25
100
AcDbVertex
100
AcDb2dVertex
 10
111.9710993656015
 20
-120.4632746921064
 30
0.0
  0
VERTEX
  5
355
330
353
100
AcDbEntity
  8
_U+30EC_U+30A4_U+30E4_U+30FC 1
 62
   179
420
  2234388
370
    25
100
AcDbVertex
100
AcDb2dVertex
 10
111.4715660450123
 20
-120.0636480255398
 30
0.0
  0
SEQEND
  5
356
330
353
100
AcDbEntity
  8
_U+30EC_U+30A4_U+30E4_U+30FC 1
 62
   179
420
  2234388
370
    25
  0
ENDBLK
  5
33A
330
337
100
AcDbEntity
  8
0
100
AcDbBlockEnd
  0
BLOCK
  5
359
330
357
100
AcDbEntity
  8
0
100
AcDbBlockBegin
  2
block 39
 70
     0
 10
0.0
 20
0.0
 30
0.0
  3
block 39
  1

  0
INSERT
  5
35C
330
357
100
AcDbEntity
  8
_U+30EC_U+30A4_U+30E4_U+30FC 1
100
AcDbBlockReference
  2
block 40
 10
0.0
 20
0.0
 30
0.0
  0
ENDBLK
  5
35A
330
357
100
AcDbEntity
  8
0
100
AcDbBlockEnd
  0
BLOCK
  5
35D
330
35B
100
AcDbEntity
  8
0
100
AcDbBlockBegin
  2
block 40
 70
     0
 10
0.0
 20
0.0
 30
0.0
  3
block 40
  1

  0
POLYLINE
  5
35F
330
35B
100
AcDbEntity
  8
_U+30EC_U+30A4_U+30E4_U+30FC 1
 62
   179
420
  2234388
370
    25
100
AcDb2dPolyline
 66
     1
 10
0.0
 20
0.0
 30
0.0
  0
VERTEX
  5
360
330
35F
100
AcDbEntity
  8
_U+30EC_U+30A4_U+30E4_U+30FC 1
 62
   179
420
  2234388
370
    25
100
AcDbVertex
100
AcDb2dVertex
 10
114.4715529129207
 20
-120.0636480255398
 30
0.0
  0
VERTEX
  5
361
330
35F
100
AcDbEntity
  8
_U+30EC_U+30A4_U+30E4_U+30FC 1
 62
   179
420
  2234388
370
    25
100
AcDbVertex
100
AcDb2dVertex
 10
113.9713493145709
 20
-120.4632746921064
 30
0.0
  0
SEQEND
  5
362
330
35F
100
AcDbEntity
  8
_U+30EC_U+30A4_U+30E4_U+30FC 1
 62
   179
420
  2234388
370
    25
  0
POLYLINE
  5
363
330
35B
100
AcDbEntity
  8
_U+30EC_U+30A4_U+30E4_U+30FC 1
 62
   179
420
  2234388
370
    25
100
AcDb2dPolyline
 66
     1
 10
0.0
 20
0.0
 30
0.0
  0
VERTEX
  5
364
330
363
100
AcDbEntity
  8
_U+30EC_U+30A4_U+30E4_U+30FC 1
 62
   179
420
  2234388
370
    25
100
AcDbVertex
100
AcDb2dVertex
 10
115.2391267822272
 20
-120.2793010810413
 30
0.0
  0
VERTEX
  5
365
330
363
100
AcDbEntity
  8
_U+30EC_U+30A4_U+30E4_U+30FC 1
 62
   179
420
  2234388
370
    25
100
AcDbVertex
100
AcDb2dVertex
 10
114.4715529129207
 20
-120.0636480255398
 30
0.0
  0
SEQEND
  5
366
330
363
100
AcDbEntity
  8
_U+30EC_U+30A4_U+30E4_U+30FC 1
 62
   179
420
  2234388
370
    25
  0
POLYLINE
  5
367
330
35B
100
AcDbEntity
  8
_U+30EC_U+30A4_U+30E4_U+30FC 1
 62
   179
420
  2234388
370
    25
100
AcDb2dPolyline
 66
     1
 10
0.0
 20
0.0
 30
0.0
  0
VERTEX
  5
368
330
367
100
AcDbEntity
  8
_U+30EC_U+30A4_U+30E4_U+30FC 1
 62
   179
420
  2234388
370
    25
100
AcDbVertex
100
AcDb2dVertex
 10
113.9713493145709
 20
-120.4632746921064
 30
0.0
  0
VERTEX
  5
369
330
367
100
AcDbEntity
  8
_U+30EC_U+30A4_U+30E4_U+30FC 1
 62
   179
420
  2234388
370
    25
100
AcDbVertex
100
AcDb2dVertex
 10
113.4717807162048
 20
-120.0636480255398
 30
0.0
  0
SEQEND
  5
36A
330
367
100
AcDbEntity
  8
_U+30EC_U+30A4_U+30E4_U+30FC 1
 62
   179
420
  2234388
370
    25
  0
ENDBLK
  5
35E
330
35B
100
AcDbEntity
  8
0
100
AcDbBlockEnd
  0
ENDSEC
  0
SECTION
  2
ENTITIES
  0
INSERT
  5
42
330
1F
100
AcDbEntity
  8
_U+30EC_U+30A4_U+30E4_U+30FC 1
100
AcDbBlockReference
  2
block 2
 10
0.0
 20
0.0
 30
0.0
  0
SPLINE
  5
375
330
1F
100
AcDbEntity
  8
_U+30EC_U+30A4_U+30E4_U+30FC 1
 62
   179
420
  2234388
370
    25
100
AcDbSpline
210
0.0
220
0.0
230
1.0
 70
     8
 71
     3
 72
    11
 73
     7
 74
     0
 42
0.0000000001
 43
0.0000000001
 12
1.0
 22
0.0
 32
0.0
 13
1.0
 23
0.0
 33
0.0
 40
0.0
 40
0.0
 40
0.0
 40
0.0
 40
1.0
 40
1.0
 40
1.0
 40
2.0
 40
2.0
 40
2.0
 40
2.0
 10
91.23990211672061
 20
-130.7634333006424
 30
0.0
 10
92.06843598447185
 20
-130.7634333006424
 30
0.0
 10
92.73991318956325
 20
-131.4348752449189
 30
0.0
 10
92.73991318956325
 20
-132.2634091336011
 30
0.0
 10
92.73991318956325
 20
-132.5397046890875
 30
0.0
 10
92.96382123940644
 20
-132.7632952445871
 30
0.0
 10
93.24011678791311
 20
-132.7632952445871
 30
0.0
  0
SPLINE
  5
376
330
1F
100
AcDbEntity
  8
_U+30EC_U+30A4_U+30E4_U+30FC 1
 62
   179
420
  2234388
370
    25
100
AcDbSpline
210
0.0
220
0.0
230
1.0
 70
     8
 71
     3
 72
     8
 73
     4
 74
     0
 42
0.0000000001
 43
0.0000000001
 12
1.0
 22
0.0
 32
0.0
 13
1.0
 23
0.0
 33
0.0
 40
0.0
 40
0.0
 40
0.0
 40
0.0
 40
1.0
 40
1.0
 40
1.0
 40
1.0
 10
67.27270967261909
 20
-121.6790527473582
 30
0.0
 10
67.27270967261909
 20
-120.905975525329
 30
0.0
 10
67.89973687884451
 20
-120.2793010810413
 30
0.0
 10
68.67281408134389
 20
-120.2793010810413
 30
0.0
  0
ENDSEC
  0
SECTION
  2
OBJECTS
  0
DICTIONARY
  5
C
330
0
100
AcDbDictionary
281
     1
  3
ACAD_GROUP
350
D
  3
ACAD_LAYOUT
350
1A
  3
ACAD_MATERIAL
350
3B
  3
ACAD_MLEADERSTYLE
350
378
  3
ACAD_MLINESTYLE
350
17
  3
ACAD_PLOTSETTINGS
350
19
  3
ACAD_PLOTSTYLENAME
350
E
  3
ACAD_TABLESTYLE
350
377
  3
ACAD_VISUALSTYLE
350
2A
  0
SUN
  5
3F
330
29
100
AcDbSun
 90
        1
290
     0
 63
     7
421
 16777215
 40
1.0
291
     1
 91
  2455826
 92
 54000000
292
     0
 70
     2
 71
   256
280
     1
  0
DICTIONARY
  5
D
102
{ACAD_REACTORS
330
C
102
}
330
C
100
AcDbDictionary
281
     1
  0
DICTIONARY
  5
1A
102
{ACAD_REACTORS
330
C
102
}
330
C
100
AcDbDictionary
281
     1
  3
Layout1
350
1E
  3
Layout2
350
26
  3
Model
350
22
  0
DICTIONARY
  5
3B
102
{ACAD_REACTORS
330
C
102
}
330
C
100
AcDbDictionary
281
     1
  3
ByBlock
350
3D
  3
ByLayer
350
3C
  3
Global
350
3E
  0
DICTIONARY
  5
378
102
{ACAD_REACTORS
330
C
102
}
330
C
100
AcDbDictionary
281
     1
  0
DICTIONARY
  5
17
102
{ACAD_REACTORS
330
C
102
}
330
C
100
AcDbDictionary
281
     1
  3
Standard
350
18
  0
DICTIONARY
  5
19
102
{ACAD_REACTORS
330
C
102
}
330
C
100
AcDbDictionary
281
     1
  0
ACDBDICTIONARYWDFLT
  5
E
102
{ACAD_REACTORS
330
C
102
}
330
C
100
AcDbDictionary
281
     1
  3
Normal
350
F
100
AcDbDictionaryWithDefault
340
F
  0
DICTIONARY
  5
377
102
{ACAD_REACTORS
330
C
102
}
330
C
100
AcDbDictionary
281
     1
  0
DICTIONARY
  5
2A
102
{ACAD_REACTORS
330
C
102
}
330
C
100
AcDbDictionary
281
     1
  3
2dWireframe
350
2F
  3
3D Hidden
350
31
  3
3dWireframe
350
30
  3
Basic
350
32
  3
Brighten
350
36
  3
ColorChange
350
3A
  3
Conceptual
350
34
  3
Dim
350
35
  3
Facepattern
350
39
  3
Flat
350
2B
  3
FlatWithEdges
350
2C
  3
Gouraud
350
2D
  3
GouraudWithEdges
350
2E
  3
Linepattern
350
38
  3
Realistic
350
33
  3
Thicken
350
37
  0
LAYOUT
  5
1E
102
{ACAD_REACTORS
330
1A
102
}
330
1A
100
AcDbPlotSettings
  1

  2
none_device
  4

  6

 40
0.0
 41
0.0
 42
0.0
 43
0.0
 44
0.0
 45
0.0
 46
0.0
 47
0.0
 48
0.0
 49
0.0
140
0.0
141
0.0
142
1.0
143
1.0
 70
   688
 72
     0
 73
     0
 74
     5
  7

 75
    16
 76
     0
 77
     2
 78
   300
147
1.0
148
0.0
149
0.0
100
AcDbLayout
  1
Layout1
 70
     1
 71
     1
 10
0.0
 20
0.0
 11
12.0
 21
9.0
 12
0.0
 22
0.0
 32
0.0
 14
1.000000000000000E+20
 24
1.000000000000000E+20
 34
1.000000000000000E+20
 15
-1.000000000000000E+20
 25
-1.000000000000000E+20
 35
-1.000000000000000E+20
146
0.0
 13
0.0
 23
0.0
 33
0.0
 16
1.0
 26
0.0
 36
0.0
 17
0.0
 27
1.0
 37
0.0
 76
     0
330
1B
  0
LAYOUT
  5
26
102
{ACAD_REACTORS
330
1A
102
}
330
1A
100
AcDbPlotSettings
  1

  2
none_device
  4

  6

 40
0.0
 41
0.0
 42
0.0
 43
0.0
 44
0.0
 45
0.0
 46
0.0
 47
0.0
 48
0.0
 49
0.0
140
0.0
141
0.0
142
1.0
143
1.0
 70
   688
 72
     0
 73
     0
 74
     5
  7

 75
    16
 76
     0
 77
     2
 78
   300
147
1.0
148
0.0
149
0.0
100
AcDbLayout
  1
Layout2
 70
     1
 71
     2
 10
0.0
 20
0.0
 11
0.0
 21
0.0
 12
0.0
 22
0.0
 32
0.0
 14
0.0
 24
0.0
 34
0.0
 15
0.0
 25
0.0
 35
0.0
146
0.0
 13
0.0
 23
0.0
 33
0.0
 16
1.0
 26
0.0
 36
0.0
 17
0.0
 27
1.0
 37
0.0
 76
     0
330
23
  0
LAYOUT
  5
22
102
{ACAD_REACTORS
330
1A
102
}
330
1A
100
AcDbPlotSettings
  1

  2
none_device
  4

  6

 40
0.0
 41
0.0
 42
0.0
 43
0.0
 44
0.0
 45
0.0
 46
0.0
 47
0.0
 48
0.0
 49
0.0
140
0.0
141
0.0
142
1.0
143
1.0
 70
  1712
 72
     0
 73
     0
 74
     0
  7

 75
     0
 76
     0
 77
     2
 78
   300
147
1.0
148
0.0
149
0.0
100
AcDbLayout
  1
Model
 70
     1
 71
     0
 10
0.0
 20
0.0
 11
12.0
 21
9.0
 12
0.0
 22
0.0
 32
0.0
 14
1.000000000000000E+20
 24
1.000000000000000E+20
 34
1.000000000000000E+20
 15
-1.000000000000000E+20
 25
-1.000000000000000E+20
 35
-1.000000000000000E+20
146
0.0
 13
0.0
 23
0.0
 33
0.0
 16
1.0
 26
0.0
 36
0.0
 17
0.0
 27
1.0
 37
0.0
 76
     0
330
1F
331
29
  0
MATERIAL
  5
3D
102
{ACAD_REACTORS
330
3B
102
}
330
3B
100
AcDbMaterial
  1
ByBlock
 72
     1
 94
      127
  0
MATERIAL
  5
3C
102
{ACAD_REACTORS
330
3B
102
}
330
3B
100
AcDbMaterial
  1
ByLayer
 72
     1
 94
      127
  0
MATERIAL
  5
3E
102
{ACAD_REACTORS
330
3B
102
}
330
3B
100
AcDbMaterial
  1
Global
 72
     1
 94
      127
  0
MLINESTYLE
  5
18
102
{ACAD_REACTORS
330
17
102
}
330
17
100
AcDbMlineStyle
  2
Standard
 70
     0
  3

 62
   256
 51
90.0
 52
90.0
 71
     2
 49
0.5
 62
   256
  6
BYLAYER
 49
-0.5
 62
   256
  6
BYLAYER
  0
ACDBPLACEHOLDER
  5
F
102
{ACAD_REACTORS
330
E
102
}
330
E
  0
VISUALSTYLE
  5
2F
102
{ACAD_REACTORS
330
2A
102
}
330
2A
100
AcDbVisualStyle
  2
2dWireframe
 70
     4
177
     2
291
     0
 71
     0
176
     1
 72
     2
176
     1
 73
     0
176
     1
 90
        0
176
     1
 40
-0.6
176
     1
 41
-30.0
176
     1
 62
     5
 63
     7
421
 16777215
176
     1
 74
     1
176
     1
 91
        4
176
     1
 64
     7
176
     1
 65
   257
176
     1
 75
     1
176
     1
175
     1
176
     1
 42
1.0
176
     1
 92
        0
176
     1
 66
   257
176
     1
 43
1.0
176
     1
 76
     1
176
     1
 77
     6
176
     1
 78
     2
176
     1
 67
     7
176
     1
 79
     5
176
     1
170
     0
176
     1
171
     0
176
     1
290
     0
176
     1
 93
        1
176
     1
 44
0.0
176
     1
173
     0
176
     1
  0
VISUALSTYLE
  5
31
102
{ACAD_REACTORS
330
2A
102
}
330
2A
100
AcDbVisualStyle
  2
3D Hidden
 70
     6
177
     2
291
     0
 71
     1
176
     1
 72
     2
176
     1
 73
     2
176
     1
 90
        0
176
     1
 40
-0.6
176
     1
 41
-30.0
176
     1
 62
     5
 63
     7
421
 16777215
176
     1
 74
     2
176
     1
 91
        2
176
     1
 64
     7
176
     1
 65
   257
176
     1
 75
     2
176
     1
175
     1
176
     1
 42
40.0
176
     1
 92
        0
176
     1
 66
   257
176
     1
 43
1.0
176
     1
 76
     1
176
     1
 77
     6
176
     1
 78
     2
176
     1
 67
     7
176
     1
 79
     3
176
     1
170
     0
176
     1
171
     0
176
     1
290
     0
176
     1
 93
        1
176
     1
 44
0.0
176
     1
173
     0
176
     1
  0
VISUALSTYLE
  5
30
102
{ACAD_REACTORS
330
2A
102
}
330
2A
100
AcDbVisualStyle
  2
3dWireframe
 70
     5
177
     2
291
     0
 71
     0
176
     1
 72
     2
176
     1
 73
     0
176
     1
 90
        0
176
     1
 40
-0.6
176
     1
 41
-30.0
176
     1
 62
     5
 63
     7
421
 16777215
176
     1
 74
     1
176
     1
 91
        4
176
     1
 64
     7
176
     1
 65
   257
176
     1
 75
     1
176
     1
175
     1
176
     1
 42
1.0
176
     1
 92
        0
176
     1
 66
   257
176
     1
 43
1.0
176
     1
 76
     1
176
     1
 77
     6
176
     1
 78
     2
176
     1
 67
     7
176
     1
 79
     5
176
     1
170
     0
176
     1
171
     0
176
     1
290
     0
176
     1
 93
        1
176
     1
 44
0.0
176
     1
173
     0
176
     1
  0
VISUALSTYLE
  5
32
102
{ACAD_REACTORS
330
2A
102
}
330
2A
100
AcDbVisualStyle
  2
Basic
 70
     7
177
     2
291
     1
 71
     1
176
     1
 72
     0
176
     1
 73
     1
176
     1
 90
        0
176
     1
 40
-0.6
176
     1
 41
-30.0
176
     1
 62
     5
 63
     7
421
 16777215
176
     1
 74
     0
176
     1
 91
        4
176
     1
 64
     7
176
     1
 65
   257
176
     1
 75
     1
176
     1
175
     1
176
     1
 42
1.0
176
     1
 92
        8
176
     1
 66
     7
176
     1
 43
1.0
176
     1
 76
     1
176
     1
 77
     6
176
     1
 78
     2
176
     1
 67
     7
176
     1
 79
     5
176
     1
170
     0
176
     1
171
     0
176
     1
290
     0
176
     1
 93
        1
176
     1
 44
0.0
176
     1
173
     0
176
     1
  0
VISUALSTYLE
  5
36
102
{ACAD_REACTORS
330
2A
102
}
330
2A
100
AcDbVisualStyle
  2
Brighten
 70
    12
177
     2
291
     1
 71
     2
176
     1
 72
     2
176
     1
 73
     0
176
     1
 90
        0
176
     1
 40
-0.6
176
     1
 41
-30.0
176
     1
 62
     5
 63
     7
421
 16777215
176
     1
 74
     1
176
     1
 91
        4
176
     1
 64
     7
176
     1
 65
   257
176
     1
 75
     1
176
     1
175
     1
176
     1
 42
1.0
176
     1
 92
        8
176
     1
 66
     7
176
     1
 43
1.0
176
     1
 76
     1
176
     1
 77
     6
176
     1
 78
     2
176
     1
 67
     7
176
     1
 79
     5
176
     1
170
     0
176
     1
171
     0
176
     1
290
     0
176
     1
 93
        1
176
     1
 44
50.0
176
     1
173
     0
176
     1
  0
VISUALSTYLE
  5
3A
102
{ACAD_REACTORS
330
2A
102
}
330
2A
100
AcDbVisualStyle
  2
ColorChange
 70
    16
177
     2
291
     1
 71
     2
176
     1
 72
     2
176
     1
 73
     3
176
     1
 90
        0
176
     1
 40
-0.6
176
     1
 41
-30.0
176
     1
 62
     5
 63
     8
421
  8421504
176
     1
 74
     1
176
     1
 91
        4
176
     1
 64
     7
176
     1
 65
   257
176
     1
 75
     1
176
     1
175
     1
176
     1
 42
1.0
176
     1
 92
        8
176
     1
 66
     8
424
  8421504
176
     1
 43
1.0
176
     1
 76
     1
176
     1
 77
     6
176
     1
 78
     2
176
     1
 67
     7
176
     1
 79
     5
176
     1
170
     0
176
     1
171
     0
176
     1
290
     0
176
     1
 93
        1
176
     1
 44
0.0
176
     1
173
     0
176
     1
  0
VISUALSTYLE
  5
34
102
{ACAD_REACTORS
330
2A
102
}
330
2A
100
AcDbVisualStyle
  2
Conceptual
 70
     9
177
     2
291
     0
 71
     3
176
     1
 72
     2
176
     1
 73
     0
176
     1
 90
        0
176
     1
 40
-0.6
176
     1
 41
-30.0
176
     1
 62
     5
 63
     7
421
 16777215
176
     1
 74
     2
176
     1
 91
        2
176
     1
 64
     7
176
     1
 65
   257
176
     1
 75
     1
176
     1
175
     1
176
     1
 42
40.0
176
     1
 92
        8
176
     1
 66
     7
176
     1
 43
1.0
176
     1
 76
     1
176
     1
 77
     6
176
     1
 78
     2
176
     1
 67
     7
176
     1
 79
     3
176
     1
170
     0
176
     1
171
     0
176
     1
290
     0
176
     1
 93
        1
176
     1
 44
0.0
176
     1
173
     0
176
     1
  0
VISUALSTYLE
  5
35
102
{ACAD_REACTORS
330
2A
102
}
330
2A
100
AcDbVisualStyle
  2
Dim
 70
    11
177
     2
291
     1
 71
     2
176
     1
 72
     2
176
     1
 73
     0
176
     1
 90
        0
176
     1
 40
-0.6
176
     1
 41
-30.0
176
     1
 62
     5
 63
     7
421
 16777215
176
     1
 74
     1
176
     1
 91
        4
176
     1
 64
     7
176
     1
 65
   257
176
     1
 75
     1
176
     1
175
     1
176
     1
 42
1.0
176
     1
 92
        8
176
     1
 66
     7
176
     1
 43
1.0
176
     1
 76
     1
176
     1
 77
     6
176
     1
 78
     2
176
     1
 67
     7
176
     1
 79
     5
176
     1
170
     0
176
     1
171
     0
176
     1
290
     0
176
     1
 93
        1
176
     1
 44
-50.0
176
     1
173
     0
176
     1
  0
VISUALSTYLE
  5
39
102
{ACAD_REACTORS
330
2A
102
}
330
2A
100
AcDbVisualStyle
  2
Facepattern
 70
    15
177
     2
291
     1
 71
     2
176
     1
 72
     2
176
     1
 73
     0
176
     1
 90
        0
176
     1
 40
-0.6
176
     1
 41
-30.0
176
     1
 62
     5
 63
     7
421
 16777215
176
     1
 74
     1
176
     1
 91
        4
176
     1
 64
     7
176
     1
 65
   257
176
     1
 75
     1
176
     1
175
     1
176
     1
 42
1.0
176
     1
 92
        8
176
     1
 66
     7
176
     1
 43
1.0
176
     1
 76
     1
176
     1
 77
     6
176
     1
 78
     2
176
     1
 67
     7
176
     1
 79
     5
176
     1
170
     0
176
     1
171
     0
176
     1
290
     0
176
     1
 93
        1
176
     1
 44
0.0
176
     1
173
     0
176
     1
  0
VISUALSTYLE
  5
2B
102
{ACAD_REACTORS
330
2A
102
}
330
2A
100
AcDbVisualStyle
  2
Flat
 70
     0
177
     2
291
     1
 71
     2
176
     1
 72
     1
176
     1
 73
     1
176
     1
 90
        2
176
     1
 40
-0.6
176
     1
 41
30.0
176
     1
 62
     5
 63
     7
421
 16777215
176
     1
 74
     0
176
     1
 91
        4
176
     1
 64
     7
176
     1
 65
   257
176
     1
 75
     1
176
     1
175
     1
176
     1
 42
1.0
176
     1
 92
        8
176
     1
 66
     7
176
     1
 43
1.0
176
     1
 76
     1
176
     1
 77
     6
176
     1
 78
     2
176
     1
 67
     7
176
     1
 79
     5
176
     1
170
     0
176
     1
171
     0
176
     1
290
     0
176
     1
 93
       13
176
     1
 44
0.0
176
     1
173
     0
176
     1
  0
VISUALSTYLE
  5
2C
102
{ACAD_REACTORS
330
2A
102
}
330
2A
100
AcDbVisualStyle
  2
FlatWithEdges
 70
     1
177
     2
291
     1
 71
     2
176
     1
 72
     1
176
     1
 73
     1
176
     1
 90
        2
176
     1
 40
-0.6
176
     1
 41
30.0
176
     1
 62
     5
 63
     7
421
 16777215
176
     1
 74
     1
176
     1
 91
        4
176
     1
 64
     7
176
     1
 65
   257
176
     1
 75
     1
176
     1
175
     1
176
     1
 42
1.0
176
     1
 92
        0
176
     1
 66
   257
176
     1
 43
1.0
176
     1
 76
     1
176
     1
 77
     6
176
     1
 78
     2
176
     1
 67
     7
176
     1
 79
     5
176
     1
170
     0
176
     1
171
     0
176
     1
290
     0
176
     1
 93
       13
176
     1
 44
0.0
176
     1
173
     0
176
     1
  0
VISUALSTYLE
  5
2D
102
{ACAD_REACTORS
330
2A
102
}
330
2A
100
AcDbVisualStyle
  2
Gouraud
 70
     2
177
     2
291
     1
 71
     2
176
     1
 72
     2
176
     1
 73
     1
176
     1
 90
        2
176
     1
 40
-0.6
176
     1
 41
30.0
176
     1
 62
     5
 63
     7
421
 16777215
176
     1
 74
     0
176
     1
 91
        4
176
     1
 64
     7
176
     1
 65
   257
176
     1
 75
     1
176
     1
175
     1
176
     1
 42
1.0
176
     1
 92
        0
176
     1
 66
     7
176
     1
 43
1.0
176
     1
 76
     1
176
     1
 77
     6
176
     1
 78
     2
176
     1
 67
     7
176
     1
 79
     5
176
     1
170
     0
176
     1
171
     0
176
     1
290
     0
176
     1
 93
       13
176
     1
 44
0.0
176
     1
173
     0
176
     1
  0
VISUALSTYLE
  5
2E
102
{ACAD_REACTORS
330
2A
102
}
330
2A
100
AcDbVisualStyle
  2
GouraudWithEdges
 70
     3
177
     2
291
     1
 71
     2
176
     1
 72
     2
176
     1
 73
     1
176
     1
 90
        2
176
     1
 40
-0.6
176
     1
 41
30.0
176
     1
 62
     5
 63
     7
421
 16777215
176
     1
 74
     1
176
     1
 91
        4
176
     1
 64
     7
176
     1
 65
   257
176
     1
 75
     1
176
     1
175
     1
176
     1
 42
1.0
176
     1
 92
        0
176
     1
 66
   257
176
     1
 43
1.0
176
     1
 76
     1
176
     1
 77
     6
176
     1
 78
     2
176
     1
 67
     7
176
     1
 79
     5
176
     1
170
     0
176
     1
171
     0
176
     1
290
     0
176
     1
 93
       13
176
     1
 44
0.0
176
     1
173
     0
176
     1
  0
VISUALSTYLE
  5
38
102
{ACAD_REACTORS
330
2A
102
}
330
2A
100
AcDbVisualStyle
  2
Linepattern
 70
    14
177
     2
291
     1
 71
     2
176
     1
 72
     2
176
     1
 73
     0
176
     1
 90
        0
176
     1
 40
-0.6
176
     1
 41
-30.0
176
     1
 62
     5
 63
     7
421
 16777215
176
     1
 74
     1
176
     1
 91
        4
176
     1
 64
     7
176
     1
 65
   257
176
     1
 75
     7
176
     1
175
     7
176
     1
 42
1.0
176
     1
 92
        8
176
     1
 66
     7
176
     1
 43
1.0
176
     1
 76
     1
176
     1
 77
     6
176
     1
 78
     2
176
     1
 67
     7
176
     1
 79
     5
176
     1
170
     0
176
     1
171
     0
176
     1
290
     0
176
     1
 93
        1
176
     1
 44
0.0
176
     1
173
     0
176
     1
  0
VISUALSTYLE
  5
33
102
{ACAD_REACTORS
330
2A
102
}
330
2A
100
AcDbVisualStyle
  2
Realistic
 70
     8
177
     2
291
     0
 71
     2
176
     1
 72
     2
176
     1
 73
     0
176
     1
 90
        0
176
     1
 40
-0.6
176
     1
 41
-30.0
176
     1
 62
     5
 63
     7
421
 16777215
176
     1
 74
     1
176
     1
 91
        0
176
     1
 64
     7
176
     1
 65
   257
176
     1
 75
     1
176
     1
175
     1
176
     1
 42
1.0
176
     1
 92
        8
176
     1
 66
     8
424
  7895160
176
     1
 43
1.0
176
     1
 76
     1
176
     1
 77
     6
176
     1
 78
     2
176
     1
 67
     7
176
     1
 79
     5
176
     1
170
     0
176
     1
171
     0
176
     1
290
     0
176
     1
 93
       13
176
     1
 44
0.0
176
     1
173
     0
176
     1
  0
VISUALSTYLE
  5
37
102
{ACAD_REACTORS
330
2A
102
}
330
2A
100
AcDbVisualStyle
  2
Thicken
 70
    13
177
     2
291
     1
 71
     2
176
     1
 72
     2
176
     1
 73
     0
176
     1
 90
        0
176
     1
 40
-0.6
176
     1
 41
-30.0
176
     1
 62
     5
 63
     7
421
 16777215
176
     1
 74
     1
176
     1
 91
        4
176
     1
 64
     7
176
     1
 65
   257
176
     1
 75
     1
176
     1
175
     1
176
     1
 42
1.0
176
     1
 92
       12
176
     1
 66
     7
176
     1
 43
1.0
176
     1
 76
     1
176
     1
 77
     6
176
     1
 78
     2
176
     1
 67
     7
176
     1
 79
     5
176
     1
170
     0
176
     1
171
     0
176
     1
290
     0
176
     1
 93
        1
176
     1
 44
0.0
176
     1
173
     0
176
     1
  0
ENDSEC
  0
EOF
