  0
SECTION
  2
HEADER
  9
$ACADVER
  1
AC1024
  9
$ACADMAINTVER
 70
     6
  9
$DWGCODEPAGE
  3
UNDEFINED
  9
$INSBASE
 10
0.0
 20
0.0
 30
0.0
  9
$EXTMIN
 10
1.000000000000000E+20
 20
1.000000000000000E+20
 30
1.000000000000000E+20
  9
$EXTMAX
 10
-1.000000000000000E+20
 20
-1.000000000000000E+20
 30
-1.000000000000000E+20
  9
$LIMMIN
 10
0.0
 20
0.0
  9
$LIMMAX
 10
12.0
 20
9.0
  9
$ORTHOMODE
 70
     0
  9
$REGENMODE
 70
     1
  9
$FILLMODE
 70
     1
  9
$QTEXTMODE
 70
     0
  9
$MIRRTEXT
 70
     1
  9
$LTSCALE
 40
1.0
  9
$ATTMODE
 70
     1
  9
$TEXTSIZE
 40
0.2
  9
$TRACEWID
 40
0.05
  9
$TEXTSTYLE
  7
Standard
  9
$CLAYER
  8
0
  9
$CELTYPE
  6
ByLayer
  9
$CECOLOR
 62
   256
  9
$CELTSCALE
 40
1.0
  9
$DISPSILH
 70
     0
  9
$DIMSCALE
 40
1.0
  9
$DIMASZ
 40
0.18
  9
$DIMEXO
 40
0.0625
  9
$DIMDLI
 40
0.38
  9
$DIMRND
 40
0.0
  9
$DIMDLE
 40
0.0
  9
$DIMEXE
 40
0.18
  9
$DIMTP
 40
0.0
  9
$DIMTM
 40
0.0
  9
$DIMTXT
 40
0.18
  9
$DIMCEN
 40
0.09
  9
$DIMTSZ
 40
0.0
  9
$DIMTOL
 70
     0
  9
$DIMLIM
 70
     0
  9
$DIMTIH
 70
     1
  9
$DIMTOH
 70
     1
  9
$DIMSE1
 70
     0
  9
$DIMSE2
 70
     0
  9
$DIMTAD
 70
     0
  9
$DIMZIN
 70
     0
  9
$DIMBLK
  1

  9
$DIMASO
 70
     1
  9
$DIMSHO
 70
     1
  9
$DIMPOST
  1

  9
$DIMAPOST
  1

  9
$DIMALT
 70
     0
  9
$DIMALTD
 70
     2
  9
$DIMALTF
 40
25.4
  9
$DIMLFAC
 40
1.0
  9
$DIMTOFL
 70
     0
  9
$DIMTVP
 40
0.0
  9
$DIMTIX
 70
     0
  9
$DIMSOXD
 70
     0
  9
$DIMSAH
 70
     0
  9
$DIMBLK1
  1

  9
$DIMBLK2
  1

  9
$DIMSTYLE
  2
Standard
  9
$DIMCLRD
 70
     0
  9
$DIMCLRE
 70
     0
  9
$DIMCLRT
 70
     0
  9
$DIMTFAC
 40
1.0
  9
$DIMGAP
 40
0.09
  9
$DIMJUST
 70
     0
  9
$DIMSD1
 70
     0
  9
$DIMSD2
 70
     0
  9
$DIMTOLJ
 70
     1
  9
$DIMTZIN
 70
     0
  9
$DIMALTZ
 70
     0
  9
$DIMALTTZ
 70
     0
  9
$DIMUPT
 70
     0
  9
$DIMDEC
 70
     4
  9
$DIMTDEC
 70
     4
  9
$DIMALTU
 70
     2
  9
$DIMALTTD
 70
     2
  9
$DIMTXSTY
  7
Standard
  9
$DIMAUNIT
 70
     0
  9
$DIMADEC
 70
     0
  9
$DIMALTRND
 40
0.0
  9
$DIMAZIN
 70
     0
  9
$DIMDSEP
 70
    46
  9
$DIMATFIT
 70
     3
  9
$DIMFRAC
 70
     0
  9
$DIMLDRBLK
  1

  9
$DIMLUNIT
 70
     2
  9
$DIMLWD
 70
    -2
  9
$DIMLWE
 70
    -2
  9
$DIMTMOVE
 70
     0
  9
$DIMFXL
 40
1.0
  9
$DIMFXLON
 70
     0
  9
$DIMJOGANG
 40
0.7853981633974483
  9
$DIMTFILL
 70
     0
  9
$DIMTFILLCLR
 70
     0
  9
$DIMARCSYM
 70
     0
  9
$DIMLTYPE
  6

  9
$DIMLTEX1
  6

  9
$DIMLTEX2
  6

  9
$DIMTXTDIRECTION
 70
     0
  9
$LUNITS
 70
     2
  9
$LUPREC
 70
     4
  9
$SKETCHINC
 40
0.1
  9
$FILLETRAD
 40
0.5
  9
$AUNITS
 70
     0
  9
$AUPREC
 70
     0
  9
$MENU
  1
.
  9
$ELEVATION
 40
0.0
  9
$PELEVATION
 40
0.0
  9
$THICKNESS
 40
0.0
  9
$LIMCHECK
 70
     0
  9
$CHAMFERA
 40
0.5
  9
$CHAMFERB
 40
0.5
  9
$CHAMFERC
 40
1.0
  9
$CHAMFERD
 40
0.0
  9
$SKPOLY
 70
     0
  9
$TDCREATE
 40
2458263.773993044
  9
$TDUCREATE
 40
2458263.398993055
  9
$TDUPDATE
 40
2458263.773993044
  9
$TDUUPDATE
 40
2458263.398993055
  9
$TDINDWG
 40
0.0000000116
  9
$TDUSRTIMER
 40
0.0000000116
  9
$USRTIMER
 70
     1
  9
$ANGBASE
 50
0.0
  9
$ANGDIR
 70
     0
  9
$PDMODE
 70
     0
  9
$PDSIZE
 40
0.0
  9
$PLINEWID
 40
0.0
  9
$SPLFRAME
 70
     0
  9
$SPLINETYPE
 70
     6
  9
$SPLINESEGS
 70
     8
  9
$HANDSEED
  5
139
  9
$SURFTAB1
 70
     6
  9
$SURFTAB2
 70
     6
  9
$SURFTYPE
 70
     6
  9
$SURFU
 70
     6
  9
$SURFV
 70
     6
  9
$UCSBASE
  2

  9
$UCSNAME
  2

  9
$UCSORG
 10
0.0
 20
0.0
 30
0.0
  9
$UCSXDIR
 10
1.0
 20
0.0
 30
0.0
  9
$UCSYDIR
 10
0.0
 20
1.0
 30
0.0
  9
$UCSORTHOREF
  2

  9
$UCSORTHOVIEW
 70
     0
  9
$UCSORGTOP
 10
0.0
 20
0.0
 30
0.0
  9
$UCSORGBOTTOM
 10
0.0
 20
0.0
 30
0.0
  9
$UCSORGLEFT
 10
0.0
 20
0.0
 30
0.0
  9
$UCSORGRIGHT
 10
0.0
 20
0.0
 30
0.0
  9
$UCSORGFRONT
 10
0.0
 20
0.0
 30
0.0
  9
$UCSORGBACK
 10
0.0
 20
0.0
 30
0.0
  9
$PUCSBASE
  2

  9
$PUCSNAME
  2

  9
$PUCSORG
 10
0.0
 20
0.0
 30
0.0
  9
$PUCSXDIR
 10
1.0
 20
0.0
 30
0.0
  9
$PUCSYDIR
 10
0.0
 20
1.0
 30
0.0
  9
$PUCSORTHOREF
  2

  9
$PUCSORTHOVIEW
 70
     0
  9
$PUCSORGTOP
 10
0.0
 20
0.0
 30
0.0
  9
$PUCSORGBOTTOM
 10
0.0
 20
0.0
 30
0.0
  9
$PUCSORGLEFT
 10
0.0
 20
0.0
 30
0.0
  9
$PUCSORGRIGHT
 10
0.0
 20
0.0
 30
0.0
  9
$PUCSORGFRONT
 10
0.0
 20
0.0
 30
0.0
  9
$PUCSORGBACK
 10
0.0
 20
0.0
 30
0.0
  9
$USERI1
 70
     0
  9
$USERI2
 70
     0
  9
$USERI3
 70
     0
  9
$USERI4
 70
     0
  9
$USERI5
 70
     0
  9
$USERR1
 40
0.0
  9
$USERR2
 40
0.0
  9
$USERR3
 40
0.0
  9
$USERR4
 40
0.0
  9
$USERR5
 40
0.0
  9
$WORLDVIEW
 70
     1
  9
$SHADEDGE
 70
     3
  9
$SHADEDIF
 70
    70
  9
$TILEMODE
 70
     1
  9
$MAXACTVP
 70
    64
  9
$PINSBASE
 10
0.0
 20
0.0
 30
0.0
  9
$PLIMCHECK
 70
     0
  9
$PEXTMIN
 10
1.000000000000000E+20
 20
1.000000000000000E+20
 30
1.000000000000000E+20
  9
$PEXTMAX
 10
-1.000000000000000E+20
 20
-1.000000000000000E+20
 30
-1.000000000000000E+20
  9
$PLIMMIN
 10
0.0
 20
0.0
  9
$PLIMMAX
 10
12.0
 20
9.0
  9
$UNITMODE
 70
     0
  9
$VISRETAIN
 70
     1
  9
$PLINEGEN
 70
     0
  9
$PSLTSCALE
 70
     1
  9
$TREEDEPTH
 70
  3020
  9
$CMLSTYLE
  2
Standard
  9
$CMLJUST
 70
     0
  9
$CMLSCALE
 40
1.0
  9
$PROXYGRAPHICS
 70
     1
  9
$MEASUREMENT
 70
     0
  9
$CELWEIGHT
370
    -1
  9
$ENDCAPS
280
     0
  9
$JOINSTYLE
280
     0
  9
$LWDISPLAY
290
     1
  9
$INSUNITS
 70
     1
  9
$HYPERLINKBASE
  1

  9
$STYLESHEET
  1

  9
$XEDIT
290
     1
  9
$CEPSNTYPE
380
     0
  9
$PSTYLEMODE
290
     1
  9
$FINGERPRINTGUID
  2
{3A9C12A9-A43A-8EDD-3DE1-154CC1CEA473}
  9
$VERSIONGUID
  2
{FAEB1C32-E019-11D5-929B-00C0DF256EC4}
  9
$EXTNAMES
290
     1
  9
$PSVPSCALE
 40
0.0
  9
$OLESTARTUP
290
     0
  9
$SORTENTS
280
   127
  9
$INDEXCTL
280
     0
  9
$HIDETEXT
280
     1
  9
$XCLIPFRAME
280
     2
  9
$HALOGAP
280
     0
  9
$OBSCOLOR
 70
   257
  9
$OBSLTYPE
280
     0
  9
$INTERSECTIONDISPLAY
280
     0
  9
$INTERSECTIONCOLOR
 70
   257
  9
$DIMASSOC
280
     2
  9
$PROJECTNAME
  1

  9
$CAMERADISPLAY
290
     0
  9
$LENSLENGTH
 40
50.0
  9
$CAMERAHEIGHT
 40
0.0
  9
$STEPSPERSEC
 40
2.0
  9
$STEPSIZE
 40
6.0
  9
$3DDWFPREC
 40
2.0
  9
$PSOLWIDTH
 40
0.25
  9
$PSOLHEIGHT
 40
4.0
  9
$LOFTANG1
 40
1.570796326794897
  9
$LOFTANG2
 40
1.570796326794897
  9
$LOFTMAG1
 40
0.0
  9
$LOFTMAG2
 40
0.0
  9
$LOFTPARAM
 70
     7
  9
$LOFTNORMALS
280
     1
  9
$LATITUDE
 40
37.795
  9
$LONGITUDE
 40
-122.394
  9
$NORTHDIRECTION
 40
0.0
  9
$TIMEZONE
 70
 -8000
  9
$LIGHTGLYPHDISPLAY
280
     1
  9
$TILEMODELIGHTSYNCH
280
     1
  9
$CMATERIAL
347
3C
  9
$SOLIDHIST
280
     1
  9
$SHOWHIST
280
     1
  9
$DWFFRAME
280
     2
  9
$DGNFRAME
280
     2
  9
$REALWORLDSCALE
290
     1
  9
$INTERFERECOLOR
 62
   256
  9
$CSHADOW
280
     0
  9
$SHADOWPLANELOCATION
 40
0.0
  0
ENDSEC
  0
SECTION
  2
CLASSES
  0
CLASS
  1
ACDBDICTIONARYWDFLT
  2
AcDbDictionaryWithDefault
  3
ObjectDBX Classes
 90
        0
 91
        4
280
     0
281
     0
  0
CLASS
  1
VISUALSTYLE
  2
AcDbVisualStyle
  3
ObjectDBX Classes
 90
     4095
 91
        4
280
     0
281
     0
  0
CLASS
  1
MATERIAL
  2
AcDbMaterial
  3
ObjectDBX Classes
 90
     1153
 91
        4
280
     0
281
     0
  0
CLASS
  1
SUN
  2
AcDbSun
  3
SCENEOE
 90
     1024
 91
        4
280
     0
281
     0
  0
ENDSEC
  0
SECTION
  2
TABLES
  0
TABLE
  2
VPORT
  5
8
330
0
100
AcDbSymbolTable
 70
     1
  0
VPORT
  5
29
330
8
100
AcDbSymbolTableRecord
100
AcDbViewportTableRecord
  2
*Active
 70
     0
 10
0.0
 20
0.0
 11
1.0
 21
1.0
 12
0.0
 22
0.0
 13
0.0
 23
0.0
 14
0.5
 24
0.5
 15
0.5
 25
0.5
 16
0.0
 26
0.0
 36
1.0
 17
105.0007777515277
 27
-148.5000416295416
 37
0.0
 40
297.0000832590831
 41
0.7070757462376333
 42
50.0
 43
0.0
 44
0.0
 50
0.0
 51
0.0
 71
     0
 72
   100
 73
     1
 74
     3
 75
     0
 76
     0
 77
     0
 78
     0
281
     0
 65
     1
110
0.0
120
0.0
130
0.0
111
1.0
121
0.0
131
0.0
112
0.0
122
1.0
132
0.0
 79
     0
146
0.0
 60
     3
 61
     5
292
     1
282
     1
141
0.0
142
0.0
 63
   250
361
3F
  0
ENDTAB
  0
TABLE
  2
LTYPE
  5
5
330
0
100
AcDbSymbolTable
 70
     2
  0
LTYPE
  5
14
330
5
100
AcDbSymbolTableRecord
100
AcDbLinetypeTableRecord
  2
ByBlock
 70
     0
  3

 72
    65
 73
     0
 40
0.0
  0
LTYPE
  5
15
330
5
100
AcDbSymbolTableRecord
100
AcDbLinetypeTableRecord
  2
ByLayer
 70
     0
  3

 72
    65
 73
     0
 40
0.0
  0
LTYPE
  5
16
330
5
100
AcDbSymbolTableRecord
100
AcDbLinetypeTableRecord
  2
Continuous
 70
     0
  3
Solid line
 72
    65
 73
     0
 40
0.0
  0
LTYPE
  5
9F
330
5
100
AcDbSymbolTableRecord
100
AcDbLinetypeTableRecord
  2
AI-Linetype-1
 70
     0
  3
Adobe Illustrator Linetype No. 1
 72
    65
 73
     2
 40
1.411111110758333
 49
0.7055555553791667
 74
     0
 49
-0.7055555553791667
 74
     0
  0
ENDTAB
  0
TABLE
  2
LAYER
  5
2
330
0
100
AcDbSymbolTable
 70
     2
  0
LAYER
  5
10
330
2
100
AcDbSymbolTableRecord
100
AcDbLayerTableRecord
  2
0
 70
     0
 62
     7
  6
Continuous
370
    -3
390
F
347
3E
  0
LAYER
  5
40
330
2
100
AcDbSymbolTableRecord
100
AcDbLayerTableRecord
  2
_U+30EC_U+30A4_U+30E4_U+30FC 1
 70
     0
 62
     7
  6
Continuous
370
    -3
390
F
347
3E
  0
ENDTAB
  0
TABLE
  2
STYLE
  5
3
330
0
100
AcDbSymbolTable
 70
     1
  0
STYLE
  5
11
330
3
100
AcDbSymbolTableRecord
100
AcDbTextStyleTableRecord
  2
Standard
 70
     0
 40
0.0
 41
1.0
 50
0.0
 71
     0
 42
0.2
  3
txt
  4

  0
ENDTAB
  0
TABLE
  2
VIEW
  5
6
330
0
100
AcDbSymbolTable
 70
     0
  0
ENDTAB
  0
TABLE
  2
UCS
  5
7
330
0
100
AcDbSymbolTable
 70
     0
  0
ENDTAB
  0
TABLE
  2
APPID
  5
9
330
0
100
AcDbSymbolTable
 70
     1
  0
APPID
  5
12
330
9
100
AcDbSymbolTableRecord
100
AcDbRegAppTableRecord
  2
ACAD
 70
     0
  0
ENDTAB
  0
TABLE
  2
DIMSTYLE
  5
A
330
0
100
AcDbSymbolTable
 70
     1
100
AcDbDimStyleTable
  0
DIMSTYLE
105
27
330
A
100
AcDbSymbolTableRecord
100
AcDbDimStyleTableRecord
  2
Standard
 70
     0
178
     0
340
11
  0
ENDTAB
  0
TABLE
  2
BLOCK_RECORD
  5
1
330
0
100
AcDbSymbolTable
 70
     7
  0
BLOCK_RECORD
  5
1F
330
1
100
AcDbSymbolTableRecord
100
AcDbBlockTableRecord
  2
*Model_Space
340
22
 70
     0
280
     1
281
     0
  0
BLOCK_RECORD
  5
1B
330
1
100
AcDbSymbolTableRecord
100
AcDbBlockTableRecord
  2
*Paper_Space
340
1E
 70
     0
280
     1
281
     0
  0
BLOCK_RECORD
  5
23
330
1
100
AcDbSymbolTableRecord
100
AcDbBlockTableRecord
  2
*Paper_Space0
340
26
 70
     0
280
     1
281
     0
  0
BLOCK_RECORD
  5
A0
330
1
100
AcDbSymbolTableRecord
100
AcDbBlockTableRecord
  2
block 2
340
0
102
{BLKREFS
331
A1
102
}
 70
     0
280
     1
281
     0
  0
BLOCK_RECORD
  5
AB
330
1
100
AcDbSymbolTableRecord
100
AcDbBlockTableRecord
  2
block 3
340
0
102
{BLKREFS
331
AC
102
}
 70
     0
280
     1
281
     0
  0
BLOCK_RECORD
  5
F1
330
1
100
AcDbSymbolTableRecord
100
AcDbBlockTableRecord
  2
block 4
340
0
102
{BLKREFS
331
F2
102
}
 70
     0
280
     1
281
     0
  0
BLOCK_RECORD
  5
FF
330
1
100
AcDbSymbolTableRecord
100
AcDbBlockTableRecord
  2
block 5
340
0
102
{BLKREFS
331
100
102
}
 70
     0
280
     1
281
     0
  0
BLOCK_RECORD
  5
11D
330
1
100
AcDbSymbolTableRecord
100
AcDbBlockTableRecord
  2
block 6
340
0
102
{BLKREFS
331
11E
102
}
 70
     0
280
     1
281
     0
  0
BLOCK_RECORD
  5
12E
330
1
100
AcDbSymbolTableRecord
100
AcDbBlockTableRecord
  2
block 7
340
0
102
{BLKREFS
331
12F
102
}
 70
     0
280
     1
281
     0
  0
ENDTAB
  0
ENDSEC
  0
SECTION
  2
BLOCKS
  0
BLOCK
  5
20
330
1F
100
AcDbEntity
  8
0
100
AcDbBlockBegin
  2
*Model_Space
 70
     0
 10
0.0
 20
0.0
 30
0.0
  3
*Model_Space
  1

  0
ENDBLK
  5
21
330
1F
100
AcDbEntity
  8
0
100
AcDbBlockEnd
  0
BLOCK
  5
1C
330
1B
100
AcDbEntity
 67
     1
  8
0
100
AcDbBlockBegin
  2
*Paper_Space
 70
     0
 10
0.0
 20
0.0
 30
0.0
  3
*Paper_Space
  1

  0
ENDBLK
  5
1D
330
1B
100
AcDbEntity
 67
     1
  8
0
100
AcDbBlockEnd
  0
BLOCK
  5
24
330
23
100
AcDbEntity
  8
0
100
AcDbBlockBegin
  2
*Paper_Space0
 70
     0
 10
0.0
 20
0.0
 30
0.0
  3
*Paper_Space0
  1

  0
ENDBLK
  5
25
330
23
100
AcDbEntity
  8
0
100
AcDbBlockEnd
  0
BLOCK
  5
A2
330
A0
100
AcDbEntity
  8
0
100
AcDbBlockBegin
  2
block 2
 70
     0
 10
0.0
 20
0.0
 30
0.0
  3
block 2
  1

  0
SPLINE
  5
A4
330
A0
100
AcDbEntity
  8
_U+30EC_U+30A4_U+30E4_U+30FC 1
370
     0
100
AcDbSpline
210
0.0
220
0.0
230
1.0
 70
    11
 71
     3
 72
    26
 73
    22
 74
     0
 42
0.0000000001
 43
0.0000000001
 12
1.0
 22
0.0
 32
0.0
 13
1.0
 23
0.0
 33
0.0
 40
0.0
 40
0.0
 40
0.0
 40
0.0
 40
1.0
 40
1.0
 40
1.0
 40
2.0
 40
2.0
 40
2.0
 40
3.0
 40
3.0
 40
3.0
 40
4.0
 40
4.0
 40
4.0
 40
5.0
 40
5.0
 40
5.0
 40
6.0
 40
6.0
 40
6.0
 40
7.0
 40
7.0
 40
7.0
 40
7.0
 10
96.25424531013783
 20
-155.6814534116005
 30
0.0
 10
96.25424531013783
 20
-155.6814534116005
 30
0.0
 10
96.25424531013783
 20
-154.5773003085779
 30
0.0
 10
96.25424531013783
 20
-154.5773003085779
 30
0.0
 10
96.25424531013783
 20
-154.5773003085779
 30
0.0
 10
95.92420516265089
 20
-154.5773003085779
 30
0.0
 10
95.92420516265089
 20
-154.5773003085779
 30
0.0
 10
95.92420516265089
 20
-154.5773003085779
 30
0.0
 10
95.92420516265089
 20
-154.4291612027122
 30
0.0
 10
95.92420516265089
 20
-154.4291612027122
 30
0.0
 10
96.25631236742898
 20
-154.4143472921256
 30
0.0
 10
96.30282115647985
 20
-154.2513942756733
 30
0.0
 10
96.332448977653
 20
-154.137017105563
 30
0.0
 10
96.332448977653
 20
-154.137017105563
 30
0.0
 10
96.4785210262276
 20
-154.137017105563
 30
0.0
 10
96.4785210262276
 20
-154.137017105563
 30
0.0
 10
96.4785210262276
 20
-154.137017105563
 30
0.0
 10
96.4785210262276
 20
-155.6814534116005
 30
0.0
 10
96.4785210262276
 20
-155.6814534116005
 30
0.0
 10
96.4785210262276
 20
-155.6814534116005
 30
0.0
 10
96.25424531013783
 20
-155.6814534116005
 30
0.0
 10
96.25424531013783
 20
-155.6814534116005
 30
0.0
  0
HATCH
  5
A5
330
A0
100
AcDbEntity
  8
_U+30EC_U+30A4_U+30E4_U+30FC 1
 62
   179
420
  2234388
100
AcDbHatch
 10
0.0
 20
0.0
 30
0.0
210
0.0
220
0.0
230
1.0
  2
SOLID
 70
     1
 71
     0
 91
        1
 92
        1
 93
        1
 72
     4
 94
        3
 73
     0
 74
     1
 95
       26
 96
       22
 40
0.0
 40
0.0
 40
0.0
 40
0.0
 40
1.0
 40
1.0
 40
1.0
 40
2.0
 40
2.0
 40
2.0
 40
3.0
 40
3.0
 40
3.0
 40
4.0
 40
4.0
 40
4.0
 40
5.0
 40
5.0
 40
5.0
 40
6.0
 40
6.0
 40
6.0
 40
7.0
 40
7.0
 40
7.0
 40
7.0
 10
96.25424531013783
 20
-155.6814534116005
 10
96.25424531013783
 20
-155.6814534116005
 10
96.25424531013783
 20
-154.5773003085779
 10
96.25424531013783
 20
-154.5773003085779
 10
96.25424531013783
 20
-154.5773003085779
 10
95.92420516265089
 20
-154.5773003085779
 10
95.92420516265089
 20
-154.5773003085779
 10
95.92420516265089
 20
-154.5773003085779
 10
95.92420516265089
 20
-154.4291612027122
 10
95.92420516265089
 20
-154.4291612027122
 10
96.25631236742898
 20
-154.4143472921256
 10
96.30282115647985
 20
-154.2513942756733
 10
96.332448977653
 20
-154.137017105563
 10
96.332448977653
 20
-154.137017105563
 10
96.4785210262276
 20
-154.137017105563
 10
96.4785210262276
 20
-154.137017105563
 10
96.4785210262276
 20
-154.137017105563
 10
96.4785210262276
 20
-155.6814534116005
 10
96.4785210262276
 20
-155.6814534116005
 10
96.4785210262276
 20
-155.6814534116005
 10
96.25424531013783
 20
-155.6814534116005
 10
96.25424531013783
 20
-155.6814534116005
 97
        0
 97
        0
 75
     2
 76
     1
 98
        0
  0
SPLINE
  5
A6
330
A0
100
AcDbEntity
  8
_U+30EC_U+30A4_U+30E4_U+30FC 1
370
     0
100
AcDbSpline
210
0.0
220
0.0
230
1.0
 70
    11
 71
     3
 72
    53
 73
    49
 74
     0
 42
0.0000000001
 43
0.0000000001
 12
1.0
 22
0.0
 32
0.0
 13
1.0
 23
0.0
 33
0.0
 40
0.0
 40
0.0
 40
0.0
 40
0.0
 40
1.0
 40
1.0
 40
1.0
 40
2.0
 40
2.0
 40
2.0
 40
3.0
 40
3.0
 40
3.0
 40
4.0
 40
4.0
 40
4.0
 40
5.0
 40
5.0
 40
5.0
 40
6.0
 40
6.0
 40
6.0
 40
7.0
 40
7.0
 40
7.0
 40
8.0
 40
8.0
 40
8.0
 40
9.0
 40
9.0
 40
9.0
 40
10.0
 40
10.0
 40
10.0
 40
11.0
 40
11.0
 40
11.0
 40
12.0
 40
12.0
 40
12.0
 40
13.0
 40
13.0
 40
13.0
 40
14.0
 40
14.0
 40
14.0
 40
15.0
 40
15.0
 40
15.0
 40
16.0
 40
16.0
 40
16.0
 40
16.0
 10
97.46071774907233
 20
-155.7320963152337
 30
0.0
 10
97.38234182678289
 20
-155.7320963152337
 30
0.0
 10
97.28088376474228
 20
-155.7152153473559
 30
0.0
 10
97.17925344792741
 20
-155.6518255904273
 30
0.0
 10
97.00579289024509
 20
-155.5419270444478
 30
0.0
 10
96.9846055530108
 20
-155.4106689064598
 30
0.0
 10
96.96565752784193
 20
-155.3028374177715
 30
0.0
 10
96.96565752784193
 20
-155.3028374177715
 30
0.0
 10
97.18769393186628
 20
-155.3028374177715
 30
0.0
 10
97.18769393186628
 20
-155.3028374177715
 30
0.0
 10
97.24281545963028
 20
-155.5016194272704
 30
0.0
 10
97.36976722826174
 20
-155.5312472484436
 30
0.0
 10
97.46278480636347
 20
-155.5312472484436
 30
0.0
 10
97.6023111735161
 20
-155.5312472484436
 30
0.0
 10
97.7547566487384
 20
-155.4316839889199
 30
0.0
 10
97.7547566487384
 20
-155.1991400436655
 30
0.0
 10
97.7547566487384
 20
-154.9431694491114
 30
0.0
 10
97.57492266440836
 20
-154.8732340107609
 30
0.0
 10
97.45434432242462
 20
-154.8732340107609
 30
0.0
 10
97.42264944396031
 20
-154.8732340107609
 30
0.0
 10
97.28088376474228
 20
-154.8732340107609
 30
0.0
 10
97.19200030122283
 20
-155.0024250914577
 30
0.0
 10
97.19200030122283
 20
-155.0024250914577
 30
0.0
 10
97.01647268624936
 20
-154.9834770662889
 30
0.0
 10
97.01647268624936
 20
-154.9834770662889
 30
0.0
 10
97.01647268624936
 20
-154.9834770662889
 30
0.0
 10
97.1370510282331
 20
-154.137017105563
 30
0.0
 10
97.1370510282331
 20
-154.137017105563
 30
0.0
 10
97.1370510282331
 20
-154.137017105563
 30
0.0
 10
97.9154703531253
 20
-154.137017105563
 30
0.0
 10
97.9154703531253
 20
-154.137017105563
 30
0.0
 10
97.9154703531253
 20
-154.137017105563
 30
0.0
 10
97.9154703531253
 20
-154.3316650004796
 30
0.0
 10
97.9154703531253
 20
-154.3316650004796
 30
0.0
 10
97.9154703531253
 20
-154.3316650004796
 30
0.0
 10
97.29983178991115
 20
-154.3316650004796
 30
0.0
 10
97.29983178991115
 20
-154.3316650004796
 30
0.0
 10
97.29983178991115
 20
-154.3316650004796
 30
0.0
 10
97.23437497569141
 20
-154.7547227260683
 30
0.0
 10
97.23437497569141
 20
-154.7547227260683
 30
0.0
 10
97.29569767532885
 20
-154.7209607903128
 30
0.0
 10
97.37820771220059
 20
-154.6806531731354
 30
0.0
 10
97.49654674211892
 20
-154.6806531731354
 30
0.0
 10
97.75045027938184
 20
-154.6806531731354
 30
0.0
 10
97.98747284876703
 20
-154.8670328388874
 30
0.0
 10
97.98747284876703
 20
-155.1801920184966
 30
0.0
 10
97.98747284876703
 20
-155.4974853126881
 30
0.0
 10
97.76319713267726
 20
-155.7320963152337
 30
0.0
 10
97.46071774907233
 20
-155.7320963152337
 30
0.0
  0
HATCH
  5
A7
330
A0
100
AcDbEntity
  8
_U+30EC_U+30A4_U+30E4_U+30FC 1
 62
   179
420
  2234388
100
AcDbHatch
 10
0.0
 20
0.0
 30
0.0
210
0.0
220
0.0
230
1.0
  2
SOLID
 70
     1
 71
     0
 91
        1
 92
        1
 93
        1
 72
     4
 94
        3
 73
     0
 74
     1
 95
       53
 96
       49
 40
0.0
 40
0.0
 40
0.0
 40
0.0
 40
1.0
 40
1.0
 40
1.0
 40
2.0
 40
2.0
 40
2.0
 40
3.0
 40
3.0
 40
3.0
 40
4.0
 40
4.0
 40
4.0
 40
5.0
 40
5.0
 40
5.0
 40
6.0
 40
6.0
 40
6.0
 40
7.0
 40
7.0
 40
7.0
 40
8.0
 40
8.0
 40
8.0
 40
9.0
 40
9.0
 40
9.0
 40
10.0
 40
10.0
 40
10.0
 40
11.0
 40
11.0
 40
11.0
 40
12.0
 40
12.0
 40
12.0
 40
13.0
 40
13.0
 40
13.0
 40
14.0
 40
14.0
 40
14.0
 40
15.0
 40
15.0
 40
15.0
 40
16.0
 40
16.0
 40
16.0
 40
16.0
 10
97.46071774907233
 20
-155.7320963152337
 10
97.38234182678289
 20
-155.7320963152337
 10
97.28088376474228
 20
-155.7152153473559
 10
97.17925344792741
 20
-155.6518255904273
 10
97.00579289024509
 20
-155.5419270444478
 10
96.9846055530108
 20
-155.4106689064598
 10
96.96565752784193
 20
-155.3028374177715
 10
96.96565752784193
 20
-155.3028374177715
 10
97.18769393186628
 20
-155.3028374177715
 10
97.18769393186628
 20
-155.3028374177715
 10
97.24281545963028
 20
-155.5016194272704
 10
97.36976722826174
 20
-155.5312472484436
 10
97.46278480636347
 20
-155.5312472484436
 10
97.6023111735161
 20
-155.5312472484436
 10
97.7547566487384
 20
-155.4316839889199
 10
97.7547566487384
 20
-155.1991400436655
 10
97.7547566487384
 20
-154.9431694491114
 10
97.57492266440836
 20
-154.8732340107609
 10
97.45434432242462
 20
-154.8732340107609
 10
97.42264944396031
 20
-154.8732340107609
 10
97.28088376474228
 20
-154.8732340107609
 10
97.19200030122283
 20
-155.0024250914577
 10
97.19200030122283
 20
-155.0024250914577
 10
97.01647268624936
 20
-154.9834770662889
 10
97.01647268624936
 20
-154.9834770662889
 10
97.01647268624936
 20
-154.9834770662889
 10
97.1370510282331
 20
-154.137017105563
 10
97.1370510282331
 20
-154.137017105563
 10
97.1370510282331
 20
-154.137017105563
 10
97.9154703531253
 20
-154.137017105563
 10
97.9154703531253
 20
-154.137017105563
 10
97.9154703531253
 20
-154.137017105563
 10
97.9154703531253
 20
-154.3316650004796
 10
97.9154703531253
 20
-154.3316650004796
 10
97.9154703531253
 20
-154.3316650004796
 10
97.29983178991115
 20
-154.3316650004796
 10
97.29983178991115
 20
-154.3316650004796
 10
97.29983178991115
 20
-154.3316650004796
 10
97.23437497569141
 20
-154.7547227260683
 10
97.23437497569141
 20
-154.7547227260683
 10
97.29569767532885
 20
-154.7209607903128
 10
97.37820771220059
 20
-154.6806531731354
 10
97.49654674211892
 20
-154.6806531731354
 10
97.75045027938184
 20
-154.6806531731354
 10
97.98747284876703
 20
-154.8670328388874
 10
97.98747284876703
 20
-155.1801920184966
 10
97.98747284876703
 20
-155.4974853126881
 10
97.76319713267726
 20
-155.7320963152337
 10
97.46071774907233
 20
-155.7320963152337
 97
        0
 97
        0
 75
     2
 76
     1
 98
        0
  0
SPLINE
  5
A8
330
A0
100
AcDbEntity
  8
_U+30EC_U+30A4_U+30E4_U+30FC 1
370
     0
100
AcDbSpline
210
0.0
220
0.0
230
1.0
 70
    11
 71
     3
 72
    44
 73
    40
 74
     0
 42
0.0000000001
 43
0.0000000001
 12
1.0
 22
0.0
 32
0.0
 13
1.0
 23
0.0
 33
0.0
 40
0.0
 40
0.0
 40
0.0
 40
0.0
 40
1.0
 40
1.0
 40
1.0
 40
2.0
 40
2.0
 40
2.0
 40
3.0
 40
3.0
 40
3.0
 40
4.0
 40
4.0
 40
4.0
 40
5.0
 40
5.0
 40
5.0
 40
6.0
 40
6.0
 40
6.0
 40
7.0
 40
7.0
 40
7.0
 40
8.0
 40
8.0
 40
8.0
 40
9.0
 40
9.0
 40
9.0
 40
10.0
 40
10.0
 40
10.0
 40
11.0
 40
11.0
 40
11.0
 40
12.0
 40
12.0
 40
12.0
 40
13.0
 40
13.0
 40
13.0
 40
13.0
 10
99.17069089317609
 20
-155.6814534116005
 30
0.0
 10
99.14726424387638
 20
-155.6370116798408
 30
0.0
 10
99.12624916141635
 20
-155.5843017189164
 30
0.0
 10
99.12400984935094
 20
-155.3534803214047
 30
0.0
 10
99.11987573476864
 20
-155.1102565801461
 30
0.0
 10
99.06062009242235
 20
-155.0403211417955
 30
0.0
 10
98.88285316538345
 20
-155.0403211417955
 30
0.0
 10
98.88285316538345
 20
-155.0403211417955
 30
0.0
 10
98.47460935038136
 20
-155.0403211417955
 30
0.0
 10
98.47460935038136
 20
-155.0403211417955
 30
0.0
 10
98.47460935038136
 20
-155.0403211417955
 30
0.0
 10
98.47460935038136
 20
-155.6814534116005
 30
0.0
 10
98.47460935038136
 20
-155.6814534116005
 30
0.0
 10
98.47460935038136
 20
-155.6814534116005
 30
0.0
 10
98.23982609306158
 20
-155.6814534116005
 30
0.0
 10
98.23982609306158
 20
-155.6814534116005
 30
0.0
 10
98.23982609306158
 20
-155.6814534116005
 30
0.0
 10
98.23982609306158
 20
-154.137017105563
 30
0.0
 10
98.23982609306158
 20
-154.137017105563
 30
0.0
 10
98.23982609306158
 20
-154.137017105563
 30
0.0
 10
98.91454804384776
 20
-154.137017105563
 30
0.0
 10
98.91454804384776
 20
-154.137017105563
 30
0.0
 10
99.22133379680925
 20
-154.137017105563
 30
0.0
 10
99.38859318261814
 20
-154.3085828607284
 30
0.0
 10
99.38859318261814
 20
-154.5645534552825
 30
0.0
 10
99.38859318261814
 20
-154.6151963589157
 30
0.0
 10
99.37998044390501
 20
-154.6978786505616
 30
0.0
 10
99.3355387121453
 20
-154.778149375368
 30
0.0
 10
99.27645532457325
 20
-154.881846749474
 30
0.0
 10
99.21082625557925
 20
-154.9007947746429
 30
0.0
 10
99.14950355594179
 20
-154.9176757425206
 30
0.0
 10
99.28696286580326
 20
-154.9600504169892
 30
0.0
 10
99.35465899208842
 20
-155.0086262633312
 30
0.0
 10
99.35896536144499
 20
-155.3238525002315
 30
0.0
 10
99.36309947602729
 20
-155.5946370053722
 30
0.0
 10
99.39910072384815
 20
-155.6263318838365
 30
0.0
 10
99.4667968501333
 20
-155.6814534116005
 30
0.0
 10
99.4667968501333
 20
-155.6814534116005
 30
0.0
 10
99.17069089317609
 20
-155.6814534116005
 30
0.0
 10
99.17069089317609
 20
-155.6814534116005
 30
0.0
  0
SPLINE
  5
A9
330
A0
100
AcDbEntity
  8
_U+30EC_U+30A4_U+30E4_U+30FC 1
370
     0
100
AcDbSpline
210
0.0
220
0.0
230
1.0
 70
    11
 71
     3
 72
    20
 73
    16
 74
     0
 42
0.0000000001
 43
0.0000000001
 12
1.0
 22
0.0
 32
0.0
 13
1.0
 23
0.0
 33
0.0
 40
0.0
 40
0.0
 40
0.0
 40
0.0
 40
1.0
 40
1.0
 40
1.0
 40
2.0
 40
2.0
 40
2.0
 40
3.0
 40
3.0
 40
3.0
 40
4.0
 40
4.0
 40
4.0
 40
5.0
 40
5.0
 40
5.0
 40
5.0
 10
98.91885441320431
 20
-154.3485459683573
 30
0.0
 10
98.91885441320431
 20
-154.3485459683573
 30
0.0
 10
98.47460935038136
 20
-154.3485459683573
 30
0.0
 10
98.47460935038136
 20
-154.3485459683573
 30
0.0
 10
98.47460935038136
 20
-154.3485459683573
 30
0.0
 10
98.47460935038136
 20
-154.8287922790011
 30
0.0
 10
98.47460935038136
 20
-154.8287922790011
 30
0.0
 10
98.47460935038136
 20
-154.8287922790011
 30
0.0
 10
98.91678735591317
 20
-154.8287922790011
 30
0.0
 10
98.91678735591317
 20
-154.8287922790011
 30
0.0
 10
99.01617836066262
 20
-154.8287922790011
 30
0.0
 10
99.15157061323295
 20
-154.7526556687771
 30
0.0
 10
99.15157061323295
 20
-154.5814344231602
 30
0.0
 10
99.15157061323295
 20
-154.503230755645
 30
0.0
 10
99.1178086774775
 20
-154.3485459683573
 30
0.0
 10
98.91885441320431
 20
-154.3485459683573
 30
0.0
  0
HATCH
  5
AA
330
A0
100
AcDbEntity
  8
_U+30EC_U+30A4_U+30E4_U+30FC 1
 62
   179
420
  2234388
100
AcDbHatch
 10
0.0
 20
0.0
 30
0.0
210
0.0
220
0.0
230
1.0
  2
SOLID
 70
     1
 71
     0
 91
        2
 92
        1
 93
        1
 72
     4
 94
        3
 73
     0
 74
     1
 95
       44
 96
       40
 40
0.0
 40
0.0
 40
0.0
 40
0.0
 40
1.0
 40
1.0
 40
1.0
 40
2.0
 40
2.0
 40
2.0
 40
3.0
 40
3.0
 40
3.0
 40
4.0
 40
4.0
 40
4.0
 40
5.0
 40
5.0
 40
5.0
 40
6.0
 40
6.0
 40
6.0
 40
7.0
 40
7.0
 40
7.0
 40
8.0
 40
8.0
 40
8.0
 40
9.0
 40
9.0
 40
9.0
 40
10.0
 40
10.0
 40
10.0
 40
11.0
 40
11.0
 40
11.0
 40
12.0
 40
12.0
 40
12.0
 40
13.0
 40
13.0
 40
13.0
 40
13.0
 10
99.17069089317609
 20
-155.6814534116005
 10
99.14726424387638
 20
-155.6370116798408
 10
99.12624916141635
 20
-155.5843017189164
 10
99.12400984935094
 20
-155.3534803214047
 10
99.11987573476864
 20
-155.1102565801461
 10
99.06062009242235
 20
-155.0403211417955
 10
98.88285316538345
 20
-155.0403211417955
 10
98.88285316538345
 20
-155.0403211417955
 10
98.47460935038136
 20
-155.0403211417955
 10
98.47460935038136
 20
-155.0403211417955
 10
98.47460935038136
 20
-155.0403211417955
 10
98.47460935038136
 20
-155.6814534116005
 10
98.47460935038136
 20
-155.6814534116005
 10
98.47460935038136
 20
-155.6814534116005
 10
98.23982609306158
 20
-155.6814534116005
 10
98.23982609306158
 20
-155.6814534116005
 10
98.23982609306158
 20
-155.6814534116005
 10
98.23982609306158
 20
-154.137017105563
 10
98.23982609306158
 20
-154.137017105563
 10
98.23982609306158
 20
-154.137017105563
 10
98.91454804384776
 20
-154.137017105563
 10
98.91454804384776
 20
-154.137017105563
 10
99.22133379680925
 20
-154.137017105563
 10
99.38859318261814
 20
-154.3085828607284
 10
99.38859318261814
 20
-154.5645534552825
 10
99.38859318261814
 20
-154.6151963589157
 10
99.37998044390501
 20
-154.6978786505616
 10
99.3355387121453
 20
-154.778149375368
 10
99.27645532457325
 20
-154.881846749474
 10
99.21082625557925
 20
-154.9007947746429
 10
99.14950355594179
 20
-154.9176757425206
 10
99.28696286580326
 20
-154.9600504169892
 10
99.35465899208842
 20
-155.0086262633312
 10
99.35896536144499
 20
-155.3238525002315
 10
99.36309947602729
 20
-155.5946370053722
 10
99.39910072384815
 20
-155.6263318838365
 10
99.4667968501333
 20
-155.6814534116005
 10
99.4667968501333
 20
-155.6814534116005
 10
99.17069089317609
 20
-155.6814534116005
 10
99.17069089317609
 20
-155.6814534116005
 97
        0
 97
        0
 92
        1
 93
        1
 72
     4
 94
        3
 73
     0
 74
     1
 95
       20
 96
       16
 40
0.0
 40
0.0
 40
0.0
 40
0.0
 40
1.0
 40
1.0
 40
1.0
 40
2.0
 40
2.0
 40
2.0
 40
3.0
 40
3.0
 40
3.0
 40
4.0
 40
4.0
 40
4.0
 40
5.0
 40
5.0
 40
5.0
 40
5.0
 10
98.91885441320431
 20
-154.3485459683573
 10
98.91885441320431
 20
-154.3485459683573
 10
98.47460935038136
 20
-154.3485459683573
 10
98.47460935038136
 20
-154.3485459683573
 10
98.47460935038136
 20
-154.3485459683573
 10
98.47460935038136
 20
-154.8287922790011
 10
98.47460935038136
 20
-154.8287922790011
 10
98.47460935038136
 20
-154.8287922790011
 10
98.91678735591317
 20
-154.8287922790011
 10
98.91678735591317
 20
-154.8287922790011
 10
99.01617836066262
 20
-154.8287922790011
 10
99.15157061323295
 20
-154.7526556687771
 10
99.15157061323295
 20
-154.5814344231602
 10
99.15157061323295
 20
-154.503230755645
 10
99.1178086774775
 20
-154.3485459683573
 10
98.91885441320431
 20
-154.3485459683573
 97
        0
 97
        0
 75
     2
 76
     1
 98
        0
  0
ENDBLK
  5
A3
330
A0
100
AcDbEntity
  8
0
100
AcDbBlockEnd
  0
BLOCK
  5
AD
330
AB
100
AcDbEntity
  8
0
100
AcDbBlockBegin
  2
block 3
 70
     0
 10
0.0
 20
0.0
 30
0.0
  3
block 3
  1

  0
SPLINE
  5
AF
330
AB
100
AcDbEntity
  8
_U+30EC_U+30A4_U+30E4_U+30FC 1
370
     0
100
AcDbSpline
210
0.0
220
0.0
230
1.0
 70
    11
 71
     3
 72
    29
 73
    25
 74
     0
 42
0.0000000001
 43
0.0000000001
 12
1.0
 22
0.0
 32
0.0
 13
1.0
 23
0.0
 33
0.0
 40
0.0
 40
0.0
 40
0.0
 40
0.0
 40
1.0
 40
1.0
 40
1.0
 40
2.0
 40
2.0
 40
2.0
 40
3.0
 40
3.0
 40
3.0
 40
4.0
 40
4.0
 40
4.0
 40
5.0
 40
5.0
 40
5.0
 40
6.0
 40
6.0
 40
6.0
 40
7.0
 40
7.0
 40
7.0
 40
8.0
 40
8.0
 40
8.0
 40
8.0
 10
107.4914577639258
 20
-161.5980603979685
 30
0.0
 10
107.4725097387569
 20
-161.6490478111502
 30
0.0
 10
107.4173882109929
 20
-161.8540309925226
 30
0.0
 10
107.3980956762755
 20
-161.9239664308732
 30
0.0
 10
107.3285047474734
 20
-162.1885497641404
 30
0.0
 10
107.1865668134811
 20
-162.5017089437496
 30
0.0
 10
106.9729708933957
 20
-162.7449326850082
 30
0.0
 10
106.9729708933957
 20
-162.7449326850082
 30
0.0
 10
106.757307916019
 20
-162.6433023681934
 30
0.0
 10
106.757307916019
 20
-162.6433023681934
 30
0.0
 10
106.8861544871674
 20
-162.507910115623
 30
0.0
 10
106.9963975426953
 20
-162.3639051243396
 30
0.0
 10
107.1000949168014
 20
-162.1272270645029
 30
0.0
 10
107.1951795521943
 20
-161.9070854629955
 30
0.0
 10
107.2609808759625
 20
-161.6745415177411
 30
0.0
 10
107.2775173342917
 20
-161.4333848337736
 30
0.0
 10
107.2775173342917
 20
-161.4333848337736
 30
0.0
 10
107.5207410755504
 20
-161.4988416479933
 30
0.0
 10
107.5207410755504
 20
-161.4988416479933
 30
0.0
 10
107.5338324383943
 20
-161.5029757625757
 30
0.0
 10
107.5737955460232
 20
-161.5157226158711
 30
0.0
 10
107.5737955460232
 20
-161.5391492651708
 30
0.0
 10
107.5737955460232
 20
-161.5663655195042
 30
0.0
 10
107.5421006675589
 20
-161.5791123727997
 30
0.0
 10
107.4914577639258
 20
-161.5980603979685
 30
0.0
  0
SPLINE
  5
B0
330
AB
100
AcDbEntity
  8
_U+30EC_U+30A4_U+30E4_U+30FC 1
370
     0
100
AcDbSpline
210
0.0
220
0.0
230
1.0
 70
    11
 71
     3
 72
    23
 73
    19
 74
     0
 42
0.0000000001
 43
0.0000000001
 12
1.0
 22
0.0
 32
0.0
 13
1.0
 23
0.0
 33
0.0
 40
0.0
 40
0.0
 40
0.0
 40
0.0
 40
1.0
 40
1.0
 40
1.0
 40
2.0
 40
2.0
 40
2.0
 40
3.0
 40
3.0
 40
3.0
 40
4.0
 40
4.0
 40
4.0
 40
5.0
 40
5.0
 40
5.0
 40
6.0
 40
6.0
 40
6.0
 40
6.0
 10
108.3861490614451
 20
-162.6663845079445
 30
0.0
 10
108.3627224121454
 20
-162.5227240262096
 30
0.0
 10
108.3268934190988
 20
-162.3218749594195
 30
0.0
 10
108.2125162489885
 20
-162.0807182754521
 30
0.0
 10
108.191845676077
 20
-162.0362765436923
 30
0.0
 10
108.0437065702113
 20
-161.742065389252
 30
0.0
 10
107.8914333497633
 20
-161.5539631757574
 30
0.0
 10
107.8914333497633
 20
-161.5539631757574
 30
0.0
 10
108.0667887099625
 20
-161.4416530629382
 30
0.0
 10
108.0667887099625
 20
-161.4416530629382
 30
0.0
 10
108.191845676077
 20
-161.5980603979685
 30
0.0
 10
108.2741834581745
 20
-161.7272514786654
 30
0.0
 10
108.3947618001583
 20
-161.9622069907595
 30
0.0
 10
108.5260199381463
 20
-162.2181775853135
 30
0.0
 10
108.5701171603575
 20
-162.349091213753
 30
0.0
 10
108.619037516248
 20
-162.5881808404293
 30
0.0
 10
108.619037516248
 20
-162.5881808404293
 30
0.0
 10
108.3861490614451
 20
-162.6663845079445
 30
0.0
 10
108.3861490614451
 20
-162.6663845079445
 30
0.0
  0
SPLINE
  5
B1
330
AB
100
AcDbEntity
  8
_U+30EC_U+30A4_U+30E4_U+30FC 1
370
     0
100
AcDbSpline
210
0.0
220
0.0
230
1.0
 70
    11
 71
     3
 72
    17
 73
    13
 74
     0
 42
0.0000000001
 43
0.0000000001
 12
1.0
 22
0.0
 32
0.0
 13
1.0
 23
0.0
 33
0.0
 40
0.0
 40
0.0
 40
0.0
 40
0.0
 40
1.0
 40
1.0
 40
1.0
 40
2.0
 40
2.0
 40
2.0
 40
3.0
 40
3.0
 40
3.0
 40
4.0
 40
4.0
 40
4.0
 40
4.0
 10
108.5108615180112
 20
-161.5432833797531
 30
0.0
 10
108.384082004154
 20
-161.5432833797531
 30
0.0
 10
108.2827961968876
 20
-161.4416530629382
 30
0.0
 10
108.2827961968876
 20
-161.314873549081
 30
0.0
 10
108.2827961968876
 20
-161.1877495256753
 30
0.0
 10
108.384082004154
 20
-161.0840521515693
 30
0.0
 10
108.5108615180112
 20
-161.0840521515693
 30
0.0
 10
108.6379855414169
 20
-161.0840521515693
 30
0.0
 10
108.7416829155229
 20
-161.1877495256753
 30
0.0
 10
108.7416829155229
 20
-161.314873549081
 30
0.0
 10
108.7416829155229
 20
-161.4416530629382
 30
0.0
 10
108.6379855414169
 20
-161.5432833797531
 30
0.0
 10
108.5108615180112
 20
-161.5432833797531
 30
0.0
  0
SPLINE
  5
B2
330
AB
100
AcDbEntity
  8
_U+30EC_U+30A4_U+30E4_U+30FC 1
370
     0
100
AcDbSpline
210
0.0
220
0.0
230
1.0
 70
    11
 71
     3
 72
    17
 73
    13
 74
     0
 42
0.0000000001
 43
0.0000000001
 12
1.0
 22
0.0
 32
0.0
 13
1.0
 23
0.0
 33
0.0
 40
0.0
 40
0.0
 40
0.0
 40
0.0
 40
1.0
 40
1.0
 40
1.0
 40
2.0
 40
2.0
 40
2.0
 40
3.0
 40
3.0
 40
3.0
 40
4.0
 40
4.0
 40
4.0
 40
4.0
 10
108.5129285753023
 20
-161.211176174975
 30
0.0
 10
108.4581515570869
 20
-161.211176174975
 30
0.0
 10
108.411642768036
 20
-161.2556179067347
 30
0.0
 10
108.411642768036
 20
-161.3124619822413
 30
0.0
 10
108.411642768036
 20
-161.3675835100053
 30
0.0
 10
108.4560844997957
 20
-161.418570923187
 30
0.0
 10
108.5129285753023
 20
-161.418570923187
 30
0.0
 10
108.5721842176486
 20
-161.418570923187
 30
0.0
 10
108.6149034016657
 20
-161.3655164527142
 30
0.0
 10
108.6149034016657
 20
-161.3103949249502
 30
0.0
 10
108.6149034016657
 20
-161.2535508494436
 30
0.0
 10
108.5680501030663
 20
-161.211176174975
 30
0.0
 10
108.5129285753023
 20
-161.211176174975
 30
0.0
  0
HATCH
  5
B3
330
AB
100
AcDbEntity
  8
_U+30EC_U+30A4_U+30E4_U+30FC 1
 62
   179
420
  2234388
100
AcDbHatch
 10
0.0
 20
0.0
 30
0.0
210
0.0
220
0.0
230
1.0
  2
SOLID
 70
     1
 71
     0
 91
        4
 92
        1
 93
        1
 72
     4
 94
        3
 73
     0
 74
     1
 95
       29
 96
       25
 40
0.0
 40
0.0
 40
0.0
 40
0.0
 40
1.0
 40
1.0
 40
1.0
 40
2.0
 40
2.0
 40
2.0
 40
3.0
 40
3.0
 40
3.0
 40
4.0
 40
4.0
 40
4.0
 40
5.0
 40
5.0
 40
5.0
 40
6.0
 40
6.0
 40
6.0
 40
7.0
 40
7.0
 40
7.0
 40
8.0
 40
8.0
 40
8.0
 40
8.0
 10
107.4914577639258
 20
-161.5980603979685
 10
107.4725097387569
 20
-161.6490478111502
 10
107.4173882109929
 20
-161.8540309925226
 10
107.3980956762755
 20
-161.9239664308732
 10
107.3285047474734
 20
-162.1885497641404
 10
107.1865668134811
 20
-162.5017089437496
 10
106.9729708933957
 20
-162.7449326850082
 10
106.9729708933957
 20
-162.7449326850082
 10
106.757307916019
 20
-162.6433023681934
 10
106.757307916019
 20
-162.6433023681934
 10
106.8861544871674
 20
-162.507910115623
 10
106.9963975426953
 20
-162.3639051243396
 10
107.1000949168014
 20
-162.1272270645029
 10
107.1951795521943
 20
-161.9070854629955
 10
107.2609808759625
 20
-161.6745415177411
 10
107.2775173342917
 20
-161.4333848337736
 10
107.2775173342917
 20
-161.4333848337736
 10
107.5207410755504
 20
-161.4988416479933
 10
107.5207410755504
 20
-161.4988416479933
 10
107.5338324383943
 20
-161.5029757625757
 10
107.5737955460232
 20
-161.5157226158711
 10
107.5737955460232
 20
-161.5391492651708
 10
107.5737955460232
 20
-161.5663655195042
 10
107.5421006675589
 20
-161.5791123727997
 10
107.4914577639258
 20
-161.5980603979685
 97
        0
 97
        0
 92
        1
 93
        1
 72
     4
 94
        3
 73
     0
 74
     1
 95
       23
 96
       19
 40
0.0
 40
0.0
 40
0.0
 40
0.0
 40
1.0
 40
1.0
 40
1.0
 40
2.0
 40
2.0
 40
2.0
 40
3.0
 40
3.0
 40
3.0
 40
4.0
 40
4.0
 40
4.0
 40
5.0
 40
5.0
 40
5.0
 40
6.0
 40
6.0
 40
6.0
 40
6.0
 10
108.3861490614451
 20
-162.6663845079445
 10
108.3627224121454
 20
-162.5227240262096
 10
108.3268934190988
 20
-162.3218749594195
 10
108.2125162489885
 20
-162.0807182754521
 10
108.191845676077
 20
-162.0362765436923
 10
108.0437065702113
 20
-161.742065389252
 10
107.8914333497633
 20
-161.5539631757574
 10
107.8914333497633
 20
-161.5539631757574
 10
108.0667887099625
 20
-161.4416530629382
 10
108.0667887099625
 20
-161.4416530629382
 10
108.191845676077
 20
-161.5980603979685
 10
108.2741834581745
 20
-161.7272514786654
 10
108.3947618001583
 20
-161.9622069907595
 10
108.5260199381463
 20
-162.2181775853135
 10
108.5701171603575
 20
-162.349091213753
 10
108.619037516248
 20
-162.5881808404293
 10
108.619037516248
 20
-162.5881808404293
 10
108.3861490614451
 20
-162.6663845079445
 10
108.3861490614451
 20
-162.6663845079445
 97
        0
 97
        0
 92
        1
 93
        1
 72
     4
 94
        3
 73
     0
 74
     1
 95
       17
 96
       13
 40
0.0
 40
0.0
 40
0.0
 40
0.0
 40
1.0
 40
1.0
 40
1.0
 40
2.0
 40
2.0
 40
2.0
 40
3.0
 40
3.0
 40
3.0
 40
4.0
 40
4.0
 40
4.0
 40
4.0
 10
108.5108615180112
 20
-161.5432833797531
 10
108.384082004154
 20
-161.5432833797531
 10
108.2827961968876
 20
-161.4416530629382
 10
108.2827961968876
 20
-161.314873549081
 10
108.2827961968876
 20
-161.1877495256753
 10
108.384082004154
 20
-161.0840521515693
 10
108.5108615180112
 20
-161.0840521515693
 10
108.6379855414169
 20
-161.0840521515693
 10
108.7416829155229
 20
-161.1877495256753
 10
108.7416829155229
 20
-161.314873549081
 10
108.7416829155229
 20
-161.4416530629382
 10
108.6379855414169
 20
-161.5432833797531
 10
108.5108615180112
 20
-161.5432833797531
 97
        0
 97
        0
 92
        1
 93
        1
 72
     4
 94
        3
 73
     0
 74
     1
 95
       17
 96
       13
 40
0.0
 40
0.0
 40
0.0
 40
0.0
 40
1.0
 40
1.0
 40
1.0
 40
2.0
 40
2.0
 40
2.0
 40
3.0
 40
3.0
 40
3.0
 40
4.0
 40
4.0
 40
4.0
 40
4.0
 10
108.5129285753023
 20
-161.211176174975
 10
108.4581515570869
 20
-161.211176174975
 10
108.411642768036
 20
-161.2556179067347
 10
108.411642768036
 20
-161.3124619822413
 10
108.411642768036
 20
-161.3675835100053
 10
108.4560844997957
 20
-161.418570923187
 10
108.5129285753023
 20
-161.418570923187
 10
108.5721842176486
 20
-161.418570923187
 10
108.6149034016657
 20
-161.3655164527142
 10
108.6149034016657
 20
-161.3103949249502
 10
108.6149034016657
 20
-161.2535508494436
 10
108.5680501030663
 20
-161.211176174975
 10
108.5129285753023
 20
-161.211176174975
 97
        0
 97
        0
 75
     2
 76
     1
 98
        0
  0
SPLINE
  5
B4
330
AB
100
AcDbEntity
  8
_U+30EC_U+30A4_U+30E4_U+30FC 1
370
     0
100
AcDbSpline
210
0.0
220
0.0
230
1.0
 70
    11
 71
     3
 72
    47
 73
    43
 74
     0
 42
0.0000000001
 43
0.0000000001
 12
1.0
 22
0.0
 32
0.0
 13
1.0
 23
0.0
 33
0.0
 40
0.0
 40
0.0
 40
0.0
 40
0.0
 40
1.0
 40
1.0
 40
1.0
 40
2.0
 40
2.0
 40
2.0
 40
3.0
 40
3.0
 40
3.0
 40
4.0
 40
4.0
 40
4.0
 40
5.0
 40
5.0
 40
5.0
 40
6.0
 40
6.0
 40
6.0
 40
7.0
 40
7.0
 40
7.0
 40
8.0
 40
8.0
 40
8.0
 40
9.0
 40
9.0
 40
9.0
 40
10.0
 40
10.0
 40
10.0
 40
11.0
 40
11.0
 40
11.0
 40
12.0
 40
12.0
 40
12.0
 40
13.0
 40
13.0
 40
13.0
 40
14.0
 40
14.0
 40
14.0
 40
14.0
 10
109.9781276851791
 20
-161.9918348119326
 30
0.0
 10
109.9781276851791
 20
-161.9918348119326
 30
0.0
 10
109.8764973683642
 20
-161.9918348119326
 30
0.0
 10
109.8764973683642
 20
-161.9918348119326
 30
0.0
 10
109.8764973683642
 20
-162.0783067086124
 30
0.0
 10
109.8554822859042
 20
-162.4676024984456
 30
0.0
 10
109.6587673336964
 20
-162.6877440999531
 30
0.0
 10
109.5064941132484
 20
-162.8568982882788
 30
0.0
 10
109.2990993650363
 20
-162.9268337266294
 30
0.0
 10
109.2143500160992
 20
-162.9543944905114
 30
0.0
 10
109.2143500160992
 20
-162.9543944905114
 30
0.0
 10
109.0200466307311
 20
-162.7873073594768
 30
0.0
 10
109.0200466307311
 20
-162.7873073594768
 30
0.0
 10
109.1171983234152
 20
-162.7745605061814
 30
0.0
 10
109.2928981931629
 20
-162.7511338568817
 30
0.0
 10
109.4810004066575
 20
-162.563031643387
 30
0.0
 10
109.5550699595904
 20
-162.4910291477453
 30
0.0
 10
109.6587673336964
 20
-162.3515027805927
 30
0.0
 10
109.6587673336964
 20
-161.9918348119326
 30
0.0
 10
109.6587673336964
 20
-161.9918348119326
 30
0.0
 10
109.4282904457332
 20
-161.9918348119326
 30
0.0
 10
109.4282904457332
 20
-161.9918348119326
 30
0.0
 10
109.2419107799812
 20
-161.9918348119326
 30
0.0
 10
109.0558756237777
 20
-161.9959689265149
 30
0.0
 10
108.8698404675742
 20
-162.0107828371015
 30
0.0
 10
108.8698404675742
 20
-162.0107828371015
 30
0.0
 10
108.8698404675742
 20
-161.790641235594
 30
0.0
 10
108.8698404675742
 20
-161.790641235594
 30
0.0
 10
109.0579426810689
 20
-161.8054551461806
 30
0.0
 10
109.3435410967961
 20
-161.8099337703114
 30
0.0
 10
109.4282904457332
 20
-161.8099337703114
 30
0.0
 10
109.4282904457332
 20
-161.8099337703114
 30
0.0
 10
109.9781276851791
 20
-161.8099337703114
 30
0.0
 10
109.9781276851791
 20
-161.8099337703114
 30
0.0
 10
109.997075710348
 20
-161.8099337703114
 30
0.0
 10
110.314713514088
 20
-161.8099337703114
 30
0.0
 10
110.5431233447601
 20
-161.790641235594
 30
0.0
 10
110.5431233447601
 20
-161.790641235594
 30
0.0
 10
110.5431233447601
 20
-162.0107828371015
 30
0.0
 10
110.5431233447601
 20
-162.0107828371015
 30
0.0
 10
110.3546766217169
 20
-161.9959689265149
 30
0.0
 10
110.1665744082222
 20
-161.9918348119326
 30
0.0
 10
109.9781276851791
 20
-161.9918348119326
 30
0.0
  0
SPLINE
  5
B5
330
AB
100
AcDbEntity
  8
_U+30EC_U+30A4_U+30E4_U+30FC 1
370
     0
100
AcDbSpline
210
0.0
220
0.0
230
1.0
 70
    11
 71
     3
 72
    29
 73
    25
 74
     0
 42
0.0000000001
 43
0.0000000001
 12
1.0
 22
0.0
 32
0.0
 13
1.0
 23
0.0
 33
0.0
 40
0.0
 40
0.0
 40
0.0
 40
0.0
 40
1.0
 40
1.0
 40
1.0
 40
2.0
 40
2.0
 40
2.0
 40
3.0
 40
3.0
 40
3.0
 40
4.0
 40
4.0
 40
4.0
 40
5.0
 40
5.0
 40
5.0
 40
6.0
 40
6.0
 40
6.0
 40
7.0
 40
7.0
 40
7.0
 40
8.0
 40
8.0
 40
8.0
 40
8.0
 10
109.8764973683642
 20
-161.4626681453982
 30
0.0
 10
109.8764973683642
 20
-161.4626681453982
 30
0.0
 10
109.5233750811261
 20
-161.4626681453982
 30
0.0
 10
109.5233750811261
 20
-161.4626681453982
 30
0.0
 10
109.4114094778555
 20
-161.4626681453982
 30
0.0
 10
109.2715386011543
 20
-161.4692138268202
 30
0.0
 10
109.163707112466
 20
-161.4819606801156
 30
0.0
 10
109.163707112466
 20
-161.4819606801156
 30
0.0
 10
109.163707112466
 20
-161.2470051680216
 30
0.0
 10
109.163707112466
 20
-161.2470051680216
 30
0.0
 10
109.2822183971586
 20
-161.2618190786082
 30
0.0
 10
109.466186496071
 20
-161.2659531931905
 30
0.0
 10
109.5233750811261
 20
-161.2659531931905
 30
0.0
 10
109.5233750811261
 20
-161.2659531931905
 30
0.0
 10
109.8764973683642
 20
-161.2659531931905
 30
0.0
 10
109.8764973683642
 20
-161.2659531931905
 30
0.0
 10
109.8957899030816
 20
-161.2659531931905
 30
0.0
 10
110.0987060271628
 20
-161.2659531931905
 30
0.0
 10
110.2406439611551
 20
-161.2470051680216
 30
0.0
 10
110.2406439611551
 20
-161.2470051680216
 30
0.0
 10
110.2406439611551
 20
-161.4819606801156
 30
0.0
 10
110.2406439611551
 20
-161.4819606801156
 30
0.0
 10
110.0838921165763
 20
-161.4626681453982
 30
0.0
 10
109.8937228457905
 20
-161.4626681453982
 30
0.0
 10
109.8764973683642
 20
-161.4626681453982
 30
0.0
  0
HATCH
  5
B6
330
AB
100
AcDbEntity
  8
_U+30EC_U+30A4_U+30E4_U+30FC 1
 62
   179
420
  2234388
100
AcDbHatch
 10
0.0
 20
0.0
 30
0.0
210
0.0
220
0.0
230
1.0
  2
SOLID
 70
     1
 71
     0
 91
        2
 92
        1
 93
        1
 72
     4
 94
        3
 73
     0
 74
     1
 95
       47
 96
       43
 40
0.0
 40
0.0
 40
0.0
 40
0.0
 40
1.0
 40
1.0
 40
1.0
 40
2.0
 40
2.0
 40
2.0
 40
3.0
 40
3.0
 40
3.0
 40
4.0
 40
4.0
 40
4.0
 40
5.0
 40
5.0
 40
5.0
 40
6.0
 40
6.0
 40
6.0
 40
7.0
 40
7.0
 40
7.0
 40
8.0
 40
8.0
 40
8.0
 40
9.0
 40
9.0
 40
9.0
 40
10.0
 40
10.0
 40
10.0
 40
11.0
 40
11.0
 40
11.0
 40
12.0
 40
12.0
 40
12.0
 40
13.0
 40
13.0
 40
13.0
 40
14.0
 40
14.0
 40
14.0
 40
14.0
 10
109.9781276851791
 20
-161.9918348119326
 10
109.9781276851791
 20
-161.9918348119326
 10
109.8764973683642
 20
-161.9918348119326
 10
109.8764973683642
 20
-161.9918348119326
 10
109.8764973683642
 20
-162.0783067086124
 10
109.8554822859042
 20
-162.4676024984456
 10
109.6587673336964
 20
-162.6877440999531
 10
109.5064941132484
 20
-162.8568982882788
 10
109.2990993650363
 20
-162.9268337266294
 10
109.2143500160992
 20
-162.9543944905114
 10
109.2143500160992
 20
-162.9543944905114
 10
109.0200466307311
 20
-162.7873073594768
 10
109.0200466307311
 20
-162.7873073594768
 10
109.1171983234152
 20
-162.7745605061814
 10
109.2928981931629
 20
-162.7511338568817
 10
109.4810004066575
 20
-162.563031643387
 10
109.5550699595904
 20
-162.4910291477453
 10
109.6587673336964
 20
-162.3515027805927
 10
109.6587673336964
 20
-161.9918348119326
 10
109.6587673336964
 20
-161.9918348119326
 10
109.4282904457332
 20
-161.9918348119326
 10
109.4282904457332
 20
-161.9918348119326
 10
109.2419107799812
 20
-161.9918348119326
 10
109.0558756237777
 20
-161.9959689265149
 10
108.8698404675742
 20
-162.0107828371015
 10
108.8698404675742
 20
-162.0107828371015
 10
108.8698404675742
 20
-161.790641235594
 10
108.8698404675742
 20
-161.790641235594
 10
109.0579426810689
 20
-161.8054551461806
 10
109.3435410967961
 20
-161.8099337703114
 10
109.4282904457332
 20
-161.8099337703114
 10
109.4282904457332
 20
-161.8099337703114
 10
109.9781276851791
 20
-161.8099337703114
 10
109.9781276851791
 20
-161.8099337703114
 10
109.997075710348
 20
-161.8099337703114
 10
110.314713514088
 20
-161.8099337703114
 10
110.5431233447601
 20
-161.790641235594
 10
110.5431233447601
 20
-161.790641235594
 10
110.5431233447601
 20
-162.0107828371015
 10
110.5431233447601
 20
-162.0107828371015
 10
110.3546766217169
 20
-161.9959689265149
 10
110.1665744082222
 20
-161.9918348119326
 10
109.9781276851791
 20
-161.9918348119326
 97
        0
 97
        0
 92
        1
 93
        1
 72
     4
 94
        3
 73
     0
 74
     1
 95
       29
 96
       25
 40
0.0
 40
0.0
 40
0.0
 40
0.0
 40
1.0
 40
1.0
 40
1.0
 40
2.0
 40
2.0
 40
2.0
 40
3.0
 40
3.0
 40
3.0
 40
4.0
 40
4.0
 40
4.0
 40
5.0
 40
5.0
 40
5.0
 40
6.0
 40
6.0
 40
6.0
 40
7.0
 40
7.0
 40
7.0
 40
8.0
 40
8.0
 40
8.0
 40
8.0
 10
109.8764973683642
 20
-161.4626681453982
 10
109.8764973683642
 20
-161.4626681453982
 10
109.5233750811261
 20
-161.4626681453982
 10
109.5233750811261
 20
-161.4626681453982
 10
109.4114094778555
 20
-161.4626681453982
 10
109.2715386011543
 20
-161.4692138268202
 10
109.163707112466
 20
-161.4819606801156
 10
109.163707112466
 20
-161.4819606801156
 10
109.163707112466
 20
-161.2470051680216
 10
109.163707112466
 20
-161.2470051680216
 10
109.2822183971586
 20
-161.2618190786082
 10
109.466186496071
 20
-161.2659531931905
 10
109.5233750811261
 20
-161.2659531931905
 10
109.5233750811261
 20
-161.2659531931905
 10
109.8764973683642
 20
-161.2659531931905
 10
109.8764973683642
 20
-161.2659531931905
 10
109.8957899030816
 20
-161.2659531931905
 10
110.0987060271628
 20
-161.2659531931905
 10
110.2406439611551
 20
-161.2470051680216
 10
110.2406439611551
 20
-161.2470051680216
 10
110.2406439611551
 20
-161.4819606801156
 10
110.2406439611551
 20
-161.4819606801156
 10
110.0838921165763
 20
-161.4626681453982
 10
109.8937228457905
 20
-161.4626681453982
 10
109.8764973683642
 20
-161.4626681453982
 97
        0
 97
        0
 75
     2
 76
     1
 98
        0
  0
SPLINE
  5
B7
330
AB
100
AcDbEntity
  8
_U+30EC_U+30A4_U+30E4_U+30FC 1
370
     0
100
AcDbSpline
210
0.0
220
0.0
230
1.0
 70
    11
 71
     3
 72
    77
 73
    73
 74
     0
 42
0.0000000001
 43
0.0000000001
 12
1.0
 22
0.0
 32
0.0
 13
1.0
 23
0.0
 33
0.0
 40
0.0
 40
0.0
 40
0.0
 40
0.0
 40
1.0
 40
1.0
 40
1.0
 40
2.0
 40
2.0
 40
2.0
 40
3.0
 40
3.0
 40
3.0
 40
4.0
 40
4.0
 40
4.0
 40
5.0
 40
5.0
 40
5.0
 40
6.0
 40
6.0
 40
6.0
 40
7.0
 40
7.0
 40
7.0
 40
8.0
 40
8.0
 40
8.0
 40
9.0
 40
9.0
 40
9.0
 40
10.0
 40
10.0
 40
10.0
 40
11.0
 40
11.0
 40
11.0
 40
12.0
 40
12.0
 40
12.0
 40
13.0
 40
13.0
 40
13.0
 40
14.0
 40
14.0
 40
14.0
 40
15.0
 40
15.0
 40
15.0
 40
16.0
 40
16.0
 40
16.0
 40
17.0
 40
17.0
 40
17.0
 40
18.0
 40
18.0
 40
18.0
 40
19.0
 40
19.0
 40
19.0
 40
20.0
 40
20.0
 40
20.0
 40
21.0
 40
21.0
 40
21.0
 40
22.0
 40
22.0
 40
22.0
 40
23.0
 40
23.0
 40
23.0
 40
24.0
 40
24.0
 40
24.0
 40
24.0
 10
112.1816107575449
 20
-162.2285128717693
 30
0.0
 10
112.128556287072
 20
-162.2963812528287
 30
0.0
 10
112.0420843903923
 20
-162.307061048833
 30
0.0
 10
112.003843830506
 20
-162.307061048833
 30
0.0
 10
112.003843830506
 20
-162.307061048833
 30
0.0
 10
111.5849202194996
 20
-162.307061048833
 30
0.0
 10
111.5849202194996
 20
-162.307061048833
 30
0.0
 10
111.5108506665667
 20
-162.307061048833
 30
0.0
 10
111.4708875589378
 20
-162.2857014568244
 30
0.0
 10
111.4495279669293
 20
-162.272954603529
 30
0.0
 10
111.417833088465
 20
-162.2836343995333
 30
0.0
 10
111.2824408358947
 20
-162.3342773031664
 30
0.0
 10
111.2548800720127
 20
-162.3428900418796
 30
0.0
 10
111.2276638176792
 20
-162.3515027805927
 30
0.0
 10
111.0647108012269
 20
-162.3980115696436
 30
0.0
 10
110.93551972053
 20
-162.4190266521036
 30
0.0
 10
110.93551972053
 20
-162.4190266521036
 30
0.0
 10
110.810807263964
 20
-162.2412597250647
 30
0.0
 10
110.810807263964
 20
-162.2412597250647
 30
0.0
 10
110.8848768168968
 20
-162.2391926677736
 30
0.0
 10
111.1281005581555
 20
-162.2223116998958
 30
0.0
 10
111.3630560702495
 20
-162.1206813830809
 30
0.0
 10
111.3565103888275
 20
-161.8371500246449
 30
0.0
 10
111.3544433315364
 20
-161.8075222034717
 30
0.0
 10
111.3482421596629
 20
-161.6828097469057
 30
0.0
 10
111.3482421596629
 20
-161.6828097469057
 30
0.0
 10
111.570106308913
 20
-161.7103705107877
 30
0.0
 10
111.570106308913
 20
-161.7103705107877
 30
0.0
 10
111.5807861049173
 20
-161.7124375680789
 30
0.0
 10
111.6083468687993
 20
-161.7165716826611
 30
0.0
 10
111.6083468687993
 20
-161.7399983319608
 30
0.0
 10
111.6083468687993
 20
-161.7506781279651
 30
0.0
 10
111.5997341300862
 20
-161.7610134144209
 30
0.0
 10
111.5935329582127
 20
-161.7675590958428
 30
0.0
 10
111.5869872767908
 20
-161.7737602677163
 30
0.0
 10
111.5511582837442
 20
-161.797186917016
 30
0.0
 10
111.5449571118707
 20
-161.8013210315983
 30
0.0
 10
111.5449571118707
 20
-161.8013210315983
 30
0.0
 10
111.5449571118707
 20
-162.0338649768526
 30
0.0
 10
111.5449571118707
 20
-162.0338649768526
 30
0.0
 10
111.6441758618459
 20
-161.9811550159283
 30
0.0
 10
111.7351263826565
 20
-161.9132866348689
 30
0.0
 10
111.8240098461759
 20
-161.8436957060669
 30
0.0
 10
111.9511338695817
 20
-161.7441324465431
 30
0.0
 10
111.9976426586325
 20
-161.686943861488
 30
0.0
 10
112.05896535827
 20
-161.5939262833863
 30
0.0
 10
112.05896535827
 20
-161.5939262833863
 30
0.0
 10
112.2239854320134
 20
-161.7124375680789
 30
0.0
 10
112.2239854320134
 20
-161.7124375680789
 30
0.0
 10
112.2281195465957
 20
-161.71450462537
 30
0.0
 10
112.2450005144735
 20
-161.7272514786654
 30
0.0
 10
112.2450005144735
 20
-161.7441324465431
 30
0.0
 10
112.2450005144735
 20
-161.769626153134
 30
0.0
 10
112.2071044641357
 20
-161.7716932104251
 30
0.0
 10
112.2005587827138
 20
-161.7716932104251
 30
0.0
 10
112.1878119294183
 20
-161.7716932104251
 30
0.0
 10
112.1754095856714
 20
-161.769626153134
 30
0.0
 10
112.162662732376
 20
-161.7675590958428
 30
0.0
 10
111.9869628626283
 20
-161.9556613093375
 30
0.0
 10
111.8980793991088
 20
-162.0169840089749
 30
0.0
 10
111.6906846508968
 20
-162.1523762615452
 30
0.0
 10
111.6906846508968
 20
-162.1523762615452
 30
0.0
 10
111.9046250805308
 20
-162.1523762615452
 30
0.0
 10
111.9046250805308
 20
-162.1523762615452
 30
0.0
 10
112.0376057662614
 20
-162.1523762615452
 30
0.0
 10
112.0610324155611
 20
-162.1124131539163
 30
0.0
 10
112.1054741473209
 20
-161.9260334881643
 30
0.0
 10
112.1054741473209
 20
-161.9260334881643
 30
0.0
 10
112.2684271637732
 20
-162.0486788874392
 30
0.0
 10
112.2684271637732
 20
-162.0486788874392
 30
0.0
 10
112.2618814823512
 20
-162.0783067086124
 30
0.0
 10
112.2491346290558
 20
-162.1461750896718
 30
0.0
 10
112.1816107575449
 20
-162.2285128717693
 30
0.0
  0
SPLINE
  5
B8
330
AB
100
AcDbEntity
  8
_U+30EC_U+30A4_U+30E4_U+30FC 1
370
     0
100
AcDbSpline
210
0.0
220
0.0
230
1.0
 70
    11
 71
     3
 72
    83
 73
    79
 74
     0
 42
0.0000000001
 43
0.0000000001
 12
1.0
 22
0.0
 32
0.0
 13
1.0
 23
0.0
 33
0.0
 40
0.0
 40
0.0
 40
0.0
 40
0.0
 40
1.0
 40
1.0
 40
1.0
 40
2.0
 40
2.0
 40
2.0
 40
3.0
 40
3.0
 40
3.0
 40
4.0
 40
4.0
 40
4.0
 40
5.0
 40
5.0
 40
5.0
 40
6.0
 40
6.0
 40
6.0
 40
7.0
 40
7.0
 40
7.0
 40
8.0
 40
8.0
 40
8.0
 40
9.0
 40
9.0
 40
9.0
 40
10.0
 40
10.0
 40
10.0
 40
11.0
 40
11.0
 40
11.0
 40
12.0
 40
12.0
 40
12.0
 40
13.0
 40
13.0
 40
13.0
 40
14.0
 40
14.0
 40
14.0
 40
15.0
 40
15.0
 40
15.0
 40
16.0
 40
16.0
 40
16.0
 40
17.0
 40
17.0
 40
17.0
 40
18.0
 40
18.0
 40
18.0
 40
19.0
 40
19.0
 40
19.0
 40
20.0
 40
20.0
 40
20.0
 40
21.0
 40
21.0
 40
21.0
 40
22.0
 40
22.0
 40
22.0
 40
23.0
 40
23.0
 40
23.0
 40
24.0
 40
24.0
 40
24.0
 40
25.0
 40
25.0
 40
25.0
 40
26.0
 40
26.0
 40
26.0
 40
26.0
 10
112.4038194163435
 20
-161.7716932104251
 30
0.0
 10
112.4100205882169
 20
-161.6914224856188
 30
0.0
 10
112.4120876455081
 20
-161.5877251115128
 30
0.0
 10
112.4120876455081
 20
-161.5050428198668
 30
0.0
 10
112.4120876455081
 20
-161.5050428198668
 30
0.0
 10
111.6486544859767
 20
-161.5050428198668
 30
0.0
 10
111.6486544859767
 20
-161.5050428198668
 30
0.0
 10
111.7371934399476
 20
-161.5474174943354
 30
0.0
 10
111.8112629928805
 20
-161.6025390220994
 30
0.0
 10
111.872585692518
 20
-161.6786756323234
 30
0.0
 10
111.872585692518
 20
-161.6786756323234
 30
0.0
 10
111.7330593253653
 20
-161.8202690567672
 30
0.0
 10
111.7330593253653
 20
-161.8202690567672
 30
0.0
 10
111.6972303323188
 20
-161.7568792998386
 30
0.0
 10
111.6293619512593
 20
-161.6893554283277
 30
0.0
 10
111.5256645771533
 20
-161.6342339005637
 30
0.0
 10
111.5256645771533
 20
-161.6342339005637
 30
0.0
 10
111.6400417472636
 20
-161.5050428198668
 30
0.0
 10
111.6400417472636
 20
-161.5050428198668
 30
0.0
 10
111.6400417472636
 20
-161.5050428198668
 30
0.0
 10
111.0244031840495
 20
-161.5050428198668
 30
0.0
 10
111.0244031840495
 20
-161.5050428198668
 30
0.0
 10
111.0244031840495
 20
-161.5326035837488
 30
0.0
 10
111.0244031840495
 20
-161.5432833797531
 30
0.0
 10
111.0285372986318
 20
-161.6469807538591
 30
0.0
 10
111.0285372986318
 20
-161.6617946644457
 30
0.0
 10
111.0306043559229
 20
-161.6893554283277
 30
0.0
 10
111.0350829800537
 20
-161.7778943822986
 30
0.0
 10
111.0350829800537
 20
-161.7778943822986
 30
0.0
 10
110.8190754931286
 20
-161.7778943822986
 30
0.0
 10
110.8190754931286
 20
-161.7778943822986
 30
0.0
 10
110.8235541172594
 20
-161.7231173640831
 30
0.0
 10
110.8297552891328
 20
-161.610807251264
 30
0.0
 10
110.8297552891328
 20
-161.5663655195042
 30
0.0
 10
110.8297552891328
 20
-161.4881618519891
 30
0.0
 10
110.8256211745505
 20
-161.418570923187
 30
0.0
 10
110.8190754931286
 20
-161.3296874596676
 30
0.0
 10
110.8931450460614
 20
-161.3338215742499
 30
0.0
 10
110.942065401952
 20
-161.3379556888322
 30
0.0
 10
111.0075222161717
 20
-161.3400227461233
 30
0.0
 10
111.0729790303915
 20
-161.3420898034145
 30
0.0
 10
111.3585774461187
 20
-161.3445013702542
 30
0.0
 10
111.4157660311738
 20
-161.3445013702542
 30
0.0
 10
111.4157660311738
 20
-161.3445013702542
 30
0.0
 10
111.6210937220947
 20
-161.3445013702542
 30
0.0
 10
111.6210937220947
 20
-161.3445013702542
 30
0.0
 10
111.6190266648036
 20
-161.2659531931905
 30
0.0
 10
111.6145480406728
 20
-161.1815483538018
 30
0.0
 10
111.6062798115082
 20
-161.1054117435778
 30
0.0
 10
111.6062798115082
 20
-161.1054117435778
 30
0.0
 10
111.8474364954756
 20
-161.128493883329
 30
0.0
 10
111.8474364954756
 20
-161.128493883329
 30
0.0
 10
111.8577717819314
 20
-161.128493883329
 30
0.0
 10
111.8770643166488
 20
-161.1329725074598
 30
0.0
 10
111.8770643166488
 20
-161.156054647211
 30
0.0
 10
111.8770643166488
 20
-161.1856824683841
 30
0.0
 10
111.8305555275979
 20
-161.2091091176839
 30
0.0
 10
111.8133300501717
 20
-161.2153102895573
 30
0.0
 10
111.8133300501717
 20
-161.2363253720173
 30
0.0
 10
111.8091959355894
 20
-161.3272758928279
 30
0.0
 10
111.8091959355894
 20
-161.3445013702542
 30
0.0
 10
111.8091959355894
 20
-161.3445013702542
 30
0.0
 10
111.9890299199194
 20
-161.3445013702542
 30
0.0
 10
111.9890299199194
 20
-161.3445013702542
 30
0.0
 10
111.9890299199194
 20
-161.3445013702542
 30
0.0
 10
112.0503526195569
 20
-161.3445013702542
 30
0.0
 10
112.0503526195569
 20
-161.3445013702542
 30
0.0
 10
112.211238578718
 20
-161.3445013702542
 30
0.0
 10
112.4544623199767
 20
-161.3379556888322
 30
0.0
 10
112.6132812218467
 20
-161.3252088355368
 30
0.0
 10
112.6088025977159
 20
-161.3803303633008
 30
0.0
 10
112.6026014258424
 20
-161.4606010881071
 30
0.0
 10
112.6026014258424
 20
-161.5305365264576
 30
0.0
 10
112.6026014258424
 20
-161.6004719648082
 30
0.0
 10
112.6132812218467
 20
-161.7041693389143
 30
0.0
 10
112.6215494510113
 20
-161.7716932104251
 30
0.0
 10
112.6215494510113
 20
-161.7716932104251
 30
0.0
 10
112.4038194163435
 20
-161.7716932104251
 30
0.0
 10
112.4038194163435
 20
-161.7716932104251
 30
0.0
  0
SPLINE
  5
B9
330
AB
100
AcDbEntity
  8
_U+30EC_U+30A4_U+30E4_U+30FC 1
370
     0
100
AcDbSpline
210
0.0
220
0.0
230
1.0
 70
    11
 71
     3
 72
    23
 73
    19
 74
     0
 42
0.0000000001
 43
0.0000000001
 12
1.0
 22
0.0
 32
0.0
 13
1.0
 23
0.0
 33
0.0
 40
0.0
 40
0.0
 40
0.0
 40
0.0
 40
1.0
 40
1.0
 40
1.0
 40
2.0
 40
2.0
 40
2.0
 40
3.0
 40
3.0
 40
3.0
 40
4.0
 40
4.0
 40
4.0
 40
5.0
 40
5.0
 40
5.0
 40
6.0
 40
6.0
 40
6.0
 40
6.0
 10
111.2717610398904
 20
-161.824747680898
 30
0.0
 10
111.2676269253081
 20
-161.8350829673537
 30
0.0
 10
111.2128499070926
 20
-161.9684081626329
 30
0.0
 10
111.1281005581555
 20
-162.0700384794478
 30
0.0
 10
111.1281005581555
 20
-162.0700384794478
 30
0.0
 10
110.9461995165343
 20
-161.9684081626329
 30
0.0
 10
110.9461995165343
 20
-161.9684081626329
 30
0.0
 10
111.0244031840495
 20
-161.8922715524089
 30
0.0
 10
111.1005397942735
 20
-161.7885741783029
 30
0.0
 10
111.1260335008643
 20
-161.6552489830237
 30
0.0
 10
111.1260335008643
 20
-161.6552489830237
 30
0.0
 10
111.2931206318989
 20
-161.7548122425474
 30
0.0
 10
111.2931206318989
 20
-161.7548122425474
 30
0.0
 10
111.3120686570678
 20
-161.7654920385517
 30
0.0
 10
111.3354953063675
 20
-161.7778943822986
 30
0.0
 10
111.3354953063675
 20
-161.797186917016
 30
0.0
 10
111.3354953063675
 20
-161.8140678848937
 30
0.0
 10
111.3186143384898
 20
-161.8202690567672
 30
0.0
 10
111.2717610398904
 20
-161.824747680898
 30
0.0
  0
SPLINE
  5
BA
330
AB
100
AcDbEntity
  8
_U+30EC_U+30A4_U+30E4_U+30FC 1
370
     0
100
AcDbSpline
210
0.0
220
0.0
230
1.0
 70
    11
 71
     3
 72
    83
 73
    79
 74
     0
 42
0.0000000001
 43
0.0000000001
 12
1.0
 22
0.0
 32
0.0
 13
1.0
 23
0.0
 33
0.0
 40
0.0
 40
0.0
 40
0.0
 40
0.0
 40
1.0
 40
1.0
 40
1.0
 40
2.0
 40
2.0
 40
2.0
 40
3.0
 40
3.0
 40
3.0
 40
4.0
 40
4.0
 40
4.0
 40
5.0
 40
5.0
 40
5.0
 40
6.0
 40
6.0
 40
6.0
 40
7.0
 40
7.0
 40
7.0
 40
8.0
 40
8.0
 40
8.0
 40
9.0
 40
9.0
 40
9.0
 40
10.0
 40
10.0
 40
10.0
 40
11.0
 40
11.0
 40
11.0
 40
12.0
 40
12.0
 40
12.0
 40
13.0
 40
13.0
 40
13.0
 40
14.0
 40
14.0
 40
14.0
 40
15.0
 40
15.0
 40
15.0
 40
16.0
 40
16.0
 40
16.0
 40
17.0
 40
17.0
 40
17.0
 40
18.0
 40
18.0
 40
18.0
 40
19.0
 40
19.0
 40
19.0
 40
20.0
 40
20.0
 40
20.0
 40
21.0
 40
21.0
 40
21.0
 40
22.0
 40
22.0
 40
22.0
 40
23.0
 40
23.0
 40
23.0
 40
24.0
 40
24.0
 40
24.0
 40
25.0
 40
25.0
 40
25.0
 40
26.0
 40
26.0
 40
26.0
 40
26.0
 10
112.4100205882169
 20
-162.5606200765474
 30
0.0
 10
112.4079535309258
 20
-162.6157416043114
 30
0.0
 10
112.4079535309258
 20
-162.6222872857333
 30
0.0
 10
112.4079535309258
 20
-162.6791313612399
 30
0.0
 10
112.4079535309258
 20
-162.6791313612399
 30
0.0
 10
112.4079535309258
 20
-162.8506971164054
 30
0.0
 10
112.4079535309258
 20
-162.8506971164054
 30
0.0
 10
112.4079535309258
 20
-162.9120198160428
 30
0.0
 10
112.4165662696389
 20
-162.9647297769671
 30
0.0
 10
112.4227674415124
 20
-163.0091715087269
 30
0.0
 10
112.4227674415124
 20
-163.0091715087269
 30
0.0
 10
112.2026258400049
 20
-163.0091715087269
 30
0.0
 10
112.2026258400049
 20
-163.0091715087269
 30
0.0
 10
112.2050374068446
 20
-162.969208401098
 30
0.0
 10
112.2050374068446
 20
-162.962662719676
 30
0.0
 10
112.2091715214269
 20
-162.9120198160428
 30
0.0
 10
112.2091715214269
 20
-162.9120198160428
 30
0.0
 10
111.2317979322615
 20
-162.9120198160428
 30
0.0
 10
111.2317979322615
 20
-162.9120198160428
 30
0.0
 10
111.2317979322615
 20
-162.9667968342583
 30
0.0
 10
111.2359320468438
 20
-162.990223483558
 30
0.0
 10
111.2445447855569
 20
-163.0136501328577
 30
0.0
 10
111.2445447855569
 20
-163.0136501328577
 30
0.0
 10
111.0157904453363
 20
-163.0136501328577
 30
0.0
 10
111.0157904453363
 20
-163.0136501328577
 30
0.0
 10
111.0223361267583
 20
-162.9712754583891
 30
0.0
 10
111.0264702413406
 20
-162.8951388481651
 30
0.0
 10
111.0264702413406
 20
-162.8527641736965
 30
0.0
 10
111.0264702413406
 20
-162.8527641736965
 30
0.0
 10
111.0264702413406
 20
-162.6136745470202
 30
0.0
 10
111.0264702413406
 20
-162.6136745470202
 30
0.0
 10
111.0264702413406
 20
-162.5926594645602
 30
0.0
 10
111.0223361267583
 20
-162.480349351741
 30
0.0
 10
111.0223361267583
 20
-162.4548556451502
 30
0.0
 10
111.0223361267583
 20
-162.4548556451502
 30
0.0
 10
111.2528130147215
 20
-162.4824164090322
 30
0.0
 10
111.2528130147215
 20
-162.4824164090322
 30
0.0
 10
111.2717610398904
 20
-162.4844834663233
 30
0.0
 10
111.2910535746078
 20
-162.4910291477453
 30
0.0
 10
111.2910535746078
 20
-162.5141112874965
 30
0.0
 10
111.2910535746078
 20
-162.535470879505
 30
0.0
 10
111.2696939825993
 20
-162.5437391086696
 30
0.0
 10
111.2297308749703
 20
-162.5606200765474
 30
0.0
 10
111.2297308749703
 20
-162.5606200765474
 30
0.0
 10
111.2297308749703
 20
-162.7638807101771
 30
0.0
 10
111.2297308749703
 20
-162.7638807101771
 30
0.0
 10
111.2297308749703
 20
-162.7638807101771
 30
0.0
 10
111.6231607793859
 20
-162.7638807101771
 30
0.0
 10
111.6231607793859
 20
-162.7638807101771
 30
0.0
 10
111.6231607793859
 20
-162.7638807101771
 30
0.0
 10
111.6231607793859
 20
-162.349091213753
 30
0.0
 10
111.6231607793859
 20
-162.349091213753
 30
0.0
 10
111.6231607793859
 20
-162.349091213753
 30
0.0
 10
111.8388237567625
 20
-162.3725178630527
 30
0.0
 10
111.8388237567625
 20
-162.3725178630527
 30
0.0
 10
111.8622504060622
 20
-162.3745849203439
 30
0.0
 10
111.8770643166488
 20
-162.3787190349261
 30
0.0
 10
111.8770643166488
 20
-162.4000786269347
 30
0.0
 10
111.8770643166488
 20
-162.4210937093947
 30
0.0
 10
111.8663845206445
 20
-162.4276393908167
 30
0.0
 10
111.8133300501717
 20
-162.4634683838633
 30
0.0
 10
111.8133300501717
 20
-162.4634683838633
 30
0.0
 10
111.8133300501717
 20
-162.7638807101771
 30
0.0
 10
111.8133300501717
 20
-162.7638807101771
 30
0.0
 10
111.8133300501717
 20
-162.7638807101771
 30
0.0
 10
112.211238578718
 20
-162.7638807101771
 30
0.0
 10
112.211238578718
 20
-162.7638807101771
 30
0.0
 10
112.211238578718
 20
-162.7638807101771
 30
0.0
 10
112.211238578718
 20
-162.4465874159856
 30
0.0
 10
112.211238578718
 20
-162.4465874159856
 30
0.0
 10
112.211238578718
 20
-162.4465874159856
 30
0.0
 10
112.4417154666812
 20
-162.480349351741
 30
0.0
 10
112.4417154666812
 20
-162.480349351741
 30
0.0
 10
112.4610080013986
 20
-162.4824164090322
 30
0.0
 10
112.4734103451455
 20
-162.486895033163
 30
0.0
 10
112.4734103451455
 20
-162.5058430583319
 30
0.0
 10
112.4734103451455
 20
-162.5206569689184
 30
0.0
 10
112.4461940908121
 20
-162.5375379367962
 30
0.0
 10
112.4100205882169
 20
-162.5606200765474
 30
0.0
  0
SPLINE
  5
BB
330
AB
100
AcDbEntity
  8
_U+30EC_U+30A4_U+30E4_U+30FC 1
370
     0
100
AcDbSpline
210
0.0
220
0.0
230
1.0
 70
    11
 71
     3
 72
    17
 73
    13
 74
     0
 42
0.0000000001
 43
0.0000000001
 12
1.0
 22
0.0
 32
0.0
 13
1.0
 23
0.0
 33
0.0
 40
0.0
 40
0.0
 40
0.0
 40
0.0
 40
1.0
 40
1.0
 40
1.0
 40
2.0
 40
2.0
 40
2.0
 40
3.0
 40
3.0
 40
3.0
 40
4.0
 40
4.0
 40
4.0
 40
4.0
 10
112.5030381663187
 20
-162.2181775853135
 30
0.0
 10
112.4227674415124
 20
-162.1038004152032
 30
0.0
 10
112.3276828061195
 20
-162.0107828371015
 30
0.0
 10
112.2091715214269
 20
-161.9387803414598
 30
0.0
 10
112.2091715214269
 20
-161.9387803414598
 30
0.0
 10
112.3404296594149
 20
-161.8013210315983
 30
0.0
 10
112.3404296594149
 20
-161.8013210315983
 30
0.0
 10
112.4313801802255
 20
-161.866777845818
 30
0.0
 10
112.5750406619604
 20
-161.9790879586372
 30
0.0
 10
112.638430418889
 20
-162.0783067086124
 30
0.0
 10
112.638430418889
 20
-162.0783067086124
 30
0.0
 10
112.5030381663187
 20
-162.2181775853135
 30
0.0
 10
112.5030381663187
 20
-162.2181775853135
 30
0.0
  0
HATCH
  5
BC
330
AB
100
AcDbEntity
  8
_U+30EC_U+30A4_U+30E4_U+30FC 1
 62
   179
420
  2234388
100
AcDbHatch
 10
0.0
 20
0.0
 30
0.0
210
0.0
220
0.0
230
1.0
  2
SOLID
 70
     1
 71
     0
 91
        5
 92
        1
 93
        1
 72
     4
 94
        3
 73
     0
 74
     1
 95
       77
 96
       73
 40
0.0
 40
0.0
 40
0.0
 40
0.0
 40
1.0
 40
1.0
 40
1.0
 40
2.0
 40
2.0
 40
2.0
 40
3.0
 40
3.0
 40
3.0
 40
4.0
 40
4.0
 40
4.0
 40
5.0
 40
5.0
 40
5.0
 40
6.0
 40
6.0
 40
6.0
 40
7.0
 40
7.0
 40
7.0
 40
8.0
 40
8.0
 40
8.0
 40
9.0
 40
9.0
 40
9.0
 40
10.0
 40
10.0
 40
10.0
 40
11.0
 40
11.0
 40
11.0
 40
12.0
 40
12.0
 40
12.0
 40
13.0
 40
13.0
 40
13.0
 40
14.0
 40
14.0
 40
14.0
 40
15.0
 40
15.0
 40
15.0
 40
16.0
 40
16.0
 40
16.0
 40
17.0
 40
17.0
 40
17.0
 40
18.0
 40
18.0
 40
18.0
 40
19.0
 40
19.0
 40
19.0
 40
20.0
 40
20.0
 40
20.0
 40
21.0
 40
21.0
 40
21.0
 40
22.0
 40
22.0
 40
22.0
 40
23.0
 40
23.0
 40
23.0
 40
24.0
 40
24.0
 40
24.0
 40
24.0
 10
112.1816107575449
 20
-162.2285128717693
 10
112.128556287072
 20
-162.2963812528287
 10
112.0420843903923
 20
-162.307061048833
 10
112.003843830506
 20
-162.307061048833
 10
112.003843830506
 20
-162.307061048833
 10
111.5849202194996
 20
-162.307061048833
 10
111.5849202194996
 20
-162.307061048833
 10
111.5108506665667
 20
-162.307061048833
 10
111.4708875589378
 20
-162.2857014568244
 10
111.4495279669293
 20
-162.272954603529
 10
111.417833088465
 20
-162.2836343995333
 10
111.2824408358947
 20
-162.3342773031664
 10
111.2548800720127
 20
-162.3428900418796
 10
111.2276638176792
 20
-162.3515027805927
 10
111.0647108012269
 20
-162.3980115696436
 10
110.93551972053
 20
-162.4190266521036
 10
110.93551972053
 20
-162.4190266521036
 10
110.810807263964
 20
-162.2412597250647
 10
110.810807263964
 20
-162.2412597250647
 10
110.8848768168968
 20
-162.2391926677736
 10
111.1281005581555
 20
-162.2223116998958
 10
111.3630560702495
 20
-162.1206813830809
 10
111.3565103888275
 20
-161.8371500246449
 10
111.3544433315364
 20
-161.8075222034717
 10
111.3482421596629
 20
-161.6828097469057
 10
111.3482421596629
 20
-161.6828097469057
 10
111.570106308913
 20
-161.7103705107877
 10
111.570106308913
 20
-161.7103705107877
 10
111.5807861049173
 20
-161.7124375680789
 10
111.6083468687993
 20
-161.7165716826611
 10
111.6083468687993
 20
-161.7399983319608
 10
111.6083468687993
 20
-161.7506781279651
 10
111.5997341300862
 20
-161.7610134144209
 10
111.5935329582127
 20
-161.7675590958428
 10
111.5869872767908
 20
-161.7737602677163
 10
111.5511582837442
 20
-161.797186917016
 10
111.5449571118707
 20
-161.8013210315983
 10
111.5449571118707
 20
-161.8013210315983
 10
111.5449571118707
 20
-162.0338649768526
 10
111.5449571118707
 20
-162.0338649768526
 10
111.6441758618459
 20
-161.9811550159283
 10
111.7351263826565
 20
-161.9132866348689
 10
111.8240098461759
 20
-161.8436957060669
 10
111.9511338695817
 20
-161.7441324465431
 10
111.9976426586325
 20
-161.686943861488
 10
112.05896535827
 20
-161.5939262833863
 10
112.05896535827
 20
-161.5939262833863
 10
112.2239854320134
 20
-161.7124375680789
 10
112.2239854320134
 20
-161.7124375680789
 10
112.2281195465957
 20
-161.71450462537
 10
112.2450005144735
 20
-161.7272514786654
 10
112.2450005144735
 20
-161.7441324465431
 10
112.2450005144735
 20
-161.769626153134
 10
112.2071044641357
 20
-161.7716932104251
 10
112.2005587827138
 20
-161.7716932104251
 10
112.1878119294183
 20
-161.7716932104251
 10
112.1754095856714
 20
-161.769626153134
 10
112.162662732376
 20
-161.7675590958428
 10
111.9869628626283
 20
-161.9556613093375
 10
111.8980793991088
 20
-162.0169840089749
 10
111.6906846508968
 20
-162.1523762615452
 10
111.6906846508968
 20
-162.1523762615452
 10
111.9046250805308
 20
-162.1523762615452
 10
111.9046250805308
 20
-162.1523762615452
 10
112.0376057662614
 20
-162.1523762615452
 10
112.0610324155611
 20
-162.1124131539163
 10
112.1054741473209
 20
-161.9260334881643
 10
112.1054741473209
 20
-161.9260334881643
 10
112.2684271637732
 20
-162.0486788874392
 10
112.2684271637732
 20
-162.0486788874392
 10
112.2618814823512
 20
-162.0783067086124
 10
112.2491346290558
 20
-162.1461750896718
 10
112.1816107575449
 20
-162.2285128717693
 97
        0
 97
        0
 92
        1
 93
        1
 72
     4
 94
        3
 73
     0
 74
     1
 95
       83
 96
       79
 40
0.0
 40
0.0
 40
0.0
 40
0.0
 40
1.0
 40
1.0
 40
1.0
 40
2.0
 40
2.0
 40
2.0
 40
3.0
 40
3.0
 40
3.0
 40
4.0
 40
4.0
 40
4.0
 40
5.0
 40
5.0
 40
5.0
 40
6.0
 40
6.0
 40
6.0
 40
7.0
 40
7.0
 40
7.0
 40
8.0
 40
8.0
 40
8.0
 40
9.0
 40
9.0
 40
9.0
 40
10.0
 40
10.0
 40
10.0
 40
11.0
 40
11.0
 40
11.0
 40
12.0
 40
12.0
 40
12.0
 40
13.0
 40
13.0
 40
13.0
 40
14.0
 40
14.0
 40
14.0
 40
15.0
 40
15.0
 40
15.0
 40
16.0
 40
16.0
 40
16.0
 40
17.0
 40
17.0
 40
17.0
 40
18.0
 40
18.0
 40
18.0
 40
19.0
 40
19.0
 40
19.0
 40
20.0
 40
20.0
 40
20.0
 40
21.0
 40
21.0
 40
21.0
 40
22.0
 40
22.0
 40
22.0
 40
23.0
 40
23.0
 40
23.0
 40
24.0
 40
24.0
 40
24.0
 40
25.0
 40
25.0
 40
25.0
 40
26.0
 40
26.0
 40
26.0
 40
26.0
 10
112.4038194163435
 20
-161.7716932104251
 10
112.4100205882169
 20
-161.6914224856188
 10
112.4120876455081
 20
-161.5877251115128
 10
112.4120876455081
 20
-161.5050428198668
 10
112.4120876455081
 20
-161.5050428198668
 10
111.6486544859767
 20
-161.5050428198668
 10
111.6486544859767
 20
-161.5050428198668
 10
111.7371934399476
 20
-161.5474174943354
 10
111.8112629928805
 20
-161.6025390220994
 10
111.872585692518
 20
-161.6786756323234
 10
111.872585692518
 20
-161.6786756323234
 10
111.7330593253653
 20
-161.8202690567672
 10
111.7330593253653
 20
-161.8202690567672
 10
111.6972303323188
 20
-161.7568792998386
 10
111.6293619512593
 20
-161.6893554283277
 10
111.5256645771533
 20
-161.6342339005637
 10
111.5256645771533
 20
-161.6342339005637
 10
111.6400417472636
 20
-161.5050428198668
 10
111.6400417472636
 20
-161.5050428198668
 10
111.6400417472636
 20
-161.5050428198668
 10
111.0244031840495
 20
-161.5050428198668
 10
111.0244031840495
 20
-161.5050428198668
 10
111.0244031840495
 20
-161.5326035837488
 10
111.0244031840495
 20
-161.5432833797531
 10
111.0285372986318
 20
-161.6469807538591
 10
111.0285372986318
 20
-161.6617946644457
 10
111.0306043559229
 20
-161.6893554283277
 10
111.0350829800537
 20
-161.7778943822986
 10
111.0350829800537
 20
-161.7778943822986
 10
110.8190754931286
 20
-161.7778943822986
 10
110.8190754931286
 20
-161.7778943822986
 10
110.8235541172594
 20
-161.7231173640831
 10
110.8297552891328
 20
-161.610807251264
 10
110.8297552891328
 20
-161.5663655195042
 10
110.8297552891328
 20
-161.4881618519891
 10
110.8256211745505
 20
-161.418570923187
 10
110.8190754931286
 20
-161.3296874596676
 10
110.8931450460614
 20
-161.3338215742499
 10
110.942065401952
 20
-161.3379556888322
 10
111.0075222161717
 20
-161.3400227461233
 10
111.0729790303915
 20
-161.3420898034145
 10
111.3585774461187
 20
-161.3445013702542
 10
111.4157660311738
 20
-161.3445013702542
 10
111.4157660311738
 20
-161.3445013702542
 10
111.6210937220947
 20
-161.3445013702542
 10
111.6210937220947
 20
-161.3445013702542
 10
111.6190266648036
 20
-161.2659531931905
 10
111.6145480406728
 20
-161.1815483538018
 10
111.6062798115082
 20
-161.1054117435778
 10
111.6062798115082
 20
-161.1054117435778
 10
111.8474364954756
 20
-161.128493883329
 10
111.8474364954756
 20
-161.128493883329
 10
111.8577717819314
 20
-161.128493883329
 10
111.8770643166488
 20
-161.1329725074598
 10
111.8770643166488
 20
-161.156054647211
 10
111.8770643166488
 20
-161.1856824683841
 10
111.8305555275979
 20
-161.2091091176839
 10
111.8133300501717
 20
-161.2153102895573
 10
111.8133300501717
 20
-161.2363253720173
 10
111.8091959355894
 20
-161.3272758928279
 10
111.8091959355894
 20
-161.3445013702542
 10
111.8091959355894
 20
-161.3445013702542
 10
111.9890299199194
 20
-161.3445013702542
 10
111.9890299199194
 20
-161.3445013702542
 10
111.9890299199194
 20
-161.3445013702542
 10
112.0503526195569
 20
-161.3445013702542
 10
112.0503526195569
 20
-161.3445013702542
 10
112.211238578718
 20
-161.3445013702542
 10
112.4544623199767
 20
-161.3379556888322
 10
112.6132812218467
 20
-161.3252088355368
 10
112.6088025977159
 20
-161.3803303633008
 10
112.6026014258424
 20
-161.4606010881071
 10
112.6026014258424
 20
-161.5305365264576
 10
112.6026014258424
 20
-161.6004719648082
 10
112.6132812218467
 20
-161.7041693389143
 10
112.6215494510113
 20
-161.7716932104251
 10
112.6215494510113
 20
-161.7716932104251
 10
112.4038194163435
 20
-161.7716932104251
 10
112.4038194163435
 20
-161.7716932104251
 97
        0
 97
        0
 92
        1
 93
        1
 72
     4
 94
        3
 73
     0
 74
     1
 95
       23
 96
       19
 40
0.0
 40
0.0
 40
0.0
 40
0.0
 40
1.0
 40
1.0
 40
1.0
 40
2.0
 40
2.0
 40
2.0
 40
3.0
 40
3.0
 40
3.0
 40
4.0
 40
4.0
 40
4.0
 40
5.0
 40
5.0
 40
5.0
 40
6.0
 40
6.0
 40
6.0
 40
6.0
 10
111.2717610398904
 20
-161.824747680898
 10
111.2676269253081
 20
-161.8350829673537
 10
111.2128499070926
 20
-161.9684081626329
 10
111.1281005581555
 20
-162.0700384794478
 10
111.1281005581555
 20
-162.0700384794478
 10
110.9461995165343
 20
-161.9684081626329
 10
110.9461995165343
 20
-161.9684081626329
 10
111.0244031840495
 20
-161.8922715524089
 10
111.1005397942735
 20
-161.7885741783029
 10
111.1260335008643
 20
-161.6552489830237
 10
111.1260335008643
 20
-161.6552489830237
 10
111.2931206318989
 20
-161.7548122425474
 10
111.2931206318989
 20
-161.7548122425474
 10
111.3120686570678
 20
-161.7654920385517
 10
111.3354953063675
 20
-161.7778943822986
 10
111.3354953063675
 20
-161.797186917016
 10
111.3354953063675
 20
-161.8140678848937
 10
111.3186143384898
 20
-161.8202690567672
 10
111.2717610398904
 20
-161.824747680898
 97
        0
 97
        0
 92
        1
 93
        1
 72
     4
 94
        3
 73
     0
 74
     1
 95
       83
 96
       79
 40
0.0
 40
0.0
 40
0.0
 40
0.0
 40
1.0
 40
1.0
 40
1.0
 40
2.0
 40
2.0
 40
2.0
 40
3.0
 40
3.0
 40
3.0
 40
4.0
 40
4.0
 40
4.0
 40
5.0
 40
5.0
 40
5.0
 40
6.0
 40
6.0
 40
6.0
 40
7.0
 40
7.0
 40
7.0
 40
8.0
 40
8.0
 40
8.0
 40
9.0
 40
9.0
 40
9.0
 40
10.0
 40
10.0
 40
10.0
 40
11.0
 40
11.0
 40
11.0
 40
12.0
 40
12.0
 40
12.0
 40
13.0
 40
13.0
 40
13.0
 40
14.0
 40
14.0
 40
14.0
 40
15.0
 40
15.0
 40
15.0
 40
16.0
 40
16.0
 40
16.0
 40
17.0
 40
17.0
 40
17.0
 40
18.0
 40
18.0
 40
18.0
 40
19.0
 40
19.0
 40
19.0
 40
20.0
 40
20.0
 40
20.0
 40
21.0
 40
21.0
 40
21.0
 40
22.0
 40
22.0
 40
22.0
 40
23.0
 40
23.0
 40
23.0
 40
24.0
 40
24.0
 40
24.0
 40
25.0
 40
25.0
 40
25.0
 40
26.0
 40
26.0
 40
26.0
 40
26.0
 10
112.4100205882169
 20
-162.5606200765474
 10
112.4079535309258
 20
-162.6157416043114
 10
112.4079535309258
 20
-162.6222872857333
 10
112.4079535309258
 20
-162.6791313612399
 10
112.4079535309258
 20
-162.6791313612399
 10
112.4079535309258
 20
-162.8506971164054
 10
112.4079535309258
 20
-162.8506971164054
 10
112.4079535309258
 20
-162.9120198160428
 10
112.4165662696389
 20
-162.9647297769671
 10
112.4227674415124
 20
-163.0091715087269
 10
112.4227674415124
 20
-163.0091715087269
 10
112.2026258400049
 20
-163.0091715087269
 10
112.2026258400049
 20
-163.0091715087269
 10
112.2050374068446
 20
-162.969208401098
 10
112.2050374068446
 20
-162.962662719676
 10
112.2091715214269
 20
-162.9120198160428
 10
112.2091715214269
 20
-162.9120198160428
 10
111.2317979322615
 20
-162.9120198160428
 10
111.2317979322615
 20
-162.9120198160428
 10
111.2317979322615
 20
-162.9667968342583
 10
111.2359320468438
 20
-162.990223483558
 10
111.2445447855569
 20
-163.0136501328577
 10
111.2445447855569
 20
-163.0136501328577
 10
111.0157904453363
 20
-163.0136501328577
 10
111.0157904453363
 20
-163.0136501328577
 10
111.0223361267583
 20
-162.9712754583891
 10
111.0264702413406
 20
-162.8951388481651
 10
111.0264702413406
 20
-162.8527641736965
 10
111.0264702413406
 20
-162.8527641736965
 10
111.0264702413406
 20
-162.6136745470202
 10
111.0264702413406
 20
-162.6136745470202
 10
111.0264702413406
 20
-162.5926594645602
 10
111.0223361267583
 20
-162.480349351741
 10
111.0223361267583
 20
-162.4548556451502
 10
111.0223361267583
 20
-162.4548556451502
 10
111.2528130147215
 20
-162.4824164090322
 10
111.2528130147215
 20
-162.4824164090322
 10
111.2717610398904
 20
-162.4844834663233
 10
111.2910535746078
 20
-162.4910291477453
 10
111.2910535746078
 20
-162.5141112874965
 10
111.2910535746078
 20
-162.535470879505
 10
111.2696939825993
 20
-162.5437391086696
 10
111.2297308749703
 20
-162.5606200765474
 10
111.2297308749703
 20
-162.5606200765474
 10
111.2297308749703
 20
-162.7638807101771
 10
111.2297308749703
 20
-162.7638807101771
 10
111.2297308749703
 20
-162.7638807101771
 10
111.6231607793859
 20
-162.7638807101771
 10
111.6231607793859
 20
-162.7638807101771
 10
111.6231607793859
 20
-162.7638807101771
 10
111.6231607793859
 20
-162.349091213753
 10
111.6231607793859
 20
-162.349091213753
 10
111.6231607793859
 20
-162.349091213753
 10
111.8388237567625
 20
-162.3725178630527
 10
111.8388237567625
 20
-162.3725178630527
 10
111.8622504060622
 20
-162.3745849203439
 10
111.8770643166488
 20
-162.3787190349261
 10
111.8770643166488
 20
-162.4000786269347
 10
111.8770643166488
 20
-162.4210937093947
 10
111.8663845206445
 20
-162.4276393908167
 10
111.8133300501717
 20
-162.4634683838633
 10
111.8133300501717
 20
-162.4634683838633
 10
111.8133300501717
 20
-162.7638807101771
 10
111.8133300501717
 20
-162.7638807101771
 10
111.8133300501717
 20
-162.7638807101771
 10
112.211238578718
 20
-162.7638807101771
 10
112.211238578718
 20
-162.7638807101771
 10
112.211238578718
 20
-162.7638807101771
 10
112.211238578718
 20
-162.4465874159856
 10
112.211238578718
 20
-162.4465874159856
 10
112.211238578718
 20
-162.4465874159856
 10
112.4417154666812
 20
-162.480349351741
 10
112.4417154666812
 20
-162.480349351741
 10
112.4610080013986
 20
-162.4824164090322
 10
112.4734103451455
 20
-162.486895033163
 10
112.4734103451455
 20
-162.5058430583319
 10
112.4734103451455
 20
-162.5206569689184
 10
112.4461940908121
 20
-162.5375379367962
 10
112.4100205882169
 20
-162.5606200765474
 97
        0
 97
        0
 92
        1
 93
        1
 72
     4
 94
        3
 73
     0
 74
     1
 95
       17
 96
       13
 40
0.0
 40
0.0
 40
0.0
 40
0.0
 40
1.0
 40
1.0
 40
1.0
 40
2.0
 40
2.0
 40
2.0
 40
3.0
 40
3.0
 40
3.0
 40
4.0
 40
4.0
 40
4.0
 40
4.0
 10
112.5030381663187
 20
-162.2181775853135
 10
112.4227674415124
 20
-162.1038004152032
 10
112.3276828061195
 20
-162.0107828371015
 10
112.2091715214269
 20
-161.9387803414598
 10
112.2091715214269
 20
-161.9387803414598
 10
112.3404296594149
 20
-161.8013210315983
 10
112.3404296594149
 20
-161.8013210315983
 10
112.4313801802255
 20
-161.866777845818
 10
112.5750406619604
 20
-161.9790879586372
 10
112.638430418889
 20
-162.0783067086124
 10
112.638430418889
 20
-162.0783067086124
 10
112.5030381663187
 20
-162.2181775853135
 10
112.5030381663187
 20
-162.2181775853135
 97
        0
 97
        0
 75
     2
 76
     1
 98
        0
  0
SPLINE
  5
BD
330
AB
100
AcDbEntity
  8
_U+30EC_U+30A4_U+30E4_U+30FC 1
370
     0
100
AcDbSpline
210
0.0
220
0.0
230
1.0
 70
    11
 71
     3
 72
   203
 73
   199
 74
     0
 42
0.0000000001
 43
0.0000000001
 12
1.0
 22
0.0
 32
0.0
 13
1.0
 23
0.0
 33
0.0
 40
0.0
 40
0.0
 40
0.0
 40
0.0
 40
1.0
 40
1.0
 40
1.0
 40
2.0
 40
2.0
 40
2.0
 40
3.0
 40
3.0
 40
3.0
 40
4.0
 40
4.0
 40
4.0
 40
5.0
 40
5.0
 40
5.0
 40
6.0
 40
6.0
 40
6.0
 40
7.0
 40
7.0
 40
7.0
 40
8.0
 40
8.0
 40
8.0
 40
9.0
 40
9.0
 40
9.0
 40
10.0
 40
10.0
 40
10.0
 40
11.0
 40
11.0
 40
11.0
 40
12.0
 40
12.0
 40
12.0
 40
13.0
 40
13.0
 40
13.0
 40
14.0
 40
14.0
 40
14.0
 40
15.0
 40
15.0
 40
15.0
 40
16.0
 40
16.0
 40
16.0
 40
17.0
 40
17.0
 40
17.0
 40
18.0
 40
18.0
 40
18.0
 40
19.0
 40
19.0
 40
19.0
 40
20.0
 40
20.0
 40
20.0
 40
21.0
 40
21.0
 40
21.0
 40
22.0
 40
22.0
 40
22.0
 40
23.0
 40
23.0
 40
23.0
 40
24.0
 40
24.0
 40
24.0
 40
25.0
 40
25.0
 40
25.0
 40
26.0
 40
26.0
 40
26.0
 40
27.0
 40
27.0
 40
27.0
 40
28.0
 40
28.0
 40
28.0
 40
29.0
 40
29.0
 40
29.0
 40
30.0
 40
30.0
 40
30.0
 40
31.0
 40
31.0
 40
31.0
 40
32.0
 40
32.0
 40
32.0
 40
33.0
 40
33.0
 40
33.0
 40
34.0
 40
34.0
 40
34.0
 40
35.0
 40
35.0
 40
35.0
 40
36.0
 40
36.0
 40
36.0
 40
37.0
 40
37.0
 40
37.0
 40
38.0
 40
38.0
 40
38.0
 40
39.0
 40
39.0
 40
39.0
 40
40.0
 40
40.0
 40
40.0
 40
41.0
 40
41.0
 40
41.0
 40
42.0
 40
42.0
 40
42.0
 40
43.0
 40
43.0
 40
43.0
 40
44.0
 40
44.0
 40
44.0
 40
45.0
 40
45.0
 40
45.0
 40
46.0
 40
46.0
 40
46.0
 40
47.0
 40
47.0
 40
47.0
 40
48.0
 40
48.0
 40
48.0
 40
49.0
 40
49.0
 40
49.0
 40
50.0
 40
50.0
 40
50.0
 40
51.0
 40
51.0
 40
51.0
 40
52.0
 40
52.0
 40
52.0
 40
53.0
 40
53.0
 40
53.0
 40
54.0
 40
54.0
 40
54.0
 40
55.0
 40
55.0
 40
55.0
 40
56.0
 40
56.0
 40
56.0
 40
57.0
 40
57.0
 40
57.0
 40
58.0
 40
58.0
 40
58.0
 40
59.0
 40
59.0
 40
59.0
 40
60.0
 40
60.0
 40
60.0
 40
61.0
 40
61.0
 40
61.0
 40
62.0
 40
62.0
 40
62.0
 40
63.0
 40
63.0
 40
63.0
 40
64.0
 40
64.0
 40
64.0
 40
65.0
 40
65.0
 40
65.0
 40
66.0
 40
66.0
 40
66.0
 40
66.0
 10
114.1566839992386
 20
-162.0149169516838
 30
0.0
 10
114.1566839992386
 20
-162.0149169516838
 30
0.0
 10
113.5978895115311
 20
-162.0149169516838
 30
0.0
 10
113.5978895115311
 20
-162.0149169516838
 30
0.0
 10
113.5875542250753
 20
-162.0593586834435
 30
0.0
 10
113.5789414863622
 20
-162.0910535619078
 30
0.0
 10
113.5661946330668
 20
-162.1292941217941
 30
0.0
 10
113.5916883396576
 20
-162.1292941217941
 30
0.0
 10
113.6065022502442
 20
-162.1313611790852
 30
0.0
 10
113.6127034221177
 20
-162.1313611790852
 30
0.0
 10
113.6127034221177
 20
-162.1313611790852
 30
0.0
 10
113.8011501451608
 20
-162.1313611790852
 30
0.0
 10
113.8011501451608
 20
-162.1313611790852
 30
0.0
 10
113.8011501451608
 20
-162.1313611790852
 30
0.0
 10
114.1756320244075
 20
-162.1313611790852
 30
0.0
 10
114.1756320244075
 20
-162.1313611790852
 30
0.0
 10
114.2262749280407
 20
-162.1313611790852
 30
0.0
 10
114.5098062864767
 20
-162.1186143257898
 30
0.0
 10
114.541501164941
 20
-162.1186143257898
 30
0.0
 10
114.5394341076499
 20
-162.1461750896718
 30
0.0
 10
114.5373670503587
 20
-162.1651231148407
 30
0.0
 10
114.5373670503587
 20
-162.1947509360138
 30
0.0
 10
114.5352999930676
 20
-162.2264458144781
 30
0.0
 10
114.5352999930676
 20
-162.3618380670484
 30
0.0
 10
114.5352999930676
 20
-162.3893988309304
 30
0.0
 10
114.5352999930676
 20
-162.3893988309304
 30
0.0
 10
114.5352999930676
 20
-162.6346896294802
 30
0.0
 10
114.5352999930676
 20
-162.6346896294802
 30
0.0
 10
114.5352999930676
 20
-162.6791313612399
 30
0.0
 10
114.5394341076499
 20
-162.8758463134477
 30
0.0
 10
114.5435682222322
 20
-163.0284640434443
 30
0.0
 10
114.5435682222322
 20
-163.0284640434443
 30
0.0
 10
114.3172254488513
 20
-163.0284640434443
 30
0.0
 10
114.3172254488513
 20
-163.0284640434443
 30
0.0
 10
114.3172254488513
 20
-163.0284640434443
 30
0.0
 10
114.3192925061424
 20
-162.9943575981403
 30
0.0
 10
114.3192925061424
 20
-162.9943575981403
 30
0.0
 10
114.3192925061424
 20
-162.9943575981403
 30
0.0
 10
113.6171820462485
 20
-162.9943575981403
 30
0.0
 10
113.6171820462485
 20
-162.9943575981403
 30
0.0
 10
113.6171820462485
 20
-162.9943575981403
 30
0.0
 10
113.6192491035396
 20
-163.0284640434443
 30
0.0
 10
113.6192491035396
 20
-163.0284640434443
 30
0.0
 10
113.6192491035396
 20
-163.0284640434443
 30
0.0
 10
113.4011745593233
 20
-163.0284640434443
 30
0.0
 10
113.4011745593233
 20
-163.0284640434443
 30
0.0
 10
113.4056531834541
 20
-162.9733425156803
 30
0.0
 10
113.4056531834541
 20
-162.9605956623849
 30
0.0
 10
113.4118543553276
 20
-162.8462184922746
 30
0.0
 10
113.4139214126187
 20
-162.8190022379411
 30
0.0
 10
113.4159884699099
 20
-162.6856770426619
 30
0.0
 10
113.4159884699099
 20
-162.6663845079445
 30
0.0
 10
113.4159884699099
 20
-162.6663845079445
 30
0.0
 10
113.4159884699099
 20
-162.4634683838633
 30
0.0
 10
113.4159884699099
 20
-162.4634683838633
 30
0.0
 10
113.2764621027573
 20
-162.7132378065439
 30
0.0
 10
113.1073079144315
 20
-162.8441514349834
 30
0.0
 10
113.0015434830343
 20
-162.9099527587517
 30
0.0
 10
113.0015434830343
 20
-162.9099527587517
 30
0.0
 10
112.8279106705778
 20
-162.7700818820505
 30
0.0
 10
112.8279106705778
 20
-162.7700818820505
 30
0.0
 10
112.9167941340972
 20
-162.7194389784174
 30
0.0
 10
113.0607991253806
 20
-162.6326225721891
 30
0.0
 10
113.1982584352421
 20
-162.4379746772725
 30
0.0
 10
113.2892089560527
 20
-162.3111951634153
 30
0.0
 10
113.3546657702724
 20
-162.1671901721318
 30
0.0
 10
113.3884277060279
 20
-162.0149169516838
 30
0.0
 10
113.1600178753558
 20
-162.0169840089749
 30
0.0
 10
112.9801838910258
 20
-162.0235296903969
 30
0.0
 10
112.8850992556329
 20
-162.025596747688
 30
0.0
 10
112.8850992556329
 20
-162.025596747688
 30
0.0
 10
112.8850992556329
 20
-161.8478298206492
 30
0.0
 10
112.8850992556329
 20
-161.8478298206492
 30
0.0
 10
113.0818142078407
 20
-161.8540309925226
 30
0.0
 10
113.3653455662767
 20
-161.8585096166534
 30
0.0
 10
113.5155517294336
 20
-161.8585096166534
 30
0.0
 10
113.5155517294336
 20
-161.8585096166534
 30
0.0
 10
113.7291476495191
 20
-161.8585096166534
 30
0.0
 10
113.7291476495191
 20
-161.8585096166534
 30
0.0
 10
113.7291476495191
 20
-161.8585096166534
 30
0.0
 10
113.7291476495191
 20
-161.7506781279651
 30
0.0
 10
113.7291476495191
 20
-161.7506781279651
 30
0.0
 10
113.7291476495191
 20
-161.7506781279651
 30
0.0
 10
113.5830756009445
 20
-161.7506781279651
 30
0.0
 10
113.5830756009445
 20
-161.7506781279651
 30
0.0
 10
113.4139214126187
 20
-161.7506781279651
 30
0.0
 10
113.244767224293
 20
-161.7548122425474
 30
0.0
 10
113.0776800932584
 20
-161.7610134144209
 30
0.0
 10
113.0776800932584
 20
-161.7610134144209
 30
0.0
 10
113.0776800932584
 20
-161.5897921688039
 30
0.0
 10
113.0776800932584
 20
-161.5897921688039
 30
0.0
 10
113.2320203709976
 20
-161.6004719648082
 30
0.0
 10
113.418055527201
 20
-161.6004719648082
 30
0.0
 10
113.5830756009445
 20
-161.6004719648082
 30
0.0
 10
113.5830756009445
 20
-161.6004719648082
 30
0.0
 10
113.7291476495191
 20
-161.6004719648082
 30
0.0
 10
113.7291476495191
 20
-161.6004719648082
 30
0.0
 10
113.7291476495191
 20
-161.6004719648082
 30
0.0
 10
113.7291476495191
 20
-161.4819606801156
 30
0.0
 10
113.7291476495191
 20
-161.4819606801156
 30
0.0
 10
113.7291476495191
 20
-161.4819606801156
 30
0.0
 10
113.5978895115311
 20
-161.4819606801156
 30
0.0
 10
113.5978895115311
 20
-161.4819606801156
 30
0.0
 10
113.5513807224802
 20
-161.4819606801156
 30
0.0
 10
113.348464598399
 20
-161.4902289092802
 30
0.0
 10
113.3060899239304
 20
-161.4902289092802
 30
0.0
 10
113.1031737998492
 20
-161.4947075334111
 30
0.0
 10
113.0266926800767
 20
-161.4967745907022
 30
0.0
 10
112.9484890125615
 20
-161.4988416479933
 30
0.0
 10
112.9484890125615
 20
-161.4988416479933
 30
0.0
 10
112.9484890125615
 20
-161.314873549081
 30
0.0
 10
112.9484890125615
 20
-161.314873549081
 30
0.0
 10
113.0628661826718
 20
-161.3231417782456
 30
0.0
 10
113.1073079144315
 20
-161.3231417782456
 30
0.0
 10
113.4900580228428
 20
-161.3317545169587
 30
0.0
 10
113.4266682659142
 20
-161.2363253720173
 30
0.0
 10
113.3991075020322
 20
-161.2091091176839
 30
0.0
 10
113.3632785089856
 20
-161.1729356150887
 30
0.0
 10
113.3632785089856
 20
-161.1729356150887
 30
0.0
 10
113.5386338691848
 20
-161.0905978329913
 30
0.0
 10
113.5386338691848
 20
-161.0905978329913
 30
0.0
 10
113.5789414863622
 20
-161.1264268260379
 30
0.0
 10
113.6233832181219
 20
-161.1688015005064
 30
0.0
 10
113.6974527710548
 20
-161.2787000464859
 30
0.0
 10
113.6974527710548
 20
-161.2787000464859
 30
0.0
 10
113.5830756009445
 20
-161.3338215742499
 30
0.0
 10
113.5830756009445
 20
-161.3338215742499
 30
0.0
 10
113.5830756009445
 20
-161.3338215742499
 30
0.0
 10
113.5937553969488
 20
-161.3338215742499
 30
0.0
 10
113.5937553969488
 20
-161.3338215742499
 30
0.0
 10
113.5937553969488
 20
-161.3338215742499
 30
0.0
 10
114.1163763820612
 20
-161.3338215742499
 30
0.0
 10
114.1163763820612
 20
-161.3338215742499
 30
0.0
 10
114.1163763820612
 20
-161.3338215742499
 30
0.0
 10
114.0212917466683
 20
-161.2893798424901
 30
0.0
 10
114.0212917466683
 20
-161.2893798424901
 30
0.0
 10
114.0485080010018
 20
-161.2511392826039
 30
0.0
 10
114.1056965860569
 20
-161.1708685577976
 30
0.0
 10
114.1205104966435
 20
-161.0967990048647
 30
0.0
 10
114.1205104966435
 20
-161.0967990048647
 30
0.0
 10
114.334106416729
 20
-161.1601887617933
 30
0.0
 10
114.334106416729
 20
-161.1601887617933
 30
0.0
 10
114.3427191554421
 20
-161.162600328633
 30
0.0
 10
114.3637342379021
 20
-161.1729356150887
 30
0.0
 10
114.3637342379021
 20
-161.1942952070973
 30
0.0
 10
114.3637342379021
 20
-161.232191257435
 30
0.0
 10
114.2982774236824
 20
-161.232191257435
 30
0.0
 10
114.2793293985135
 20
-161.232191257435
 30
0.0
 10
114.2686496025092
 20
-161.2511392826039
 30
0.0
 10
114.2452229532095
 20
-161.2914468997813
 30
0.0
 10
114.2155951320364
 20
-161.3317545169587
 30
0.0
 10
114.6155707178739
 20
-161.3252088355368
 30
0.0
 10
114.645198539047
 20
-161.3231417782456
 30
0.0
 10
114.7213351492711
 20
-161.3169406063722
 30
0.0
 10
114.7213351492711
 20
-161.3169406063722
 30
0.0
 10
114.7213351492711
 20
-161.4988416479933
 30
0.0
 10
114.7213351492711
 20
-161.4988416479933
 30
0.0
 10
114.7023871241022
 20
-161.4988416479933
 30
0.0
 10
114.6768934175113
 20
-161.4967745907022
 30
0.0
 10
114.4570963255524
 20
-161.4881618519891
 30
0.0
 10
114.4061089123707
 20
-161.4860947946979
 30
0.0
 10
114.1863118204118
 20
-161.4819606801156
 30
0.0
 10
114.141870088652
 20
-161.4819606801156
 30
0.0
 10
114.141870088652
 20
-161.4819606801156
 30
0.0
 10
113.9258626017269
 20
-161.4819606801156
 30
0.0
 10
113.9258626017269
 20
-161.4819606801156
 30
0.0
 10
113.9258626017269
 20
-161.4819606801156
 30
0.0
 10
113.9258626017269
 20
-161.6004719648082
 30
0.0
 10
113.9258626017269
 20
-161.6004719648082
 30
0.0
 10
113.9258626017269
 20
-161.6004719648082
 30
0.0
 10
114.0994954141835
 20
-161.6004719648082
 30
0.0
 10
114.0994954141835
 20
-161.6004719648082
 30
0.0
 10
114.2624484306358
 20
-161.6004719648082
 30
0.0
 10
114.4526177014216
 20
-161.6004719648082
 30
0.0
 10
114.6093695460004
 20
-161.5897921688039
 30
0.0
 10
114.6093695460004
 20
-161.5897921688039
 30
0.0
 10
114.6093695460004
 20
-161.7610134144209
 30
0.0
 10
114.6093695460004
 20
-161.7610134144209
 30
0.0
 10
114.3999077404973
 20
-161.7527451852563
 30
0.0
 10
114.2031927882895
 20
-161.7506781279651
 30
0.0
 10
114.0994954141835
 20
-161.7506781279651
 30
0.0
 10
114.0994954141835
 20
-161.7506781279651
 30
0.0
 10
113.9258626017269
 20
-161.7506781279651
 30
0.0
 10
113.9258626017269
 20
-161.7506781279651
 30
0.0
 10
113.9258626017269
 20
-161.7506781279651
 30
0.0
 10
113.9258626017269
 20
-161.8585096166534
 30
0.0
 10
113.9258626017269
 20
-161.8585096166534
 30
0.0
 10
113.9258626017269
 20
-161.8585096166534
 30
0.0
 10
114.1566839992386
 20
-161.8585096166534
 30
0.0
 10
114.1566839992386
 20
-161.8585096166534
 30
0.0
 10
114.2896646849693
 20
-161.8585096166534
 30
0.0
 10
114.5776746675361
 20
-161.8540309925226
 30
0.0
 10
114.7867919634908
 20
-161.8478298206492
 30
0.0
 10
114.7867919634908
 20
-161.8478298206492
 30
0.0
 10
114.7867919634908
 20
-162.025596747688
 30
0.0
 10
114.7867919634908
 20
-162.025596747688
 30
0.0
 10
114.5945556354139
 20
-162.0190510662661
 30
0.0
 10
114.2813964558047
 20
-162.0149169516838
 30
0.0
 10
114.1566839992386
 20
-162.0149169516838
 30
0.0
  0
POLYLINE
  5
BE
330
AB
100
AcDbEntity
  8
_U+30EC_U+30A4_U+30E4_U+30FC 1
370
     0
100
AcDb2dPolyline
 66
     1
 10
0.0
 20
0.0
 30
0.0
  0
VERTEX
  5
BF
330
BE
100
AcDbEntity
  8
_U+30EC_U+30A4_U+30E4_U+30FC 1
370
     0
100
AcDbVertex
100
AcDb2dVertex
 10
114.3217040729821
 20
-162.2708875462378
 30
0.0
  0
VERTEX
  5
C0
330
BE
100
AcDbEntity
  8
_U+30EC_U+30A4_U+30E4_U+30FC 1
370
     0
100
AcDbVertex
100
AcDb2dVertex
 10
113.6151149889573
 20
-162.2708875462378
 30
0.0
  0
VERTEX
  5
C1
330
BE
100
AcDbEntity
  8
_U+30EC_U+30A4_U+30E4_U+30FC 1
370
     0
100
AcDbVertex
100
AcDb2dVertex
 10
113.6151149889573
 20
-162.3787190349261
 30
0.0
  0
VERTEX
  5
C2
330
BE
100
AcDbEntity
  8
_U+30EC_U+30A4_U+30E4_U+30FC 1
370
     0
100
AcDbVertex
100
AcDb2dVertex
 10
114.3217040729821
 20
-162.3787190349261
 30
0.0
  0
VERTEX
  5
C3
330
BE
100
AcDbEntity
  8
_U+30EC_U+30A4_U+30E4_U+30FC 1
370
     0
100
AcDbVertex
100
AcDb2dVertex
 10
114.3217040729821
 20
-162.2708875462378
 30
0.0
  0
SEQEND
  5
C4
330
BE
100
AcDbEntity
  8
_U+30EC_U+30A4_U+30E4_U+30FC 1
370
     0
  0
POLYLINE
  5
C5
330
AB
100
AcDbEntity
  8
_U+30EC_U+30A4_U+30E4_U+30FC 1
370
     0
100
AcDb2dPolyline
 66
     1
 10
0.0
 20
0.0
 30
0.0
  0
VERTEX
  5
C6
330
C5
100
AcDbEntity
  8
_U+30EC_U+30A4_U+30E4_U+30FC 1
370
     0
100
AcDbVertex
100
AcDb2dVertex
 10
114.3217040729821
 20
-162.5037760010407
 30
0.0
  0
VERTEX
  5
C7
330
C5
100
AcDbEntity
  8
_U+30EC_U+30A4_U+30E4_U+30FC 1
370
     0
100
AcDbVertex
100
AcDb2dVertex
 10
113.6151149889573
 20
-162.5037760010407
 30
0.0
  0
VERTEX
  5
C8
330
C5
100
AcDbEntity
  8
_U+30EC_U+30A4_U+30E4_U+30FC 1
370
     0
100
AcDbVertex
100
AcDb2dVertex
 10
113.6151149889573
 20
-162.6178086616025
 30
0.0
  0
VERTEX
  5
C9
330
C5
100
AcDbEntity
  8
_U+30EC_U+30A4_U+30E4_U+30FC 1
370
     0
100
AcDbVertex
100
AcDb2dVertex
 10
114.3217040729821
 20
-162.6178086616025
 30
0.0
  0
VERTEX
  5
CA
330
C5
100
AcDbEntity
  8
_U+30EC_U+30A4_U+30E4_U+30FC 1
370
     0
100
AcDbVertex
100
AcDb2dVertex
 10
114.3217040729821
 20
-162.5037760010407
 30
0.0
  0
SEQEND
  5
CB
330
C5
100
AcDbEntity
  8
_U+30EC_U+30A4_U+30E4_U+30FC 1
370
     0
  0
POLYLINE
  5
CC
330
AB
100
AcDbEntity
  8
_U+30EC_U+30A4_U+30E4_U+30FC 1
370
     0
100
AcDb2dPolyline
 66
     1
 10
0.0
 20
0.0
 30
0.0
  0
VERTEX
  5
CD
330
CC
100
AcDbEntity
  8
_U+30EC_U+30A4_U+30E4_U+30FC 1
370
     0
100
AcDbVertex
100
AcDb2dVertex
 10
114.3217040729821
 20
-162.7469997422994
 30
0.0
  0
VERTEX
  5
CE
330
CC
100
AcDbEntity
  8
_U+30EC_U+30A4_U+30E4_U+30FC 1
370
     0
100
AcDbVertex
100
AcDb2dVertex
 10
113.6151149889573
 20
-162.7469997422994
 30
0.0
  0
VERTEX
  5
CF
330
CC
100
AcDbEntity
  8
_U+30EC_U+30A4_U+30E4_U+30FC 1
370
     0
100
AcDbVertex
100
AcDb2dVertex
 10
113.6151149889573
 20
-162.8610324028611
 30
0.0
  0
VERTEX
  5
D0
330
CC
100
AcDbEntity
  8
_U+30EC_U+30A4_U+30E4_U+30FC 1
370
     0
100
AcDbVertex
100
AcDb2dVertex
 10
114.3217040729821
 20
-162.8610324028611
 30
0.0
  0
VERTEX
  5
D1
330
CC
100
AcDbEntity
  8
_U+30EC_U+30A4_U+30E4_U+30FC 1
370
     0
100
AcDbVertex
100
AcDb2dVertex
 10
114.3217040729821
 20
-162.7469997422994
 30
0.0
  0
SEQEND
  5
D2
330
CC
100
AcDbEntity
  8
_U+30EC_U+30A4_U+30E4_U+30FC 1
370
     0
  0
HATCH
  5
D3
330
AB
100
AcDbEntity
  8
_U+30EC_U+30A4_U+30E4_U+30FC 1
 62
   179
420
  2234388
100
AcDbHatch
 10
0.0
 20
0.0
 30
0.0
210
0.0
220
0.0
230
1.0
  2
SOLID
 70
     1
 71
     0
 91
        4
 92
        1
 93
        1
 72
     4
 94
        3
 73
     0
 74
     1
 95
      203
 96
      199
 40
0.0
 40
0.0
 40
0.0
 40
0.0
 40
1.0
 40
1.0
 40
1.0
 40
2.0
 40
2.0
 40
2.0
 40
3.0
 40
3.0
 40
3.0
 40
4.0
 40
4.0
 40
4.0
 40
5.0
 40
5.0
 40
5.0
 40
6.0
 40
6.0
 40
6.0
 40
7.0
 40
7.0
 40
7.0
 40
8.0
 40
8.0
 40
8.0
 40
9.0
 40
9.0
 40
9.0
 40
10.0
 40
10.0
 40
10.0
 40
11.0
 40
11.0
 40
11.0
 40
12.0
 40
12.0
 40
12.0
 40
13.0
 40
13.0
 40
13.0
 40
14.0
 40
14.0
 40
14.0
 40
15.0
 40
15.0
 40
15.0
 40
16.0
 40
16.0
 40
16.0
 40
17.0
 40
17.0
 40
17.0
 40
18.0
 40
18.0
 40
18.0
 40
19.0
 40
19.0
 40
19.0
 40
20.0
 40
20.0
 40
20.0
 40
21.0
 40
21.0
 40
21.0
 40
22.0
 40
22.0
 40
22.0
 40
23.0
 40
23.0
 40
23.0
 40
24.0
 40
24.0
 40
24.0
 40
25.0
 40
25.0
 40
25.0
 40
26.0
 40
26.0
 40
26.0
 40
27.0
 40
27.0
 40
27.0
 40
28.0
 40
28.0
 40
28.0
 40
29.0
 40
29.0
 40
29.0
 40
30.0
 40
30.0
 40
30.0
 40
31.0
 40
31.0
 40
31.0
 40
32.0
 40
32.0
 40
32.0
 40
33.0
 40
33.0
 40
33.0
 40
34.0
 40
34.0
 40
34.0
 40
35.0
 40
35.0
 40
35.0
 40
36.0
 40
36.0
 40
36.0
 40
37.0
 40
37.0
 40
37.0
 40
38.0
 40
38.0
 40
38.0
 40
39.0
 40
39.0
 40
39.0
 40
40.0
 40
40.0
 40
40.0
 40
41.0
 40
41.0
 40
41.0
 40
42.0
 40
42.0
 40
42.0
 40
43.0
 40
43.0
 40
43.0
 40
44.0
 40
44.0
 40
44.0
 40
45.0
 40
45.0
 40
45.0
 40
46.0
 40
46.0
 40
46.0
 40
47.0
 40
47.0
 40
47.0
 40
48.0
 40
48.0
 40
48.0
 40
49.0
 40
49.0
 40
49.0
 40
50.0
 40
50.0
 40
50.0
 40
51.0
 40
51.0
 40
51.0
 40
52.0
 40
52.0
 40
52.0
 40
53.0
 40
53.0
 40
53.0
 40
54.0
 40
54.0
 40
54.0
 40
55.0
 40
55.0
 40
55.0
 40
56.0
 40
56.0
 40
56.0
 40
57.0
 40
57.0
 40
57.0
 40
58.0
 40
58.0
 40
58.0
 40
59.0
 40
59.0
 40
59.0
 40
60.0
 40
60.0
 40
60.0
 40
61.0
 40
61.0
 40
61.0
 40
62.0
 40
62.0
 40
62.0
 40
63.0
 40
63.0
 40
63.0
 40
64.0
 40
64.0
 40
64.0
 40
65.0
 40
65.0
 40
65.0
 40
66.0
 40
66.0
 40
66.0
 40
66.0
 10
114.1566839992386
 20
-162.0149169516838
 10
114.1566839992386
 20
-162.0149169516838
 10
113.5978895115311
 20
-162.0149169516838
 10
113.5978895115311
 20
-162.0149169516838
 10
113.5875542250753
 20
-162.0593586834435
 10
113.5789414863622
 20
-162.0910535619078
 10
113.5661946330668
 20
-162.1292941217941
 10
113.5916883396576
 20
-162.1292941217941
 10
113.6065022502442
 20
-162.1313611790852
 10
113.6127034221177
 20
-162.1313611790852
 10
113.6127034221177
 20
-162.1313611790852
 10
113.8011501451608
 20
-162.1313611790852
 10
113.8011501451608
 20
-162.1313611790852
 10
113.8011501451608
 20
-162.1313611790852
 10
114.1756320244075
 20
-162.1313611790852
 10
114.1756320244075
 20
-162.1313611790852
 10
114.2262749280407
 20
-162.1313611790852
 10
114.5098062864767
 20
-162.1186143257898
 10
114.541501164941
 20
-162.1186143257898
 10
114.5394341076499
 20
-162.1461750896718
 10
114.5373670503587
 20
-162.1651231148407
 10
114.5373670503587
 20
-162.1947509360138
 10
114.5352999930676
 20
-162.2264458144781
 10
114.5352999930676
 20
-162.3618380670484
 10
114.5352999930676
 20
-162.3893988309304
 10
114.5352999930676
 20
-162.3893988309304
 10
114.5352999930676
 20
-162.6346896294802
 10
114.5352999930676
 20
-162.6346896294802
 10
114.5352999930676
 20
-162.6791313612399
 10
114.5394341076499
 20
-162.8758463134477
 10
114.5435682222322
 20
-163.0284640434443
 10
114.5435682222322
 20
-163.0284640434443
 10
114.3172254488513
 20
-163.0284640434443
 10
114.3172254488513
 20
-163.0284640434443
 10
114.3172254488513
 20
-163.0284640434443
 10
114.3192925061424
 20
-162.9943575981403
 10
114.3192925061424
 20
-162.9943575981403
 10
114.3192925061424
 20
-162.9943575981403
 10
113.6171820462485
 20
-162.9943575981403
 10
113.6171820462485
 20
-162.9943575981403
 10
113.6171820462485
 20
-162.9943575981403
 10
113.6192491035396
 20
-163.0284640434443
 10
113.6192491035396
 20
-163.0284640434443
 10
113.6192491035396
 20
-163.0284640434443
 10
113.4011745593233
 20
-163.0284640434443
 10
113.4011745593233
 20
-163.0284640434443
 10
113.4056531834541
 20
-162.9733425156803
 10
113.4056531834541
 20
-162.9605956623849
 10
113.4118543553276
 20
-162.8462184922746
 10
113.4139214126187
 20
-162.8190022379411
 10
113.4159884699099
 20
-162.6856770426619
 10
113.4159884699099
 20
-162.6663845079445
 10
113.4159884699099
 20
-162.6663845079445
 10
113.4159884699099
 20
-162.4634683838633
 10
113.4159884699099
 20
-162.4634683838633
 10
113.2764621027573
 20
-162.7132378065439
 10
113.1073079144315
 20
-162.8441514349834
 10
113.0015434830343
 20
-162.9099527587517
 10
113.0015434830343
 20
-162.9099527587517
 10
112.8279106705778
 20
-162.7700818820505
 10
112.8279106705778
 20
-162.7700818820505
 10
112.9167941340972
 20
-162.7194389784174
 10
113.0607991253806
 20
-162.6326225721891
 10
113.1982584352421
 20
-162.4379746772725
 10
113.2892089560527
 20
-162.3111951634153
 10
113.3546657702724
 20
-162.1671901721318
 10
113.3884277060279
 20
-162.0149169516838
 10
113.1600178753558
 20
-162.0169840089749
 10
112.9801838910258
 20
-162.0235296903969
 10
112.8850992556329
 20
-162.025596747688
 10
112.8850992556329
 20
-162.025596747688
 10
112.8850992556329
 20
-161.8478298206492
 10
112.8850992556329
 20
-161.8478298206492
 10
113.0818142078407
 20
-161.8540309925226
 10
113.3653455662767
 20
-161.8585096166534
 10
113.5155517294336
 20
-161.8585096166534
 10
113.5155517294336
 20
-161.8585096166534
 10
113.7291476495191
 20
-161.8585096166534
 10
113.7291476495191
 20
-161.8585096166534
 10
113.7291476495191
 20
-161.8585096166534
 10
113.7291476495191
 20
-161.7506781279651
 10
113.7291476495191
 20
-161.7506781279651
 10
113.7291476495191
 20
-161.7506781279651
 10
113.5830756009445
 20
-161.7506781279651
 10
113.5830756009445
 20
-161.7506781279651
 10
113.4139214126187
 20
-161.7506781279651
 10
113.244767224293
 20
-161.7548122425474
 10
113.0776800932584
 20
-161.7610134144209
 10
113.0776800932584
 20
-161.7610134144209
 10
113.0776800932584
 20
-161.5897921688039
 10
113.0776800932584
 20
-161.5897921688039
 10
113.2320203709976
 20
-161.6004719648082
 10
113.418055527201
 20
-161.6004719648082
 10
113.5830756009445
 20
-161.6004719648082
 10
113.5830756009445
 20
-161.6004719648082
 10
113.7291476495191
 20
-161.6004719648082
 10
113.7291476495191
 20
-161.6004719648082
 10
113.7291476495191
 20
-161.6004719648082
 10
113.7291476495191
 20
-161.4819606801156
 10
113.7291476495191
 20
-161.4819606801156
 10
113.7291476495191
 20
-161.4819606801156
 10
113.5978895115311
 20
-161.4819606801156
 10
113.5978895115311
 20
-161.4819606801156
 10
113.5513807224802
 20
-161.4819606801156
 10
113.348464598399
 20
-161.4902289092802
 10
113.3060899239304
 20
-161.4902289092802
 10
113.1031737998492
 20
-161.4947075334111
 10
113.0266926800767
 20
-161.4967745907022
 10
112.9484890125615
 20
-161.4988416479933
 10
112.9484890125615
 20
-161.4988416479933
 10
112.9484890125615
 20
-161.314873549081
 10
112.9484890125615
 20
-161.314873549081
 10
113.0628661826718
 20
-161.3231417782456
 10
113.1073079144315
 20
-161.3231417782456
 10
113.4900580228428
 20
-161.3317545169587
 10
113.4266682659142
 20
-161.2363253720173
 10
113.3991075020322
 20
-161.2091091176839
 10
113.3632785089856
 20
-161.1729356150887
 10
113.3632785089856
 20
-161.1729356150887
 10
113.5386338691848
 20
-161.0905978329913
 10
113.5386338691848
 20
-161.0905978329913
 10
113.5789414863622
 20
-161.1264268260379
 10
113.6233832181219
 20
-161.1688015005064
 10
113.6974527710548
 20
-161.2787000464859
 10
113.6974527710548
 20
-161.2787000464859
 10
113.5830756009445
 20
-161.3338215742499
 10
113.5830756009445
 20
-161.3338215742499
 10
113.5830756009445
 20
-161.3338215742499
 10
113.5937553969488
 20
-161.3338215742499
 10
113.5937553969488
 20
-161.3338215742499
 10
113.5937553969488
 20
-161.3338215742499
 10
114.1163763820612
 20
-161.3338215742499
 10
114.1163763820612
 20
-161.3338215742499
 10
114.1163763820612
 20
-161.3338215742499
 10
114.0212917466683
 20
-161.2893798424901
 10
114.0212917466683
 20
-161.2893798424901
 10
114.0485080010018
 20
-161.2511392826039
 10
114.1056965860569
 20
-161.1708685577976
 10
114.1205104966435
 20
-161.0967990048647
 10
114.1205104966435
 20
-161.0967990048647
 10
114.334106416729
 20
-161.1601887617933
 10
114.334106416729
 20
-161.1601887617933
 10
114.3427191554421
 20
-161.162600328633
 10
114.3637342379021
 20
-161.1729356150887
 10
114.3637342379021
 20
-161.1942952070973
 10
114.3637342379021
 20
-161.232191257435
 10
114.2982774236824
 20
-161.232191257435
 10
114.2793293985135
 20
-161.232191257435
 10
114.2686496025092
 20
-161.2511392826039
 10
114.2452229532095
 20
-161.2914468997813
 10
114.2155951320364
 20
-161.3317545169587
 10
114.6155707178739
 20
-161.3252088355368
 10
114.645198539047
 20
-161.3231417782456
 10
114.7213351492711
 20
-161.3169406063722
 10
114.7213351492711
 20
-161.3169406063722
 10
114.7213351492711
 20
-161.4988416479933
 10
114.7213351492711
 20
-161.4988416479933
 10
114.7023871241022
 20
-161.4988416479933
 10
114.6768934175113
 20
-161.4967745907022
 10
114.4570963255524
 20
-161.4881618519891
 10
114.4061089123707
 20
-161.4860947946979
 10
114.1863118204118
 20
-161.4819606801156
 10
114.141870088652
 20
-161.4819606801156
 10
114.141870088652
 20
-161.4819606801156
 10
113.9258626017269
 20
-161.4819606801156
 10
113.9258626017269
 20
-161.4819606801156
 10
113.9258626017269
 20
-161.4819606801156
 10
113.9258626017269
 20
-161.6004719648082
 10
113.9258626017269
 20
-161.6004719648082
 10
113.9258626017269
 20
-161.6004719648082
 10
114.0994954141835
 20
-161.6004719648082
 10
114.0994954141835
 20
-161.6004719648082
 10
114.2624484306358
 20
-161.6004719648082
 10
114.4526177014216
 20
-161.6004719648082
 10
114.6093695460004
 20
-161.5897921688039
 10
114.6093695460004
 20
-161.5897921688039
 10
114.6093695460004
 20
-161.7610134144209
 10
114.6093695460004
 20
-161.7610134144209
 10
114.3999077404973
 20
-161.7527451852563
 10
114.2031927882895
 20
-161.7506781279651
 10
114.0994954141835
 20
-161.7506781279651
 10
114.0994954141835
 20
-161.7506781279651
 10
113.9258626017269
 20
-161.7506781279651
 10
113.9258626017269
 20
-161.7506781279651
 10
113.9258626017269
 20
-161.7506781279651
 10
113.9258626017269
 20
-161.8585096166534
 10
113.9258626017269
 20
-161.8585096166534
 10
113.9258626017269
 20
-161.8585096166534
 10
114.1566839992386
 20
-161.8585096166534
 10
114.1566839992386
 20
-161.8585096166534
 10
114.2896646849693
 20
-161.8585096166534
 10
114.5776746675361
 20
-161.8540309925226
 10
114.7867919634908
 20
-161.8478298206492
 10
114.7867919634908
 20
-161.8478298206492
 10
114.7867919634908
 20
-162.025596747688
 10
114.7867919634908
 20
-162.025596747688
 10
114.5945556354139
 20
-162.0190510662661
 10
114.2813964558047
 20
-162.0149169516838
 10
114.1566839992386
 20
-162.0149169516838
 97
        0
 97
        0
 92
        1
 93
        4
 72
     1
 10
114.3217040729821
 20
-162.2708875462378
 11
113.6151149889573
 21
-162.2708875462378
 72
     1
 10
113.6151149889573
 20
-162.2708875462378
 11
113.6151149889573
 21
-162.3787190349261
 72
     1
 10
113.6151149889573
 20
-162.3787190349261
 11
114.3217040729821
 21
-162.3787190349261
 72
     1
 10
114.3217040729821
 20
-162.3787190349261
 11
114.3217040729821
 21
-162.2708875462378
 97
        0
 92
        1
 93
        4
 72
     1
 10
114.3217040729821
 20
-162.5037760010407
 11
113.6151149889573
 21
-162.5037760010407
 72
     1
 10
113.6151149889573
 20
-162.5037760010407
 11
113.6151149889573
 21
-162.6178086616025
 72
     1
 10
113.6151149889573
 20
-162.6178086616025
 11
114.3217040729821
 21
-162.6178086616025
 72
     1
 10
114.3217040729821
 20
-162.6178086616025
 11
114.3217040729821
 21
-162.5037760010407
 97
        0
 92
        1
 93
        4
 72
     1
 10
114.3217040729821
 20
-162.7469997422994
 11
113.6151149889573
 21
-162.7469997422994
 72
     1
 10
113.6151149889573
 20
-162.7469997422994
 11
113.6151149889573
 21
-162.8610324028611
 72
     1
 10
113.6151149889573
 20
-162.8610324028611
 11
114.3217040729821
 21
-162.8610324028611
 72
     1
 10
114.3217040729821
 20
-162.8610324028611
 11
114.3217040729821
 21
-162.7469997422994
 97
        0
 75
     2
 76
     1
 98
        0
  0
SPLINE
  5
D4
330
AB
100
AcDbEntity
  8
_U+30EC_U+30A4_U+30E4_U+30FC 1
370
     0
100
AcDbSpline
210
0.0
220
0.0
230
1.0
 70
    11
 71
     3
 72
    44
 73
    40
 74
     0
 42
0.0000000001
 43
0.0000000001
 12
1.0
 22
0.0
 32
0.0
 13
1.0
 23
0.0
 33
0.0
 40
0.0
 40
0.0
 40
0.0
 40
0.0
 40
1.0
 40
1.0
 40
1.0
 40
2.0
 40
2.0
 40
2.0
 40
3.0
 40
3.0
 40
3.0
 40
4.0
 40
4.0
 40
4.0
 40
5.0
 40
5.0
 40
5.0
 40
6.0
 40
6.0
 40
6.0
 40
7.0
 40
7.0
 40
7.0
 40
8.0
 40
8.0
 40
8.0
 40
9.0
 40
9.0
 40
9.0
 40
10.0
 40
10.0
 40
10.0
 40
11.0
 40
11.0
 40
11.0
 40
12.0
 40
12.0
 40
12.0
 40
13.0
 40
13.0
 40
13.0
 40
13.0
 10
116.4294134908579
 20
-161.7165716826611
 30
0.0
 10
116.3174478875873
 20
-162.0848523900343
 30
0.0
 10
116.2668049839541
 20
-162.2433267823558
 30
0.0
 10
116.0700900317464
 20
-162.4930962050365
 30
0.0
 10
115.8857774232855
 20
-162.7235730929997
 30
0.0
 10
115.6490993634488
 20
-162.9099527587517
 30
0.0
 10
115.3697021195951
 20
-163.0029703368534
 30
0.0
 10
115.3697021195951
 20
-163.0029703368534
 30
0.0
 10
115.1771212819696
 20
-162.8231363525234
 30
0.0
 10
115.1771212819696
 20
-162.8231363525234
 30
0.0
 10
115.8182535517746
 20
-162.6708631320753
 30
0.0
 10
116.1482936992615
 20
-162.1144802112075
 30
0.0
 10
116.2116834561901
 20
-161.6745415177411
 30
0.0
 10
116.2116834561901
 20
-161.6745415177411
 30
0.0
 10
115.4458387298191
 20
-161.6745415177411
 30
0.0
 10
115.4458387298191
 20
-161.6745415177411
 30
0.0
 10
115.3528211517174
 20
-161.6745415177411
 30
0.0
 10
115.168853052805
 20
-161.6786756323234
 30
0.0
 10
115.0121012082261
 20
-161.6976236574923
 30
0.0
 10
115.0121012082261
 20
-161.6976236574923
 30
0.0
 10
115.0121012082261
 20
-161.4774820559848
 30
0.0
 10
115.0121012082261
 20
-161.4774820559848
 30
0.0
 10
115.0989176144544
 20
-161.4988416479933
 30
0.0
 10
115.3507540944262
 20
-161.4988416479933
 30
0.0
 10
115.4499728444014
 20
-161.4988416479933
 30
0.0
 10
115.4499728444014
 20
-161.4988416479933
 30
0.0
 10
115.8816433087032
 20
-161.4988416479933
 30
0.0
 10
115.8816433087032
 20
-161.4988416479933
 30
0.0
 10
115.9240179831718
 20
-161.4988416479933
 30
0.0
 10
116.1586289857173
 20
-161.4967745907022
 30
0.0
 10
116.1968695456036
 20
-161.4902289092802
 30
0.0
 10
116.2392442200721
 20
-161.4840277374068
 30
0.0
 10
116.2413112773633
 20
-161.4819606801156
 30
0.0
 10
116.3026339770007
 20
-161.4416530629382
 30
0.0
 10
116.3026339770007
 20
-161.4416530629382
 30
0.0
 10
116.4910807000439
 20
-161.5959933406774
 30
0.0
 10
116.4910807000439
 20
-161.5959933406774
 30
0.0
 10
116.4614528788708
 20
-161.6256211618505
 30
0.0
 10
116.4466389682842
 20
-161.6573160403148
 30
0.0
 10
116.4294134908579
 20
-161.7165716826611
 30
0.0
  0
SPLINE
  5
D5
330
AB
100
AcDbEntity
  8
_U+30EC_U+30A4_U+30E4_U+30FC 1
370
     0
100
AcDbSpline
210
0.0
220
0.0
230
1.0
 70
    11
 71
     3
 72
    17
 73
    13
 74
     0
 42
0.0000000001
 43
0.0000000001
 12
1.0
 22
0.0
 32
0.0
 13
1.0
 23
0.0
 33
0.0
 40
0.0
 40
0.0
 40
0.0
 40
0.0
 40
1.0
 40
1.0
 40
1.0
 40
2.0
 40
2.0
 40
2.0
 40
3.0
 40
3.0
 40
3.0
 40
4.0
 40
4.0
 40
4.0
 40
4.0
 10
116.6388752963611
 20
-161.5177896731622
 30
0.0
 10
116.5120957825039
 20
-161.5177896731622
 30
0.0
 10
116.4104654656891
 20
-161.4161593563474
 30
0.0
 10
116.4104654656891
 20
-161.2893798424901
 30
0.0
 10
116.4104654656891
 20
-161.162600328633
 30
0.0
 10
116.5120957825039
 20
-161.058902954527
 30
0.0
 10
116.6388752963611
 20
-161.058902954527
 30
0.0
 10
116.7659993197668
 20
-161.058902954527
 30
0.0
 10
116.8696966938729
 20
-161.162600328633
 30
0.0
 10
116.8696966938729
 20
-161.2893798424901
 30
0.0
 10
116.8696966938729
 20
-161.4161593563474
 30
0.0
 10
116.7659993197668
 20
-161.5177896731622
 30
0.0
 10
116.6388752963611
 20
-161.5177896731622
 30
0.0
  0
SPLINE
  5
D6
330
AB
100
AcDbEntity
  8
_U+30EC_U+30A4_U+30E4_U+30FC 1
370
     0
100
AcDbSpline
210
0.0
220
0.0
230
1.0
 70
    11
 71
     3
 72
    17
 73
    13
 74
     0
 42
0.0000000001
 43
0.0000000001
 12
1.0
 22
0.0
 32
0.0
 13
1.0
 23
0.0
 33
0.0
 40
0.0
 40
0.0
 40
0.0
 40
0.0
 40
1.0
 40
1.0
 40
1.0
 40
2.0
 40
2.0
 40
2.0
 40
3.0
 40
3.0
 40
3.0
 40
4.0
 40
4.0
 40
4.0
 40
4.0
 10
116.63680823907
 20
-161.1877495256753
 30
0.0
 10
116.5820312208545
 20
-161.1877495256753
 30
0.0
 10
116.5375894890948
 20
-161.232191257435
 30
0.0
 10
116.5375894890948
 20
-161.287312785199
 30
0.0
 10
116.5375894890948
 20
-161.3445013702542
 30
0.0
 10
116.5820312208545
 20
-161.3930772165962
 30
0.0
 10
116.6409423536523
 20
-161.3930772165962
 30
0.0
 10
116.7001979959986
 20
-161.3930772165962
 30
0.0
 10
116.740505613176
 20
-161.3420898034145
 30
0.0
 10
116.740505613176
 20
-161.2893798424901
 30
0.0
 10
116.740505613176
 20
-161.232191257435
 30
0.0
 10
116.6939968241251
 20
-161.1877495256753
 30
0.0
 10
116.63680823907
 20
-161.1877495256753
 30
0.0
  0
HATCH
  5
D7
330
AB
100
AcDbEntity
  8
_U+30EC_U+30A4_U+30E4_U+30FC 1
 62
   179
420
  2234388
100
AcDbHatch
 10
0.0
 20
0.0
 30
0.0
210
0.0
220
0.0
230
1.0
  2
SOLID
 70
     1
 71
     0
 91
        3
 92
        1
 93
        1
 72
     4
 94
        3
 73
     0
 74
     1
 95
       44
 96
       40
 40
0.0
 40
0.0
 40
0.0
 40
0.0
 40
1.0
 40
1.0
 40
1.0
 40
2.0
 40
2.0
 40
2.0
 40
3.0
 40
3.0
 40
3.0
 40
4.0
 40
4.0
 40
4.0
 40
5.0
 40
5.0
 40
5.0
 40
6.0
 40
6.0
 40
6.0
 40
7.0
 40
7.0
 40
7.0
 40
8.0
 40
8.0
 40
8.0
 40
9.0
 40
9.0
 40
9.0
 40
10.0
 40
10.0
 40
10.0
 40
11.0
 40
11.0
 40
11.0
 40
12.0
 40
12.0
 40
12.0
 40
13.0
 40
13.0
 40
13.0
 40
13.0
 10
116.4294134908579
 20
-161.7165716826611
 10
116.3174478875873
 20
-162.0848523900343
 10
116.2668049839541
 20
-162.2433267823558
 10
116.0700900317464
 20
-162.4930962050365
 10
115.8857774232855
 20
-162.7235730929997
 10
115.6490993634488
 20
-162.9099527587517
 10
115.3697021195951
 20
-163.0029703368534
 10
115.3697021195951
 20
-163.0029703368534
 10
115.1771212819696
 20
-162.8231363525234
 10
115.1771212819696
 20
-162.8231363525234
 10
115.8182535517746
 20
-162.6708631320753
 10
116.1482936992615
 20
-162.1144802112075
 10
116.2116834561901
 20
-161.6745415177411
 10
116.2116834561901
 20
-161.6745415177411
 10
115.4458387298191
 20
-161.6745415177411
 10
115.4458387298191
 20
-161.6745415177411
 10
115.3528211517174
 20
-161.6745415177411
 10
115.168853052805
 20
-161.6786756323234
 10
115.0121012082261
 20
-161.6976236574923
 10
115.0121012082261
 20
-161.6976236574923
 10
115.0121012082261
 20
-161.4774820559848
 10
115.0121012082261
 20
-161.4774820559848
 10
115.0989176144544
 20
-161.4988416479933
 10
115.3507540944262
 20
-161.4988416479933
 10
115.4499728444014
 20
-161.4988416479933
 10
115.4499728444014
 20
-161.4988416479933
 10
115.8816433087032
 20
-161.4988416479933
 10
115.8816433087032
 20
-161.4988416479933
 10
115.9240179831718
 20
-161.4988416479933
 10
116.1586289857173
 20
-161.4967745907022
 10
116.1968695456036
 20
-161.4902289092802
 10
116.2392442200721
 20
-161.4840277374068
 10
116.2413112773633
 20
-161.4819606801156
 10
116.3026339770007
 20
-161.4416530629382
 10
116.3026339770007
 20
-161.4416530629382
 10
116.4910807000439
 20
-161.5959933406774
 10
116.4910807000439
 20
-161.5959933406774
 10
116.4614528788708
 20
-161.6256211618505
 10
116.4466389682842
 20
-161.6573160403148
 10
116.4294134908579
 20
-161.7165716826611
 97
        0
 97
        0
 92
        1
 93
        1
 72
     4
 94
        3
 73
     0
 74
     1
 95
       17
 96
       13
 40
0.0
 40
0.0
 40
0.0
 40
0.0
 40
1.0
 40
1.0
 40
1.0
 40
2.0
 40
2.0
 40
2.0
 40
3.0
 40
3.0
 40
3.0
 40
4.0
 40
4.0
 40
4.0
 40
4.0
 10
116.6388752963611
 20
-161.5177896731622
 10
116.5120957825039
 20
-161.5177896731622
 10
116.4104654656891
 20
-161.4161593563474
 10
116.4104654656891
 20
-161.2893798424901
 10
116.4104654656891
 20
-161.162600328633
 10
116.5120957825039
 20
-161.058902954527
 10
116.6388752963611
 20
-161.058902954527
 10
116.7659993197668
 20
-161.058902954527
 10
116.8696966938729
 20
-161.162600328633
 10
116.8696966938729
 20
-161.2893798424901
 10
116.8696966938729
 20
-161.4161593563474
 10
116.7659993197668
 20
-161.5177896731622
 10
116.6388752963611
 20
-161.5177896731622
 97
        0
 97
        0
 92
        1
 93
        1
 72
     4
 94
        3
 73
     0
 74
     1
 95
       17
 96
       13
 40
0.0
 40
0.0
 40
0.0
 40
0.0
 40
1.0
 40
1.0
 40
1.0
 40
2.0
 40
2.0
 40
2.0
 40
3.0
 40
3.0
 40
3.0
 40
4.0
 40
4.0
 40
4.0
 40
4.0
 10
116.63680823907
 20
-161.1877495256753
 10
116.5820312208545
 20
-161.1877495256753
 10
116.5375894890948
 20
-161.232191257435
 10
116.5375894890948
 20
-161.287312785199
 10
116.5375894890948
 20
-161.3445013702542
 10
116.5820312208545
 20
-161.3930772165962
 10
116.6409423536523
 20
-161.3930772165962
 10
116.7001979959986
 20
-161.3930772165962
 10
116.740505613176
 20
-161.3420898034145
 10
116.740505613176
 20
-161.2893798424901
 10
116.740505613176
 20
-161.232191257435
 10
116.6939968241251
 20
-161.1877495256753
 10
116.63680823907
 20
-161.1877495256753
 97
        0
 97
        0
 75
     2
 76
     1
 98
        0
  0
SPLINE
  5
D8
330
AB
100
AcDbEntity
  8
_U+30EC_U+30A4_U+30E4_U+30FC 1
370
     0
100
AcDbSpline
210
0.0
220
0.0
230
1.0
 70
    11
 71
     3
 72
    50
 73
    46
 74
     0
 42
0.0000000001
 43
0.0000000001
 12
1.0
 22
0.0
 32
0.0
 13
1.0
 23
0.0
 33
0.0
 40
0.0
 40
0.0
 40
0.0
 40
0.0
 40
1.0
 40
1.0
 40
1.0
 40
2.0
 40
2.0
 40
2.0
 40
3.0
 40
3.0
 40
3.0
 40
4.0
 40
4.0
 40
4.0
 40
5.0
 40
5.0
 40
5.0
 40
6.0
 40
6.0
 40
6.0
 40
7.0
 40
7.0
 40
7.0
 40
8.0
 40
8.0
 40
8.0
 40
9.0
 40
9.0
 40
9.0
 40
10.0
 40
10.0
 40
10.0
 40
11.0
 40
11.0
 40
11.0
 40
12.0
 40
12.0
 40
12.0
 40
13.0
 40
13.0
 40
13.0
 40
14.0
 40
14.0
 40
14.0
 40
15.0
 40
15.0
 40
15.0
 40
15.0
 10
118.4341145537248
 20
-162.025596747688
 30
0.0
 10
118.3555663766611
 20
-162.2033636747269
 30
0.0
 10
118.2201741240908
 20
-162.4104139133905
 30
0.0
 10
118.0827148142293
 20
-162.5502847900916
 30
0.0
 10
117.9135606259036
 20
-162.7215060357085
 30
0.0
 10
117.7506076094512
 20
-162.810389499228
 30
0.0
 10
117.4312472579686
 20
-162.9519829236717
 30
0.0
 10
117.4312472579686
 20
-162.9519829236717
 30
0.0
 10
117.2620930696428
 20
-162.7638807101771
 30
0.0
 10
117.2620930696428
 20
-162.7638807101771
 30
0.0
 10
117.4481282258463
 20
-162.7404540608774
 30
0.0
 10
117.6193494714632
 20
-162.6539821641976
 30
0.0
 10
117.7719672014598
 20
-162.5482177328005
 30
0.0
 10
118.0341389678873
 20
-162.3663166911793
 30
0.0
 10
118.2246527482216
 20
-162.05315751157
 30
0.0
 10
118.2732285945636
 20
-161.8712564699489
 30
0.0
 10
118.2732285945636
 20
-161.8712564699489
 30
0.0
 10
117.6024685035855
 20
-161.8712564699489
 30
0.0
 10
117.6024685035855
 20
-161.8712564699489
 30
0.0
 10
117.443994111264
 20
-161.8712564699489
 30
0.0
 10
117.1518500141148
 20
-161.8795246991135
 30
0.0
 10
116.9995767936668
 20
-161.8964056669912
 30
0.0
 10
116.9995767936668
 20
-161.8964056669912
 30
0.0
 10
116.9995767936668
 20
-161.6679958363191
 30
0.0
 10
116.9995767936668
 20
-161.6679958363191
 30
0.0
 10
117.0336832389708
 20
-161.6745415177411
 30
0.0
 10
117.0588324360131
 20
-161.6807426896145
 30
0.0
 10
117.1118869064859
 20
-161.6848768041968
 30
0.0
 10
117.2131727137523
 20
-161.6914224856188
 30
0.0
 10
117.4102321755086
 20
-161.69348954291
 30
0.0
 10
117.4946370148972
 20
-161.69348954291
 30
0.0
 10
117.4946370148972
 20
-161.69348954291
 30
0.0
 10
118.0003770321319
 20
-161.69348954291
 30
0.0
 10
118.0003770321319
 20
-161.69348954291
 30
0.0
 10
118.0679009036428
 20
-161.69348954291
 30
0.0
 10
118.2139729522173
 20
-161.6893554283277
 30
0.0
 10
118.2752956518548
 20
-161.6828097469057
 30
0.0
 10
118.3472981474965
 20
-161.6745415177411
 30
0.0
 10
118.3748589113785
 20
-161.6597276071545
 30
0.0
 10
118.408620847134
 20
-161.6363009578548
 30
0.0
 10
118.408620847134
 20
-161.6363009578548
 30
0.0
 10
118.5736409208774
 20
-161.8033880888894
 30
0.0
 10
118.5736409208774
 20
-161.8033880888894
 30
0.0
 10
118.5037054825269
 20
-161.8712564699489
 30
0.0
 10
118.457196693476
 20
-161.9749538440549
 30
0.0
 10
118.4341145537248
 20
-162.025596747688
 30
0.0
  0
SPLINE
  5
D9
330
AB
100
AcDbEntity
  8
_U+30EC_U+30A4_U+30E4_U+30FC 1
370
     0
100
AcDbSpline
210
0.0
220
0.0
230
1.0
 70
    11
 71
     3
 72
    29
 73
    25
 74
     0
 42
0.0000000001
 43
0.0000000001
 12
1.0
 22
0.0
 32
0.0
 13
1.0
 23
0.0
 33
0.0
 40
0.0
 40
0.0
 40
0.0
 40
0.0
 40
1.0
 40
1.0
 40
1.0
 40
2.0
 40
2.0
 40
2.0
 40
3.0
 40
3.0
 40
3.0
 40
4.0
 40
4.0
 40
4.0
 40
5.0
 40
5.0
 40
5.0
 40
6.0
 40
6.0
 40
6.0
 40
7.0
 40
7.0
 40
7.0
 40
8.0
 40
8.0
 40
8.0
 40
8.0
 10
117.9411213897856
 20
-161.3992783884696
 30
0.0
 10
117.9411213897856
 20
-161.3992783884696
 30
0.0
 10
117.6004014462944
 20
-161.3992783884696
 30
0.0
 10
117.6004014462944
 20
-161.3992783884696
 30
0.0
 10
117.4863687857326
 20
-161.3992783884696
 30
0.0
 10
117.3699245583311
 20
-161.4037570126005
 30
0.0
 10
117.2555473882208
 20
-161.418570923187
 30
0.0
 10
117.2555473882208
 20
-161.418570923187
 30
0.0
 10
117.2555473882208
 20
-161.2091091176839
 30
0.0
 10
117.2555473882208
 20
-161.2091091176839
 30
0.0
 10
117.3740586729134
 20
-161.2239230282704
 30
0.0
 10
117.54769148537
 20
-161.2280571428527
 30
0.0
 10
117.6004014462944
 20
-161.2280571428527
 30
0.0
 10
117.6004014462944
 20
-161.2280571428527
 30
0.0
 10
117.9411213897856
 20
-161.2280571428527
 30
0.0
 10
117.9411213897856
 20
-161.2280571428527
 30
0.0
 10
118.057565617187
 20
-161.2280571428527
 30
0.0
 10
118.1736653350399
 20
-161.2239230282704
 30
0.0
 10
118.2901095624414
 20
-161.2091091176839
 30
0.0
 10
118.2901095624414
 20
-161.2091091176839
 30
0.0
 10
118.2901095624414
 20
-161.418570923187
 30
0.0
 10
118.2901095624414
 20
-161.418570923187
 30
0.0
 10
118.1399033992845
 20
-161.3992783884696
 30
0.0
 10
117.9559353003721
 20
-161.3992783884696
 30
0.0
 10
117.9411213897856
 20
-161.3992783884696
 30
0.0
  0
HATCH
  5
DA
330
AB
100
AcDbEntity
  8
_U+30EC_U+30A4_U+30E4_U+30FC 1
 62
   179
420
  2234388
100
AcDbHatch
 10
0.0
 20
0.0
 30
0.0
210
0.0
220
0.0
230
1.0
  2
SOLID
 70
     1
 71
     0
 91
        2
 92
        1
 93
        1
 72
     4
 94
        3
 73
     0
 74
     1
 95
       50
 96
       46
 40
0.0
 40
0.0
 40
0.0
 40
0.0
 40
1.0
 40
1.0
 40
1.0
 40
2.0
 40
2.0
 40
2.0
 40
3.0
 40
3.0
 40
3.0
 40
4.0
 40
4.0
 40
4.0
 40
5.0
 40
5.0
 40
5.0
 40
6.0
 40
6.0
 40
6.0
 40
7.0
 40
7.0
 40
7.0
 40
8.0
 40
8.0
 40
8.0
 40
9.0
 40
9.0
 40
9.0
 40
10.0
 40
10.0
 40
10.0
 40
11.0
 40
11.0
 40
11.0
 40
12.0
 40
12.0
 40
12.0
 40
13.0
 40
13.0
 40
13.0
 40
14.0
 40
14.0
 40
14.0
 40
15.0
 40
15.0
 40
15.0
 40
15.0
 10
118.4341145537248
 20
-162.025596747688
 10
118.3555663766611
 20
-162.2033636747269
 10
118.2201741240908
 20
-162.4104139133905
 10
118.0827148142293
 20
-162.5502847900916
 10
117.9135606259036
 20
-162.7215060357085
 10
117.7506076094512
 20
-162.810389499228
 10
117.4312472579686
 20
-162.9519829236717
 10
117.4312472579686
 20
-162.9519829236717
 10
117.2620930696428
 20
-162.7638807101771
 10
117.2620930696428
 20
-162.7638807101771
 10
117.4481282258463
 20
-162.7404540608774
 10
117.6193494714632
 20
-162.6539821641976
 10
117.7719672014598
 20
-162.5482177328005
 10
118.0341389678873
 20
-162.3663166911793
 10
118.2246527482216
 20
-162.05315751157
 10
118.2732285945636
 20
-161.8712564699489
 10
118.2732285945636
 20
-161.8712564699489
 10
117.6024685035855
 20
-161.8712564699489
 10
117.6024685035855
 20
-161.8712564699489
 10
117.443994111264
 20
-161.8712564699489
 10
117.1518500141148
 20
-161.8795246991135
 10
116.9995767936668
 20
-161.8964056669912
 10
116.9995767936668
 20
-161.8964056669912
 10
116.9995767936668
 20
-161.6679958363191
 10
116.9995767936668
 20
-161.6679958363191
 10
117.0336832389708
 20
-161.6745415177411
 10
117.0588324360131
 20
-161.6807426896145
 10
117.1118869064859
 20
-161.6848768041968
 10
117.2131727137523
 20
-161.6914224856188
 10
117.4102321755086
 20
-161.69348954291
 10
117.4946370148972
 20
-161.69348954291
 10
117.4946370148972
 20
-161.69348954291
 10
118.0003770321319
 20
-161.69348954291
 10
118.0003770321319
 20
-161.69348954291
 10
118.0679009036428
 20
-161.69348954291
 10
118.2139729522173
 20
-161.6893554283277
 10
118.2752956518548
 20
-161.6828097469057
 10
118.3472981474965
 20
-161.6745415177411
 10
118.3748589113785
 20
-161.6597276071545
 10
118.408620847134
 20
-161.6363009578548
 10
118.408620847134
 20
-161.6363009578548
 10
118.5736409208774
 20
-161.8033880888894
 10
118.5736409208774
 20
-161.8033880888894
 10
118.5037054825269
 20
-161.8712564699489
 10
118.457196693476
 20
-161.9749538440549
 10
118.4341145537248
 20
-162.025596747688
 97
        0
 97
        0
 92
        1
 93
        1
 72
     4
 94
        3
 73
     0
 74
     1
 95
       29
 96
       25
 40
0.0
 40
0.0
 40
0.0
 40
0.0
 40
1.0
 40
1.0
 40
1.0
 40
2.0
 40
2.0
 40
2.0
 40
3.0
 40
3.0
 40
3.0
 40
4.0
 40
4.0
 40
4.0
 40
5.0
 40
5.0
 40
5.0
 40
6.0
 40
6.0
 40
6.0
 40
7.0
 40
7.0
 40
7.0
 40
8.0
 40
8.0
 40
8.0
 40
8.0
 10
117.9411213897856
 20
-161.3992783884696
 10
117.9411213897856
 20
-161.3992783884696
 10
117.6004014462944
 20
-161.3992783884696
 10
117.6004014462944
 20
-161.3992783884696
 10
117.4863687857326
 20
-161.3992783884696
 10
117.3699245583311
 20
-161.4037570126005
 10
117.2555473882208
 20
-161.418570923187
 10
117.2555473882208
 20
-161.418570923187
 10
117.2555473882208
 20
-161.2091091176839
 10
117.2555473882208
 20
-161.2091091176839
 10
117.3740586729134
 20
-161.2239230282704
 10
117.54769148537
 20
-161.2280571428527
 10
117.6004014462944
 20
-161.2280571428527
 10
117.6004014462944
 20
-161.2280571428527
 10
117.9411213897856
 20
-161.2280571428527
 10
117.9411213897856
 20
-161.2280571428527
 10
118.057565617187
 20
-161.2280571428527
 10
118.1736653350399
 20
-161.2239230282704
 10
118.2901095624414
 20
-161.2091091176839
 10
118.2901095624414
 20
-161.2091091176839
 10
118.2901095624414
 20
-161.418570923187
 10
118.2901095624414
 20
-161.418570923187
 10
118.1399033992845
 20
-161.3992783884696
 10
117.9559353003721
 20
-161.3992783884696
 10
117.9411213897856
 20
-161.3992783884696
 97
        0
 97
        0
 75
     2
 76
     1
 98
        0
  0
SPLINE
  5
DB
330
AB
100
AcDbEntity
  8
_U+30EC_U+30A4_U+30E4_U+30FC 1
370
     0
100
AcDbSpline
210
0.0
220
0.0
230
1.0
 70
    11
 71
     3
 72
    50
 73
    46
 74
     0
 42
0.0000000001
 43
0.0000000001
 12
1.0
 22
0.0
 32
0.0
 13
1.0
 23
0.0
 33
0.0
 40
0.0
 40
0.0
 40
0.0
 40
0.0
 40
1.0
 40
1.0
 40
1.0
 40
2.0
 40
2.0
 40
2.0
 40
3.0
 40
3.0
 40
3.0
 40
4.0
 40
4.0
 40
4.0
 40
5.0
 40
5.0
 40
5.0
 40
6.0
 40
6.0
 40
6.0
 40
7.0
 40
7.0
 40
7.0
 40
8.0
 40
8.0
 40
8.0
 40
9.0
 40
9.0
 40
9.0
 40
10.0
 40
10.0
 40
10.0
 40
11.0
 40
11.0
 40
11.0
 40
12.0
 40
12.0
 40
12.0
 40
13.0
 40
13.0
 40
13.0
 40
14.0
 40
14.0
 40
14.0
 40
15.0
 40
15.0
 40
15.0
 40
15.0
 10
120.1442599526028
 20
-161.3844644778831
 30
0.0
 10
119.9347981470996
 20
-161.5980603979685
 30
0.0
 10
119.8631401610064
 20
-161.6700628936103
 30
0.0
 10
119.7212022270141
 20
-161.7885741783029
 30
0.0
 10
119.7212022270141
 20
-161.7885741783029
 30
0.0
 10
119.7212022270141
 20
-162.355636895175
 30
0.0
 10
119.7212022270141
 20
-162.355636895175
 30
0.0
 10
119.7212022270141
 20
-162.5058430583319
 30
0.0
 10
119.7277479084361
 20
-162.5247910835008
 30
0.0
 10
119.7318820230184
 20
-162.7025580105396
 30
0.0
 10
119.7339490803096
 20
-162.8338161485277
 30
0.0
 10
119.740150252183
 20
-162.8823919948697
 30
0.0
 10
119.746695933605
 20
-162.941647637216
 30
0.0
 10
119.746695933605
 20
-162.941647637216
 30
0.0
 10
119.5203531602241
 20
-162.941647637216
 30
0.0
 10
119.5203531602241
 20
-162.941647637216
 30
0.0
 10
119.5244872748064
 20
-162.8972059054563
 30
0.0
 10
119.5286213893887
 20
-162.8506971164054
 30
0.0
 10
119.5286213893887
 20
-162.8420843776923
 30
0.0
 10
119.5286213893887
 20
-162.7618136528859
 30
0.0
 10
119.5331000135195
 20
-162.4104139133905
 30
0.0
 10
119.5331000135195
 20
-162.3387559272973
 30
0.0
 10
119.5331000135195
 20
-162.3387559272973
 30
0.0
 10
119.5331000135195
 20
-161.9325791695863
 30
0.0
 10
119.5331000135195
 20
-161.9325791695863
 30
0.0
 10
119.3511989718983
 20
-162.0572916261524
 30
0.0
 10
119.1565510769817
 20
-162.1671901721318
 30
0.0
 10
118.953290443352
 20
-162.2540065783601
 30
0.0
 10
118.953290443352
 20
-162.2540065783601
 30
0.0
 10
118.7503743192707
 20
-162.0910535619078
 30
0.0
 10
118.7503743192707
 20
-162.0910535619078
 30
0.0
 10
118.8730197185456
 20
-162.0552245688612
 30
0.0
 10
119.1289903130997
 20
-161.9811550159283
 30
0.0
 10
119.4738443711732
 20
-161.7251844213743
 30
0.0
 10
119.6895073485499
 20
-161.5663655195042
 30
0.0
 10
119.8820881861753
 20
-161.3782633060096
 30
0.0
 10
120.0343614066234
 20
-161.1581217045022
 30
0.0
 10
120.0343614066234
 20
-161.1581217045022
 30
0.0
 10
120.2269422442488
 20
-161.3021266957856
 30
0.0
 10
120.2269422442488
 20
-161.3021266957856
 30
0.0
 10
120.2396890975442
 20
-161.3124619822413
 30
0.0
 10
120.2479573267088
 20
-161.3272758928279
 30
0.0
 10
120.2479573267088
 20
-161.3400227461233
 30
0.0
 10
120.2479573267088
 20
-161.3803303633008
 30
0.0
 10
120.2100612763711
 20
-161.3803303633008
 30
0.0
 10
120.1442599526028
 20
-161.3844644778831
 30
0.0
  0
HATCH
  5
DC
330
AB
100
AcDbEntity
  8
_U+30EC_U+30A4_U+30E4_U+30FC 1
 62
   179
420
  2234388
100
AcDbHatch
 10
0.0
 20
0.0
 30
0.0
210
0.0
220
0.0
230
1.0
  2
SOLID
 70
     1
 71
     0
 91
        1
 92
        1
 93
        1
 72
     4
 94
        3
 73
     0
 74
     1
 95
       50
 96
       46
 40
0.0
 40
0.0
 40
0.0
 40
0.0
 40
1.0
 40
1.0
 40
1.0
 40
2.0
 40
2.0
 40
2.0
 40
3.0
 40
3.0
 40
3.0
 40
4.0
 40
4.0
 40
4.0
 40
5.0
 40
5.0
 40
5.0
 40
6.0
 40
6.0
 40
6.0
 40
7.0
 40
7.0
 40
7.0
 40
8.0
 40
8.0
 40
8.0
 40
9.0
 40
9.0
 40
9.0
 40
10.0
 40
10.0
 40
10.0
 40
11.0
 40
11.0
 40
11.0
 40
12.0
 40
12.0
 40
12.0
 40
13.0
 40
13.0
 40
13.0
 40
14.0
 40
14.0
 40
14.0
 40
15.0
 40
15.0
 40
15.0
 40
15.0
 10
120.1442599526028
 20
-161.3844644778831
 10
119.9347981470996
 20
-161.5980603979685
 10
119.8631401610064
 20
-161.6700628936103
 10
119.7212022270141
 20
-161.7885741783029
 10
119.7212022270141
 20
-161.7885741783029
 10
119.7212022270141
 20
-162.355636895175
 10
119.7212022270141
 20
-162.355636895175
 10
119.7212022270141
 20
-162.5058430583319
 10
119.7277479084361
 20
-162.5247910835008
 10
119.7318820230184
 20
-162.7025580105396
 10
119.7339490803096
 20
-162.8338161485277
 10
119.740150252183
 20
-162.8823919948697
 10
119.746695933605
 20
-162.941647637216
 10
119.746695933605
 20
-162.941647637216
 10
119.5203531602241
 20
-162.941647637216
 10
119.5203531602241
 20
-162.941647637216
 10
119.5244872748064
 20
-162.8972059054563
 10
119.5286213893887
 20
-162.8506971164054
 10
119.5286213893887
 20
-162.8420843776923
 10
119.5286213893887
 20
-162.7618136528859
 10
119.5331000135195
 20
-162.4104139133905
 10
119.5331000135195
 20
-162.3387559272973
 10
119.5331000135195
 20
-162.3387559272973
 10
119.5331000135195
 20
-161.9325791695863
 10
119.5331000135195
 20
-161.9325791695863
 10
119.3511989718983
 20
-162.0572916261524
 10
119.1565510769817
 20
-162.1671901721318
 10
118.953290443352
 20
-162.2540065783601
 10
118.953290443352
 20
-162.2540065783601
 10
118.7503743192707
 20
-162.0910535619078
 10
118.7503743192707
 20
-162.0910535619078
 10
118.8730197185456
 20
-162.0552245688612
 10
119.1289903130997
 20
-161.9811550159283
 10
119.4738443711732
 20
-161.7251844213743
 10
119.6895073485499
 20
-161.5663655195042
 10
119.8820881861753
 20
-161.3782633060096
 10
120.0343614066234
 20
-161.1581217045022
 10
120.0343614066234
 20
-161.1581217045022
 10
120.2269422442488
 20
-161.3021266957856
 10
120.2269422442488
 20
-161.3021266957856
 10
120.2396890975442
 20
-161.3124619822413
 10
120.2479573267088
 20
-161.3272758928279
 10
120.2479573267088
 20
-161.3400227461233
 10
120.2479573267088
 20
-161.3803303633008
 10
120.2100612763711
 20
-161.3803303633008
 10
120.1442599526028
 20
-161.3844644778831
 97
        0
 97
        0
 75
     2
 76
     1
 98
        0
  0
SPLINE
  5
DD
330
AB
100
AcDbEntity
  8
_U+30EC_U+30A4_U+30E4_U+30FC 1
370
     0
100
AcDbSpline
210
0.0
220
0.0
230
1.0
 70
    11
 71
     3
 72
    50
 73
    46
 74
     0
 42
0.0000000001
 43
0.0000000001
 12
1.0
 22
0.0
 32
0.0
 13
1.0
 23
0.0
 33
0.0
 40
0.0
 40
0.0
 40
0.0
 40
0.0
 40
1.0
 40
1.0
 40
1.0
 40
2.0
 40
2.0
 40
2.0
 40
3.0
 40
3.0
 40
3.0
 40
4.0
 40
4.0
 40
4.0
 40
5.0
 40
5.0
 40
5.0
 40
6.0
 40
6.0
 40
6.0
 40
7.0
 40
7.0
 40
7.0
 40
8.0
 40
8.0
 40
8.0
 40
9.0
 40
9.0
 40
9.0
 40
10.0
 40
10.0
 40
10.0
 40
11.0
 40
11.0
 40
11.0
 40
12.0
 40
12.0
 40
12.0
 40
13.0
 40
13.0
 40
13.0
 40
14.0
 40
14.0
 40
14.0
 40
15.0
 40
15.0
 40
15.0
 40
15.0
 10
121.8547498610294
 20
-161.9112195775778
 30
0.0
 10
121.7934271613919
 20
-161.9832220732195
 30
0.0
 10
121.532977942707
 20
-162.300515367411
 30
0.0
 10
121.4761338672004
 20
-162.3639051243396
 30
0.0
 10
121.560538706589
 20
-162.4614013265721
 30
0.0
 10
121.6115261197707
 20
-162.5247910835008
 30
0.0
 10
121.6769829339905
 20
-162.6157416043114
 30
0.0
 10
121.6769829339905
 20
-162.6157416043114
 30
0.0
 10
121.4930148350781
 20
-162.7532009141728
 30
0.0
 10
121.4930148350781
 20
-162.7532009141728
 30
0.0
 10
121.3576225825078
 20
-162.5416720513785
 30
0.0
 10
121.1860568273424
 20
-162.3173963352887
 30
0.0
 10
120.8921901824506
 20
-162.1186143257898
 30
0.0
 10
120.8921901824506
 20
-162.1186143257898
 30
0.0
 10
121.0403292883163
 20
-161.9642740480506
 30
0.0
 10
121.0403292883163
 20
-161.9642740480506
 30
0.0
 10
121.1502278342958
 20
-162.0445447728569
 30
0.0
 10
121.2539252084018
 20
-162.1334282363764
 30
0.0
 10
121.3510769010858
 20
-162.2285128717693
 30
0.0
 10
121.4189452821453
 20
-162.1523762615452
 30
0.0
 10
121.6218614062265
 20
-161.9091525202866
 30
0.0
 10
121.7551866015057
 20
-161.6807426896145
 30
0.0
 10
121.7551866015057
 20
-161.6807426896145
 30
0.0
 10
121.0823594532364
 20
-161.6807426896145
 30
0.0
 10
121.0823594532364
 20
-161.6807426896145
 30
0.0
 10
120.9576469966703
 20
-161.6807426896145
 30
0.0
 10
120.7058105166985
 20
-161.6893554283277
 30
0.0
 10
120.4963487111954
 20
-161.6996907147834
 30
0.0
 10
120.4963487111954
 20
-161.6996907147834
 30
0.0
 10
120.4963487111954
 20
-161.4798936228245
 30
0.0
 10
120.4963487111954
 20
-161.4798936228245
 30
0.0
 10
120.6806613196562
 20
-161.4988416479933
 30
0.0
 10
120.8856445010286
 20
-161.5029757625757
 30
0.0
 10
121.0740912240718
 20
-161.5029757625757
 30
0.0
 10
121.0740912240718
 20
-161.5029757625757
 30
0.0
 10
121.5774196744668
 20
-161.5029757625757
 30
0.0
 10
121.5774196744668
 20
-161.5029757625757
 30
0.0
 10
121.9160725606668
 20
-161.5029757625757
 30
0.0
 10
121.9605142924265
 20
-161.4881618519891
 30
0.0
 10
122.042852074524
 20
-161.4481987443602
 30
0.0
 10
122.042852074524
 20
-161.4481987443602
 30
0.0
 10
122.2099392055586
 20
-161.6066731366817
 30
0.0
 10
122.2099392055586
 20
-161.6066731366817
 30
0.0
 10
122.0576659851106
 20
-161.6786756323234
 30
0.0
 10
121.9140055033757
 20
-161.8416286487757
 30
0.0
 10
121.8547498610294
 20
-161.9112195775778
 30
0.0
  0
HATCH
  5
DE
330
AB
100
AcDbEntity
  8
_U+30EC_U+30A4_U+30E4_U+30FC 1
 62
   179
420
  2234388
100
AcDbHatch
 10
0.0
 20
0.0
 30
0.0
210
0.0
220
0.0
230
1.0
  2
SOLID
 70
     1
 71
     0
 91
        1
 92
        1
 93
        1
 72
     4
 94
        3
 73
     0
 74
     1
 95
       50
 96
       46
 40
0.0
 40
0.0
 40
0.0
 40
0.0
 40
1.0
 40
1.0
 40
1.0
 40
2.0
 40
2.0
 40
2.0
 40
3.0
 40
3.0
 40
3.0
 40
4.0
 40
4.0
 40
4.0
 40
5.0
 40
5.0
 40
5.0
 40
6.0
 40
6.0
 40
6.0
 40
7.0
 40
7.0
 40
7.0
 40
8.0
 40
8.0
 40
8.0
 40
9.0
 40
9.0
 40
9.0
 40
10.0
 40
10.0
 40
10.0
 40
11.0
 40
11.0
 40
11.0
 40
12.0
 40
12.0
 40
12.0
 40
13.0
 40
13.0
 40
13.0
 40
14.0
 40
14.0
 40
14.0
 40
15.0
 40
15.0
 40
15.0
 40
15.0
 10
121.8547498610294
 20
-161.9112195775778
 10
121.7934271613919
 20
-161.9832220732195
 10
121.532977942707
 20
-162.300515367411
 10
121.4761338672004
 20
-162.3639051243396
 10
121.560538706589
 20
-162.4614013265721
 10
121.6115261197707
 20
-162.5247910835008
 10
121.6769829339905
 20
-162.6157416043114
 10
121.6769829339905
 20
-162.6157416043114
 10
121.4930148350781
 20
-162.7532009141728
 10
121.4930148350781
 20
-162.7532009141728
 10
121.3576225825078
 20
-162.5416720513785
 10
121.1860568273424
 20
-162.3173963352887
 10
120.8921901824506
 20
-162.1186143257898
 10
120.8921901824506
 20
-162.1186143257898
 10
121.0403292883163
 20
-161.9642740480506
 10
121.0403292883163
 20
-161.9642740480506
 10
121.1502278342958
 20
-162.0445447728569
 10
121.2539252084018
 20
-162.1334282363764
 10
121.3510769010858
 20
-162.2285128717693
 10
121.4189452821453
 20
-162.1523762615452
 10
121.6218614062265
 20
-161.9091525202866
 10
121.7551866015057
 20
-161.6807426896145
 10
121.7551866015057
 20
-161.6807426896145
 10
121.0823594532364
 20
-161.6807426896145
 10
121.0823594532364
 20
-161.6807426896145
 10
120.9576469966703
 20
-161.6807426896145
 10
120.7058105166985
 20
-161.6893554283277
 10
120.4963487111954
 20
-161.6996907147834
 10
120.4963487111954
 20
-161.6996907147834
 10
120.4963487111954
 20
-161.4798936228245
 10
120.4963487111954
 20
-161.4798936228245
 10
120.6806613196562
 20
-161.4988416479933
 10
120.8856445010286
 20
-161.5029757625757
 10
121.0740912240718
 20
-161.5029757625757
 10
121.0740912240718
 20
-161.5029757625757
 10
121.5774196744668
 20
-161.5029757625757
 10
121.5774196744668
 20
-161.5029757625757
 10
121.9160725606668
 20
-161.5029757625757
 10
121.9605142924265
 20
-161.4881618519891
 10
122.042852074524
 20
-161.4481987443602
 10
122.042852074524
 20
-161.4481987443602
 10
122.2099392055586
 20
-161.6066731366817
 10
122.2099392055586
 20
-161.6066731366817
 10
122.0576659851106
 20
-161.6786756323234
 10
121.9140055033757
 20
-161.8416286487757
 10
121.8547498610294
 20
-161.9112195775778
 97
        0
 97
        0
 75
     2
 76
     1
 98
        0
  0
SPLINE
  5
DF
330
AB
100
AcDbEntity
  8
_U+30EC_U+30A4_U+30E4_U+30FC 1
370
     0
100
AcDbSpline
210
0.0
220
0.0
230
1.0
 70
    11
 71
     3
 72
    29
 73
    25
 74
     0
 42
0.0000000001
 43
0.0000000001
 12
1.0
 22
0.0
 32
0.0
 13
1.0
 23
0.0
 33
0.0
 40
0.0
 40
0.0
 40
0.0
 40
0.0
 40
1.0
 40
1.0
 40
1.0
 40
2.0
 40
2.0
 40
2.0
 40
3.0
 40
3.0
 40
3.0
 40
4.0
 40
4.0
 40
4.0
 40
5.0
 40
5.0
 40
5.0
 40
6.0
 40
6.0
 40
6.0
 40
7.0
 40
7.0
 40
7.0
 40
8.0
 40
8.0
 40
8.0
 40
8.0
 10
123.4784233632276
 20
-162.1544433188364
 30
0.0
 10
123.4784233632276
 20
-162.1544433188364
 30
0.0
 10
122.9940429380015
 20
-162.1544433188364
 30
0.0
 10
122.9940429380015
 20
-162.1544433188364
 30
0.0
 10
122.9664821741195
 20
-162.1544433188364
 30
0.0
 10
122.649188879928
 20
-162.1544433188364
 30
0.0
 10
122.4376600171337
 20
-162.1799370254273
 30
0.0
 10
122.4376600171337
 20
-162.1799370254273
 30
0.0
 10
122.4376600171337
 20
-161.949460137464
 30
0.0
 10
122.4376600171337
 20
-161.949460137464
 30
0.0
 10
122.5961344094551
 20
-161.9725422772152
 30
0.0
 10
122.7866481897895
 20
-161.9749538440549
 30
0.0
 10
122.9940429380015
 20
-161.9749538440549
 30
0.0
 10
122.9940429380015
 20
-161.9749538440549
 30
0.0
 10
123.4784233632276
 20
-161.9749538440549
 30
0.0
 10
123.4784233632276
 20
-161.9749538440549
 30
0.0
 10
123.6644585194311
 20
-161.9749538440549
 30
0.0
 10
123.8508381851831
 20
-161.9725422772152
 30
0.0
 10
124.0348062840955
 20
-161.949460137464
 30
0.0
 10
124.0348062840955
 20
-161.949460137464
 30
0.0
 10
124.0348062840955
 20
-162.1799370254273
 30
0.0
 10
124.0348062840955
 20
-162.1799370254273
 30
0.0
 10
123.8508381851831
 20
-162.1568548856761
 30
0.0
 10
123.6031358197937
 20
-162.1544433188364
 30
0.0
 10
123.4784233632276
 20
-162.1544433188364
 30
0.0
  0
HATCH
  5
E0
330
AB
100
AcDbEntity
  8
_U+30EC_U+30A4_U+30E4_U+30FC 1
 62
   179
420
  2234388
100
AcDbHatch
 10
0.0
 20
0.0
 30
0.0
210
0.0
220
0.0
230
1.0
  2
SOLID
 70
     1
 71
     0
 91
        1
 92
        1
 93
        1
 72
     4
 94
        3
 73
     0
 74
     1
 95
       29
 96
       25
 40
0.0
 40
0.0
 40
0.0
 40
0.0
 40
1.0
 40
1.0
 40
1.0
 40
2.0
 40
2.0
 40
2.0
 40
3.0
 40
3.0
 40
3.0
 40
4.0
 40
4.0
 40
4.0
 40
5.0
 40
5.0
 40
5.0
 40
6.0
 40
6.0
 40
6.0
 40
7.0
 40
7.0
 40
7.0
 40
8.0
 40
8.0
 40
8.0
 40
8.0
 10
123.4784233632276
 20
-162.1544433188364
 10
123.4784233632276
 20
-162.1544433188364
 10
122.9940429380015
 20
-162.1544433188364
 10
122.9940429380015
 20
-162.1544433188364
 10
122.9664821741195
 20
-162.1544433188364
 10
122.649188879928
 20
-162.1544433188364
 10
122.4376600171337
 20
-162.1799370254273
 10
122.4376600171337
 20
-162.1799370254273
 10
122.4376600171337
 20
-161.949460137464
 10
122.4376600171337
 20
-161.949460137464
 10
122.5961344094551
 20
-161.9725422772152
 10
122.7866481897895
 20
-161.9749538440549
 10
122.9940429380015
 20
-161.9749538440549
 10
122.9940429380015
 20
-161.9749538440549
 10
123.4784233632276
 20
-161.9749538440549
 10
123.4784233632276
 20
-161.9749538440549
 10
123.6644585194311
 20
-161.9749538440549
 10
123.8508381851831
 20
-161.9725422772152
 10
124.0348062840955
 20
-161.949460137464
 10
124.0348062840955
 20
-161.949460137464
 10
124.0348062840955
 20
-162.1799370254273
 10
124.0348062840955
 20
-162.1799370254273
 10
123.8508381851831
 20
-162.1568548856761
 10
123.6031358197937
 20
-162.1544433188364
 10
123.4784233632276
 20
-162.1544433188364
 97
        0
 97
        0
 75
     2
 76
     1
 98
        0
  0
ENDBLK
  5
AE
330
AB
100
AcDbEntity
  8
0
100
AcDbBlockEnd
  0
BLOCK
  5
F3
330
F1
100
AcDbEntity
  8
0
100
AcDbBlockBegin
  2
block 4
 70
     0
 10
0.0
 20
0.0
 30
0.0
  3
block 4
  1

  0
SPLINE
  5
F5
330
F1
100
AcDbEntity
  8
_U+30EC_U+30A4_U+30E4_U+30FC 1
370
     0
100
AcDbSpline
210
0.0
220
0.0
230
1.0
 70
    11
 71
     3
 72
    26
 73
    22
 74
     0
 42
0.0000000001
 43
0.0000000001
 12
1.0
 22
0.0
 32
0.0
 13
1.0
 23
0.0
 33
0.0
 40
0.0
 40
0.0
 40
0.0
 40
0.0
 40
1.0
 40
1.0
 40
1.0
 40
2.0
 40
2.0
 40
2.0
 40
3.0
 40
3.0
 40
3.0
 40
4.0
 40
4.0
 40
4.0
 40
5.0
 40
5.0
 40
5.0
 40
6.0
 40
6.0
 40
6.0
 40
7.0
 40
7.0
 40
7.0
 40
7.0
 10
127.5505262267929
 20
-149.3607367248126
 30
0.0
 10
127.5505262267929
 20
-149.3607367248126
 30
0.0
 10
126.4467176333189
 20
-149.3607367248126
 30
0.0
 10
126.4467176333189
 20
-149.3607367248126
 30
0.0
 10
126.4467176333189
 20
-149.3607367248126
 30
0.0
 10
126.4467176333189
 20
-149.6907768722995
 30
0.0
 10
126.4467176333189
 20
-149.6907768722995
 30
0.0
 10
126.4467176333189
 20
-149.6907768722995
 30
0.0
 10
126.2985785274531
 20
-149.6907768722995
 30
0.0
 10
126.2985785274531
 20
-149.6907768722995
 30
0.0
 10
126.283420107318
 20
-149.3586696675214
 30
0.0
 10
126.1208116004142
 20
-149.3121608784706
 30
0.0
 10
126.006434430304
 20
-149.2825330572974
 30
0.0
 10
126.006434430304
 20
-149.2825330572974
 30
0.0
 10
126.006434430304
 20
-149.1364610087228
 30
0.0
 10
126.006434430304
 20
-149.1364610087228
 30
0.0
 10
126.006434430304
 20
-149.1364610087228
 30
0.0
 10
127.5505262267929
 20
-149.1364610087228
 30
0.0
 10
127.5505262267929
 20
-149.1364610087228
 30
0.0
 10
127.5505262267929
 20
-149.1364610087228
 30
0.0
 10
127.5505262267929
 20
-149.3607367248126
 30
0.0
 10
127.5505262267929
 20
-149.3607367248126
 30
0.0
  0
HATCH
  5
F6
330
F1
100
AcDbEntity
  8
_U+30EC_U+30A4_U+30E4_U+30FC 1
 62
   179
420
  2234388
100
AcDbHatch
 10
0.0
 20
0.0
 30
0.0
210
0.0
220
0.0
230
1.0
  2
SOLID
 70
     1
 71
     0
 91
        1
 92
        1
 93
        1
 72
     4
 94
        3
 73
     0
 74
     1
 95
       26
 96
       22
 40
0.0
 40
0.0
 40
0.0
 40
0.0
 40
1.0
 40
1.0
 40
1.0
 40
2.0
 40
2.0
 40
2.0
 40
3.0
 40
3.0
 40
3.0
 40
4.0
 40
4.0
 40
4.0
 40
5.0
 40
5.0
 40
5.0
 40
6.0
 40
6.0
 40
6.0
 40
7.0
 40
7.0
 40
7.0
 40
7.0
 10
127.5505262267929
 20
-149.3607367248126
 10
127.5505262267929
 20
-149.3607367248126
 10
126.4467176333189
 20
-149.3607367248126
 10
126.4467176333189
 20
-149.3607367248126
 10
126.4467176333189
 20
-149.3607367248126
 10
126.4467176333189
 20
-149.6907768722995
 10
126.4467176333189
 20
-149.6907768722995
 10
126.4467176333189
 20
-149.6907768722995
 10
126.2985785274531
 20
-149.6907768722995
 10
126.2985785274531
 20
-149.6907768722995
 10
126.283420107318
 20
-149.3586696675214
 10
126.1208116004142
 20
-149.3121608784706
 10
126.006434430304
 20
-149.2825330572974
 10
126.006434430304
 20
-149.2825330572974
 10
126.006434430304
 20
-149.1364610087228
 10
126.006434430304
 20
-149.1364610087228
 10
126.006434430304
 20
-149.1364610087228
 10
127.5505262267929
 20
-149.1364610087228
 10
127.5505262267929
 20
-149.1364610087228
 10
127.5505262267929
 20
-149.1364610087228
 10
127.5505262267929
 20
-149.3607367248126
 10
127.5505262267929
 20
-149.3607367248126
 97
        0
 97
        0
 75
     2
 76
     1
 98
        0
  0
ENDBLK
  5
F4
330
F1
100
AcDbEntity
  8
0
100
AcDbBlockEnd
  0
BLOCK
  5
101
330
FF
100
AcDbEntity
  8
0
100
AcDbBlockBegin
  2
block 5
 70
     0
 10
0.0
 20
0.0
 30
0.0
  3
block 5
  1

  0
SPLINE
  5
103
330
FF
100
AcDbEntity
  8
_U+30EC_U+30A4_U+30E4_U+30FC 1
370
     0
100
AcDbSpline
210
0.0
220
0.0
230
1.0
 70
    11
 71
     3
 72
    26
 73
    22
 74
     0
 42
0.0000000001
 43
0.0000000001
 12
1.0
 22
0.0
 32
0.0
 13
1.0
 23
0.0
 33
0.0
 40
0.0
 40
0.0
 40
0.0
 40
0.0
 40
1.0
 40
1.0
 40
1.0
 40
2.0
 40
2.0
 40
2.0
 40
3.0
 40
3.0
 40
3.0
 40
4.0
 40
4.0
 40
4.0
 40
5.0
 40
5.0
 40
5.0
 40
6.0
 40
6.0
 40
6.0
 40
7.0
 40
7.0
 40
7.0
 40
7.0
 10
127.5505262267929
 20
-160.0618923210957
 30
0.0
 10
127.5505262267929
 20
-160.0618923210957
 30
0.0
 10
126.4463731237704
 20
-160.0618923210957
 30
0.0
 10
126.4463731237704
 20
-160.0618923210957
 30
0.0
 10
126.4463731237704
 20
-160.0618923210957
 30
0.0
 10
126.4463731237704
 20
-160.3919324685826
 30
0.0
 10
126.4463731237704
 20
-160.3919324685826
 30
0.0
 10
126.4463731237704
 20
-160.3919324685826
 30
0.0
 10
126.2982340179046
 20
-160.3919324685826
 30
0.0
 10
126.2982340179046
 20
-160.3919324685826
 30
0.0
 10
126.283420107318
 20
-160.0598252638045
 30
0.0
 10
126.1204670908657
 20
-160.0133164747536
 30
0.0
 10
126.0060899207554
 20
-159.9836886535805
 30
0.0
 10
126.0060899207554
 20
-159.9836886535805
 30
0.0
 10
126.0060899207554
 20
-159.8376166050059
 30
0.0
 10
126.0060899207554
 20
-159.8376166050059
 30
0.0
 10
126.0060899207554
 20
-159.8376166050059
 30
0.0
 10
127.5505262267929
 20
-159.8376166050059
 30
0.0
 10
127.5505262267929
 20
-159.8376166050059
 30
0.0
 10
127.5505262267929
 20
-159.8376166050059
 30
0.0
 10
127.5505262267929
 20
-160.0618923210957
 30
0.0
 10
127.5505262267929
 20
-160.0618923210957
 30
0.0
  0
HATCH
  5
104
330
FF
100
AcDbEntity
  8
_U+30EC_U+30A4_U+30E4_U+30FC 1
 62
   179
420
  2234388
100
AcDbHatch
 10
0.0
 20
0.0
 30
0.0
210
0.0
220
0.0
230
1.0
  2
SOLID
 70
     1
 71
     0
 91
        1
 92
        1
 93
        1
 72
     4
 94
        3
 73
     0
 74
     1
 95
       26
 96
       22
 40
0.0
 40
0.0
 40
0.0
 40
0.0
 40
1.0
 40
1.0
 40
1.0
 40
2.0
 40
2.0
 40
2.0
 40
3.0
 40
3.0
 40
3.0
 40
4.0
 40
4.0
 40
4.0
 40
5.0
 40
5.0
 40
5.0
 40
6.0
 40
6.0
 40
6.0
 40
7.0
 40
7.0
 40
7.0
 40
7.0
 10
127.5505262267929
 20
-160.0618923210957
 10
127.5505262267929
 20
-160.0618923210957
 10
126.4463731237704
 20
-160.0618923210957
 10
126.4463731237704
 20
-160.0618923210957
 10
126.4463731237704
 20
-160.0618923210957
 10
126.4463731237704
 20
-160.3919324685826
 10
126.4463731237704
 20
-160.3919324685826
 10
126.4463731237704
 20
-160.3919324685826
 10
126.2982340179046
 20
-160.3919324685826
 10
126.2982340179046
 20
-160.3919324685826
 10
126.283420107318
 20
-160.0598252638045
 10
126.1204670908657
 20
-160.0133164747536
 10
126.0060899207554
 20
-159.9836886535805
 10
126.0060899207554
 20
-159.9836886535805
 10
126.0060899207554
 20
-159.8376166050059
 10
126.0060899207554
 20
-159.8376166050059
 10
126.0060899207554
 20
-159.8376166050059
 10
127.5505262267929
 20
-159.8376166050059
 10
127.5505262267929
 20
-159.8376166050059
 10
127.5505262267929
 20
-159.8376166050059
 10
127.5505262267929
 20
-160.0618923210957
 10
127.5505262267929
 20
-160.0618923210957
 97
        0
 97
        0
 75
     2
 76
     1
 98
        0
  0
SPLINE
  5
105
330
FF
100
AcDbEntity
  8
_U+30EC_U+30A4_U+30E4_U+30FC 1
370
     0
100
AcDbSpline
210
0.0
220
0.0
230
1.0
 70
    11
 71
     3
 72
    44
 73
    40
 74
     0
 42
0.0000000001
 43
0.0000000001
 12
1.0
 22
0.0
 32
0.0
 13
1.0
 23
0.0
 33
0.0
 40
0.0
 40
0.0
 40
0.0
 40
0.0
 40
1.0
 40
1.0
 40
1.0
 40
2.0
 40
2.0
 40
2.0
 40
3.0
 40
3.0
 40
3.0
 40
4.0
 40
4.0
 40
4.0
 40
5.0
 40
5.0
 40
5.0
 40
6.0
 40
6.0
 40
6.0
 40
7.0
 40
7.0
 40
7.0
 40
8.0
 40
8.0
 40
8.0
 40
9.0
 40
9.0
 40
9.0
 40
10.0
 40
10.0
 40
10.0
 40
11.0
 40
11.0
 40
11.0
 40
12.0
 40
12.0
 40
12.0
 40
13.0
 40
13.0
 40
13.0
 40
13.0
 10
126.9686495993342
 20
-158.7434542788905
 30
0.0
 10
127.1274685012042
 20
-158.9611843135583
 30
0.0
 10
127.2015380541371
 20
-159.0542018916601
 30
0.0
 10
127.345198535872
 20
-159.1031222475506
 30
0.0
 10
127.345198535872
 20
-159.1031222475506
 30
0.0
 10
127.345198535872
 20
-158.3245306678841
 30
0.0
 10
127.345198535872
 20
-158.3245306678841
 30
0.0
 10
127.345198535872
 20
-158.3245306678841
 30
0.0
 10
127.5505262267929
 20
-158.3245306678841
 30
0.0
 10
127.5505262267929
 20
-158.3245306678841
 30
0.0
 10
127.5505262267929
 20
-158.3245306678841
 30
0.0
 10
127.5505262267929
 20
-159.3525471606827
 30
0.0
 10
127.5505262267929
 20
-159.3525471606827
 30
0.0
 10
127.192925315424
 20
-159.3208522822184
 30
0.0
 10
127.1147216479088
 20
-159.2553954679987
 30
0.0
 10
126.8163763788862
 20
-158.8702337927477
 30
0.0
 10
126.6175943693873
 20
-158.6142631981937
 30
0.0
 10
126.5497259883279
 20
-158.5488063839739
 30
0.0
 10
126.4122666784664
 20
-158.5488063839739
 30
0.0
 10
126.2937553937738
 20
-158.5488063839739
 30
0.0
 10
126.1628417653343
 20
-158.6208088796157
 30
0.0
 10
126.1628417653343
 20
-158.8175238318234
 30
0.0
 10
126.1628417653343
 20
-159.0776285409598
 30
0.0
 10
126.3933186532975
 20
-159.0862412796729
 30
0.0
 10
126.509762880699
 20
-159.0903753942552
 30
0.0
 10
126.509762880699
 20
-159.0903753942552
 30
0.0
 10
126.509762880699
 20
-159.314651110345
 30
0.0
 10
126.509762880699
 20
-159.314651110345
 30
0.0
 10
126.3826388572932
 20
-159.3060383716318
 30
0.0
 10
126.2706732540226
 20
-159.2953585756275
 30
0.0
 10
126.15216196933
 20
-159.2150878508212
 30
0.0
 10
125.9912760101689
 20
-159.1051893048418
 30
0.0
 10
125.9575140744134
 20
-158.9188096390897
 30
0.0
 10
125.9575140744134
 20
-158.8027099212368
 30
0.0
 10
125.9575140744134
 20
-158.5253797346742
 30
0.0
 10
126.1414821733257
 20
-158.3179849864622
 30
0.0
 10
126.4143337357575
 20
-158.3179849864622
 30
0.0
 10
126.6430880759781
 20
-158.3179849864622
 30
0.0
 10
126.7423068259533
 20
-158.4344292138636
 30
0.0
 10
126.9686495993342
 20
-158.7434542788905
 30
0.0
  0
HATCH
  5
106
330
FF
100
AcDbEntity
  8
_U+30EC_U+30A4_U+30E4_U+30FC 1
 62
   179
420
  2234388
100
AcDbHatch
 10
0.0
 20
0.0
 30
0.0
210
0.0
220
0.0
230
1.0
  2
SOLID
 70
     1
 71
     0
 91
        1
 92
        1
 93
        1
 72
     4
 94
        3
 73
     0
 74
     1
 95
       44
 96
       40
 40
0.0
 40
0.0
 40
0.0
 40
0.0
 40
1.0
 40
1.0
 40
1.0
 40
2.0
 40
2.0
 40
2.0
 40
3.0
 40
3.0
 40
3.0
 40
4.0
 40
4.0
 40
4.0
 40
5.0
 40
5.0
 40
5.0
 40
6.0
 40
6.0
 40
6.0
 40
7.0
 40
7.0
 40
7.0
 40
8.0
 40
8.0
 40
8.0
 40
9.0
 40
9.0
 40
9.0
 40
10.0
 40
10.0
 40
10.0
 40
11.0
 40
11.0
 40
11.0
 40
12.0
 40
12.0
 40
12.0
 40
13.0
 40
13.0
 40
13.0
 40
13.0
 10
126.9686495993342
 20
-158.7434542788905
 10
127.1274685012042
 20
-158.9611843135583
 10
127.2015380541371
 20
-159.0542018916601
 10
127.345198535872
 20
-159.1031222475506
 10
127.345198535872
 20
-159.1031222475506
 10
127.345198535872
 20
-158.3245306678841
 10
127.345198535872
 20
-158.3245306678841
 10
127.345198535872
 20
-158.3245306678841
 10
127.5505262267929
 20
-158.3245306678841
 10
127.5505262267929
 20
-158.3245306678841
 10
127.5505262267929
 20
-158.3245306678841
 10
127.5505262267929
 20
-159.3525471606827
 10
127.5505262267929
 20
-159.3525471606827
 10
127.192925315424
 20
-159.3208522822184
 10
127.1147216479088
 20
-159.2553954679987
 10
126.8163763788862
 20
-158.8702337927477
 10
126.6175943693873
 20
-158.6142631981937
 10
126.5497259883279
 20
-158.5488063839739
 10
126.4122666784664
 20
-158.5488063839739
 10
126.2937553937738
 20
-158.5488063839739
 10
126.1628417653343
 20
-158.6208088796157
 10
126.1628417653343
 20
-158.8175238318234
 10
126.1628417653343
 20
-159.0776285409598
 10
126.3933186532975
 20
-159.0862412796729
 10
126.509762880699
 20
-159.0903753942552
 10
126.509762880699
 20
-159.0903753942552
 10
126.509762880699
 20
-159.314651110345
 10
126.509762880699
 20
-159.314651110345
 10
126.3826388572932
 20
-159.3060383716318
 10
126.2706732540226
 20
-159.2953585756275
 10
126.15216196933
 20
-159.2150878508212
 10
125.9912760101689
 20
-159.1051893048418
 10
125.9575140744134
 20
-158.9188096390897
 10
125.9575140744134
 20
-158.8027099212368
 10
125.9575140744134
 20
-158.5253797346742
 10
126.1414821733257
 20
-158.3179849864622
 10
126.4143337357575
 20
-158.3179849864622
 10
126.6430880759781
 20
-158.3179849864622
 10
126.7423068259533
 20
-158.4344292138636
 10
126.9686495993342
 20
-158.7434542788905
 97
        0
 97
        0
 75
     2
 76
     1
 98
        0
  0
POLYLINE
  5
107
330
FF
100
AcDbEntity
  8
_U+30EC_U+30A4_U+30E4_U+30FC 1
370
     0
100
AcDb2dPolyline
 66
     1
 10
0.0
 20
0.0
 30
0.0
  0
VERTEX
  5
108
330
107
100
AcDbEntity
  8
_U+30EC_U+30A4_U+30E4_U+30FC 1
370
     0
100
AcDbVertex
100
AcDb2dVertex
 10
127.5505262267929
 20
-158.0995659326973
 30
0.0
  0
VERTEX
  5
109
330
107
100
AcDbEntity
  8
_U+30EC_U+30A4_U+30E4_U+30FC 1
370
     0
100
AcDbVertex
100
AcDb2dVertex
 10
127.2986897468212
 20
-158.0995659326973
 30
0.0
  0
VERTEX
  5
10A
330
107
100
AcDbEntity
  8
_U+30EC_U+30A4_U+30E4_U+30FC 1
370
     0
100
AcDbVertex
100
AcDb2dVertex
 10
127.2986897468212
 20
-157.8477294527256
 30
0.0
  0
VERTEX
  5
10B
330
107
100
AcDbEntity
  8
_U+30EC_U+30A4_U+30E4_U+30FC 1
370
     0
100
AcDbVertex
100
AcDb2dVertex
 10
127.5505262267929
 20
-157.8477294527256
 30
0.0
  0
VERTEX
  5
10C
330
107
100
AcDbEntity
  8
_U+30EC_U+30A4_U+30E4_U+30FC 1
370
     0
100
AcDbVertex
100
AcDb2dVertex
 10
127.5505262267929
 20
-158.0995659326973
 30
0.0
  0
SEQEND
  5
10D
330
107
100
AcDbEntity
  8
_U+30EC_U+30A4_U+30E4_U+30FC 1
370
     0
  0
HATCH
  5
10E
330
FF
100
AcDbEntity
  8
_U+30EC_U+30A4_U+30E4_U+30FC 1
 62
   179
420
  2234388
100
AcDbHatch
 10
0.0
 20
0.0
 30
0.0
210
0.0
220
0.0
230
1.0
  2
SOLID
 70
     1
 71
     0
 91
        1
 92
        1
 93
        4
 72
     1
 10
127.5505262267929
 20
-158.0995659326973
 11
127.2986897468212
 21
-158.0995659326973
 72
     1
 10
127.2986897468212
 20
-158.0995659326973
 11
127.2986897468212
 21
-157.8477294527256
 72
     1
 10
127.2986897468212
 20
-157.8477294527256
 11
127.5505262267929
 21
-157.8477294527256
 72
     1
 10
127.5505262267929
 20
-157.8477294527256
 11
127.5505262267929
 21
-158.0995659326973
 97
        0
 75
     2
 76
     1
 98
        0
  0
SPLINE
  5
10F
330
FF
100
AcDbEntity
  8
_U+30EC_U+30A4_U+30E4_U+30FC 1
370
     0
100
AcDbSpline
210
0.0
220
0.0
230
1.0
 70
    11
 71
     3
 72
    53
 73
    49
 74
     0
 42
0.0000000001
 43
0.0000000001
 12
1.0
 22
0.0
 32
0.0
 13
1.0
 23
0.0
 33
0.0
 40
0.0
 40
0.0
 40
0.0
 40
0.0
 40
1.0
 40
1.0
 40
1.0
 40
2.0
 40
2.0
 40
2.0
 40
3.0
 40
3.0
 40
3.0
 40
4.0
 40
4.0
 40
4.0
 40
5.0
 40
5.0
 40
5.0
 40
6.0
 40
6.0
 40
6.0
 40
7.0
 40
7.0
 40
7.0
 40
8.0
 40
8.0
 40
8.0
 40
9.0
 40
9.0
 40
9.0
 40
10.0
 40
10.0
 40
10.0
 40
11.0
 40
11.0
 40
11.0
 40
12.0
 40
12.0
 40
12.0
 40
13.0
 40
13.0
 40
13.0
 40
14.0
 40
14.0
 40
14.0
 40
15.0
 40
15.0
 40
15.0
 40
16.0
 40
16.0
 40
16.0
 40
16.0
 10
127.6011691304261
 20
-157.1304605726966
 30
0.0
 10
127.6011691304261
 20
-157.2086642402117
 30
0.0
 10
127.5842881625484
 20
-157.3102945570266
 30
0.0
 10
127.5208984056198
 20
-157.4119248738415
 30
0.0
 10
127.4109998596403
 20
-157.5852131767495
 30
0.0
 10
127.2797417216523
 20
-157.6065727687581
 30
0.0
 10
127.171910232964
 20
-157.625520793927
 30
0.0
 10
127.171910232964
 20
-157.625520793927
 30
0.0
 10
127.171910232964
 20
-157.4033121351283
 30
0.0
 10
127.171910232964
 20
-157.4033121351283
 30
0.0
 10
127.3706922424629
 20
-157.3485351169129
 30
0.0
 10
127.400320063636
 20
-157.2214110935072
 30
0.0
 10
127.400320063636
 20
-157.1283935154054
 30
0.0
 10
127.400320063636
 20
-156.9888671482528
 30
0.0
 10
127.3007568041123
 20
-156.8365939278048
 30
0.0
 10
127.0682128588579
 20
-156.8365939278048
 30
0.0
 10
126.8122422643039
 20
-156.8365939278048
 30
0.0
 10
126.7423068259533
 20
-157.0164279121348
 30
0.0
 10
126.7423068259533
 20
-157.1370062541185
 30
0.0
 10
126.7423068259533
 20
-157.1687011325828
 30
0.0
 10
126.7423068259533
 20
-157.3102945570266
 30
0.0
 10
126.8714979066502
 20
-157.3991780205461
 30
0.0
 10
126.8714979066502
 20
-157.3991780205461
 30
0.0
 10
126.8525498814813
 20
-157.5748778902938
 30
0.0
 10
126.8525498814813
 20
-157.5748778902938
 30
0.0
 10
126.8525498814813
 20
-157.5748778902938
 30
0.0
 10
126.0060899207554
 20
-157.45429954831
 30
0.0
 10
126.0060899207554
 20
-157.45429954831
 30
0.0
 10
126.0060899207554
 20
-157.45429954831
 30
0.0
 10
126.0060899207554
 20
-156.6757079686436
 30
0.0
 10
126.0060899207554
 20
-156.6757079686436
 30
0.0
 10
126.0060899207554
 20
-156.6757079686436
 30
0.0
 10
126.200737815672
 20
-156.6757079686436
 30
0.0
 10
126.200737815672
 20
-156.6757079686436
 30
0.0
 10
126.200737815672
 20
-156.6757079686436
 30
0.0
 10
126.200737815672
 20
-157.2913465318577
 30
0.0
 10
126.200737815672
 20
-157.2913465318577
 30
0.0
 10
126.200737815672
 20
-157.2913465318577
 30
0.0
 10
126.6237955412607
 20
-157.3568033460775
 30
0.0
 10
126.6237955412607
 20
-157.3568033460775
 30
0.0
 10
126.5900336055053
 20
-157.29548064644
 30
0.0
 10
126.5497259883279
 20
-157.2131428643426
 30
0.0
 10
126.5497259883279
 20
-157.09463157965
 30
0.0
 10
126.5497259883279
 20
-156.840728042387
 30
0.0
 10
126.7361056540799
 20
-156.6037054730019
 30
0.0
 10
127.0492648336891
 20
-156.6037054730019
 30
0.0
 10
127.3665581278806
 20
-156.6037054730019
 30
0.0
 10
127.6011691304261
 20
-156.8279811890916
 30
0.0
 10
127.6011691304261
 20
-157.1304605726966
 30
0.0
  0
HATCH
  5
110
330
FF
100
AcDbEntity
  8
_U+30EC_U+30A4_U+30E4_U+30FC 1
 62
   179
420
  2234388
100
AcDbHatch
 10
0.0
 20
0.0
 30
0.0
210
0.0
220
0.0
230
1.0
  2
SOLID
 70
     1
 71
     0
 91
        1
 92
        1
 93
        1
 72
     4
 94
        3
 73
     0
 74
     1
 95
       53
 96
       49
 40
0.0
 40
0.0
 40
0.0
 40
0.0
 40
1.0
 40
1.0
 40
1.0
 40
2.0
 40
2.0
 40
2.0
 40
3.0
 40
3.0
 40
3.0
 40
4.0
 40
4.0
 40
4.0
 40
5.0
 40
5.0
 40
5.0
 40
6.0
 40
6.0
 40
6.0
 40
7.0
 40
7.0
 40
7.0
 40
8.0
 40
8.0
 40
8.0
 40
9.0
 40
9.0
 40
9.0
 40
10.0
 40
10.0
 40
10.0
 40
11.0
 40
11.0
 40
11.0
 40
12.0
 40
12.0
 40
12.0
 40
13.0
 40
13.0
 40
13.0
 40
14.0
 40
14.0
 40
14.0
 40
15.0
 40
15.0
 40
15.0
 40
16.0
 40
16.0
 40
16.0
 40
16.0
 10
127.6011691304261
 20
-157.1304605726966
 10
127.6011691304261
 20
-157.2086642402117
 10
127.5842881625484
 20
-157.3102945570266
 10
127.5208984056198
 20
-157.4119248738415
 10
127.4109998596403
 20
-157.5852131767495
 10
127.2797417216523
 20
-157.6065727687581
 10
127.171910232964
 20
-157.625520793927
 10
127.171910232964
 20
-157.625520793927
 10
127.171910232964
 20
-157.4033121351283
 10
127.171910232964
 20
-157.4033121351283
 10
127.3706922424629
 20
-157.3485351169129
 10
127.400320063636
 20
-157.2214110935072
 10
127.400320063636
 20
-157.1283935154054
 10
127.400320063636
 20
-156.9888671482528
 10
127.3007568041123
 20
-156.8365939278048
 10
127.0682128588579
 20
-156.8365939278048
 10
126.8122422643039
 20
-156.8365939278048
 10
126.7423068259533
 20
-157.0164279121348
 10
126.7423068259533
 20
-157.1370062541185
 10
126.7423068259533
 20
-157.1687011325828
 10
126.7423068259533
 20
-157.3102945570266
 10
126.8714979066502
 20
-157.3991780205461
 10
126.8714979066502
 20
-157.3991780205461
 10
126.8525498814813
 20
-157.5748778902938
 10
126.8525498814813
 20
-157.5748778902938
 10
126.8525498814813
 20
-157.5748778902938
 10
126.0060899207554
 20
-157.45429954831
 10
126.0060899207554
 20
-157.45429954831
 10
126.0060899207554
 20
-157.45429954831
 10
126.0060899207554
 20
-156.6757079686436
 10
126.0060899207554
 20
-156.6757079686436
 10
126.0060899207554
 20
-156.6757079686436
 10
126.200737815672
 20
-156.6757079686436
 10
126.200737815672
 20
-156.6757079686436
 10
126.200737815672
 20
-156.6757079686436
 10
126.200737815672
 20
-157.2913465318577
 10
126.200737815672
 20
-157.2913465318577
 10
126.200737815672
 20
-157.2913465318577
 10
126.6237955412607
 20
-157.3568033460775
 10
126.6237955412607
 20
-157.3568033460775
 10
126.5900336055053
 20
-157.29548064644
 10
126.5497259883279
 20
-157.2131428643426
 10
126.5497259883279
 20
-157.09463157965
 10
126.5497259883279
 20
-156.840728042387
 10
126.7361056540799
 20
-156.6037054730019
 10
127.0492648336891
 20
-156.6037054730019
 10
127.3665581278806
 20
-156.6037054730019
 10
127.6011691304261
 20
-156.8279811890916
 10
127.6011691304261
 20
-157.1304605726966
 97
        0
 97
        0
 75
     2
 76
     1
 98
        0
  0
ENDBLK
  5
102
330
FF
100
AcDbEntity
  8
0
100
AcDbBlockEnd
  0
BLOCK
  5
11F
330
11D
100
AcDbEntity
  8
0
100
AcDbBlockBegin
  2
block 6
 70
     0
 10
0.0
 20
0.0
 30
0.0
  3
block 6
  1

  0
SPLINE
  5
121
330
11D
100
AcDbEntity
  8
_U+30EC_U+30A4_U+30E4_U+30FC 1
370
     0
100
AcDbSpline
210
0.0
220
0.0
230
1.0
 70
    11
 71
     3
 72
    44
 73
    40
 74
     0
 42
0.0000000001
 43
0.0000000001
 12
1.0
 22
0.0
 32
0.0
 13
1.0
 23
0.0
 33
0.0
 40
0.0
 40
0.0
 40
0.0
 40
0.0
 40
1.0
 40
1.0
 40
1.0
 40
2.0
 40
2.0
 40
2.0
 40
3.0
 40
3.0
 40
3.0
 40
4.0
 40
4.0
 40
4.0
 40
5.0
 40
5.0
 40
5.0
 40
6.0
 40
6.0
 40
6.0
 40
7.0
 40
7.0
 40
7.0
 40
8.0
 40
8.0
 40
8.0
 40
9.0
 40
9.0
 40
9.0
 40
10.0
 40
10.0
 40
10.0
 40
11.0
 40
11.0
 40
11.0
 40
12.0
 40
12.0
 40
12.0
 40
13.0
 40
13.0
 40
13.0
 40
13.0
 10
82.14881861010517
 20
-138.30680335084
 30
0.0
 10
82.30763751197517
 20
-138.524705640282
 30
0.0
 10
82.38170706490806
 20
-138.617895473158
 30
0.0
 10
82.52536754664297
 20
-138.6664713195001
 30
0.0
 10
82.52536754664297
 20
-138.6664713195001
 30
0.0
 10
82.52536754664297
 20
-137.8880519946078
 30
0.0
 10
82.52536754664297
 20
-137.8880519946078
 30
0.0
 10
82.52536754664297
 20
-137.8880519946078
 30
0.0
 10
82.73069523756386
 20
-137.8880519946078
 30
0.0
 10
82.73069523756386
 20
-137.8880519946078
 30
0.0
 10
82.73069523756386
 20
-137.8880519946078
 30
0.0
 10
82.73069523756386
 20
-138.9160684874064
 30
0.0
 10
82.73069523756386
 20
-138.9160684874064
 30
0.0
 10
82.37309432619493
 20
-138.8843736089421
 30
0.0
 10
82.29489065867975
 20
-138.8187445399481
 30
0.0
 10
81.99654538965711
 20
-138.4337551194714
 30
0.0
 10
81.7977633801582
 20
-138.1777845249174
 30
0.0
 10
81.72989499909878
 20
-138.1123277106976
 30
0.0
 10
81.5924356892373
 20
-138.1123277106976
 30
0.0
 10
81.47392440454472
 20
-138.1123277106976
 30
0.0
 10
81.34301077610522
 20
-138.1841579515651
 30
0.0
 10
81.34301077610522
 20
-138.3808729037729
 30
0.0
 10
81.34301077610522
 20
-138.6411498676835
 30
0.0
 10
81.57348766406844
 20
-138.6495903516223
 30
0.0
 10
81.68993189146988
 20
-138.6538967209789
 30
0.0
 10
81.68993189146988
 20
-138.6538967209789
 30
0.0
 10
81.68993189146988
 20
-138.8780001822944
 30
0.0
 10
81.68993189146988
 20
-138.8780001822944
 30
0.0
 10
81.56280786806417
 20
-138.8695596983555
 30
0.0
 10
81.45084226479354
 20
-138.8590521571255
 30
0.0
 10
81.33233098010095
 20
-138.778609177545
 30
0.0
 10
81.17144502093979
 20
-138.6687106315655
 30
0.0
 10
81.13768308518434
 20
-138.4825032205877
 30
0.0
 10
81.13768308518434
 20
-138.3660589931863
 30
0.0
 10
81.13768308518434
 20
-138.0889010613979
 30
0.0
 10
81.32165118409668
 20
-137.8816785679601
 30
0.0
 10
81.59450274652846
 20
-137.8816785679601
 30
0.0
 10
81.82325708674905
 20
-137.8816785679601
 30
0.0
 10
81.92247583672425
 20
-137.9979505405873
 30
0.0
 10
82.14881861010517
 20
-138.30680335084
 30
0.0
  0
HATCH
  5
122
330
11D
100
AcDbEntity
  8
_U+30EC_U+30A4_U+30E4_U+30FC 1
 62
   179
420
  2234388
100
AcDbHatch
 10
0.0
 20
0.0
 30
0.0
210
0.0
220
0.0
230
1.0
  2
SOLID
 70
     1
 71
     0
 91
        1
 92
        1
 93
        1
 72
     4
 94
        3
 73
     0
 74
     1
 95
       44
 96
       40
 40
0.0
 40
0.0
 40
0.0
 40
0.0
 40
1.0
 40
1.0
 40
1.0
 40
2.0
 40
2.0
 40
2.0
 40
3.0
 40
3.0
 40
3.0
 40
4.0
 40
4.0
 40
4.0
 40
5.0
 40
5.0
 40
5.0
 40
6.0
 40
6.0
 40
6.0
 40
7.0
 40
7.0
 40
7.0
 40
8.0
 40
8.0
 40
8.0
 40
9.0
 40
9.0
 40
9.0
 40
10.0
 40
10.0
 40
10.0
 40
11.0
 40
11.0
 40
11.0
 40
12.0
 40
12.0
 40
12.0
 40
13.0
 40
13.0
 40
13.0
 40
13.0
 10
82.14881861010517
 20
-138.30680335084
 10
82.30763751197517
 20
-138.524705640282
 10
82.38170706490806
 20
-138.617895473158
 10
82.52536754664297
 20
-138.6664713195001
 10
82.52536754664297
 20
-138.6664713195001
 10
82.52536754664297
 20
-137.8880519946078
 10
82.52536754664297
 20
-137.8880519946078
 10
82.52536754664297
 20
-137.8880519946078
 10
82.73069523756386
 20
-137.8880519946078
 10
82.73069523756386
 20
-137.8880519946078
 10
82.73069523756386
 20
-137.8880519946078
 10
82.73069523756386
 20
-138.9160684874064
 10
82.73069523756386
 20
-138.9160684874064
 10
82.37309432619493
 20
-138.8843736089421
 10
82.29489065867975
 20
-138.8187445399481
 10
81.99654538965711
 20
-138.4337551194714
 10
81.7977633801582
 20
-138.1777845249174
 10
81.72989499909878
 20
-138.1123277106976
 10
81.5924356892373
 20
-138.1123277106976
 10
81.47392440454472
 20
-138.1123277106976
 10
81.34301077610522
 20
-138.1841579515651
 10
81.34301077610522
 20
-138.3808729037729
 10
81.34301077610522
 20
-138.6411498676835
 10
81.57348766406844
 20
-138.6495903516223
 10
81.68993189146988
 20
-138.6538967209789
 10
81.68993189146988
 20
-138.6538967209789
 10
81.68993189146988
 20
-138.8780001822944
 10
81.68993189146988
 20
-138.8780001822944
 10
81.56280786806417
 20
-138.8695596983555
 10
81.45084226479354
 20
-138.8590521571255
 10
81.33233098010095
 20
-138.778609177545
 10
81.17144502093979
 20
-138.6687106315655
 10
81.13768308518434
 20
-138.4825032205877
 10
81.13768308518434
 20
-138.3660589931863
 10
81.13768308518434
 20
-138.0889010613979
 10
81.32165118409668
 20
-137.8816785679601
 10
81.59450274652846
 20
-137.8816785679601
 10
81.82325708674905
 20
-137.8816785679601
 10
81.92247583672425
 20
-137.9979505405873
 10
82.14881861010517
 20
-138.30680335084
 97
        0
 97
        0
 75
     2
 76
     1
 98
        0
  0
SPLINE
  5
123
330
11D
100
AcDbEntity
  8
_U+30EC_U+30A4_U+30E4_U+30FC 1
370
     0
100
AcDbSpline
210
0.0
220
0.0
230
1.0
 70
    11
 71
     3
 72
    29
 73
    25
 74
     0
 42
0.0000000001
 43
0.0000000001
 12
1.0
 22
0.0
 32
0.0
 13
1.0
 23
0.0
 33
0.0
 40
0.0
 40
0.0
 40
0.0
 40
0.0
 40
1.0
 40
1.0
 40
1.0
 40
2.0
 40
2.0
 40
2.0
 40
3.0
 40
3.0
 40
3.0
 40
4.0
 40
4.0
 40
4.0
 40
5.0
 40
5.0
 40
5.0
 40
6.0
 40
6.0
 40
6.0
 40
7.0
 40
7.0
 40
7.0
 40
8.0
 40
8.0
 40
8.0
 40
8.0
 10
82.55292831052496
 20
-136.8254122921825
 30
0.0
 10
82.76239011602816
 20
-136.9332437808709
 30
0.0
 10
82.78133814119703
 20
-137.1067043385532
 30
0.0
 10
82.78133814119703
 20
-137.2231485659546
 30
0.0
 10
82.78133814119703
 20
-137.3838622703416
 30
0.0
 10
82.73482935214616
 20
-137.5256279495596
 30
0.0
 10
82.55292831052496
 20
-137.6208848397267
 30
0.0
 10
82.35828041560835
 20
-137.7244099590585
 30
0.0
 10
82.12160235577169
 20
-137.7435302390016
 30
0.0
 10
81.95864933931936
 20
-137.7435302390016
 30
0.0
 10
81.81464434803593
 20
-137.7435302390016
 30
0.0
 10
81.56280786806417
 20
-137.7266492711239
 30
0.0
 10
81.36402585856524
 20
-137.6208848397267
 30
0.0
 10
81.16110973448403
 20
-137.5128810962642
 30
0.0
 10
81.13768308518434
 20
-137.3521673918772
 30
0.0
 10
81.13768308518434
 20
-137.2231485659546
 30
0.0
 10
81.13768308518434
 20
-137.0645019188589
 30
0.0
 10
81.18212481694405
 20
-136.9206691823497
 30
0.0
 10
81.36402585856524
 20
-136.8254122921825
 30
0.0
 10
81.55660669619071
 20
-136.7260212874331
 30
0.0
 10
81.78501652686278
 20
-136.7027668929076
 30
0.0
 10
81.95864933931936
 20
-136.7027668929076
 30
0.0
 10
82.12987058493628
 20
-136.7027668929076
 30
0.0
 10
82.3603474728995
 20
-136.7237819753677
 30
0.0
 10
82.55292831052496
 20
-136.8254122921825
 30
0.0
  0
SPLINE
  5
124
330
11D
100
AcDbEntity
  8
_U+30EC_U+30A4_U+30E4_U+30FC 1
370
     0
100
AcDbSpline
210
0.0
220
0.0
230
1.0
 70
    11
 71
     3
 72
    17
 73
    13
 74
     0
 42
0.0000000001
 43
0.0000000001
 12
1.0
 22
0.0
 32
0.0
 13
1.0
 23
0.0
 33
0.0
 40
0.0
 40
0.0
 40
0.0
 40
0.0
 40
1.0
 40
1.0
 40
1.0
 40
2.0
 40
2.0
 40
2.0
 40
3.0
 40
3.0
 40
3.0
 40
4.0
 40
4.0
 40
4.0
 40
4.0
 10
81.3302639228098
 20
-137.2231485659546
 30
0.0
 10
81.3302639228098
 20
-137.472745733861
 30
0.0
 10
81.61379528124586
 20
-137.5192545229119
 30
0.0
 10
81.95864933931936
 20
-137.5192545229119
 30
0.0
 10
82.27800969080202
 20
-137.5192545229119
 30
0.0
 10
82.58669024628041
 20
-137.483253275091
 30
0.0
 10
82.58669024628041
 20
-137.2231485659546
 30
0.0
 10
82.58669024628041
 20
-136.9756184553394
 30
0.0
 10
82.30557045468403
 20
-136.9268703542232
 30
0.0
 10
81.95864933931936
 20
-136.9268703542232
 30
0.0
 10
81.63894447828818
 20
-136.9268703542232
 30
0.0
 10
81.3302639228098
 20
-136.9649386593352
 30
0.0
 10
81.3302639228098
 20
-137.2231485659546
 30
0.0
  0
HATCH
  5
125
330
11D
100
AcDbEntity
  8
_U+30EC_U+30A4_U+30E4_U+30FC 1
 62
   179
420
  2234388
100
AcDbHatch
 10
0.0
 20
0.0
 30
0.0
210
0.0
220
0.0
230
1.0
  2
SOLID
 70
     1
 71
     0
 91
        2
 92
        1
 93
        1
 72
     4
 94
        3
 73
     0
 74
     1
 95
       29
 96
       25
 40
0.0
 40
0.0
 40
0.0
 40
0.0
 40
1.0
 40
1.0
 40
1.0
 40
2.0
 40
2.0
 40
2.0
 40
3.0
 40
3.0
 40
3.0
 40
4.0
 40
4.0
 40
4.0
 40
5.0
 40
5.0
 40
5.0
 40
6.0
 40
6.0
 40
6.0
 40
7.0
 40
7.0
 40
7.0
 40
8.0
 40
8.0
 40
8.0
 40
8.0
 10
82.55292831052496
 20
-136.8254122921825
 10
82.76239011602816
 20
-136.9332437808709
 10
82.78133814119703
 20
-137.1067043385532
 10
82.78133814119703
 20
-137.2231485659546
 10
82.78133814119703
 20
-137.3838622703416
 10
82.73482935214616
 20
-137.5256279495596
 10
82.55292831052496
 20
-137.6208848397267
 10
82.35828041560835
 20
-137.7244099590585
 10
82.12160235577169
 20
-137.7435302390016
 10
81.95864933931936
 20
-137.7435302390016
 10
81.81464434803593
 20
-137.7435302390016
 10
81.56280786806417
 20
-137.7266492711239
 10
81.36402585856524
 20
-137.6208848397267
 10
81.16110973448403
 20
-137.5128810962642
 10
81.13768308518434
 20
-137.3521673918772
 10
81.13768308518434
 20
-137.2231485659546
 10
81.13768308518434
 20
-137.0645019188589
 10
81.18212481694405
 20
-136.9206691823497
 10
81.36402585856524
 20
-136.8254122921825
 10
81.55660669619071
 20
-136.7260212874331
 10
81.78501652686278
 20
-136.7027668929076
 10
81.95864933931936
 20
-136.7027668929076
 10
82.12987058493628
 20
-136.7027668929076
 10
82.3603474728995
 20
-136.7237819753677
 10
82.55292831052496
 20
-136.8254122921825
 97
        0
 97
        0
 92
        1
 93
        1
 72
     4
 94
        3
 73
     0
 74
     1
 95
       17
 96
       13
 40
0.0
 40
0.0
 40
0.0
 40
0.0
 40
1.0
 40
1.0
 40
1.0
 40
2.0
 40
2.0
 40
2.0
 40
3.0
 40
3.0
 40
3.0
 40
4.0
 40
4.0
 40
4.0
 40
4.0
 10
81.3302639228098
 20
-137.2231485659546
 10
81.3302639228098
 20
-137.472745733861
 10
81.61379528124586
 20
-137.5192545229119
 10
81.95864933931936
 20
-137.5192545229119
 10
82.27800969080202
 20
-137.5192545229119
 10
82.58669024628041
 20
-137.483253275091
 10
82.58669024628041
 20
-137.2231485659546
 10
82.58669024628041
 20
-136.9756184553394
 10
82.30557045468403
 20
-136.9268703542232
 10
81.95864933931936
 20
-136.9268703542232
 10
81.63894447828818
 20
-136.9268703542232
 10
81.3302639228098
 20
-136.9649386593352
 10
81.3302639228098
 20
-137.2231485659546
 97
        0
 97
        0
 75
     2
 76
     1
 98
        0
  0
ENDBLK
  5
120
330
11D
100
AcDbEntity
  8
0
100
AcDbBlockEnd
  0
BLOCK
  5
130
330
12E
100
AcDbEntity
  8
0
100
AcDbBlockBegin
  2
block 7
 70
     0
 10
0.0
 20
0.0
 30
0.0
  3
block 7
  1

  0
SPLINE
  5
132
330
12E
100
AcDbEntity
  8
_U+30EC_U+30A4_U+30E4_U+30FC 1
370
     0
100
AcDbSpline
210
0.0
220
0.0
230
1.0
 70
    11
 71
     3
 72
    44
 73
    40
 74
     0
 42
0.0000000001
 43
0.0000000001
 12
1.0
 22
0.0
 32
0.0
 13
1.0
 23
0.0
 33
0.0
 40
0.0
 40
0.0
 40
0.0
 40
0.0
 40
1.0
 40
1.0
 40
1.0
 40
2.0
 40
2.0
 40
2.0
 40
3.0
 40
3.0
 40
3.0
 40
4.0
 40
4.0
 40
4.0
 40
5.0
 40
5.0
 40
5.0
 40
6.0
 40
6.0
 40
6.0
 40
7.0
 40
7.0
 40
7.0
 40
8.0
 40
8.0
 40
8.0
 40
9.0
 40
9.0
 40
9.0
 40
10.0
 40
10.0
 40
10.0
 40
11.0
 40
11.0
 40
11.0
 40
12.0
 40
12.0
 40
12.0
 40
13.0
 40
13.0
 40
13.0
 40
13.0
 10
113.7387939168778
 20
-167.8567653660219
 30
0.0
 10
113.52106388221
 20
-168.0155842678919
 30
0.0
 10
113.4280463041083
 20
-168.0896538208248
 30
0.0
 10
113.3791259482177
 20
-168.2333143025597
 30
0.0
 10
113.3791259482177
 20
-168.2333143025597
 30
0.0
 10
114.1577175278842
 20
-168.2333143025597
 30
0.0
 10
114.1577175278842
 20
-168.2333143025597
 30
0.0
 10
114.1577175278842
 20
-168.2333143025597
 30
0.0
 10
114.1577175278842
 20
-168.4386419934806
 30
0.0
 10
114.1577175278842
 20
-168.4386419934806
 30
0.0
 10
114.1577175278842
 20
-168.4386419934806
 30
0.0
 10
113.1297010350856
 20
-168.4386419934806
 30
0.0
 10
113.1297010350856
 20
-168.4386419934806
 30
0.0
 10
113.1613959135499
 20
-168.0810410821117
 30
0.0
 10
113.2268527277697
 20
-168.0028374145965
 30
0.0
 10
113.6120144030206
 20
-167.7044921455739
 30
0.0
 10
113.8679849975747
 20
-167.505710136075
 30
0.0
 10
113.9334418117944
 20
-167.4378417550155
 30
0.0
 10
113.9334418117944
 20
-167.3003824451541
 30
0.0
 10
113.9334418117944
 20
-167.1818711604615
 30
0.0
 10
113.8614393161527
 20
-167.050957532022
 30
0.0
 10
113.6647243639449
 20
-167.050957532022
 30
0.0
 10
113.4046196548086
 20
-167.050957532022
 30
0.0
 10
113.3960069160954
 20
-167.2814344199852
 30
0.0
 10
113.3918728015131
 20
-167.3978786473866
 30
0.0
 10
113.3918728015131
 20
-167.3978786473866
 30
0.0
 10
113.1675970854234
 20
-167.3978786473866
 30
0.0
 10
113.1675970854234
 20
-167.3978786473866
 30
0.0
 10
113.1762098241365
 20
-167.2707546239809
 30
0.0
 10
113.1868896201408
 20
-167.1587890207103
 30
0.0
 10
113.2671603449471
 20
-167.0402777360177
 30
0.0
 10
113.3770588909266
 20
-166.8793917768566
 30
0.0
 10
113.5634385566786
 20
-166.8456298411011
 30
0.0
 10
113.6795382745315
 20
-166.8456298411011
 30
0.0
 10
113.9568684610941
 20
-166.8456298411011
 30
0.0
 10
114.1642632093062
 20
-167.0295979400134
 30
0.0
 10
114.1642632093062
 20
-167.3024495024452
 30
0.0
 10
114.1642632093062
 20
-167.5312038426658
 30
0.0
 10
114.0478189819047
 20
-167.630422592641
 30
0.0
 10
113.7387939168778
 20
-167.8567653660219
 30
0.0
  0
HATCH
  5
133
330
12E
100
AcDbEntity
  8
_U+30EC_U+30A4_U+30E4_U+30FC 1
 62
   179
420
  2234388
100
AcDbHatch
 10
0.0
 20
0.0
 30
0.0
210
0.0
220
0.0
230
1.0
  2
SOLID
 70
     1
 71
     0
 91
        1
 92
        1
 93
        1
 72
     4
 94
        3
 73
     0
 74
     1
 95
       44
 96
       40
 40
0.0
 40
0.0
 40
0.0
 40
0.0
 40
1.0
 40
1.0
 40
1.0
 40
2.0
 40
2.0
 40
2.0
 40
3.0
 40
3.0
 40
3.0
 40
4.0
 40
4.0
 40
4.0
 40
5.0
 40
5.0
 40
5.0
 40
6.0
 40
6.0
 40
6.0
 40
7.0
 40
7.0
 40
7.0
 40
8.0
 40
8.0
 40
8.0
 40
9.0
 40
9.0
 40
9.0
 40
10.0
 40
10.0
 40
10.0
 40
11.0
 40
11.0
 40
11.0
 40
12.0
 40
12.0
 40
12.0
 40
13.0
 40
13.0
 40
13.0
 40
13.0
 10
113.7387939168778
 20
-167.8567653660219
 10
113.52106388221
 20
-168.0155842678919
 10
113.4280463041083
 20
-168.0896538208248
 10
113.3791259482177
 20
-168.2333143025597
 10
113.3791259482177
 20
-168.2333143025597
 10
114.1577175278842
 20
-168.2333143025597
 10
114.1577175278842
 20
-168.2333143025597
 10
114.1577175278842
 20
-168.2333143025597
 10
114.1577175278842
 20
-168.4386419934806
 10
114.1577175278842
 20
-168.4386419934806
 10
114.1577175278842
 20
-168.4386419934806
 10
113.1297010350856
 20
-168.4386419934806
 10
113.1297010350856
 20
-168.4386419934806
 10
113.1613959135499
 20
-168.0810410821117
 10
113.2268527277697
 20
-168.0028374145965
 10
113.6120144030206
 20
-167.7044921455739
 10
113.8679849975747
 20
-167.505710136075
 10
113.9334418117944
 20
-167.4378417550155
 10
113.9334418117944
 20
-167.3003824451541
 10
113.9334418117944
 20
-167.1818711604615
 10
113.8614393161527
 20
-167.050957532022
 10
113.6647243639449
 20
-167.050957532022
 10
113.4046196548086
 20
-167.050957532022
 10
113.3960069160954
 20
-167.2814344199852
 10
113.3918728015131
 20
-167.3978786473866
 10
113.3918728015131
 20
-167.3978786473866
 10
113.1675970854234
 20
-167.3978786473866
 10
113.1675970854234
 20
-167.3978786473866
 10
113.1762098241365
 20
-167.2707546239809
 10
113.1868896201408
 20
-167.1587890207103
 10
113.2671603449471
 20
-167.0402777360177
 10
113.3770588909266
 20
-166.8793917768566
 10
113.5634385566786
 20
-166.8456298411011
 10
113.6795382745315
 20
-166.8456298411011
 10
113.9568684610941
 20
-166.8456298411011
 10
114.1642632093062
 20
-167.0295979400134
 10
114.1642632093062
 20
-167.3024495024452
 10
114.1642632093062
 20
-167.5312038426658
 10
114.0478189819047
 20
-167.630422592641
 10
113.7387939168778
 20
-167.8567653660219
 97
        0
 97
        0
 75
     2
 76
     1
 98
        0
  0
SPLINE
  5
134
330
12E
100
AcDbEntity
  8
_U+30EC_U+30A4_U+30E4_U+30FC 1
370
     0
100
AcDbSpline
210
0.0
220
0.0
230
1.0
 70
    11
 71
     3
 72
    29
 73
    25
 74
     0
 42
0.0000000001
 43
0.0000000001
 12
1.0
 22
0.0
 32
0.0
 13
1.0
 23
0.0
 33
0.0
 40
0.0
 40
0.0
 40
0.0
 40
0.0
 40
1.0
 40
1.0
 40
1.0
 40
2.0
 40
2.0
 40
2.0
 40
3.0
 40
3.0
 40
3.0
 40
4.0
 40
4.0
 40
4.0
 40
5.0
 40
5.0
 40
5.0
 40
6.0
 40
6.0
 40
6.0
 40
7.0
 40
7.0
 40
7.0
 40
8.0
 40
8.0
 40
8.0
 40
8.0
 10
115.2205294850838
 20
-168.2608750664417
 30
0.0
 10
115.1123534868469
 20
-168.4703368719449
 30
0.0
 10
114.9390651839389
 20
-168.4892848971138
 30
0.0
 10
114.8226209565374
 20
-168.4892848971138
 30
0.0
 10
114.6617349973762
 20
-168.4892848971138
 30
0.0
 10
114.5201415729325
 20
-168.4427761080629
 30
0.0
 10
114.4250569375396
 20
-168.2608750664417
 30
0.0
 10
114.3213595634336
 20
-168.0662271715251
 30
0.0
 10
114.3020670287162
 20
-167.8292046021399
 30
0.0
 10
114.3020670287162
 20
-167.6665960952361
 30
0.0
 10
114.3020670287162
 20
-167.5225911039527
 30
0.0
 10
114.3192925061424
 20
-167.2707546239809
 30
0.0
 10
114.4250569375396
 20
-167.071972614482
 30
0.0
 10
114.5328884262279
 20
-166.8690564904008
 30
0.0
 10
114.6937743853891
 20
-166.8456298411011
 30
0.0
 10
114.8226209565374
 20
-166.8456298411011
 30
0.0
 10
114.9814398584074
 20
-166.8456298411011
 30
0.0
 10
115.1251003401423
 20
-166.8900715728608
 30
0.0
 10
115.2205294850838
 20
-167.071972614482
 30
0.0
 10
115.319748235059
 20
-167.2645534521075
 30
0.0
 10
115.3431748843587
 20
-167.4929632827796
 30
0.0
 10
115.3431748843587
 20
-167.6665960952361
 30
0.0
 10
115.3431748843587
 20
-167.8378173408531
 30
0.0
 10
115.3218152923501
 20
-168.0682942288163
 30
0.0
 10
115.2205294850838
 20
-168.2608750664417
 30
0.0
  0
SPLINE
  5
135
330
12E
100
AcDbEntity
  8
_U+30EC_U+30A4_U+30E4_U+30FC 1
370
     0
100
AcDbSpline
210
0.0
220
0.0
230
1.0
 70
    11
 71
     3
 72
    17
 73
    13
 74
     0
 42
0.0000000001
 43
0.0000000001
 12
1.0
 22
0.0
 32
0.0
 13
1.0
 23
0.0
 33
0.0
 40
0.0
 40
0.0
 40
0.0
 40
0.0
 40
1.0
 40
1.0
 40
1.0
 40
2.0
 40
2.0
 40
2.0
 40
3.0
 40
3.0
 40
3.0
 40
4.0
 40
4.0
 40
4.0
 40
4.0
 10
114.8226209565374
 20
-167.0382106787266
 30
0.0
 10
114.5728515338568
 20
-167.0382106787266
 30
0.0
 10
114.5263427448059
 20
-167.3217420371626
 30
0.0
 10
114.5263427448059
 20
-167.6665960952361
 30
0.0
 10
114.5263427448059
 20
-167.9859564467188
 30
0.0
 10
114.562516247401
 20
-168.2946370021972
 30
0.0
 10
114.8226209565374
 20
-168.2946370021972
 30
0.0
 10
115.0703233219269
 20
-168.2946370021972
 30
0.0
 10
115.1188991682689
 20
-168.0135172106008
 30
0.0
 10
115.1188991682689
 20
-167.6665960952361
 30
0.0
 10
115.1188991682689
 20
-167.3468912342049
 30
0.0
 10
115.0806586083826
 20
-167.0382106787266
 30
0.0
 10
114.8226209565374
 20
-167.0382106787266
 30
0.0
  0
HATCH
  5
136
330
12E
100
AcDbEntity
  8
_U+30EC_U+30A4_U+30E4_U+30FC 1
 62
   179
420
  2234388
100
AcDbHatch
 10
0.0
 20
0.0
 30
0.0
210
0.0
220
0.0
230
1.0
  2
SOLID
 70
     1
 71
     0
 91
        2
 92
        1
 93
        1
 72
     4
 94
        3
 73
     0
 74
     1
 95
       29
 96
       25
 40
0.0
 40
0.0
 40
0.0
 40
0.0
 40
1.0
 40
1.0
 40
1.0
 40
2.0
 40
2.0
 40
2.0
 40
3.0
 40
3.0
 40
3.0
 40
4.0
 40
4.0
 40
4.0
 40
5.0
 40
5.0
 40
5.0
 40
6.0
 40
6.0
 40
6.0
 40
7.0
 40
7.0
 40
7.0
 40
8.0
 40
8.0
 40
8.0
 40
8.0
 10
115.2205294850838
 20
-168.2608750664417
 10
115.1123534868469
 20
-168.4703368719449
 10
114.9390651839389
 20
-168.4892848971138
 10
114.8226209565374
 20
-168.4892848971138
 10
114.6617349973762
 20
-168.4892848971138
 10
114.5201415729325
 20
-168.4427761080629
 10
114.4250569375396
 20
-168.2608750664417
 10
114.3213595634336
 20
-168.0662271715251
 10
114.3020670287162
 20
-167.8292046021399
 10
114.3020670287162
 20
-167.6665960952361
 10
114.3020670287162
 20
-167.5225911039527
 10
114.3192925061424
 20
-167.2707546239809
 10
114.4250569375396
 20
-167.071972614482
 10
114.5328884262279
 20
-166.8690564904008
 10
114.6937743853891
 20
-166.8456298411011
 10
114.8226209565374
 20
-166.8456298411011
 10
114.9814398584074
 20
-166.8456298411011
 10
115.1251003401423
 20
-166.8900715728608
 10
115.2205294850838
 20
-167.071972614482
 10
115.319748235059
 20
-167.2645534521075
 10
115.3431748843587
 20
-167.4929632827796
 10
115.3431748843587
 20
-167.6665960952361
 10
115.3431748843587
 20
-167.8378173408531
 10
115.3218152923501
 20
-168.0682942288163
 10
115.2205294850838
 20
-168.2608750664417
 97
        0
 97
        0
 92
        1
 93
        1
 72
     4
 94
        3
 73
     0
 74
     1
 95
       17
 96
       13
 40
0.0
 40
0.0
 40
0.0
 40
0.0
 40
1.0
 40
1.0
 40
1.0
 40
2.0
 40
2.0
 40
2.0
 40
3.0
 40
3.0
 40
3.0
 40
4.0
 40
4.0
 40
4.0
 40
4.0
 10
114.8226209565374
 20
-167.0382106787266
 10
114.5728515338568
 20
-167.0382106787266
 10
114.5263427448059
 20
-167.3217420371626
 10
114.5263427448059
 20
-167.6665960952361
 10
114.5263427448059
 20
-167.9859564467188
 10
114.562516247401
 20
-168.2946370021972
 10
114.8226209565374
 20
-168.2946370021972
 10
115.0703233219269
 20
-168.2946370021972
 10
115.1188991682689
 20
-168.0135172106008
 10
115.1188991682689
 20
-167.6665960952361
 10
115.1188991682689
 20
-167.3468912342049
 10
115.0806586083826
 20
-167.0382106787266
 10
114.8226209565374
 20
-167.0382106787266
 97
        0
 97
        0
 75
     2
 76
     1
 98
        0
  0
ENDBLK
  5
131
330
12E
100
AcDbEntity
  8
0
100
AcDbBlockEnd
  0
ENDSEC
  0
SECTION
  2
ENTITIES
  0
SPLINE
  5
41
330
1F
100
AcDbEntity
  8
_U+30EC_U+30A4_U+30E4_U+30FC 1
 62
   179
420
  2234388
370
     9
100
AcDbSpline
210
0.0
220
0.0
230
1.0
 70
    11
 71
     3
 72
    17
 73
    13
 74
     0
 42
0.0000000001
 43
0.0000000001
 12
1.0
 22
0.0
 32
0.0
 13
1.0
 23
0.0
 33
0.0
 40
0.0
 40
0.0
 40
0.0
 40
0.0
 40
1.0
 40
1.0
 40
1.0
 40
2.0
 40
2.0
 40
2.0
 40
3.0
 40
3.0
 40
3.0
 40
4.0
 40
4.0
 40
4.0
 40
4.0
 10
104.3324451609557
 20
-168.8117996641501
 30
0.0
 10
104.3324451609557
 20
-168.7567750296967
 30
0.0
 10
104.2876373878007
 20
-168.7119672565416
 30
0.0
 10
104.2326019874238
 20
-168.7119672565416
 30
0.0
 10
104.177566587047
 20
-168.7119672565416
 30
0.0
 10
104.1327695798153
 20
-168.7567750296967
 30
0.0
 10
104.1327695798153
 20
-168.8117996641501
 30
0.0
 10
104.1327695798153
 20
-168.866835064527
 30
0.0
 10
104.177566587047
 20
-168.911642837682
 30
0.0
 10
104.2326019874238
 20
-168.911642837682
 30
0.0
 10
104.2876373878007
 20
-168.911642837682
 30
0.0
 10
104.3324451609557
 20
-168.866835064527
 30
0.0
 10
104.3324451609557
 20
-168.8117996641501
 30
0.0
  0
SPLINE
  5
42
330
1F
100
AcDbEntity
  8
_U+30EC_U+30A4_U+30E4_U+30FC 1
 62
   179
420
  2234388
370
     9
100
AcDbSpline
210
0.0
220
0.0
230
1.0
 70
    11
 71
     3
 72
    17
 73
    13
 74
     0
 42
0.0000000001
 43
0.0000000001
 12
1.0
 22
0.0
 32
0.0
 13
1.0
 23
0.0
 33
0.0
 40
0.0
 40
0.0
 40
0.0
 40
0.0
 40
1.0
 40
1.0
 40
1.0
 40
2.0
 40
2.0
 40
2.0
 40
3.0
 40
3.0
 40
3.0
 40
4.0
 40
4.0
 40
4.0
 40
4.0
 10
124.3322579814766
 20
-168.8117996641501
 30
0.0
 10
124.3322579814766
 20
-168.7567750296967
 30
0.0
 10
124.2874502083216
 20
-168.7119672565416
 30
0.0
 10
124.2317150229243
 20
-168.7119672565416
 30
0.0
 10
124.1766796225474
 20
-168.7119672565416
 30
0.0
 10
124.1318718493924
 20
-168.7567750296967
 30
0.0
 10
124.1318718493924
 20
-168.8117996641501
 30
0.0
 10
124.1318718493924
 20
-168.866835064527
 30
0.0
 10
124.1766796225474
 20
-168.911642837682
 30
0.0
 10
124.2317150229243
 20
-168.911642837682
 30
0.0
 10
124.2874502083216
 20
-168.911642837682
 30
0.0
 10
124.3322579814766
 20
-168.866835064527
 30
0.0
 10
124.3322579814766
 20
-168.8117996641501
 30
0.0
  0
POLYLINE
  5
43
330
1F
100
AcDbEntity
  8
_U+30EC_U+30A4_U+30E4_U+30FC 1
 62
   179
420
  2234388
370
     9
100
AcDb2dPolyline
 66
     1
 10
0.0
 20
0.0
 30
0.0
  0
VERTEX
  5
44
330
43
100
AcDbEntity
  8
_U+30EC_U+30A4_U+30E4_U+30FC 1
 62
   179
420
  2234388
370
     9
100
AcDbVertex
100
AcDb2dVertex
 10
104.2325373918835
 20
-168.8117996641501
 30
0.0
  0
VERTEX
  5
45
330
43
100
AcDbEntity
  8
_U+30EC_U+30A4_U+30E4_U+30FC 1
 62
   179
420
  2234388
370
     9
100
AcDbVertex
100
AcDb2dVertex
 10
124.2314997044565
 20
-168.8117996641501
 30
0.0
  0
SEQEND
  5
46
330
43
100
AcDbEntity
  8
_U+30EC_U+30A4_U+30E4_U+30FC 1
 62
   179
420
  2234388
370
     9
  0
POLYLINE
  5
47
330
1F
100
AcDbEntity
  8
_U+30EC_U+30A4_U+30E4_U+30FC 1
 62
   179
420
  2234388
370
    25
100
AcDb2dPolyline
 66
     1
 10
0.0
 20
0.0
 30
0.0
  0
VERTEX
  5
48
330
47
100
AcDbEntity
  8
_U+30EC_U+30A4_U+30E4_U+30FC 1
 62
   179
420
  2234388
370
    25
100
AcDbVertex
100
AcDb2dVertex
 10
87.23234767852286
 20
-147.8119186879548
 30
0.0
  0
VERTEX
  5
49
330
47
100
AcDbEntity
  8
_U+30EC_U+30A4_U+30E4_U+30FC 1
 62
   179
420
  2234388
370
    25
100
AcDbVertex
100
AcDb2dVertex
 10
99.73267209420746
 20
-147.8119186879548
 30
0.0
  0
SEQEND
  5
4A
330
47
100
AcDbEntity
  8
_U+30EC_U+30A4_U+30E4_U+30FC 1
 62
   179
420
  2234388
370
    25
  0
POLYLINE
  5
4B
330
1F
100
AcDbEntity
  8
_U+30EC_U+30A4_U+30E4_U+30FC 1
 62
   179
420
  2234388
370
    25
100
AcDb2dPolyline
 66
     1
 10
0.0
 20
0.0
 30
0.0
  0
VERTEX
  5
4C
330
4B
100
AcDbEntity
  8
_U+30EC_U+30A4_U+30E4_U+30FC 1
 62
   179
420
  2234388
370
    25
100
AcDbVertex
100
AcDb2dVertex
 10
104.2325373918835
 20
-152.3119239426349
 30
0.0
  0
VERTEX
  5
4D
330
4B
100
AcDbEntity
  8
_U+30EC_U+30A4_U+30E4_U+30FC 1
 62
   179
420
  2234388
370
    25
100
AcDbVertex
100
AcDb2dVertex
 10
104.2325373918835
 20
-164.811903848771
 30
0.0
  0
SEQEND
  5
4E
330
4B
100
AcDbEntity
  8
_U+30EC_U+30A4_U+30E4_U+30FC 1
 62
   179
420
  2234388
370
    25
  0
POLYLINE
  5
4F
330
1F
100
AcDbEntity
  8
_U+30EC_U+30A4_U+30E4_U+30FC 1
 62
   179
420
  2234388
370
     9
100
AcDb2dPolyline
 66
     1
 10
0.0
 20
0.0
 30
0.0
  0
VERTEX
  5
50
330
4F
100
AcDbEntity
  8
_U+30EC_U+30A4_U+30E4_U+30FC 1
 62
   179
420
  2234388
370
     9
100
AcDbVertex
100
AcDb2dVertex
 10
95.54467406533367
 20
-156.4994267390327
 30
0.0
  0
VERTEX
  5
51
330
4F
100
AcDbEntity
  8
_U+30EC_U+30A4_U+30E4_U+30FC 1
 62
   179
420
  2234388
370
     9
100
AcDbVertex
100
AcDb2dVertex
 10
91.90400481575556
 20
-160.1252820780242
 30
0.0
  0
SEQEND
  5
52
330
4F
100
AcDbEntity
  8
_U+30EC_U+30A4_U+30E4_U+30FC 1
 62
   179
420
  2234388
370
     9
  0
POLYLINE
  5
53
330
1F
100
AcDbEntity
  8
_U+30EC_U+30A4_U+30E4_U+30FC 1
 62
   179
420
  2234388
370
     9
100
AcDb2dPolyline
 66
     1
 10
0.0
 20
0.0
 30
0.0
  0
VERTEX
  5
54
330
53
100
AcDbEntity
  8
_U+30EC_U+30A4_U+30E4_U+30FC 1
 62
   179
420
  2234388
370
     9
100
AcDbVertex
100
AcDb2dVertex
 10
95.54467406533367
 20
-156.4994267390327
 30
0.0
  0
VERTEX
  5
55
330
53
100
AcDbEntity
  8
_U+30EC_U+30A4_U+30E4_U+30FC 1
 62
   179
420
  2234388
370
     9
100
AcDbVertex
100
AcDb2dVertex
 10
100.1727615106013
 20
-156.4994267390327
 30
0.0
  0
SEQEND
  5
56
330
53
100
AcDbEntity
  8
_U+30EC_U+30A4_U+30E4_U+30FC 1
 62
   179
420
  2234388
370
     9
  0
POLYLINE
  5
57
330
1F
100
AcDbEntity
  8
_U+30EC_U+30A4_U+30E4_U+30FC 1
 62
   179
420
  2234388
370
     9
100
AcDb2dPolyline
 66
     1
 10
0.0
 20
0.0
 30
0.0
  0
VERTEX
  5
58
330
57
100
AcDbEntity
  8
_U+30EC_U+30A4_U+30E4_U+30FC 1
 62
   179
420
  2234388
370
     9
100
AcDbVertex
100
AcDb2dVertex
 10
92.94329323034523
 20
-159.5252325718808
 30
0.0
  0
VERTEX
  5
59
330
57
100
AcDbEntity
  8
_U+30EC_U+30A4_U+30E4_U+30FC 1
 62
   179
420
  2234388
370
     9
100
AcDbVertex
100
AcDb2dVertex
 10
91.90400481575556
 20
-160.1253143757944
 30
0.0
  0
SEQEND
  5
5A
330
57
100
AcDbEntity
  8
_U+30EC_U+30A4_U+30E4_U+30FC 1
 62
   179
420
  2234388
370
     9
  0
POLYLINE
  5
5B
330
1F
100
AcDbEntity
  8
_U+30EC_U+30A4_U+30E4_U+30FC 1
 62
   179
420
  2234388
370
     9
100
AcDb2dPolyline
 66
     1
 10
0.0
 20
0.0
 30
0.0
  0
VERTEX
  5
5C
330
5B
100
AcDbEntity
  8
_U+30EC_U+30A4_U+30E4_U+30FC 1
 62
   179
420
  2234388
370
     9
100
AcDbVertex
100
AcDb2dVertex
 10
92.50404355597588
 20
-159.0859936634349
 30
0.0
  0
VERTEX
  5
5D
330
5B
100
AcDbEntity
  8
_U+30EC_U+30A4_U+30E4_U+30FC 1
 62
   179
420
  2234388
370
     9
100
AcDbVertex
100
AcDb2dVertex
 10
91.90396175206199
 20
-160.1252820780242
 30
0.0
  0
SEQEND
  5
5E
330
5B
100
AcDbEntity
  8
_U+30EC_U+30A4_U+30E4_U+30FC 1
 62
   179
420
  2234388
370
     9
  0
POLYLINE
  5
5F
330
1F
100
AcDbEntity
  8
_U+30EC_U+30A4_U+30E4_U+30FC 1
 62
   179
420
  2234388
370
    25
100
AcDb2dPolyline
 66
     1
 10
0.0
 20
0.0
 30
0.0
  0
VERTEX
  5
60
330
5F
100
AcDbEntity
  8
_U+30EC_U+30A4_U+30E4_U+30FC 1
 62
   179
420
  2234388
370
    25
100
AcDbVertex
100
AcDb2dVertex
 10
87.23234767852286
 20
-147.8119186879548
 30
0.0
  0
VERTEX
  5
61
330
5F
100
AcDbEntity
  8
_U+30EC_U+30A4_U+30E4_U+30FC 1
 62
   179
420
  2234388
370
    25
100
AcDbVertex
100
AcDb2dVertex
 10
87.23234767852286
 20
-148.8116961636977
 30
0.0
  0
SEQEND
  5
62
330
5F
100
AcDbEntity
  8
_U+30EC_U+30A4_U+30E4_U+30FC 1
 62
   179
420
  2234388
370
    25
  0
POLYLINE
  5
63
330
1F
100
AcDbEntity
  8
_U+30EC_U+30A4_U+30E4_U+30FC 1
 62
   179
420
  2234388
370
    25
100
AcDb2dPolyline
 66
     1
 10
0.0
 20
0.0
 30
0.0
  0
VERTEX
  5
64
330
63
100
AcDbEntity
  8
_U+30EC_U+30A4_U+30E4_U+30FC 1
 62
   179
420
  2234388
370
    25
100
AcDbVertex
100
AcDb2dVertex
 10
103.2320924288903
 20
-164.8117531258435
 30
0.0
  0
VERTEX
  5
65
330
63
100
AcDbEntity
  8
_U+30EC_U+30A4_U+30E4_U+30FC 1
 62
   179
420
  2234388
370
    25
100
AcDbVertex
100
AcDb2dVertex
 10
104.2325696896537
 20
-164.8117531258435
 30
0.0
  0
SEQEND
  5
66
330
63
100
AcDbEntity
  8
_U+30EC_U+30A4_U+30E4_U+30FC 1
 62
   179
420
  2234388
370
    25
  0
POLYLINE
  5
67
330
1F
100
AcDbEntity
  8
_U+30EC_U+30A4_U+30E4_U+30FC 1
 62
   179
420
  2234388
370
    25
100
AcDb2dPolyline
 66
     1
 10
0.0
 20
0.0
 30
0.0
  0
VERTEX
  5
68
330
67
100
AcDbEntity
  8
_U+30EC_U+30A4_U+30E4_U+30FC 1
 62
   179
420
  2234388
370
    25
100
AcDbVertex
100
AcDb2dVertex
 10
104.2325373918835
 20
-152.3119239426349
 30
0.0
  0
VERTEX
  5
69
330
67
100
AcDbEntity
  8
_U+30EC_U+30A4_U+30E4_U+30FC 1
 62
   179
420
  2234388
370
    25
100
AcDbVertex
100
AcDb2dVertex
 10
124.2314997044565
 20
-152.3119239426349
 30
0.0
  0
SEQEND
  5
6A
330
67
100
AcDbEntity
  8
_U+30EC_U+30A4_U+30E4_U+30FC 1
 62
   179
420
  2234388
370
    25
  0
POLYLINE
  5
6B
330
1F
100
AcDbEntity
  8
_U+30EC_U+30A4_U+30E4_U+30FC 1
 62
   179
420
  2234388
370
    25
100
AcDb2dPolyline
 66
     1
 10
0.0
 20
0.0
 30
0.0
  0
VERTEX
  5
6C
330
6B
100
AcDbEntity
  8
_U+30EC_U+30A4_U+30E4_U+30FC 1
 62
   179
420
  2234388
370
    25
100
AcDbVertex
100
AcDb2dVertex
 10
103.2320924288903
 20
-151.3117911914201
 30
0.0
  0
VERTEX
  5
6D
330
6B
100
AcDbEntity
  8
_U+30EC_U+30A4_U+30E4_U+30FC 1
 62
   179
420
  2234388
370
    25
100
AcDbVertex
100
AcDb2dVertex
 10
124.23154276815
 20
-151.3117911914201
 30
0.0
  0
SEQEND
  5
6E
330
6B
100
AcDbEntity
  8
_U+30EC_U+30A4_U+30E4_U+30FC 1
 62
   179
420
  2234388
370
    25
  0
POLYLINE
  5
6F
330
1F
100
AcDbEntity
  8
_U+30EC_U+30A4_U+30E4_U+30FC 1
 62
   179
420
  2234388
370
    25
100
AcDb2dPolyline
 66
     1
 10
0.0
 20
0.0
 30
0.0
  0
VERTEX
  5
70
330
6F
100
AcDbEntity
  8
_U+30EC_U+30A4_U+30E4_U+30FC 1
 62
   179
420
  2234388
370
    25
100
AcDbVertex
100
AcDb2dVertex
 10
103.2320924288903
 20
-151.3117911914201
 30
0.0
  0
VERTEX
  5
71
330
6F
100
AcDbEntity
  8
_U+30EC_U+30A4_U+30E4_U+30FC 1
 62
   179
420
  2234388
370
    25
100
AcDbVertex
100
AcDb2dVertex
 10
103.2320924288903
 20
-163.8121263730281
 30
0.0
  0
SEQEND
  5
72
330
6F
100
AcDbEntity
  8
_U+30EC_U+30A4_U+30E4_U+30FC 1
 62
   179
420
  2234388
370
    25
  0
POLYLINE
  5
73
330
1F
100
AcDbEntity
  8
_U+30EC_U+30A4_U+30E4_U+30FC 1
 62
   179
420
  2234388
370
    25
100
AcDb2dPolyline
 66
     1
 10
0.0
 20
0.0
 30
0.0
  0
VERTEX
  5
74
330
73
100
AcDbEntity
  8
_U+30EC_U+30A4_U+30E4_U+30FC 1
 62
   179
420
  2234388
370
    25
100
AcDbVertex
100
AcDb2dVertex
 10
88.23212515426607
 20
-148.8116961636977
 30
0.0
  0
VERTEX
  5
75
330
73
100
AcDbEntity
  8
_U+30EC_U+30A4_U+30E4_U+30FC 1
 62
   179
420
  2234388
370
    25
100
AcDbVertex
100
AcDb2dVertex
 10
100.7324495699504
 20
-148.8116961636977
 30
0.0
  0
SEQEND
  5
76
330
73
100
AcDbEntity
  8
_U+30EC_U+30A4_U+30E4_U+30FC 1
 62
   179
420
  2234388
370
    25
  0
POLYLINE
  5
77
330
1F
100
AcDbEntity
  8
_U+30EC_U+30A4_U+30E4_U+30FC 1
 62
   179
420
  2234388
370
    25
100
AcDb2dPolyline
 66
     1
 10
0.0
 20
0.0
 30
0.0
  0
VERTEX
  5
78
330
77
100
AcDbEntity
  8
_U+30EC_U+30A4_U+30E4_U+30FC 1
 62
   179
420
  2234388
370
    25
100
AcDbVertex
100
AcDb2dVertex
 10
124.2316504273839
 20
-151.3117911914201
 30
0.0
  0
VERTEX
  5
79
330
77
100
AcDbEntity
  8
_U+30EC_U+30A4_U+30E4_U+30FC 1
 62
   179
420
  2234388
370
    25
100
AcDbVertex
100
AcDb2dVertex
 10
124.2316504273839
 20
-152.3119239426349
 30
0.0
  0
SEQEND
  5
7A
330
77
100
AcDbEntity
  8
_U+30EC_U+30A4_U+30E4_U+30FC 1
 62
   179
420
  2234388
370
    25
  0
POLYLINE
  5
7B
330
1F
100
AcDbEntity
  8
_U+30EC_U+30A4_U+30E4_U+30FC 1
 62
   179
420
  2234388
370
    25
100
AcDb2dPolyline
 66
     1
 10
0.0
 20
0.0
 30
0.0
  0
VERTEX
  5
7C
330
7B
100
AcDbEntity
  8
_U+30EC_U+30A4_U+30E4_U+30FC 1
 62
   179
420
  2234388
370
    25
100
AcDbVertex
100
AcDb2dVertex
 10
99.73253213720338
 20
-127.811750591962
 30
0.0
  0
VERTEX
  5
7D
330
7B
100
AcDbEntity
  8
_U+30EC_U+30A4_U+30E4_U+30FC 1
 62
   179
420
  2234388
370
    25
100
AcDbVertex
100
AcDb2dVertex
 10
99.73253213720338
 20
-147.8117894968741
 30
0.0
  0
SEQEND
  5
7E
330
7B
100
AcDbEntity
  8
_U+30EC_U+30A4_U+30E4_U+30FC 1
 62
   179
420
  2234388
370
    25
  0
POLYLINE
  5
7F
330
1F
100
AcDbEntity
  8
_U+30EC_U+30A4_U+30E4_U+30FC 1
 62
   179
420
  2234388
370
    25
100
AcDb2dPolyline
 66
     1
 10
0.0
 20
0.0
 30
0.0
  0
VERTEX
  5
80
330
7F
100
AcDbEntity
  8
_U+30EC_U+30A4_U+30E4_U+30FC 1
 62
   179
420
  2234388
370
    25
100
AcDbVertex
100
AcDb2dVertex
 10
100.7323096129466
 20
-127.811750591962
 30
0.0
  0
VERTEX
  5
81
330
7F
100
AcDbEntity
  8
_U+30EC_U+30A4_U+30E4_U+30FC 1
 62
   179
420
  2234388
370
    25
100
AcDbVertex
100
AcDb2dVertex
 10
100.7323096129466
 20
-148.8115562066936
 30
0.0
  0
SEQEND
  5
82
330
7F
100
AcDbEntity
  8
_U+30EC_U+30A4_U+30E4_U+30FC 1
 62
   179
420
  2234388
370
    25
  0
POLYLINE
  5
83
330
1F
100
AcDbEntity
  8
_U+30EC_U+30A4_U+30E4_U+30FC 1
 62
   179
420
  2234388
370
    25
100
AcDb2dPolyline
 66
     1
 10
0.0
 20
0.0
 30
0.0
  0
VERTEX
  5
84
330
83
100
AcDbEntity
  8
_U+30EC_U+30A4_U+30E4_U+30FC 1
 62
   179
420
  2234388
370
    25
100
AcDbVertex
100
AcDb2dVertex
 10
99.73253213720338
 20
-127.811750591962
 30
0.0
  0
VERTEX
  5
85
330
83
100
AcDbEntity
  8
_U+30EC_U+30A4_U+30E4_U+30FC 1
 62
   179
420
  2234388
370
    25
100
AcDbVertex
100
AcDb2dVertex
 10
100.7322988470229
 20
-127.811750591962
 30
0.0
  0
SEQEND
  5
86
330
83
100
AcDbEntity
  8
_U+30EC_U+30A4_U+30E4_U+30FC 1
 62
   179
420
  2234388
370
    25
  0
POLYLINE
  5
87
330
1F
100
AcDbEntity
  8
_U+30EC_U+30A4_U+30E4_U+30FC 1
 62
   179
420
  2234388
370
     9
100
AcDb2dPolyline
 66
     1
 10
0.0
 20
0.0
 30
0.0
  0
VERTEX
  5
88
330
87
100
AcDbEntity
  8
_U+30EC_U+30A4_U+30E4_U+30FC 1
 62
   179
420
  2234388
370
     9
100
AcDbVertex
100
AcDb2dVertex
 10
104.2325373918835
 20
-165.8118428133648
 30
0.0
  0
VERTEX
  5
89
330
87
100
AcDbEntity
  8
_U+30EC_U+30A4_U+30E4_U+30FC 1
 62
   179
420
  2234388
370
     9
100
AcDbVertex
100
AcDb2dVertex
 10
106.6875124346725
 20
-163.3568677705757
 30
0.0
  0
SEQEND
  5
8A
330
87
100
AcDbEntity
  8
_U+30EC_U+30A4_U+30E4_U+30FC 1
 62
   179
420
  2234388
370
     9
  0
POLYLINE
  5
8B
330
1F
100
AcDbEntity
  8
_U+30EC_U+30A4_U+30E4_U+30FC 1
 62
   179
420
  2234388
370
     9
100
AcDb2dPolyline
 66
     1
 10
0.0
 20
0.0
 30
0.0
  0
VERTEX
  5
8C
330
8B
100
AcDbEntity
  8
_U+30EC_U+30A4_U+30E4_U+30FC 1
 62
   179
420
  2234388
370
     9
100
AcDbVertex
100
AcDb2dVertex
 10
123.4013824154387
 20
-163.3569000683459
 30
0.0
  0
VERTEX
  5
8D
330
8B
100
AcDbEntity
  8
_U+30EC_U+30A4_U+30E4_U+30FC 1
 62
   179
420
  2234388
370
     9
100
AcDbVertex
100
AcDb2dVertex
 10
106.687469370979
 20
-163.3569000683459
 30
0.0
  0
SEQEND
  5
8E
330
8B
100
AcDbEntity
  8
_U+30EC_U+30A4_U+30E4_U+30FC 1
 62
   179
420
  2234388
370
     9
  0
POLYLINE
  5
8F
330
1F
100
AcDbEntity
  8
_U+30EC_U+30A4_U+30E4_U+30FC 1
 62
   179
420
  2234388
370
     9
100
AcDb2dPolyline
 66
     1
 10
0.0
 20
0.0
 30
0.0
  0
VERTEX
  5
90
330
8F
100
AcDbEntity
  8
_U+30EC_U+30A4_U+30E4_U+30FC 1
 62
   179
420
  2234388
370
     9
100
AcDbVertex
100
AcDb2dVertex
 10
104.2325373918835
 20
-165.8118428133648
 30
0.0
  0
VERTEX
  5
91
330
8F
100
AcDbEntity
  8
_U+30EC_U+30A4_U+30E4_U+30FC 1
 62
   179
420
  2234388
370
     9
100
AcDbVertex
100
AcDb2dVertex
 10
104.7320654713216
 20
-164.9457781061431
 30
0.0
  0
SEQEND
  5
92
330
8F
100
AcDbEntity
  8
_U+30EC_U+30A4_U+30E4_U+30FC 1
 62
   179
420
  2234388
370
     9
  0
POLYLINE
  5
93
330
1F
100
AcDbEntity
  8
_U+30EC_U+30A4_U+30E4_U+30FC 1
 62
   179
420
  2234388
370
     9
100
AcDb2dPolyline
 66
     1
 10
0.0
 20
0.0
 30
0.0
  0
VERTEX
  5
94
330
93
100
AcDbEntity
  8
_U+30EC_U+30A4_U+30E4_U+30FC 1
 62
   179
420
  2234388
370
     9
100
AcDbVertex
100
AcDb2dVertex
 10
104.2325373918835
 20
-165.8118428133648
 30
0.0
  0
VERTEX
  5
95
330
93
100
AcDbEntity
  8
_U+30EC_U+30A4_U+30E4_U+30FC 1
 62
   179
420
  2234388
370
     9
100
AcDbVertex
100
AcDb2dVertex
 10
105.0986020991051
 20
-165.311959458455
 30
0.0
  0
SEQEND
  5
96
330
93
100
AcDbEntity
  8
_U+30EC_U+30A4_U+30E4_U+30FC 1
 62
   179
420
  2234388
370
     9
  0
SPLINE
  5
97
330
1F
100
AcDbEntity
  8
_U+30EC_U+30A4_U+30E4_U+30FC 1
 62
   179
420
  2234388
370
    25
100
AcDbSpline
210
0.0
220
0.0
230
1.0
 70
     8
 71
     3
 72
     8
 73
     4
 74
     0
 42
0.0000000001
 43
0.0000000001
 12
1.0
 22
0.0
 32
0.0
 13
1.0
 23
0.0
 33
0.0
 40
0.0
 40
0.0
 40
0.0
 40
0.0
 40
1.0
 40
1.0
 40
1.0
 40
1.0
 10
87.23234767852286
 20
-148.8116961636977
 30
0.0
 10
87.23234767852286
 20
-157.6484306789039
 30
0.0
 10
94.39549787068825
 20
-164.8115808710693
 30
0.0
 10
103.232221619971
 20
-164.8115808710693
 30
0.0
  0
SPLINE
  5
98
330
1F
100
AcDbEntity
  8
_U+30EC_U+30A4_U+30E4_U+30FC 1
 62
   179
420
  2234388
370
    25
100
AcDbSpline
210
0.0
220
0.0
230
1.0
 70
     8
 71
     3
 72
     8
 73
     4
 74
     0
 42
0.0000000001
 43
0.0000000001
 12
1.0
 22
0.0
 32
0.0
 13
1.0
 23
0.0
 33
0.0
 40
0.0
 40
0.0
 40
0.0
 40
0.0
 40
1.0
 40
1.0
 40
1.0
 40
1.0
 10
88.23212515426607
 20
-148.8116961636977
 30
0.0
 10
88.23212515426607
 20
-157.0959773200739
 30
0.0
 10
94.94795122951822
 20
-163.8121694367217
 30
0.0
 10
103.2322323858944
 20
-163.8121694367217
 30
0.0
  0
SPLINE
  5
99
330
1F
100
AcDbEntity
  8
_U+30EC_U+30A4_U+30E4_U+30FC 1
 62
   179
420
  2234388
370
     9
100
AcDbSpline
210
0.0
220
0.0
230
1.0
 70
    11
 71
     3
 72
    17
 73
    13
 74
     0
 42
0.0000000001
 43
0.0000000001
 12
1.0
 22
0.0
 32
0.0
 13
1.0
 23
0.0
 33
0.0
 40
0.0
 40
0.0
 40
0.0
 40
0.0
 40
1.0
 40
1.0
 40
1.0
 40
2.0
 40
2.0
 40
2.0
 40
3.0
 40
3.0
 40
3.0
 40
4.0
 40
4.0
 40
4.0
 40
4.0
 10
83.33253188699022
 20
-127.811750591962
 30
0.0
 10
83.33253188699022
 20
-127.7567259575085
 30
0.0
 10
83.28772411383551
 20
-127.7119181843535
 30
0.0
 10
83.23198892843789
 20
-127.7119181843535
 30
0.0
 10
83.17695352806102
 20
-127.7119181843535
 30
0.0
 10
83.13214575490599
 20
-127.7567259575085
 30
0.0
 10
83.13214575490599
 20
-127.811750591962
 30
0.0
 10
83.13214575490599
 20
-127.8671412678108
 30
0.0
 10
83.17695352806102
 20
-127.9119490409658
 30
0.0
 10
83.23198892843789
 20
-127.9119490409658
 30
0.0
 10
83.28772411383551
 20
-127.9119490409658
 30
0.0
 10
83.33253188699022
 20
-127.8671412678108
 30
0.0
 10
83.33253188699022
 20
-127.811750591962
 30
0.0
  0
SPLINE
  5
9A
330
1F
100
AcDbEntity
  8
_U+30EC_U+30A4_U+30E4_U+30FC 1
 62
   179
420
  2234388
370
     9
100
AcDbSpline
210
0.0
220
0.0
230
1.0
 70
    11
 71
     3
 72
    17
 73
    13
 74
     0
 42
0.0000000001
 43
0.0000000001
 12
1.0
 22
0.0
 32
0.0
 13
1.0
 23
0.0
 33
0.0
 40
0.0
 40
0.0
 40
0.0
 40
0.0
 40
1.0
 40
1.0
 40
1.0
 40
2.0
 40
2.0
 40
2.0
 40
3.0
 40
3.0
 40
3.0
 40
4.0
 40
4.0
 40
4.0
 40
4.0
 10
83.33253188699022
 20
-147.8119186879548
 30
0.0
 10
83.33253188699022
 20
-147.7565387780294
 30
0.0
 10
83.28772411383551
 20
-147.7120862803463
 30
0.0
 10
83.23198892843789
 20
-147.7120862803463
 30
0.0
 10
83.17695352806102
 20
-147.7120862803463
 30
0.0
 10
83.13214575490599
 20
-147.7565387780294
 30
0.0
 10
83.13214575490599
 20
-147.8119186879548
 30
0.0
 10
83.13214575490599
 20
-147.8669540883317
 30
0.0
 10
83.17695352806102
 20
-147.9117618614867
 30
0.0
 10
83.23198892843789
 20
-147.9117618614867
 30
0.0
 10
83.28772411383551
 20
-147.9117618614867
 30
0.0
 10
83.33253188699022
 20
-147.8669540883317
 30
0.0
 10
83.33253188699022
 20
-147.8119186879548
 30
0.0
  0
SPLINE
  5
9B
330
1F
100
AcDbEntity
  8
_U+30EC_U+30A4_U+30E4_U+30FC 1
 62
   179
420
  2234388
370
     9
100
AcDbSpline
210
0.0
220
0.0
230
1.0
 70
    11
 71
     3
 72
    17
 73
    13
 74
     0
 42
0.0000000001
 43
0.0000000001
 12
1.0
 22
0.0
 32
0.0
 13
1.0
 23
0.0
 33
0.0
 40
0.0
 40
0.0
 40
0.0
 40
0.0
 40
1.0
 40
1.0
 40
1.0
 40
2.0
 40
2.0
 40
2.0
 40
3.0
 40
3.0
 40
3.0
 40
4.0
 40
4.0
 40
4.0
 40
4.0
 10
128.3320138398517
 20
-164.8117531258435
 30
0.0
 10
128.3320138398517
 20
-164.75672849139
 30
0.0
 10
128.2872060666967
 20
-164.711920718235
 30
0.0
 10
128.2321706663198
 20
-164.711920718235
 30
0.0
 10
128.1771352659429
 20
-164.711920718235
 30
0.0
 10
128.1323382587113
 20
-164.75672849139
 30
0.0
 10
128.1323382587113
 20
-164.8117531258435
 30
0.0
 10
128.1323382587113
 20
-164.8671438016923
 30
0.0
 10
128.1771352659429
 20
-164.9119515748473
 30
0.0
 10
128.2321706663198
 20
-164.9119515748473
 30
0.0
 10
128.2872060666967
 20
-164.9119515748473
 30
0.0
 10
128.3320138398517
 20
-164.8671438016923
 30
0.0
 10
128.3320138398517
 20
-164.8117531258435
 30
0.0
  0
SPLINE
  5
9C
330
1F
100
AcDbEntity
  8
_U+30EC_U+30A4_U+30E4_U+30FC 1
 62
   179
420
  2234388
370
     9
100
AcDbSpline
210
0.0
220
0.0
230
1.0
 70
    11
 71
     3
 72
    17
 73
    13
 74
     0
 42
0.0000000001
 43
0.0000000001
 12
1.0
 22
0.0
 32
0.0
 13
1.0
 23
0.0
 33
0.0
 40
0.0
 40
0.0
 40
0.0
 40
0.0
 40
1.0
 40
1.0
 40
1.0
 40
2.0
 40
2.0
 40
2.0
 40
3.0
 40
3.0
 40
3.0
 40
4.0
 40
4.0
 40
4.0
 40
4.0
 10
128.3320138398517
 20
-152.3119239426349
 30
0.0
 10
128.3320138398517
 20
-152.2568993081814
 30
0.0
 10
128.2872060666967
 20
-152.2120915350264
 30
0.0
 10
128.2321706663198
 20
-152.2120915350264
 30
0.0
 10
128.1771352659429
 20
-152.2120915350264
 30
0.0
 10
128.1323382587113
 20
-152.2568993081814
 30
0.0
 10
128.1323382587113
 20
-152.3119239426349
 30
0.0
 10
128.1323382587113
 20
-152.3669593430118
 30
0.0
 10
128.1771352659429
 20
-152.4117671161668
 30
0.0
 10
128.2321706663198
 20
-152.4117671161668
 30
0.0
 10
128.2872060666967
 20
-152.4117671161668
 30
0.0
 10
128.3320138398517
 20
-152.3669593430118
 30
0.0
 10
128.3320138398517
 20
-152.3119239426349
 30
0.0
  0
SPLINE
  5
9D
330
1F
100
AcDbEntity
  8
_U+30EC_U+30A4_U+30E4_U+30FC 1
 62
   179
420
  2234388
370
     9
100
AcDbSpline
210
0.0
220
0.0
230
1.0
 70
    11
 71
     3
 72
    17
 73
    13
 74
     0
 42
0.0000000001
 43
0.0000000001
 12
1.0
 22
0.0
 32
0.0
 13
1.0
 23
0.0
 33
0.0
 40
0.0
 40
0.0
 40
0.0
 40
0.0
 40
1.0
 40
1.0
 40
1.0
 40
2.0
 40
2.0
 40
2.0
 40
3.0
 40
3.0
 40
3.0
 40
4.0
 40
4.0
 40
4.0
 40
4.0
 10
128.3320138398517
 20
-151.3117911914201
 30
0.0
 10
128.3320138398517
 20
-151.2567665569666
 30
0.0
 10
128.2872060666967
 20
-151.2119587838116
 30
0.0
 10
128.2321706663198
 20
-151.2119587838116
 30
0.0
 10
128.1771352659429
 20
-151.2119587838116
 30
0.0
 10
128.1323382587113
 20
-151.2567665569666
 30
0.0
 10
128.1323382587113
 20
-151.3117911914201
 30
0.0
 10
128.1323382587113
 20
-151.366826591797
 30
0.0
 10
128.1771352659429
 20
-151.411634364952
 30
0.0
 10
128.2321706663198
 20
-151.411634364952
 30
0.0
 10
128.2872060666967
 20
-151.411634364952
 30
0.0
 10
128.3320138398517
 20
-151.366826591797
 30
0.0
 10
128.3320138398517
 20
-151.3117911914201
 30
0.0
  0
SPLINE
  5
9E
330
1F
100
AcDbEntity
  8
_U+30EC_U+30A4_U+30E4_U+30FC 1
  6
AI-Linetype-1
 62
   154
420
    23468
370
    25
100
AcDbSpline
210
0.0
220
0.0
230
1.0
 70
     8
 71
     3
 72
    20
 73
    16
 74
     0
 42
0.0000000001
 43
0.0000000001
 12
1.0
 22
0.0
 32
0.0
 13
1.0
 23
0.0
 33
0.0
 40
0.0
 40
0.0
 40
0.0
 40
0.0
 40
1.0
 40
1.0
 40
1.0
 40
2.0
 40
2.0
 40
2.0
 40
3.0
 40
3.0
 40
3.0
 40
4.0
 40
4.0
 40
4.0
 40
5.0
 40
5.0
 40
5.0
 40
5.0
 10
104.2325373918835
 20
-165.8118428133648
 30
0.0
 10
104.2325373918835
 20
-165.8118428133648
 30
0.0
 10
103.4814635124055
 20
-165.8118428133648
 30
0.0
 10
103.4814635124055
 20
-165.8118428133648
 30
0.0
 10
103.4814635124055
 20
-165.8118428133648
 30
0.0
 10
103.2320493651968
 20
-165.8118428133648
 30
0.0
 10
103.2320493651968
 20
-165.8118428133648
 30
0.0
 10
93.84358280802815
 20
-165.8118428133648
 30
0.0
 10
86.2320426725338
 20
-158.200668719266
 30
0.0
 10
86.2320426725338
 20
-148.8118361207018
 30
0.0
 10
86.2320426725338
 20
-148.8118361207018
 30
0.0
 10
86.2320426725338
 20
-148.3585153844602
 30
0.0
 10
86.2320426725338
 20
-148.3585153844602
 30
0.0
 10
86.2320426725338
 20
-148.3585153844602
 30
0.0
 10
86.2320426725338
 20
-147.8120694108823
 30
0.0
 10
86.2320426725338
 20
-147.8120694108823
 30
0.0
  0
INSERT
  5
A1
330
1F
100
AcDbEntity
  8
_U+30EC_U+30A4_U+30E4_U+30FC 1
100
AcDbBlockReference
  2
block 2
 10
0.0
 20
0.0
 30
0.0
  0
INSERT
  5
AC
330
1F
100
AcDbEntity
  8
_U+30EC_U+30A4_U+30E4_U+30FC 1
100
AcDbBlockReference
  2
block 3
 10
0.0
 20
0.0
 30
0.0
  0
POLYLINE
  5
E1
330
1F
100
AcDbEntity
  8
_U+30EC_U+30A4_U+30E4_U+30FC 1
 62
   179
420
  2234388
370
     9
100
AcDb2dPolyline
 66
     1
 10
0.0
 20
0.0
 30
0.0
  0
VERTEX
  5
E2
330
E1
100
AcDbEntity
  8
_U+30EC_U+30A4_U+30E4_U+30FC 1
 62
   179
420
  2234388
370
     9
100
AcDbVertex
100
AcDb2dVertex
 10
128.2321168367028
 20
-151.3117911914201
 30
0.0
  0
VERTEX
  5
E3
330
E1
100
AcDbEntity
  8
_U+30EC_U+30A4_U+30E4_U+30FC 1
 62
   179
420
  2234388
370
     9
100
AcDbVertex
100
AcDb2dVertex
 10
128.2321168367028
 20
-148.5414284228798
 30
0.0
  0
SEQEND
  5
E4
330
E1
100
AcDbEntity
  8
_U+30EC_U+30A4_U+30E4_U+30FC 1
 62
   179
420
  2234388
370
     9
  0
POLYLINE
  5
E5
330
1F
100
AcDbEntity
  8
_U+30EC_U+30A4_U+30E4_U+30FC 1
 62
   179
420
  2234388
370
     9
100
AcDb2dPolyline
 66
     1
 10
0.0
 20
0.0
 30
0.0
  0
VERTEX
  5
E6
330
E5
100
AcDbEntity
  8
_U+30EC_U+30A4_U+30E4_U+30FC 1
 62
   179
420
  2234388
370
     9
100
AcDbVertex
100
AcDb2dVertex
 10
128.2321168367028
 20
-152.3119239426349
 30
0.0
  0
VERTEX
  5
E7
330
E5
100
AcDbEntity
  8
_U+30EC_U+30A4_U+30E4_U+30FC 1
 62
   179
420
  2234388
370
     9
100
AcDbVertex
100
AcDb2dVertex
 10
128.2321168367028
 20
-151.3118019573435
 30
0.0
  0
SEQEND
  5
E8
330
E5
100
AcDbEntity
  8
_U+30EC_U+30A4_U+30E4_U+30FC 1
 62
   179
420
  2234388
370
     9
  0
POLYLINE
  5
E9
330
1F
100
AcDbEntity
  8
_U+30EC_U+30A4_U+30E4_U+30FC 1
 62
   179
420
  2234388
370
     9
100
AcDb2dPolyline
 66
     1
 10
0.0
 20
0.0
 30
0.0
  0
VERTEX
  5
EA
330
E9
100
AcDbEntity
  8
_U+30EC_U+30A4_U+30E4_U+30FC 1
 62
   179
420
  2234388
370
     9
100
AcDbVertex
100
AcDb2dVertex
 10
126.7720746041306
 20
-152.3119239426349
 30
0.0
  0
VERTEX
  5
EB
330
E9
100
AcDbEntity
  8
_U+30EC_U+30A4_U+30E4_U+30FC 1
 62
   179
420
  2234388
370
     9
100
AcDbVertex
100
AcDb2dVertex
 10
129.2319912057562
 20
-152.3119239426349
 30
0.0
  0
SEQEND
  5
EC
330
E9
100
AcDbEntity
  8
_U+30EC_U+30A4_U+30E4_U+30FC 1
 62
   179
420
  2234388
370
     9
  0
POLYLINE
  5
ED
330
1F
100
AcDbEntity
  8
_U+30EC_U+30A4_U+30E4_U+30FC 1
 62
   179
420
  2234388
370
     9
100
AcDb2dPolyline
 66
     1
 10
0.0
 20
0.0
 30
0.0
  0
VERTEX
  5
EE
330
ED
100
AcDbEntity
  8
_U+30EC_U+30A4_U+30E4_U+30FC 1
 62
   179
420
  2234388
370
     9
100
AcDbVertex
100
AcDb2dVertex
 10
126.7720746041306
 20
-151.3117911914201
 30
0.0
  0
VERTEX
  5
EF
330
ED
100
AcDbEntity
  8
_U+30EC_U+30A4_U+30E4_U+30FC 1
 62
   179
420
  2234388
370
     9
100
AcDbVertex
100
AcDb2dVertex
 10
129.2319912057562
 20
-151.3117911914201
 30
0.0
  0
SEQEND
  5
F0
330
ED
100
AcDbEntity
  8
_U+30EC_U+30A4_U+30E4_U+30FC 1
 62
   179
420
  2234388
370
     9
  0
INSERT
  5
F2
330
1F
100
AcDbEntity
  8
_U+30EC_U+30A4_U+30E4_U+30FC 1
100
AcDbBlockReference
  2
block 4
 10
0.0
 20
0.0
 30
0.0
  0
POLYLINE
  5
F7
330
1F
100
AcDbEntity
  8
_U+30EC_U+30A4_U+30E4_U+30FC 1
 62
   179
420
  2234388
370
     9
100
AcDb2dPolyline
 66
     1
 10
0.0
 20
0.0
 30
0.0
  0
VERTEX
  5
F8
330
F7
100
AcDbEntity
  8
_U+30EC_U+30A4_U+30E4_U+30FC 1
 62
   179
420
  2234388
370
     9
100
AcDbVertex
100
AcDb2dVertex
 10
128.2321168367028
 20
-152.3119239426349
 30
0.0
  0
VERTEX
  5
F9
330
F7
100
AcDbEntity
  8
_U+30EC_U+30A4_U+30E4_U+30FC 1
 62
   179
420
  2234388
370
     9
100
AcDbVertex
100
AcDb2dVertex
 10
128.2321168367028
 20
-164.811903848771
 30
0.0
  0
SEQEND
  5
FA
330
F7
100
AcDbEntity
  8
_U+30EC_U+30A4_U+30E4_U+30FC 1
 62
   179
420
  2234388
370
     9
  0
POLYLINE
  5
FB
330
1F
100
AcDbEntity
  8
_U+30EC_U+30A4_U+30E4_U+30FC 1
 62
   179
420
  2234388
370
     9
100
AcDb2dPolyline
 66
     1
 10
0.0
 20
0.0
 30
0.0
  0
VERTEX
  5
FC
330
FB
100
AcDbEntity
  8
_U+30EC_U+30A4_U+30E4_U+30FC 1
 62
   179
420
  2234388
370
     9
100
AcDbVertex
100
AcDb2dVertex
 10
106.7722510176863
 20
-164.8117531258435
 30
0.0
  0
VERTEX
  5
FD
330
FB
100
AcDbEntity
  8
_U+30EC_U+30A4_U+30E4_U+30FC 1
 62
   179
420
  2234388
370
     9
100
AcDbVertex
100
AcDb2dVertex
 10
129.2318404828288
 20
-164.8117531258435
 30
0.0
  0
SEQEND
  5
FE
330
FB
100
AcDbEntity
  8
_U+30EC_U+30A4_U+30E4_U+30FC 1
 62
   179
420
  2234388
370
     9
  0
INSERT
  5
100
330
1F
100
AcDbEntity
  8
_U+30EC_U+30A4_U+30E4_U+30FC 1
100
AcDbBlockReference
  2
block 5
 10
0.0
 20
0.0
 30
0.0
  0
POLYLINE
  5
111
330
1F
100
AcDbEntity
  8
_U+30EC_U+30A4_U+30E4_U+30FC 1
 62
   179
420
  2234388
370
     9
100
AcDb2dPolyline
 66
     1
 10
0.0
 20
0.0
 30
0.0
  0
VERTEX
  5
112
330
111
100
AcDbEntity
  8
_U+30EC_U+30A4_U+30E4_U+30FC 1
 62
   179
420
  2234388
370
     9
100
AcDbVertex
100
AcDb2dVertex
 10
83.23192433289753
 20
-147.8119186879548
 30
0.0
  0
VERTEX
  5
113
330
111
100
AcDbEntity
  8
_U+30EC_U+30A4_U+30E4_U+30FC 1
 62
   179
420
  2234388
370
     9
100
AcDbVertex
100
AcDb2dVertex
 10
83.23192433289753
 20
-127.8118905489661
 30
0.0
  0
SEQEND
  5
114
330
111
100
AcDbEntity
  8
_U+30EC_U+30A4_U+30E4_U+30FC 1
 62
   179
420
  2234388
370
     9
  0
POLYLINE
  5
115
330
1F
100
AcDbEntity
  8
_U+30EC_U+30A4_U+30E4_U+30FC 1
 62
   179
420
  2234388
370
     9
100
AcDb2dPolyline
 66
     1
 10
0.0
 20
0.0
 30
0.0
  0
VERTEX
  5
116
330
115
100
AcDbEntity
  8
_U+30EC_U+30A4_U+30E4_U+30FC 1
 62
   179
420
  2234388
370
     9
100
AcDbVertex
100
AcDb2dVertex
 10
84.69195579954642
 20
-147.8119186879548
 30
0.0
  0
VERTEX
  5
117
330
115
100
AcDbEntity
  8
_U+30EC_U+30A4_U+30E4_U+30FC 1
 62
   179
420
  2234388
370
     9
100
AcDbVertex
100
AcDb2dVertex
 10
82.23202843199734
 20
-147.8119186879548
 30
0.0
  0
SEQEND
  5
118
330
115
100
AcDbEntity
  8
_U+30EC_U+30A4_U+30E4_U+30FC 1
 62
   179
420
  2234388
370
     9
  0
POLYLINE
  5
119
330
1F
100
AcDbEntity
  8
_U+30EC_U+30A4_U+30E4_U+30FC 1
 62
   179
420
  2234388
370
     9
100
AcDb2dPolyline
 66
     1
 10
0.0
 20
0.0
 30
0.0
  0
VERTEX
  5
11A
330
119
100
AcDbEntity
  8
_U+30EC_U+30A4_U+30E4_U+30FC 1
 62
   179
420
  2234388
370
     9
100
AcDbVertex
100
AcDb2dVertex
 10
97.19215102415032
 20
-127.811750591962
 30
0.0
  0
VERTEX
  5
11B
330
119
100
AcDbEntity
  8
_U+30EC_U+30A4_U+30E4_U+30FC 1
 62
   179
420
  2234388
370
     9
100
AcDbVertex
100
AcDb2dVertex
 10
82.23225451638855
 20
-127.811750591962
 30
0.0
  0
SEQEND
  5
11C
330
119
100
AcDbEntity
  8
_U+30EC_U+30A4_U+30E4_U+30FC 1
 62
   179
420
  2234388
370
     9
  0
INSERT
  5
11E
330
1F
100
AcDbEntity
  8
_U+30EC_U+30A4_U+30E4_U+30FC 1
100
AcDbBlockReference
  2
block 6
 10
0.0
 20
0.0
 30
0.0
  0
POLYLINE
  5
126
330
1F
100
AcDbEntity
  8
_U+30EC_U+30A4_U+30E4_U+30FC 1
 62
   179
420
  2234388
370
     9
100
AcDb2dPolyline
 66
     1
 10
0.0
 20
0.0
 30
0.0
  0
VERTEX
  5
127
330
126
100
AcDbEntity
  8
_U+30EC_U+30A4_U+30E4_U+30FC 1
 62
   179
420
  2234388
370
     9
100
AcDbVertex
100
AcDb2dVertex
 10
104.2325373918835
 20
-167.3518220271182
 30
0.0
  0
VERTEX
  5
128
330
126
100
AcDbEntity
  8
_U+30EC_U+30A4_U+30E4_U+30FC 1
 62
   179
420
  2234388
370
     9
100
AcDbVertex
100
AcDb2dVertex
 10
104.2325373918835
 20
-169.8121046701392
 30
0.0
  0
SEQEND
  5
129
330
126
100
AcDbEntity
  8
_U+30EC_U+30A4_U+30E4_U+30FC 1
 62
   179
420
  2234388
370
     9
  0
POLYLINE
  5
12A
330
1F
100
AcDbEntity
  8
_U+30EC_U+30A4_U+30E4_U+30FC 1
 62
   179
420
  2234388
370
     9
100
AcDb2dPolyline
 66
     1
 10
0.0
 20
0.0
 30
0.0
  0
VERTEX
  5
12B
330
12A
100
AcDbEntity
  8
_U+30EC_U+30A4_U+30E4_U+30FC 1
 62
   179
420
  2234388
370
     9
100
AcDbVertex
100
AcDb2dVertex
 10
124.2316504273839
 20
-154.851949780216
 30
0.0
  0
VERTEX
  5
12C
330
12A
100
AcDbEntity
  8
_U+30EC_U+30A4_U+30E4_U+30FC 1
 62
   179
420
  2234388
370
     9
100
AcDbVertex
100
AcDb2dVertex
 10
124.2316504273839
 20
-169.8118462879778
 30
0.0
  0
SEQEND
  5
12D
330
12A
100
AcDbEntity
  8
_U+30EC_U+30A4_U+30E4_U+30FC 1
 62
   179
420
  2234388
370
     9
  0
INSERT
  5
12F
330
1F
100
AcDbEntity
  8
_U+30EC_U+30A4_U+30E4_U+30FC 1
100
AcDbBlockReference
  2
block 7
 10
0.0
 20
0.0
 30
0.0
  0
ENDSEC
  0
SECTION
  2
OBJECTS
  0
DICTIONARY
  5
C
330
0
100
AcDbDictionary
281
     1
  3
ACAD_GROUP
350
D
  3
ACAD_LAYOUT
350
1A
  3
ACAD_MATERIAL
350
3B
  3
ACAD_MLEADERSTYLE
350
138
  3
ACAD_MLINESTYLE
350
17
  3
ACAD_PLOTSETTINGS
350
19
  3
ACAD_PLOTSTYLENAME
350
E
  3
ACAD_TABLESTYLE
350
137
  3
ACAD_VISUALSTYLE
350
2A
  0
SUN
  5
3F
330
29
100
AcDbSun
 90
        1
290
     0
 63
     7
421
 16777215
 40
1.0
291
     1
 91
  2455826
 92
 54000000
292
     0
 70
     2
 71
   256
280
     1
  0
DICTIONARY
  5
D
102
{ACAD_REACTORS
330
C
102
}
330
C
100
AcDbDictionary
281
     1
  0
DICTIONARY
  5
1A
102
{ACAD_REACTORS
330
C
102
}
330
C
100
AcDbDictionary
281
     1
  3
Layout1
350
1E
  3
Layout2
350
26
  3
Model
350
22
  0
DICTIONARY
  5
3B
102
{ACAD_REACTORS
330
C
102
}
330
C
100
AcDbDictionary
281
     1
  3
ByBlock
350
3D
  3
ByLayer
350
3C
  3
Global
350
3E
  0
DICTIONARY
  5
138
102
{ACAD_REACTORS
330
C
102
}
330
C
100
AcDbDictionary
281
     1
  0
DICTIONARY
  5
17
102
{ACAD_REACTORS
330
C
102
}
330
C
100
AcDbDictionary
281
     1
  3
Standard
350
18
  0
DICTIONARY
  5
19
102
{ACAD_REACTORS
330
C
102
}
330
C
100
AcDbDictionary
281
     1
  0
ACDBDICTIONARYWDFLT
  5
E
102
{ACAD_REACTORS
330
C
102
}
330
C
100
AcDbDictionary
281
     1
  3
Normal
350
F
100
AcDbDictionaryWithDefault
340
F
  0
DICTIONARY
  5
137
102
{ACAD_REACTORS
330
C
102
}
330
C
100
AcDbDictionary
281
     1
  0
DICTIONARY
  5
2A
102
{ACAD_REACTORS
330
C
102
}
330
C
100
AcDbDictionary
281
     1
  3
2dWireframe
350
2F
  3
3D Hidden
350
31
  3
3dWireframe
350
30
  3
Basic
350
32
  3
Brighten
350
36
  3
ColorChange
350
3A
  3
Conceptual
350
34
  3
Dim
350
35
  3
Facepattern
350
39
  3
Flat
350
2B
  3
FlatWithEdges
350
2C
  3
Gouraud
350
2D
  3
GouraudWithEdges
350
2E
  3
Linepattern
350
38
  3
Realistic
350
33
  3
Thicken
350
37
  0
LAYOUT
  5
1E
102
{ACAD_REACTORS
330
1A
102
}
330
1A
100
AcDbPlotSettings
  1

  2
none_device
  4

  6

 40
0.0
 41
0.0
 42
0.0
 43
0.0
 44
0.0
 45
0.0
 46
0.0
 47
0.0
 48
0.0
 49
0.0
140
0.0
141
0.0
142
1.0
143
1.0
 70
   688
 72
     0
 73
     0
 74
     5
  7

 75
    16
 76
     0
 77
     2
 78
   300
147
1.0
148
0.0
149
0.0
100
AcDbLayout
  1
Layout1
 70
     1
 71
     1
 10
0.0
 20
0.0
 11
12.0
 21
9.0
 12
0.0
 22
0.0
 32
0.0
 14
1.000000000000000E+20
 24
1.000000000000000E+20
 34
1.000000000000000E+20
 15
-1.000000000000000E+20
 25
-1.000000000000000E+20
 35
-1.000000000000000E+20
146
0.0
 13
0.0
 23
0.0
 33
0.0
 16
1.0
 26
0.0
 36
0.0
 17
0.0
 27
1.0
 37
0.0
 76
     0
330
1B
  0
LAYOUT
  5
26
102
{ACAD_REACTORS
330
1A
102
}
330
1A
100
AcDbPlotSettings
  1

  2
none_device
  4

  6

 40
0.0
 41
0.0
 42
0.0
 43
0.0
 44
0.0
 45
0.0
 46
0.0
 47
0.0
 48
0.0
 49
0.0
140
0.0
141
0.0
142
1.0
143
1.0
 70
   688
 72
     0
 73
     0
 74
     5
  7

 75
    16
 76
     0
 77
     2
 78
   300
147
1.0
148
0.0
149
0.0
100
AcDbLayout
  1
Layout2
 70
     1
 71
     2
 10
0.0
 20
0.0
 11
0.0
 21
0.0
 12
0.0
 22
0.0
 32
0.0
 14
0.0
 24
0.0
 34
0.0
 15
0.0
 25
0.0
 35
0.0
146
0.0
 13
0.0
 23
0.0
 33
0.0
 16
1.0
 26
0.0
 36
0.0
 17
0.0
 27
1.0
 37
0.0
 76
     0
330
23
  0
LAYOUT
  5
22
102
{ACAD_REACTORS
330
1A
102
}
330
1A
100
AcDbPlotSettings
  1

  2
none_device
  4

  6

 40
0.0
 41
0.0
 42
0.0
 43
0.0
 44
0.0
 45
0.0
 46
0.0
 47
0.0
 48
0.0
 49
0.0
140
0.0
141
0.0
142
1.0
143
1.0
 70
  1712
 72
     0
 73
     0
 74
     0
  7

 75
     0
 76
     0
 77
     2
 78
   300
147
1.0
148
0.0
149
0.0
100
AcDbLayout
  1
Model
 70
     1
 71
     0
 10
0.0
 20
0.0
 11
12.0
 21
9.0
 12
0.0
 22
0.0
 32
0.0
 14
1.000000000000000E+20
 24
1.000000000000000E+20
 34
1.000000000000000E+20
 15
-1.000000000000000E+20
 25
-1.000000000000000E+20
 35
-1.000000000000000E+20
146
0.0
 13
0.0
 23
0.0
 33
0.0
 16
1.0
 26
0.0
 36
0.0
 17
0.0
 27
1.0
 37
0.0
 76
     0
330
1F
331
29
  0
MATERIAL
  5
3D
102
{ACAD_REACTORS
330
3B
102
}
330
3B
100
AcDbMaterial
  1
ByBlock
 72
     1
 94
      127
  0
MATERIAL
  5
3C
102
{ACAD_REACTORS
330
3B
102
}
330
3B
100
AcDbMaterial
  1
ByLayer
 72
     1
 94
      127
  0
MATERIAL
  5
3E
102
{ACAD_REACTORS
330
3B
102
}
330
3B
100
AcDbMaterial
  1
Global
 72
     1
 94
      127
  0
MLINESTYLE
  5
18
102
{ACAD_REACTORS
330
17
102
}
330
17
100
AcDbMlineStyle
  2
Standard
 70
     0
  3

 62
   256
 51
90.0
 52
90.0
 71
     2
 49
0.5
 62
   256
  6
BYLAYER
 49
-0.5
 62
   256
  6
BYLAYER
  0
ACDBPLACEHOLDER
  5
F
102
{ACAD_REACTORS
330
E
102
}
330
E
  0
VISUALSTYLE
  5
2F
102
{ACAD_REACTORS
330
2A
102
}
330
2A
100
AcDbVisualStyle
  2
2dWireframe
 70
     4
177
     2
291
     0
 71
     0
176
     1
 72
     2
176
     1
 73
     0
176
     1
 90
        0
176
     1
 40
-0.6
176
     1
 41
-30.0
176
     1
 62
     5
 63
     7
421
 16777215
176
     1
 74
     1
176
     1
 91
        4
176
     1
 64
     7
176
     1
 65
   257
176
     1
 75
     1
176
     1
175
     1
176
     1
 42
1.0
176
     1
 92
        0
176
     1
 66
   257
176
     1
 43
1.0
176
     1
 76
     1
176
     1
 77
     6
176
     1
 78
     2
176
     1
 67
     7
176
     1
 79
     5
176
     1
170
     0
176
     1
171
     0
176
     1
290
     0
176
     1
 93
        1
176
     1
 44
0.0
176
     1
173
     0
176
     1
  0
VISUALSTYLE
  5
31
102
{ACAD_REACTORS
330
2A
102
}
330
2A
100
AcDbVisualStyle
  2
3D Hidden
 70
     6
177
     2
291
     0
 71
     1
176
     1
 72
     2
176
     1
 73
     2
176
     1
 90
        0
176
     1
 40
-0.6
176
     1
 41
-30.0
176
     1
 62
     5
 63
     7
421
 16777215
176
     1
 74
     2
176
     1
 91
        2
176
     1
 64
     7
176
     1
 65
   257
176
     1
 75
     2
176
     1
175
     1
176
     1
 42
40.0
176
     1
 92
        0
176
     1
 66
   257
176
     1
 43
1.0
176
     1
 76
     1
176
     1
 77
     6
176
     1
 78
     2
176
     1
 67
     7
176
     1
 79
     3
176
     1
170
     0
176
     1
171
     0
176
     1
290
     0
176
     1
 93
        1
176
     1
 44
0.0
176
     1
173
     0
176
     1
  0
VISUALSTYLE
  5
30
102
{ACAD_REACTORS
330
2A
102
}
330
2A
100
AcDbVisualStyle
  2
3dWireframe
 70
     5
177
     2
291
     0
 71
     0
176
     1
 72
     2
176
     1
 73
     0
176
     1
 90
        0
176
     1
 40
-0.6
176
     1
 41
-30.0
176
     1
 62
     5
 63
     7
421
 16777215
176
     1
 74
     1
176
     1
 91
        4
176
     1
 64
     7
176
     1
 65
   257
176
     1
 75
     1
176
     1
175
     1
176
     1
 42
1.0
176
     1
 92
        0
176
     1
 66
   257
176
     1
 43
1.0
176
     1
 76
     1
176
     1
 77
     6
176
     1
 78
     2
176
     1
 67
     7
176
     1
 79
     5
176
     1
170
     0
176
     1
171
     0
176
     1
290
     0
176
     1
 93
        1
176
     1
 44
0.0
176
     1
173
     0
176
     1
  0
VISUALSTYLE
  5
32
102
{ACAD_REACTORS
330
2A
102
}
330
2A
100
AcDbVisualStyle
  2
Basic
 70
     7
177
     2
291
     1
 71
     1
176
     1
 72
     0
176
     1
 73
     1
176
     1
 90
        0
176
     1
 40
-0.6
176
     1
 41
-30.0
176
     1
 62
     5
 63
     7
421
 16777215
176
     1
 74
     0
176
     1
 91
        4
176
     1
 64
     7
176
     1
 65
   257
176
     1
 75
     1
176
     1
175
     1
176
     1
 42
1.0
176
     1
 92
        8
176
     1
 66
     7
176
     1
 43
1.0
176
     1
 76
     1
176
     1
 77
     6
176
     1
 78
     2
176
     1
 67
     7
176
     1
 79
     5
176
     1
170
     0
176
     1
171
     0
176
     1
290
     0
176
     1
 93
        1
176
     1
 44
0.0
176
     1
173
     0
176
     1
  0
VISUALSTYLE
  5
36
102
{ACAD_REACTORS
330
2A
102
}
330
2A
100
AcDbVisualStyle
  2
Brighten
 70
    12
177
     2
291
     1
 71
     2
176
     1
 72
     2
176
     1
 73
     0
176
     1
 90
        0
176
     1
 40
-0.6
176
     1
 41
-30.0
176
     1
 62
     5
 63
     7
421
 16777215
176
     1
 74
     1
176
     1
 91
        4
176
     1
 64
     7
176
     1
 65
   257
176
     1
 75
     1
176
     1
175
     1
176
     1
 42
1.0
176
     1
 92
        8
176
     1
 66
     7
176
     1
 43
1.0
176
     1
 76
     1
176
     1
 77
     6
176
     1
 78
     2
176
     1
 67
     7
176
     1
 79
     5
176
     1
170
     0
176
     1
171
     0
176
     1
290
     0
176
     1
 93
        1
176
     1
 44
50.0
176
     1
173
     0
176
     1
  0
VISUALSTYLE
  5
3A
102
{ACAD_REACTORS
330
2A
102
}
330
2A
100
AcDbVisualStyle
  2
ColorChange
 70
    16
177
     2
291
     1
 71
     2
176
     1
 72
     2
176
     1
 73
     3
176
     1
 90
        0
176
     1
 40
-0.6
176
     1
 41
-30.0
176
     1
 62
     5
 63
     8
421
  8421504
176
     1
 74
     1
176
     1
 91
        4
176
     1
 64
     7
176
     1
 65
   257
176
     1
 75
     1
176
     1
175
     1
176
     1
 42
1.0
176
     1
 92
        8
176
     1
 66
     8
424
  8421504
176
     1
 43
1.0
176
     1
 76
     1
176
     1
 77
     6
176
     1
 78
     2
176
     1
 67
     7
176
     1
 79
     5
176
     1
170
     0
176
     1
171
     0
176
     1
290
     0
176
     1
 93
        1
176
     1
 44
0.0
176
     1
173
     0
176
     1
  0
VISUALSTYLE
  5
34
102
{ACAD_REACTORS
330
2A
102
}
330
2A
100
AcDbVisualStyle
  2
Conceptual
 70
     9
177
     2
291
     0
 71
     3
176
     1
 72
     2
176
     1
 73
     0
176
     1
 90
        0
176
     1
 40
-0.6
176
     1
 41
-30.0
176
     1
 62
     5
 63
     7
421
 16777215
176
     1
 74
     2
176
     1
 91
        2
176
     1
 64
     7
176
     1
 65
   257
176
     1
 75
     1
176
     1
175
     1
176
     1
 42
40.0
176
     1
 92
        8
176
     1
 66
     7
176
     1
 43
1.0
176
     1
 76
     1
176
     1
 77
     6
176
     1
 78
     2
176
     1
 67
     7
176
     1
 79
     3
176
     1
170
     0
176
     1
171
     0
176
     1
290
     0
176
     1
 93
        1
176
     1
 44
0.0
176
     1
173
     0
176
     1
  0
VISUALSTYLE
  5
35
102
{ACAD_REACTORS
330
2A
102
}
330
2A
100
AcDbVisualStyle
  2
Dim
 70
    11
177
     2
291
     1
 71
     2
176
     1
 72
     2
176
     1
 73
     0
176
     1
 90
        0
176
     1
 40
-0.6
176
     1
 41
-30.0
176
     1
 62
     5
 63
     7
421
 16777215
176
     1
 74
     1
176
     1
 91
        4
176
     1
 64
     7
176
     1
 65
   257
176
     1
 75
     1
176
     1
175
     1
176
     1
 42
1.0
176
     1
 92
        8
176
     1
 66
     7
176
     1
 43
1.0
176
     1
 76
     1
176
     1
 77
     6
176
     1
 78
     2
176
     1
 67
     7
176
     1
 79
     5
176
     1
170
     0
176
     1
171
     0
176
     1
290
     0
176
     1
 93
        1
176
     1
 44
-50.0
176
     1
173
     0
176
     1
  0
VISUALSTYLE
  5
39
102
{ACAD_REACTORS
330
2A
102
}
330
2A
100
AcDbVisualStyle
  2
Facepattern
 70
    15
177
     2
291
     1
 71
     2
176
     1
 72
     2
176
     1
 73
     0
176
     1
 90
        0
176
     1
 40
-0.6
176
     1
 41
-30.0
176
     1
 62
     5
 63
     7
421
 16777215
176
     1
 74
     1
176
     1
 91
        4
176
     1
 64
     7
176
     1
 65
   257
176
     1
 75
     1
176
     1
175
     1
176
     1
 42
1.0
176
     1
 92
        8
176
     1
 66
     7
176
     1
 43
1.0
176
     1
 76
     1
176
     1
 77
     6
176
     1
 78
     2
176
     1
 67
     7
176
     1
 79
     5
176
     1
170
     0
176
     1
171
     0
176
     1
290
     0
176
     1
 93
        1
176
     1
 44
0.0
176
     1
173
     0
176
     1
  0
VISUALSTYLE
  5
2B
102
{ACAD_REACTORS
330
2A
102
}
330
2A
100
AcDbVisualStyle
  2
Flat
 70
     0
177
     2
291
     1
 71
     2
176
     1
 72
     1
176
     1
 73
     1
176
     1
 90
        2
176
     1
 40
-0.6
176
     1
 41
30.0
176
     1
 62
     5
 63
     7
421
 16777215
176
     1
 74
     0
176
     1
 91
        4
176
     1
 64
     7
176
     1
 65
   257
176
     1
 75
     1
176
     1
175
     1
176
     1
 42
1.0
176
     1
 92
        8
176
     1
 66
     7
176
     1
 43
1.0
176
     1
 76
     1
176
     1
 77
     6
176
     1
 78
     2
176
     1
 67
     7
176
     1
 79
     5
176
     1
170
     0
176
     1
171
     0
176
     1
290
     0
176
     1
 93
       13
176
     1
 44
0.0
176
     1
173
     0
176
     1
  0
VISUALSTYLE
  5
2C
102
{ACAD_REACTORS
330
2A
102
}
330
2A
100
AcDbVisualStyle
  2
FlatWithEdges
 70
     1
177
     2
291
     1
 71
     2
176
     1
 72
     1
176
     1
 73
     1
176
     1
 90
        2
176
     1
 40
-0.6
176
     1
 41
30.0
176
     1
 62
     5
 63
     7
421
 16777215
176
     1
 74
     1
176
     1
 91
        4
176
     1
 64
     7
176
     1
 65
   257
176
     1
 75
     1
176
     1
175
     1
176
     1
 42
1.0
176
     1
 92
        0
176
     1
 66
   257
176
     1
 43
1.0
176
     1
 76
     1
176
     1
 77
     6
176
     1
 78
     2
176
     1
 67
     7
176
     1
 79
     5
176
     1
170
     0
176
     1
171
     0
176
     1
290
     0
176
     1
 93
       13
176
     1
 44
0.0
176
     1
173
     0
176
     1
  0
VISUALSTYLE
  5
2D
102
{ACAD_REACTORS
330
2A
102
}
330
2A
100
AcDbVisualStyle
  2
Gouraud
 70
     2
177
     2
291
     1
 71
     2
176
     1
 72
     2
176
     1
 73
     1
176
     1
 90
        2
176
     1
 40
-0.6
176
     1
 41
30.0
176
     1
 62
     5
 63
     7
421
 16777215
176
     1
 74
     0
176
     1
 91
        4
176
     1
 64
     7
176
     1
 65
   257
176
     1
 75
     1
176
     1
175
     1
176
     1
 42
1.0
176
     1
 92
        0
176
     1
 66
     7
176
     1
 43
1.0
176
     1
 76
     1
176
     1
 77
     6
176
     1
 78
     2
176
     1
 67
     7
176
     1
 79
     5
176
     1
170
     0
176
     1
171
     0
176
     1
290
     0
176
     1
 93
       13
176
     1
 44
0.0
176
     1
173
     0
176
     1
  0
VISUALSTYLE
  5
2E
102
{ACAD_REACTORS
330
2A
102
}
330
2A
100
AcDbVisualStyle
  2
GouraudWithEdges
 70
     3
177
     2
291
     1
 71
     2
176
     1
 72
     2
176
     1
 73
     1
176
     1
 90
        2
176
     1
 40
-0.6
176
     1
 41
30.0
176
     1
 62
     5
 63
     7
421
 16777215
176
     1
 74
     1
176
     1
 91
        4
176
     1
 64
     7
176
     1
 65
   257
176
     1
 75
     1
176
     1
175
     1
176
     1
 42
1.0
176
     1
 92
        0
176
     1
 66
   257
176
     1
 43
1.0
176
     1
 76
     1
176
     1
 77
     6
176
     1
 78
     2
176
     1
 67
     7
176
     1
 79
     5
176
     1
170
     0
176
     1
171
     0
176
     1
290
     0
176
     1
 93
       13
176
     1
 44
0.0
176
     1
173
     0
176
     1
  0
VISUALSTYLE
  5
38
102
{ACAD_REACTORS
330
2A
102
}
330
2A
100
AcDbVisualStyle
  2
Linepattern
 70
    14
177
     2
291
     1
 71
     2
176
     1
 72
     2
176
     1
 73
     0
176
     1
 90
        0
176
     1
 40
-0.6
176
     1
 41
-30.0
176
     1
 62
     5
 63
     7
421
 16777215
176
     1
 74
     1
176
     1
 91
        4
176
     1
 64
     7
176
     1
 65
   257
176
     1
 75
     7
176
     1
175
     7
176
     1
 42
1.0
176
     1
 92
        8
176
     1
 66
     7
176
     1
 43
1.0
176
     1
 76
     1
176
     1
 77
     6
176
     1
 78
     2
176
     1
 67
     7
176
     1
 79
     5
176
     1
170
     0
176
     1
171
     0
176
     1
290
     0
176
     1
 93
        1
176
     1
 44
0.0
176
     1
173
     0
176
     1
  0
VISUALSTYLE
  5
33
102
{ACAD_REACTORS
330
2A
102
}
330
2A
100
AcDbVisualStyle
  2
Realistic
 70
     8
177
     2
291
     0
 71
     2
176
     1
 72
     2
176
     1
 73
     0
176
     1
 90
        0
176
     1
 40
-0.6
176
     1
 41
-30.0
176
     1
 62
     5
 63
     7
421
 16777215
176
     1
 74
     1
176
     1
 91
        0
176
     1
 64
     7
176
     1
 65
   257
176
     1
 75
     1
176
     1
175
     1
176
     1
 42
1.0
176
     1
 92
        8
176
     1
 66
     8
424
  7895160
176
     1
 43
1.0
176
     1
 76
     1
176
     1
 77
     6
176
     1
 78
     2
176
     1
 67
     7
176
     1
 79
     5
176
     1
170
     0
176
     1
171
     0
176
     1
290
     0
176
     1
 93
       13
176
     1
 44
0.0
176
     1
173
     0
176
     1
  0
VISUALSTYLE
  5
37
102
{ACAD_REACTORS
330
2A
102
}
330
2A
100
AcDbVisualStyle
  2
Thicken
 70
    13
177
     2
291
     1
 71
     2
176
     1
 72
     2
176
     1
 73
     0
176
     1
 90
        0
176
     1
 40
-0.6
176
     1
 41
-30.0
176
     1
 62
     5
 63
     7
421
 16777215
176
     1
 74
     1
176
     1
 91
        4
176
     1
 64
     7
176
     1
 65
   257
176
     1
 75
     1
176
     1
175
     1
176
     1
 42
1.0
176
     1
 92
       12
176
     1
 66
     7
176
     1
 43
1.0
176
     1
 76
     1
176
     1
 77
     6
176
     1
 78
     2
176
     1
 67
     7
176
     1
 79
     5
176
     1
170
     0
176
     1
171
     0
176
     1
290
     0
176
     1
 93
        1
176
     1
 44
0.0
176
     1
173
     0
176
     1
  0
ENDSEC
  0
EOF
