  0
SECTION
  2
HEADER
  9
$ACADVER
  1
AC1024
  9
$ACADMAINTVER
 70
   226
  9
$DWGCODEPAGE
  3
ANSI_932
  9
$INSBASE
 10
0.0
 20
0.0
 30
0.0
  9
$EXTMIN
 10
1.000000000000000E+20
 20
1.000000000000000E+20
 30
1.000000000000000E+20
  9
$EXTMAX
 10
-1.000000000000000E+20
 20
-1.000000000000000E+20
 30
-1.000000000000000E+20
  9
$LIMMIN
 10
0.0
 20
0.0
  9
$LIMMAX
 10
12.0
 20
9.0
  9
$ORTHOMODE
 70
     0
  9
$REGENMODE
 70
     1
  9
$FILLMODE
 70
     1
  9
$QTEXTMODE
 70
     0
  9
$MIRRTEXT
 70
     0
  9
$LTSCALE
 40
1.0
  9
$ATTMODE
 70
     1
  9
$TEXTSIZE
 40
0.2
  9
$TRACEWID
 40
0.05
  9
$TEXTSTYLE
  7
Standard
  9
$CLAYER
  8
0
  9
$CELTYPE
  6
ByLayer
  9
$CECOLOR
 62
   256
  9
$CELTSCALE
 40
1.0
  9
$DISPSILH
 70
     0
  9
$DIMSCALE
 40
1.0
  9
$DIMASZ
 40
0.18
  9
$DIMEXO
 40
0.0625
  9
$DIMDLI
 40
0.38
  9
$DIMRND
 40
0.0
  9
$DIMDLE
 40
0.0
  9
$DIMEXE
 40
0.18
  9
$DIMTP
 40
0.0
  9
$DIMTM
 40
0.0
  9
$DIMTXT
 40
0.18
  9
$DIMCEN
 40
0.09
  9
$DIMTSZ
 40
0.0
  9
$DIMTOL
 70
     0
  9
$DIMLIM
 70
     0
  9
$DIMTIH
 70
     1
  9
$DIMTOH
 70
     1
  9
$DIMSE1
 70
     0
  9
$DIMSE2
 70
     0
  9
$DIMTAD
 70
     0
  9
$DIMZIN
 70
     0
  9
$DIMBLK
  1

  9
$DIMASO
 70
     1
  9
$DIMSHO
 70
     1
  9
$DIMPOST
  1

  9
$DIMAPOST
  1

  9
$DIMALT
 70
     0
  9
$DIMALTD
 70
     2
  9
$DIMALTF
 40
25.4
  9
$DIMLFAC
 40
1.0
  9
$DIMTOFL
 70
     0
  9
$DIMTVP
 40
0.0
  9
$DIMTIX
 70
     0
  9
$DIMSOXD
 70
     0
  9
$DIMSAH
 70
     0
  9
$DIMBLK1
  1

  9
$DIMBLK2
  1

  9
$DIMSTYLE
  2
Standard
  9
$DIMCLRD
 70
     0
  9
$DIMCLRE
 70
     0
  9
$DIMCLRT
 70
     0
  9
$DIMTFAC
 40
1.0
  9
$DIMGAP
 40
0.09
  9
$DIMJUST
 70
     0
  9
$DIMSD1
 70
     0
  9
$DIMSD2
 70
     0
  9
$DIMTOLJ
 70
     1
  9
$DIMTZIN
 70
     0
  9
$DIMALTZ
 70
     0
  9
$DIMALTTZ
 70
     0
  9
$DIMUPT
 70
     0
  9
$DIMDEC
 70
     4
  9
$DIMTDEC
 70
     4
  9
$DIMALTU
 70
     2
  9
$DIMALTTD
 70
     2
  9
$DIMTXSTY
  7
Standard
  9
$DIMAUNIT
 70
     0
  9
$DIMADEC
 70
     0
  9
$DIMALTRND
 40
0.0
  9
$DIMAZIN
 70
     0
  9
$DIMDSEP
 70
    46
  9
$DIMATFIT
 70
     3
  9
$DIMFRAC
 70
     0
  9
$DIMLDRBLK
  1

  9
$DIMLUNIT
 70
     2
  9
$DIMLWD
 70
    -2
  9
$DIMLWE
 70
    -2
  9
$DIMTMOVE
 70
     0
  9
$DIMFXL
 40
1.0
  9
$DIMFXLON
 70
     0
  9
$DIMJOGANG
 40
0.7853981633974483
  9
$DIMTFILL
 70
     0
  9
$DIMTFILLCLR
 70
     0
  9
$DIMARCSYM
 70
     0
  9
$DIMLTYPE
  6

  9
$DIMLTEX1
  6

  9
$DIMLTEX2
  6

  9
$DIMTXTDIRECTION
 70
     0
  9
$LUNITS
 70
     2
  9
$LUPREC
 70
     4
  9
$SKETCHINC
 40
0.1
  9
$FILLETRAD
 40
0.0
  9
$AUNITS
 70
     0
  9
$AUPREC
 70
     0
  9
$MENU
  1
.
  9
$ELEVATION
 40
0.0
  9
$PELEVATION
 40
0.0
  9
$THICKNESS
 40
0.0
  9
$LIMCHECK
 70
     0
  9
$CHAMFERA
 40
0.0
  9
$CHAMFERB
 40
0.0
  9
$CHAMFERC
 40
0.0
  9
$CHAMFERD
 40
0.0
  9
$SKPOLY
 70
     0
  9
$TDCREATE
 40
2459569.488692129
  9
$TDUCREATE
 40
2459569.113692130
  9
$TDUPDATE
 40
2459569.488692129
  9
$TDUUPDATE
 40
2459569.113692130
  9
$TDINDWG
 40
0.0000000000
  9
$TDUSRTIMER
 40
0.0000000000
  9
$USRTIMER
 70
     1
  9
$ANGBASE
 50
0.0
  9
$ANGDIR
 70
     0
  9
$PDMODE
 70
     0
  9
$PDSIZE
 40
0.0
  9
$PLINEWID
 40
0.0
  9
$SPLFRAME
 70
     0
  9
$SPLINETYPE
 70
     6
  9
$SPLINESEGS
 70
     8
  9
$HANDSEED
  5
116
  9
$SURFTAB1
 70
     6
  9
$SURFTAB2
 70
     6
  9
$SURFTYPE
 70
     6
  9
$SURFU
 70
     6
  9
$SURFV
 70
     6
  9
$UCSBASE
  2

  9
$UCSNAME
  2

  9
$UCSORG
 10
0.0
 20
0.0
 30
0.0
  9
$UCSXDIR
 10
1.0
 20
0.0
 30
0.0
  9
$UCSYDIR
 10
0.0
 20
1.0
 30
0.0
  9
$UCSORTHOREF
  2

  9
$UCSORTHOVIEW
 70
     0
  9
$UCSORGTOP
 10
0.0
 20
0.0
 30
0.0
  9
$UCSORGBOTTOM
 10
0.0
 20
0.0
 30
0.0
  9
$UCSORGLEFT
 10
0.0
 20
0.0
 30
0.0
  9
$UCSORGRIGHT
 10
0.0
 20
0.0
 30
0.0
  9
$UCSORGFRONT
 10
0.0
 20
0.0
 30
0.0
  9
$UCSORGBACK
 10
0.0
 20
0.0
 30
0.0
  9
$PUCSBASE
  2

  9
$PUCSNAME
  2

  9
$PUCSORG
 10
0.0
 20
0.0
 30
0.0
  9
$PUCSXDIR
 10
1.0
 20
0.0
 30
0.0
  9
$PUCSYDIR
 10
0.0
 20
1.0
 30
0.0
  9
$PUCSORTHOREF
  2

  9
$PUCSORTHOVIEW
 70
     0
  9
$PUCSORGTOP
 10
0.0
 20
0.0
 30
0.0
  9
$PUCSORGBOTTOM
 10
0.0
 20
0.0
 30
0.0
  9
$PUCSORGLEFT
 10
0.0
 20
0.0
 30
0.0
  9
$PUCSORGRIGHT
 10
0.0
 20
0.0
 30
0.0
  9
$PUCSORGFRONT
 10
0.0
 20
0.0
 30
0.0
  9
$PUCSORGBACK
 10
0.0
 20
0.0
 30
0.0
  9
$USERI1
 70
     0
  9
$USERI2
 70
     0
  9
$USERI3
 70
     0
  9
$USERI4
 70
     0
  9
$USERI5
 70
     0
  9
$USERR1
 40
0.0
  9
$USERR2
 40
0.0
  9
$USERR3
 40
0.0
  9
$USERR4
 40
0.0
  9
$USERR5
 40
0.0
  9
$WORLDVIEW
 70
     1
  9
$SHADEDGE
 70
     3
  9
$SHADEDIF
 70
    70
  9
$TILEMODE
 70
     1
  9
$MAXACTVP
 70
    64
  9
$PINSBASE
 10
0.0
 20
0.0
 30
0.0
  9
$PLIMCHECK
 70
     0
  9
$PEXTMIN
 10
1.000000000000000E+20
 20
1.000000000000000E+20
 30
1.000000000000000E+20
  9
$PEXTMAX
 10
-1.000000000000000E+20
 20
-1.000000000000000E+20
 30
-1.000000000000000E+20
  9
$PLIMMIN
 10
0.0
 20
0.0
  9
$PLIMMAX
 10
12.0
 20
9.0
  9
$UNITMODE
 70
     0
  9
$VISRETAIN
 70
     1
  9
$PLINEGEN
 70
     0
  9
$PSLTSCALE
 70
     1
  9
$TREEDEPTH
 70
  3020
  9
$CMLSTYLE
  2
Standard
  9
$CMLJUST
 70
     0
  9
$CMLSCALE
 40
1.0
  9
$PROXYGRAPHICS
 70
     1
  9
$MEASUREMENT
 70
     0
  9
$CELWEIGHT
370
    -1
  9
$ENDCAPS
280
     0
  9
$JOINSTYLE
280
     0
  9
$LWDISPLAY
290
     1
  9
$INSUNITS
 70
     4
  9
$HYPERLINKBASE
  1

  9
$STYLESHEET
  1

  9
$XEDIT
290
     1
  9
$CEPSNTYPE
380
     0
  9
$PSTYLEMODE
290
     1
  9
$FINGERPRINTGUID
  2
{E47BF1FE-FFB7-094C-8FAF-D4D2A3A1F883}
  9
$VERSIONGUID
  2
{C2D6443B-8DE9-5146-B9F3-A9541D427A6B}
  9
$EXTNAMES
290
     1
  9
$PSVPSCALE
 40
0.0
  9
$OLESTARTUP
290
     0
  9
$SORTENTS
280
   127
  9
$INDEXCTL
280
     0
  9
$HIDETEXT
280
     1
  9
$XCLIPFRAME
280
     2
  9
$HALOGAP
280
     0
  9
$OBSCOLOR
 70
   257
  9
$OBSLTYPE
280
     0
  9
$INTERSECTIONDISPLAY
280
     0
  9
$INTERSECTIONCOLOR
 70
   257
  9
$DIMASSOC
280
     2
  9
$PROJECTNAME
  1

  9
$CAMERADISPLAY
290
     0
  9
$LENSLENGTH
 40
50.0
  9
$CAMERAHEIGHT
 40
0.0
  9
$STEPSPERSEC
 40
2.0
  9
$STEPSIZE
 40
6.0
  9
$3DDWFPREC
 40
2.0
  9
$PSOLWIDTH
 40
0.25
  9
$PSOLHEIGHT
 40
4.0
  9
$LOFTANG1
 40
1.570796326794896
  9
$LOFTANG2
 40
1.570796326794896
  9
$LOFTMAG1
 40
0.0
  9
$LOFTMAG2
 40
0.0
  9
$LOFTPARAM
 70
     7
  9
$LOFTNORMALS
280
     1
  9
$LATITUDE
 40
37.795
  9
$LONGITUDE
 40
-122.394
  9
$NORTHDIRECTION
 40
0.0
  9
$TIMEZONE
 70
 -8000
  9
$LIGHTGLYPHDISPLAY
280
     1
  9
$TILEMODELIGHTSYNCH
280
     1
  9
$CMATERIAL
347
11
  9
$SOLIDHIST
280
     0
  9
$SHOWHIST
280
     1
  9
$DWFFRAME
280
     2
  9
$DGNFRAME
280
     0
  9
$REALWORLDSCALE
290
     1
  9
$INTERFERECOLOR
 62
     1
  9
$INTERFEREOBJVS
345
33
  9
$INTERFEREVPVS
346
30
  9
$CSHADOW
280
     0
  9
$SHADOWPLANELOCATION
 40
0.0
  0
ENDSEC
  0
SECTION
  2
CLASSES
  0
CLASS
  1
ACDBDICTIONARYWDFLT
  2
AcDbDictionaryWithDefault
  3
ObjectDBX Classes
 90
        0
 91
        1
280
     0
281
     0
  0
CLASS
  1
MATERIAL
  2
AcDbMaterial
  3
ObjectDBX Classes
 90
     1153
 91
        3
280
     0
281
     0
  0
CLASS
  1
VISUALSTYLE
  2
AcDbVisualStyle
  3
ObjectDBX Classes
 90
     4095
 91
       24
280
     0
281
     0
  0
CLASS
  1
SCALE
  2
AcDbScale
  3
ObjectDBX Classes
 90
     1153
 91
       17
280
     0
281
     0
  0
CLASS
  1
TABLESTYLE
  2
AcDbTableStyle
  3
ObjectDBX Classes
 90
     4095
 91
        1
280
     0
281
     0
  0
CLASS
  1
MLEADERSTYLE
  2
AcDbMLeaderStyle
  3
ACDB_MLEADERSTYLE_CLASS
 90
     4095
 91
        1
280
     0
281
     0
  0
CLASS
  1
ACDBSECTIONVIEWSTYLE
  2
AcDbSectionViewStyle
  3
ObjectDBX Classes
 90
     1025
 91
        1
280
     0
281
     0
  0
CLASS
  1
ACDBDETAILVIEWSTYLE
  2
AcDbDetailViewStyle
  3
ObjectDBX Classes
 90
     1025
 91
        1
280
     0
281
     0
  0
CLASS
  1
DICTIONARYVAR
  2
AcDbDictionaryVar
  3
ObjectDBX Classes
 90
        0
 91
        5
280
     0
281
     0
  0
CLASS
  1
CELLSTYLEMAP
  2
AcDbCellStyleMap
  3
ObjectDBX Classes
 90
     1152
 91
        1
280
     0
281
     0
  0
ENDSEC
  0
SECTION
  2
TABLES
  0
TABLE
  2
VPORT
  5
8
330
0
100
AcDbSymbolTable
 70
     1
  0
VPORT
  5
57
330
8
100
AcDbSymbolTableRecord
100
AcDbViewportTableRecord
  2
*Active
 70
     0
 10
0.0
 20
0.0
 11
1.0
 21
1.0
 12
0.0
 22
0.0
 13
0.0
 23
0.0
 14
1.0
 24
1.0
 15
0.0
 25
0.0
 16
0.0
 26
0.0
 36
1.0
 17
104.9999999737534
 27
-148.4999999628701
 37
0.0
 40
302.939999924255
 41
0.7070707070707534
 42
50.0
 43
0.0
 44
0.0
 50
0.0
 51
0.0
 71
     0
 72
   100
 73
     1
 74
     0
 75
     1
 76
     0
 77
     0
 78
     0
281
     0
 65
     1
110
0.0
120
0.0
130
0.0
111
1.0
121
0.0
131
0.0
112
0.0
122
1.0
132
0.0
 79
     0
146
0.0
 60
     3
 61
     5
292
     1
282
     1
141
0.0
142
0.0
 63
   250
421
  3355443
  0
ENDTAB
  0
TABLE
  2
LTYPE
  5
5
330
0
100
AcDbSymbolTable
 70
     3
  0
LTYPE
  5
5B
330
5
100
AcDbSymbolTableRecord
100
AcDbLinetypeTableRecord
  2
ByBlock
 70
     0
  3

 72
    65
 73
     0
 40
0.0
  0
LTYPE
  5
5C
330
5
100
AcDbSymbolTableRecord
100
AcDbLinetypeTableRecord
  2
ByLayer
 70
     0
  3

 72
    65
 73
     0
 40
0.0
  0
LTYPE
  5
5D
330
5
100
AcDbSymbolTableRecord
100
AcDbLinetypeTableRecord
  2
Continuous
 70
     0
  3
Solid line
 72
    65
 73
     0
 40
0.0
  0
LTYPE
  5
B4
330
5
100
AcDbSymbolTableRecord
100
AcDbLinetypeTableRecord
  2
AI-Linetype-0
 70
     0
  3
Adobe Illustrator Linetype No. 0
 72
    65
 73
     2
 40
1.411111110758333
 49
0.7055555553791667
 74
     0
 49
-0.7055555553791667
 74
     0
  0
LTYPE
  5
B6
330
5
100
AcDbSymbolTableRecord
100
AcDbLinetypeTableRecord
  2
AI-Linetype-1
 70
     0
  3
Adobe Illustrator Linetype No. 1
 72
    65
 73
     2
 40
1.411111110758333
 49
0.7055555553791667
 74
     0
 49
-0.7055555553791667
 74
     0
  0
ENDTAB
  0
TABLE
  2
LAYER
  5
2
330
0
100
AcDbSymbolTable
 70
     2
  0
LAYER
  5
54
330
2
100
AcDbSymbolTableRecord
100
AcDbLayerTableRecord
  2
0
 70
     0
 62
     7
  6
Continuous
370
    -3
390
F
347
21
  0
LAYER
  5
78
330
2
100
AcDbSymbolTableRecord
100
AcDbLayerTableRecord
  2
レイヤー 1
 70
     0
 62
     7
  6
Continuous
370
     0
390
F
347
21
  0
ENDTAB
  0
TABLE
  2
STYLE
  5
3
330
0
100
AcDbSymbolTable
 70
     2
  0
STYLE
  5
55
330
3
100
AcDbSymbolTableRecord
100
AcDbTextStyleTableRecord
  2
Standard
 70
     0
 40
0.0
 41
1.0
 50
0.0
 71
     0
 42
0.2
  3
txt
  4

  0
STYLE
  5
5A
330
3
100
AcDbSymbolTableRecord
100
AcDbTextStyleTableRecord
  2
Annotative
 70
     0
 40
0.0
 41
1.0
 50
0.0
 71
     0
 42
0.2
  3
txt
  4

1001
AcadAnnotative
1000
AnnotativeData
1002
{
1070
     1
1070
     1
1002
}
  0
ENDTAB
  0
TABLE
  2
VIEW
  5
6
330
0
100
AcDbSymbolTable
 70
     0
  0
ENDTAB
  0
TABLE
  2
UCS
  5
7
330
0
100
AcDbSymbolTable
 70
     0
  0
ENDTAB
  0
TABLE
  2
APPID
  5
9
330
0
100
AcDbSymbolTable
 70
     2
  0
APPID
  5
56
330
9
100
AcDbSymbolTableRecord
100
AcDbRegAppTableRecord
  2
ACAD
 70
     0
  0
APPID
  5
5E
330
9
100
AcDbSymbolTableRecord
100
AcDbRegAppTableRecord
  2
AcadAnnotative
 70
     0
  0
ENDTAB
  0
TABLE
  2
DIMSTYLE
  5
A
330
0
100
AcDbSymbolTable
 70
     2
100
AcDbDimStyleTable
 71
     0
  0
DIMSTYLE
105
58
330
A
100
AcDbSymbolTableRecord
100
AcDbDimStyleTableRecord
  2
Standard
 70
     0
340
55
  0
DIMSTYLE
105
59
330
A
100
AcDbSymbolTableRecord
100
AcDbDimStyleTableRecord
  2
Annotative
 70
     0
340
55
1001
AcadAnnotative
1000
AnnotativeData
1002
{
1070
     1
1070
     1
1002
}
  0
ENDTAB
  0
TABLE
  2
BLOCK_RECORD
  5
1
330
0
100
AcDbSymbolTable
 70
    10
  0
BLOCK_RECORD
  5
70
330
1
100
AcDbSymbolTableRecord
100
AcDbBlockTableRecord
  2
*Model_Space
340
73
 70
     0
280
     1
281
     0
  0
BLOCK_RECORD
  5
6C
330
1
100
AcDbSymbolTableRecord
100
AcDbBlockTableRecord
  2
*Paper_Space
340
6F
 70
     0
280
     1
281
     0
  0
BLOCK_RECORD
  5
74
330
1
100
AcDbSymbolTableRecord
100
AcDbBlockTableRecord
  2
*Paper_Space0
340
77
 70
     0
280
     1
281
     0
  0
BLOCK_RECORD
  5
7B
330
1
100
AcDbSymbolTableRecord
100
AcDbBlockTableRecord
  2
Block_0
340
0
102
{BLKREFS
331
7C
102
}
 70
     0
280
     1
281
     0
  0
BLOCK_RECORD
  5
82
330
1
100
AcDbSymbolTableRecord
100
AcDbBlockTableRecord
  2
Block_1
340
0
102
{BLKREFS
331
83
102
}
 70
     0
280
     1
281
     0
  0
BLOCK_RECORD
  5
88
330
1
100
AcDbSymbolTableRecord
100
AcDbBlockTableRecord
  2
Block_2
340
0
102
{BLKREFS
331
89
102
}
 70
     0
280
     1
281
     0
  0
BLOCK_RECORD
  5
8C
330
1
100
AcDbSymbolTableRecord
100
AcDbBlockTableRecord
  2
Block_3
340
0
102
{BLKREFS
331
8D
102
}
 70
     0
280
     1
281
     0
  0
BLOCK_RECORD
  5
9B
330
1
100
AcDbSymbolTableRecord
100
AcDbBlockTableRecord
  2
Block_4
340
0
102
{BLKREFS
331
9C
102
}
 70
     0
280
     1
281
     0
  0
BLOCK_RECORD
  5
9F
330
1
100
AcDbSymbolTableRecord
100
AcDbBlockTableRecord
  2
Block_5
340
0
102
{BLKREFS
331
A0
102
}
 70
     0
280
     1
281
     0
  0
BLOCK_RECORD
  5
AD
330
1
100
AcDbSymbolTableRecord
100
AcDbBlockTableRecord
  2
Block_6
340
0
102
{BLKREFS
331
AE
102
}
 70
     0
280
     1
281
     0
  0
BLOCK_RECORD
  5
BD
330
1
100
AcDbSymbolTableRecord
100
AcDbBlockTableRecord
  2
Block_7
340
0
102
{BLKREFS
331
BE
102
}
 70
     0
280
     1
281
     0
  0
BLOCK_RECORD
  5
C1
330
1
100
AcDbSymbolTableRecord
100
AcDbBlockTableRecord
  2
Block_8
340
0
102
{BLKREFS
331
C2
102
}
 70
     0
280
     1
281
     0
  0
ENDTAB
  0
ENDSEC
  0
SECTION
  2
BLOCKS
  0
BLOCK
  5
71
330
70
100
AcDbEntity
  8
0
100
AcDbBlockBegin
  2
*Model_Space
 70
     0
 10
0.0
 20
0.0
 30
0.0
  3
*Model_Space
  1

  0
ENDBLK
  5
72
330
70
100
AcDbEntity
  8
0
100
AcDbBlockEnd
  0
BLOCK
  5
6D
330
6C
100
AcDbEntity
 67
     1
  8
0
100
AcDbBlockBegin
  2
*Paper_Space
 70
     0
 10
0.0
 20
0.0
 30
0.0
  3
*Paper_Space
  1

  0
ENDBLK
  5
6E
330
6C
100
AcDbEntity
 67
     1
  8
0
100
AcDbBlockEnd
  0
BLOCK
  5
75
330
74
100
AcDbEntity
 67
     1
  8
0
100
AcDbBlockBegin
  2
*Paper_Space0
 70
     0
 10
0.0
 20
0.0
 30
0.0
  3
*Paper_Space0
  1

  0
ENDBLK
  5
76
330
74
100
AcDbEntity
 67
     1
  8
0
100
AcDbBlockEnd
  0
BLOCK
  5
7D
330
7B
100
AcDbEntity
  8
0
100
AcDbBlockBegin
  2
Block_0
 70
     0
 10
0.0
 20
0.0
 30
0.0
  3
Block_0
  1

  0
LINE
  5
7F
330
7B
100
AcDbEntity
  8
レイヤー 1
 62
    18
420
        0
370
     9
100
AcDbLine
 10
92.36120382072998
 20
-155.5747651658726
 30
0.0
 11
92.36120382072998
 21
-135.5747651708723
 31
0.0
  0
LINE
  5
80
330
7B
100
AcDbEntity
  8
レイヤー 1
 62
    18
420
        0
370
     9
100
AcDbLine
 10
94.21639155117798
 20
-155.5813092439287
 30
0.0
 11
91.46137356590879
 21
-155.5813092439287
 31
0.0
  0
LINE
  5
81
330
7B
100
AcDbEntity
  8
レイヤー 1
 62
    18
420
        0
370
     9
100
AcDbLine
 10
96.91524014654445
 20
-135.6750267189265
 30
0.0
 11
91.46137269535676
 21
-135.6750267189265
 31
0.0
  0
INSERT
  5
83
330
7B
100
AcDbEntity
  8
レイヤー 1
100
AcDbBlockReference
  2
Block_1
 10
0.0
 20
0.0
 30
0.0
  0
INSERT
  5
89
330
7B
100
AcDbEntity
  8
レイヤー 1
100
AcDbBlockReference
  2
Block_2
 10
0.0
 20
0.0
 30
0.0
  0
SPLINE
  5
94
330
7B
100
AcDbEntity
  8
レイヤー 1
 62
    18
420
        0
370
     9
100
AcDbSpline
210
0.0
220
0.0
230
1.0
 70
     9
 71
     3
 72
    17
 73
    13
 74
     0
 42
0.0000000001
 43
0.0000000001
 40
0.0
 40
0.0
 40
0.0
 40
0.0
 40
1.0
 40
1.0
 40
1.0
 40
2.0
 40
2.0
 40
2.0
 40
3.0
 40
3.0
 40
3.0
 40
4.0
 40
4.0
 40
4.0
 40
4.0
 10
92.45525437388613
 20
-135.6746739411574
 30
0.0
 10
92.45525437388613
 20
-135.6195700536743
 30
0.0
 10
92.41048687502823
 20
-135.5747672770396
 30
0.0
 10
92.35534770976828
 20
-135.5747672770396
 30
0.0
 10
92.30059660005398
 20
-135.5747672770396
 30
0.0
 10
92.25579382341923
 20
-135.6195700536743
 30
0.0
 10
92.25579382341923
 20
-135.6746739411574
 30
0.0
 10
92.25579382341923
 20
-135.730483384178
 30
0.0
 10
92.30059660005398
 20
-135.7752861608128
 30
0.0
 10
92.35534770976828
 20
-135.7752861608128
 30
0.0
 10
92.41048687502823
 20
-135.7752861608128
 30
0.0
 10
92.45525437388613
 20
-135.730483384178
 30
0.0
 10
92.45525437388613
 20
-135.6746739411574
 30
0.0
  0
SPLINE
  5
95
330
7B
100
AcDbEntity
  8
レイヤー 1
 62
    18
420
        0
370
     9
100
AcDbSpline
210
0.0
220
0.0
230
1.0
 70
     9
 71
     3
 72
    17
 73
    13
 74
     0
 42
0.0000000001
 43
0.0000000001
 40
0.0
 40
0.0
 40
0.0
 40
0.0
 40
1.0
 40
1.0
 40
1.0
 40
2.0
 40
2.0
 40
2.0
 40
3.0
 40
3.0
 40
3.0
 40
4.0
 40
4.0
 40
4.0
 40
4.0
 10
92.45525437388613
 20
-155.5744300774375
 30
0.0
 10
92.45525437388613
 20
-155.5192909121775
 30
0.0
 10
92.41048687502823
 20
-155.4745234133197
 30
0.0
 10
92.35534770976828
 20
-155.4745234133197
 30
0.0
 10
92.30059660005398
 20
-155.4745234133197
 30
0.0
 10
92.25579382341923
 20
-155.5192909121775
 30
0.0
 10
92.25579382341923
 20
-155.5744300774375
 30
0.0
 10
92.25579382341923
 20
-155.6302395204581
 30
0.0
 10
92.30059660005398
 20
-155.675007019316
 30
0.0
 10
92.35534770976828
 20
-155.675007019316
 30
0.0
 10
92.41048687502823
 20
-155.675007019316
 30
0.0
 10
92.45525437388613
 20
-155.6302395204581
 30
0.0
 10
92.45525437388613
 20
-155.5744300774375
 30
0.0
  0
LINE
  5
96
330
7B
100
AcDbEntity
  8
レイヤー 1
 62
    18
420
        0
370
     9
100
AcDbLine
 10
94.21639155117798
 20
-150.6749610584685
 30
0.0
 11
91.46137356590879
 21
-150.6749610584685
 31
0.0
  0
SPLINE
  5
97
330
7B
100
AcDbEntity
  8
レイヤー 1
 62
    18
420
        0
370
     9
100
AcDbSpline
210
0.0
220
0.0
230
1.0
 70
     9
 71
     3
 72
    17
 73
    13
 74
     0
 42
0.0000000001
 43
0.0000000001
 40
0.0
 40
0.0
 40
0.0
 40
0.0
 40
1.0
 40
1.0
 40
1.0
 40
2.0
 40
2.0
 40
2.0
 40
3.0
 40
3.0
 40
3.0
 40
4.0
 40
4.0
 40
4.0
 40
4.0
 10
92.45525437388613
 20
-150.6680818919774
 30
0.0
 10
92.45525437388613
 20
-150.6129427267174
 30
0.0
 10
92.41048687502823
 20
-150.5681752278595
 30
0.0
 10
92.35534770976828
 20
-150.5681752278595
 30
0.0
 10
92.30059660005398
 20
-150.5681752278595
 30
0.0
 10
92.25579382341923
 20
-150.6129427267174
 30
0.0
 10
92.25579382341923
 20
-150.6680818919774
 30
0.0
 10
92.25579382341923
 20
-150.723891334998
 30
0.0
 10
92.30059660005398
 20
-150.7686588338559
 30
0.0
 10
92.35534770976828
 20
-150.7686588338559
 30
0.0
 10
92.41048687502823
 20
-150.7686588338559
 30
0.0
 10
92.45525437388613
 20
-150.723891334998
 30
0.0
 10
92.45525437388613
 20
-150.6680818919774
 30
0.0
  0
LINE
  5
98
330
7B
100
AcDbEntity
  8
レイヤー 1
 62
    18
420
        0
370
     9
100
AcDbLine
 10
93.95521268016583
 20
-156.5583079499766
 30
0.0
 11
94.73485154916447
 21
-156.1083751836776
 31
0.0
  0
LINE
  5
99
330
7B
100
AcDbEntity
  8
レイヤー 1
 62
    18
420
        0
370
     9
100
AcDbLine
 10
94.28456600509665
 20
-156.8876612749075
 30
0.0
 11
94.7344987713957
 21
-156.1083751836776
 31
0.0
  0
LINE
  5
9A
330
7B
100
AcDbEntity
  8
レイヤー 1
 62
    18
420
        0
370
     9
100
AcDbLine
 10
92.35552158169182
 20
-158.4876772807143
 30
0.0
 11
94.73485109995877
 21
-156.108374678244
 31
0.0
  0
INSERT
  5
9C
330
7B
100
AcDbEntity
  8
レイヤー 1
100
AcDbBlockReference
  2
Block_4
 10
0.0
 20
0.0
 30
0.0
  0
LINE
  5
A8
330
7B
100
AcDbEntity
  8
レイヤー 1
 62
    18
420
        0
370
     9
100
AcDbLine
 10
120.5937172317761
 20
-155.723984418596
 30
0.0
 11
103.6989429405748
 21
-155.723984418596
 31
0.0
  0
LINE
  5
A9
330
7B
100
AcDbEntity
  8
レイヤー 1
 62
    18
420
        0
370
     9
100
AcDbLine
 10
120.5937172317761
 20
-152.7701282998597
 30
0.0
 11
116.4265328559055
 21
-152.7701282998597
 31
0.0
  0
LINE
  5
AA
330
7B
100
AcDbEntity
  8
レイヤー 1
 62
    18
420
        0
370
     9
100
AcDbLine
 10
119.1503856024703
 20
-155.7517034695805
 30
0.0
 11
119.1503856024703
 21
-152.7517034703306
 31
0.0
  0
SPLINE
  5
AB
330
7B
100
AcDbEntity
  8
レイヤー 1
 62
    18
420
        0
370
     9
100
AcDbSpline
210
0.0
220
0.0
230
1.0
 70
     9
 71
     3
 72
    17
 73
    13
 74
     0
 42
0.0000000001
 43
0.0000000001
 40
0.0
 40
0.0
 40
0.0
 40
0.0
 40
1.0
 40
1.0
 40
1.0
 40
2.0
 40
2.0
 40
2.0
 40
3.0
 40
3.0
 40
3.0
 40
4.0
 40
4.0
 40
4.0
 40
4.0
 10
119.2411672662825
 20
-152.7728799664562
 30
0.0
 10
119.2411672662825
 20
-152.7177408011962
 30
0.0
 10
119.1963644896477
 20
-152.6729733023383
 30
0.0
 10
119.1412606021647
 20
-152.6729733023383
 30
0.0
 10
119.086830077463
 20
-152.6729733023383
 30
0.0
 10
119.0420272996963
 20
-152.7177408011962
 30
0.0
 10
119.0420272996963
 20
-152.7728799664562
 30
0.0
 10
119.0420272996963
 20
-152.8279838539392
 30
0.0
 10
119.086830077463
 20
-152.872786630574
 30
0.0
 10
119.1412606021647
 20
-152.872786630574
 30
0.0
 10
119.1963644896477
 20
-152.872786630574
 30
0.0
 10
119.2411672662825
 20
-152.8279838539392
 30
0.0
 10
119.2411672662825
 20
-152.7728799664562
 30
0.0
  0
SPLINE
  5
AC
330
7B
100
AcDbEntity
  8
レイヤー 1
 62
    18
420
        0
370
     9
100
AcDbSpline
210
0.0
220
0.0
230
1.0
 70
     9
 71
     3
 72
    17
 73
    13
 74
     0
 42
0.0000000001
 43
0.0000000001
 40
0.0
 40
0.0
 40
0.0
 40
0.0
 40
1.0
 40
1.0
 40
1.0
 40
2.0
 40
2.0
 40
2.0
 40
3.0
 40
3.0
 40
3.0
 40
4.0
 40
4.0
 40
4.0
 40
4.0
 10
119.2411672662825
 20
-155.7467033069053
 30
0.0
 10
119.2411672662825
 20
-155.6915994194222
 30
0.0
 10
119.1963644896477
 20
-155.6467966427875
 30
0.0
 10
119.1412606021647
 20
-155.6467966427875
 30
0.0
 10
119.086830077463
 20
-155.6467966427875
 30
0.0
 10
119.0420272996963
 20
-155.6915994194222
 30
0.0
 10
119.0420272996963
 20
-155.7467033069053
 30
0.0
 10
119.0420272996963
 20
-155.8018424721653
 30
0.0
 10
119.086830077463
 20
-155.8466099710232
 30
0.0
 10
119.1412606021647
 20
-155.8466099710232
 30
0.0
 10
119.1963644896477
 20
-155.8466099710232
 30
0.0
 10
119.2411672662825
 20
-155.8018424721653
 30
0.0
 10
119.2411672662825
 20
-155.7467033069053
 30
0.0
  0
INSERT
  5
AE
330
7B
100
AcDbEntity
  8
レイヤー 1
100
AcDbBlockReference
  2
Block_6
 10
0.0
 20
0.0
 30
0.0
  0
ENDBLK
  5
7E
330
7B
100
AcDbEntity
  8
0
100
AcDbBlockEnd
  0
BLOCK
  5
84
330
82
100
AcDbEntity
  8
0
100
AcDbBlockBegin
  2
Block_1
 70
     0
 10
0.0
 20
0.0
 30
0.0
  3
Block_1
  1

  0
SPLINE
  5
86
330
82
100
AcDbEntity
  8
レイヤー 1
100
AcDbSpline
210
0.0
220
0.0
230
1.0
 70
     9
 71
     3
 72
    53
 73
    49
 74
     0
 42
0.0000000001
 43
0.0000000001
 40
0.0
 40
0.0
 40
0.0
 40
0.0
 40
1.0
 40
1.0
 40
1.0
 40
2.0
 40
2.0
 40
2.0
 40
3.0
 40
3.0
 40
3.0
 40
4.0
 40
4.0
 40
4.0
 40
5.0
 40
5.0
 40
5.0
 40
6.0
 40
6.0
 40
6.0
 40
7.0
 40
7.0
 40
7.0
 40
8.0
 40
8.0
 40
8.0
 40
9.0
 40
9.0
 40
9.0
 40
10.0
 40
10.0
 40
10.0
 40
11.0
 40
11.0
 40
11.0
 40
12.0
 40
12.0
 40
12.0
 40
13.0
 40
13.0
 40
13.0
 40
14.0
 40
14.0
 40
14.0
 40
15.0
 40
15.0
 40
15.0
 40
16.0
 40
16.0
 40
16.0
 40
16.0
 10
91.58993053265808
 20
-153.1217474660598
 30
0.0
 10
91.58993053265808
 20
-153.199951133575
 30
0.0
 10
91.57287731000609
 20
-153.3015814503898
 30
0.0
 10
91.5094875530775
 20
-153.4032117672047
 30
0.0
 10
91.39941675232376
 20
-153.5768445796613
 30
0.0
 10
91.26833086911
 20
-153.5978596621214
 30
0.0
 10
91.16049938042168
 20
-153.6168076872902
 30
0.0
 10
91.16049938042168
 20
-153.6168076872902
 30
0.0
 10
91.16049938042168
 20
-153.3949435380401
 30
0.0
 10
91.16049938042168
 20
-153.3949435380401
 30
0.0
 10
91.3592813899206
 20
-153.3398220102761
 30
0.0
 10
91.38890921109375
 20
-153.2126979868704
 30
0.0
 10
91.38890921109375
 20
-153.1196804087687
 30
0.0
 10
91.38890921109375
 20
-152.9801540416161
 30
0.0
 10
91.2895182063443
 20
-152.827880821168
 30
0.0
 10
91.05680200631566
 20
-152.827880821168
 30
0.0
 10
90.8008314117616
 20
-152.827880821168
 30
0.0
 10
90.73106822818528
 20
-153.007714805498
 30
0.0
 10
90.73106822818528
 20
-153.1282931474818
 30
0.0
 10
90.73106822818528
 20
-153.1599880259461
 30
0.0
 10
90.73106822818528
 20
-153.3015814503898
 30
0.0
 10
90.86008705410788
 20
-153.3904649139093
 30
0.0
 10
90.86008705410788
 20
-153.3904649139093
 30
0.0
 10
90.84096677416477
 20
-153.5658202741085
 30
0.0
 10
90.84096677416477
 20
-153.5658202741085
 30
0.0
 10
90.84096677416477
 20
-153.5658202741085
 30
0.0
 10
89.9948513229874
 20
-153.4452419321248
 30
0.0
 10
89.9948513229874
 20
-153.4452419321248
 30
0.0
 10
89.9948513229874
 20
-153.4452419321248
 30
0.0
 10
89.9948513229874
 20
-152.6669948620068
 30
0.0
 10
89.9948513229874
 20
-152.6669948620068
 30
0.0
 10
89.9948513229874
 20
-152.6669948620068
 30
0.0
 10
90.18949921790401
 20
-152.6669948620068
 30
0.0
 10
90.18949921790401
 20
-152.6669948620068
 30
0.0
 10
90.18949921790401
 20
-152.6669948620068
 30
0.0
 10
90.18949921790401
 20
-153.282633425221
 30
0.0
 10
90.18949921790401
 20
-153.282633425221
 30
0.0
 10
90.18949921790401
 20
-153.282633425221
 30
0.0
 10
90.61255694349268
 20
-153.3480902394407
 30
0.0
 10
90.61255694349268
 20
-153.3480902394407
 30
0.0
 10
90.57862275296299
 20
-153.2867675398033
 30
0.0
 10
90.53848739055982
 20
-153.2040852481573
 30
0.0
 10
90.53848739055982
 20
-153.0859184730132
 30
0.0
 10
90.53848739055982
 20
-152.8320149357503
 30
0.0
 10
90.72469480153758
 20
-152.5949923663651
 30
0.0
 10
91.03768172637252
 20
-152.5949923663651
 30
0.0
 10
91.35514727533829
 20
-152.5949923663651
 30
0.0
 10
91.58993053265808
 20
-152.8192680824549
 30
0.0
 10
91.58993053265808
 20
-153.1217474660598
 30
0.0
  0
HATCH
  5
87
330
82
100
AcDbEntity
  8
レイヤー 1
 62
    18
420
        0
440
 33554687
100
AcDbHatch
 10
0.0
 20
0.0
 30
0.0
210
0.0
220
0.0
230
1.0
  2
SOLID
 70
     1
 71
     1
 91
        1
 92
        1
 93
        1
 72
     4
 94
        3
 73
     0
 74
     0
 95
       53
 96
       49
 40
0.0
 40
0.0
 40
0.0
 40
0.0
 40
1.0
 40
1.0
 40
1.0
 40
2.0
 40
2.0
 40
2.0
 40
3.0
 40
3.0
 40
3.0
 40
4.0
 40
4.0
 40
4.0
 40
5.0
 40
5.0
 40
5.0
 40
6.0
 40
6.0
 40
6.0
 40
7.0
 40
7.0
 40
7.0
 40
8.0
 40
8.0
 40
8.0
 40
9.0
 40
9.0
 40
9.0
 40
10.0
 40
10.0
 40
10.0
 40
11.0
 40
11.0
 40
11.0
 40
12.0
 40
12.0
 40
12.0
 40
13.0
 40
13.0
 40
13.0
 40
14.0
 40
14.0
 40
14.0
 40
15.0
 40
15.0
 40
15.0
 40
16.0
 40
16.0
 40
16.0
 40
16.0
 10
91.58993053265808
 20
-153.1217474660598
 10
91.58993053265808
 20
-153.199951133575
 10
91.57287731000609
 20
-153.3015814503898
 10
91.5094875530775
 20
-153.4032117672047
 10
91.39941675232376
 20
-153.5768445796613
 10
91.26833086911
 20
-153.5978596621214
 10
91.16049938042168
 20
-153.6168076872902
 10
91.16049938042168
 20
-153.6168076872902
 10
91.16049938042168
 20
-153.3949435380401
 10
91.16049938042168
 20
-153.3949435380401
 10
91.3592813899206
 20
-153.3398220102761
 10
91.38890921109375
 20
-153.2126979868704
 10
91.38890921109375
 20
-153.1196804087687
 10
91.38890921109375
 20
-152.9801540416161
 10
91.2895182063443
 20
-152.827880821168
 10
91.05680200631566
 20
-152.827880821168
 10
90.8008314117616
 20
-152.827880821168
 10
90.73106822818528
 20
-153.007714805498
 10
90.73106822818528
 20
-153.1282931474818
 10
90.73106822818528
 20
-153.1599880259461
 10
90.73106822818528
 20
-153.3015814503898
 10
90.86008705410788
 20
-153.3904649139093
 10
90.86008705410788
 20
-153.3904649139093
 10
90.84096677416477
 20
-153.5658202741085
 10
90.84096677416477
 20
-153.5658202741085
 10
90.84096677416477
 20
-153.5658202741085
 10
89.9948513229874
 20
-153.4452419321248
 10
89.9948513229874
 20
-153.4452419321248
 10
89.9948513229874
 20
-153.4452419321248
 10
89.9948513229874
 20
-152.6669948620068
 10
89.9948513229874
 20
-152.6669948620068
 10
89.9948513229874
 20
-152.6669948620068
 10
90.18949921790401
 20
-152.6669948620068
 10
90.18949921790401
 20
-152.6669948620068
 10
90.18949921790401
 20
-152.6669948620068
 10
90.18949921790401
 20
-153.282633425221
 10
90.18949921790401
 20
-153.282633425221
 10
90.18949921790401
 20
-153.282633425221
 10
90.61255694349268
 20
-153.3480902394407
 10
90.61255694349268
 20
-153.3480902394407
 10
90.57862275296299
 20
-153.2867675398033
 10
90.53848739055982
 20
-153.2040852481573
 10
90.53848739055982
 20
-153.0859184730132
 10
90.53848739055982
 20
-152.8320149357503
 10
90.72469480153758
 20
-152.5949923663651
 10
91.03768172637252
 20
-152.5949923663651
 10
91.35514727533829
 20
-152.5949923663651
 10
91.58993053265808
 20
-152.8192680824549
 10
91.58993053265808
 20
-153.1217474660598
 97
        0
 97
        1
330
86
 75
     2
 76
     1
 98
        1
 10
0.0
 20
0.0
450
        0
451
        0
460
0.0
461
0.0
452
        0
462
0.0
453
        0
470

  0
ENDBLK
  5
85
330
82
100
AcDbEntity
  8
0
100
AcDbBlockEnd
  0
BLOCK
  5
8A
330
88
100
AcDbEntity
  8
0
100
AcDbBlockBegin
  2
Block_2
 70
     0
 10
0.0
 20
0.0
 30
0.0
  3
Block_2
  1

  0
INSERT
  5
8D
330
88
100
AcDbEntity
  8
レイヤー 1
100
AcDbBlockReference
  2
Block_3
 10
0.0
 20
0.0
 30
0.0
  0
ENDBLK
  5
8B
330
88
100
AcDbEntity
  8
0
100
AcDbBlockEnd
  0
BLOCK
  5
8E
330
8C
100
AcDbEntity
  8
0
100
AcDbBlockBegin
  2
Block_3
 70
     0
 10
0.0
 20
0.0
 30
0.0
  3
Block_3
  1

  0
SPLINE
  5
90
330
8C
100
AcDbEntity
  8
レイヤー 1
100
AcDbSpline
210
0.0
220
0.0
230
1.0
 70
    11
 71
     3
 72
    26
 73
    22
 74
     0
 42
0.0000000001
 43
0.0000000001
 40
0.0
 40
0.0
 40
0.0
 40
0.0
 40
1.0
 40
1.0
 40
1.0
 40
2.0
 40
2.0
 40
2.0
 40
3.0
 40
3.0
 40
3.0
 40
4.0
 40
4.0
 40
4.0
 40
5.0
 40
5.0
 40
5.0
 40
6.0
 40
6.0
 40
6.0
 40
7.0
 40
7.0
 40
7.0
 40
7.0
 10
91.53911537425065
 20
-143.8241237704676
 30
0.0
 10
91.53911537425065
 20
-143.8241237704676
 30
0.0
 10
90.4347900164538
 20
-143.8241237704676
 30
0.0
 10
90.4347900164538
 20
-143.8241237704676
 30
0.0
 10
90.4347900164538
 20
-143.8241237704676
 30
0.0
 10
90.4347900164538
 20
-144.1541639179545
 30
0.0
 10
90.4347900164538
 20
-144.1541639179545
 30
0.0
 10
90.4347900164538
 20
-144.1541639179545
 30
0.0
 10
90.28682316536231
 20
-144.1541639179545
 30
0.0
 10
90.28682316536231
 20
-144.1541639179545
 30
0.0
 10
90.27200925477576
 20
-143.8220567131764
 30
0.0
 10
90.10905623832343
 20
-143.7755479241255
 30
0.0
 10
89.9948513229874
 20
-143.7459201029524
 30
0.0
 10
89.9948513229874
 20
-143.7459201029524
 30
0.0
 10
89.9948513229874
 20
-143.5998480543778
 30
0.0
 10
89.9948513229874
 20
-143.5998480543778
 30
0.0
 10
89.9948513229874
 20
-143.5998480543778
 30
0.0
 10
91.53911537425065
 20
-143.5998480543778
 30
0.0
 10
91.53911537425065
 20
-143.5998480543778
 30
0.0
 10
91.53911537425065
 20
-143.5998480543778
 30
0.0
 10
91.53911537425065
 20
-143.8241237704676
 30
0.0
 10
91.53911537425065
 20
-143.8241237704676
 30
0.0
  0
HATCH
  5
91
330
8C
100
AcDbEntity
  8
レイヤー 1
 62
    18
420
        0
440
 33554687
100
AcDbHatch
 10
0.0
 20
0.0
 30
0.0
210
0.0
220
0.0
230
1.0
  2
SOLID
 70
     1
 71
     1
 91
        1
 92
        1
 93
        1
 72
     4
 94
        3
 73
     0
 74
     0
 95
       26
 96
       22
 40
0.0
 40
0.0
 40
0.0
 40
0.0
 40
1.0
 40
1.0
 40
1.0
 40
2.0
 40
2.0
 40
2.0
 40
3.0
 40
3.0
 40
3.0
 40
4.0
 40
4.0
 40
4.0
 40
5.0
 40
5.0
 40
5.0
 40
6.0
 40
6.0
 40
6.0
 40
7.0
 40
7.0
 40
7.0
 40
7.0
 10
91.53911537425065
 20
-143.8241237704676
 10
91.53911537425065
 20
-143.8241237704676
 10
90.4347900164538
 20
-143.8241237704676
 10
90.4347900164538
 20
-143.8241237704676
 10
90.4347900164538
 20
-143.8241237704676
 10
90.4347900164538
 20
-144.1541639179545
 10
90.4347900164538
 20
-144.1541639179545
 10
90.4347900164538
 20
-144.1541639179545
 10
90.28682316536231
 20
-144.1541639179545
 10
90.28682316536231
 20
-144.1541639179545
 10
90.27200925477576
 20
-143.8220567131764
 10
90.10905623832343
 20
-143.7755479241255
 10
89.9948513229874
 20
-143.7459201029524
 10
89.9948513229874
 20
-143.7459201029524
 10
89.9948513229874
 20
-143.5998480543778
 10
89.9948513229874
 20
-143.5998480543778
 10
89.9948513229874
 20
-143.5998480543778
 10
91.53911537425065
 20
-143.5998480543778
 10
91.53911537425065
 20
-143.5998480543778
 10
91.53911537425065
 20
-143.5998480543778
 10
91.53911537425065
 20
-143.8241237704676
 10
91.53911537425065
 20
-143.8241237704676
 97
        0
 97
        1
330
90
 75
     2
 76
     1
 98
        1
 10
0.0
 20
0.0
450
        0
451
        0
460
0.0
461
0.0
452
        0
462
0.0
453
        0
470

  0
SPLINE
  5
92
330
8C
100
AcDbEntity
  8
レイヤー 1
100
AcDbSpline
210
0.0
220
0.0
230
1.0
 70
     9
 71
     3
 72
    53
 73
    49
 74
     0
 42
0.0000000001
 43
0.0000000001
 40
0.0
 40
0.0
 40
0.0
 40
0.0
 40
1.0
 40
1.0
 40
1.0
 40
2.0
 40
2.0
 40
2.0
 40
3.0
 40
3.0
 40
3.0
 40
4.0
 40
4.0
 40
4.0
 40
5.0
 40
5.0
 40
5.0
 40
6.0
 40
6.0
 40
6.0
 40
7.0
 40
7.0
 40
7.0
 40
8.0
 40
8.0
 40
8.0
 40
9.0
 40
9.0
 40
9.0
 40
10.0
 40
10.0
 40
10.0
 40
11.0
 40
11.0
 40
11.0
 40
12.0
 40
12.0
 40
12.0
 40
13.0
 40
13.0
 40
13.0
 40
14.0
 40
14.0
 40
14.0
 40
15.0
 40
15.0
 40
15.0
 40
16.0
 40
16.0
 40
16.0
 40
16.0
 10
91.58993053265808
 20
-142.6171345672103
 30
0.0
 10
91.58993053265808
 20
-142.6955104894997
 30
0.0
 10
91.57287731000609
 20
-142.7969685515403
 30
0.0
 10
91.5094875530775
 20
-142.8985988683552
 30
0.0
 10
91.39941675232376
 20
-143.0720594260375
 30
0.0
 10
91.26833086911
 20
-143.0932467632718
 30
0.0
 10
91.16049938042168
 20
-143.1121947884407
 30
0.0
 10
91.16049938042168
 20
-143.1121947884407
 30
0.0
 10
91.16049938042168
 20
-142.8901583844163
 30
0.0
 10
91.16049938042168
 20
-142.8901583844163
 30
0.0
 10
91.3592813899206
 20
-142.8350368566523
 30
0.0
 10
91.38890921109375
 20
-142.7080850880209
 30
0.0
 10
91.38890921109375
 20
-142.6150675099191
 30
0.0
 10
91.38890921109375
 20
-142.4753688879922
 30
0.0
 10
91.2895182063443
 20
-142.3230956675442
 30
0.0
 10
91.05680200631566
 20
-142.3230956675442
 30
0.0
 10
90.8008314117616
 20
-142.3230956675442
 30
0.0
 10
90.73106822818528
 20
-142.5029296518743
 30
0.0
 10
90.73106822818528
 20
-142.623507993858
 30
0.0
 10
90.73106822818528
 20
-142.6552028723223
 30
0.0
 10
90.73106822818528
 20
-142.7969685515403
 30
0.0
 10
90.86008705410788
 20
-142.8858520150598
 30
0.0
 10
90.86008705410788
 20
-142.8858520150598
 30
0.0
 10
90.84096677416477
 20
-143.0613796300333
 30
0.0
 10
90.84096677416477
 20
-143.0613796300333
 30
0.0
 10
90.84096677416477
 20
-143.0613796300333
 30
0.0
 10
89.9948513229874
 20
-142.9408012880495
 30
0.0
 10
89.9948513229874
 20
-142.9408012880495
 30
0.0
 10
89.9948513229874
 20
-142.9408012880495
 30
0.0
 10
89.9948513229874
 20
-142.1623819631573
 30
0.0
 10
89.9948513229874
 20
-142.1623819631573
 30
0.0
 10
89.9948513229874
 20
-142.1623819631573
 30
0.0
 10
90.18949921790401
 20
-142.1623819631573
 30
0.0
 10
90.18949921790401
 20
-142.1623819631573
 30
0.0
 10
90.18949921790401
 20
-142.1623819631573
 30
0.0
 10
90.18949921790401
 20
-142.7780205263714
 30
0.0
 10
90.18949921790401
 20
-142.7780205263714
 30
0.0
 10
90.18949921790401
 20
-142.7780205263714
 30
0.0
 10
90.61255694349268
 20
-142.8434773405912
 30
0.0
 10
90.61255694349268
 20
-142.8434773405912
 30
0.0
 10
90.57862275296299
 20
-142.7821546409537
 30
0.0
 10
90.53848739055982
 20
-142.699644604082
 30
0.0
 10
90.53848739055982
 20
-142.5813055741637
 30
0.0
 10
90.53848739055982
 20
-142.3274020369008
 30
0.0
 10
90.72469480153758
 20
-142.0903794675156
 30
0.0
 10
91.03768172637252
 20
-142.0903794675156
 30
0.0
 10
91.35514727533829
 20
-142.0903794675156
 30
0.0
 10
91.58993053265808
 20
-142.3146551836054
 30
0.0
 10
91.58993053265808
 20
-142.6171345672103
 30
0.0
  0
HATCH
  5
93
330
8C
100
AcDbEntity
  8
レイヤー 1
 62
    18
420
        0
440
 33554687
100
AcDbHatch
 10
0.0
 20
0.0
 30
0.0
210
0.0
220
0.0
230
1.0
  2
SOLID
 70
     1
 71
     1
 91
        1
 92
        1
 93
        1
 72
     4
 94
        3
 73
     0
 74
     0
 95
       53
 96
       49
 40
0.0
 40
0.0
 40
0.0
 40
0.0
 40
1.0
 40
1.0
 40
1.0
 40
2.0
 40
2.0
 40
2.0
 40
3.0
 40
3.0
 40
3.0
 40
4.0
 40
4.0
 40
4.0
 40
5.0
 40
5.0
 40
5.0
 40
6.0
 40
6.0
 40
6.0
 40
7.0
 40
7.0
 40
7.0
 40
8.0
 40
8.0
 40
8.0
 40
9.0
 40
9.0
 40
9.0
 40
10.0
 40
10.0
 40
10.0
 40
11.0
 40
11.0
 40
11.0
 40
12.0
 40
12.0
 40
12.0
 40
13.0
 40
13.0
 40
13.0
 40
14.0
 40
14.0
 40
14.0
 40
15.0
 40
15.0
 40
15.0
 40
16.0
 40
16.0
 40
16.0
 40
16.0
 10
91.58993053265808
 20
-142.6171345672103
 10
91.58993053265808
 20
-142.6955104894997
 10
91.57287731000609
 20
-142.7969685515403
 10
91.5094875530775
 20
-142.8985988683552
 10
91.39941675232376
 20
-143.0720594260375
 10
91.26833086911
 20
-143.0932467632718
 10
91.16049938042168
 20
-143.1121947884407
 10
91.16049938042168
 20
-143.1121947884407
 10
91.16049938042168
 20
-142.8901583844163
 10
91.16049938042168
 20
-142.8901583844163
 10
91.3592813899206
 20
-142.8350368566523
 10
91.38890921109375
 20
-142.7080850880209
 10
91.38890921109375
 20
-142.6150675099191
 10
91.38890921109375
 20
-142.4753688879922
 10
91.2895182063443
 20
-142.3230956675442
 10
91.05680200631566
 20
-142.3230956675442
 10
90.8008314117616
 20
-142.3230956675442
 10
90.73106822818528
 20
-142.5029296518743
 10
90.73106822818528
 20
-142.623507993858
 10
90.73106822818528
 20
-142.6552028723223
 10
90.73106822818528
 20
-142.7969685515403
 10
90.86008705410788
 20
-142.8858520150598
 10
90.86008705410788
 20
-142.8858520150598
 10
90.84096677416477
 20
-143.0613796300333
 10
90.84096677416477
 20
-143.0613796300333
 10
90.84096677416477
 20
-143.0613796300333
 10
89.9948513229874
 20
-142.9408012880495
 10
89.9948513229874
 20
-142.9408012880495
 10
89.9948513229874
 20
-142.9408012880495
 10
89.9948513229874
 20
-142.1623819631573
 10
89.9948513229874
 20
-142.1623819631573
 10
89.9948513229874
 20
-142.1623819631573
 10
90.18949921790401
 20
-142.1623819631573
 10
90.18949921790401
 20
-142.1623819631573
 10
90.18949921790401
 20
-142.1623819631573
 10
90.18949921790401
 20
-142.7780205263714
 10
90.18949921790401
 20
-142.7780205263714
 10
90.18949921790401
 20
-142.7780205263714
 10
90.61255694349268
 20
-142.8434773405912
 10
90.61255694349268
 20
-142.8434773405912
 10
90.57862275296299
 20
-142.7821546409537
 10
90.53848739055982
 20
-142.699644604082
 10
90.53848739055982
 20
-142.5813055741637
 10
90.53848739055982
 20
-142.3274020369008
 10
90.72469480153758
 20
-142.0903794675156
 10
91.03768172637252
 20
-142.0903794675156
 10
91.35514727533829
 20
-142.0903794675156
 10
91.58993053265808
 20
-142.3146551836054
 10
91.58993053265808
 20
-142.6171345672103
 97
        0
 97
        1
330
92
 75
     2
 76
     1
 98
        1
 10
0.0
 20
0.0
450
        0
451
        0
460
0.0
461
0.0
452
        0
462
0.0
453
        0
470

  0
ENDBLK
  5
8F
330
8C
100
AcDbEntity
  8
0
100
AcDbBlockEnd
  0
BLOCK
  5
9D
330
9B
100
AcDbEntity
  8
0
100
AcDbBlockBegin
  2
Block_4
 70
     0
 10
0.0
 20
0.0
 30
0.0
  3
Block_4
  1

  0
INSERT
  5
A0
330
9B
100
AcDbEntity
  8
レイヤー 1
100
AcDbBlockReference
  2
Block_5
 10
0.0
 20
0.0
 30
0.0
  0
ENDBLK
  5
9E
330
9B
100
AcDbEntity
  8
0
100
AcDbBlockEnd
  0
BLOCK
  5
A1
330
9F
100
AcDbEntity
  8
0
100
AcDbBlockBegin
  2
Block_5
 70
     0
 10
0.0
 20
0.0
 30
0.0
  3
Block_5
  1

  0
SPLINE
  5
A3
330
9F
100
AcDbEntity
  8
レイヤー 1
100
AcDbSpline
210
0.0
220
0.0
230
1.0
 70
     9
 71
     3
 72
    20
 73
    16
 74
     0
 42
0.0000000001
 43
0.0000000001
 40
0.0
 40
0.0
 40
0.0
 40
0.0
 40
1.0
 40
1.0
 40
1.0
 40
2.0
 40
2.0
 40
2.0
 40
3.0
 40
3.0
 40
3.0
 40
4.0
 40
4.0
 40
4.0
 40
5.0
 40
5.0
 40
5.0
 40
5.0
 10
91.13724498589624
 20
-159.2770995695557
 30
0.0
 10
91.13724498589624
 20
-159.2770995695557
 30
0.0
 10
90.69299992307328
 20
-159.2770995695557
 30
0.0
 10
90.69299992307328
 20
-159.2770995695557
 30
0.0
 10
90.69299992307328
 20
-159.2770995695557
 30
0.0
 10
90.69299992307328
 20
-159.7573458801995
 30
0.0
 10
90.69299992307328
 20
-159.7573458801995
 30
0.0
 10
90.69299992307328
 20
-159.7573458801995
 30
0.0
 10
91.13517792860511
 20
-159.7573458801995
 30
0.0
 10
91.13517792860511
 20
-159.7573458801995
 30
0.0
 10
91.23456893335456
 20
-159.7573458801995
 30
0.0
 10
91.36996118592488
 20
-159.6812092699755
 30
0.0
 10
91.36996118592488
 20
-159.5096435148101
 30
0.0
 10
91.36996118592488
 20
-159.4314398472949
 30
0.0
 10
91.33602699539515
 20
-159.2770995695557
 30
0.0
 10
91.13724498589624
 20
-159.2770995695557
 30
0.0
  0
SPLINE
  5
A4
330
9F
100
AcDbEntity
  8
レイヤー 1
100
AcDbSpline
210
0.0
220
0.0
230
1.0
 70
     9
 71
     3
 72
    44
 73
    40
 74
     0
 42
0.0000000001
 43
0.0000000001
 40
0.0
 40
0.0
 40
0.0
 40
0.0
 40
1.0
 40
1.0
 40
1.0
 40
2.0
 40
2.0
 40
2.0
 40
3.0
 40
3.0
 40
3.0
 40
4.0
 40
4.0
 40
4.0
 40
5.0
 40
5.0
 40
5.0
 40
6.0
 40
6.0
 40
6.0
 40
7.0
 40
7.0
 40
7.0
 40
8.0
 40
8.0
 40
8.0
 40
9.0
 40
9.0
 40
9.0
 40
10.0
 40
10.0
 40
10.0
 40
11.0
 40
11.0
 40
11.0
 40
12.0
 40
12.0
 40
12.0
 40
13.0
 40
13.0
 40
13.0
 40
13.0
 10
91.38908146586802
 20
-160.6096625032503
 30
0.0
 10
91.3656548165683
 20
-160.5652207714906
 30
0.0
 10
91.34463973410829
 20
-160.5125108105663
 30
0.0
 10
91.34240042204288
 20
-160.2816894130546
 30
0.0
 10
91.33826630746057
 20
-160.0384656717959
 30
0.0
 10
91.27901066511428
 20
-159.9688747429939
 30
0.0
 10
91.10124373807538
 20
-159.9688747429939
 30
0.0
 10
91.10124373807538
 20
-159.9688747429939
 30
0.0
 10
90.69299992307328
 20
-159.9688747429939
 30
0.0
 10
90.69299992307328
 20
-159.9688747429939
 30
0.0
 10
90.69299992307328
 20
-159.9688747429939
 30
0.0
 10
90.69299992307328
 20
-160.6096625032503
 30
0.0
 10
90.69299992307328
 20
-160.6096625032503
 30
0.0
 10
90.69299992307328
 20
-160.6096625032503
 30
0.0
 10
90.45821666575351
 20
-160.6096625032503
 30
0.0
 10
90.45821666575351
 20
-160.6096625032503
 30
0.0
 10
90.45821666575351
 20
-160.6096625032503
 30
0.0
 10
90.45821666575351
 20
-159.0655707067614
 30
0.0
 10
90.45821666575351
 20
-159.0655707067614
 30
0.0
 10
90.45821666575351
 20
-159.0655707067614
 30
0.0
 10
91.13311087131394
 20
-159.0655707067614
 30
0.0
 10
91.13311087131394
 20
-159.0655707067614
 30
0.0
 10
91.43972436950118
 20
-159.0655707067614
 30
0.0
 10
91.6068115005358
 20
-159.2367919523783
 30
0.0
 10
91.6068115005358
 20
-159.4927625469323
 30
0.0
 10
91.6068115005358
 20
-159.5434054505655
 30
0.0
 10
91.59837101659695
 20
-159.6260877422115
 30
0.0
 10
91.5539292848372
 20
-159.7063584670178
 30
0.0
 10
91.49484589726517
 20
-159.8100558411238
 30
0.0
 10
91.42921682827116
 20
-159.8290038662927
 30
0.0
 10
91.36789412863372
 20
-159.8458848341705
 30
0.0
 10
91.50535343849519
 20
-159.888259508639
 30
0.0
 10
91.57304956478034
 20
-159.9371798645296
 30
0.0
 10
91.57735593413692
 20
-160.2520615918814
 30
0.0
 10
91.58149004871921
 20
-160.522846097022
 30
0.0
 10
91.61749129654008
 20
-160.5548854850349
 30
0.0
 10
91.68518742282524
 20
-160.6096625032503
 30
0.0
 10
91.68518742282524
 20
-160.6096625032503
 30
0.0
 10
91.38908146586802
 20
-160.6096625032503
 30
0.0
 10
91.38908146586802
 20
-160.6096625032503
 30
0.0
  0
HATCH
  5
A5
330
9F
100
AcDbEntity
  8
レイヤー 1
 62
    18
420
        0
440
 33554687
100
AcDbHatch
 10
0.0
 20
0.0
 30
0.0
210
0.0
220
0.0
230
1.0
  2
SOLID
 70
     1
 71
     1
 91
        2
 92
        1
 93
        1
 72
     4
 94
        3
 73
     0
 74
     0
 95
       20
 96
       16
 40
0.0
 40
0.0
 40
0.0
 40
0.0
 40
1.0
 40
1.0
 40
1.0
 40
2.0
 40
2.0
 40
2.0
 40
3.0
 40
3.0
 40
3.0
 40
4.0
 40
4.0
 40
4.0
 40
5.0
 40
5.0
 40
5.0
 40
5.0
 10
91.13724498589624
 20
-159.2770995695557
 10
91.13724498589624
 20
-159.2770995695557
 10
90.69299992307328
 20
-159.2770995695557
 10
90.69299992307328
 20
-159.2770995695557
 10
90.69299992307328
 20
-159.2770995695557
 10
90.69299992307328
 20
-159.7573458801995
 10
90.69299992307328
 20
-159.7573458801995
 10
90.69299992307328
 20
-159.7573458801995
 10
91.13517792860511
 20
-159.7573458801995
 10
91.13517792860511
 20
-159.7573458801995
 10
91.23456893335456
 20
-159.7573458801995
 10
91.36996118592488
 20
-159.6812092699755
 10
91.36996118592488
 20
-159.5096435148101
 10
91.36996118592488
 20
-159.4314398472949
 10
91.33602699539515
 20
-159.2770995695557
 10
91.13724498589624
 20
-159.2770995695557
 97
        0
 97
        1
330
A3
 92
        1
 93
        1
 72
     4
 94
        3
 73
     0
 74
     0
 95
       44
 96
       40
 40
0.0
 40
0.0
 40
0.0
 40
0.0
 40
1.0
 40
1.0
 40
1.0
 40
2.0
 40
2.0
 40
2.0
 40
3.0
 40
3.0
 40
3.0
 40
4.0
 40
4.0
 40
4.0
 40
5.0
 40
5.0
 40
5.0
 40
6.0
 40
6.0
 40
6.0
 40
7.0
 40
7.0
 40
7.0
 40
8.0
 40
8.0
 40
8.0
 40
9.0
 40
9.0
 40
9.0
 40
10.0
 40
10.0
 40
10.0
 40
11.0
 40
11.0
 40
11.0
 40
12.0
 40
12.0
 40
12.0
 40
13.0
 40
13.0
 40
13.0
 40
13.0
 10
91.38908146586802
 20
-160.6096625032503
 10
91.3656548165683
 20
-160.5652207714906
 10
91.34463973410829
 20
-160.5125108105663
 10
91.34240042204288
 20
-160.2816894130546
 10
91.33826630746057
 20
-160.0384656717959
 10
91.27901066511428
 20
-159.9688747429939
 10
91.10124373807538
 20
-159.9688747429939
 10
91.10124373807538
 20
-159.9688747429939
 10
90.69299992307328
 20
-159.9688747429939
 10
90.69299992307328
 20
-159.9688747429939
 10
90.69299992307328
 20
-159.9688747429939
 10
90.69299992307328
 20
-160.6096625032503
 10
90.69299992307328
 20
-160.6096625032503
 10
90.69299992307328
 20
-160.6096625032503
 10
90.45821666575351
 20
-160.6096625032503
 10
90.45821666575351
 20
-160.6096625032503
 10
90.45821666575351
 20
-160.6096625032503
 10
90.45821666575351
 20
-159.0655707067614
 10
90.45821666575351
 20
-159.0655707067614
 10
90.45821666575351
 20
-159.0655707067614
 10
91.13311087131394
 20
-159.0655707067614
 10
91.13311087131394
 20
-159.0655707067614
 10
91.43972436950118
 20
-159.0655707067614
 10
91.6068115005358
 20
-159.2367919523783
 10
91.6068115005358
 20
-159.4927625469323
 10
91.6068115005358
 20
-159.5434054505655
 10
91.59837101659695
 20
-159.6260877422115
 10
91.5539292848372
 20
-159.7063584670178
 10
91.49484589726517
 20
-159.8100558411238
 10
91.42921682827116
 20
-159.8290038662927
 10
91.36789412863372
 20
-159.8458848341705
 10
91.50535343849519
 20
-159.888259508639
 10
91.57304956478034
 20
-159.9371798645296
 10
91.57735593413692
 20
-160.2520615918814
 10
91.58149004871921
 20
-160.522846097022
 10
91.61749129654008
 20
-160.5548854850349
 10
91.68518742282524
 20
-160.6096625032503
 10
91.68518742282524
 20
-160.6096625032503
 10
91.38908146586802
 20
-160.6096625032503
 10
91.38908146586802
 20
-160.6096625032503
 97
        0
 97
        1
330
A4
 75
     2
 76
     1
 98
        1
 10
0.0
 20
0.0
450
        0
451
        0
460
0.0
461
0.0
452
        0
462
0.0
453
        0
470

  0
SPLINE
  5
A6
330
9F
100
AcDbEntity
  8
レイヤー 1
100
AcDbSpline
210
0.0
220
0.0
230
1.0
 70
    11
 71
     3
 72
    26
 73
    22
 74
     0
 42
0.0000000001
 43
0.0000000001
 40
0.0
 40
0.0
 40
0.0
 40
0.0
 40
1.0
 40
1.0
 40
1.0
 40
2.0
 40
2.0
 40
2.0
 40
3.0
 40
3.0
 40
3.0
 40
4.0
 40
4.0
 40
4.0
 40
5.0
 40
5.0
 40
5.0
 40
6.0
 40
6.0
 40
6.0
 40
7.0
 40
7.0
 40
7.0
 40
7.0
 10
92.27688257241689
 20
-160.6096625032503
 30
0.0
 10
92.27688257241689
 20
-160.6096625032503
 30
0.0
 10
92.27688257241689
 20
-159.5055094002278
 30
0.0
 10
92.27688257241689
 20
-159.5055094002278
 30
0.0
 10
92.27688257241689
 20
-159.5055094002278
 30
0.0
 10
91.94684242492995
 20
-159.5055094002278
 30
0.0
 10
91.94684242492995
 20
-159.5055094002278
 30
0.0
 10
91.94684242492995
 20
-159.5055094002278
 30
0.0
 10
91.94684242492995
 20
-159.357370294362
 30
0.0
 10
91.94684242492995
 20
-159.357370294362
 30
0.0
 10
92.27894962970804
 20
-159.3425563837755
 30
0.0
 10
92.32545841875891
 20
-159.1796033673231
 30
0.0
 10
92.35508623993206
 20
-159.0655707067614
 30
0.0
 10
92.35508623993206
 20
-159.0655707067614
 30
0.0
 10
92.50115828850665
 20
-159.0655707067614
 30
0.0
 10
92.50115828850665
 20
-159.0655707067614
 30
0.0
 10
92.50115828850665
 20
-159.0655707067614
 30
0.0
 10
92.50115828850665
 20
-160.6096625032503
 30
0.0
 10
92.50115828850665
 20
-160.6096625032503
 30
0.0
 10
92.50115828850665
 20
-160.6096625032503
 30
0.0
 10
92.27688257241689
 20
-160.6096625032503
 30
0.0
 10
92.27688257241689
 20
-160.6096625032503
 30
0.0
  0
HATCH
  5
A7
330
9F
100
AcDbEntity
  8
レイヤー 1
 62
    18
420
        0
440
 33554687
100
AcDbHatch
 10
0.0
 20
0.0
 30
0.0
210
0.0
220
0.0
230
1.0
  2
SOLID
 70
     1
 71
     1
 91
        1
 92
        1
 93
        1
 72
     4
 94
        3
 73
     0
 74
     0
 95
       26
 96
       22
 40
0.0
 40
0.0
 40
0.0
 40
0.0
 40
1.0
 40
1.0
 40
1.0
 40
2.0
 40
2.0
 40
2.0
 40
3.0
 40
3.0
 40
3.0
 40
4.0
 40
4.0
 40
4.0
 40
5.0
 40
5.0
 40
5.0
 40
6.0
 40
6.0
 40
6.0
 40
7.0
 40
7.0
 40
7.0
 40
7.0
 10
92.27688257241689
 20
-160.6096625032503
 10
92.27688257241689
 20
-160.6096625032503
 10
92.27688257241689
 20
-159.5055094002278
 10
92.27688257241689
 20
-159.5055094002278
 10
92.27688257241689
 20
-159.5055094002278
 10
91.94684242492995
 20
-159.5055094002278
 10
91.94684242492995
 20
-159.5055094002278
 10
91.94684242492995
 20
-159.5055094002278
 10
91.94684242492995
 20
-159.357370294362
 10
91.94684242492995
 20
-159.357370294362
 10
92.27894962970804
 20
-159.3425563837755
 10
92.32545841875891
 20
-159.1796033673231
 10
92.35508623993206
 20
-159.0655707067614
 10
92.35508623993206
 20
-159.0655707067614
 10
92.50115828850665
 20
-159.0655707067614
 10
92.50115828850665
 20
-159.0655707067614
 10
92.50115828850665
 20
-159.0655707067614
 10
92.50115828850665
 20
-160.6096625032503
 10
92.50115828850665
 20
-160.6096625032503
 10
92.50115828850665
 20
-160.6096625032503
 10
92.27688257241689
 20
-160.6096625032503
 10
92.27688257241689
 20
-160.6096625032503
 97
        0
 97
        1
330
A6
 75
     2
 76
     1
 98
        1
 10
0.0
 20
0.0
450
        0
451
        0
460
0.0
461
0.0
452
        0
462
0.0
453
        0
470

  0
ENDBLK
  5
A2
330
9F
100
AcDbEntity
  8
0
100
AcDbBlockEnd
  0
BLOCK
  5
AF
330
AD
100
AcDbEntity
  8
0
100
AcDbBlockBegin
  2
Block_6
 70
     0
 10
0.0
 20
0.0
 30
0.0
  3
Block_6
  1

  0
SPLINE
  5
B1
330
AD
100
AcDbEntity
  8
レイヤー 1
100
AcDbSpline
210
0.0
220
0.0
230
1.0
 70
     9
 71
     3
 72
    62
 73
    58
 74
     0
 42
0.0000000001
 43
0.0000000001
 40
0.0
 40
0.0
 40
0.0
 40
0.0
 40
1.0
 40
1.0
 40
1.0
 40
2.0
 40
2.0
 40
2.0
 40
3.0
 40
3.0
 40
3.0
 40
4.0
 40
4.0
 40
4.0
 40
5.0
 40
5.0
 40
5.0
 40
6.0
 40
6.0
 40
6.0
 40
7.0
 40
7.0
 40
7.0
 40
8.0
 40
8.0
 40
8.0
 40
9.0
 40
9.0
 40
9.0
 40
10.0
 40
10.0
 40
10.0
 40
11.0
 40
11.0
 40
11.0
 40
12.0
 40
12.0
 40
12.0
 40
13.0
 40
13.0
 40
13.0
 40
14.0
 40
14.0
 40
14.0
 40
15.0
 40
15.0
 40
15.0
 40
16.0
 40
16.0
 40
16.0
 40
17.0
 40
17.0
 40
17.0
 40
18.0
 40
18.0
 40
18.0
 40
19.0
 40
19.0
 40
19.0
 40
19.0
 10
118.803084280195
 20
-154.2703423008421
 30
0.0
 10
118.803084280195
 20
-154.3657714457835
 30
0.0
 10
118.782069197735
 20
-154.5835014804513
 30
0.0
 10
118.595689531983
 20
-154.7082139370174
 30
0.0
 10
118.4837239287124
 20
-154.7822834899502
 30
0.0
 10
118.3841606691887
 20
-154.7867621140811
 30
0.0
 10
118.2997558298
 20
-154.7908962286634
 30
0.0
 10
118.2997558298
 20
-154.7908962286634
 30
0.0
 10
118.2997558298
 20
-154.5707546271559
 30
0.0
 10
118.2997558298
 20
-154.5707546271559
 30
0.0
 10
118.3738253827329
 20
-154.5686875698647
 30
0.0
 10
118.6084363852784
 20
-154.5580077738605
 30
0.0
 10
118.6084363852784
 20
-154.2744764154244
 30
0.0
 10
118.6084363852784
 20
-154.1370171055629
 30
0.0
 10
118.5388454564764
 20
-153.9847438851149
 30
0.0
 10
118.3100911162558
 20
-153.9847438851149
 30
0.0
 10
118.1939913984029
 20
-153.9847438851149
 30
0.0
 10
118.1450710425123
 20
-154.0226399354527
 30
0.0
 10
118.113376164048
 20
-154.0543348139169
 30
0.0
 10
118.0393066111152
 20
-154.1287488763983
 30
0.0
 10
118.0269042673683
 20
-154.2451931037998
 30
0.0
 10
118.0269042673683
 20
-154.2999701220153
 30
0.0
 10
118.0269042673683
 20
-154.3189181471842
 30
0.0
 10
118.0289713246594
 20
-154.3547471402307
 30
0.0
 10
118.0331054392417
 20
-154.3823079041127
 30
0.0
 10
118.0331054392417
 20
-154.3823079041127
 30
0.0
 10
117.8384575443251
 20
-154.3823079041127
 30
0.0
 10
117.8384575443251
 20
-154.3823079041127
 30
0.0
 10
117.8446587161985
 20
-154.344411853775
 30
0.0
 10
117.8470702830382
 20
-154.3020371793064
 30
0.0
 10
117.8470702830382
 20
-154.2954914978844
 30
0.0
 10
117.8470702830382
 20
-154.2300346836647
 30
0.0
 10
117.8257106910297
 20
-154.0312526741658
 30
0.0
 10
117.5886881216445
 20
-154.0312526741658
 30
0.0
 10
117.4112657041541
 20
-154.0312526741658
 30
0.0
 10
117.3561441763901
 20
-154.1625108121538
 30
0.0
 10
117.3561441763901
 20
-154.2724093581333
 30
0.0
 10
117.3561441763901
 20
-154.5366481818519
 30
0.0
 10
117.5886881216445
 20
-154.5452609205651
 30
0.0
 10
117.6606906172862
 20
-154.5497395446959
 30
0.0
 10
117.6606906172862
 20
-154.5497395446959
 30
0.0
 10
117.6606906172862
 20
-154.7526556687771
 30
0.0
 10
117.6606906172862
 20
-154.7526556687771
 30
0.0
 10
117.5359781607202
 20
-154.744042930064
 30
0.0
 10
117.1594292241824
 20
-154.716482166182
 30
0.0
 10
117.1594292241824
 20
-154.2596625048379
 30
0.0
 10
117.1594292241824
 20
-154.0357312982966
 30
0.0
 10
117.2862087380395
 20
-153.7945746143291
 30
0.0
 10
117.582486949771
 20
-153.7945746143291
 30
0.0
 10
117.7685221059745
 20
-153.7945746143291
 30
0.0
 10
117.8512043976205
 20
-153.889659249722
 30
0.0
 10
117.912527097258
 20
-153.9888779996972
 30
0.0
 10
117.94008786114
 20
-153.9275553000598
 30
0.0
 10
118.0203585859463
 20
-153.7456542584386
 30
0.0
 10
118.2976887725089
 20
-153.7456542584386
 30
0.0
 10
118.6359971491604
 20
-153.7456542584386
 30
0.0
 10
118.803084280195
 20
-153.9930121142795
 30
0.0
 10
118.803084280195
 20
-154.2703423008421
 30
0.0
  0
HATCH
  5
B2
330
AD
100
AcDbEntity
  8
レイヤー 1
 62
    18
420
        0
440
 33554687
100
AcDbHatch
 10
0.0
 20
0.0
 30
0.0
210
0.0
220
0.0
230
1.0
  2
SOLID
 70
     1
 71
     1
 91
        1
 92
        1
 93
        1
 72
     4
 94
        3
 73
     0
 74
     0
 95
       62
 96
       58
 40
0.0
 40
0.0
 40
0.0
 40
0.0
 40
1.0
 40
1.0
 40
1.0
 40
2.0
 40
2.0
 40
2.0
 40
3.0
 40
3.0
 40
3.0
 40
4.0
 40
4.0
 40
4.0
 40
5.0
 40
5.0
 40
5.0
 40
6.0
 40
6.0
 40
6.0
 40
7.0
 40
7.0
 40
7.0
 40
8.0
 40
8.0
 40
8.0
 40
9.0
 40
9.0
 40
9.0
 40
10.0
 40
10.0
 40
10.0
 40
11.0
 40
11.0
 40
11.0
 40
12.0
 40
12.0
 40
12.0
 40
13.0
 40
13.0
 40
13.0
 40
14.0
 40
14.0
 40
14.0
 40
15.0
 40
15.0
 40
15.0
 40
16.0
 40
16.0
 40
16.0
 40
17.0
 40
17.0
 40
17.0
 40
18.0
 40
18.0
 40
18.0
 40
19.0
 40
19.0
 40
19.0
 40
19.0
 10
118.803084280195
 20
-154.2703423008421
 10
118.803084280195
 20
-154.3657714457835
 10
118.782069197735
 20
-154.5835014804513
 10
118.595689531983
 20
-154.7082139370174
 10
118.4837239287124
 20
-154.7822834899502
 10
118.3841606691887
 20
-154.7867621140811
 10
118.2997558298
 20
-154.7908962286634
 10
118.2997558298
 20
-154.7908962286634
 10
118.2997558298
 20
-154.5707546271559
 10
118.2997558298
 20
-154.5707546271559
 10
118.3738253827329
 20
-154.5686875698647
 10
118.6084363852784
 20
-154.5580077738605
 10
118.6084363852784
 20
-154.2744764154244
 10
118.6084363852784
 20
-154.1370171055629
 10
118.5388454564764
 20
-153.9847438851149
 10
118.3100911162558
 20
-153.9847438851149
 10
118.1939913984029
 20
-153.9847438851149
 10
118.1450710425123
 20
-154.0226399354527
 10
118.113376164048
 20
-154.0543348139169
 10
118.0393066111152
 20
-154.1287488763983
 10
118.0269042673683
 20
-154.2451931037998
 10
118.0269042673683
 20
-154.2999701220153
 10
118.0269042673683
 20
-154.3189181471842
 10
118.0289713246594
 20
-154.3547471402307
 10
118.0331054392417
 20
-154.3823079041127
 10
118.0331054392417
 20
-154.3823079041127
 10
117.8384575443251
 20
-154.3823079041127
 10
117.8384575443251
 20
-154.3823079041127
 10
117.8446587161985
 20
-154.344411853775
 10
117.8470702830382
 20
-154.3020371793064
 10
117.8470702830382
 20
-154.2954914978844
 10
117.8470702830382
 20
-154.2300346836647
 10
117.8257106910297
 20
-154.0312526741658
 10
117.5886881216445
 20
-154.0312526741658
 10
117.4112657041541
 20
-154.0312526741658
 10
117.3561441763901
 20
-154.1625108121538
 10
117.3561441763901
 20
-154.2724093581333
 10
117.3561441763901
 20
-154.5366481818519
 10
117.5886881216445
 20
-154.5452609205651
 10
117.6606906172862
 20
-154.5497395446959
 10
117.6606906172862
 20
-154.5497395446959
 10
117.6606906172862
 20
-154.7526556687771
 10
117.6606906172862
 20
-154.7526556687771
 10
117.5359781607202
 20
-154.744042930064
 10
117.1594292241824
 20
-154.716482166182
 10
117.1594292241824
 20
-154.2596625048379
 10
117.1594292241824
 20
-154.0357312982966
 10
117.2862087380395
 20
-153.7945746143291
 10
117.582486949771
 20
-153.7945746143291
 10
117.7685221059745
 20
-153.7945746143291
 10
117.8512043976205
 20
-153.889659249722
 10
117.912527097258
 20
-153.9888779996972
 10
117.94008786114
 20
-153.9275553000598
 10
118.0203585859463
 20
-153.7456542584386
 10
118.2976887725089
 20
-153.7456542584386
 10
118.6359971491604
 20
-153.7456542584386
 10
118.803084280195
 20
-153.9930121142795
 10
118.803084280195
 20
-154.2703423008421
 97
        0
 97
        1
330
B1
 75
     2
 76
     1
 98
        1
 10
0.0
 20
0.0
450
        0
451
        0
460
0.0
461
0.0
452
        0
462
0.0
453
        0
470

  0
ENDBLK
  5
B0
330
AD
100
AcDbEntity
  8
0
100
AcDbBlockEnd
  0
BLOCK
  5
BF
330
BD
100
AcDbEntity
  8
0
100
AcDbBlockBegin
  2
Block_7
 70
     0
 10
0.0
 20
0.0
 30
0.0
  3
Block_7
  1

  0
INSERT
  5
C2
330
BD
100
AcDbEntity
  8
レイヤー 1
100
AcDbBlockReference
  2
Block_8
 10
0.0
 20
0.0
 30
0.0
  0
ENDBLK
  5
C0
330
BD
100
AcDbEntity
  8
0
100
AcDbBlockEnd
  0
BLOCK
  5
C3
330
C1
100
AcDbEntity
  8
0
100
AcDbBlockBegin
  2
Block_8
 70
     0
 10
0.0
 20
0.0
 30
0.0
  3
Block_8
  1

  0
SPLINE
  5
C5
330
C1
100
AcDbEntity
  8
レイヤー 1
100
AcDbSpline
210
0.0
220
0.0
230
1.0
 70
     9
 71
     3
 72
   176
 73
   172
 74
     0
 42
0.0000000001
 43
0.0000000001
 40
0.0
 40
0.0
 40
0.0
 40
0.0
 40
1.0
 40
1.0
 40
1.0
 40
2.0
 40
2.0
 40
2.0
 40
3.0
 40
3.0
 40
3.0
 40
4.0
 40
4.0
 40
4.0
 40
5.0
 40
5.0
 40
5.0
 40
6.0
 40
6.0
 40
6.0
 40
7.0
 40
7.0
 40
7.0
 40
8.0
 40
8.0
 40
8.0
 40
9.0
 40
9.0
 40
9.0
 40
10.0
 40
10.0
 40
10.0
 40
11.0
 40
11.0
 40
11.0
 40
12.0
 40
12.0
 40
12.0
 40
13.0
 40
13.0
 40
13.0
 40
14.0
 40
14.0
 40
14.0
 40
15.0
 40
15.0
 40
15.0
 40
16.0
 40
16.0
 40
16.0
 40
17.0
 40
17.0
 40
17.0
 40
18.0
 40
18.0
 40
18.0
 40
19.0
 40
19.0
 40
19.0
 40
20.0
 40
20.0
 40
20.0
 40
21.0
 40
21.0
 40
21.0
 40
22.0
 40
22.0
 40
22.0
 40
23.0
 40
23.0
 40
23.0
 40
24.0
 40
24.0
 40
24.0
 40
25.0
 40
25.0
 40
25.0
 40
26.0
 40
26.0
 40
26.0
 40
27.0
 40
27.0
 40
27.0
 40
28.0
 40
28.0
 40
28.0
 40
29.0
 40
29.0
 40
29.0
 40
30.0
 40
30.0
 40
30.0
 40
31.0
 40
31.0
 40
31.0
 40
32.0
 40
32.0
 40
32.0
 40
33.0
 40
33.0
 40
33.0
 40
34.0
 40
34.0
 40
34.0
 40
35.0
 40
35.0
 40
35.0
 40
36.0
 40
36.0
 40
36.0
 40
37.0
 40
37.0
 40
37.0
 40
38.0
 40
38.0
 40
38.0
 40
39.0
 40
39.0
 40
39.0
 40
40.0
 40
40.0
 40
40.0
 40
41.0
 40
41.0
 40
41.0
 40
42.0
 40
42.0
 40
42.0
 40
43.0
 40
43.0
 40
43.0
 40
44.0
 40
44.0
 40
44.0
 40
45.0
 40
45.0
 40
45.0
 40
46.0
 40
46.0
 40
46.0
 40
47.0
 40
47.0
 40
47.0
 40
48.0
 40
48.0
 40
48.0
 40
49.0
 40
49.0
 40
49.0
 40
50.0
 40
50.0
 40
50.0
 40
51.0
 40
51.0
 40
51.0
 40
52.0
 40
52.0
 40
52.0
 40
53.0
 40
53.0
 40
53.0
 40
54.0
 40
54.0
 40
54.0
 40
55.0
 40
55.0
 40
55.0
 40
56.0
 40
56.0
 40
56.0
 40
57.0
 40
57.0
 40
57.0
 40
57.0
 10
107.0094889055393
 20
-140.7700466227936
 30
0.0
 10
107.0094889055393
 20
-140.7700466227936
 30
0.0
 10
106.8331000166945
 20
-140.7700466227936
 30
0.0
 10
106.8331000166945
 20
-140.7700466227936
 30
0.0
 10
106.8331000166945
 20
-140.7700466227936
 30
0.0
 10
106.8331000166945
 20
-140.9626274604191
 30
0.0
 10
106.8331000166945
 20
-140.9626274604191
 30
0.0
 10
106.8331000166945
 20
-140.9626274604191
 30
0.0
 10
107.0094889055393
 20
-140.9626274604191
 30
0.0
 10
107.0094889055393
 20
-140.9626274604191
 30
0.0
 10
107.0449733890374
 20
-140.9626274604191
 30
0.0
 10
107.0659884714974
 20
-140.9643500081617
 30
0.0
 10
107.2513346086038
 20
-140.9590101101595
 30
0.0
 10
107.4280680069971
 20
-140.9536702121574
 30
0.0
 10
107.4473605417145
 20
-140.9485025689295
 30
0.0
 10
107.4738877769509
 20
-140.9485025689295
 30
0.0
 10
107.4738877769509
 20
-140.975029804166
 30
0.0
 10
107.4687201337231
 20
-141.0473768093562
 30
0.0
 10
107.4687201337231
 20
-141.1250637125486
 30
0.0
 10
107.4687201337231
 20
-141.1250637125486
 30
0.0
 10
107.4687201337231
 20
-141.5982475774477
 30
0.0
 10
107.4687201337231
 20
-141.5982475774477
 30
0.0
 10
107.4687201337231
 20
-141.9706623994032
 30
0.0
 10
107.4704426814657
 20
-142.0113145261291
 30
0.0
 10
107.4649305286893
 20
-142.0395643091081
 30
0.0
 10
107.4490830894571
 20
-142.143778447537
 30
0.0
 10
107.3484863012879
 20
-142.1473957977965
 30
0.0
 10
107.2902641875871
 20
-142.1473957977965
 30
0.0
 10
107.2496120608612
 20
-142.1473957977965
 30
0.0
 10
107.2020697431647
 20
-142.1455009952796
 30
0.0
 10
107.1596950686962
 20
-142.1420558997943
 30
0.0
 10
107.1596950686962
 20
-142.1420558997943
 30
0.0
 10
107.0997504072528
 20
-141.9601548581731
 30
0.0
 10
107.0997504072528
 20
-141.9601548581731
 30
0.0
 10
107.136612928945
 20
-141.9672173039179
 30
0.0
 10
107.2161946346543
 20
-141.9813421954074
 30
0.0
 10
107.2585693091228
 20
-141.9813421954074
 30
0.0
 10
107.3061116268193
 20
-141.9813421954074
 30
0.0
 10
107.3061116268193
 20
-141.9565375079136
 30
0.0
 10
107.3061116268193
 20
-141.8912529484682
 30
0.0
 10
107.3061116268193
 20
-141.8912529484682
 30
0.0
 10
107.3061116268193
 20
-141.1055989230569
 30
0.0
 10
107.3061116268193
 20
-141.1055989230569
 30
0.0
 10
107.3061116268193
 20
-141.1055989230569
 30
0.0
 10
106.8331000166945
 20
-141.1055989230569
 30
0.0
 10
106.8331000166945
 20
-141.1055989230569
 30
0.0
 10
106.8331000166945
 20
-141.1055989230569
 30
0.0
 10
106.8331000166945
 20
-141.6264973604267
 30
0.0
 10
106.8331000166945
 20
-141.6264973604267
 30
0.0
 10
106.8331000166945
 20
-141.6264973604267
 30
0.0
 10
107.0077663577966
 20
-141.6264973604267
 30
0.0
 10
107.0077663577966
 20
-141.6264973604267
 30
0.0
 10
107.0077663577966
 20
-141.6264973604267
 30
0.0
 10
107.0077663577966
 20
-141.4516587645502
 30
0.0
 10
107.0077663577966
 20
-141.4516587645502
 30
0.0
 10
107.0077663577966
 20
-141.3968817463348
 30
0.0
 10
107.006043810054
 20
-141.3598469698684
 30
0.0
 10
107.0025987145688
 20
-141.2451252902095
 30
0.0
 10
107.0025987145688
 20
-141.2451252902095
 30
0.0
 10
107.1614176164388
 20
-141.2575276339564
 30
0.0
 10
107.1614176164388
 20
-141.2575276339564
 30
0.0
 10
107.1720974124431
 20
-141.2575276339564
 30
0.0
 10
107.2037922909074
 20
-141.2609727294417
 30
0.0
 10
107.2037922909074
 20
-141.2838826144186
 30
0.0
 10
107.2037922909074
 20
-141.3033474039103
 30
0.0
 10
107.1824326988988
 20
-141.3191948431424
 30
0.0
 10
107.1738199601857
 20
-141.3245347411445
 30
0.0
 10
107.1686523169578
 20
-141.4056667398222
 30
0.0
 10
107.1686523169578
 20
-141.4287488795733
 30
0.0
 10
107.1686523169578
 20
-141.4728461017845
 30
0.0
 10
107.1686523169578
 20
-141.4728461017845
 30
0.0
 10
107.1686523169578
 20
-141.5541503552364
 30
0.0
 10
107.1686523169578
 20
-141.5541503552364
 30
0.0
 10
107.1686523169578
 20
-141.5929076794455
 30
0.0
 10
107.1703748647004
 20
-141.6652546846357
 30
0.0
 10
107.177265055671
 20
-141.7853162622967
 30
0.0
 10
107.115597846485
 20
-141.7835937145541
 30
0.0
 10
107.0184461538009
 20
-141.7765312688093
 30
0.0
 10
106.9195719133743
 20
-141.7765312688093
 30
0.0
 10
106.9195719133743
 20
-141.7765312688093
 30
0.0
 10
106.4906575254606
 20
-141.7765312688093
 30
0.0
 10
106.4906575254606
 20
-141.7765312688093
 30
0.0
 10
106.4906575254606
 20
-141.7942735105583
 30
0.0
 10
106.4941026209459
 20
-141.864897968006
 30
0.0
 10
106.4941026209459
 20
-141.8790228594955
 30
0.0
 10
106.4941026209459
 20
-141.8790228594955
 30
0.0
 10
106.3173692225526
 20
-141.8790228594955
 30
0.0
 10
106.3173692225526
 20
-141.8790228594955
 30
0.0
 10
106.3246039230716
 20
-141.8276909367653
 30
0.0
 10
106.3263264708142
 20
-141.7112467093638
 30
0.0
 10
106.3263264708142
 20
-141.6564696911484
 30
0.0
 10
106.3263264708142
 20
-141.6564696911484
 30
0.0
 10
106.3263264708142
 20
-141.4781859997867
 30
0.0
 10
106.3263264708142
 20
-141.4781859997867
 30
0.0
 10
106.3263264708142
 20
-141.4075615423391
 30
0.0
 10
106.3263264708142
 20
-141.37931175936
 30
0.0
 10
106.322881375329
 20
-141.24150793995
 30
0.0
 10
106.322881375329
 20
-141.24150793995
 30
0.0
 10
106.4906575254606
 20
-141.2521877359543
 30
0.0
 10
106.4906575254606
 20
-141.2521877359543
 30
0.0
 10
106.5347547476718
 20
-141.2556328314396
 30
0.0
 10
106.5399223908997
 20
-141.2644178249269
 30
0.0
 10
106.5399223908997
 20
-141.2785427164165
 30
0.0
 10
106.5399223908997
 20
-141.3016248561676
 30
0.0
 10
106.5206298561823
 20
-141.310409849655
 30
0.0
 10
106.4975477164311
 20
-141.3228121934019
 30
0.0
 10
106.4941026209459
 20
-141.3632920653536
 30
0.0
 10
106.4906575254606
 20
-141.4146239880838
 30
0.0
 10
106.4906575254606
 20
-141.4745686495272
 30
0.0
 10
106.4906575254606
 20
-141.4745686495272
 30
0.0
 10
106.4906575254606
 20
-141.6264973604267
 30
0.0
 10
106.4906575254606
 20
-141.6264973604267
 30
0.0
 10
106.4906575254606
 20
-141.6264973604267
 30
0.0
 10
106.6636013188202
 20
-141.6264973604267
 30
0.0
 10
106.6636013188202
 20
-141.6264973604267
 30
0.0
 10
106.6636013188202
 20
-141.6264973604267
 30
0.0
 10
106.6636013188202
 20
-141.1055989230569
 30
0.0
 10
106.6636013188202
 20
-141.1055989230569
 30
0.0
 10
106.6636013188202
 20
-141.1055989230569
 30
0.0
 10
106.1761203076573
 20
-141.1055989230569
 30
0.0
 10
106.1761203076573
 20
-141.1055989230569
 30
0.0
 10
106.1761203076573
 20
-141.1055989230569
 30
0.0
 10
106.1761203076573
 20
-141.5770602402133
 30
0.0
 10
106.1761203076573
 20
-141.5770602402133
 30
0.0
 10
106.1761203076573
 20
-141.7377739446003
 30
0.0
 10
106.1761203076573
 20
-142.0061468829012
 30
0.0
 10
106.1833550081764
 20
-142.1561807912838
 30
0.0
 10
106.1833550081764
 20
-142.1561807912838
 30
0.0
 10
105.9942192660361
 20
-142.1561807912838
 30
0.0
 10
105.9942192660361
 20
-142.1561807912838
 30
0.0
 10
106.0104112148168
 20
-142.0449042071103
 30
0.0
 10
106.0121337625594
 20
-141.806503599531
 30
0.0
 10
106.0121337625594
 20
-141.7889336125562
 30
0.0
 10
106.0121337625594
 20
-141.7889336125562
 30
0.0
 10
106.0121337625594
 20
-141.1655435845003
 30
0.0
 10
106.0121337625594
 20
-141.1655435845003
 30
0.0
 10
106.0121337625594
 20
-141.0720092420757
 30
0.0
 10
106.0083441575257
 20
-140.975029804166
 30
0.0
 10
106.0083441575257
 20
-140.9485025689295
 30
0.0
 10
106.1726752121721
 20
-140.9572875624169
 30
0.0
 10
106.3811034890297
 20
-140.9626274604191
 30
0.0
 10
106.5471570914187
 20
-140.9626274604191
 30
0.0
 10
106.5471570914187
 20
-140.9626274604191
 30
0.0
 10
106.6636013188202
 20
-140.9626274604191
 30
0.0
 10
106.6636013188202
 20
-140.9626274604191
 30
0.0
 10
106.6636013188202
 20
-140.9626274604191
 30
0.0
 10
106.6636013188202
 20
-140.7700466227936
 30
0.0
 10
106.6636013188202
 20
-140.7700466227936
 30
0.0
 10
106.6636013188202
 20
-140.7700466227936
 30
0.0
 10
106.4782551817138
 20
-140.7700466227936
 30
0.0
 10
106.4782551817138
 20
-140.7700466227936
 30
0.0
 10
106.3066894265483
 20
-140.7700466227936
 30
0.0
 10
106.1054958502097
 20
-140.7700466227936
 30
0.0
 10
105.9466769483397
 20
-140.7790038710552
 30
0.0
 10
105.9466769483397
 20
-140.7790038710552
 30
0.0
 10
105.9466769483397
 20
-140.6200127144109
 30
0.0
 10
105.9466769483397
 20
-140.6200127144109
 30
0.0
 10
106.1619954161678
 20
-140.6360324084173
 30
0.0
 10
106.4586181374478
 20
-140.6360324084173
 30
0.0
 10
106.4782551817138
 20
-140.6360324084173
 30
0.0
 10
106.4782551817138
 20
-140.6360324084173
 30
0.0
 10
107.0094889055393
 20
-140.6360324084173
 30
0.0
 10
107.0094889055393
 20
-140.6360324084173
 30
0.0
 10
107.1862223039326
 20
-140.6360324084173
 30
0.0
 10
107.3626111927774
 20
-140.6324150581578
 30
0.0
 10
107.5393445911707
 20
-140.6200127144109
 30
0.0
 10
107.5393445911707
 20
-140.6200127144109
 30
0.0
 10
107.5393445911707
 20
-140.7790038710552
 30
0.0
 10
107.5393445911707
 20
-140.7790038710552
 30
0.0
 10
107.3856933325286
 20
-140.7700466227936
 30
0.0
 10
107.2372097171143
 20
-140.7700466227936
 30
0.0
 10
107.0094889055393
 20
-140.7700466227936
 30
0.0
  0
HATCH
  5
C6
330
C1
100
AcDbEntity
  8
レイヤー 1
 62
   250
420
  2299925
440
 33554687
100
AcDbHatch
 10
0.0
 20
0.0
 30
0.0
210
0.0
220
0.0
230
1.0
  2
SOLID
 70
     1
 71
     1
 91
        1
 92
        1
 93
        1
 72
     4
 94
        3
 73
     0
 74
     0
 95
      176
 96
      172
 40
0.0
 40
0.0
 40
0.0
 40
0.0
 40
1.0
 40
1.0
 40
1.0
 40
2.0
 40
2.0
 40
2.0
 40
3.0
 40
3.0
 40
3.0
 40
4.0
 40
4.0
 40
4.0
 40
5.0
 40
5.0
 40
5.0
 40
6.0
 40
6.0
 40
6.0
 40
7.0
 40
7.0
 40
7.0
 40
8.0
 40
8.0
 40
8.0
 40
9.0
 40
9.0
 40
9.0
 40
10.0
 40
10.0
 40
10.0
 40
11.0
 40
11.0
 40
11.0
 40
12.0
 40
12.0
 40
12.0
 40
13.0
 40
13.0
 40
13.0
 40
14.0
 40
14.0
 40
14.0
 40
15.0
 40
15.0
 40
15.0
 40
16.0
 40
16.0
 40
16.0
 40
17.0
 40
17.0
 40
17.0
 40
18.0
 40
18.0
 40
18.0
 40
19.0
 40
19.0
 40
19.0
 40
20.0
 40
20.0
 40
20.0
 40
21.0
 40
21.0
 40
21.0
 40
22.0
 40
22.0
 40
22.0
 40
23.0
 40
23.0
 40
23.0
 40
24.0
 40
24.0
 40
24.0
 40
25.0
 40
25.0
 40
25.0
 40
26.0
 40
26.0
 40
26.0
 40
27.0
 40
27.0
 40
27.0
 40
28.0
 40
28.0
 40
28.0
 40
29.0
 40
29.0
 40
29.0
 40
30.0
 40
30.0
 40
30.0
 40
31.0
 40
31.0
 40
31.0
 40
32.0
 40
32.0
 40
32.0
 40
33.0
 40
33.0
 40
33.0
 40
34.0
 40
34.0
 40
34.0
 40
35.0
 40
35.0
 40
35.0
 40
36.0
 40
36.0
 40
36.0
 40
37.0
 40
37.0
 40
37.0
 40
38.0
 40
38.0
 40
38.0
 40
39.0
 40
39.0
 40
39.0
 40
40.0
 40
40.0
 40
40.0
 40
41.0
 40
41.0
 40
41.0
 40
42.0
 40
42.0
 40
42.0
 40
43.0
 40
43.0
 40
43.0
 40
44.0
 40
44.0
 40
44.0
 40
45.0
 40
45.0
 40
45.0
 40
46.0
 40
46.0
 40
46.0
 40
47.0
 40
47.0
 40
47.0
 40
48.0
 40
48.0
 40
48.0
 40
49.0
 40
49.0
 40
49.0
 40
50.0
 40
50.0
 40
50.0
 40
51.0
 40
51.0
 40
51.0
 40
52.0
 40
52.0
 40
52.0
 40
53.0
 40
53.0
 40
53.0
 40
54.0
 40
54.0
 40
54.0
 40
55.0
 40
55.0
 40
55.0
 40
56.0
 40
56.0
 40
56.0
 40
57.0
 40
57.0
 40
57.0
 40
57.0
 10
107.0094889055393
 20
-140.7700466227936
 10
107.0094889055393
 20
-140.7700466227936
 10
106.8331000166945
 20
-140.7700466227936
 10
106.8331000166945
 20
-140.7700466227936
 10
106.8331000166945
 20
-140.7700466227936
 10
106.8331000166945
 20
-140.9626274604191
 10
106.8331000166945
 20
-140.9626274604191
 10
106.8331000166945
 20
-140.9626274604191
 10
107.0094889055393
 20
-140.9626274604191
 10
107.0094889055393
 20
-140.9626274604191
 10
107.0449733890374
 20
-140.9626274604191
 10
107.0659884714974
 20
-140.9643500081617
 10
107.2513346086038
 20
-140.9590101101595
 10
107.4280680069971
 20
-140.9536702121574
 10
107.4473605417145
 20
-140.9485025689295
 10
107.4738877769509
 20
-140.9485025689295
 10
107.4738877769509
 20
-140.975029804166
 10
107.4687201337231
 20
-141.0473768093562
 10
107.4687201337231
 20
-141.1250637125486
 10
107.4687201337231
 20
-141.1250637125486
 10
107.4687201337231
 20
-141.5982475774477
 10
107.4687201337231
 20
-141.5982475774477
 10
107.4687201337231
 20
-141.9706623994032
 10
107.4704426814657
 20
-142.0113145261291
 10
107.4649305286893
 20
-142.0395643091081
 10
107.4490830894571
 20
-142.143778447537
 10
107.3484863012879
 20
-142.1473957977965
 10
107.2902641875871
 20
-142.1473957977965
 10
107.2496120608612
 20
-142.1473957977965
 10
107.2020697431647
 20
-142.1455009952796
 10
107.1596950686962
 20
-142.1420558997943
 10
107.1596950686962
 20
-142.1420558997943
 10
107.0997504072528
 20
-141.9601548581731
 10
107.0997504072528
 20
-141.9601548581731
 10
107.136612928945
 20
-141.9672173039179
 10
107.2161946346543
 20
-141.9813421954074
 10
107.2585693091228
 20
-141.9813421954074
 10
107.3061116268193
 20
-141.9813421954074
 10
107.3061116268193
 20
-141.9565375079136
 10
107.3061116268193
 20
-141.8912529484682
 10
107.3061116268193
 20
-141.8912529484682
 10
107.3061116268193
 20
-141.1055989230569
 10
107.3061116268193
 20
-141.1055989230569
 10
107.3061116268193
 20
-141.1055989230569
 10
106.8331000166945
 20
-141.1055989230569
 10
106.8331000166945
 20
-141.1055989230569
 10
106.8331000166945
 20
-141.1055989230569
 10
106.8331000166945
 20
-141.6264973604267
 10
106.8331000166945
 20
-141.6264973604267
 10
106.8331000166945
 20
-141.6264973604267
 10
107.0077663577966
 20
-141.6264973604267
 10
107.0077663577966
 20
-141.6264973604267
 10
107.0077663577966
 20
-141.6264973604267
 10
107.0077663577966
 20
-141.4516587645502
 10
107.0077663577966
 20
-141.4516587645502
 10
107.0077663577966
 20
-141.3968817463348
 10
107.006043810054
 20
-141.3598469698684
 10
107.0025987145688
 20
-141.2451252902095
 10
107.0025987145688
 20
-141.2451252902095
 10
107.1614176164388
 20
-141.2575276339564
 10
107.1614176164388
 20
-141.2575276339564
 10
107.1720974124431
 20
-141.2575276339564
 10
107.2037922909074
 20
-141.2609727294417
 10
107.2037922909074
 20
-141.2838826144186
 10
107.2037922909074
 20
-141.3033474039103
 10
107.1824326988988
 20
-141.3191948431424
 10
107.1738199601857
 20
-141.3245347411445
 10
107.1686523169578
 20
-141.4056667398222
 10
107.1686523169578
 20
-141.4287488795733
 10
107.1686523169578
 20
-141.4728461017845
 10
107.1686523169578
 20
-141.4728461017845
 10
107.1686523169578
 20
-141.5541503552364
 10
107.1686523169578
 20
-141.5541503552364
 10
107.1686523169578
 20
-141.5929076794455
 10
107.1703748647004
 20
-141.6652546846357
 10
107.177265055671
 20
-141.7853162622967
 10
107.115597846485
 20
-141.7835937145541
 10
107.0184461538009
 20
-141.7765312688093
 10
106.9195719133743
 20
-141.7765312688093
 10
106.9195719133743
 20
-141.7765312688093
 10
106.4906575254606
 20
-141.7765312688093
 10
106.4906575254606
 20
-141.7765312688093
 10
106.4906575254606
 20
-141.7942735105583
 10
106.4941026209459
 20
-141.864897968006
 10
106.4941026209459
 20
-141.8790228594955
 10
106.4941026209459
 20
-141.8790228594955
 10
106.3173692225526
 20
-141.8790228594955
 10
106.3173692225526
 20
-141.8790228594955
 10
106.3246039230716
 20
-141.8276909367653
 10
106.3263264708142
 20
-141.7112467093638
 10
106.3263264708142
 20
-141.6564696911484
 10
106.3263264708142
 20
-141.6564696911484
 10
106.3263264708142
 20
-141.4781859997867
 10
106.3263264708142
 20
-141.4781859997867
 10
106.3263264708142
 20
-141.4075615423391
 10
106.3263264708142
 20
-141.37931175936
 10
106.322881375329
 20
-141.24150793995
 10
106.322881375329
 20
-141.24150793995
 10
106.4906575254606
 20
-141.2521877359543
 10
106.4906575254606
 20
-141.2521877359543
 10
106.5347547476718
 20
-141.2556328314396
 10
106.5399223908997
 20
-141.2644178249269
 10
106.5399223908997
 20
-141.2785427164165
 10
106.5399223908997
 20
-141.3016248561676
 10
106.5206298561823
 20
-141.310409849655
 10
106.4975477164311
 20
-141.3228121934019
 10
106.4941026209459
 20
-141.3632920653536
 10
106.4906575254606
 20
-141.4146239880838
 10
106.4906575254606
 20
-141.4745686495272
 10
106.4906575254606
 20
-141.4745686495272
 10
106.4906575254606
 20
-141.6264973604267
 10
106.4906575254606
 20
-141.6264973604267
 10
106.4906575254606
 20
-141.6264973604267
 10
106.6636013188202
 20
-141.6264973604267
 10
106.6636013188202
 20
-141.6264973604267
 10
106.6636013188202
 20
-141.6264973604267
 10
106.6636013188202
 20
-141.1055989230569
 10
106.6636013188202
 20
-141.1055989230569
 10
106.6636013188202
 20
-141.1055989230569
 10
106.1761203076573
 20
-141.1055989230569
 10
106.1761203076573
 20
-141.1055989230569
 10
106.1761203076573
 20
-141.1055989230569
 10
106.1761203076573
 20
-141.5770602402133
 10
106.1761203076573
 20
-141.5770602402133
 10
106.1761203076573
 20
-141.7377739446003
 10
106.1761203076573
 20
-142.0061468829012
 10
106.1833550081764
 20
-142.1561807912838
 10
106.1833550081764
 20
-142.1561807912838
 10
105.9942192660361
 20
-142.1561807912838
 10
105.9942192660361
 20
-142.1561807912838
 10
106.0104112148168
 20
-142.0449042071103
 10
106.0121337625594
 20
-141.806503599531
 10
106.0121337625594
 20
-141.7889336125562
 10
106.0121337625594
 20
-141.7889336125562
 10
106.0121337625594
 20
-141.1655435845003
 10
106.0121337625594
 20
-141.1655435845003
 10
106.0121337625594
 20
-141.0720092420757
 10
106.0083441575257
 20
-140.975029804166
 10
106.0083441575257
 20
-140.9485025689295
 10
106.1726752121721
 20
-140.9572875624169
 10
106.3811034890297
 20
-140.9626274604191
 10
106.5471570914187
 20
-140.9626274604191
 10
106.5471570914187
 20
-140.9626274604191
 10
106.6636013188202
 20
-140.9626274604191
 10
106.6636013188202
 20
-140.9626274604191
 10
106.6636013188202
 20
-140.9626274604191
 10
106.6636013188202
 20
-140.7700466227936
 10
106.6636013188202
 20
-140.7700466227936
 10
106.6636013188202
 20
-140.7700466227936
 10
106.4782551817138
 20
-140.7700466227936
 10
106.4782551817138
 20
-140.7700466227936
 10
106.3066894265483
 20
-140.7700466227936
 10
106.1054958502097
 20
-140.7700466227936
 10
105.9466769483397
 20
-140.7790038710552
 10
105.9466769483397
 20
-140.7790038710552
 10
105.9466769483397
 20
-140.6200127144109
 10
105.9466769483397
 20
-140.6200127144109
 10
106.1619954161678
 20
-140.6360324084173
 10
106.4586181374478
 20
-140.6360324084173
 10
106.4782551817138
 20
-140.6360324084173
 10
106.4782551817138
 20
-140.6360324084173
 10
107.0094889055393
 20
-140.6360324084173
 10
107.0094889055393
 20
-140.6360324084173
 10
107.1862223039326
 20
-140.6360324084173
 10
107.3626111927774
 20
-140.6324150581578
 10
107.5393445911707
 20
-140.6200127144109
 10
107.5393445911707
 20
-140.6200127144109
 10
107.5393445911707
 20
-140.7790038710552
 10
107.5393445911707
 20
-140.7790038710552
 10
107.3856933325286
 20
-140.7700466227936
 10
107.2372097171143
 20
-140.7700466227936
 10
107.0094889055393
 20
-140.7700466227936
 97
        0
 97
        1
330
C5
 75
     2
 76
     1
 98
        1
 10
0.0
 20
0.0
450
        0
451
        0
460
0.0
461
0.0
452
        0
462
0.0
453
        0
470

  0
SPLINE
  5
C7
330
C1
100
AcDbEntity
  8
レイヤー 1
100
AcDbSpline
210
0.0
220
0.0
230
1.0
 70
    11
 71
     3
 72
    17
 73
    13
 74
     0
 42
0.0000000001
 43
0.0000000001
 40
0.0
 40
0.0
 40
0.0
 40
0.0
 40
1.0
 40
1.0
 40
1.0
 40
2.0
 40
2.0
 40
2.0
 40
3.0
 40
3.0
 40
3.0
 40
4.0
 40
4.0
 40
4.0
 40
4.0
 10
109.0772352157862
 20
-141.1304036105507
 30
0.0
 10
109.0772352157862
 20
-141.1304036105507
 30
0.0
 10
108.8477918564686
 20
-141.1304036105507
 30
0.0
 10
108.8477918564686
 20
-141.1304036105507
 30
0.0
 10
108.8477918564686
 20
-141.1304036105507
 30
0.0
 10
108.8477918564686
 20
-141.8824679549807
 30
0.0
 10
108.8477918564686
 20
-141.8824679549807
 30
0.0
 10
108.8477918564686
 20
-141.8824679549807
 30
0.0
 10
109.0772352157862
 20
-141.8824679549807
 30
0.0
 10
109.0772352157862
 20
-141.8824679549807
 30
0.0
 10
109.0772352157862
 20
-141.8824679549807
 30
0.0
 10
109.0772352157862
 20
-141.1304036105507
 30
0.0
 10
109.0772352157862
 20
-141.1304036105507
 30
0.0
  0
SPLINE
  5
C8
330
C1
100
AcDbEntity
  8
レイヤー 1
100
AcDbSpline
210
0.0
220
0.0
230
1.0
 70
    11
 71
     3
 72
    17
 73
    13
 74
     0
 42
0.0000000001
 43
0.0000000001
 40
0.0
 40
0.0
 40
0.0
 40
0.0
 40
1.0
 40
1.0
 40
1.0
 40
2.0
 40
2.0
 40
2.0
 40
3.0
 40
3.0
 40
3.0
 40
4.0
 40
4.0
 40
4.0
 40
4.0
 10
108.6920735405353
 20
-141.7164143525917
 30
0.0
 10
108.6920735405353
 20
-141.7164143525917
 30
0.0
 10
108.3144910753519
 20
-141.7164143525917
 30
0.0
 10
108.3144910753519
 20
-141.7164143525917
 30
0.0
 10
108.3144910753519
 20
-141.7164143525917
 30
0.0
 10
108.3144910753519
 20
-141.8824679549807
 30
0.0
 10
108.3144910753519
 20
-141.8824679549807
 30
0.0
 10
108.3144910753519
 20
-141.8824679549807
 30
0.0
 10
108.6920735405353
 20
-141.8824679549807
 30
0.0
 10
108.6920735405353
 20
-141.8824679549807
 30
0.0
 10
108.6920735405353
 20
-141.8824679549807
 30
0.0
 10
108.6920735405353
 20
-141.7164143525917
 30
0.0
 10
108.6920735405353
 20
-141.7164143525917
 30
0.0
  0
SPLINE
  5
C9
330
C1
100
AcDbEntity
  8
レイヤー 1
100
AcDbSpline
210
0.0
220
0.0
230
1.0
 70
    11
 71
     3
 72
    17
 73
    13
 74
     0
 42
0.0000000001
 43
0.0000000001
 40
0.0
 40
0.0
 40
0.0
 40
0.0
 40
1.0
 40
1.0
 40
1.0
 40
2.0
 40
2.0
 40
2.0
 40
3.0
 40
3.0
 40
3.0
 40
4.0
 40
4.0
 40
4.0
 40
4.0
 10
108.6920735405353
 20
-141.4234089815712
 30
0.0
 10
108.6920735405353
 20
-141.4234089815712
 30
0.0
 10
108.3144910753519
 20
-141.4234089815712
 30
0.0
 10
108.3144910753519
 20
-141.4234089815712
 30
0.0
 10
108.3144910753519
 20
-141.4234089815712
 30
0.0
 10
108.3144910753519
 20
-141.5824001382155
 30
0.0
 10
108.3144910753519
 20
-141.5824001382155
 30
0.0
 10
108.3144910753519
 20
-141.5824001382155
 30
0.0
 10
108.6920735405353
 20
-141.5824001382155
 30
0.0
 10
108.6920735405353
 20
-141.5824001382155
 30
0.0
 10
108.6920735405353
 20
-141.5824001382155
 30
0.0
 10
108.6920735405353
 20
-141.4234089815712
 30
0.0
 10
108.6920735405353
 20
-141.4234089815712
 30
0.0
  0
SPLINE
  5
CA
330
C1
100
AcDbEntity
  8
レイヤー 1
100
AcDbSpline
210
0.0
220
0.0
230
1.0
 70
    11
 71
     3
 72
    17
 73
    13
 74
     0
 42
0.0000000001
 43
0.0000000001
 40
0.0
 40
0.0
 40
0.0
 40
0.0
 40
1.0
 40
1.0
 40
1.0
 40
2.0
 40
2.0
 40
2.0
 40
3.0
 40
3.0
 40
3.0
 40
4.0
 40
4.0
 40
4.0
 40
4.0
 10
108.6920735405353
 20
-141.1304036105507
 30
0.0
 10
108.6920735405353
 20
-141.1304036105507
 30
0.0
 10
108.3144910753519
 20
-141.1304036105507
 30
0.0
 10
108.3144910753519
 20
-141.1304036105507
 30
0.0
 10
108.3144910753519
 20
-141.1304036105507
 30
0.0
 10
108.3144910753519
 20
-141.2892225124207
 30
0.0
 10
108.3144910753519
 20
-141.2892225124207
 30
0.0
 10
108.3144910753519
 20
-141.2892225124207
 30
0.0
 10
108.6920735405353
 20
-141.2892225124207
 30
0.0
 10
108.6920735405353
 20
-141.2892225124207
 30
0.0
 10
108.6920735405353
 20
-141.2892225124207
 30
0.0
 10
108.6920735405353
 20
-141.1304036105507
 30
0.0
 10
108.6920735405353
 20
-141.1304036105507
 30
0.0
  0
SPLINE
  5
CB
330
C1
100
AcDbEntity
  8
レイヤー 1
100
AcDbSpline
210
0.0
220
0.0
230
1.0
 70
    11
 71
     3
 72
    17
 73
    13
 74
     0
 42
0.0000000001
 43
0.0000000001
 40
0.0
 40
0.0
 40
0.0
 40
0.0
 40
1.0
 40
1.0
 40
1.0
 40
2.0
 40
2.0
 40
2.0
 40
3.0
 40
3.0
 40
3.0
 40
4.0
 40
4.0
 40
4.0
 40
4.0
 10
108.1677300076803
 20
-141.1304036105507
 30
0.0
 10
108.1677300076803
 20
-141.1304036105507
 30
0.0
 10
107.9382866483626
 20
-141.1304036105507
 30
0.0
 10
107.9382866483626
 20
-141.1304036105507
 30
0.0
 10
107.9382866483626
 20
-141.1304036105507
 30
0.0
 10
107.9382866483626
 20
-141.8824679549807
 30
0.0
 10
107.9382866483626
 20
-141.8824679549807
 30
0.0
 10
107.9382866483626
 20
-141.8824679549807
 30
0.0
 10
108.1677300076803
 20
-141.8824679549807
 30
0.0
 10
108.1677300076803
 20
-141.8824679549807
 30
0.0
 10
108.1677300076803
 20
-141.8824679549807
 30
0.0
 10
108.1677300076803
 20
-141.1304036105507
 30
0.0
 10
108.1677300076803
 20
-141.1304036105507
 30
0.0
  0
SPLINE
  5
CC
330
C1
100
AcDbEntity
  8
レイヤー 1
100
AcDbSpline
210
0.0
220
0.0
230
1.0
 70
     9
 71
     3
 72
    89
 73
    85
 74
     0
 42
0.0000000001
 43
0.0000000001
 40
0.0
 40
0.0
 40
0.0
 40
0.0
 40
1.0
 40
1.0
 40
1.0
 40
2.0
 40
2.0
 40
2.0
 40
3.0
 40
3.0
 40
3.0
 40
4.0
 40
4.0
 40
4.0
 40
5.0
 40
5.0
 40
5.0
 40
6.0
 40
6.0
 40
6.0
 40
7.0
 40
7.0
 40
7.0
 40
8.0
 40
8.0
 40
8.0
 40
9.0
 40
9.0
 40
9.0
 40
10.0
 40
10.0
 40
10.0
 40
11.0
 40
11.0
 40
11.0
 40
12.0
 40
12.0
 40
12.0
 40
13.0
 40
13.0
 40
13.0
 40
14.0
 40
14.0
 40
14.0
 40
15.0
 40
15.0
 40
15.0
 40
16.0
 40
16.0
 40
16.0
 40
17.0
 40
17.0
 40
17.0
 40
18.0
 40
18.0
 40
18.0
 40
19.0
 40
19.0
 40
19.0
 40
20.0
 40
20.0
 40
20.0
 40
21.0
 40
21.0
 40
21.0
 40
22.0
 40
22.0
 40
22.0
 40
23.0
 40
23.0
 40
23.0
 40
24.0
 40
24.0
 40
24.0
 40
25.0
 40
25.0
 40
25.0
 40
26.0
 40
26.0
 40
26.0
 40
27.0
 40
27.0
 40
27.0
 40
28.0
 40
28.0
 40
28.0
 40
28.0
 10
108.7347927245524
 20
-140.7541991835614
 30
0.0
 10
108.7347927245524
 20
-140.7541991835614
 30
0.0
 10
108.6021565483703
 20
-140.7541991835614
 30
0.0
 10
108.6021565483703
 20
-140.7541991835614
 30
0.0
 10
108.5790744086191
 20
-140.8460109782433
 30
0.0
 10
108.5756293131338
 20
-140.8620306722498
 30
0.0
 10
108.5263644476948
 20
-140.9891546956555
 30
0.0
 10
108.5263644476948
 20
-140.9891546956555
 30
0.0
 10
108.7258354762908
 20
-140.9891546956555
 30
0.0
 10
108.7258354762908
 20
-140.9891546956555
 30
0.0
 10
108.7716552462446
 20
-140.9891546956555
 30
0.0
 10
108.9676811793553
 20
-140.9838147976533
 30
0.0
 10
109.0066107583386
 20
-140.9838147976533
 30
0.0
 10
109.1461371254912
 20
-140.9801974473938
 30
0.0
 10
109.1971245386729
 20
-140.975029804166
 30
0.0
 10
109.2450113659179
 20
-140.9696899061638
 30
0.0
 10
109.2394992131415
 20
-141.0420369113541
 30
0.0
 10
109.2360541176562
 20
-141.2892225124207
 30
0.0
 10
109.2360541176562
 20
-141.3722493136152
 30
0.0
 10
109.2360541176562
 20
-141.3722493136152
 30
0.0
 10
109.2360541176562
 20
-141.7429415878281
 30
0.0
 10
109.2360541176562
 20
-141.7429415878281
 30
0.0
 10
109.2360541176562
 20
-141.7660237275793
 30
0.0
 10
109.2377766653989
 20
-141.8507730765164
 30
0.0
 10
109.2412217608841
 20
-141.916057635962
 30
0.0
 10
109.2467339136605
 20
-142.0130370738717
 30
0.0
 10
109.253624104631
 20
-142.1138061168153
 30
0.0
 10
109.2553466523737
 20
-142.143778447537
 30
0.0
 10
109.2553466523737
 20
-142.143778447537
 30
0.0
 10
109.0575981715203
 20
-142.143778447537
 30
0.0
 10
109.0575981715203
 20
-142.143778447537
 30
0.0
 10
109.0648328720393
 20
-142.1119113142984
 30
0.0
 10
109.0717230630098
 20
-142.0607516463424
 30
0.0
 10
109.0755126680436
 20
-142.0254394176186
 30
0.0
 10
109.0755126680436
 20
-142.0254394176186
 30
0.0
 10
107.9382866483626
 20
-142.0254394176186
 30
0.0
 10
107.9382866483626
 20
-142.0254394176186
 30
0.0
 10
107.9400091961053
 20
-142.074876537832
 30
0.0
 10
107.9400091961053
 20
-142.0802164358341
 30
0.0
 10
107.9455213488817
 20
-142.1420558997943
 30
0.0
 10
107.9455213488817
 20
-142.1420558997943
 30
0.0
 10
107.7687879504883
 20
-142.1420558997943
 30
0.0
 10
107.7687879504883
 20
-142.1420558997943
 30
0.0
 10
107.7846353897205
 20
-142.0166544241312
 30
0.0
 10
107.7863579374631
 20
-141.9124402857024
 30
0.0
 10
107.7863579374631
 20
-141.7446641355708
 30
0.0
 10
107.7863579374631
 20
-141.7446641355708
 30
0.0
 10
107.7863579374631
 20
-141.4339165228012
 30
0.0
 10
107.7863579374631
 20
-141.4339165228012
 30
0.0
 10
107.7863579374631
 20
-141.320917390885
 30
0.0
 10
107.7794677464926
 20
-141.0720092420757
 30
0.0
 10
107.7743001032647
 20
-140.975029804166
 30
0.0
 10
107.929329400101
 20
-140.985537345396
 30
0.0
 10
108.1801323514272
 20
-140.9891546956555
 30
0.0
 10
108.3427408583309
 20
-140.9891546956555
 30
0.0
 10
108.3761582845379
 20
-140.9185302382078
 30
0.0
 10
108.411642768036
 20
-140.8231010932664
 30
0.0
 10
108.4257676595255
 20
-140.7541991835614
 30
0.0
 10
108.4257676595255
 20
-140.7541991835614
 30
0.0
 10
108.2545464139086
 20
-140.7541991835614
 30
0.0
 10
108.2545464139086
 20
-140.7541991835614
 30
0.0
 10
108.0495632325362
 20
-140.7541991835614
 30
0.0
 10
107.8959119738941
 20
-140.7541991835614
 30
0.0
 10
107.729858371505
 20
-140.7790038710552
 30
0.0
 10
107.729858371505
 20
-140.7790038710552
 30
0.0
 10
107.729858371505
 20
-140.6041652751788
 30
0.0
 10
107.729858371505
 20
-140.6041652751788
 30
0.0
 10
107.8235649687038
 20
-140.6182901666683
 30
0.0
 10
108.2349093696426
 20
-140.6200127144109
 30
0.0
 10
108.2703938531407
 20
-140.6200127144109
 30
0.0
 10
108.2703938531407
 20
-140.6200127144109
 30
0.0
 10
108.7399603677803
 20
-140.6200127144109
 30
0.0
 10
108.7399603677803
 20
-140.6200127144109
 30
0.0
 10
108.7840575899915
 20
-140.6200127144109
 30
0.0
 10
109.1213324379974
 20
-140.6146728164088
 30
0.0
 10
109.1812770994408
 20
-140.6129502686662
 30
0.0
 10
109.2288194171372
 20
-140.6112277209236
 30
0.0
 10
109.2519015568884
 20
-140.6077826254383
 30
0.0
 10
109.2908311358717
 20
-140.6024427274362
 30
0.0
 10
109.2908311358717
 20
-140.6024427274362
 30
0.0
 10
109.2908311358717
 20
-140.7683240750509
 30
0.0
 10
109.2908311358717
 20
-140.7683240750509
 30
0.0
 10
109.1178873425122
 20
-140.7559217313041
 30
0.0
 10
108.7468505587508
 20
-140.7541991835614
 30
0.0
 10
108.7347927245524
 20
-140.7541991835614
 30
0.0
  0
HATCH
  5
CD
330
C1
100
AcDbEntity
  8
レイヤー 1
 62
   250
420
  2299925
440
 33554687
100
AcDbHatch
 10
0.0
 20
0.0
 30
0.0
210
0.0
220
0.0
230
1.0
  2
SOLID
 70
     1
 71
     1
 91
        6
 92
        1
 93
        1
 72
     4
 94
        3
 73
     0
 74
     0
 95
       17
 96
       13
 40
0.0
 40
0.0
 40
0.0
 40
0.0
 40
1.0
 40
1.0
 40
1.0
 40
2.0
 40
2.0
 40
2.0
 40
3.0
 40
3.0
 40
3.0
 40
4.0
 40
4.0
 40
4.0
 40
4.0
 10
109.0772352157862
 20
-141.1304036105507
 10
109.0772352157862
 20
-141.1304036105507
 10
108.8477918564686
 20
-141.1304036105507
 10
108.8477918564686
 20
-141.1304036105507
 10
108.8477918564686
 20
-141.1304036105507
 10
108.8477918564686
 20
-141.8824679549807
 10
108.8477918564686
 20
-141.8824679549807
 10
108.8477918564686
 20
-141.8824679549807
 10
109.0772352157862
 20
-141.8824679549807
 10
109.0772352157862
 20
-141.8824679549807
 10
109.0772352157862
 20
-141.8824679549807
 10
109.0772352157862
 20
-141.1304036105507
 10
109.0772352157862
 20
-141.1304036105507
 97
        0
 97
        1
330
C7
 92
        1
 93
        1
 72
     4
 94
        3
 73
     0
 74
     0
 95
       17
 96
       13
 40
0.0
 40
0.0
 40
0.0
 40
0.0
 40
1.0
 40
1.0
 40
1.0
 40
2.0
 40
2.0
 40
2.0
 40
3.0
 40
3.0
 40
3.0
 40
4.0
 40
4.0
 40
4.0
 40
4.0
 10
108.6920735405353
 20
-141.7164143525917
 10
108.6920735405353
 20
-141.7164143525917
 10
108.3144910753519
 20
-141.7164143525917
 10
108.3144910753519
 20
-141.7164143525917
 10
108.3144910753519
 20
-141.7164143525917
 10
108.3144910753519
 20
-141.8824679549807
 10
108.3144910753519
 20
-141.8824679549807
 10
108.3144910753519
 20
-141.8824679549807
 10
108.6920735405353
 20
-141.8824679549807
 10
108.6920735405353
 20
-141.8824679549807
 10
108.6920735405353
 20
-141.8824679549807
 10
108.6920735405353
 20
-141.7164143525917
 10
108.6920735405353
 20
-141.7164143525917
 97
        0
 97
        1
330
C8
 92
        1
 93
        1
 72
     4
 94
        3
 73
     0
 74
     0
 95
       17
 96
       13
 40
0.0
 40
0.0
 40
0.0
 40
0.0
 40
1.0
 40
1.0
 40
1.0
 40
2.0
 40
2.0
 40
2.0
 40
3.0
 40
3.0
 40
3.0
 40
4.0
 40
4.0
 40
4.0
 40
4.0
 10
108.6920735405353
 20
-141.4234089815712
 10
108.6920735405353
 20
-141.4234089815712
 10
108.3144910753519
 20
-141.4234089815712
 10
108.3144910753519
 20
-141.4234089815712
 10
108.3144910753519
 20
-141.4234089815712
 10
108.3144910753519
 20
-141.5824001382155
 10
108.3144910753519
 20
-141.5824001382155
 10
108.3144910753519
 20
-141.5824001382155
 10
108.6920735405353
 20
-141.5824001382155
 10
108.6920735405353
 20
-141.5824001382155
 10
108.6920735405353
 20
-141.5824001382155
 10
108.6920735405353
 20
-141.4234089815712
 10
108.6920735405353
 20
-141.4234089815712
 97
        0
 97
        1
330
C9
 92
        1
 93
        1
 72
     4
 94
        3
 73
     0
 74
     0
 95
       17
 96
       13
 40
0.0
 40
0.0
 40
0.0
 40
0.0
 40
1.0
 40
1.0
 40
1.0
 40
2.0
 40
2.0
 40
2.0
 40
3.0
 40
3.0
 40
3.0
 40
4.0
 40
4.0
 40
4.0
 40
4.0
 10
108.6920735405353
 20
-141.1304036105507
 10
108.6920735405353
 20
-141.1304036105507
 10
108.3144910753519
 20
-141.1304036105507
 10
108.3144910753519
 20
-141.1304036105507
 10
108.3144910753519
 20
-141.1304036105507
 10
108.3144910753519
 20
-141.2892225124207
 10
108.3144910753519
 20
-141.2892225124207
 10
108.3144910753519
 20
-141.2892225124207
 10
108.6920735405353
 20
-141.2892225124207
 10
108.6920735405353
 20
-141.2892225124207
 10
108.6920735405353
 20
-141.2892225124207
 10
108.6920735405353
 20
-141.1304036105507
 10
108.6920735405353
 20
-141.1304036105507
 97
        0
 97
        1
330
CA
 92
        1
 93
        1
 72
     4
 94
        3
 73
     0
 74
     0
 95
       17
 96
       13
 40
0.0
 40
0.0
 40
0.0
 40
0.0
 40
1.0
 40
1.0
 40
1.0
 40
2.0
 40
2.0
 40
2.0
 40
3.0
 40
3.0
 40
3.0
 40
4.0
 40
4.0
 40
4.0
 40
4.0
 10
108.1677300076803
 20
-141.1304036105507
 10
108.1677300076803
 20
-141.1304036105507
 10
107.9382866483626
 20
-141.1304036105507
 10
107.9382866483626
 20
-141.1304036105507
 10
107.9382866483626
 20
-141.1304036105507
 10
107.9382866483626
 20
-141.8824679549807
 10
107.9382866483626
 20
-141.8824679549807
 10
107.9382866483626
 20
-141.8824679549807
 10
108.1677300076803
 20
-141.8824679549807
 10
108.1677300076803
 20
-141.8824679549807
 10
108.1677300076803
 20
-141.8824679549807
 10
108.1677300076803
 20
-141.1304036105507
 10
108.1677300076803
 20
-141.1304036105507
 97
        0
 97
        1
330
CB
 92
        1
 93
        1
 72
     4
 94
        3
 73
     0
 74
     0
 95
       89
 96
       85
 40
0.0
 40
0.0
 40
0.0
 40
0.0
 40
1.0
 40
1.0
 40
1.0
 40
2.0
 40
2.0
 40
2.0
 40
3.0
 40
3.0
 40
3.0
 40
4.0
 40
4.0
 40
4.0
 40
5.0
 40
5.0
 40
5.0
 40
6.0
 40
6.0
 40
6.0
 40
7.0
 40
7.0
 40
7.0
 40
8.0
 40
8.0
 40
8.0
 40
9.0
 40
9.0
 40
9.0
 40
10.0
 40
10.0
 40
10.0
 40
11.0
 40
11.0
 40
11.0
 40
12.0
 40
12.0
 40
12.0
 40
13.0
 40
13.0
 40
13.0
 40
14.0
 40
14.0
 40
14.0
 40
15.0
 40
15.0
 40
15.0
 40
16.0
 40
16.0
 40
16.0
 40
17.0
 40
17.0
 40
17.0
 40
18.0
 40
18.0
 40
18.0
 40
19.0
 40
19.0
 40
19.0
 40
20.0
 40
20.0
 40
20.0
 40
21.0
 40
21.0
 40
21.0
 40
22.0
 40
22.0
 40
22.0
 40
23.0
 40
23.0
 40
23.0
 40
24.0
 40
24.0
 40
24.0
 40
25.0
 40
25.0
 40
25.0
 40
26.0
 40
26.0
 40
26.0
 40
27.0
 40
27.0
 40
27.0
 40
28.0
 40
28.0
 40
28.0
 40
28.0
 10
108.7347927245524
 20
-140.7541991835614
 10
108.7347927245524
 20
-140.7541991835614
 10
108.6021565483703
 20
-140.7541991835614
 10
108.6021565483703
 20
-140.7541991835614
 10
108.5790744086191
 20
-140.8460109782433
 10
108.5756293131338
 20
-140.8620306722498
 10
108.5263644476948
 20
-140.9891546956555
 10
108.5263644476948
 20
-140.9891546956555
 10
108.7258354762908
 20
-140.9891546956555
 10
108.7258354762908
 20
-140.9891546956555
 10
108.7716552462446
 20
-140.9891546956555
 10
108.9676811793553
 20
-140.9838147976533
 10
109.0066107583386
 20
-140.9838147976533
 10
109.1461371254912
 20
-140.9801974473938
 10
109.1971245386729
 20
-140.975029804166
 10
109.2450113659179
 20
-140.9696899061638
 10
109.2394992131415
 20
-141.0420369113541
 10
109.2360541176562
 20
-141.2892225124207
 10
109.2360541176562
 20
-141.3722493136152
 10
109.2360541176562
 20
-141.3722493136152
 10
109.2360541176562
 20
-141.7429415878281
 10
109.2360541176562
 20
-141.7429415878281
 10
109.2360541176562
 20
-141.7660237275793
 10
109.2377766653989
 20
-141.8507730765164
 10
109.2412217608841
 20
-141.916057635962
 10
109.2467339136605
 20
-142.0130370738717
 10
109.253624104631
 20
-142.1138061168153
 10
109.2553466523737
 20
-142.143778447537
 10
109.2553466523737
 20
-142.143778447537
 10
109.0575981715203
 20
-142.143778447537
 10
109.0575981715203
 20
-142.143778447537
 10
109.0648328720393
 20
-142.1119113142984
 10
109.0717230630098
 20
-142.0607516463424
 10
109.0755126680436
 20
-142.0254394176186
 10
109.0755126680436
 20
-142.0254394176186
 10
107.9382866483626
 20
-142.0254394176186
 10
107.9382866483626
 20
-142.0254394176186
 10
107.9400091961053
 20
-142.074876537832
 10
107.9400091961053
 20
-142.0802164358341
 10
107.9455213488817
 20
-142.1420558997943
 10
107.9455213488817
 20
-142.1420558997943
 10
107.7687879504883
 20
-142.1420558997943
 10
107.7687879504883
 20
-142.1420558997943
 10
107.7846353897205
 20
-142.0166544241312
 10
107.7863579374631
 20
-141.9124402857024
 10
107.7863579374631
 20
-141.7446641355708
 10
107.7863579374631
 20
-141.7446641355708
 10
107.7863579374631
 20
-141.4339165228012
 10
107.7863579374631
 20
-141.4339165228012
 10
107.7863579374631
 20
-141.320917390885
 10
107.7794677464926
 20
-141.0720092420757
 10
107.7743001032647
 20
-140.975029804166
 10
107.929329400101
 20
-140.985537345396
 10
108.1801323514272
 20
-140.9891546956555
 10
108.3427408583309
 20
-140.9891546956555
 10
108.3761582845379
 20
-140.9185302382078
 10
108.411642768036
 20
-140.8231010932664
 10
108.4257676595255
 20
-140.7541991835614
 10
108.4257676595255
 20
-140.7541991835614
 10
108.2545464139086
 20
-140.7541991835614
 10
108.2545464139086
 20
-140.7541991835614
 10
108.0495632325362
 20
-140.7541991835614
 10
107.8959119738941
 20
-140.7541991835614
 10
107.729858371505
 20
-140.7790038710552
 10
107.729858371505
 20
-140.7790038710552
 10
107.729858371505
 20
-140.6041652751788
 10
107.729858371505
 20
-140.6041652751788
 10
107.8235649687038
 20
-140.6182901666683
 10
108.2349093696426
 20
-140.6200127144109
 10
108.2703938531407
 20
-140.6200127144109
 10
108.2703938531407
 20
-140.6200127144109
 10
108.7399603677803
 20
-140.6200127144109
 10
108.7399603677803
 20
-140.6200127144109
 10
108.7840575899915
 20
-140.6200127144109
 10
109.1213324379974
 20
-140.6146728164088
 10
109.1812770994408
 20
-140.6129502686662
 10
109.2288194171372
 20
-140.6112277209236
 10
109.2519015568884
 20
-140.6077826254383
 10
109.2908311358717
 20
-140.6024427274362
 10
109.2908311358717
 20
-140.6024427274362
 10
109.2908311358717
 20
-140.7683240750509
 10
109.2908311358717
 20
-140.7683240750509
 10
109.1178873425122
 20
-140.7559217313041
 10
108.7468505587508
 20
-140.7541991835614
 10
108.7347927245524
 20
-140.7541991835614
 97
        0
 97
        1
330
CC
 75
     2
 76
     1
 98
        1
 10
0.0
 20
0.0
450
        0
451
        0
460
0.0
461
0.0
452
        0
462
0.0
453
        0
470

  0
SPLINE
  5
CE
330
C1
100
AcDbEntity
  8
レイヤー 1
100
AcDbSpline
210
0.0
220
0.0
230
1.0
 70
     9
 71
     3
 72
    29
 73
    25
 74
     0
 42
0.0000000001
 43
0.0000000001
 40
0.0
 40
0.0
 40
0.0
 40
0.0
 40
1.0
 40
1.0
 40
1.0
 40
2.0
 40
2.0
 40
2.0
 40
3.0
 40
3.0
 40
3.0
 40
4.0
 40
4.0
 40
4.0
 40
5.0
 40
5.0
 40
5.0
 40
6.0
 40
6.0
 40
6.0
 40
7.0
 40
7.0
 40
7.0
 40
8.0
 40
8.0
 40
8.0
 40
8.0
 10
110.3381401633877
 20
-140.8496283285029
 30
0.0
 10
110.3381401633877
 20
-140.8496283285029
 30
0.0
 10
110.0432399898503
 20
-140.8496283285029
 30
0.0
 10
110.0432399898503
 20
-140.8496283285029
 30
0.0
 10
109.9495333926515
 20
-140.8496283285029
 30
0.0
 10
109.83308916525
 20
-140.8547959717307
 30
0.0
 10
109.743172173085
 20
-140.865475767735
 30
0.0
 10
109.743172173085
 20
-140.865475767735
 30
0.0
 10
109.743172173085
 20
-140.6694498346243
 30
0.0
 10
109.743172173085
 20
-140.6694498346243
 30
0.0
 10
109.8420464135117
 20
-140.6818521783712
 30
0.0
 10
109.9956976721538
 20
-140.6852972738564
 30
0.0
 10
110.0432399898503
 20
-140.6852972738564
 30
0.0
 10
110.0432399898503
 20
-140.6852972738564
 30
0.0
 10
110.3381401633877
 20
-140.6852972738564
 30
0.0
 10
110.3381401633877
 20
-140.6852972738564
 30
0.0
 10
110.3539876026198
 20
-140.6852972738564
 30
0.0
 10
110.5234863004941
 20
-140.6852972738564
 30
0.0
 10
110.6416530756382
 20
-140.6694498346243
 30
0.0
 10
110.6416530756382
 20
-140.6694498346243
 30
0.0
 10
110.6416530756382
 20
-140.865475767735
 30
0.0
 10
110.6416530756382
 20
-140.865475767735
 30
0.0
 10
110.5110839567472
 20
-140.8496283285029
 30
0.0
 10
110.3522650548772
 20
-140.8496283285029
 30
0.0
 10
110.3381401633877
 20
-140.8496283285029
 30
0.0
  0
SPLINE
  5
CF
330
C1
100
AcDbEntity
  8
レイヤー 1
100
AcDbSpline
210
0.0
220
0.0
230
1.0
 70
     9
 71
     3
 72
    47
 73
    43
 74
     0
 42
0.0000000001
 43
0.0000000001
 40
0.0
 40
0.0
 40
0.0
 40
0.0
 40
1.0
 40
1.0
 40
1.0
 40
2.0
 40
2.0
 40
2.0
 40
3.0
 40
3.0
 40
3.0
 40
4.0
 40
4.0
 40
4.0
 40
5.0
 40
5.0
 40
5.0
 40
6.0
 40
6.0
 40
6.0
 40
7.0
 40
7.0
 40
7.0
 40
8.0
 40
8.0
 40
8.0
 40
9.0
 40
9.0
 40
9.0
 40
10.0
 40
10.0
 40
10.0
 40
11.0
 40
11.0
 40
11.0
 40
12.0
 40
12.0
 40
12.0
 40
13.0
 40
13.0
 40
13.0
 40
14.0
 40
14.0
 40
14.0
 40
14.0
 10
110.4228895123248
 20
-141.2909450601634
 30
0.0
 10
110.4228895123248
 20
-141.2909450601634
 30
0.0
 10
110.3381401633877
 20
-141.2909450601634
 30
0.0
 10
110.3381401633877
 20
-141.2909450601634
 30
0.0
 10
110.3381401633877
 20
-141.3632920653536
 30
0.0
 10
110.3205701764129
 20
-141.6881645696127
 30
0.0
 10
110.1562391217665
 20
-141.8717881589765
 30
0.0
 10
110.0291150983607
 20
-142.0130370738717
 30
0.0
 10
109.8561713050012
 20
-142.0714314423467
 30
0.0
 10
109.7855468475536
 20
-142.0943413273236
 30
0.0
 10
109.7855468475536
 20
-142.0943413273236
 30
0.0
 10
109.6229383406498
 20
-141.954814960171
 30
0.0
 10
109.6229383406498
 20
-141.954814960171
 30
0.0
 10
109.7042425941017
 20
-141.944307418941
 30
0.0
 10
109.8506591522248
 20
-141.9248426294493
 30
0.0
 10
110.0081000159007
 20
-141.767746275322
 30
0.0
 10
110.0697672250867
 20
-141.7076293591043
 30
0.0
 10
110.1562391217665
 20
-141.5911851317029
 30
0.0
 10
110.1562391217665
 20
-141.2909450601634
 30
0.0
 10
110.1562391217665
 20
-141.2909450601634
 30
0.0
 10
109.963658284141
 20
-141.2909450601634
 30
0.0
 10
109.963658284141
 20
-141.2909450601634
 30
0.0
 10
109.8082844777563
 20
-141.2909450601634
 30
0.0
 10
109.6529106713715
 20
-141.2945624104229
 30
0.0
 10
109.4975368649867
 20
-141.3067924993955
 30
0.0
 10
109.4975368649867
 20
-141.3067924993955
 30
0.0
 10
109.4975368649867
 20
-141.1231689100317
 30
0.0
 10
109.4975368649867
 20
-141.1231689100317
 30
0.0
 10
109.6546332191141
 20
-141.1355712537786
 30
0.0
 10
109.8930338266934
 20
-141.1391886040381
 30
0.0
 10
109.963658284141
 20
-141.1391886040381
 30
0.0
 10
109.963658284141
 20
-141.1391886040381
 30
0.0
 10
110.4228895123248
 20
-141.1391886040381
 30
0.0
 10
110.4228895123248
 20
-141.1391886040381
 30
0.0
 10
110.438736951557
 20
-141.1391886040381
 30
0.0
 10
110.7036647943727
 20
-141.1391886040381
 30
0.0
 10
110.894178574707
 20
-141.1231689100317
 30
0.0
 10
110.894178574707
 20
-141.1231689100317
 30
0.0
 10
110.894178574707
 20
-141.3067924993955
 30
0.0
 10
110.894178574707
 20
-141.3067924993955
 30
0.0
 10
110.7370822205796
 20
-141.2945624104229
 30
0.0
 10
110.5799858664522
 20
-141.2909450601634
 30
0.0
 10
110.4228895123248
 20
-141.2909450601634
 30
0.0
  0
HATCH
  5
D0
330
C1
100
AcDbEntity
  8
レイヤー 1
 62
   250
420
  2299925
440
 33554687
100
AcDbHatch
 10
0.0
 20
0.0
 30
0.0
210
0.0
220
0.0
230
1.0
  2
SOLID
 70
     1
 71
     1
 91
        2
 92
        1
 93
        1
 72
     4
 94
        3
 73
     0
 74
     0
 95
       29
 96
       25
 40
0.0
 40
0.0
 40
0.0
 40
0.0
 40
1.0
 40
1.0
 40
1.0
 40
2.0
 40
2.0
 40
2.0
 40
3.0
 40
3.0
 40
3.0
 40
4.0
 40
4.0
 40
4.0
 40
5.0
 40
5.0
 40
5.0
 40
6.0
 40
6.0
 40
6.0
 40
7.0
 40
7.0
 40
7.0
 40
8.0
 40
8.0
 40
8.0
 40
8.0
 10
110.3381401633877
 20
-140.8496283285029
 10
110.3381401633877
 20
-140.8496283285029
 10
110.0432399898503
 20
-140.8496283285029
 10
110.0432399898503
 20
-140.8496283285029
 10
109.9495333926515
 20
-140.8496283285029
 10
109.83308916525
 20
-140.8547959717307
 10
109.743172173085
 20
-140.865475767735
 10
109.743172173085
 20
-140.865475767735
 10
109.743172173085
 20
-140.6694498346243
 10
109.743172173085
 20
-140.6694498346243
 10
109.8420464135117
 20
-140.6818521783712
 10
109.9956976721538
 20
-140.6852972738564
 10
110.0432399898503
 20
-140.6852972738564
 10
110.0432399898503
 20
-140.6852972738564
 10
110.3381401633877
 20
-140.6852972738564
 10
110.3381401633877
 20
-140.6852972738564
 10
110.3539876026198
 20
-140.6852972738564
 10
110.5234863004941
 20
-140.6852972738564
 10
110.6416530756382
 20
-140.6694498346243
 10
110.6416530756382
 20
-140.6694498346243
 10
110.6416530756382
 20
-140.865475767735
 10
110.6416530756382
 20
-140.865475767735
 10
110.5110839567472
 20
-140.8496283285029
 10
110.3522650548772
 20
-140.8496283285029
 10
110.3381401633877
 20
-140.8496283285029
 97
        0
 97
        1
330
CE
 92
        1
 93
        1
 72
     4
 94
        3
 73
     0
 74
     0
 95
       47
 96
       43
 40
0.0
 40
0.0
 40
0.0
 40
0.0
 40
1.0
 40
1.0
 40
1.0
 40
2.0
 40
2.0
 40
2.0
 40
3.0
 40
3.0
 40
3.0
 40
4.0
 40
4.0
 40
4.0
 40
5.0
 40
5.0
 40
5.0
 40
6.0
 40
6.0
 40
6.0
 40
7.0
 40
7.0
 40
7.0
 40
8.0
 40
8.0
 40
8.0
 40
9.0
 40
9.0
 40
9.0
 40
10.0
 40
10.0
 40
10.0
 40
11.0
 40
11.0
 40
11.0
 40
12.0
 40
12.0
 40
12.0
 40
13.0
 40
13.0
 40
13.0
 40
14.0
 40
14.0
 40
14.0
 40
14.0
 10
110.4228895123248
 20
-141.2909450601634
 10
110.4228895123248
 20
-141.2909450601634
 10
110.3381401633877
 20
-141.2909450601634
 10
110.3381401633877
 20
-141.2909450601634
 10
110.3381401633877
 20
-141.3632920653536
 10
110.3205701764129
 20
-141.6881645696127
 10
110.1562391217665
 20
-141.8717881589765
 10
110.0291150983607
 20
-142.0130370738717
 10
109.8561713050012
 20
-142.0714314423467
 10
109.7855468475536
 20
-142.0943413273236
 10
109.7855468475536
 20
-142.0943413273236
 10
109.6229383406498
 20
-141.954814960171
 10
109.6229383406498
 20
-141.954814960171
 10
109.7042425941017
 20
-141.944307418941
 10
109.8506591522248
 20
-141.9248426294493
 10
110.0081000159007
 20
-141.767746275322
 10
110.0697672250867
 20
-141.7076293591043
 10
110.1562391217665
 20
-141.5911851317029
 10
110.1562391217665
 20
-141.2909450601634
 10
110.1562391217665
 20
-141.2909450601634
 10
109.963658284141
 20
-141.2909450601634
 10
109.963658284141
 20
-141.2909450601634
 10
109.8082844777563
 20
-141.2909450601634
 10
109.6529106713715
 20
-141.2945624104229
 10
109.4975368649867
 20
-141.3067924993955
 10
109.4975368649867
 20
-141.3067924993955
 10
109.4975368649867
 20
-141.1231689100317
 10
109.4975368649867
 20
-141.1231689100317
 10
109.6546332191141
 20
-141.1355712537786
 10
109.8930338266934
 20
-141.1391886040381
 10
109.963658284141
 20
-141.1391886040381
 10
109.963658284141
 20
-141.1391886040381
 10
110.4228895123248
 20
-141.1391886040381
 10
110.4228895123248
 20
-141.1391886040381
 10
110.438736951557
 20
-141.1391886040381
 10
110.7036647943727
 20
-141.1391886040381
 10
110.894178574707
 20
-141.1231689100317
 10
110.894178574707
 20
-141.1231689100317
 10
110.894178574707
 20
-141.3067924993955
 10
110.894178574707
 20
-141.3067924993955
 10
110.7370822205796
 20
-141.2945624104229
 10
110.5799858664522
 20
-141.2909450601634
 10
110.4228895123248
 20
-141.2909450601634
 97
        0
 97
        1
330
CF
 75
     2
 76
     1
 98
        1
 10
0.0
 20
0.0
450
        0
451
        0
460
0.0
461
0.0
452
        0
462
0.0
453
        0
470

  0
SPLINE
  5
D1
330
C1
100
AcDbEntity
  8
レイヤー 1
100
AcDbSpline
210
0.0
220
0.0
230
1.0
 70
     9
 71
     3
 72
    29
 73
    25
 74
     0
 42
0.0000000001
 43
0.0000000001
 40
0.0
 40
0.0
 40
0.0
 40
0.0
 40
1.0
 40
1.0
 40
1.0
 40
2.0
 40
2.0
 40
2.0
 40
3.0
 40
3.0
 40
3.0
 40
4.0
 40
4.0
 40
4.0
 40
5.0
 40
5.0
 40
5.0
 40
6.0
 40
6.0
 40
6.0
 40
7.0
 40
7.0
 40
7.0
 40
8.0
 40
8.0
 40
8.0
 40
8.0
 10
111.9607801369403
 20
-141.4270263318307
 30
0.0
 10
111.9607801369403
 20
-141.4270263318307
 30
0.0
 10
111.556325926972
 20
-141.4270263318307
 30
0.0
 10
111.556325926972
 20
-141.4270263318307
 30
0.0
 10
111.5332437872208
 20
-141.4270263318307
 30
0.0
 10
111.2683159444051
 20
-141.4270263318307
 30
0.0
 10
111.0919270555603
 20
-141.4480414142907
 30
0.0
 10
111.0919270555603
 20
-141.4480414142907
 30
0.0
 10
111.0919270555603
 20
-141.2556328314396
 30
0.0
 10
111.0919270555603
 20
-141.2556328314396
 30
0.0
 10
111.2242187221939
 20
-141.2750976209312
 30
0.0
 10
111.3833821336125
 20
-141.2768201686738
 30
0.0
 10
111.556325926972
 20
-141.2768201686738
 30
0.0
 10
111.556325926972
 20
-141.2768201686738
 30
0.0
 10
111.9607801369403
 20
-141.2768201686738
 30
0.0
 10
111.9607801369403
 20
-141.2768201686738
 30
0.0
 10
112.1158094337766
 20
-141.2768201686738
 30
0.0
 10
112.2715277497099
 20
-141.2750976209312
 30
0.0
 10
112.4248344988035
 20
-141.2556328314396
 30
0.0
 10
112.4248344988035
 20
-141.2556328314396
 30
0.0
 10
112.4248344988035
 20
-141.4480414142907
 30
0.0
 10
112.4248344988035
 20
-141.4480414142907
 30
0.0
 10
112.2715277497099
 20
-141.4287488795733
 30
0.0
 10
112.0648220205949
 20
-141.4270263318307
 30
0.0
 10
111.9607801369403
 20
-141.4270263318307
 30
0.0
  0
HATCH
  5
D2
330
C1
100
AcDbEntity
  8
レイヤー 1
 62
   250
420
  2299925
440
 33554687
100
AcDbHatch
 10
0.0
 20
0.0
 30
0.0
210
0.0
220
0.0
230
1.0
  2
SOLID
 70
     1
 71
     1
 91
        1
 92
        1
 93
        1
 72
     4
 94
        3
 73
     0
 74
     0
 95
       29
 96
       25
 40
0.0
 40
0.0
 40
0.0
 40
0.0
 40
1.0
 40
1.0
 40
1.0
 40
2.0
 40
2.0
 40
2.0
 40
3.0
 40
3.0
 40
3.0
 40
4.0
 40
4.0
 40
4.0
 40
5.0
 40
5.0
 40
5.0
 40
6.0
 40
6.0
 40
6.0
 40
7.0
 40
7.0
 40
7.0
 40
8.0
 40
8.0
 40
8.0
 40
8.0
 10
111.9607801369403
 20
-141.4270263318307
 10
111.9607801369403
 20
-141.4270263318307
 10
111.556325926972
 20
-141.4270263318307
 10
111.556325926972
 20
-141.4270263318307
 10
111.5332437872208
 20
-141.4270263318307
 10
111.2683159444051
 20
-141.4270263318307
 10
111.0919270555603
 20
-141.4480414142907
 10
111.0919270555603
 20
-141.4480414142907
 10
111.0919270555603
 20
-141.2556328314396
 10
111.0919270555603
 20
-141.2556328314396
 10
111.2242187221939
 20
-141.2750976209312
 10
111.3833821336125
 20
-141.2768201686738
 10
111.556325926972
 20
-141.2768201686738
 10
111.556325926972
 20
-141.2768201686738
 10
111.9607801369403
 20
-141.2768201686738
 10
111.9607801369403
 20
-141.2768201686738
 10
112.1158094337766
 20
-141.2768201686738
 10
112.2715277497099
 20
-141.2750976209312
 10
112.4248344988035
 20
-141.2556328314396
 10
112.4248344988035
 20
-141.2556328314396
 10
112.4248344988035
 20
-141.4480414142907
 10
112.4248344988035
 20
-141.4480414142907
 10
112.2715277497099
 20
-141.4287488795733
 10
112.0648220205949
 20
-141.4270263318307
 10
111.9607801369403
 20
-141.4270263318307
 97
        0
 97
        1
330
D1
 75
     2
 76
     1
 98
        1
 10
0.0
 20
0.0
450
        0
451
        0
460
0.0
461
0.0
452
        0
462
0.0
453
        0
470

  0
SPLINE
  5
D3
330
C1
100
AcDbEntity
  8
レイヤー 1
100
AcDbSpline
210
0.0
220
0.0
230
1.0
 70
     9
 71
     3
 72
    17
 73
    13
 74
     0
 42
0.0000000001
 43
0.0000000001
 40
0.0
 40
0.0
 40
0.0
 40
0.0
 40
1.0
 40
1.0
 40
1.0
 40
2.0
 40
2.0
 40
2.0
 40
3.0
 40
3.0
 40
3.0
 40
4.0
 40
4.0
 40
4.0
 40
4.0
 10
113.9775390340056
 20
-140.6200127144109
 30
0.0
 10
113.9313747545033
 20
-140.6200127144109
 30
0.0
 10
113.8945122328111
 20
-140.6570474908774
 30
0.0
 10
113.8945122328111
 20
-140.7030395156055
 30
0.0
 10
113.8945122328111
 20
-140.7507540880762
 30
0.0
 10
113.9313747545033
 20
-140.7914062148021
 30
0.0
 10
113.9809841294908
 20
-140.7914062148021
 30
0.0
 10
114.0302489949299
 20
-140.7914062148021
 30
0.0
 10
114.0640109306854
 20
-140.7490315403336
 30
0.0
 10
114.0640109306854
 20
-140.7047620633481
 30
0.0
 10
114.0640109306854
 20
-140.6570474908774
 30
0.0
 10
114.025081351702
 20
-140.6200127144109
 30
0.0
 10
113.9775390340056
 20
-140.6200127144109
 30
0.0
  0
SPLINE
  5
D4
330
C1
100
AcDbEntity
  8
レイヤー 1
100
AcDbSpline
210
0.0
220
0.0
230
1.0
 70
     9
 71
     3
 72
    17
 73
    13
 74
     0
 42
0.0000000001
 43
0.0000000001
 40
0.0
 40
0.0
 40
0.0
 40
0.0
 40
1.0
 40
1.0
 40
1.0
 40
2.0
 40
2.0
 40
2.0
 40
3.0
 40
3.0
 40
3.0
 40
4.0
 40
4.0
 40
4.0
 40
4.0
 10
113.9792615817482
 20
-140.8954480984567
 30
0.0
 10
113.8731526408025
 20
-140.8954480984567
 30
0.0
 10
113.7884032918654
 20
-140.8106987495195
 30
0.0
 10
113.7884032918654
 20
-140.7047620633481
 30
0.0
 10
113.7884032918654
 20
-140.5988253771767
 30
0.0
 10
113.8731526408025
 20
-140.5123534804969
 30
0.0
 10
113.9792615817482
 20
-140.5123534804969
 30
0.0
 10
114.0850260131454
 20
-140.5123534804969
 30
0.0
 10
114.1714979098252
 20
-140.5988253771767
 30
0.0
 10
114.1714979098252
 20
-140.7047620633481
 30
0.0
 10
114.1714979098252
 20
-140.8106987495195
 30
0.0
 10
114.0850260131454
 20
-140.8954480984567
 30
0.0
 10
113.9792615817482
 20
-140.8954480984567
 30
0.0
  0
SPLINE
  5
D5
330
C1
100
AcDbEntity
  8
レイヤー 1
100
AcDbSpline
210
0.0
220
0.0
230
1.0
 70
     9
 71
     3
 72
    44
 73
    40
 74
     0
 42
0.0000000001
 43
0.0000000001
 40
0.0
 40
0.0
 40
0.0
 40
0.0
 40
1.0
 40
1.0
 40
1.0
 40
2.0
 40
2.0
 40
2.0
 40
3.0
 40
3.0
 40
3.0
 40
4.0
 40
4.0
 40
4.0
 40
5.0
 40
5.0
 40
5.0
 40
6.0
 40
6.0
 40
6.0
 40
7.0
 40
7.0
 40
7.0
 40
8.0
 40
8.0
 40
8.0
 40
9.0
 40
9.0
 40
9.0
 40
10.0
 40
10.0
 40
10.0
 40
11.0
 40
11.0
 40
11.0
 40
12.0
 40
12.0
 40
12.0
 40
13.0
 40
13.0
 40
13.0
 40
13.0
 10
113.8042507310975
 20
-141.0615017008457
 30
0.0
 10
113.7108886434472
 20
-141.3686319633557
 30
0.0
 10
113.6685139689787
 20
-141.5010958847636
 30
0.0
 10
113.5041829143323
 20
-141.7095241616212
 30
0.0
 10
113.3505316556901
 20
-141.9019327444724
 30
0.0
 10
113.1527831748368
 20
-142.0573065508572
 30
0.0
 10
112.9198947200339
 20
-142.1349934540496
 30
0.0
 10
112.9198947200339
 20
-142.1349934540496
 30
0.0
 10
112.7590087608727
 20
-141.9847872908927
 30
0.0
 10
112.7590087608727
 20
-141.9847872908927
 30
0.0
 10
113.294032089732
 20
-141.8576632674869
 30
0.0
 10
113.569639728552
 20
-141.3934366508495
 30
0.0
 10
113.6226941990249
 20
-141.0261894721219
 30
0.0
 10
113.6226941990249
 20
-141.0261894721219
 30
0.0
 10
112.9832844769625
 20
-141.0261894721219
 30
0.0
 10
112.9832844769625
 20
-141.0261894721219
 30
0.0
 10
112.9057698285444
 20
-141.0261894721219
 30
0.0
 10
112.7521185699022
 20
-141.0296345676072
 30
0.0
 10
112.6215494510113
 20
-141.0456542616136
 30
0.0
 10
112.6215494510113
 20
-141.0456542616136
 30
0.0
 10
112.6215494510113
 20
-140.8620306722498
 30
0.0
 10
112.6215494510113
 20
-140.8620306722498
 30
0.0
 10
112.6938964562015
 20
-140.8796006592245
 30
0.0
 10
112.9040472808018
 20
-140.8796006592245
 30
0.0
 10
112.9867295724477
 20
-140.8796006592245
 30
0.0
 10
112.9867295724477
 20
-140.8796006592245
 30
0.0
 10
113.3470865602049
 20
-140.8796006592245
 30
0.0
 10
113.3470865602049
 20
-140.8796006592245
 30
0.0
 10
113.3822265341544
 20
-140.8796006592245
 30
0.0
 10
113.5782524672651
 20
-140.8778781114819
 30
0.0
 10
113.610291855278
 20
-140.8725382134798
 30
0.0
 10
113.6454318292275
 20
-140.8671983154776
 30
0.0
 10
113.6471543769701
 20
-140.865475767735
 30
0.0
 10
113.6984862997004
 20
-140.8318860867538
 30
0.0
 10
113.6984862997004
 20
-140.8318860867538
 30
0.0
 10
113.8555826538278
 20
-140.9609049126764
 30
0.0
 10
113.8555826538278
 20
-140.9609049126764
 30
0.0
 10
113.830777966334
 20
-140.985537345396
 30
0.0
 10
113.818375622587
 20
-141.0120645806324
 30
0.0
 10
113.8042507310975
 20
-141.0615017008457
 30
0.0
  0
HATCH
  5
D6
330
C1
100
AcDbEntity
  8
レイヤー 1
 62
   250
420
  2299925
440
 33554687
100
AcDbHatch
 10
0.0
 20
0.0
 30
0.0
210
0.0
220
0.0
230
1.0
  2
SOLID
 70
     1
 71
     1
 91
        3
 92
        1
 93
        1
 72
     4
 94
        3
 73
     0
 74
     0
 95
       17
 96
       13
 40
0.0
 40
0.0
 40
0.0
 40
0.0
 40
1.0
 40
1.0
 40
1.0
 40
2.0
 40
2.0
 40
2.0
 40
3.0
 40
3.0
 40
3.0
 40
4.0
 40
4.0
 40
4.0
 40
4.0
 10
113.9775390340056
 20
-140.6200127144109
 10
113.9313747545033
 20
-140.6200127144109
 10
113.8945122328111
 20
-140.6570474908774
 10
113.8945122328111
 20
-140.7030395156055
 10
113.8945122328111
 20
-140.7507540880762
 10
113.9313747545033
 20
-140.7914062148021
 10
113.9809841294908
 20
-140.7914062148021
 10
114.0302489949299
 20
-140.7914062148021
 10
114.0640109306854
 20
-140.7490315403336
 10
114.0640109306854
 20
-140.7047620633481
 10
114.0640109306854
 20
-140.6570474908774
 10
114.025081351702
 20
-140.6200127144109
 10
113.9775390340056
 20
-140.6200127144109
 97
        0
 97
        1
330
D3
 92
        1
 93
        1
 72
     4
 94
        3
 73
     0
 74
     0
 95
       17
 96
       13
 40
0.0
 40
0.0
 40
0.0
 40
0.0
 40
1.0
 40
1.0
 40
1.0
 40
2.0
 40
2.0
 40
2.0
 40
3.0
 40
3.0
 40
3.0
 40
4.0
 40
4.0
 40
4.0
 40
4.0
 10
113.9792615817482
 20
-140.8954480984567
 10
113.8731526408025
 20
-140.8954480984567
 10
113.7884032918654
 20
-140.8106987495195
 10
113.7884032918654
 20
-140.7047620633481
 10
113.7884032918654
 20
-140.5988253771767
 10
113.8731526408025
 20
-140.5123534804969
 10
113.9792615817482
 20
-140.5123534804969
 10
114.0850260131454
 20
-140.5123534804969
 10
114.1714979098252
 20
-140.5988253771767
 10
114.1714979098252
 20
-140.7047620633481
 10
114.1714979098252
 20
-140.8106987495195
 10
114.0850260131454
 20
-140.8954480984567
 10
113.9792615817482
 20
-140.8954480984567
 97
        0
 97
        1
330
D4
 92
        1
 93
        1
 72
     4
 94
        3
 73
     0
 74
     0
 95
       44
 96
       40
 40
0.0
 40
0.0
 40
0.0
 40
0.0
 40
1.0
 40
1.0
 40
1.0
 40
2.0
 40
2.0
 40
2.0
 40
3.0
 40
3.0
 40
3.0
 40
4.0
 40
4.0
 40
4.0
 40
5.0
 40
5.0
 40
5.0
 40
6.0
 40
6.0
 40
6.0
 40
7.0
 40
7.0
 40
7.0
 40
8.0
 40
8.0
 40
8.0
 40
9.0
 40
9.0
 40
9.0
 40
10.0
 40
10.0
 40
10.0
 40
11.0
 40
11.0
 40
11.0
 40
12.0
 40
12.0
 40
12.0
 40
13.0
 40
13.0
 40
13.0
 40
13.0
 10
113.8042507310975
 20
-141.0615017008457
 10
113.7108886434472
 20
-141.3686319633557
 10
113.6685139689787
 20
-141.5010958847636
 10
113.5041829143323
 20
-141.7095241616212
 10
113.3505316556901
 20
-141.9019327444724
 10
113.1527831748368
 20
-142.0573065508572
 10
112.9198947200339
 20
-142.1349934540496
 10
112.9198947200339
 20
-142.1349934540496
 10
112.7590087608727
 20
-141.9847872908927
 10
112.7590087608727
 20
-141.9847872908927
 10
113.294032089732
 20
-141.8576632674869
 10
113.569639728552
 20
-141.3934366508495
 10
113.6226941990249
 20
-141.0261894721219
 10
113.6226941990249
 20
-141.0261894721219
 10
112.9832844769625
 20
-141.0261894721219
 10
112.9832844769625
 20
-141.0261894721219
 10
112.9057698285444
 20
-141.0261894721219
 10
112.7521185699022
 20
-141.0296345676072
 10
112.6215494510113
 20
-141.0456542616136
 10
112.6215494510113
 20
-141.0456542616136
 10
112.6215494510113
 20
-140.8620306722498
 10
112.6215494510113
 20
-140.8620306722498
 10
112.6938964562015
 20
-140.8796006592245
 10
112.9040472808018
 20
-140.8796006592245
 10
112.9867295724477
 20
-140.8796006592245
 10
112.9867295724477
 20
-140.8796006592245
 10
113.3470865602049
 20
-140.8796006592245
 10
113.3470865602049
 20
-140.8796006592245
 10
113.3822265341544
 20
-140.8796006592245
 10
113.5782524672651
 20
-140.8778781114819
 10
113.610291855278
 20
-140.8725382134798
 10
113.6454318292275
 20
-140.8671983154776
 10
113.6471543769701
 20
-140.865475767735
 10
113.6984862997004
 20
-140.8318860867538
 10
113.6984862997004
 20
-140.8318860867538
 10
113.8555826538278
 20
-140.9609049126764
 10
113.8555826538278
 20
-140.9609049126764
 10
113.830777966334
 20
-140.985537345396
 10
113.818375622587
 20
-141.0120645806324
 10
113.8042507310975
 20
-141.0615017008457
 97
        0
 97
        1
330
D5
 75
     2
 76
     1
 98
        1
 10
0.0
 20
0.0
450
        0
451
        0
460
0.0
461
0.0
452
        0
462
0.0
453
        0
470

  0
ENDBLK
  5
C4
330
C1
100
AcDbEntity
  8
0
100
AcDbBlockEnd
  0
ENDSEC
  0
SECTION
  2
ENTITIES
  0
SPLINE
  5
79
330
70
100
AcDbEntity
  8
レイヤー 1
 62
    18
420
        0
370
    25
100
AcDbSpline
210
0.0
220
0.0
230
1.0
 70
    11
 71
     3
 72
    53
 73
    49
 74
     0
 42
0.0000000001
 43
0.0000000001
 40
0.0
 40
0.0
 40
0.0
 40
0.0
 40
1.0
 40
1.0
 40
1.0
 40
2.0
 40
2.0
 40
2.0
 40
3.0
 40
3.0
 40
3.0
 40
4.0
 40
4.0
 40
4.0
 40
5.0
 40
5.0
 40
5.0
 40
6.0
 40
6.0
 40
6.0
 40
7.0
 40
7.0
 40
7.0
 40
8.0
 40
8.0
 40
8.0
 40
9.0
 40
9.0
 40
9.0
 40
10.0
 40
10.0
 40
10.0
 40
11.0
 40
11.0
 40
11.0
 40
12.0
 40
12.0
 40
12.0
 40
13.0
 40
13.0
 40
13.0
 40
14.0
 40
14.0
 40
14.0
 40
15.0
 40
15.0
 40
15.0
 40
16.0
 40
16.0
 40
16.0
 40
16.0
 10
114.8240590456001
 20
-151.7238233739381
 30
0.0
 10
114.8240590456001
 20
-151.7238233739381
 30
0.0
 10
98.82395827942453
 20
-151.7238233739381
 30
0.0
 10
98.82395827942453
 20
-151.7238233739381
 30
0.0
 10
98.82395827942453
 20
-151.7238233739381
 30
0.0
 10
98.82395827942453
 20
-151.7241650784892
 30
0.0
 10
98.82395827942453
 20
-151.7241650784892
 30
0.0
 10
98.82395827942453
 20
-151.7241650784892
 30
0.0
 10
98.82395827942453
 20
-135.695201663408
 30
0.0
 10
98.82395827942453
 20
-135.695201663408
 30
0.0
 10
98.82395827942453
 20
-135.695201663408
 30
0.0
 10
98.22418608260885
 20
-135.695201663408
 30
0.0
 10
98.22418608260885
 20
-135.695201663408
 30
0.0
 10
98.22418608260885
 20
-135.695201663408
 30
0.0
 10
97.82418608270862
 20
-150.7237182356849
 30
0.0
 10
97.82418608270862
 20
-150.7237182356849
 30
0.0
 10
97.82418608270862
 20
-150.7237182356849
 30
0.0
 10
94.87392680194885
 20
-150.7237182356849
 30
0.0
 10
94.87392680194885
 20
-150.7237182356849
 30
0.0
 10
94.87392680194885
 20
-150.7237182356849
 30
0.0
 10
94.82379944320687
 20
-150.7237182356849
 30
0.0
 10
94.82379944320687
 20
-150.7237182356849
 30
0.0
 10
94.82379944320687
 20
-150.7237182356849
 30
0.0
 10
94.82379944320687
 20
-154.4739165486937
 30
0.0
 10
94.82379944320687
 20
-154.4739165486937
 30
0.0
 10
94.82379944320687
 20
-154.4739165486937
 30
0.0
 10
94.82362069212115
 20
-154.7238595978727
 30
0.0
 10
94.82362069212115
 20
-154.7238595978727
 30
0.0
 10
94.82362069212115
 20
-155.2762743060017
 30
0.0
 10
95.27133095847688
 20
-155.7239845723574
 30
0.0
 10
95.82339288883707
 20
-155.7239845723574
 30
0.0
 10
95.82339288883707
 20
-155.7239845723574
 30
0.0
 10
97.82364283780674
 20
-155.7239845723574
 30
0.0
 10
97.82364283780674
 20
-155.7239845723574
 30
0.0
 10
97.82364283780674
 20
-155.7239845723574
 30
0.0
 10
99.52363350145926
 20
-155.7239845723574
 30
0.0
 10
99.52363350145926
 20
-155.7239845723574
 30
0.0
 10
99.52363350145926
 20
-155.7239845723574
 30
0.0
 10
99.82405904934999
 20
-155.7239845723574
 30
0.0
 10
99.82405904934999
 20
-155.7239845723574
 30
0.0
 10
99.82405904934999
 20
-155.7239845723574
 30
0.0
 10
99.82405904934999
 20
-152.7237719595384
 30
0.0
 10
99.82405904934999
 20
-152.7237719595384
 30
0.0
 10
99.82405904934999
 20
-152.7237719595384
 30
0.0
 10
114.8240590456001
 20
-152.3237719596385
 30
0.0
 10
114.8240590456001
 20
-152.3237719596385
 30
0.0
 10
114.8240590456001
 20
-152.3237719596385
 30
0.0
 10
114.8240590456001
 20
-151.7238233739381
 30
0.0
 10
114.8240590456001
 20
-151.7238233739381
 30
0.0
  0
LWPOLYLINE
  5
7A
330
70
100
AcDbEntity
  8
レイヤー 1
 62
    18
420
        0
370
    25
100
AcDbPolyline
 90
        8
 70
     1
 43
0.0
 10
98.82393407486532
 20
-154.7238595978727
 10
95.82409844437462
 20
-154.7238595978727
 10
95.82409844437462
 20
-151.7234904576581
 10
97.82418608270862
 20
-151.7234904576581
 10
97.82418608270862
 20
-151.7234904576581
 10
97.8245388604774
 20
-151.7234904576581
 10
97.8245388604774
 20
-152.7237719595384
 10
98.82393407486532
 20
-152.7237719595384
  0
INSERT
  5
7C
330
70
100
AcDbEntity
  8
レイヤー 1
100
AcDbBlockReference
  2
Block_0
 10
0.0
 20
0.0
 30
0.0
  0
LINE
  5
B3
330
70
100
AcDbEntity
  8
レイヤー 1
  6
AI-Linetype-0
 62
   154
420
    23468
370
    25
100
AcDbLine
 10
99.37395828952539
 20
-135.8516153082403
 30
0.0
 11
99.37395828952539
 21
-145.848170752663
 31
0.0
  0
LINE
  5
B5
330
70
100
AcDbEntity
  8
レイヤー 1
  6
AI-Linetype-1
 62
   154
420
    23468
370
    25
100
AcDbLine
 10
104.8267496658467
 20
-151.1738233705687
 30
0.0
 11
114.8240590450636
 21
-151.1738233705687
 31
0.0
  0
LINE
  5
B7
330
70
100
AcDbEntity
  8
レイヤー 1
 62
    18
420
        0
370
     9
100
AcDbLine
 10
99.87392557187806
 20
-141.1031302286673
 30
0.0
 11
104.9139926343937
 21
-141.1031302286673
 31
0.0
  0
LINE
  5
B8
330
70
100
AcDbEntity
  8
レイヤー 1
 62
    18
420
        0
370
     9
100
AcDbLine
 10
99.87392586159971
 20
-141.1031302286673
 30
0.0
 11
100.8399019480667
 21
-140.8440502352773
 31
0.0
  0
LINE
  5
B9
330
70
100
AcDbEntity
  8
レイヤー 1
 62
    18
420
        0
370
     9
100
AcDbLine
 10
99.87392586159971
 20
-141.1031302286673
 30
0.0
 11
100.8399019480667
 21
-141.3622053405645
 31
0.0
  0
LINE
  5
BA
330
70
100
AcDbEntity
  8
レイヤー 1
 62
    18
420
        0
370
     9
100
AcDbLine
 10
110.8185984263258
 20
-150.9102519525403
 30
0.0
 11
111.0776750721776
 21
-149.9442361988029
 31
0.0
  0
LINE
  5
BB
330
70
100
AcDbEntity
  8
レイヤー 1
 62
    18
420
        0
370
     9
100
AcDbLine
 10
110.8185984263258
 20
-150.910251134804
 30
0.0
 11
110.8185984263258
 21
-143.1862003839821
 31
0.0
  0
LINE
  5
BC
330
70
100
AcDbEntity
  8
レイヤー 1
 62
    18
420
        0
370
     9
100
AcDbLine
 10
110.8185984263258
 20
-150.9102519525403
 30
0.0
 11
110.559515085397
 21
-149.9442361988029
 31
0.0
  0
INSERT
  5
BE
330
70
100
AcDbEntity
  8
レイヤー 1
100
AcDbBlockReference
  2
Block_7
 10
0.0
 20
0.0
 30
0.0
  0
ENDSEC
  0
SECTION
  2
OBJECTS
  0
DICTIONARY
  5
C
330
0
100
AcDbDictionary
281
     1
  3
ACAD_COLOR
350
63
  3
ACAD_DETAILVIEWSTYLE
350
6A
  3
ACAD_GROUP
350
D
  3
ACAD_LAYOUT
350
62
  3
ACAD_MATERIAL
350
10
  3
ACAD_MLEADERSTYLE
350
66
  3
ACAD_MLINESTYLE
350
5F
  3
ACAD_PLOTSETTINGS
350
61
  3
ACAD_PLOTSTYLENAME
350
E
  3
ACAD_SCALELIST
350
42
  3
ACAD_SECTIONVIEWSTYLE
350
68
  3
ACAD_TABLESTYLE
350
64
  3
ACAD_VISUALSTYLE
350
29
  3
ACDB_RECOMPOSE_DATA
350
DF
  3
AcDbVariableDictionary
350
D7
  0
DICTIONARY
  5
63
102
{ACAD_REACTORS
330
C
102
}
330
C
100
AcDbDictionary
281
     1
  0
DICTIONARY
  5
6A
102
{ACAD_REACTORS
330
C
102
}
330
C
100
AcDbDictionary
281
     1
  3
Imperial24
350
6B
  0
DICTIONARY
  5
D
102
{ACAD_REACTORS
330
C
102
}
330
C
100
AcDbDictionary
281
     1
  0
DICTIONARY
  5
62
102
{ACAD_REACTORS
330
C
102
}
330
C
100
AcDbDictionary
281
     1
  3
Layout1
350
6F
  3
Layout2
350
77
  3
Model
350
73
  0
DICTIONARY
  5
10
102
{ACAD_REACTORS
330
C
102
}
330
C
100
AcDbDictionary
281
     1
  3
ByBlock
350
19
  3
ByLayer
350
11
  3
Global
350
21
  0
DICTIONARY
  5
66
102
{ACAD_REACTORS
330
C
102
}
330
C
100
AcDbDictionary
281
     1
  3
Standard
350
67
  0
DICTIONARY
  5
5F
102
{ACAD_REACTORS
330
C
102
}
330
C
100
AcDbDictionary
281
     1
  3
Standard
350
60
  0
DICTIONARY
  5
61
102
{ACAD_REACTORS
330
C
102
}
330
C
100
AcDbDictionary
281
     1
  0
ACDBDICTIONARYWDFLT
  5
E
102
{ACAD_REACTORS
330
C
102
}
330
C
100
AcDbDictionary
281
     1
  3
Normal
350
F
100
AcDbDictionaryWithDefault
340
F
  0
DICTIONARY
  5
42
102
{ACAD_REACTORS
330
C
102
}
330
C
100
AcDbDictionary
281
     1
  3
A0
350
43
  3
A1
350
44
  3
A2
350
45
  3
A3
350
46
  3
A4
350
47
  3
A5
350
48
  3
A6
350
49
  3
A7
350
4A
  3
A8
350
4B
  3
A9
350
4C
  3
B0
350
4D
  3
B1
350
4E
  3
B2
350
4F
  3
B3
350
50
  3
B4
350
51
  3
B5
350
52
  3
B6
350
53
  0
DICTIONARY
  5
68
102
{ACAD_REACTORS
330
C
102
}
330
C
100
AcDbDictionary
281
     1
  3
Imperial24
350
69
  0
DICTIONARY
  5
64
102
{ACAD_REACTORS
330
C
102
}
330
C
100
AcDbDictionary
281
     1
  3
Standard
350
65
  0
DICTIONARY
  5
29
102
{ACAD_REACTORS
330
C
102
}
330
C
100
AcDbDictionary
281
     1
  3
2dWireframe
350
2F
  3
Basic
350
2E
  3
Brighten
350
35
  3
ColorChange
350
39
  3
Conceptual
350
32
  3
Dim
350
34
  3
EdgeColorOff
350
41
  3
Facepattern
350
38
  3
Flat
350
2A
  3
FlatWithEdges
350
2B
  3
Gouraud
350
2C
  3
GouraudWithEdges
350
2D
  3
Hidden
350
31
  3
JitterOff
350
3F
  3
Linepattern
350
37
  3
OverhangOff
350
40
  3
Realistic
350
33
  3
Shaded
350
3E
  3
Shaded with edges
350
3D
  3
Shades of Gray
350
3A
  3
Sketchy
350
3B
  3
Thicken
350
36
  3
Wireframe
350
30
  3
X-Ray
350
3C
  0
XRECORD
  5
DF
102
{ACAD_REACTORS
330
C
102
}
330
C
100
AcDbXrecord
280
     1
 90
        1
330
65
  0
DICTIONARY
  5
D7
102
{ACAD_REACTORS
330
C
102
}
330
C
100
AcDbDictionary
281
     1
  3
CANNOSCALE
350
DC
  3
CMLEADERSTYLE
350
D9
  3
CTABLESTYLE
350
D8
  3
CVIEWDETAILSTYLE
350
DA
  3
CVIEWSECTIONSTYLE
350
DB
  0
ACDBDETAILVIEWSTYLE
  5
6B
102
{ACAD_XDICTIONARY
360
114
102
}
102
{ACAD_REACTORS
330
6A
102
}
330
6A
100
AcDbModelDocViewStyle
 70
     0
  3
Imperial24
290
     0
100
AcDbDetailViewStyle
 70
     0
 71
     0
 90
        3
 71
     1
340
55
 62
   256
 40
0.24
340
0
 62
   256
 40
0.24
300

 40
0.36
280
     3
 71
     2
340
5D
 90
       25
 62
   256
 71
     3
340
55
 62
   256
 40
0.24
 90
        1
 40
0.75
 90
        1
300
%<\AcVar ViewType \f "%tc1">% %<\AcVar ViewDetailId>%\PSCALE %<\AcVar ViewScale \f "%sn">%
 71
     4
340
5D
 90
       25
 62
   256
340
5D
 90
       25
 62
   256
280
     0
  0
LAYOUT
  5
6F
102
{ACAD_REACTORS
330
62
102
}
330
62
100
AcDbPlotSettings
  1

  2

  4

  6

 40
0.0
 41
0.0
 42
0.0
 43
0.0
 44
0.0
 45
0.0
 46
0.0
 47
0.0
 48
0.0
 49
0.0
140
0.0
141
0.0
142
1.0
143
1.0
 70
   688
 72
     0
 73
     0
 74
     5
  7

 75
    16
147
1.0
 76
     0
 77
     2
 78
   300
148
0.0
149
0.0
100
AcDbLayout
  1
Layout1
 70
     1
 71
     1
 10
0.0
 20
0.0
 11
12.0
 21
9.0
 12
0.0
 22
0.0
 32
0.0
 14
0.0
 24
0.0
 34
0.0
 15
0.0
 25
0.0
 35
0.0
146
0.0
 13
0.0
 23
0.0
 33
0.0
 16
1.0
 26
0.0
 36
0.0
 17
0.0
 27
1.0
 37
0.0
 76
     0
330
6C
  0
LAYOUT
  5
77
102
{ACAD_REACTORS
330
62
102
}
330
62
100
AcDbPlotSettings
  1

  2

  4

  6

 40
0.0
 41
0.0
 42
0.0
 43
0.0
 44
0.0
 45
0.0
 46
0.0
 47
0.0
 48
0.0
 49
0.0
140
0.0
141
0.0
142
1.0
143
1.0
 70
   688
 72
     0
 73
     0
 74
     5
  7

 75
    16
147
1.0
 76
     0
 77
     2
 78
   300
148
0.0
149
0.0
100
AcDbLayout
  1
Layout2
 70
     1
 71
     2
 10
0.0
 20
0.0
 11
12.0
 21
9.0
 12
0.0
 22
0.0
 32
0.0
 14
0.0
 24
0.0
 34
0.0
 15
0.0
 25
0.0
 35
0.0
146
0.0
 13
0.0
 23
0.0
 33
0.0
 16
1.0
 26
0.0
 36
0.0
 17
0.0
 27
1.0
 37
0.0
 76
     0
330
74
  0
LAYOUT
  5
73
102
{ACAD_REACTORS
330
62
102
}
330
62
100
AcDbPlotSettings
  1

  2

  4

  6

 40
0.0
 41
0.0
 42
0.0
 43
0.0
 44
0.0
 45
0.0
 46
0.0
 47
0.0
 48
0.0
 49
0.0
140
0.0
141
0.0
142
1.0
143
1.0
 70
  1712
 72
     0
 73
     0
 74
     0
  7

 75
     0
147
1.0
 76
     0
 77
     2
 78
   300
148
0.0
149
0.0
100
AcDbLayout
  1
Model
 70
     1
 71
     0
 10
0.0
 20
0.0
 11
12.0
 21
9.0
 12
0.0
 22
0.0
 32
0.0
 14
0.0
 24
0.0
 34
0.0
 15
0.0
 25
0.0
 35
0.0
146
0.0
 13
0.0
 23
0.0
 33
0.0
 16
1.0
 26
0.0
 36
0.0
 17
0.0
 27
1.0
 37
0.0
 76
     0
330
70
  0
MATERIAL
  5
19
102
{ACAD_XDICTIONARY
360
1A
102
}
102
{ACAD_REACTORS
330
10
102
}
330
10
100
AcDbMaterial
  1
ByBlock
 72
     0
 43
0.0208333333333333
 43
0.0
 43
0.0
 43
0.0
 43
0.0
 43
0.0208333333333333
 43
0.0
 43
0.0
 43
0.0
 43
0.0
 43
1.0
 43
0.0
 43
0.0
 43
0.0
 43
0.0
 43
1.0
 77
     0
 47
0.0208333333333333
 47
0.0
 47
0.0
 47
0.0
 47
0.0
 47
0.0208333333333333
 47
0.0
 47
0.0
 47
0.0
 47
0.0
 47
1.0
 47
0.0
 47
0.0
 47
0.0
 47
0.0
 47
1.0
171
     0
 49
0.0208333333333333
 49
0.0
 49
0.0
 49
0.0
 49
0.0
 49
0.0208333333333333
 49
0.0
 49
0.0
 49
0.0
 49
0.0
 49
1.0
 49
0.0
 49
0.0
 49
0.0
 49
0.0
 49
1.0
175
     0
142
0.0208333333333333
142
0.0
142
0.0
142
0.0
142
0.0
142
0.0208333333333333
142
0.0
142
0.0
142
0.0
142
0.0
142
1.0
142
0.0
142
0.0
142
0.0
142
0.0
142
1.0
179
     0
144
0.0208333333333333
144
0.0
144
0.0
144
0.0
144
0.0
144
0.0208333333333333
144
0.0
144
0.0
144
0.0
144
0.0
144
1.0
144
0.0
144
0.0
144
0.0
144
0.0
144
1.0
147
0.0208333333333333
147
0.0
147
0.0
147
0.0
147
0.0
147
0.0208333333333333
147
0.0
147
0.0
147
0.0
147
0.0
147
1.0
147
0.0
147
0.0
147
0.0
147
0.0
147
1.0
  0
MATERIAL
  5
11
102
{ACAD_XDICTIONARY
360
12
102
}
102
{ACAD_REACTORS
330
10
102
}
330
10
100
AcDbMaterial
  1
ByLayer
 72
     0
 43
0.0208333333333333
 43
0.0
 43
0.0
 43
0.0
 43
0.0
 43
0.0208333333333333
 43
0.0
 43
0.0
 43
0.0
 43
0.0
 43
1.0
 43
0.0
 43
0.0
 43
0.0
 43
0.0
 43
1.0
 77
     0
 47
0.0208333333333333
 47
0.0
 47
0.0
 47
0.0
 47
0.0
 47
0.0208333333333333
 47
0.0
 47
0.0
 47
0.0
 47
0.0
 47
1.0
 47
0.0
 47
0.0
 47
0.0
 47
0.0
 47
1.0
171
     0
 49
0.0208333333333333
 49
0.0
 49
0.0
 49
0.0
 49
0.0
 49
0.0208333333333333
 49
0.0
 49
0.0
 49
0.0
 49
0.0
 49
1.0
 49
0.0
 49
0.0
 49
0.0
 49
0.0
 49
1.0
175
     0
142
0.0208333333333333
142
0.0
142
0.0
142
0.0
142
0.0
142
0.0208333333333333
142
0.0
142
0.0
142
0.0
142
0.0
142
1.0
142
0.0
142
0.0
142
0.0
142
0.0
142
1.0
179
     0
144
0.0208333333333333
144
0.0
144
0.0
144
0.0
144
0.0
144
0.0208333333333333
144
0.0
144
0.0
144
0.0
144
0.0
144
1.0
144
0.0
144
0.0
144
0.0
144
0.0
144
1.0
147
0.0208333333333333
147
0.0
147
0.0
147
0.0
147
0.0
147
0.0208333333333333
147
0.0
147
0.0
147
0.0
147
0.0
147
1.0
147
0.0
147
0.0
147
0.0
147
0.0
147
1.0
  0
MATERIAL
  5
21
102
{ACAD_XDICTIONARY
360
22
102
}
102
{ACAD_REACTORS
330
10
102
}
330
10
100
AcDbMaterial
  1
Global
 72
     0
 43
0.0208333333333333
 43
0.0
 43
0.0
 43
0.0
 43
0.0
 43
0.0208333333333333
 43
0.0
 43
0.0
 43
0.0
 43
0.0
 43
1.0
 43
0.0
 43
0.0
 43
0.0
 43
0.0
 43
1.0
 77
     0
 47
0.0208333333333333
 47
0.0
 47
0.0
 47
0.0
 47
0.0
 47
0.0208333333333333
 47
0.0
 47
0.0
 47
0.0
 47
0.0
 47
1.0
 47
0.0
 47
0.0
 47
0.0
 47
0.0
 47
1.0
171
     0
 49
0.0208333333333333
 49
0.0
 49
0.0
 49
0.0
 49
0.0
 49
0.0208333333333333
 49
0.0
 49
0.0
 49
0.0
 49
0.0
 49
1.0
 49
0.0
 49
0.0
 49
0.0
 49
0.0
 49
1.0
175
     0
142
0.0208333333333333
142
0.0
142
0.0
142
0.0
142
0.0
142
0.0208333333333333
142
0.0
142
0.0
142
0.0
142
0.0
142
1.0
142
0.0
142
0.0
142
0.0
142
0.0
142
1.0
179
     0
144
0.0208333333333333
144
0.0
144
0.0
144
0.0
144
0.0
144
0.0208333333333333
144
0.0
144
0.0
144
0.0
144
0.0
144
1.0
144
0.0
144
0.0
144
0.0
144
0.0
144
1.0
147
0.0208333333333333
147
0.0
147
0.0
147
0.0
147
0.0
147
0.0208333333333333
147
0.0
147
0.0
147
0.0
147
0.0
147
1.0
147
0.0
147
0.0
147
0.0
147
0.0
147
1.0
  0
MLEADERSTYLE
  5
67
102
{ACAD_XDICTIONARY
360
110
102
}
102
{ACAD_REACTORS
330
66
102
}
330
66
100
AcDbMLeaderStyle
179
     2
170
     2
171
     1
172
     0
 90
        2
 40
0.0
 41
0.0
173
     1
 91
-1056964608
340
5B
 92
       -2
290
     1
 42
0.09
291
     1
 43
0.36
  3
Standard
 44
0.18
300

342
55
174
     1
178
     6
175
     1
176
     0
 93
-1056964608
 45
0.18
292
     0
297
     0
 46
0.18
 94
-1056964608
 47
1.0
 49
1.0
140
1.0
293
     1
141
0.0
294
     1
177
     0
142
1.0
295
     0
296
     0
143
0.125
271
     0
272
     9
273
     9
  0
MLINESTYLE
  5
60
102
{ACAD_REACTORS
330
5F
102
}
330
5F
100
AcDbMlineStyle
  2
STANDARD
 70
     0
  3

 62
   256
 51
90.0
 52
90.0
 71
     2
 49
0.5
 62
   256
  6
BYLAYER
 49
-0.5
 62
   256
  6
BYLAYER
  0
ACDBPLACEHOLDER
  5
F
102
{ACAD_REACTORS
330
E
102
}
330
E
  0
SCALE
  5
43
102
{ACAD_REACTORS
330
42
102
}
330
42
100
AcDbScale
 70
     0
300
1:1
140
1.0
141
1.0
290
     1
  0
SCALE
  5
44
102
{ACAD_REACTORS
330
42
102
}
330
42
100
AcDbScale
 70
     0
300
1/128" = 1'-0"
140
0.0078125
141
12.0
290
     0
  0
SCALE
  5
45
102
{ACAD_REACTORS
330
42
102
}
330
42
100
AcDbScale
 70
     0
300
1/64" = 1'-0"
140
0.015625
141
12.0
290
     0
  0
SCALE
  5
46
102
{ACAD_REACTORS
330
42
102
}
330
42
100
AcDbScale
 70
     0
300
1/32" = 1'-0"
140
0.03125
141
12.0
290
     0
  0
SCALE
  5
47
102
{ACAD_REACTORS
330
42
102
}
330
42
100
AcDbScale
 70
     0
300
1/16" = 1'-0"
140
0.0625
141
12.0
290
     0
  0
SCALE
  5
48
102
{ACAD_REACTORS
330
42
102
}
330
42
100
AcDbScale
 70
     0
300
3/32" = 1'-0"
140
0.09375
141
12.0
290
     0
  0
SCALE
  5
49
102
{ACAD_REACTORS
330
42
102
}
330
42
100
AcDbScale
 70
     0
300
1/8" = 1'-0"
140
0.125
141
12.0
290
     0
  0
SCALE
  5
4A
102
{ACAD_REACTORS
330
42
102
}
330
42
100
AcDbScale
 70
     0
300
3/16" = 1'-0"
140
0.1875
141
12.0
290
     0
  0
SCALE
  5
4B
102
{ACAD_REACTORS
330
42
102
}
330
42
100
AcDbScale
 70
     0
300
1/4" = 1'-0"
140
0.25
141
12.0
290
     0
  0
SCALE
  5
4C
102
{ACAD_REACTORS
330
42
102
}
330
42
100
AcDbScale
 70
     0
300
3/8" = 1'-0"
140
0.375
141
12.0
290
     0
  0
SCALE
  5
4D
102
{ACAD_REACTORS
330
42
102
}
330
42
100
AcDbScale
 70
     0
300
1/2" = 1'-0"
140
0.5
141
12.0
290
     0
  0
SCALE
  5
4E
102
{ACAD_REACTORS
330
42
102
}
330
42
100
AcDbScale
 70
     0
300
3/4" = 1'-0"
140
0.75
141
12.0
290
     0
  0
SCALE
  5
4F
102
{ACAD_REACTORS
330
42
102
}
330
42
100
AcDbScale
 70
     0
300
1" = 1'-0"
140
1.0
141
12.0
290
     0
  0
SCALE
  5
50
102
{ACAD_REACTORS
330
42
102
}
330
42
100
AcDbScale
 70
     0
300
1-1/2" = 1'-0"
140
1.5
141
12.0
290
     0
  0
SCALE
  5
51
102
{ACAD_REACTORS
330
42
102
}
330
42
100
AcDbScale
 70
     0
300
3" = 1'-0"
140
3.0
141
12.0
290
     0
  0
SCALE
  5
52
102
{ACAD_REACTORS
330
42
102
}
330
42
100
AcDbScale
 70
     0
300
6" = 1'-0"
140
6.0
141
12.0
290
     0
  0
SCALE
  5
53
102
{ACAD_REACTORS
330
42
102
}
330
42
100
AcDbScale
 70
     0
300
1'-0" = 1'-0"
140
12.0
141
12.0
290
     0
  0
ACDBSECTIONVIEWSTYLE
  5
69
102
{ACAD_XDICTIONARY
360
112
102
}
102
{ACAD_REACTORS
330
68
102
}
330
68
100
AcDbModelDocViewStyle
 70
     0
  3
Imperial24
290
     0
100
AcDbSectionViewStyle
 70
     0
 71
     0
 90
       78
 71
     1
340
55
 62
   256
 40
0.24
340
0
340
0
 62
   256
 40
0.24
300
I, O, Q, S, X, Z
 40
0.48
 90
        3
 40
0.18
 90
        1
 71
     2
340
5D
 90
       25
 62
   256
340
5D
 90
       50
 62
   256
 40
0.24
 40
0.0
 40
0.24
 71
     3
340
55
 62
   256
 40
0.24
 90
        1
 40
0.75
 90
        1
300
%<\AcVar ViewType \f "%tc1">% %<\AcVar ViewSectionStartId>%-%<\AcVar ViewSectionEndId>%\PSCALE %<\AcVar ViewScale \f "%sn">%
 71
     4
 62
   256
 62
   257
300
ANSI31
 40
1.0
 90
        0
290
     0
290
     0
 90
        6
 40
0.0
 40
1.570796326794896
 40
0.2617993877991494
 40
1.308996938995747
 40
-0.2617993877991494
 40
1.832595714594046
  0
TABLESTYLE
  5
65
102
{ACAD_XDICTIONARY
360
DD
102
}
102
{ACAD_REACTORS
330
64
102
}
330
64
100
AcDbTableStyle
280
     0
  3
Standard
 70
     0
 71
     0
 40
0.06
 41
0.06
280
     0
281
     0
  7
Standard
140
0.18
170
     2
 62
     0
 63
     7
283
     0
 90
      512
 91
        0
  1

274
    -2
284
     1
 64
     0
275
    -2
285
     1
 65
     0
276
    -2
286
     1
 66
     0
277
    -2
287
     1
 67
     0
278
    -2
288
     1
 68
     0
279
    -2
289
     1
 69
     0
  7
Standard
140
0.25
170
     5
 62
     0
 63
     7
283
     0
 90
      512
 91
        0
  1

274
    -2
284
     1
 64
     0
275
    -2
285
     1
 65
     0
276
    -2
286
     1
 66
     0
277
    -2
287
     1
 67
     0
278
    -2
288
     1
 68
     0
279
    -2
289
     1
 69
     0
  7
Standard
140
0.18
170
     5
 62
     0
 63
     7
283
     0
 90
      512
 91
        0
  1

274
    -2
284
     1
 64
     0
275
    -2
285
     1
 65
     0
276
    -2
286
     1
 66
     0
277
    -2
287
     1
 67
     0
278
    -2
288
     1
 68
     0
279
    -2
289
     1
 69
     0
  0
VISUALSTYLE
  5
2F
102
{ACAD_XDICTIONARY
360
EA
102
}
102
{ACAD_REACTORS
330
29
102
}
330
29
100
AcDbVisualStyle
  2
2dWireframe
 70
     4
177
     2
291
     0
 71
     0
176
     1
 72
     2
176
     1
 73
     0
176
     1
 90
        0
176
     1
 40
0.6
176
     1
 41
30.0
176
     1
 63
     7
421
 16777215
176
     1
 74
     1
176
     1
 91
        4
176
     1
 64
     7
176
     1
 65
   257
176
     1
 75
     1
176
     1
175
     1
176
     1
 42
1.0
176
     1
 92
        0
176
     1
 66
   257
176
     1
 43
1.0
176
     1
 76
     1
176
     1
 77
     6
176
     1
 78
     2
176
     1
 67
     7
176
     1
 79
     5
176
     1
170
     0
176
     1
171
     0
176
     1
290
     0
176
     1
 93
        1
176
     1
 44
0.0
176
     1
173
     0
176
     1
1001
ACAD
1000
AcDbSavedByObjectVersion
1070
     0
  0
VISUALSTYLE
  5
2E
102
{ACAD_XDICTIONARY
360
E8
102
}
102
{ACAD_REACTORS
330
29
102
}
330
29
100
AcDbVisualStyle
  2
Basic
 70
     7
177
     2
291
     1
 71
     1
176
     1
 72
     0
176
     1
 73
     1
176
     1
 90
        0
176
     1
 40
0.6
176
     1
 41
30.0
176
     1
 63
     7
421
 16777215
176
     1
 74
     0
176
     1
 91
        4
176
     1
 64
     7
176
     1
 65
   257
176
     1
 75
     1
176
     1
175
     1
176
     1
 42
1.0
176
     1
 92
        8
176
     1
 66
     7
176
     1
 43
1.0
176
     1
 76
     1
176
     1
 77
     6
176
     1
 78
     2
176
     1
 67
     7
176
     1
 79
     5
176
     1
170
     0
176
     1
171
     0
176
     1
290
     0
176
     1
 93
        1
176
     1
 44
0.0
176
     1
173
     0
176
     1
1001
ACAD
1000
AcDbSavedByObjectVersion
1070
     0
  0
VISUALSTYLE
  5
35
102
{ACAD_XDICTIONARY
360
F6
102
}
102
{ACAD_REACTORS
330
29
102
}
330
29
100
AcDbVisualStyle
  2
Brighten
 70
    12
177
     2
291
     1
 71
     2
176
     1
 72
     2
176
     1
 73
     0
176
     1
 90
        0
176
     1
 40
0.6
176
     1
 41
30.0
176
     1
 63
     7
421
 16777215
176
     1
 74
     1
176
     1
 91
        4
176
     1
 64
     7
176
     1
 65
   257
176
     1
 75
     1
176
     1
175
     1
176
     1
 42
1.0
176
     1
 92
        8
176
     1
 66
     7
176
     1
 43
1.0
176
     1
 76
     1
176
     1
 77
     6
176
     1
 78
     2
176
     1
 67
     7
176
     1
 79
     5
176
     1
170
     0
176
     1
171
     0
176
     1
290
     0
176
     1
 93
        1
176
     1
 44
50.0
176
     1
173
     0
176
     1
1001
ACAD
1000
AcDbSavedByObjectVersion
1070
     0
  0
VISUALSTYLE
  5
39
102
{ACAD_XDICTIONARY
360
FE
102
}
102
{ACAD_REACTORS
330
29
102
}
330
29
100
AcDbVisualStyle
  2
ColorChange
 70
    16
177
     2
291
     1
 71
     2
176
     1
 72
     2
176
     1
 73
     3
176
     1
 90
        0
176
     1
 40
0.6
176
     1
 41
30.0
176
     1
 63
     8
421
  8421504
176
     1
 74
     1
176
     1
 91
        4
176
     1
 64
     7
176
     1
 65
   257
176
     1
 75
     1
176
     1
175
     1
176
     1
 42
1.0
176
     1
 92
        8
176
     1
 66
     8
424
  8421504
176
     1
 43
1.0
176
     1
 76
     1
176
     1
 77
     6
176
     1
 78
     2
176
     1
 67
     7
176
     1
 79
     5
176
     1
170
     0
176
     1
171
     0
176
     1
290
     0
176
     1
 93
        1
176
     1
 44
0.0
176
     1
173
     0
176
     1
1001
ACAD
1000
AcDbSavedByObjectVersion
1070
     0
  0
VISUALSTYLE
  5
32
102
{ACAD_XDICTIONARY
360
F0
102
}
102
{ACAD_REACTORS
330
29
102
}
330
29
100
AcDbVisualStyle
  2
Conceptual
 70
     9
177
     2
291
     0
 71
     3
176
     1
 72
     2
176
     1
 73
     0
176
     1
 90
        0
176
     1
 40
0.6
176
     1
 41
30.0
176
     1
 63
     7
421
 16777215
176
     1
 74
     2
176
     1
 91
        2
176
     1
 64
     7
176
     1
 65
   257
176
     1
 75
     1
176
     1
175
     1
176
     1
 42
179.0
176
     1
 92
        8
176
     1
 66
     7
176
     1
 43
1.0
176
     1
 76
     1
176
     1
 77
     6
176
     1
 78
     2
176
     1
 67
     7
176
     1
 79
     3
176
     1
170
     0
176
     1
171
     0
176
     1
290
     0
176
     1
 93
        1
176
     1
 44
0.0
176
     1
173
     0
176
     1
1001
ACAD
1000
AcDbSavedByObjectVersion
1070
     0
  0
VISUALSTYLE
  5
34
102
{ACAD_XDICTIONARY
360
F4
102
}
102
{ACAD_REACTORS
330
29
102
}
330
29
100
AcDbVisualStyle
  2
Dim
 70
    11
177
     2
291
     1
 71
     2
176
     1
 72
     2
176
     1
 73
     0
176
     1
 90
        0
176
     1
 40
0.6
176
     1
 41
30.0
176
     1
 63
     7
421
 16777215
176
     1
 74
     1
176
     1
 91
        4
176
     1
 64
     7
176
     1
 65
   257
176
     1
 75
     1
176
     1
175
     1
176
     1
 42
1.0
176
     1
 92
        8
176
     1
 66
     7
176
     1
 43
1.0
176
     1
 76
     1
176
     1
 77
     6
176
     1
 78
     2
176
     1
 67
     7
176
     1
 79
     5
176
     1
170
     0
176
     1
171
     0
176
     1
290
     0
176
     1
 93
        1
176
     1
 44
-50.0
176
     1
173
     0
176
     1
1001
ACAD
1000
AcDbSavedByObjectVersion
1070
     0
  0
VISUALSTYLE
  5
41
102
{ACAD_XDICTIONARY
360
10E
102
}
102
{ACAD_REACTORS
330
29
102
}
330
29
100
AcDbVisualStyle
  2
EdgeColorOff
 70
    22
177
     2
291
     1
 71
     2
176
     0
 72
     2
176
     0
 73
     0
176
     0
 90
        0
176
     0
 40
0.6
176
     0
 41
30.0
176
     0
 63
     7
421
 16777215
176
     0
 74
     1
176
     0
 91
        4
176
     0
 64
     7
176
     0
 65
   257
176
     0
 75
     1
176
     0
175
     1
176
     0
 42
1.0
176
     0
 92
        8
176
     2
 66
     7
176
     0
 43
1.0
176
     0
 76
     1
176
     0
 77
     6
176
     0
 78
     2
176
     0
 67
     7
176
     0
 79
     5
176
     0
170
     0
176
     0
171
     0
176
     0
290
     0
176
     0
 93
        1
176
     0
 44
0.0
176
     0
173
     0
176
     0
1001
ACAD
1000
AcDbSavedByObjectVersion
1070
     0
  0
VISUALSTYLE
  5
38
102
{ACAD_XDICTIONARY
360
FC
102
}
102
{ACAD_REACTORS
330
29
102
}
330
29
100
AcDbVisualStyle
  2
Facepattern
 70
    15
177
     2
291
     1
 71
     2
176
     1
 72
     2
176
     1
 73
     0
176
     1
 90
        0
176
     1
 40
0.6
176
     1
 41
30.0
176
     1
 63
     7
421
 16777215
176
     1
 74
     1
176
     1
 91
        4
176
     1
 64
     7
176
     1
 65
   257
176
     1
 75
     1
176
     1
175
     1
176
     1
 42
1.0
176
     1
 92
        8
176
     1
 66
     7
176
     1
 43
1.0
176
     1
 76
     1
176
     1
 77
     6
176
     1
 78
     2
176
     1
 67
     7
176
     1
 79
     5
176
     1
170
     0
176
     1
171
     0
176
     1
290
     0
176
     1
 93
        1
176
     1
 44
0.0
176
     1
173
     0
176
     1
1001
ACAD
1000
AcDbSavedByObjectVersion
1070
     0
  0
VISUALSTYLE
  5
2A
102
{ACAD_XDICTIONARY
360
E0
102
}
102
{ACAD_REACTORS
330
29
102
}
330
29
100
AcDbVisualStyle
  2
Flat
 70
     0
177
     2
291
     1
 71
     2
176
     1
 72
     1
176
     1
 73
     1
176
     1
 90
        2
176
     1
 40
0.6
176
     1
 41
30.0
176
     1
 63
     7
421
 16777215
176
     1
 74
     0
176
     1
 91
        0
176
     1
 64
     7
176
     1
 65
   257
176
     1
 75
     1
176
     1
175
     1
176
     1
 42
1.0
176
     1
 92
        8
176
     1
 66
     7
176
     1
 43
1.0
176
     1
 76
     1
176
     1
 77
     6
176
     1
 78
     2
176
     1
 67
     7
176
     1
 79
     5
176
     1
170
     0
176
     1
171
     0
176
     1
290
     0
176
     1
 93
       13
176
     1
 44
0.0
176
     1
173
     0
176
     1
1001
ACAD
1000
AcDbSavedByObjectVersion
1070
     0
  0
VISUALSTYLE
  5
2B
102
{ACAD_XDICTIONARY
360
E2
102
}
102
{ACAD_REACTORS
330
29
102
}
330
29
100
AcDbVisualStyle
  2
FlatWithEdges
 70
     1
177
     2
291
     1
 71
     2
176
     1
 72
     1
176
     1
 73
     1
176
     1
 90
        2
176
     1
 40
0.6
176
     1
 41
30.0
176
     1
 63
     7
421
 16777215
176
     1
 74
     1
176
     1
 91
        0
176
     1
 64
     7
176
     1
 65
   257
176
     1
 75
     1
176
     1
175
     1
176
     1
 42
1.0
176
     1
 92
        0
176
     1
 66
   257
176
     1
 43
1.0
176
     1
 76
     1
176
     1
 77
     6
176
     1
 78
     2
176
     1
 67
     7
176
     1
 79
     5
176
     1
170
     0
176
     1
171
     0
176
     1
290
     0
176
     1
 93
       13
176
     1
 44
0.0
176
     1
173
     0
176
     1
1001
ACAD
1000
AcDbSavedByObjectVersion
1070
     0
  0
VISUALSTYLE
  5
2C
102
{ACAD_XDICTIONARY
360
E4
102
}
102
{ACAD_REACTORS
330
29
102
}
330
29
100
AcDbVisualStyle
  2
Gouraud
 70
     2
177
     2
291
     1
 71
     2
176
     1
 72
     2
176
     1
 73
     1
176
     1
 90
        2
176
     1
 40
0.6
176
     1
 41
30.0
176
     1
 63
     7
421
 16777215
176
     1
 74
     0
176
     1
 91
        0
176
     1
 64
     7
176
     1
 65
   257
176
     1
 75
     1
176
     1
175
     1
176
     1
 42
1.0
176
     1
 92
        0
176
     1
 66
     7
176
     1
 43
1.0
176
     1
 76
     1
176
     1
 77
     6
176
     1
 78
     2
176
     1
 67
     7
176
     1
 79
     5
176
     1
170
     0
176
     1
171
     0
176
     1
290
     0
176
     1
 93
       13
176
     1
 44
0.0
176
     1
173
     0
176
     1
1001
ACAD
1000
AcDbSavedByObjectVersion
1070
     0
  0
VISUALSTYLE
  5
2D
102
{ACAD_XDICTIONARY
360
E6
102
}
102
{ACAD_REACTORS
330
29
102
}
330
29
100
AcDbVisualStyle
  2
GouraudWithEdges
 70
     3
177
     2
291
     1
 71
     2
176
     1
 72
     2
176
     1
 73
     1
176
     1
 90
        2
176
     1
 40
0.6
176
     1
 41
30.0
176
     1
 63
     7
421
 16777215
176
     1
 74
     1
176
     1
 91
        0
176
     1
 64
     7
176
     1
 65
   257
176
     1
 75
     1
176
     1
175
     1
176
     1
 42
1.0
176
     1
 92
        0
176
     1
 66
   257
176
     1
 43
1.0
176
     1
 76
     1
176
     1
 77
     6
176
     1
 78
     2
176
     1
 67
     7
176
     1
 79
     5
176
     1
170
     0
176
     1
171
     0
176
     1
290
     0
176
     1
 93
       13
176
     1
 44
0.0
176
     1
173
     0
176
     1
1001
ACAD
1000
AcDbSavedByObjectVersion
1070
     0
  0
VISUALSTYLE
  5
31
102
{ACAD_XDICTIONARY
360
EE
102
}
102
{ACAD_REACTORS
330
29
102
}
330
29
100
AcDbVisualStyle
  2
Hidden
 70
     6
177
     2
291
     0
 71
     1
176
     1
 72
     2
176
     1
 73
     2
176
     1
 90
        0
176
     1
 40
0.6
176
     1
 41
30.0
176
     1
 63
     7
421
 16777215
176
     1
 74
     2
176
     1
 91
        2
176
     1
 64
     7
176
     1
 65
   257
176
     1
 75
     2
176
     1
175
     1
176
     1
 42
40.0
176
     1
 92
        0
176
     1
 66
   257
176
     1
 43
1.0
176
     1
 76
     1
176
     1
 77
     6
176
     1
 78
     2
176
     1
 67
     7
176
     1
 79
     3
176
     1
170
     0
176
     1
171
     0
176
     1
290
     0
176
     1
 93
        1
176
     1
 44
0.0
176
     1
173
     0
176
     1
1001
ACAD
1000
AcDbSavedByObjectVersion
1070
     0
  0
VISUALSTYLE
  5
3F
102
{ACAD_XDICTIONARY
360
10A
102
}
102
{ACAD_REACTORS
330
29
102
}
330
29
100
AcDbVisualStyle
  2
JitterOff
 70
    20
177
     2
291
     1
 71
     2
176
     0
 72
     2
176
     0
 73
     0
176
     0
 90
        0
176
     0
 40
0.6
176
     0
 41
30.0
176
     0
 63
     7
421
 16777215
176
     0
 74
     1
176
     0
 91
        4
176
     0
 64
     7
176
     0
 65
   257
176
     0
 75
     1
176
     0
175
     1
176
     0
 42
1.0
176
     0
 92
       10
176
     2
 66
     7
176
     0
 43
1.0
176
     0
 76
     1
176
     0
 77
     6
176
     0
 78
     2
176
     0
 67
     7
176
     0
 79
     5
176
     0
170
     0
176
     0
171
     0
176
     0
290
     0
176
     0
 93
        1
176
     0
 44
0.0
176
     0
173
     0
176
     0
1001
ACAD
1000
AcDbSavedByObjectVersion
1070
     0
  0
VISUALSTYLE
  5
37
102
{ACAD_XDICTIONARY
360
FA
102
}
102
{ACAD_REACTORS
330
29
102
}
330
29
100
AcDbVisualStyle
  2
Linepattern
 70
    14
177
     2
291
     1
 71
     2
176
     1
 72
     2
176
     1
 73
     0
176
     1
 90
        0
176
     1
 40
0.6
176
     1
 41
30.0
176
     1
 63
     7
421
 16777215
176
     1
 74
     1
176
     1
 91
        4
176
     1
 64
     7
176
     1
 65
   257
176
     1
 75
     7
176
     1
175
     7
176
     1
 42
1.0
176
     1
 92
        8
176
     1
 66
     7
176
     1
 43
1.0
176
     1
 76
     1
176
     1
 77
     6
176
     1
 78
     2
176
     1
 67
     7
176
     1
 79
     5
176
     1
170
     0
176
     1
171
     0
176
     1
290
     0
176
     1
 93
        1
176
     1
 44
0.0
176
     1
173
     0
176
     1
1001
ACAD
1000
AcDbSavedByObjectVersion
1070
     0
  0
VISUALSTYLE
  5
40
102
{ACAD_XDICTIONARY
360
10C
102
}
102
{ACAD_REACTORS
330
29
102
}
330
29
100
AcDbVisualStyle
  2
OverhangOff
 70
    21
177
     2
291
     1
 71
     2
176
     0
 72
     2
176
     0
 73
     0
176
     0
 90
        0
176
     0
 40
0.6
176
     0
 41
30.0
176
     0
 63
     7
421
 16777215
176
     0
 74
     1
176
     0
 91
        4
176
     0
 64
     7
176
     0
 65
   257
176
     0
 75
     1
176
     0
175
     1
176
     0
 42
1.0
176
     0
 92
        9
176
     2
 66
     7
176
     0
 43
1.0
176
     0
 76
     1
176
     0
 77
     6
176
     0
 78
     2
176
     0
 67
     7
176
     0
 79
     5
176
     0
170
     0
176
     0
171
     0
176
     0
290
     0
176
     0
 93
        1
176
     0
 44
0.0
176
     0
173
     0
176
     0
1001
ACAD
1000
AcDbSavedByObjectVersion
1070
     0
  0
VISUALSTYLE
  5
33
102
{ACAD_XDICTIONARY
360
F2
102
}
102
{ACAD_REACTORS
330
29
102
}
330
29
100
AcDbVisualStyle
  2
Realistic
 70
     8
177
     2
291
     0
 71
     2
176
     1
 72
     3
176
     1
 73
     0
176
     1
 90
        2
176
     1
 40
0.6
176
     1
 41
30.0
176
     1
 63
     7
421
 16777215
176
     1
 74
     0
176
     1
 91
        0
176
     1
 64
     7
176
     1
 65
   257
176
     1
 75
     1
176
     1
175
     1
176
     1
 42
1.0
176
     1
 92
        8
176
     1
 66
   257
176
     1
 43
1.0
176
     1
 76
     1
176
     1
 77
     6
176
     1
 78
     2
176
     1
 67
     7
176
     1
 79
     3
176
     1
170
     0
176
     1
171
     0
176
     1
290
     0
176
     1
 93
       13
176
     1
 44
0.0
176
     1
173
     0
176
     1
1001
ACAD
1000
AcDbSavedByObjectVersion
1070
     0
  0
VISUALSTYLE
  5
3E
102
{ACAD_XDICTIONARY
360
108
102
}
102
{ACAD_REACTORS
330
29
102
}
330
29
100
AcDbVisualStyle
  2
Shaded
 70
    27
177
     2
291
     0
 71
     2
176
     1
 72
     2
176
     1
 73
     1
176
     1
 90
        2
176
     1
 40
0.6
176
     1
 41
30.0
176
     1
 63
     7
421
 16777215
176
     1
 74
     0
176
     1
 91
        4
176
     1
 64
     7
176
     1
 65
   257
176
     1
 75
     1
176
     1
175
     1
176
     1
 42
1.0
176
     1
 92
        8
176
     1
 66
   257
176
     1
 43
1.0
176
     1
 76
     1
176
     1
 77
     6
176
     1
 78
     2
176
     1
 67
     8
425
  7895160
176
     1
 79
     3
176
     1
170
     0
176
     1
171
     0
176
     1
290
     0
176
     1
 93
        5
176
     1
 44
0.0
176
     1
173
     0
176
     1
1001
ACAD
1000
AcDbSavedByObjectVersion
1070
     0
  0
VISUALSTYLE
  5
3D
102
{ACAD_XDICTIONARY
360
106
102
}
102
{ACAD_REACTORS
330
29
102
}
330
29
100
AcDbVisualStyle
  2
Shaded with edges
 70
    26
177
     2
291
     0
 71
     2
176
     1
 72
     2
176
     1
 73
     1
176
     1
 90
        2
176
     1
 40
0.6
176
     1
 41
30.0
176
     1
 63
     7
421
 16777215
176
     1
 74
     1
176
     1
 91
        2
176
     1
 64
     7
176
     1
 65
   257
176
     1
 75
     2
176
     1
175
     1
176
     1
 42
1.0
176
     1
 92
        8
176
     1
 66
   257
176
     1
 43
1.0
176
     1
 76
     1
176
     1
 77
     6
176
     1
 78
     2
176
     1
 67
     7
176
     1
 79
     3
176
     1
170
     0
176
     1
171
     0
176
     1
290
     0
176
     1
 93
        5
176
     1
 44
0.0
176
     1
173
     0
176
     1
1001
ACAD
1000
AcDbSavedByObjectVersion
1070
     0
  0
VISUALSTYLE
  5
3A
102
{ACAD_XDICTIONARY
360
100
102
}
102
{ACAD_REACTORS
330
29
102
}
330
29
100
AcDbVisualStyle
  2
Shades of Gray
 70
    23
177
     2
291
     0
 71
     2
176
     1
 72
     2
176
     1
 73
     3
176
     1
 90
        0
176
     1
 40
0.6
176
     1
 41
30.0
176
     1
 63
     7
421
 16777215
176
     1
 74
     2
176
     1
 91
        2
176
     1
 64
     7
176
     1
 65
     7
176
     1
 75
     1
176
     1
175
     1
176
     1
 42
40.0
176
     1
 92
        8
176
     1
 66
     7
176
     1
 43
1.0
176
     1
 76
     1
176
     1
 77
     6
176
     1
 78
     2
176
     1
 67
     7
176
     1
 79
     3
176
     1
170
     0
176
     1
171
     0
176
     1
290
     0
176
     1
 93
        1
176
     1
 44
0.0
176
     1
173
     0
176
     1
1001
ACAD
1000
AcDbSavedByObjectVersion
1070
     0
  0
VISUALSTYLE
  5
3B
102
{ACAD_XDICTIONARY
360
102
102
}
102
{ACAD_REACTORS
330
29
102
}
330
29
100
AcDbVisualStyle
  2
Sketchy
 70
    24
177
     2
291
     0
 71
     1
176
     1
 72
     2
176
     1
 73
     2
176
     1
 90
        0
176
     1
 40
0.6
176
     1
 41
30.0
176
     1
 63
     7
421
 16777215
176
     1
 74
     2
176
     1
 91
        2
176
     1
 64
     7
176
     1
 65
     7
176
     1
 75
     1
176
     1
175
     1
176
     1
 42
40.0
176
     1
 92
       11
176
     1
 66
     7
176
     1
 43
1.0
176
     1
 76
     1
176
     1
 77
     6
176
     1
 78
     2
176
     1
 67
     7
176
     1
 79
     6
176
     1
170
     0
176
     1
171
     0
176
     1
290
     0
176
     1
 93
        1
176
     1
 44
0.0
176
     1
173
     0
176
     1
1001
ACAD
1000
AcDbSavedByObjectVersion
1070
     0
  0
VISUALSTYLE
  5
36
102
{ACAD_XDICTIONARY
360
F8
102
}
102
{ACAD_REACTORS
330
29
102
}
330
29
100
AcDbVisualStyle
  2
Thicken
 70
    13
177
     2
291
     1
 71
     2
176
     1
 72
     2
176
     1
 73
     0
176
     1
 90
        0
176
     1
 40
0.6
176
     1
 41
30.0
176
     1
 63
     7
421
 16777215
176
     1
 74
     1
176
     1
 91
        4
176
     1
 64
     7
176
     1
 65
   257
176
     1
 75
     1
176
     1
175
     1
176
     1
 42
1.0
176
     1
 92
       12
176
     1
 66
     7
176
     1
 43
1.0
176
     1
 76
     1
176
     1
 77
     6
176
     1
 78
     2
176
     1
 67
     7
176
     1
 79
     5
176
     1
170
     0
176
     1
171
     0
176
     1
290
     0
176
     1
 93
        1
176
     1
 44
0.0
176
     1
173
     0
176
     1
1001
ACAD
1000
AcDbSavedByObjectVersion
1070
     0
  0
VISUALSTYLE
  5
30
102
{ACAD_XDICTIONARY
360
EC
102
}
102
{ACAD_REACTORS
330
29
102
}
330
29
100
AcDbVisualStyle
  2
Wireframe
 70
     5
177
     2
291
     0
 71
     0
176
     1
 72
     2
176
     1
 73
     0
176
     1
 90
        0
176
     1
 40
0.6
176
     1
 41
30.0
176
     1
 63
     7
421
 16777215
176
     1
 74
     1
176
     1
 91
        4
176
     1
 64
     7
176
     1
 65
   257
176
     1
 75
     1
176
     1
175
     1
176
     1
 42
1.0
176
     1
 92
        0
176
     1
 66
   257
176
     1
 43
1.0
176
     1
 76
     1
176
     1
 77
     6
176
     1
 78
     2
176
     1
 67
     7
176
     1
 79
     3
176
     1
170
     0
176
     1
171
     0
176
     1
290
     0
176
     1
 93
        1
176
     1
 44
0.0
176
     1
173
     0
176
     1
1001
ACAD
1000
AcDbSavedByObjectVersion
1070
     0
  0
VISUALSTYLE
  5
3C
102
{ACAD_XDICTIONARY
360
104
102
}
102
{ACAD_REACTORS
330
29
102
}
330
29
100
AcDbVisualStyle
  2
X-Ray
 70
    25
177
     2
291
     0
 71
     2
176
     1
 72
     2
176
     1
 73
     1
176
     1
 90
        1
176
     1
 40
0.5
176
     1
 41
30.0
176
     1
 63
     7
421
 16777215
176
     1
 74
     1
176
     1
 91
        0
176
     1
 64
     7
176
     1
 65
   257
176
     1
 75
     1
176
     1
175
     1
176
     1
 42
1.0
176
     1
 92
        8
176
     1
 66
     7
176
     1
 43
1.0
176
     1
 76
     1
176
     1
 77
     6
176
     1
 78
     2
176
     1
 67
     7
176
     1
 79
     3
176
     1
170
     0
176
     1
171
     0
176
     1
290
     0
176
     1
 93
       13
176
     1
 44
0.0
176
     1
173
     0
176
     1
1001
ACAD
1000
AcDbSavedByObjectVersion
1070
     0
  0
DICTIONARYVAR
  5
DC
102
{ACAD_REACTORS
330
D7
102
}
330
D7
100
DictionaryVariables
280
     0
  1
1:1
  0
DICTIONARYVAR
  5
D9
102
{ACAD_REACTORS
330
D7
102
}
330
D7
100
DictionaryVariables
280
     0
  1
STANDARD
  0
DICTIONARYVAR
  5
D8
102
{ACAD_REACTORS
330
D7
102
}
330
D7
100
DictionaryVariables
280
     0
  1
STANDARD
  0
DICTIONARYVAR
  5
DA
102
{ACAD_REACTORS
330
D7
102
}
330
D7
100
DictionaryVariables
280
     0
  1
Imperial24
  0
DICTIONARYVAR
  5
DB
102
{ACAD_REACTORS
330
D7
102
}
330
D7
100
DictionaryVariables
280
     0
  1
Imperial24
  0
DICTIONARY
  5
114
330
6B
100
AcDbDictionary
280
     1
281
     1
  3
ACAD_XREC_ROUNDTRIP
360
115
  0
DICTIONARY
  5
1A
330
19
100
AcDbDictionary
280
     1
281
     1
  3
BUMPTILE
360
1C
  3
DIFFUSETILE
360
1B
  3
OPACITYTILE
360
1F
  3
REFLECTIONTILE
360
1E
  3
REFRACTIONTILE
360
20
  3
SPECULARTILE
360
1D
  0
DICTIONARY
  5
12
330
11
100
AcDbDictionary
280
     1
281
     1
  3
BUMPTILE
360
14
  3
DIFFUSETILE
360
13
  3
OPACITYTILE
360
17
  3
REFLECTIONTILE
360
16
  3
REFRACTIONTILE
360
18
  3
SPECULARTILE
360
15
  0
DICTIONARY
  5
22
330
21
100
AcDbDictionary
280
     1
281
     1
  3
BUMPTILE
360
24
  3
DIFFUSETILE
360
23
  3
OPACITYTILE
360
27
  3
REFLECTIONTILE
360
26
  3
REFRACTIONTILE
360
28
  3
SPECULARTILE
360
25
  0
DICTIONARY
  5
110
330
67
100
AcDbDictionary
280
     1
281
     1
  3
ACAD_XREC_ROUNDTRIP
360
111
  0
DICTIONARY
  5
112
330
69
100
AcDbDictionary
280
     1
281
     1
  3
ACAD_XREC_ROUNDTRIP
360
113
  0
DICTIONARY
  5
DD
330
65
100
AcDbDictionary
280
     1
281
     1
  3
ACAD_ROUNDTRIP_2008_TABLESTYLE_CELLSTYLEMAP
360
DE
  0
DICTIONARY
  5
EA
330
2F
100
AcDbDictionary
280
     1
281
     1
  3
ACAD_XREC_ROUNDTRIP
360
EB
  0
DICTIONARY
  5
E8
330
2E
100
AcDbDictionary
280
     1
281
     1
  3
ACAD_XREC_ROUNDTRIP
360
E9
  0
DICTIONARY
  5
F6
330
35
100
AcDbDictionary
280
     1
281
     1
  3
ACAD_XREC_ROUNDTRIP
360
F7
  0
DICTIONARY
  5
FE
330
39
100
AcDbDictionary
280
     1
281
     1
  3
ACAD_XREC_ROUNDTRIP
360
FF
  0
DICTIONARY
  5
F0
330
32
100
AcDbDictionary
280
     1
281
     1
  3
ACAD_XREC_ROUNDTRIP
360
F1
  0
DICTIONARY
  5
F4
330
34
100
AcDbDictionary
280
     1
281
     1
  3
ACAD_XREC_ROUNDTRIP
360
F5
  0
DICTIONARY
  5
10E
330
41
100
AcDbDictionary
280
     1
281
     1
  3
ACAD_XREC_ROUNDTRIP
360
10F
  0
DICTIONARY
  5
FC
330
38
100
AcDbDictionary
280
     1
281
     1
  3
ACAD_XREC_ROUNDTRIP
360
FD
  0
DICTIONARY
  5
E0
330
2A
100
AcDbDictionary
280
     1
281
     1
  3
ACAD_XREC_ROUNDTRIP
360
E1
  0
DICTIONARY
  5
E2
330
2B
100
AcDbDictionary
280
     1
281
     1
  3
ACAD_XREC_ROUNDTRIP
360
E3
  0
DICTIONARY
  5
E4
330
2C
100
AcDbDictionary
280
     1
281
     1
  3
ACAD_XREC_ROUNDTRIP
360
E5
  0
DICTIONARY
  5
E6
330
2D
100
AcDbDictionary
280
     1
281
     1
  3
ACAD_XREC_ROUNDTRIP
360
E7
  0
DICTIONARY
  5
EE
330
31
100
AcDbDictionary
280
     1
281
     1
  3
ACAD_XREC_ROUNDTRIP
360
EF
  0
DICTIONARY
  5
10A
330
3F
100
AcDbDictionary
280
     1
281
     1
  3
ACAD_XREC_ROUNDTRIP
360
10B
  0
DICTIONARY
  5
FA
330
37
100
AcDbDictionary
280
     1
281
     1
  3
ACAD_XREC_ROUNDTRIP
360
FB
  0
DICTIONARY
  5
10C
330
40
100
AcDbDictionary
280
     1
281
     1
  3
ACAD_XREC_ROUNDTRIP
360
10D
  0
DICTIONARY
  5
F2
330
33
100
AcDbDictionary
280
     1
281
     1
  3
ACAD_XREC_ROUNDTRIP
360
F3
  0
DICTIONARY
  5
108
330
3E
100
AcDbDictionary
280
     1
281
     1
  3
ACAD_XREC_ROUNDTRIP
360
109
  0
DICTIONARY
  5
106
330
3D
100
AcDbDictionary
280
     1
281
     1
  3
ACAD_XREC_ROUNDTRIP
360
107
  0
DICTIONARY
  5
100
330
3A
100
AcDbDictionary
280
     1
281
     1
  3
ACAD_XREC_ROUNDTRIP
360
101
  0
DICTIONARY
  5
102
330
3B
100
AcDbDictionary
280
     1
281
     1
  3
ACAD_XREC_ROUNDTRIP
360
103
  0
DICTIONARY
  5
F8
330
36
100
AcDbDictionary
280
     1
281
     1
  3
ACAD_XREC_ROUNDTRIP
360
F9
  0
DICTIONARY
  5
EC
330
30
100
AcDbDictionary
280
     1
281
     1
  3
ACAD_XREC_ROUNDTRIP
360
ED
  0
DICTIONARY
  5
104
330
3C
100
AcDbDictionary
280
     1
281
     1
  3
ACAD_XREC_ROUNDTRIP
360
105
  0
XRECORD
  5
115
102
{ACAD_REACTORS
330
114
102
}
330
114
100
AcDbXrecord
280
     1
102
DISPLAYNAME
  1
Imperial24
102
FLAGS
 90
        0
  0
XRECORD
  5
1C
102
{ACAD_REACTORS
330
1A
102
}
330
1A
100
AcDbXrecord
280
     1
270
     1
271
     1
  0
XRECORD
  5
1B
102
{ACAD_REACTORS
330
1A
102
}
330
1A
100
AcDbXrecord
280
     1
270
     1
271
     1
  0
XRECORD
  5
1F
102
{ACAD_REACTORS
330
1A
102
}
330
1A
100
AcDbXrecord
280
     1
270
     1
271
     1
  0
XRECORD
  5
1E
102
{ACAD_REACTORS
330
1A
102
}
330
1A
100
AcDbXrecord
280
     1
270
     1
271
     1
  0
XRECORD
  5
20
102
{ACAD_REACTORS
330
1A
102
}
330
1A
100
AcDbXrecord
280
     1
270
     1
271
     1
  0
XRECORD
  5
1D
102
{ACAD_REACTORS
330
1A
102
}
330
1A
100
AcDbXrecord
280
     1
270
     1
271
     1
  0
XRECORD
  5
14
102
{ACAD_REACTORS
330
12
102
}
330
12
100
AcDbXrecord
280
     1
270
     1
271
     1
  0
XRECORD
  5
13
102
{ACAD_REACTORS
330
12
102
}
330
12
100
AcDbXrecord
280
     1
270
     1
271
     1
  0
XRECORD
  5
17
102
{ACAD_REACTORS
330
12
102
}
330
12
100
AcDbXrecord
280
     1
270
     1
271
     1
  0
XRECORD
  5
16
102
{ACAD_REACTORS
330
12
102
}
330
12
100
AcDbXrecord
280
     1
270
     1
271
     1
  0
XRECORD
  5
18
102
{ACAD_REACTORS
330
12
102
}
330
12
100
AcDbXrecord
280
     1
270
     1
271
     1
  0
XRECORD
  5
15
102
{ACAD_REACTORS
330
12
102
}
330
12
100
AcDbXrecord
280
     1
270
     1
271
     1
  0
XRECORD
  5
24
102
{ACAD_REACTORS
330
22
102
}
330
22
100
AcDbXrecord
280
     1
270
     1
271
     1
  0
XRECORD
  5
23
102
{ACAD_REACTORS
330
22
102
}
330
22
100
AcDbXrecord
280
     1
270
     1
271
     1
  0
XRECORD
  5
27
102
{ACAD_REACTORS
330
22
102
}
330
22
100
AcDbXrecord
280
     1
270
     1
271
     1
  0
XRECORD
  5
26
102
{ACAD_REACTORS
330
22
102
}
330
22
100
AcDbXrecord
280
     1
270
     1
271
     1
  0
XRECORD
  5
28
102
{ACAD_REACTORS
330
22
102
}
330
22
100
AcDbXrecord
280
     1
270
     1
271
     1
  0
XRECORD
  5
25
102
{ACAD_REACTORS
330
22
102
}
330
22
100
AcDbXrecord
280
     1
270
     1
271
     1
  0
XRECORD
  5
111
102
{ACAD_REACTORS
330
110
102
}
330
110
100
AcDbXrecord
280
     1
102
ACAD_ROUNDTRIP_2012_MLEADER_STYLE
298
     1
  0
XRECORD
  5
113
102
{ACAD_REACTORS
330
112
102
}
330
112
100
AcDbXrecord
280
     1
102
DISPLAYNAME
  1
Imperial24
102
FLAGS
 90
        0
  0
CELLSTYLEMAP
  5
DE
102
{ACAD_REACTORS
330
DD
102
}
330
DD
100
AcDbCellStyleMap
 90
        3
300
CELLSTYLE
  1
TABLEFORMAT_BEGIN
 90
        5
170
     1
 91
        0
 92
    32768
 62
   257
 93
        1
300
CONTENTFORMAT
  1
CONTENTFORMAT_BEGIN
 90
        0
 91
        0
 92
      512
 93
        0
300

 40
0.0
140
1.0
 94
        5
 62
     0
340
55
144
0.25
309
CONTENTFORMAT_END
171
     0
 94
        0
309
TABLEFORMAT_END
  1
CELLSTYLE_BEGIN
 90
        1
 91
        1
300
_TITLE
309
CELLSTYLE_END
300
CELLSTYLE
  1
TABLEFORMAT_BEGIN
 90
        5
170
     1
 91
        0
 92
        0
 62
   257
 93
        1
300
CONTENTFORMAT
  1
CONTENTFORMAT_BEGIN
 90
        0
 91
        0
 92
      512
 93
        0
300

 40
0.0
140
1.0
 94
        5
 62
     0
340
55
144
0.18
309
CONTENTFORMAT_END
171
     0
 94
        0
309
TABLEFORMAT_END
  1
CELLSTYLE_BEGIN
 90
        2
 91
        1
300
_HEADER
309
CELLSTYLE_END
300
CELLSTYLE
  1
TABLEFORMAT_BEGIN
 90
        5
170
     1
 91
        0
 92
        0
 62
   257
 93
        1
300
CONTENTFORMAT
  1
CONTENTFORMAT_BEGIN
 90
        0
 91
        0
 92
      512
 93
        0
300

 40
0.0
140
1.0
 94
        2
 62
     0
340
55
144
0.18
309
CONTENTFORMAT_END
171
     0
 94
        0
309
TABLEFORMAT_END
  1
CELLSTYLE_BEGIN
 90
        3
 91
        2
300
_DATA
309
CELLSTYLE_END
  0
XRECORD
  5
EB
102
{ACAD_REACTORS
330
EA
102
}
330
EA
100
AcDbXrecord
280
     1
102
RTVSPost2010Prop28
280
     1
102
RTVSPost2010PropOp28
 70
     1
102
RTVSPost2010Prop29
280
     1
102
RTVSPost2010PropOp29
 70
     1
102
RTVSPost2010Prop30
280
     0
102
RTVSPost2010PropOp30
 70
     1
102
RTVSPost2010Prop31
280
     0
102
RTVSPost2010PropOp31
 70
     1
102
RTVSPost2010Prop32
280
     0
102
RTVSPost2010PropOp32
 70
     1
102
RTVSPost2010Prop33
280
     0
102
RTVSPost2010PropOp33
 70
     1
102
RTVSPost2010Prop34
280
     0
102
RTVSPost2010PropOp34
 70
     1
102
RTVSPost2010Prop35
280
     0
102
RTVSPost2010PropOp35
 70
     1
102
RTVSPost2010Prop36
280
     0
102
RTVSPost2010PropOp36
 70
     1
102
RTVSPost2010Prop37
 90
       50
102
RTVSPost2010PropOp37
 70
     1
102
RTVSPost2010Prop38
140
0.0
102
RTVSPost2010PropOp38
 70
     1
102
RTVSPost2010Prop39
140
1.0
102
RTVSPost2010PropOp39
 70
     1
102
RTVSPost2010Prop40
 90
        0
102
RTVSPost2010PropOp40
 70
     1
102
RTVSPost2010Prop41ColorIndex
 90
       18
102
RTVSPost2010Prop41ColorRGB
 90
        0
102
RTVSPost2010PropOp41
 70
     1
102
RTVSPost2010Prop42
 90
       50
102
RTVSPost2010PropOp42
 70
     1
102
RTVSPost2010Prop43
 90
        3
102
RTVSPost2010PropOp43
 70
     1
102
RTVSPost2010Prop44ColorIndex
 90
        5
102
RTVSPost2010Prop44ColorRGB
 90
      255
102
RTVSPost2010PropOp44
 70
     1
102
RTVSPost2010Prop45
280
     0
102
RTVSPost2010PropOp45
 70
     1
102
RTVSPost2010Prop46
 90
       50
102
RTVSPost2010PropOp46
 70
     1
102
RTVSPost2010Prop47
 90
       50
102
RTVSPost2010PropOp47
 70
     1
102
RTVSPost2010Prop48
 90
       50
102
RTVSPost2010PropOp48
 70
     1
102
RTVSPost2010Prop49
280
     0
102
RTVSPost2010PropOp49
 70
     1
102
RTVSPost2010Prop50
 90
       50
102
RTVSPost2010PropOp50
 70
     1
102
RTVSPost2010Prop51ColorIndex
 90
      256
102
RTVSPost2010Prop51ColorRGB
 90
-16777216
102
RTVSPost2010PropOp51
 70
     0
102
RTVSPost2010Prop52
140
1.0
102
RTVSPost2010PropOp52
 70
     0
102
RTVSPost2010Prop53
 90
        2
102
RTVSPost2010PropOp53
 70
     1
102
RTVSPost2010Prop54
  1
strokes_ogs.tif
102
RTVSPost2010PropOp54
 70
     1
102
RTVSPost2010Prop55
280
     0
102
RTVSPost2010PropOp55
 70
     1
102
RTVSPost2010Prop56
140
1.0
102
RTVSPost2010PropOp56
 70
     1
102
RTVSPost2010Prop57
140
1.0
102
RTVSPost2010PropOp57
 70
     1
  0
XRECORD
  5
E9
102
{ACAD_REACTORS
330
E8
102
}
330
E8
100
AcDbXrecord
280
     1
102
RTVSPost2010Prop28
280
     0
102
RTVSPost2010PropOp28
 70
     1
102
RTVSPost2010Prop29
280
     1
102
RTVSPost2010PropOp29
 70
     1
102
RTVSPost2010Prop30
280
     1
102
RTVSPost2010PropOp30
 70
     1
102
RTVSPost2010Prop31
280
     0
102
RTVSPost2010PropOp31
 70
     1
102
RTVSPost2010Prop32
280
     0
102
RTVSPost2010PropOp32
 70
     1
102
RTVSPost2010Prop33
280
     0
102
RTVSPost2010PropOp33
 70
     1
102
RTVSPost2010Prop34
280
     0
102
RTVSPost2010PropOp34
 70
     1
102
RTVSPost2010Prop35
280
     0
102
RTVSPost2010PropOp35
 70
     1
102
RTVSPost2010Prop36
280
     0
102
RTVSPost2010PropOp36
 70
     1
102
RTVSPost2010Prop37
 90
       50
102
RTVSPost2010PropOp37
 70
     1
102
RTVSPost2010Prop38
140
0.0
102
RTVSPost2010PropOp38
 70
     1
102
RTVSPost2010Prop39
140
1.0
102
RTVSPost2010PropOp39
 70
     1
102
RTVSPost2010Prop40
 90
        0
102
RTVSPost2010PropOp40
 70
     1
102
RTVSPost2010Prop41ColorIndex
 90
       18
102
RTVSPost2010Prop41ColorRGB
 90
        0
102
RTVSPost2010PropOp41
 70
     1
102
RTVSPost2010Prop42
 90
       50
102
RTVSPost2010PropOp42
 70
     1
102
RTVSPost2010Prop43
 90
        3
102
RTVSPost2010PropOp43
 70
     1
102
RTVSPost2010Prop44ColorIndex
 90
        5
102
RTVSPost2010Prop44ColorRGB
 90
      255
102
RTVSPost2010PropOp44
 70
     1
102
RTVSPost2010Prop45
280
     0
102
RTVSPost2010PropOp45
 70
     1
102
RTVSPost2010Prop46
 90
       50
102
RTVSPost2010PropOp46
 70
     1
102
RTVSPost2010Prop47
 90
       50
102
RTVSPost2010PropOp47
 70
     1
102
RTVSPost2010Prop48
 90
       50
102
RTVSPost2010PropOp48
 70
     1
102
RTVSPost2010Prop49
280
     0
102
RTVSPost2010PropOp49
 70
     1
102
RTVSPost2010Prop50
 90
       50
102
RTVSPost2010PropOp50
 70
     1
102
RTVSPost2010Prop51ColorIndex
 90
      256
102
RTVSPost2010Prop51ColorRGB
 90
-16777216
102
RTVSPost2010PropOp51
 70
     0
102
RTVSPost2010Prop52
140
1.0
102
RTVSPost2010PropOp52
 70
     0
102
RTVSPost2010Prop53
 90
        2
102
RTVSPost2010PropOp53
 70
     1
102
RTVSPost2010Prop54
  1
strokes_ogs.tif
102
RTVSPost2010PropOp54
 70
     1
102
RTVSPost2010Prop55
280
     0
102
RTVSPost2010PropOp55
 70
     1
102
RTVSPost2010Prop56
140
1.0
102
RTVSPost2010PropOp56
 70
     1
102
RTVSPost2010Prop57
140
1.0
102
RTVSPost2010PropOp57
 70
     1
  0
XRECORD
  5
F7
102
{ACAD_REACTORS
330
F6
102
}
330
F6
100
AcDbXrecord
280
     1
102
RTVSPost2010Prop28
280
     0
102
RTVSPost2010PropOp28
 70
     1
102
RTVSPost2010Prop29
280
     1
102
RTVSPost2010PropOp29
 70
     1
102
RTVSPost2010Prop30
280
     1
102
RTVSPost2010PropOp30
 70
     1
102
RTVSPost2010Prop31
280
     0
102
RTVSPost2010PropOp31
 70
     1
102
RTVSPost2010Prop32
280
     0
102
RTVSPost2010PropOp32
 70
     1
102
RTVSPost2010Prop33
280
     0
102
RTVSPost2010PropOp33
 70
     1
102
RTVSPost2010Prop34
280
     0
102
RTVSPost2010PropOp34
 70
     1
102
RTVSPost2010Prop35
280
     0
102
RTVSPost2010PropOp35
 70
     1
102
RTVSPost2010Prop36
280
     0
102
RTVSPost2010PropOp36
 70
     1
102
RTVSPost2010Prop37
 90
       50
102
RTVSPost2010PropOp37
 70
     1
102
RTVSPost2010Prop38
140
0.0
102
RTVSPost2010PropOp38
 70
     1
102
RTVSPost2010Prop39
140
1.0
102
RTVSPost2010PropOp39
 70
     1
102
RTVSPost2010Prop40
 90
        0
102
RTVSPost2010PropOp40
 70
     1
102
RTVSPost2010Prop41ColorIndex
 90
       18
102
RTVSPost2010Prop41ColorRGB
 90
        0
102
RTVSPost2010PropOp41
 70
     1
102
RTVSPost2010Prop42
 90
       50
102
RTVSPost2010PropOp42
 70
     1
102
RTVSPost2010Prop43
 90
        3
102
RTVSPost2010PropOp43
 70
     1
102
RTVSPost2010Prop44ColorIndex
 90
        5
102
RTVSPost2010Prop44ColorRGB
 90
      255
102
RTVSPost2010PropOp44
 70
     1
102
RTVSPost2010Prop45
280
     0
102
RTVSPost2010PropOp45
 70
     1
102
RTVSPost2010Prop46
 90
       50
102
RTVSPost2010PropOp46
 70
     1
102
RTVSPost2010Prop47
 90
       50
102
RTVSPost2010PropOp47
 70
     1
102
RTVSPost2010Prop48
 90
       50
102
RTVSPost2010PropOp48
 70
     1
102
RTVSPost2010Prop49
280
     0
102
RTVSPost2010PropOp49
 70
     1
102
RTVSPost2010Prop50
 90
       50
102
RTVSPost2010PropOp50
 70
     1
102
RTVSPost2010Prop51ColorIndex
 90
      256
102
RTVSPost2010Prop51ColorRGB
 90
-16777216
102
RTVSPost2010PropOp51
 70
     0
102
RTVSPost2010Prop52
140
1.0
102
RTVSPost2010PropOp52
 70
     0
102
RTVSPost2010Prop53
 90
        2
102
RTVSPost2010PropOp53
 70
     1
102
RTVSPost2010Prop54
  1
strokes_ogs.tif
102
RTVSPost2010PropOp54
 70
     1
102
RTVSPost2010Prop55
280
     0
102
RTVSPost2010PropOp55
 70
     1
102
RTVSPost2010Prop56
140
1.0
102
RTVSPost2010PropOp56
 70
     1
102
RTVSPost2010Prop57
140
1.0
102
RTVSPost2010PropOp57
 70
     1
  0
XRECORD
  5
FF
102
{ACAD_REACTORS
330
FE
102
}
330
FE
100
AcDbXrecord
280
     1
102
RTVSPost2010Prop28
280
     0
102
RTVSPost2010PropOp28
 70
     1
102
RTVSPost2010Prop29
280
     1
102
RTVSPost2010PropOp29
 70
     1
102
RTVSPost2010Prop30
280
     1
102
RTVSPost2010PropOp30
 70
     1
102
RTVSPost2010Prop31
280
     0
102
RTVSPost2010PropOp31
 70
     1
102
RTVSPost2010Prop32
280
     0
102
RTVSPost2010PropOp32
 70
     1
102
RTVSPost2010Prop33
280
     0
102
RTVSPost2010PropOp33
 70
     1
102
RTVSPost2010Prop34
280
     0
102
RTVSPost2010PropOp34
 70
     1
102
RTVSPost2010Prop35
280
     0
102
RTVSPost2010PropOp35
 70
     1
102
RTVSPost2010Prop36
280
     0
102
RTVSPost2010PropOp36
 70
     1
102
RTVSPost2010Prop37
 90
       50
102
RTVSPost2010PropOp37
 70
     1
102
RTVSPost2010Prop38
140
0.0
102
RTVSPost2010PropOp38
 70
     1
102
RTVSPost2010Prop39
140
1.0
102
RTVSPost2010PropOp39
 70
     1
102
RTVSPost2010Prop40
 90
        0
102
RTVSPost2010PropOp40
 70
     1
102
RTVSPost2010Prop41ColorIndex
 90
       18
102
RTVSPost2010Prop41ColorRGB
 90
        0
102
RTVSPost2010PropOp41
 70
     1
102
RTVSPost2010Prop42
 90
       50
102
RTVSPost2010PropOp42
 70
     1
102
RTVSPost2010Prop43
 90
        3
102
RTVSPost2010PropOp43
 70
     1
102
RTVSPost2010Prop44ColorIndex
 90
        5
102
RTVSPost2010Prop44ColorRGB
 90
      255
102
RTVSPost2010PropOp44
 70
     1
102
RTVSPost2010Prop45
280
     0
102
RTVSPost2010PropOp45
 70
     1
102
RTVSPost2010Prop46
 90
       50
102
RTVSPost2010PropOp46
 70
     1
102
RTVSPost2010Prop47
 90
       50
102
RTVSPost2010PropOp47
 70
     1
102
RTVSPost2010Prop48
 90
       50
102
RTVSPost2010PropOp48
 70
     1
102
RTVSPost2010Prop49
280
     0
102
RTVSPost2010PropOp49
 70
     1
102
RTVSPost2010Prop50
 90
       50
102
RTVSPost2010PropOp50
 70
     1
102
RTVSPost2010Prop51ColorIndex
 90
      256
102
RTVSPost2010Prop51ColorRGB
 90
-16777216
102
RTVSPost2010PropOp51
 70
     0
102
RTVSPost2010Prop52
140
1.0
102
RTVSPost2010PropOp52
 70
     0
102
RTVSPost2010Prop53
 90
        2
102
RTVSPost2010PropOp53
 70
     1
102
RTVSPost2010Prop54
  1
strokes_ogs.tif
102
RTVSPost2010PropOp54
 70
     1
102
RTVSPost2010Prop55
280
     0
102
RTVSPost2010PropOp55
 70
     1
102
RTVSPost2010Prop56
140
1.0
102
RTVSPost2010PropOp56
 70
     1
102
RTVSPost2010Prop57
140
1.0
102
RTVSPost2010PropOp57
 70
     1
  0
XRECORD
  5
F1
102
{ACAD_REACTORS
330
F0
102
}
330
F0
100
AcDbXrecord
280
     1
102
RTVSPost2010Prop28
280
     0
102
RTVSPost2010PropOp28
 70
     1
102
RTVSPost2010Prop29
280
     1
102
RTVSPost2010PropOp29
 70
     1
102
RTVSPost2010Prop30
280
     1
102
RTVSPost2010PropOp30
 70
     1
102
RTVSPost2010Prop31
280
     0
102
RTVSPost2010PropOp31
 70
     1
102
RTVSPost2010Prop32
280
     0
102
RTVSPost2010PropOp32
 70
     1
102
RTVSPost2010Prop33
280
     0
102
RTVSPost2010PropOp33
 70
     1
102
RTVSPost2010Prop34
280
     0
102
RTVSPost2010PropOp34
 70
     1
102
RTVSPost2010Prop35
280
     0
102
RTVSPost2010PropOp35
 70
     1
102
RTVSPost2010Prop36
280
     0
102
RTVSPost2010PropOp36
 70
     1
102
RTVSPost2010Prop37
 90
       50
102
RTVSPost2010PropOp37
 70
     1
102
RTVSPost2010Prop38
140
0.0
102
RTVSPost2010PropOp38
 70
     1
102
RTVSPost2010Prop39
140
1.0
102
RTVSPost2010PropOp39
 70
     1
102
RTVSPost2010Prop40
 90
        0
102
RTVSPost2010PropOp40
 70
     1
102
RTVSPost2010Prop41ColorIndex
 90
       18
102
RTVSPost2010Prop41ColorRGB
 90
        0
102
RTVSPost2010PropOp41
 70
     1
102
RTVSPost2010Prop42
 90
       50
102
RTVSPost2010PropOp42
 70
     1
102
RTVSPost2010Prop43
 90
        3
102
RTVSPost2010PropOp43
 70
     1
102
RTVSPost2010Prop44ColorIndex
 90
        5
102
RTVSPost2010Prop44ColorRGB
 90
      255
102
RTVSPost2010PropOp44
 70
     1
102
RTVSPost2010Prop45
280
     0
102
RTVSPost2010PropOp45
 70
     1
102
RTVSPost2010Prop46
 90
       50
102
RTVSPost2010PropOp46
 70
     1
102
RTVSPost2010Prop47
 90
       50
102
RTVSPost2010PropOp47
 70
     1
102
RTVSPost2010Prop48
 90
       50
102
RTVSPost2010PropOp48
 70
     1
102
RTVSPost2010Prop49
280
     0
102
RTVSPost2010PropOp49
 70
     1
102
RTVSPost2010Prop50
 90
       50
102
RTVSPost2010PropOp50
 70
     1
102
RTVSPost2010Prop51ColorIndex
 90
      256
102
RTVSPost2010Prop51ColorRGB
 90
-16777216
102
RTVSPost2010PropOp51
 70
     0
102
RTVSPost2010Prop52
140
1.0
102
RTVSPost2010PropOp52
 70
     0
102
RTVSPost2010Prop53
 90
        2
102
RTVSPost2010PropOp53
 70
     1
102
RTVSPost2010Prop54
  1
strokes_ogs.tif
102
RTVSPost2010PropOp54
 70
     1
102
RTVSPost2010Prop55
280
     0
102
RTVSPost2010PropOp55
 70
     1
102
RTVSPost2010Prop56
140
1.0
102
RTVSPost2010PropOp56
 70
     1
102
RTVSPost2010Prop57
140
1.0
102
RTVSPost2010PropOp57
 70
     1
  0
XRECORD
  5
F5
102
{ACAD_REACTORS
330
F4
102
}
330
F4
100
AcDbXrecord
280
     1
102
RTVSPost2010Prop28
280
     0
102
RTVSPost2010PropOp28
 70
     1
102
RTVSPost2010Prop29
280
     1
102
RTVSPost2010PropOp29
 70
     1
102
RTVSPost2010Prop30
280
     1
102
RTVSPost2010PropOp30
 70
     1
102
RTVSPost2010Prop31
280
     0
102
RTVSPost2010PropOp31
 70
     1
102
RTVSPost2010Prop32
280
     0
102
RTVSPost2010PropOp32
 70
     1
102
RTVSPost2010Prop33
280
     0
102
RTVSPost2010PropOp33
 70
     1
102
RTVSPost2010Prop34
280
     0
102
RTVSPost2010PropOp34
 70
     1
102
RTVSPost2010Prop35
280
     0
102
RTVSPost2010PropOp35
 70
     1
102
RTVSPost2010Prop36
280
     0
102
RTVSPost2010PropOp36
 70
     1
102
RTVSPost2010Prop37
 90
       50
102
RTVSPost2010PropOp37
 70
     1
102
RTVSPost2010Prop38
140
0.0
102
RTVSPost2010PropOp38
 70
     1
102
RTVSPost2010Prop39
140
1.0
102
RTVSPost2010PropOp39
 70
     1
102
RTVSPost2010Prop40
 90
        0
102
RTVSPost2010PropOp40
 70
     1
102
RTVSPost2010Prop41ColorIndex
 90
       18
102
RTVSPost2010Prop41ColorRGB
 90
        0
102
RTVSPost2010PropOp41
 70
     1
102
RTVSPost2010Prop42
 90
       50
102
RTVSPost2010PropOp42
 70
     1
102
RTVSPost2010Prop43
 90
        3
102
RTVSPost2010PropOp43
 70
     1
102
RTVSPost2010Prop44ColorIndex
 90
        5
102
RTVSPost2010Prop44ColorRGB
 90
      255
102
RTVSPost2010PropOp44
 70
     1
102
RTVSPost2010Prop45
280
     0
102
RTVSPost2010PropOp45
 70
     1
102
RTVSPost2010Prop46
 90
       50
102
RTVSPost2010PropOp46
 70
     1
102
RTVSPost2010Prop47
 90
       50
102
RTVSPost2010PropOp47
 70
     1
102
RTVSPost2010Prop48
 90
       50
102
RTVSPost2010PropOp48
 70
     1
102
RTVSPost2010Prop49
280
     0
102
RTVSPost2010PropOp49
 70
     1
102
RTVSPost2010Prop50
 90
       50
102
RTVSPost2010PropOp50
 70
     1
102
RTVSPost2010Prop51ColorIndex
 90
      256
102
RTVSPost2010Prop51ColorRGB
 90
-16777216
102
RTVSPost2010PropOp51
 70
     0
102
RTVSPost2010Prop52
140
1.0
102
RTVSPost2010PropOp52
 70
     0
102
RTVSPost2010Prop53
 90
        2
102
RTVSPost2010PropOp53
 70
     1
102
RTVSPost2010Prop54
  1
strokes_ogs.tif
102
RTVSPost2010PropOp54
 70
     1
102
RTVSPost2010Prop55
280
     0
102
RTVSPost2010PropOp55
 70
     1
102
RTVSPost2010Prop56
140
1.0
102
RTVSPost2010PropOp56
 70
     1
102
RTVSPost2010Prop57
140
1.0
102
RTVSPost2010PropOp57
 70
     1
  0
XRECORD
  5
10F
102
{ACAD_REACTORS
330
10E
102
}
330
10E
100
AcDbXrecord
280
     1
102
RTVSPost2010Prop28
280
     0
102
RTVSPost2010PropOp28
 70
     0
102
RTVSPost2010Prop29
280
     1
102
RTVSPost2010PropOp29
 70
     0
102
RTVSPost2010Prop30
280
     1
102
RTVSPost2010PropOp30
 70
     0
102
RTVSPost2010Prop31
280
     0
102
RTVSPost2010PropOp31
 70
     0
102
RTVSPost2010Prop32
280
     0
102
RTVSPost2010PropOp32
 70
     0
102
RTVSPost2010Prop33
280
     0
102
RTVSPost2010PropOp33
 70
     0
102
RTVSPost2010Prop34
280
     0
102
RTVSPost2010PropOp34
 70
     0
102
RTVSPost2010Prop35
280
     0
102
RTVSPost2010PropOp35
 70
     0
102
RTVSPost2010Prop36
280
     0
102
RTVSPost2010PropOp36
 70
     0
102
RTVSPost2010Prop37
 90
       50
102
RTVSPost2010PropOp37
 70
     0
102
RTVSPost2010Prop38
140
0.0
102
RTVSPost2010PropOp38
 70
     0
102
RTVSPost2010Prop39
140
1.0
102
RTVSPost2010PropOp39
 70
     0
102
RTVSPost2010Prop40
 90
        0
102
RTVSPost2010PropOp40
 70
     0
102
RTVSPost2010Prop41ColorIndex
 90
       18
102
RTVSPost2010Prop41ColorRGB
 90
        0
102
RTVSPost2010PropOp41
 70
     0
102
RTVSPost2010Prop42
 90
       50
102
RTVSPost2010PropOp42
 70
     0
102
RTVSPost2010Prop43
 90
        3
102
RTVSPost2010PropOp43
 70
     0
102
RTVSPost2010Prop44ColorIndex
 90
        5
102
RTVSPost2010Prop44ColorRGB
 90
      255
102
RTVSPost2010PropOp44
 70
     0
102
RTVSPost2010Prop45
280
     0
102
RTVSPost2010PropOp45
 70
     0
102
RTVSPost2010Prop46
 90
       50
102
RTVSPost2010PropOp46
 70
     0
102
RTVSPost2010Prop47
 90
       50
102
RTVSPost2010PropOp47
 70
     0
102
RTVSPost2010Prop48
 90
       50
102
RTVSPost2010PropOp48
 70
     0
102
RTVSPost2010Prop49
280
     0
102
RTVSPost2010PropOp49
 70
     0
102
RTVSPost2010Prop50
 90
       50
102
RTVSPost2010PropOp50
 70
     0
102
RTVSPost2010Prop51ColorIndex
 90
      256
102
RTVSPost2010Prop51ColorRGB
 90
-16777216
102
RTVSPost2010PropOp51
 70
     0
102
RTVSPost2010Prop52
140
1.0
102
RTVSPost2010PropOp52
 70
     0
102
RTVSPost2010Prop53
 90
        2
102
RTVSPost2010PropOp53
 70
     0
102
RTVSPost2010Prop54
  1
strokes_ogs.tif
102
RTVSPost2010PropOp54
 70
     0
102
RTVSPost2010Prop55
280
     0
102
RTVSPost2010PropOp55
 70
     0
102
RTVSPost2010Prop56
140
1.0
102
RTVSPost2010PropOp56
 70
     0
102
RTVSPost2010Prop57
140
1.0
102
RTVSPost2010PropOp57
 70
     0
  0
XRECORD
  5
FD
102
{ACAD_REACTORS
330
FC
102
}
330
FC
100
AcDbXrecord
280
     1
102
RTVSPost2010Prop28
280
     0
102
RTVSPost2010PropOp28
 70
     1
102
RTVSPost2010Prop29
280
     1
102
RTVSPost2010PropOp29
 70
     1
102
RTVSPost2010Prop30
280
     1
102
RTVSPost2010PropOp30
 70
     1
102
RTVSPost2010Prop31
280
     0
102
RTVSPost2010PropOp31
 70
     1
102
RTVSPost2010Prop32
280
     0
102
RTVSPost2010PropOp32
 70
     1
102
RTVSPost2010Prop33
280
     0
102
RTVSPost2010PropOp33
 70
     1
102
RTVSPost2010Prop34
280
     0
102
RTVSPost2010PropOp34
 70
     1
102
RTVSPost2010Prop35
280
     0
102
RTVSPost2010PropOp35
 70
     1
102
RTVSPost2010Prop36
280
     0
102
RTVSPost2010PropOp36
 70
     1
102
RTVSPost2010Prop37
 90
       50
102
RTVSPost2010PropOp37
 70
     1
102
RTVSPost2010Prop38
140
0.0
102
RTVSPost2010PropOp38
 70
     1
102
RTVSPost2010Prop39
140
1.0
102
RTVSPost2010PropOp39
 70
     1
102
RTVSPost2010Prop40
 90
        0
102
RTVSPost2010PropOp40
 70
     1
102
RTVSPost2010Prop41ColorIndex
 90
       18
102
RTVSPost2010Prop41ColorRGB
 90
        0
102
RTVSPost2010PropOp41
 70
     1
102
RTVSPost2010Prop42
 90
       50
102
RTVSPost2010PropOp42
 70
     1
102
RTVSPost2010Prop43
 90
        3
102
RTVSPost2010PropOp43
 70
     1
102
RTVSPost2010Prop44ColorIndex
 90
        5
102
RTVSPost2010Prop44ColorRGB
 90
      255
102
RTVSPost2010PropOp44
 70
     1
102
RTVSPost2010Prop45
280
     0
102
RTVSPost2010PropOp45
 70
     1
102
RTVSPost2010Prop46
 90
       50
102
RTVSPost2010PropOp46
 70
     1
102
RTVSPost2010Prop47
 90
       50
102
RTVSPost2010PropOp47
 70
     1
102
RTVSPost2010Prop48
 90
       50
102
RTVSPost2010PropOp48
 70
     1
102
RTVSPost2010Prop49
280
     0
102
RTVSPost2010PropOp49
 70
     1
102
RTVSPost2010Prop50
 90
       50
102
RTVSPost2010PropOp50
 70
     1
102
RTVSPost2010Prop51ColorIndex
 90
      256
102
RTVSPost2010Prop51ColorRGB
 90
-16777216
102
RTVSPost2010PropOp51
 70
     0
102
RTVSPost2010Prop52
140
1.0
102
RTVSPost2010PropOp52
 70
     0
102
RTVSPost2010Prop53
 90
        2
102
RTVSPost2010PropOp53
 70
     1
102
RTVSPost2010Prop54
  1
strokes_ogs.tif
102
RTVSPost2010PropOp54
 70
     1
102
RTVSPost2010Prop55
280
     0
102
RTVSPost2010PropOp55
 70
     1
102
RTVSPost2010Prop56
140
1.0
102
RTVSPost2010PropOp56
 70
     1
102
RTVSPost2010Prop57
140
1.0
102
RTVSPost2010PropOp57
 70
     1
  0
XRECORD
  5
E1
102
{ACAD_REACTORS
330
E0
102
}
330
E0
100
AcDbXrecord
280
     1
102
RTVSPost2010Prop28
280
     0
102
RTVSPost2010PropOp28
 70
     1
102
RTVSPost2010Prop29
280
     1
102
RTVSPost2010PropOp29
 70
     1
102
RTVSPost2010Prop30
280
     1
102
RTVSPost2010PropOp30
 70
     1
102
RTVSPost2010Prop31
280
     0
102
RTVSPost2010PropOp31
 70
     1
102
RTVSPost2010Prop32
280
     0
102
RTVSPost2010PropOp32
 70
     1
102
RTVSPost2010Prop33
280
     0
102
RTVSPost2010PropOp33
 70
     1
102
RTVSPost2010Prop34
280
     0
102
RTVSPost2010PropOp34
 70
     1
102
RTVSPost2010Prop35
280
     0
102
RTVSPost2010PropOp35
 70
     1
102
RTVSPost2010Prop36
280
     0
102
RTVSPost2010PropOp36
 70
     1
102
RTVSPost2010Prop37
 90
       50
102
RTVSPost2010PropOp37
 70
     1
102
RTVSPost2010Prop38
140
0.0
102
RTVSPost2010PropOp38
 70
     1
102
RTVSPost2010Prop39
140
1.0
102
RTVSPost2010PropOp39
 70
     1
102
RTVSPost2010Prop40
 90
        0
102
RTVSPost2010PropOp40
 70
     1
102
RTVSPost2010Prop41ColorIndex
 90
       18
102
RTVSPost2010Prop41ColorRGB
 90
        0
102
RTVSPost2010PropOp41
 70
     1
102
RTVSPost2010Prop42
 90
       50
102
RTVSPost2010PropOp42
 70
     1
102
RTVSPost2010Prop43
 90
        3
102
RTVSPost2010PropOp43
 70
     1
102
RTVSPost2010Prop44ColorIndex
 90
        5
102
RTVSPost2010Prop44ColorRGB
 90
      255
102
RTVSPost2010PropOp44
 70
     1
102
RTVSPost2010Prop45
280
     0
102
RTVSPost2010PropOp45
 70
     1
102
RTVSPost2010Prop46
 90
       50
102
RTVSPost2010PropOp46
 70
     1
102
RTVSPost2010Prop47
 90
       50
102
RTVSPost2010PropOp47
 70
     1
102
RTVSPost2010Prop48
 90
       50
102
RTVSPost2010PropOp48
 70
     1
102
RTVSPost2010Prop49
280
     0
102
RTVSPost2010PropOp49
 70
     1
102
RTVSPost2010Prop50
 90
       50
102
RTVSPost2010PropOp50
 70
     1
102
RTVSPost2010Prop51ColorIndex
 90
      256
102
RTVSPost2010Prop51ColorRGB
 90
-16777216
102
RTVSPost2010PropOp51
 70
     0
102
RTVSPost2010Prop52
140
1.0
102
RTVSPost2010PropOp52
 70
     0
102
RTVSPost2010Prop53
 90
        2
102
RTVSPost2010PropOp53
 70
     1
102
RTVSPost2010Prop54
  1
strokes_ogs.tif
102
RTVSPost2010PropOp54
 70
     1
102
RTVSPost2010Prop55
280
     0
102
RTVSPost2010PropOp55
 70
     1
102
RTVSPost2010Prop56
140
1.0
102
RTVSPost2010PropOp56
 70
     1
102
RTVSPost2010Prop57
140
1.0
102
RTVSPost2010PropOp57
 70
     1
  0
XRECORD
  5
E3
102
{ACAD_REACTORS
330
E2
102
}
330
E2
100
AcDbXrecord
280
     1
102
RTVSPost2010Prop28
280
     0
102
RTVSPost2010PropOp28
 70
     1
102
RTVSPost2010Prop29
280
     1
102
RTVSPost2010PropOp29
 70
     1
102
RTVSPost2010Prop30
280
     1
102
RTVSPost2010PropOp30
 70
     1
102
RTVSPost2010Prop31
280
     0
102
RTVSPost2010PropOp31
 70
     1
102
RTVSPost2010Prop32
280
     0
102
RTVSPost2010PropOp32
 70
     1
102
RTVSPost2010Prop33
280
     0
102
RTVSPost2010PropOp33
 70
     1
102
RTVSPost2010Prop34
280
     0
102
RTVSPost2010PropOp34
 70
     1
102
RTVSPost2010Prop35
280
     0
102
RTVSPost2010PropOp35
 70
     1
102
RTVSPost2010Prop36
280
     0
102
RTVSPost2010PropOp36
 70
     1
102
RTVSPost2010Prop37
 90
       50
102
RTVSPost2010PropOp37
 70
     1
102
RTVSPost2010Prop38
140
0.0
102
RTVSPost2010PropOp38
 70
     1
102
RTVSPost2010Prop39
140
1.0
102
RTVSPost2010PropOp39
 70
     1
102
RTVSPost2010Prop40
 90
        0
102
RTVSPost2010PropOp40
 70
     1
102
RTVSPost2010Prop41ColorIndex
 90
       18
102
RTVSPost2010Prop41ColorRGB
 90
        0
102
RTVSPost2010PropOp41
 70
     1
102
RTVSPost2010Prop42
 90
       50
102
RTVSPost2010PropOp42
 70
     1
102
RTVSPost2010Prop43
 90
        3
102
RTVSPost2010PropOp43
 70
     1
102
RTVSPost2010Prop44ColorIndex
 90
        5
102
RTVSPost2010Prop44ColorRGB
 90
      255
102
RTVSPost2010PropOp44
 70
     1
102
RTVSPost2010Prop45
280
     0
102
RTVSPost2010PropOp45
 70
     1
102
RTVSPost2010Prop46
 90
       50
102
RTVSPost2010PropOp46
 70
     1
102
RTVSPost2010Prop47
 90
       50
102
RTVSPost2010PropOp47
 70
     1
102
RTVSPost2010Prop48
 90
       50
102
RTVSPost2010PropOp48
 70
     1
102
RTVSPost2010Prop49
280
     0
102
RTVSPost2010PropOp49
 70
     1
102
RTVSPost2010Prop50
 90
       50
102
RTVSPost2010PropOp50
 70
     1
102
RTVSPost2010Prop51ColorIndex
 90
      256
102
RTVSPost2010Prop51ColorRGB
 90
-16777216
102
RTVSPost2010PropOp51
 70
     0
102
RTVSPost2010Prop52
140
1.0
102
RTVSPost2010PropOp52
 70
     0
102
RTVSPost2010Prop53
 90
        2
102
RTVSPost2010PropOp53
 70
     1
102
RTVSPost2010Prop54
  1
strokes_ogs.tif
102
RTVSPost2010PropOp54
 70
     1
102
RTVSPost2010Prop55
280
     0
102
RTVSPost2010PropOp55
 70
     1
102
RTVSPost2010Prop56
140
1.0
102
RTVSPost2010PropOp56
 70
     1
102
RTVSPost2010Prop57
140
1.0
102
RTVSPost2010PropOp57
 70
     1
  0
XRECORD
  5
E5
102
{ACAD_REACTORS
330
E4
102
}
330
E4
100
AcDbXrecord
280
     1
102
RTVSPost2010Prop28
280
     0
102
RTVSPost2010PropOp28
 70
     1
102
RTVSPost2010Prop29
280
     1
102
RTVSPost2010PropOp29
 70
     1
102
RTVSPost2010Prop30
280
     1
102
RTVSPost2010PropOp30
 70
     1
102
RTVSPost2010Prop31
280
     0
102
RTVSPost2010PropOp31
 70
     1
102
RTVSPost2010Prop32
280
     0
102
RTVSPost2010PropOp32
 70
     1
102
RTVSPost2010Prop33
280
     0
102
RTVSPost2010PropOp33
 70
     1
102
RTVSPost2010Prop34
280
     0
102
RTVSPost2010PropOp34
 70
     1
102
RTVSPost2010Prop35
280
     0
102
RTVSPost2010PropOp35
 70
     1
102
RTVSPost2010Prop36
280
     0
102
RTVSPost2010PropOp36
 70
     1
102
RTVSPost2010Prop37
 90
       50
102
RTVSPost2010PropOp37
 70
     1
102
RTVSPost2010Prop38
140
0.0
102
RTVSPost2010PropOp38
 70
     1
102
RTVSPost2010Prop39
140
1.0
102
RTVSPost2010PropOp39
 70
     1
102
RTVSPost2010Prop40
 90
        0
102
RTVSPost2010PropOp40
 70
     1
102
RTVSPost2010Prop41ColorIndex
 90
       18
102
RTVSPost2010Prop41ColorRGB
 90
        0
102
RTVSPost2010PropOp41
 70
     1
102
RTVSPost2010Prop42
 90
       50
102
RTVSPost2010PropOp42
 70
     1
102
RTVSPost2010Prop43
 90
        3
102
RTVSPost2010PropOp43
 70
     1
102
RTVSPost2010Prop44ColorIndex
 90
        5
102
RTVSPost2010Prop44ColorRGB
 90
      255
102
RTVSPost2010PropOp44
 70
     1
102
RTVSPost2010Prop45
280
     0
102
RTVSPost2010PropOp45
 70
     1
102
RTVSPost2010Prop46
 90
       50
102
RTVSPost2010PropOp46
 70
     1
102
RTVSPost2010Prop47
 90
       50
102
RTVSPost2010PropOp47
 70
     1
102
RTVSPost2010Prop48
 90
       50
102
RTVSPost2010PropOp48
 70
     1
102
RTVSPost2010Prop49
280
     0
102
RTVSPost2010PropOp49
 70
     1
102
RTVSPost2010Prop50
 90
       50
102
RTVSPost2010PropOp50
 70
     1
102
RTVSPost2010Prop51ColorIndex
 90
      256
102
RTVSPost2010Prop51ColorRGB
 90
-16777216
102
RTVSPost2010PropOp51
 70
     0
102
RTVSPost2010Prop52
140
1.0
102
RTVSPost2010PropOp52
 70
     0
102
RTVSPost2010Prop53
 90
        2
102
RTVSPost2010PropOp53
 70
     1
102
RTVSPost2010Prop54
  1
strokes_ogs.tif
102
RTVSPost2010PropOp54
 70
     1
102
RTVSPost2010Prop55
280
     0
102
RTVSPost2010PropOp55
 70
     1
102
RTVSPost2010Prop56
140
1.0
102
RTVSPost2010PropOp56
 70
     1
102
RTVSPost2010Prop57
140
1.0
102
RTVSPost2010PropOp57
 70
     1
  0
XRECORD
  5
E7
102
{ACAD_REACTORS
330
E6
102
}
330
E6
100
AcDbXrecord
280
     1
102
RTVSPost2010Prop28
280
     0
102
RTVSPost2010PropOp28
 70
     1
102
RTVSPost2010Prop29
280
     1
102
RTVSPost2010PropOp29
 70
     1
102
RTVSPost2010Prop30
280
     1
102
RTVSPost2010PropOp30
 70
     1
102
RTVSPost2010Prop31
280
     0
102
RTVSPost2010PropOp31
 70
     1
102
RTVSPost2010Prop32
280
     0
102
RTVSPost2010PropOp32
 70
     1
102
RTVSPost2010Prop33
280
     0
102
RTVSPost2010PropOp33
 70
     1
102
RTVSPost2010Prop34
280
     0
102
RTVSPost2010PropOp34
 70
     1
102
RTVSPost2010Prop35
280
     0
102
RTVSPost2010PropOp35
 70
     1
102
RTVSPost2010Prop36
280
     0
102
RTVSPost2010PropOp36
 70
     1
102
RTVSPost2010Prop37
 90
       50
102
RTVSPost2010PropOp37
 70
     1
102
RTVSPost2010Prop38
140
0.0
102
RTVSPost2010PropOp38
 70
     1
102
RTVSPost2010Prop39
140
1.0
102
RTVSPost2010PropOp39
 70
     1
102
RTVSPost2010Prop40
 90
        0
102
RTVSPost2010PropOp40
 70
     1
102
RTVSPost2010Prop41ColorIndex
 90
       18
102
RTVSPost2010Prop41ColorRGB
 90
        0
102
RTVSPost2010PropOp41
 70
     1
102
RTVSPost2010Prop42
 90
       50
102
RTVSPost2010PropOp42
 70
     1
102
RTVSPost2010Prop43
 90
        3
102
RTVSPost2010PropOp43
 70
     1
102
RTVSPost2010Prop44ColorIndex
 90
        5
102
RTVSPost2010Prop44ColorRGB
 90
      255
102
RTVSPost2010PropOp44
 70
     1
102
RTVSPost2010Prop45
280
     0
102
RTVSPost2010PropOp45
 70
     1
102
RTVSPost2010Prop46
 90
       50
102
RTVSPost2010PropOp46
 70
     1
102
RTVSPost2010Prop47
 90
       50
102
RTVSPost2010PropOp47
 70
     1
102
RTVSPost2010Prop48
 90
       50
102
RTVSPost2010PropOp48
 70
     1
102
RTVSPost2010Prop49
280
     0
102
RTVSPost2010PropOp49
 70
     1
102
RTVSPost2010Prop50
 90
       50
102
RTVSPost2010PropOp50
 70
     1
102
RTVSPost2010Prop51ColorIndex
 90
      256
102
RTVSPost2010Prop51ColorRGB
 90
-16777216
102
RTVSPost2010PropOp51
 70
     0
102
RTVSPost2010Prop52
140
1.0
102
RTVSPost2010PropOp52
 70
     0
102
RTVSPost2010Prop53
 90
        2
102
RTVSPost2010PropOp53
 70
     1
102
RTVSPost2010Prop54
  1
strokes_ogs.tif
102
RTVSPost2010PropOp54
 70
     1
102
RTVSPost2010Prop55
280
     0
102
RTVSPost2010PropOp55
 70
     1
102
RTVSPost2010Prop56
140
1.0
102
RTVSPost2010PropOp56
 70
     1
102
RTVSPost2010Prop57
140
1.0
102
RTVSPost2010PropOp57
 70
     1
  0
XRECORD
  5
EF
102
{ACAD_REACTORS
330
EE
102
}
330
EE
100
AcDbXrecord
280
     1
102
RTVSPost2010Prop28
280
     0
102
RTVSPost2010PropOp28
 70
     1
102
RTVSPost2010Prop29
280
     1
102
RTVSPost2010PropOp29
 70
     1
102
RTVSPost2010Prop30
280
     1
102
RTVSPost2010PropOp30
 70
     1
102
RTVSPost2010Prop31
280
     0
102
RTVSPost2010PropOp31
 70
     1
102
RTVSPost2010Prop32
280
     0
102
RTVSPost2010PropOp32
 70
     1
102
RTVSPost2010Prop33
280
     0
102
RTVSPost2010PropOp33
 70
     1
102
RTVSPost2010Prop34
280
     0
102
RTVSPost2010PropOp34
 70
     1
102
RTVSPost2010Prop35
280
     0
102
RTVSPost2010PropOp35
 70
     1
102
RTVSPost2010Prop36
280
     0
102
RTVSPost2010PropOp36
 70
     1
102
RTVSPost2010Prop37
 90
       50
102
RTVSPost2010PropOp37
 70
     1
102
RTVSPost2010Prop38
140
0.0
102
RTVSPost2010PropOp38
 70
     1
102
RTVSPost2010Prop39
140
1.0
102
RTVSPost2010PropOp39
 70
     1
102
RTVSPost2010Prop40
 90
        0
102
RTVSPost2010PropOp40
 70
     1
102
RTVSPost2010Prop41ColorIndex
 90
       18
102
RTVSPost2010Prop41ColorRGB
 90
        0
102
RTVSPost2010PropOp41
 70
     1
102
RTVSPost2010Prop42
 90
       50
102
RTVSPost2010PropOp42
 70
     1
102
RTVSPost2010Prop43
 90
        3
102
RTVSPost2010PropOp43
 70
     1
102
RTVSPost2010Prop44ColorIndex
 90
        5
102
RTVSPost2010Prop44ColorRGB
 90
      255
102
RTVSPost2010PropOp44
 70
     1
102
RTVSPost2010Prop45
280
     0
102
RTVSPost2010PropOp45
 70
     1
102
RTVSPost2010Prop46
 90
       50
102
RTVSPost2010PropOp46
 70
     1
102
RTVSPost2010Prop47
 90
       50
102
RTVSPost2010PropOp47
 70
     1
102
RTVSPost2010Prop48
 90
       50
102
RTVSPost2010PropOp48
 70
     1
102
RTVSPost2010Prop49
280
     0
102
RTVSPost2010PropOp49
 70
     1
102
RTVSPost2010Prop50
 90
       50
102
RTVSPost2010PropOp50
 70
     1
102
RTVSPost2010Prop51ColorIndex
 90
      256
102
RTVSPost2010Prop51ColorRGB
 90
-16777216
102
RTVSPost2010PropOp51
 70
     0
102
RTVSPost2010Prop52
140
1.0
102
RTVSPost2010PropOp52
 70
     0
102
RTVSPost2010Prop53
 90
        2
102
RTVSPost2010PropOp53
 70
     1
102
RTVSPost2010Prop54
  1
strokes_ogs.tif
102
RTVSPost2010PropOp54
 70
     1
102
RTVSPost2010Prop55
280
     0
102
RTVSPost2010PropOp55
 70
     1
102
RTVSPost2010Prop56
140
1.0
102
RTVSPost2010PropOp56
 70
     1
102
RTVSPost2010Prop57
140
1.0
102
RTVSPost2010PropOp57
 70
     1
  0
XRECORD
  5
10B
102
{ACAD_REACTORS
330
10A
102
}
330
10A
100
AcDbXrecord
280
     1
102
RTVSPost2010Prop28
280
     0
102
RTVSPost2010PropOp28
 70
     0
102
RTVSPost2010Prop29
280
     1
102
RTVSPost2010PropOp29
 70
     0
102
RTVSPost2010Prop30
280
     1
102
RTVSPost2010PropOp30
 70
     0
102
RTVSPost2010Prop31
280
     0
102
RTVSPost2010PropOp31
 70
     0
102
RTVSPost2010Prop32
280
     0
102
RTVSPost2010PropOp32
 70
     0
102
RTVSPost2010Prop33
280
     0
102
RTVSPost2010PropOp33
 70
     0
102
RTVSPost2010Prop34
280
     0
102
RTVSPost2010PropOp34
 70
     0
102
RTVSPost2010Prop35
280
     0
102
RTVSPost2010PropOp35
 70
     0
102
RTVSPost2010Prop36
280
     0
102
RTVSPost2010PropOp36
 70
     0
102
RTVSPost2010Prop37
 90
       50
102
RTVSPost2010PropOp37
 70
     0
102
RTVSPost2010Prop38
140
0.0
102
RTVSPost2010PropOp38
 70
     0
102
RTVSPost2010Prop39
140
1.0
102
RTVSPost2010PropOp39
 70
     0
102
RTVSPost2010Prop40
 90
        0
102
RTVSPost2010PropOp40
 70
     0
102
RTVSPost2010Prop41ColorIndex
 90
       18
102
RTVSPost2010Prop41ColorRGB
 90
        0
102
RTVSPost2010PropOp41
 70
     0
102
RTVSPost2010Prop42
 90
       50
102
RTVSPost2010PropOp42
 70
     0
102
RTVSPost2010Prop43
 90
        3
102
RTVSPost2010PropOp43
 70
     0
102
RTVSPost2010Prop44ColorIndex
 90
        5
102
RTVSPost2010Prop44ColorRGB
 90
      255
102
RTVSPost2010PropOp44
 70
     0
102
RTVSPost2010Prop45
280
     0
102
RTVSPost2010PropOp45
 70
     0
102
RTVSPost2010Prop46
 90
       50
102
RTVSPost2010PropOp46
 70
     0
102
RTVSPost2010Prop47
 90
       50
102
RTVSPost2010PropOp47
 70
     0
102
RTVSPost2010Prop48
 90
       50
102
RTVSPost2010PropOp48
 70
     0
102
RTVSPost2010Prop49
280
     0
102
RTVSPost2010PropOp49
 70
     0
102
RTVSPost2010Prop50
 90
       50
102
RTVSPost2010PropOp50
 70
     0
102
RTVSPost2010Prop51ColorIndex
 90
      256
102
RTVSPost2010Prop51ColorRGB
 90
-16777216
102
RTVSPost2010PropOp51
 70
     0
102
RTVSPost2010Prop52
140
1.0
102
RTVSPost2010PropOp52
 70
     0
102
RTVSPost2010Prop53
 90
        2
102
RTVSPost2010PropOp53
 70
     0
102
RTVSPost2010Prop54
  1
strokes_ogs.tif
102
RTVSPost2010PropOp54
 70
     0
102
RTVSPost2010Prop55
280
     0
102
RTVSPost2010PropOp55
 70
     0
102
RTVSPost2010Prop56
140
1.0
102
RTVSPost2010PropOp56
 70
     0
102
RTVSPost2010Prop57
140
1.0
102
RTVSPost2010PropOp57
 70
     0
  0
XRECORD
  5
FB
102
{ACAD_REACTORS
330
FA
102
}
330
FA
100
AcDbXrecord
280
     1
102
RTVSPost2010Prop28
280
     0
102
RTVSPost2010PropOp28
 70
     1
102
RTVSPost2010Prop29
280
     1
102
RTVSPost2010PropOp29
 70
     1
102
RTVSPost2010Prop30
280
     1
102
RTVSPost2010PropOp30
 70
     1
102
RTVSPost2010Prop31
280
     0
102
RTVSPost2010PropOp31
 70
     1
102
RTVSPost2010Prop32
280
     0
102
RTVSPost2010PropOp32
 70
     1
102
RTVSPost2010Prop33
280
     0
102
RTVSPost2010PropOp33
 70
     1
102
RTVSPost2010Prop34
280
     0
102
RTVSPost2010PropOp34
 70
     1
102
RTVSPost2010Prop35
280
     0
102
RTVSPost2010PropOp35
 70
     1
102
RTVSPost2010Prop36
280
     0
102
RTVSPost2010PropOp36
 70
     1
102
RTVSPost2010Prop37
 90
       50
102
RTVSPost2010PropOp37
 70
     1
102
RTVSPost2010Prop38
140
0.0
102
RTVSPost2010PropOp38
 70
     1
102
RTVSPost2010Prop39
140
1.0
102
RTVSPost2010PropOp39
 70
     1
102
RTVSPost2010Prop40
 90
        0
102
RTVSPost2010PropOp40
 70
     1
102
RTVSPost2010Prop41ColorIndex
 90
       18
102
RTVSPost2010Prop41ColorRGB
 90
        0
102
RTVSPost2010PropOp41
 70
     1
102
RTVSPost2010Prop42
 90
       50
102
RTVSPost2010PropOp42
 70
     1
102
RTVSPost2010Prop43
 90
        3
102
RTVSPost2010PropOp43
 70
     1
102
RTVSPost2010Prop44ColorIndex
 90
        5
102
RTVSPost2010Prop44ColorRGB
 90
      255
102
RTVSPost2010PropOp44
 70
     1
102
RTVSPost2010Prop45
280
     0
102
RTVSPost2010PropOp45
 70
     1
102
RTVSPost2010Prop46
 90
       50
102
RTVSPost2010PropOp46
 70
     1
102
RTVSPost2010Prop47
 90
       50
102
RTVSPost2010PropOp47
 70
     1
102
RTVSPost2010Prop48
 90
       50
102
RTVSPost2010PropOp48
 70
     1
102
RTVSPost2010Prop49
280
     0
102
RTVSPost2010PropOp49
 70
     1
102
RTVSPost2010Prop50
 90
       50
102
RTVSPost2010PropOp50
 70
     1
102
RTVSPost2010Prop51ColorIndex
 90
      256
102
RTVSPost2010Prop51ColorRGB
 90
-16777216
102
RTVSPost2010PropOp51
 70
     0
102
RTVSPost2010Prop52
140
1.0
102
RTVSPost2010PropOp52
 70
     0
102
RTVSPost2010Prop53
 90
        2
102
RTVSPost2010PropOp53
 70
     1
102
RTVSPost2010Prop54
  1
strokes_ogs.tif
102
RTVSPost2010PropOp54
 70
     1
102
RTVSPost2010Prop55
280
     0
102
RTVSPost2010PropOp55
 70
     1
102
RTVSPost2010Prop56
140
1.0
102
RTVSPost2010PropOp56
 70
     1
102
RTVSPost2010Prop57
140
1.0
102
RTVSPost2010PropOp57
 70
     1
  0
XRECORD
  5
10D
102
{ACAD_REACTORS
330
10C
102
}
330
10C
100
AcDbXrecord
280
     1
102
RTVSPost2010Prop28
280
     0
102
RTVSPost2010PropOp28
 70
     0
102
RTVSPost2010Prop29
280
     1
102
RTVSPost2010PropOp29
 70
     0
102
RTVSPost2010Prop30
280
     1
102
RTVSPost2010PropOp30
 70
     0
102
RTVSPost2010Prop31
280
     0
102
RTVSPost2010PropOp31
 70
     0
102
RTVSPost2010Prop32
280
     0
102
RTVSPost2010PropOp32
 70
     0
102
RTVSPost2010Prop33
280
     0
102
RTVSPost2010PropOp33
 70
     0
102
RTVSPost2010Prop34
280
     0
102
RTVSPost2010PropOp34
 70
     0
102
RTVSPost2010Prop35
280
     0
102
RTVSPost2010PropOp35
 70
     0
102
RTVSPost2010Prop36
280
     0
102
RTVSPost2010PropOp36
 70
     0
102
RTVSPost2010Prop37
 90
       50
102
RTVSPost2010PropOp37
 70
     0
102
RTVSPost2010Prop38
140
0.0
102
RTVSPost2010PropOp38
 70
     0
102
RTVSPost2010Prop39
140
1.0
102
RTVSPost2010PropOp39
 70
     0
102
RTVSPost2010Prop40
 90
        0
102
RTVSPost2010PropOp40
 70
     0
102
RTVSPost2010Prop41ColorIndex
 90
       18
102
RTVSPost2010Prop41ColorRGB
 90
        0
102
RTVSPost2010PropOp41
 70
     0
102
RTVSPost2010Prop42
 90
       50
102
RTVSPost2010PropOp42
 70
     0
102
RTVSPost2010Prop43
 90
        3
102
RTVSPost2010PropOp43
 70
     0
102
RTVSPost2010Prop44ColorIndex
 90
        5
102
RTVSPost2010Prop44ColorRGB
 90
      255
102
RTVSPost2010PropOp44
 70
     0
102
RTVSPost2010Prop45
280
     0
102
RTVSPost2010PropOp45
 70
     0
102
RTVSPost2010Prop46
 90
       50
102
RTVSPost2010PropOp46
 70
     0
102
RTVSPost2010Prop47
 90
       50
102
RTVSPost2010PropOp47
 70
     0
102
RTVSPost2010Prop48
 90
       50
102
RTVSPost2010PropOp48
 70
     0
102
RTVSPost2010Prop49
280
     0
102
RTVSPost2010PropOp49
 70
     0
102
RTVSPost2010Prop50
 90
       50
102
RTVSPost2010PropOp50
 70
     0
102
RTVSPost2010Prop51ColorIndex
 90
      256
102
RTVSPost2010Prop51ColorRGB
 90
-16777216
102
RTVSPost2010PropOp51
 70
     0
102
RTVSPost2010Prop52
140
1.0
102
RTVSPost2010PropOp52
 70
     0
102
RTVSPost2010Prop53
 90
        2
102
RTVSPost2010PropOp53
 70
     0
102
RTVSPost2010Prop54
  1
strokes_ogs.tif
102
RTVSPost2010PropOp54
 70
     0
102
RTVSPost2010Prop55
280
     0
102
RTVSPost2010PropOp55
 70
     0
102
RTVSPost2010Prop56
140
1.0
102
RTVSPost2010PropOp56
 70
     0
102
RTVSPost2010Prop57
140
1.0
102
RTVSPost2010PropOp57
 70
     0
  0
XRECORD
  5
F3
102
{ACAD_REACTORS
330
F2
102
}
330
F2
100
AcDbXrecord
280
     1
102
RTVSPost2010Prop28
280
     0
102
RTVSPost2010PropOp28
 70
     1
102
RTVSPost2010Prop29
280
     1
102
RTVSPost2010PropOp29
 70
     1
102
RTVSPost2010Prop30
280
     1
102
RTVSPost2010PropOp30
 70
     1
102
RTVSPost2010Prop31
280
     0
102
RTVSPost2010PropOp31
 70
     1
102
RTVSPost2010Prop32
280
     0
102
RTVSPost2010PropOp32
 70
     1
102
RTVSPost2010Prop33
280
     0
102
RTVSPost2010PropOp33
 70
     1
102
RTVSPost2010Prop34
280
     0
102
RTVSPost2010PropOp34
 70
     1
102
RTVSPost2010Prop35
280
     0
102
RTVSPost2010PropOp35
 70
     1
102
RTVSPost2010Prop36
280
     0
102
RTVSPost2010PropOp36
 70
     1
102
RTVSPost2010Prop37
 90
       50
102
RTVSPost2010PropOp37
 70
     1
102
RTVSPost2010Prop38
140
0.0
102
RTVSPost2010PropOp38
 70
     1
102
RTVSPost2010Prop39
140
1.0
102
RTVSPost2010PropOp39
 70
     1
102
RTVSPost2010Prop40
 90
        0
102
RTVSPost2010PropOp40
 70
     1
102
RTVSPost2010Prop41ColorIndex
 90
       18
102
RTVSPost2010Prop41ColorRGB
 90
        0
102
RTVSPost2010PropOp41
 70
     1
102
RTVSPost2010Prop42
 90
       50
102
RTVSPost2010PropOp42
 70
     1
102
RTVSPost2010Prop43
 90
        3
102
RTVSPost2010PropOp43
 70
     1
102
RTVSPost2010Prop44ColorIndex
 90
        5
102
RTVSPost2010Prop44ColorRGB
 90
      255
102
RTVSPost2010PropOp44
 70
     1
102
RTVSPost2010Prop45
280
     0
102
RTVSPost2010PropOp45
 70
     1
102
RTVSPost2010Prop46
 90
       50
102
RTVSPost2010PropOp46
 70
     1
102
RTVSPost2010Prop47
 90
       50
102
RTVSPost2010PropOp47
 70
     1
102
RTVSPost2010Prop48
 90
       50
102
RTVSPost2010PropOp48
 70
     1
102
RTVSPost2010Prop49
280
     0
102
RTVSPost2010PropOp49
 70
     1
102
RTVSPost2010Prop50
 90
       50
102
RTVSPost2010PropOp50
 70
     1
102
RTVSPost2010Prop51ColorIndex
 90
      256
102
RTVSPost2010Prop51ColorRGB
 90
-16777216
102
RTVSPost2010PropOp51
 70
     0
102
RTVSPost2010Prop52
140
1.0
102
RTVSPost2010PropOp52
 70
     0
102
RTVSPost2010Prop53
 90
        2
102
RTVSPost2010PropOp53
 70
     1
102
RTVSPost2010Prop54
  1
strokes_ogs.tif
102
RTVSPost2010PropOp54
 70
     1
102
RTVSPost2010Prop55
280
     0
102
RTVSPost2010PropOp55
 70
     1
102
RTVSPost2010Prop56
140
1.0
102
RTVSPost2010PropOp56
 70
     1
102
RTVSPost2010Prop57
140
1.0
102
RTVSPost2010PropOp57
 70
     1
  0
XRECORD
  5
109
102
{ACAD_REACTORS
330
108
102
}
330
108
100
AcDbXrecord
280
     1
102
RTVSPost2010Prop28
280
     0
102
RTVSPost2010PropOp28
 70
     1
102
RTVSPost2010Prop29
280
     1
102
RTVSPost2010PropOp29
 70
     1
102
RTVSPost2010Prop30
280
     1
102
RTVSPost2010PropOp30
 70
     1
102
RTVSPost2010Prop31
280
     0
102
RTVSPost2010PropOp31
 70
     1
102
RTVSPost2010Prop32
280
     0
102
RTVSPost2010PropOp32
 70
     1
102
RTVSPost2010Prop33
280
     0
102
RTVSPost2010PropOp33
 70
     1
102
RTVSPost2010Prop34
280
     0
102
RTVSPost2010PropOp34
 70
     1
102
RTVSPost2010Prop35
280
     0
102
RTVSPost2010PropOp35
 70
     1
102
RTVSPost2010Prop36
280
     0
102
RTVSPost2010PropOp36
 70
     1
102
RTVSPost2010Prop37
 90
       50
102
RTVSPost2010PropOp37
 70
     1
102
RTVSPost2010Prop38
140
0.0
102
RTVSPost2010PropOp38
 70
     1
102
RTVSPost2010Prop39
140
1.0
102
RTVSPost2010PropOp39
 70
     1
102
RTVSPost2010Prop40
 90
        0
102
RTVSPost2010PropOp40
 70
     1
102
RTVSPost2010Prop41ColorIndex
 90
       18
102
RTVSPost2010Prop41ColorRGB
 90
        0
102
RTVSPost2010PropOp41
 70
     1
102
RTVSPost2010Prop42
 90
       50
102
RTVSPost2010PropOp42
 70
     1
102
RTVSPost2010Prop43
 90
        3
102
RTVSPost2010PropOp43
 70
     1
102
RTVSPost2010Prop44ColorIndex
 90
        5
102
RTVSPost2010Prop44ColorRGB
 90
      255
102
RTVSPost2010PropOp44
 70
     1
102
RTVSPost2010Prop45
280
     0
102
RTVSPost2010PropOp45
 70
     1
102
RTVSPost2010Prop46
 90
       50
102
RTVSPost2010PropOp46
 70
     1
102
RTVSPost2010Prop47
 90
       50
102
RTVSPost2010PropOp47
 70
     1
102
RTVSPost2010Prop48
 90
       50
102
RTVSPost2010PropOp48
 70
     1
102
RTVSPost2010Prop49
280
     0
102
RTVSPost2010PropOp49
 70
     1
102
RTVSPost2010Prop50
 90
       50
102
RTVSPost2010PropOp50
 70
     1
102
RTVSPost2010Prop51ColorIndex
 90
      256
102
RTVSPost2010Prop51ColorRGB
 90
-16777216
102
RTVSPost2010PropOp51
 70
     0
102
RTVSPost2010Prop52
140
1.0
102
RTVSPost2010PropOp52
 70
     0
102
RTVSPost2010Prop53
 90
        2
102
RTVSPost2010PropOp53
 70
     1
102
RTVSPost2010Prop54
  1
strokes_ogs.tif
102
RTVSPost2010PropOp54
 70
     1
102
RTVSPost2010Prop55
280
     0
102
RTVSPost2010PropOp55
 70
     1
102
RTVSPost2010Prop56
140
1.0
102
RTVSPost2010PropOp56
 70
     1
102
RTVSPost2010Prop57
140
1.0
102
RTVSPost2010PropOp57
 70
     1
  0
XRECORD
  5
107
102
{ACAD_REACTORS
330
106
102
}
330
106
100
AcDbXrecord
280
     1
102
RTVSPost2010Prop28
280
     0
102
RTVSPost2010PropOp28
 70
     1
102
RTVSPost2010Prop29
280
     1
102
RTVSPost2010PropOp29
 70
     1
102
RTVSPost2010Prop30
280
     1
102
RTVSPost2010PropOp30
 70
     1
102
RTVSPost2010Prop31
280
     0
102
RTVSPost2010PropOp31
 70
     1
102
RTVSPost2010Prop32
280
     0
102
RTVSPost2010PropOp32
 70
     1
102
RTVSPost2010Prop33
280
     0
102
RTVSPost2010PropOp33
 70
     1
102
RTVSPost2010Prop34
280
     0
102
RTVSPost2010PropOp34
 70
     1
102
RTVSPost2010Prop35
280
     0
102
RTVSPost2010PropOp35
 70
     1
102
RTVSPost2010Prop36
280
     0
102
RTVSPost2010PropOp36
 70
     1
102
RTVSPost2010Prop37
 90
       50
102
RTVSPost2010PropOp37
 70
     1
102
RTVSPost2010Prop38
140
0.0
102
RTVSPost2010PropOp38
 70
     1
102
RTVSPost2010Prop39
140
1.0
102
RTVSPost2010PropOp39
 70
     1
102
RTVSPost2010Prop40
 90
        0
102
RTVSPost2010PropOp40
 70
     1
102
RTVSPost2010Prop41ColorIndex
 90
       18
102
RTVSPost2010Prop41ColorRGB
 90
        0
102
RTVSPost2010PropOp41
 70
     1
102
RTVSPost2010Prop42
 90
       50
102
RTVSPost2010PropOp42
 70
     1
102
RTVSPost2010Prop43
 90
        3
102
RTVSPost2010PropOp43
 70
     1
102
RTVSPost2010Prop44ColorIndex
 90
        5
102
RTVSPost2010Prop44ColorRGB
 90
      255
102
RTVSPost2010PropOp44
 70
     1
102
RTVSPost2010Prop45
280
     0
102
RTVSPost2010PropOp45
 70
     1
102
RTVSPost2010Prop46
 90
       50
102
RTVSPost2010PropOp46
 70
     1
102
RTVSPost2010Prop47
 90
       50
102
RTVSPost2010PropOp47
 70
     1
102
RTVSPost2010Prop48
 90
       50
102
RTVSPost2010PropOp48
 70
     1
102
RTVSPost2010Prop49
280
     0
102
RTVSPost2010PropOp49
 70
     1
102
RTVSPost2010Prop50
 90
       50
102
RTVSPost2010PropOp50
 70
     1
102
RTVSPost2010Prop51ColorIndex
 90
      256
102
RTVSPost2010Prop51ColorRGB
 90
-16777216
102
RTVSPost2010PropOp51
 70
     0
102
RTVSPost2010Prop52
140
1.0
102
RTVSPost2010PropOp52
 70
     0
102
RTVSPost2010Prop53
 90
        2
102
RTVSPost2010PropOp53
 70
     1
102
RTVSPost2010Prop54
  1
strokes_ogs.tif
102
RTVSPost2010PropOp54
 70
     1
102
RTVSPost2010Prop55
280
     0
102
RTVSPost2010PropOp55
 70
     1
102
RTVSPost2010Prop56
140
1.0
102
RTVSPost2010PropOp56
 70
     1
102
RTVSPost2010Prop57
140
1.0
102
RTVSPost2010PropOp57
 70
     1
  0
XRECORD
  5
101
102
{ACAD_REACTORS
330
100
102
}
330
100
100
AcDbXrecord
280
     1
102
RTVSPost2010Prop28
280
     0
102
RTVSPost2010PropOp28
 70
     1
102
RTVSPost2010Prop29
280
     1
102
RTVSPost2010PropOp29
 70
     1
102
RTVSPost2010Prop30
280
     1
102
RTVSPost2010PropOp30
 70
     1
102
RTVSPost2010Prop31
280
     0
102
RTVSPost2010PropOp31
 70
     1
102
RTVSPost2010Prop32
280
     0
102
RTVSPost2010PropOp32
 70
     1
102
RTVSPost2010Prop33
280
     0
102
RTVSPost2010PropOp33
 70
     1
102
RTVSPost2010Prop34
280
     0
102
RTVSPost2010PropOp34
 70
     1
102
RTVSPost2010Prop35
280
     0
102
RTVSPost2010PropOp35
 70
     1
102
RTVSPost2010Prop36
280
     0
102
RTVSPost2010PropOp36
 70
     1
102
RTVSPost2010Prop37
 90
       50
102
RTVSPost2010PropOp37
 70
     1
102
RTVSPost2010Prop38
140
0.0
102
RTVSPost2010PropOp38
 70
     1
102
RTVSPost2010Prop39
140
1.0
102
RTVSPost2010PropOp39
 70
     1
102
RTVSPost2010Prop40
 90
        0
102
RTVSPost2010PropOp40
 70
     1
102
RTVSPost2010Prop41ColorIndex
 90
       18
102
RTVSPost2010Prop41ColorRGB
 90
        0
102
RTVSPost2010PropOp41
 70
     1
102
RTVSPost2010Prop42
 90
       50
102
RTVSPost2010PropOp42
 70
     1
102
RTVSPost2010Prop43
 90
        3
102
RTVSPost2010PropOp43
 70
     1
102
RTVSPost2010Prop44ColorIndex
 90
        5
102
RTVSPost2010Prop44ColorRGB
 90
      255
102
RTVSPost2010PropOp44
 70
     1
102
RTVSPost2010Prop45
280
     0
102
RTVSPost2010PropOp45
 70
     1
102
RTVSPost2010Prop46
 90
       50
102
RTVSPost2010PropOp46
 70
     1
102
RTVSPost2010Prop47
 90
       50
102
RTVSPost2010PropOp47
 70
     1
102
RTVSPost2010Prop48
 90
       50
102
RTVSPost2010PropOp48
 70
     1
102
RTVSPost2010Prop49
280
     0
102
RTVSPost2010PropOp49
 70
     1
102
RTVSPost2010Prop50
 90
       50
102
RTVSPost2010PropOp50
 70
     1
102
RTVSPost2010Prop51ColorIndex
 90
      256
102
RTVSPost2010Prop51ColorRGB
 90
-16777216
102
RTVSPost2010PropOp51
 70
     0
102
RTVSPost2010Prop52
140
1.0
102
RTVSPost2010PropOp52
 70
     0
102
RTVSPost2010Prop53
 90
        2
102
RTVSPost2010PropOp53
 70
     1
102
RTVSPost2010Prop54
  1
strokes_ogs.tif
102
RTVSPost2010PropOp54
 70
     1
102
RTVSPost2010Prop55
280
     0
102
RTVSPost2010PropOp55
 70
     1
102
RTVSPost2010Prop56
140
1.0
102
RTVSPost2010PropOp56
 70
     1
102
RTVSPost2010Prop57
140
1.0
102
RTVSPost2010PropOp57
 70
     1
  0
XRECORD
  5
103
102
{ACAD_REACTORS
330
102
102
}
330
102
100
AcDbXrecord
280
     1
102
RTVSPost2010Prop28
280
     0
102
RTVSPost2010PropOp28
 70
     1
102
RTVSPost2010Prop29
280
     1
102
RTVSPost2010PropOp29
 70
     1
102
RTVSPost2010Prop30
280
     1
102
RTVSPost2010PropOp30
 70
     1
102
RTVSPost2010Prop31
280
     0
102
RTVSPost2010PropOp31
 70
     1
102
RTVSPost2010Prop32
280
     0
102
RTVSPost2010PropOp32
 70
     1
102
RTVSPost2010Prop33
280
     0
102
RTVSPost2010PropOp33
 70
     1
102
RTVSPost2010Prop34
280
     0
102
RTVSPost2010PropOp34
 70
     1
102
RTVSPost2010Prop35
280
     0
102
RTVSPost2010PropOp35
 70
     1
102
RTVSPost2010Prop36
280
     0
102
RTVSPost2010PropOp36
 70
     1
102
RTVSPost2010Prop37
 90
       50
102
RTVSPost2010PropOp37
 70
     1
102
RTVSPost2010Prop38
140
0.0
102
RTVSPost2010PropOp38
 70
     1
102
RTVSPost2010Prop39
140
1.0
102
RTVSPost2010PropOp39
 70
     1
102
RTVSPost2010Prop40
 90
        0
102
RTVSPost2010PropOp40
 70
     1
102
RTVSPost2010Prop41ColorIndex
 90
       18
102
RTVSPost2010Prop41ColorRGB
 90
        0
102
RTVSPost2010PropOp41
 70
     1
102
RTVSPost2010Prop42
 90
       50
102
RTVSPost2010PropOp42
 70
     1
102
RTVSPost2010Prop43
 90
        3
102
RTVSPost2010PropOp43
 70
     1
102
RTVSPost2010Prop44ColorIndex
 90
        5
102
RTVSPost2010Prop44ColorRGB
 90
      255
102
RTVSPost2010PropOp44
 70
     1
102
RTVSPost2010Prop45
280
     0
102
RTVSPost2010PropOp45
 70
     1
102
RTVSPost2010Prop46
 90
       50
102
RTVSPost2010PropOp46
 70
     1
102
RTVSPost2010Prop47
 90
       50
102
RTVSPost2010PropOp47
 70
     1
102
RTVSPost2010Prop48
 90
       50
102
RTVSPost2010PropOp48
 70
     1
102
RTVSPost2010Prop49
280
     0
102
RTVSPost2010PropOp49
 70
     1
102
RTVSPost2010Prop50
 90
       50
102
RTVSPost2010PropOp50
 70
     1
102
RTVSPost2010Prop51ColorIndex
 90
      256
102
RTVSPost2010Prop51ColorRGB
 90
-16777216
102
RTVSPost2010PropOp51
 70
     0
102
RTVSPost2010Prop52
140
1.0
102
RTVSPost2010PropOp52
 70
     0
102
RTVSPost2010Prop53
 90
        2
102
RTVSPost2010PropOp53
 70
     1
102
RTVSPost2010Prop54
  1
strokes_ogs.tif
102
RTVSPost2010PropOp54
 70
     1
102
RTVSPost2010Prop55
280
     0
102
RTVSPost2010PropOp55
 70
     1
102
RTVSPost2010Prop56
140
1.0
102
RTVSPost2010PropOp56
 70
     1
102
RTVSPost2010Prop57
140
1.0
102
RTVSPost2010PropOp57
 70
     1
  0
XRECORD
  5
F9
102
{ACAD_REACTORS
330
F8
102
}
330
F8
100
AcDbXrecord
280
     1
102
RTVSPost2010Prop28
280
     0
102
RTVSPost2010PropOp28
 70
     1
102
RTVSPost2010Prop29
280
     1
102
RTVSPost2010PropOp29
 70
     1
102
RTVSPost2010Prop30
280
     1
102
RTVSPost2010PropOp30
 70
     1
102
RTVSPost2010Prop31
280
     0
102
RTVSPost2010PropOp31
 70
     1
102
RTVSPost2010Prop32
280
     0
102
RTVSPost2010PropOp32
 70
     1
102
RTVSPost2010Prop33
280
     0
102
RTVSPost2010PropOp33
 70
     1
102
RTVSPost2010Prop34
280
     0
102
RTVSPost2010PropOp34
 70
     1
102
RTVSPost2010Prop35
280
     0
102
RTVSPost2010PropOp35
 70
     1
102
RTVSPost2010Prop36
280
     0
102
RTVSPost2010PropOp36
 70
     1
102
RTVSPost2010Prop37
 90
       50
102
RTVSPost2010PropOp37
 70
     1
102
RTVSPost2010Prop38
140
0.0
102
RTVSPost2010PropOp38
 70
     1
102
RTVSPost2010Prop39
140
1.0
102
RTVSPost2010PropOp39
 70
     1
102
RTVSPost2010Prop40
 90
        0
102
RTVSPost2010PropOp40
 70
     1
102
RTVSPost2010Prop41ColorIndex
 90
       18
102
RTVSPost2010Prop41ColorRGB
 90
        0
102
RTVSPost2010PropOp41
 70
     1
102
RTVSPost2010Prop42
 90
       50
102
RTVSPost2010PropOp42
 70
     1
102
RTVSPost2010Prop43
 90
        3
102
RTVSPost2010PropOp43
 70
     1
102
RTVSPost2010Prop44ColorIndex
 90
        5
102
RTVSPost2010Prop44ColorRGB
 90
      255
102
RTVSPost2010PropOp44
 70
     1
102
RTVSPost2010Prop45
280
     0
102
RTVSPost2010PropOp45
 70
     1
102
RTVSPost2010Prop46
 90
       50
102
RTVSPost2010PropOp46
 70
     1
102
RTVSPost2010Prop47
 90
       50
102
RTVSPost2010PropOp47
 70
     1
102
RTVSPost2010Prop48
 90
       50
102
RTVSPost2010PropOp48
 70
     1
102
RTVSPost2010Prop49
280
     0
102
RTVSPost2010PropOp49
 70
     1
102
RTVSPost2010Prop50
 90
       50
102
RTVSPost2010PropOp50
 70
     1
102
RTVSPost2010Prop51ColorIndex
 90
      256
102
RTVSPost2010Prop51ColorRGB
 90
-16777216
102
RTVSPost2010PropOp51
 70
     0
102
RTVSPost2010Prop52
140
1.0
102
RTVSPost2010PropOp52
 70
     0
102
RTVSPost2010Prop53
 90
        2
102
RTVSPost2010PropOp53
 70
     1
102
RTVSPost2010Prop54
  1
strokes_ogs.tif
102
RTVSPost2010PropOp54
 70
     1
102
RTVSPost2010Prop55
280
     0
102
RTVSPost2010PropOp55
 70
     1
102
RTVSPost2010Prop56
140
1.0
102
RTVSPost2010PropOp56
 70
     1
102
RTVSPost2010Prop57
140
1.0
102
RTVSPost2010PropOp57
 70
     1
  0
XRECORD
  5
ED
102
{ACAD_REACTORS
330
EC
102
}
330
EC
100
AcDbXrecord
280
     1
102
RTVSPost2010Prop28
280
     0
102
RTVSPost2010PropOp28
 70
     1
102
RTVSPost2010Prop29
280
     1
102
RTVSPost2010PropOp29
 70
     1
102
RTVSPost2010Prop30
280
     1
102
RTVSPost2010PropOp30
 70
     1
102
RTVSPost2010Prop31
280
     0
102
RTVSPost2010PropOp31
 70
     1
102
RTVSPost2010Prop32
280
     0
102
RTVSPost2010PropOp32
 70
     1
102
RTVSPost2010Prop33
280
     0
102
RTVSPost2010PropOp33
 70
     1
102
RTVSPost2010Prop34
280
     0
102
RTVSPost2010PropOp34
 70
     1
102
RTVSPost2010Prop35
280
     0
102
RTVSPost2010PropOp35
 70
     1
102
RTVSPost2010Prop36
280
     0
102
RTVSPost2010PropOp36
 70
     1
102
RTVSPost2010Prop37
 90
       50
102
RTVSPost2010PropOp37
 70
     1
102
RTVSPost2010Prop38
140
0.0
102
RTVSPost2010PropOp38
 70
     1
102
RTVSPost2010Prop39
140
1.0
102
RTVSPost2010PropOp39
 70
     1
102
RTVSPost2010Prop40
 90
        0
102
RTVSPost2010PropOp40
 70
     1
102
RTVSPost2010Prop41ColorIndex
 90
       18
102
RTVSPost2010Prop41ColorRGB
 90
        0
102
RTVSPost2010PropOp41
 70
     1
102
RTVSPost2010Prop42
 90
       50
102
RTVSPost2010PropOp42
 70
     1
102
RTVSPost2010Prop43
 90
        3
102
RTVSPost2010PropOp43
 70
     1
102
RTVSPost2010Prop44ColorIndex
 90
        5
102
RTVSPost2010Prop44ColorRGB
 90
      255
102
RTVSPost2010PropOp44
 70
     1
102
RTVSPost2010Prop45
280
     0
102
RTVSPost2010PropOp45
 70
     1
102
RTVSPost2010Prop46
 90
       50
102
RTVSPost2010PropOp46
 70
     1
102
RTVSPost2010Prop47
 90
       50
102
RTVSPost2010PropOp47
 70
     1
102
RTVSPost2010Prop48
 90
       50
102
RTVSPost2010PropOp48
 70
     1
102
RTVSPost2010Prop49
280
     0
102
RTVSPost2010PropOp49
 70
     1
102
RTVSPost2010Prop50
 90
       50
102
RTVSPost2010PropOp50
 70
     1
102
RTVSPost2010Prop51ColorIndex
 90
      256
102
RTVSPost2010Prop51ColorRGB
 90
-16777216
102
RTVSPost2010PropOp51
 70
     0
102
RTVSPost2010Prop52
140
1.0
102
RTVSPost2010PropOp52
 70
     0
102
RTVSPost2010Prop53
 90
        2
102
RTVSPost2010PropOp53
 70
     1
102
RTVSPost2010Prop54
  1
strokes_ogs.tif
102
RTVSPost2010PropOp54
 70
     1
102
RTVSPost2010Prop55
280
     0
102
RTVSPost2010PropOp55
 70
     1
102
RTVSPost2010Prop56
140
1.0
102
RTVSPost2010PropOp56
 70
     1
102
RTVSPost2010Prop57
140
1.0
102
RTVSPost2010PropOp57
 70
     1
  0
XRECORD
  5
105
102
{ACAD_REACTORS
330
104
102
}
330
104
100
AcDbXrecord
280
     1
102
RTVSPost2010Prop28
280
     0
102
RTVSPost2010PropOp28
 70
     1
102
RTVSPost2010Prop29
280
     1
102
RTVSPost2010PropOp29
 70
     1
102
RTVSPost2010Prop30
280
     1
102
RTVSPost2010PropOp30
 70
     1
102
RTVSPost2010Prop31
280
     0
102
RTVSPost2010PropOp31
 70
     1
102
RTVSPost2010Prop32
280
     0
102
RTVSPost2010PropOp32
 70
     1
102
RTVSPost2010Prop33
280
     0
102
RTVSPost2010PropOp33
 70
     1
102
RTVSPost2010Prop34
280
     0
102
RTVSPost2010PropOp34
 70
     1
102
RTVSPost2010Prop35
280
     0
102
RTVSPost2010PropOp35
 70
     1
102
RTVSPost2010Prop36
280
     0
102
RTVSPost2010PropOp36
 70
     1
102
RTVSPost2010Prop37
 90
       50
102
RTVSPost2010PropOp37
 70
     1
102
RTVSPost2010Prop38
140
0.0
102
RTVSPost2010PropOp38
 70
     1
102
RTVSPost2010Prop39
140
1.0
102
RTVSPost2010PropOp39
 70
     1
102
RTVSPost2010Prop40
 90
        0
102
RTVSPost2010PropOp40
 70
     1
102
RTVSPost2010Prop41ColorIndex
 90
       18
102
RTVSPost2010Prop41ColorRGB
 90
        0
102
RTVSPost2010PropOp41
 70
     1
102
RTVSPost2010Prop42
 90
       50
102
RTVSPost2010PropOp42
 70
     1
102
RTVSPost2010Prop43
 90
        3
102
RTVSPost2010PropOp43
 70
     1
102
RTVSPost2010Prop44ColorIndex
 90
        5
102
RTVSPost2010Prop44ColorRGB
 90
      255
102
RTVSPost2010PropOp44
 70
     1
102
RTVSPost2010Prop45
280
     0
102
RTVSPost2010PropOp45
 70
     1
102
RTVSPost2010Prop46
 90
       50
102
RTVSPost2010PropOp46
 70
     1
102
RTVSPost2010Prop47
 90
       50
102
RTVSPost2010PropOp47
 70
     1
102
RTVSPost2010Prop48
 90
       50
102
RTVSPost2010PropOp48
 70
     1
102
RTVSPost2010Prop49
280
     0
102
RTVSPost2010PropOp49
 70
     1
102
RTVSPost2010Prop50
 90
       50
102
RTVSPost2010PropOp50
 70
     1
102
RTVSPost2010Prop51ColorIndex
 90
      256
102
RTVSPost2010Prop51ColorRGB
 90
-16777216
102
RTVSPost2010PropOp51
 70
     0
102
RTVSPost2010Prop52
140
1.0
102
RTVSPost2010PropOp52
 70
     0
102
RTVSPost2010Prop53
 90
        2
102
RTVSPost2010PropOp53
 70
     1
102
RTVSPost2010Prop54
  1
strokes_ogs.tif
102
RTVSPost2010PropOp54
 70
     1
102
RTVSPost2010Prop55
280
     0
102
RTVSPost2010PropOp55
 70
     1
102
RTVSPost2010Prop56
140
1.0
102
RTVSPost2010PropOp56
 70
     1
102
RTVSPost2010Prop57
140
1.0
102
RTVSPost2010PropOp57
 70
     1
  0
ENDSEC
  0
EOF
