  0
SECTION
  2
HEADER
  9
$ACADVER
  1
AC1024
  9
$ACADMAINTVER
 70
   226
  9
$DWGCODEPAGE
  3
ANSI_932
  9
$INSBASE
 10
0.0
 20
0.0
 30
0.0
  9
$EXTMIN
 10
1.000000000000000E+20
 20
1.000000000000000E+20
 30
1.000000000000000E+20
  9
$EXTMAX
 10
-1.000000000000000E+20
 20
-1.000000000000000E+20
 30
-1.000000000000000E+20
  9
$LIMMIN
 10
0.0
 20
0.0
  9
$LIMMAX
 10
12.0
 20
9.0
  9
$ORTHOMODE
 70
     0
  9
$REGENMODE
 70
     1
  9
$FILLMODE
 70
     1
  9
$QTEXTMODE
 70
     0
  9
$MIRRTEXT
 70
     0
  9
$LTSCALE
 40
1.0
  9
$ATTMODE
 70
     1
  9
$TEXTSIZE
 40
0.2
  9
$TRACEWID
 40
0.05
  9
$TEXTSTYLE
  7
Standard
  9
$CLAYER
  8
0
  9
$CELTYPE
  6
ByLayer
  9
$CECOLOR
 62
   256
  9
$CELTSCALE
 40
1.0
  9
$DISPSILH
 70
     0
  9
$DIMSCALE
 40
1.0
  9
$DIMASZ
 40
0.18
  9
$DIMEXO
 40
0.0625
  9
$DIMDLI
 40
0.38
  9
$DIMRND
 40
0.0
  9
$DIMDLE
 40
0.0
  9
$DIMEXE
 40
0.18
  9
$DIMTP
 40
0.0
  9
$DIMTM
 40
0.0
  9
$DIMTXT
 40
0.18
  9
$DIMCEN
 40
0.09
  9
$DIMTSZ
 40
0.0
  9
$DIMTOL
 70
     0
  9
$DIMLIM
 70
     0
  9
$DIMTIH
 70
     1
  9
$DIMTOH
 70
     1
  9
$DIMSE1
 70
     0
  9
$DIMSE2
 70
     0
  9
$DIMTAD
 70
     0
  9
$DIMZIN
 70
     0
  9
$DIMBLK
  1

  9
$DIMASO
 70
     1
  9
$DIMSHO
 70
     1
  9
$DIMPOST
  1

  9
$DIMAPOST
  1

  9
$DIMALT
 70
     0
  9
$DIMALTD
 70
     2
  9
$DIMALTF
 40
25.4
  9
$DIMLFAC
 40
1.0
  9
$DIMTOFL
 70
     0
  9
$DIMTVP
 40
0.0
  9
$DIMTIX
 70
     0
  9
$DIMSOXD
 70
     0
  9
$DIMSAH
 70
     0
  9
$DIMBLK1
  1

  9
$DIMBLK2
  1

  9
$DIMSTYLE
  2
Standard
  9
$DIMCLRD
 70
     0
  9
$DIMCLRE
 70
     0
  9
$DIMCLRT
 70
     0
  9
$DIMTFAC
 40
1.0
  9
$DIMGAP
 40
0.09
  9
$DIMJUST
 70
     0
  9
$DIMSD1
 70
     0
  9
$DIMSD2
 70
     0
  9
$DIMTOLJ
 70
     1
  9
$DIMTZIN
 70
     0
  9
$DIMALTZ
 70
     0
  9
$DIMALTTZ
 70
     0
  9
$DIMUPT
 70
     0
  9
$DIMDEC
 70
     4
  9
$DIMTDEC
 70
     4
  9
$DIMALTU
 70
     2
  9
$DIMALTTD
 70
     2
  9
$DIMTXSTY
  7
Standard
  9
$DIMAUNIT
 70
     0
  9
$DIMADEC
 70
     0
  9
$DIMALTRND
 40
0.0
  9
$DIMAZIN
 70
     0
  9
$DIMDSEP
 70
    46
  9
$DIMATFIT
 70
     3
  9
$DIMFRAC
 70
     0
  9
$DIMLDRBLK
  1

  9
$DIMLUNIT
 70
     2
  9
$DIMLWD
 70
    -2
  9
$DIMLWE
 70
    -2
  9
$DIMTMOVE
 70
     0
  9
$DIMFXL
 40
1.0
  9
$DIMFXLON
 70
     0
  9
$DIMJOGANG
 40
0.7853981633974483
  9
$DIMTFILL
 70
     0
  9
$DIMTFILLCLR
 70
     0
  9
$DIMARCSYM
 70
     0
  9
$DIMLTYPE
  6

  9
$DIMLTEX1
  6

  9
$DIMLTEX2
  6

  9
$DIMTXTDIRECTION
 70
     0
  9
$LUNITS
 70
     2
  9
$LUPREC
 70
     4
  9
$SKETCHINC
 40
0.1
  9
$FILLETRAD
 40
0.0
  9
$AUNITS
 70
     0
  9
$AUPREC
 70
     0
  9
$MENU
  1
.
  9
$ELEVATION
 40
0.0
  9
$PELEVATION
 40
0.0
  9
$THICKNESS
 40
0.0
  9
$LIMCHECK
 70
     0
  9
$CHAMFERA
 40
0.0
  9
$CHAMFERB
 40
0.0
  9
$CHAMFERC
 40
0.0
  9
$CHAMFERD
 40
0.0
  9
$SKPOLY
 70
     0
  9
$TDCREATE
 40
2459569.488761574
  9
$TDUCREATE
 40
2459569.113761574
  9
$TDUPDATE
 40
2459569.488761574
  9
$TDUUPDATE
 40
2459569.113761574
  9
$TDINDWG
 40
0.0000115741
  9
$TDUSRTIMER
 40
0.0000115741
  9
$USRTIMER
 70
     1
  9
$ANGBASE
 50
0.0
  9
$ANGDIR
 70
     0
  9
$PDMODE
 70
     0
  9
$PDSIZE
 40
0.0
  9
$PLINEWID
 40
0.0
  9
$SPLFRAME
 70
     0
  9
$SPLINETYPE
 70
     6
  9
$SPLINESEGS
 70
     8
  9
$HANDSEED
  5
10C
  9
$SURFTAB1
 70
     6
  9
$SURFTAB2
 70
     6
  9
$SURFTYPE
 70
     6
  9
$SURFU
 70
     6
  9
$SURFV
 70
     6
  9
$UCSBASE
  2

  9
$UCSNAME
  2

  9
$UCSORG
 10
0.0
 20
0.0
 30
0.0
  9
$UCSXDIR
 10
1.0
 20
0.0
 30
0.0
  9
$UCSYDIR
 10
0.0
 20
1.0
 30
0.0
  9
$UCSORTHOREF
  2

  9
$UCSORTHOVIEW
 70
     0
  9
$UCSORGTOP
 10
0.0
 20
0.0
 30
0.0
  9
$UCSORGBOTTOM
 10
0.0
 20
0.0
 30
0.0
  9
$UCSORGLEFT
 10
0.0
 20
0.0
 30
0.0
  9
$UCSORGRIGHT
 10
0.0
 20
0.0
 30
0.0
  9
$UCSORGFRONT
 10
0.0
 20
0.0
 30
0.0
  9
$UCSORGBACK
 10
0.0
 20
0.0
 30
0.0
  9
$PUCSBASE
  2

  9
$PUCSNAME
  2

  9
$PUCSORG
 10
0.0
 20
0.0
 30
0.0
  9
$PUCSXDIR
 10
1.0
 20
0.0
 30
0.0
  9
$PUCSYDIR
 10
0.0
 20
1.0
 30
0.0
  9
$PUCSORTHOREF
  2

  9
$PUCSORTHOVIEW
 70
     0
  9
$PUCSORGTOP
 10
0.0
 20
0.0
 30
0.0
  9
$PUCSORGBOTTOM
 10
0.0
 20
0.0
 30
0.0
  9
$PUCSORGLEFT
 10
0.0
 20
0.0
 30
0.0
  9
$PUCSORGRIGHT
 10
0.0
 20
0.0
 30
0.0
  9
$PUCSORGFRONT
 10
0.0
 20
0.0
 30
0.0
  9
$PUCSORGBACK
 10
0.0
 20
0.0
 30
0.0
  9
$USERI1
 70
     0
  9
$USERI2
 70
     0
  9
$USERI3
 70
     0
  9
$USERI4
 70
     0
  9
$USERI5
 70
     0
  9
$USERR1
 40
0.0
  9
$USERR2
 40
0.0
  9
$USERR3
 40
0.0
  9
$USERR4
 40
0.0
  9
$USERR5
 40
0.0
  9
$WORLDVIEW
 70
     1
  9
$SHADEDGE
 70
     3
  9
$SHADEDIF
 70
    70
  9
$TILEMODE
 70
     1
  9
$MAXACTVP
 70
    64
  9
$PINSBASE
 10
0.0
 20
0.0
 30
0.0
  9
$PLIMCHECK
 70
     0
  9
$PEXTMIN
 10
1.000000000000000E+20
 20
1.000000000000000E+20
 30
1.000000000000000E+20
  9
$PEXTMAX
 10
-1.000000000000000E+20
 20
-1.000000000000000E+20
 30
-1.000000000000000E+20
  9
$PLIMMIN
 10
0.0
 20
0.0
  9
$PLIMMAX
 10
12.0
 20
9.0
  9
$UNITMODE
 70
     0
  9
$VISRETAIN
 70
     1
  9
$PLINEGEN
 70
     0
  9
$PSLTSCALE
 70
     1
  9
$TREEDEPTH
 70
  3020
  9
$CMLSTYLE
  2
Standard
  9
$CMLJUST
 70
     0
  9
$CMLSCALE
 40
1.0
  9
$PROXYGRAPHICS
 70
     1
  9
$MEASUREMENT
 70
     0
  9
$CELWEIGHT
370
    -1
  9
$ENDCAPS
280
     0
  9
$JOINSTYLE
280
     0
  9
$LWDISPLAY
290
     1
  9
$INSUNITS
 70
     4
  9
$HYPERLINKBASE
  1

  9
$STYLESHEET
  1

  9
$XEDIT
290
     1
  9
$CEPSNTYPE
380
     0
  9
$PSTYLEMODE
290
     1
  9
$FINGERPRINTGUID
  2
{4B09FF98-353A-E44F-B673-02C434579772}
  9
$VERSIONGUID
  2
{12F5C8EE-2400-8248-B815-88670CA6D370}
  9
$EXTNAMES
290
     1
  9
$PSVPSCALE
 40
0.0
  9
$OLESTARTUP
290
     0
  9
$SORTENTS
280
   127
  9
$INDEXCTL
280
     0
  9
$HIDETEXT
280
     1
  9
$XCLIPFRAME
280
     2
  9
$HALOGAP
280
     0
  9
$OBSCOLOR
 70
   257
  9
$OBSLTYPE
280
     0
  9
$INTERSECTIONDISPLAY
280
     0
  9
$INTERSECTIONCOLOR
 70
   257
  9
$DIMASSOC
280
     2
  9
$PROJECTNAME
  1

  9
$CAMERADISPLAY
290
     0
  9
$LENSLENGTH
 40
50.0
  9
$CAMERAHEIGHT
 40
0.0
  9
$STEPSPERSEC
 40
2.0
  9
$STEPSIZE
 40
6.0
  9
$3DDWFPREC
 40
2.0
  9
$PSOLWIDTH
 40
0.25
  9
$PSOLHEIGHT
 40
4.0
  9
$LOFTANG1
 40
1.570796326794896
  9
$LOFTANG2
 40
1.570796326794896
  9
$LOFTMAG1
 40
0.0
  9
$LOFTMAG2
 40
0.0
  9
$LOFTPARAM
 70
     7
  9
$LOFTNORMALS
280
     1
  9
$LATITUDE
 40
37.795
  9
$LONGITUDE
 40
-122.394
  9
$NORTHDIRECTION
 40
0.0
  9
$TIMEZONE
 70
 -8000
  9
$LIGHTGLYPHDISPLAY
280
     1
  9
$TILEMODELIGHTSYNCH
280
     1
  9
$CMATERIAL
347
11
  9
$SOLIDHIST
280
     0
  9
$SHOWHIST
280
     1
  9
$DWFFRAME
280
     2
  9
$DGNFRAME
280
     0
  9
$REALWORLDSCALE
290
     1
  9
$INTERFERECOLOR
 62
     1
  9
$INTERFEREOBJVS
345
33
  9
$INTERFEREVPVS
346
30
  9
$CSHADOW
280
     0
  9
$SHADOWPLANELOCATION
 40
0.0
  0
ENDSEC
  0
SECTION
  2
CLASSES
  0
CLASS
  1
ACDBDICTIONARYWDFLT
  2
AcDbDictionaryWithDefault
  3
ObjectDBX Classes
 90
        0
 91
        1
280
     0
281
     0
  0
CLASS
  1
MATERIAL
  2
AcDbMaterial
  3
ObjectDBX Classes
 90
     1153
 91
        3
280
     0
281
     0
  0
CLASS
  1
VISUALSTYLE
  2
AcDbVisualStyle
  3
ObjectDBX Classes
 90
     4095
 91
       24
280
     0
281
     0
  0
CLASS
  1
SCALE
  2
AcDbScale
  3
ObjectDBX Classes
 90
     1153
 91
       17
280
     0
281
     0
  0
CLASS
  1
TABLESTYLE
  2
AcDbTableStyle
  3
ObjectDBX Classes
 90
     4095
 91
        1
280
     0
281
     0
  0
CLASS
  1
MLEADERSTYLE
  2
AcDbMLeaderStyle
  3
ACDB_MLEADERSTYLE_CLASS
 90
     4095
 91
        1
280
     0
281
     0
  0
CLASS
  1
ACDBSECTIONVIEWSTYLE
  2
AcDbSectionViewStyle
  3
ObjectDBX Classes
 90
     1025
 91
        1
280
     0
281
     0
  0
CLASS
  1
ACDBDETAILVIEWSTYLE
  2
AcDbDetailViewStyle
  3
ObjectDBX Classes
 90
     1025
 91
        1
280
     0
281
     0
  0
CLASS
  1
DICTIONARYVAR
  2
AcDbDictionaryVar
  3
ObjectDBX Classes
 90
        0
 91
        5
280
     0
281
     0
  0
CLASS
  1
CELLSTYLEMAP
  2
AcDbCellStyleMap
  3
ObjectDBX Classes
 90
     1152
 91
        1
280
     0
281
     0
  0
ENDSEC
  0
SECTION
  2
TABLES
  0
TABLE
  2
VPORT
  5
8
330
0
100
AcDbSymbolTable
 70
     1
  0
VPORT
  5
57
330
8
100
AcDbSymbolTableRecord
100
AcDbViewportTableRecord
  2
*Active
 70
     0
 10
0.0
 20
0.0
 11
1.0
 21
1.0
 12
0.0
 22
0.0
 13
0.0
 23
0.0
 14
1.0
 24
1.0
 15
0.0
 25
0.0
 16
0.0
 26
0.0
 36
1.0
 17
104.9999999737534
 27
-148.4999999628701
 37
0.0
 40
302.939999924255
 41
0.7070707070707534
 42
50.0
 43
0.0
 44
0.0
 50
0.0
 51
0.0
 71
     0
 72
   100
 73
     1
 74
     0
 75
     1
 76
     0
 77
     0
 78
     0
281
     0
 65
     1
110
0.0
120
0.0
130
0.0
111
1.0
121
0.0
131
0.0
112
0.0
122
1.0
132
0.0
 79
     0
146
0.0
 60
     3
 61
     5
292
     1
282
     1
141
0.0
142
0.0
 63
   250
421
  3355443
  0
ENDTAB
  0
TABLE
  2
LTYPE
  5
5
330
0
100
AcDbSymbolTable
 70
     2
  0
LTYPE
  5
5B
330
5
100
AcDbSymbolTableRecord
100
AcDbLinetypeTableRecord
  2
ByBlock
 70
     0
  3

 72
    65
 73
     0
 40
0.0
  0
LTYPE
  5
5C
330
5
100
AcDbSymbolTableRecord
100
AcDbLinetypeTableRecord
  2
ByLayer
 70
     0
  3

 72
    65
 73
     0
 40
0.0
  0
LTYPE
  5
5D
330
5
100
AcDbSymbolTableRecord
100
AcDbLinetypeTableRecord
  2
Continuous
 70
     0
  3
Solid line
 72
    65
 73
     0
 40
0.0
  0
LTYPE
  5
AF
330
5
100
AcDbSymbolTableRecord
100
AcDbLinetypeTableRecord
  2
AI-Linetype-0
 70
     0
  3
Adobe Illustrator Linetype No. 0
 72
    65
 73
     2
 40
1.411111110758333
 49
0.7055555553791667
 74
     0
 49
-0.7055555553791667
 74
     0
  0
ENDTAB
  0
TABLE
  2
LAYER
  5
2
330
0
100
AcDbSymbolTable
 70
     2
  0
LAYER
  5
54
330
2
100
AcDbSymbolTableRecord
100
AcDbLayerTableRecord
  2
0
 70
     0
 62
     7
  6
Continuous
370
    -3
390
F
347
21
  0
LAYER
  5
78
330
2
100
AcDbSymbolTableRecord
100
AcDbLayerTableRecord
  2
レイヤー 1
 70
     0
 62
     7
  6
Continuous
370
     0
390
F
347
21
  0
ENDTAB
  0
TABLE
  2
STYLE
  5
3
330
0
100
AcDbSymbolTable
 70
     2
  0
STYLE
  5
55
330
3
100
AcDbSymbolTableRecord
100
AcDbTextStyleTableRecord
  2
Standard
 70
     0
 40
0.0
 41
1.0
 50
0.0
 71
     0
 42
0.2
  3
txt
  4

  0
STYLE
  5
5A
330
3
100
AcDbSymbolTableRecord
100
AcDbTextStyleTableRecord
  2
Annotative
 70
     0
 40
0.0
 41
1.0
 50
0.0
 71
     0
 42
0.2
  3
txt
  4

1001
AcadAnnotative
1000
AnnotativeData
1002
{
1070
     1
1070
     1
1002
}
  0
ENDTAB
  0
TABLE
  2
VIEW
  5
6
330
0
100
AcDbSymbolTable
 70
     0
  0
ENDTAB
  0
TABLE
  2
UCS
  5
7
330
0
100
AcDbSymbolTable
 70
     0
  0
ENDTAB
  0
TABLE
  2
APPID
  5
9
330
0
100
AcDbSymbolTable
 70
     2
  0
APPID
  5
56
330
9
100
AcDbSymbolTableRecord
100
AcDbRegAppTableRecord
  2
ACAD
 70
     0
  0
APPID
  5
5E
330
9
100
AcDbSymbolTableRecord
100
AcDbRegAppTableRecord
  2
AcadAnnotative
 70
     0
  0
ENDTAB
  0
TABLE
  2
DIMSTYLE
  5
A
330
0
100
AcDbSymbolTable
 70
     2
100
AcDbDimStyleTable
 71
     0
  0
DIMSTYLE
105
58
330
A
100
AcDbSymbolTableRecord
100
AcDbDimStyleTableRecord
  2
Standard
 70
     0
340
55
  0
DIMSTYLE
105
59
330
A
100
AcDbSymbolTableRecord
100
AcDbDimStyleTableRecord
  2
Annotative
 70
     0
340
55
1001
AcadAnnotative
1000
AnnotativeData
1002
{
1070
     1
1070
     1
1002
}
  0
ENDTAB
  0
TABLE
  2
BLOCK_RECORD
  5
1
330
0
100
AcDbSymbolTable
 70
     9
  0
BLOCK_RECORD
  5
70
330
1
100
AcDbSymbolTableRecord
100
AcDbBlockTableRecord
  2
*Model_Space
340
73
 70
     0
280
     1
281
     0
  0
BLOCK_RECORD
  5
6C
330
1
100
AcDbSymbolTableRecord
100
AcDbBlockTableRecord
  2
*Paper_Space
340
6F
 70
     0
280
     1
281
     0
  0
BLOCK_RECORD
  5
74
330
1
100
AcDbSymbolTableRecord
100
AcDbBlockTableRecord
  2
*Paper_Space0
340
77
 70
     0
280
     1
281
     0
  0
BLOCK_RECORD
  5
79
330
1
100
AcDbSymbolTableRecord
100
AcDbBlockTableRecord
  2
Block_0
340
0
102
{BLKREFS
331
7A
102
}
 70
     0
280
     1
281
     0
  0
BLOCK_RECORD
  5
89
330
1
100
AcDbSymbolTableRecord
100
AcDbBlockTableRecord
  2
Block_1
340
0
102
{BLKREFS
331
8A
102
}
 70
     0
280
     1
281
     0
  0
BLOCK_RECORD
  5
8D
330
1
100
AcDbSymbolTableRecord
100
AcDbBlockTableRecord
  2
Block_2
340
0
102
{BLKREFS
331
8E
102
}
 70
     0
280
     1
281
     0
  0
BLOCK_RECORD
  5
97
330
1
100
AcDbSymbolTableRecord
100
AcDbBlockTableRecord
  2
Block_3
340
0
102
{BLKREFS
331
98
102
}
 70
     0
280
     1
281
     0
  0
BLOCK_RECORD
  5
A2
330
1
100
AcDbSymbolTableRecord
100
AcDbBlockTableRecord
  2
Block_4
340
0
102
{BLKREFS
331
A3
102
}
 70
     0
280
     1
281
     0
  0
BLOCK_RECORD
  5
A6
330
1
100
AcDbSymbolTableRecord
100
AcDbBlockTableRecord
  2
Block_5
340
0
102
{BLKREFS
331
A7
102
}
 70
     0
280
     1
281
     0
  0
BLOCK_RECORD
  5
B3
330
1
100
AcDbSymbolTableRecord
100
AcDbBlockTableRecord
  2
Block_6
340
0
102
{BLKREFS
331
B4
102
}
 70
     0
280
     1
281
     0
  0
BLOCK_RECORD
  5
B7
330
1
100
AcDbSymbolTableRecord
100
AcDbBlockTableRecord
  2
Block_7
340
0
102
{BLKREFS
331
B8
102
}
 70
     0
280
     1
281
     0
  0
ENDTAB
  0
ENDSEC
  0
SECTION
  2
BLOCKS
  0
BLOCK
  5
71
330
70
100
AcDbEntity
  8
0
100
AcDbBlockBegin
  2
*Model_Space
 70
     0
 10
0.0
 20
0.0
 30
0.0
  3
*Model_Space
  1

  0
ENDBLK
  5
72
330
70
100
AcDbEntity
  8
0
100
AcDbBlockEnd
  0
BLOCK
  5
6D
330
6C
100
AcDbEntity
 67
     1
  8
0
100
AcDbBlockBegin
  2
*Paper_Space
 70
     0
 10
0.0
 20
0.0
 30
0.0
  3
*Paper_Space
  1

  0
ENDBLK
  5
6E
330
6C
100
AcDbEntity
 67
     1
  8
0
100
AcDbBlockEnd
  0
BLOCK
  5
75
330
74
100
AcDbEntity
 67
     1
  8
0
100
AcDbBlockBegin
  2
*Paper_Space0
 70
     0
 10
0.0
 20
0.0
 30
0.0
  3
*Paper_Space0
  1

  0
ENDBLK
  5
76
330
74
100
AcDbEntity
 67
     1
  8
0
100
AcDbBlockEnd
  0
BLOCK
  5
7B
330
79
100
AcDbEntity
  8
0
100
AcDbBlockBegin
  2
Block_0
 70
     0
 10
0.0
 20
0.0
 30
0.0
  3
Block_0
  1

  0
LINE
  5
7D
330
79
100
AcDbEntity
  8
レイヤー 1
 62
   250
420
  2299925
370
    25
100
AcDbLine
 10
89.42706737932239
 20
-139.9691429214505
 30
0.0
 11
89.42706737932239
 21
-150.9569155231791
 31
0.0
  0
LINE
  5
7E
330
79
100
AcDbEntity
  8
レイヤー 1
 62
   250
420
  2299925
370
    25
100
AcDbLine
 10
89.42706737932239
 20
-150.9569155231791
 30
0.0
 11
128.4271083287926
 21
-150.9569155231791
 31
0.0
  0
LINE
  5
7F
330
79
100
AcDbEntity
  8
レイヤー 1
 62
   250
420
  2299925
370
    25
100
AcDbLine
 10
128.4271083287926
 20
-150.9569155231791
 30
0.0
 11
128.4271083287926
 21
-151.557066590674
 31
0.0
  0
LINE
  5
80
330
79
100
AcDbEntity
  8
レイヤー 1
 62
   250
420
  2299925
370
    25
100
AcDbLine
 10
88.95129769352127
 20
-139.9541429211889
 30
0.0
 11
89.42706737713258
 21
-139.9541429211889
 31
0.0
  0
LINE
  5
81
330
79
100
AcDbEntity
  8
レイヤー 1
 62
   250
420
  2299925
370
    25
100
AcDbLine
 10
89.35816988107978
 20
-151.9570405229288
 30
0.0
 11
128.4271083287926
 21
-151.557066590674
 31
0.0
  0
LINE
  5
82
330
79
100
AcDbEntity
  8
レイヤー 1
 62
   250
420
  2299925
370
    25
100
AcDbLine
 10
88.92706737944719
 20
-139.9629645075243
 30
0.0
 11
88.42662490484547
 21
-151.4509510378256
 31
0.0
  0
SPLINE
  5
83
330
79
100
AcDbEntity
  8
レイヤー 1
 62
   250
420
  2299925
370
    25
100
AcDbSpline
210
0.0
220
0.0
230
1.0
 70
     8
 71
     3
 72
    11
 73
     7
 74
     0
 42
0.0000000001
 43
0.0000000001
 40
0.0
 40
0.0
 40
0.0
 40
0.0
 40
1.0
 40
1.0
 40
1.0
 40
2.0
 40
2.0
 40
2.0
 40
2.0
 10
88.42662490484547
 20
-151.4509510378256
 30
0.0
 10
88.42387323824901
 20
-151.7823857515923
 30
0.0
 10
88.68912896343298
 20
-152.0534954668979
 30
0.0
 10
89.02056155635955
 20
-152.0569526890319
 30
0.0
 10
89.14114099772744
 20
-152.0579757445614
 30
0.0
 10
89.25826321696195
 20
-152.0231918565599
 30
0.0
 10
89.35816988107978
 20
-151.9570405229288
 30
0.0
  0
SPLINE
  5
84
330
79
100
AcDbEntity
  8
レイヤー 1
 62
   250
420
  2299925
370
     9
100
AcDbSpline
210
0.0
220
0.0
230
1.0
 70
     9
 71
     3
 72
    17
 73
    13
 74
     0
 42
0.0000000001
 43
0.0000000001
 40
0.0
 40
0.0
 40
0.0
 40
0.0
 40
1.0
 40
1.0
 40
1.0
 40
2.0
 40
2.0
 40
2.0
 40
3.0
 40
3.0
 40
3.0
 40
4.0
 40
4.0
 40
4.0
 40
4.0
 10
88.52653156896332
 20
-155.9568050895384
 30
0.0
 10
88.52653156896332
 20
-155.9016659242784
 30
0.0
 10
88.48172879232855
 20
-155.8568984254206
 30
0.0
 10
88.42662490484547
 20
-155.8568984254206
 30
0.0
 10
88.37148573958552
 20
-155.8568984254206
 30
0.0
 10
88.32671824072765
 20
-155.9016659242784
 30
0.0
 10
88.32671824072765
 20
-155.9568050895384
 30
0.0
 10
88.32671824072765
 20
-156.0122617547903
 30
0.0
 10
88.37148573958552
 20
-156.0570238552369
 30
0.0
 10
88.42662490484547
 20
-156.0570238552369
 30
0.0
 10
88.48172879232855
 20
-156.0570238552369
 30
0.0
 10
88.52653156896332
 20
-156.0122617547903
 30
0.0
 10
88.52653156896332
 20
-155.9568050895384
 30
0.0
  0
SPLINE
  5
85
330
79
100
AcDbEntity
  8
レイヤー 1
 62
   250
420
  2299925
370
     9
100
AcDbSpline
210
0.0
220
0.0
230
1.0
 70
     9
 71
     3
 72
    17
 73
    13
 74
     0
 42
0.0000000001
 43
0.0000000001
 40
0.0
 40
0.0
 40
0.0
 40
0.0
 40
1.0
 40
1.0
 40
1.0
 40
2.0
 40
2.0
 40
2.0
 40
3.0
 40
3.0
 40
3.0
 40
4.0
 40
4.0
 40
4.0
 40
4.0
 10
128.5270149929104
 20
-155.9568050895384
 30
0.0
 10
128.5270149929104
 20
-155.9016659242784
 30
0.0
 10
128.4822122162756
 20
-155.8568984254206
 30
0.0
 10
128.4271083287926
 20
-155.8568984254206
 30
0.0
 10
128.3719691635326
 20
-155.8568984254206
 30
0.0
 10
128.3272016646747
 20
-155.9016659242784
 30
0.0
 10
128.3272016646747
 20
-155.9568050895384
 30
0.0
 10
128.3272016646747
 20
-156.0122617547903
 30
0.0
 10
128.3719691635326
 20
-156.0570238552369
 30
0.0
 10
128.4271083287926
 20
-156.0570238552369
 30
0.0
 10
128.4822122162756
 20
-156.0570238552369
 30
0.0
 10
128.5270149929104
 20
-156.0122617547903
 30
0.0
 10
128.5270149929104
 20
-155.9568050895384
 30
0.0
  0
LINE
  5
86
330
79
100
AcDbEntity
  8
レイヤー 1
 62
   250
420
  2299925
370
     9
100
AcDbLine
 10
88.42662490484547
 20
-155.9568050895384
 30
0.0
 11
128.4271083287926
 21
-155.9568050895384
 31
0.0
  0
LINE
  5
87
330
79
100
AcDbEntity
  8
レイヤー 1
 62
   250
420
  2299925
370
     9
100
AcDbLine
 10
88.42662490484547
 20
-153.9968776395403
 30
0.0
 11
88.42662490484547
 21
-156.9568947862462
 31
0.0
  0
LINE
  5
88
330
79
100
AcDbEntity
  8
レイヤー 1
 62
   250
420
  2299925
370
     9
100
AcDbLine
 10
128.4271083287926
 20
-154.0967843036582
 30
0.0
 11
128.4271083287926
 21
-156.9568947862462
 31
0.0
  0
INSERT
  5
8A
330
79
100
AcDbEntity
  8
レイヤー 1
100
AcDbBlockReference
  2
Block_1
 10
0.0
 20
0.0
 30
0.0
  0
INSERT
  5
98
330
79
100
AcDbEntity
  8
レイヤー 1
100
AcDbBlockReference
  2
Block_3
 10
0.0
 20
0.0
 30
0.0
  0
ENDBLK
  5
7C
330
79
100
AcDbEntity
  8
0
100
AcDbBlockEnd
  0
BLOCK
  5
8B
330
89
100
AcDbEntity
  8
0
100
AcDbBlockBegin
  2
Block_1
 70
     0
 10
0.0
 20
0.0
 30
0.0
  3
Block_1
  1

  0
INSERT
  5
8E
330
89
100
AcDbEntity
  8
レイヤー 1
100
AcDbBlockReference
  2
Block_2
 10
0.0
 20
0.0
 30
0.0
  0
ENDBLK
  5
8C
330
89
100
AcDbEntity
  8
0
100
AcDbBlockEnd
  0
BLOCK
  5
8F
330
8D
100
AcDbEntity
  8
0
100
AcDbBlockBegin
  2
Block_2
 70
     0
 10
0.0
 20
0.0
 30
0.0
  3
Block_2
  1

  0
SPLINE
  5
91
330
8D
100
AcDbEntity
  8
レイヤー 1
100
AcDbSpline
210
0.0
220
0.0
230
1.0
 70
    11
 71
     3
 72
    14
 73
    10
 74
     0
 42
0.0000000001
 43
0.0000000001
 40
0.0
 40
0.0
 40
0.0
 40
0.0
 40
1.0
 40
1.0
 40
1.0
 40
2.0
 40
2.0
 40
2.0
 40
3.0
 40
3.0
 40
3.0
 40
3.0
 10
107.9524115398521
 20
-154.0422769797186
 30
0.0
 10
107.9524115398521
 20
-154.0422769797186
 30
0.0
 10
107.4952473689595
 20
-154.6982231601101
 30
0.0
 10
107.4952473689595
 20
-154.6982231601101
 30
0.0
 10
107.4952473689595
 20
-154.6982231601101
 30
0.0
 10
107.9524115398521
 20
-154.6982231601101
 30
0.0
 10
107.9524115398521
 20
-154.6982231601101
 30
0.0
 10
107.9524115398521
 20
-154.6982231601101
 30
0.0
 10
107.9524115398521
 20
-154.0422769797186
 30
0.0
 10
107.9524115398521
 20
-154.0422769797186
 30
0.0
  0
SPLINE
  5
92
330
8D
100
AcDbEntity
  8
レイヤー 1
100
AcDbSpline
210
0.0
220
0.0
230
1.0
 70
    11
 71
     3
 72
    38
 73
    34
 74
     0
 42
0.0000000001
 43
0.0000000001
 40
0.0
 40
0.0
 40
0.0
 40
0.0
 40
1.0
 40
1.0
 40
1.0
 40
2.0
 40
2.0
 40
2.0
 40
3.0
 40
3.0
 40
3.0
 40
4.0
 40
4.0
 40
4.0
 40
5.0
 40
5.0
 40
5.0
 40
6.0
 40
6.0
 40
6.0
 40
7.0
 40
7.0
 40
7.0
 40
8.0
 40
8.0
 40
8.0
 40
9.0
 40
9.0
 40
9.0
 40
10.0
 40
10.0
 40
10.0
 40
11.0
 40
11.0
 40
11.0
 40
11.0
 10
108.17014157452
 20
-154.8970051696091
 30
0.0
 10
108.17014157452
 20
-154.8970051696091
 30
0.0
 10
108.17014157452
 20
-155.2439262849737
 30
0.0
 10
108.17014157452
 20
-155.2439262849737
 30
0.0
 10
108.17014157452
 20
-155.2439262849737
 30
0.0
 10
107.9524115398521
 20
-155.2439262849737
 30
0.0
 10
107.9524115398521
 20
-155.2439262849737
 30
0.0
 10
107.9524115398521
 20
-155.2439262849737
 30
0.0
 10
107.9524115398521
 20
-154.8970051696091
 30
0.0
 10
107.9524115398521
 20
-154.8970051696091
 30
0.0
 10
107.9524115398521
 20
-154.8970051696091
 30
0.0
 10
107.2964653594606
 20
-154.8970051696091
 30
0.0
 10
107.2964653594606
 20
-154.8970051696091
 30
0.0
 10
107.2964653594606
 20
-154.8970051696091
 30
0.0
 10
107.2964653594606
 20
-154.6727294535193
 30
0.0
 10
107.2964653594606
 20
-154.6727294535193
 30
0.0
 10
107.2964653594606
 20
-154.6727294535193
 30
0.0
 10
107.9754936796033
 20
-153.6994899789362
 30
0.0
 10
107.9754936796033
 20
-153.6994899789362
 30
0.0
 10
107.9754936796033
 20
-153.6994899789362
 30
0.0
 10
108.17014157452
 20
-153.6994899789362
 30
0.0
 10
108.17014157452
 20
-153.6994899789362
 30
0.0
 10
108.17014157452
 20
-153.6994899789362
 30
0.0
 10
108.17014157452
 20
-154.6982231601101
 30
0.0
 10
108.17014157452
 20
-154.6982231601101
 30
0.0
 10
108.17014157452
 20
-154.6982231601101
 30
0.0
 10
108.377536322732
 20
-154.6982231601101
 30
0.0
 10
108.377536322732
 20
-154.6982231601101
 30
0.0
 10
108.377536322732
 20
-154.6982231601101
 30
0.0
 10
108.377536322732
 20
-154.8970051696091
 30
0.0
 10
108.377536322732
 20
-154.8970051696091
 30
0.0
 10
108.377536322732
 20
-154.8970051696091
 30
0.0
 10
108.17014157452
 20
-154.8970051696091
 30
0.0
 10
108.17014157452
 20
-154.8970051696091
 30
0.0
  0
HATCH
  5
93
330
8D
100
AcDbEntity
  8
レイヤー 1
 62
   250
420
  2299925
440
 33554687
100
AcDbHatch
 10
0.0
 20
0.0
 30
0.0
210
0.0
220
0.0
230
1.0
  2
SOLID
 70
     1
 71
     1
 91
        2
 92
        1
 93
        1
 72
     4
 94
        3
 73
     0
 74
     0
 95
       14
 96
       10
 40
0.0
 40
0.0
 40
0.0
 40
0.0
 40
1.0
 40
1.0
 40
1.0
 40
2.0
 40
2.0
 40
2.0
 40
3.0
 40
3.0
 40
3.0
 40
3.0
 10
107.9524115398521
 20
-154.0422769797186
 10
107.9524115398521
 20
-154.0422769797186
 10
107.4952473689595
 20
-154.6982231601101
 10
107.4952473689595
 20
-154.6982231601101
 10
107.4952473689595
 20
-154.6982231601101
 10
107.9524115398521
 20
-154.6982231601101
 10
107.9524115398521
 20
-154.6982231601101
 10
107.9524115398521
 20
-154.6982231601101
 10
107.9524115398521
 20
-154.0422769797186
 10
107.9524115398521
 20
-154.0422769797186
 97
        0
 97
        1
330
91
 92
        1
 93
        1
 72
     4
 94
        3
 73
     0
 74
     0
 95
       38
 96
       34
 40
0.0
 40
0.0
 40
0.0
 40
0.0
 40
1.0
 40
1.0
 40
1.0
 40
2.0
 40
2.0
 40
2.0
 40
3.0
 40
3.0
 40
3.0
 40
4.0
 40
4.0
 40
4.0
 40
5.0
 40
5.0
 40
5.0
 40
6.0
 40
6.0
 40
6.0
 40
7.0
 40
7.0
 40
7.0
 40
8.0
 40
8.0
 40
8.0
 40
9.0
 40
9.0
 40
9.0
 40
10.0
 40
10.0
 40
10.0
 40
11.0
 40
11.0
 40
11.0
 40
11.0
 10
108.17014157452
 20
-154.8970051696091
 10
108.17014157452
 20
-154.8970051696091
 10
108.17014157452
 20
-155.2439262849737
 10
108.17014157452
 20
-155.2439262849737
 10
108.17014157452
 20
-155.2439262849737
 10
107.9524115398521
 20
-155.2439262849737
 10
107.9524115398521
 20
-155.2439262849737
 10
107.9524115398521
 20
-155.2439262849737
 10
107.9524115398521
 20
-154.8970051696091
 10
107.9524115398521
 20
-154.8970051696091
 10
107.9524115398521
 20
-154.8970051696091
 10
107.2964653594606
 20
-154.8970051696091
 10
107.2964653594606
 20
-154.8970051696091
 10
107.2964653594606
 20
-154.8970051696091
 10
107.2964653594606
 20
-154.6727294535193
 10
107.2964653594606
 20
-154.6727294535193
 10
107.2964653594606
 20
-154.6727294535193
 10
107.9754936796033
 20
-153.6994899789362
 10
107.9754936796033
 20
-153.6994899789362
 10
107.9754936796033
 20
-153.6994899789362
 10
108.17014157452
 20
-153.6994899789362
 10
108.17014157452
 20
-153.6994899789362
 10
108.17014157452
 20
-153.6994899789362
 10
108.17014157452
 20
-154.6982231601101
 10
108.17014157452
 20
-154.6982231601101
 10
108.17014157452
 20
-154.6982231601101
 10
108.377536322732
 20
-154.6982231601101
 10
108.377536322732
 20
-154.6982231601101
 10
108.377536322732
 20
-154.6982231601101
 10
108.377536322732
 20
-154.8970051696091
 10
108.377536322732
 20
-154.8970051696091
 10
108.377536322732
 20
-154.8970051696091
 10
108.17014157452
 20
-154.8970051696091
 10
108.17014157452
 20
-154.8970051696091
 97
        0
 97
        1
330
92
 75
     2
 76
     1
 98
        1
 10
0.0
 20
0.0
450
        0
451
        0
460
0.0
461
0.0
452
        0
462
0.0
453
        0
470

  0
SPLINE
  5
94
330
8D
100
AcDbEntity
  8
レイヤー 1
100
AcDbSpline
210
0.0
220
0.0
230
1.0
 70
     9
 71
     3
 72
    17
 73
    13
 74
     0
 42
0.0000000001
 43
0.0000000001
 40
0.0
 40
0.0
 40
0.0
 40
0.0
 40
1.0
 40
1.0
 40
1.0
 40
2.0
 40
2.0
 40
2.0
 40
3.0
 40
3.0
 40
3.0
 40
4.0
 40
4.0
 40
4.0
 40
4.0
 10
109.0148789875032
 20
-153.8434949702197
 30
0.0
 10
108.7654540743711
 20
-153.8434949702197
 30
0.0
 10
108.7186007757717
 20
-154.1270263286557
 30
0.0
 10
108.7186007757717
 20
-154.4718803867292
 30
0.0
 10
108.7186007757717
 20
-154.7912407382119
 30
0.0
 10
108.7547742783668
 20
-155.0999212936903
 30
0.0
 10
109.0148789875032
 20
-155.0999212936903
 30
0.0
 10
109.2625813528927
 20
-155.0999212936903
 30
0.0
 10
109.3111571992347
 20
-154.8188015020939
 30
0.0
 10
109.3111571992347
 20
-154.4718803867292
 30
0.0
 10
109.3111571992347
 20
-154.1521755256981
 30
0.0
 10
109.2729166393484
 20
-153.8434949702197
 30
0.0
 10
109.0148789875032
 20
-153.8434949702197
 30
0.0
  0
SPLINE
  5
95
330
8D
100
AcDbEntity
  8
レイヤー 1
100
AcDbSpline
210
0.0
220
0.0
230
1.0
 70
     9
 71
     3
 72
    29
 73
    25
 74
     0
 42
0.0000000001
 43
0.0000000001
 40
0.0
 40
0.0
 40
0.0
 40
0.0
 40
1.0
 40
1.0
 40
1.0
 40
2.0
 40
2.0
 40
2.0
 40
3.0
 40
3.0
 40
3.0
 40
4.0
 40
4.0
 40
4.0
 40
5.0
 40
5.0
 40
5.0
 40
6.0
 40
6.0
 40
6.0
 40
7.0
 40
7.0
 40
7.0
 40
8.0
 40
8.0
 40
8.0
 40
8.0
 10
109.4127875160496
 20
-155.0661593579348
 30
0.0
 10
109.3046115178127
 20
-155.275621163438
 30
0.0
 10
109.1313232149046
 20
-155.2945691886069
 30
0.0
 10
109.0148789875032
 20
-155.2945691886069
 30
0.0
 10
108.853993028342
 20
-155.2945691886069
 30
0.0
 10
108.7123996038983
 20
-155.248060399556
 30
0.0
 10
108.6173149685054
 20
-155.0661593579348
 30
0.0
 10
108.5136175943993
 20
-154.8715114630182
 30
0.0
 10
108.4946695692305
 20
-154.634488893633
 30
0.0
 10
108.4946695692305
 20
-154.4718803867292
 30
0.0
 10
108.4946695692305
 20
-154.3278753954458
 30
0.0
 10
108.5115505371082
 20
-154.076038915474
 30
0.0
 10
108.6173149685054
 20
-153.8772569059751
 30
0.0
 10
108.7251464571937
 20
-153.6743407818939
 30
0.0
 10
108.8860324163549
 20
-153.6509141325942
 30
0.0
 10
109.0148789875032
 20
-153.6509141325942
 30
0.0
 10
109.1736978893732
 20
-153.6509141325942
 30
0.0
 10
109.3173583711081
 20
-153.6953558643539
 30
0.0
 10
109.4127875160496
 20
-153.8772569059751
 30
0.0
 10
109.5120062660248
 20
-154.0698377436006
 30
0.0
 10
109.5354329153245
 20
-154.2982475742726
 30
0.0
 10
109.5354329153245
 20
-154.4718803867292
 30
0.0
 10
109.5354329153245
 20
-154.6431016323461
 30
0.0
 10
109.5140733233159
 20
-154.8735785203094
 30
0.0
 10
109.4127875160496
 20
-155.0661593579348
 30
0.0
  0
HATCH
  5
96
330
8D
100
AcDbEntity
  8
レイヤー 1
 62
   250
420
  2299925
440
 33554687
100
AcDbHatch
 10
0.0
 20
0.0
 30
0.0
210
0.0
220
0.0
230
1.0
  2
SOLID
 70
     1
 71
     1
 91
        2
 92
        1
 93
        1
 72
     4
 94
        3
 73
     0
 74
     0
 95
       17
 96
       13
 40
0.0
 40
0.0
 40
0.0
 40
0.0
 40
1.0
 40
1.0
 40
1.0
 40
2.0
 40
2.0
 40
2.0
 40
3.0
 40
3.0
 40
3.0
 40
4.0
 40
4.0
 40
4.0
 40
4.0
 10
109.0148789875032
 20
-153.8434949702197
 10
108.7654540743711
 20
-153.8434949702197
 10
108.7186007757717
 20
-154.1270263286557
 10
108.7186007757717
 20
-154.4718803867292
 10
108.7186007757717
 20
-154.7912407382119
 10
108.7547742783668
 20
-155.0999212936903
 10
109.0148789875032
 20
-155.0999212936903
 10
109.2625813528927
 20
-155.0999212936903
 10
109.3111571992347
 20
-154.8188015020939
 10
109.3111571992347
 20
-154.4718803867292
 10
109.3111571992347
 20
-154.1521755256981
 10
109.2729166393484
 20
-153.8434949702197
 10
109.0148789875032
 20
-153.8434949702197
 97
        0
 97
        1
330
94
 92
        1
 93
        1
 72
     4
 94
        3
 73
     0
 74
     0
 95
       29
 96
       25
 40
0.0
 40
0.0
 40
0.0
 40
0.0
 40
1.0
 40
1.0
 40
1.0
 40
2.0
 40
2.0
 40
2.0
 40
3.0
 40
3.0
 40
3.0
 40
4.0
 40
4.0
 40
4.0
 40
5.0
 40
5.0
 40
5.0
 40
6.0
 40
6.0
 40
6.0
 40
7.0
 40
7.0
 40
7.0
 40
8.0
 40
8.0
 40
8.0
 40
8.0
 10
109.4127875160496
 20
-155.0661593579348
 10
109.3046115178127
 20
-155.275621163438
 10
109.1313232149046
 20
-155.2945691886069
 10
109.0148789875032
 20
-155.2945691886069
 10
108.853993028342
 20
-155.2945691886069
 10
108.7123996038983
 20
-155.248060399556
 10
108.6173149685054
 20
-155.0661593579348
 10
108.5136175943993
 20
-154.8715114630182
 10
108.4946695692305
 20
-154.634488893633
 10
108.4946695692305
 20
-154.4718803867292
 10
108.4946695692305
 20
-154.3278753954458
 10
108.5115505371082
 20
-154.076038915474
 10
108.6173149685054
 20
-153.8772569059751
 10
108.7251464571937
 20
-153.6743407818939
 10
108.8860324163549
 20
-153.6509141325942
 10
109.0148789875032
 20
-153.6509141325942
 10
109.1736978893732
 20
-153.6509141325942
 10
109.3173583711081
 20
-153.6953558643539
 10
109.4127875160496
 20
-153.8772569059751
 10
109.5120062660248
 20
-154.0698377436006
 10
109.5354329153245
 20
-154.2982475742726
 10
109.5354329153245
 20
-154.4718803867292
 10
109.5354329153245
 20
-154.6431016323461
 10
109.5140733233159
 20
-154.8735785203094
 10
109.4127875160496
 20
-155.0661593579348
 97
        0
 97
        1
330
95
 75
     2
 76
     1
 98
        1
 10
0.0
 20
0.0
450
        0
451
        0
460
0.0
461
0.0
452
        0
462
0.0
453
        0
470

  0
ENDBLK
  5
90
330
8D
100
AcDbEntity
  8
0
100
AcDbBlockEnd
  0
BLOCK
  5
99
330
97
100
AcDbEntity
  8
0
100
AcDbBlockBegin
  2
Block_3
 70
     0
 10
0.0
 20
0.0
 30
0.0
  3
Block_3
  1

  0
SPLINE
  5
9B
330
97
100
AcDbEntity
  8
レイヤー 1
 62
   250
420
  2299925
370
     9
100
AcDbSpline
210
0.0
220
0.0
230
1.0
 70
     9
 71
     3
 72
    17
 73
    13
 74
     0
 42
0.0000000001
 43
0.0000000001
 40
0.0
 40
0.0
 40
0.0
 40
0.0
 40
1.0
 40
1.0
 40
1.0
 40
2.0
 40
2.0
 40
2.0
 40
3.0
 40
3.0
 40
3.0
 40
4.0
 40
4.0
 40
4.0
 40
4.0
 10
84.38378686905529
 20
-151.9260651296493
 30
0.0
 10
84.38378686905529
 20
-151.8706084643974
 30
0.0
 10
84.33901936906609
 20
-151.8258056877627
 30
0.0
 10
84.28352742463525
 20
-151.8258056877627
 30
0.0
 10
84.22842353576035
 20
-151.8258056877627
 30
0.0
 10
84.18362075799427
 20
-151.8706084643974
 30
0.0
 10
84.18362075799427
 20
-151.9260651296493
 30
0.0
 10
84.18362075799427
 20
-151.9811690171323
 30
0.0
 10
84.22842353576035
 20
-152.0259717937671
 30
0.0
 10
84.28352742463525
 20
-152.0259717937671
 30
0.0
 10
84.33901936906609
 20
-152.0259717937671
 30
0.0
 10
84.38378686905529
 20
-151.9811690171323
 30
0.0
 10
84.38378686905529
 20
-151.9260651296493
 30
0.0
  0
LINE
  5
9C
330
97
100
AcDbEntity
  8
レイヤー 1
 62
   250
420
  2299925
370
     9
100
AcDbLine
 10
86.543880479626
 20
-151.9260651296493
 30
0.0
 11
83.28343770266377
 21
-151.9260651296493
 31
0.0
  0
SPLINE
  5
9D
330
97
100
AcDbEntity
  8
レイヤー 1
 62
    18
420
        0
370
     9
100
AcDbSpline
210
0.0
220
0.0
230
1.0
 70
     9
 71
     3
 72
    17
 73
    13
 74
     0
 42
0.0000000001
 43
0.0000000001
 40
0.0
 40
0.0
 40
0.0
 40
0.0
 40
1.0
 40
1.0
 40
1.0
 40
2.0
 40
2.0
 40
2.0
 40
3.0
 40
3.0
 40
3.0
 40
4.0
 40
4.0
 40
4.0
 40
4.0
 10
84.38381964375544
 20
-151.9821337867145
 30
0.0
 10
84.38381964375544
 20
-151.9266727321745
 30
0.0
 10
84.33901686598842
 20
-151.8822227321855
 30
0.0
 10
84.28391297711382
 20
-151.8822227321855
 30
0.0
 10
84.22810353268337
 20
-151.8822227321855
 30
0.0
 10
84.18330075491665
 20
-151.9266727321745
 30
0.0
 10
84.18330075491665
 20
-151.9821337867145
 30
0.0
 10
84.18330075491665
 20
-152.0372376741976
 30
0.0
 10
84.22810353268337
 20
-152.0820404508324
 30
0.0
 10
84.28391297711382
 20
-152.0820404508324
 30
0.0
 10
84.33901686598842
 20
-152.0820404508324
 30
0.0
 10
84.38381964375544
 20
-152.0372376741976
 30
0.0
 10
84.38381964375544
 20
-151.9821337867145
 30
0.0
  0
SPLINE
  5
9E
330
97
100
AcDbEntity
  8
レイヤー 1
 62
    18
420
        0
370
     9
100
AcDbSpline
210
0.0
220
0.0
230
1.0
 70
     9
 71
     3
 72
    17
 73
    13
 74
     0
 42
0.0000000001
 43
0.0000000001
 40
0.0
 40
0.0
 40
0.0
 40
0.0
 40
1.0
 40
1.0
 40
1.0
 40
2.0
 40
2.0
 40
2.0
 40
3.0
 40
3.0
 40
3.0
 40
4.0
 40
4.0
 40
4.0
 40
4.0
 10
84.38381964375544
 20
-139.9821863150812
 30
0.0
 10
84.38381964375544
 20
-139.9266943720525
 30
0.0
 10
84.33901686598842
 20
-139.8819268731946
 30
0.0
 10
84.28391297711382
 20
-139.8819268731946
 30
0.0
 10
84.22810353268337
 20
-139.8819268731946
 30
0.0
 10
84.18330075491665
 20
-139.9266943720525
 30
0.0
 10
84.18330075491665
 20
-139.9821863150812
 30
0.0
 10
84.18330075491665
 20
-140.0372902025643
 30
0.0
 10
84.22810353268337
 20
-140.0820929791991
 30
0.0
 10
84.28391297711382
 20
-140.0820929791991
 30
0.0
 10
84.33901686598842
 20
-140.0820929791991
 30
0.0
 10
84.38381964375544
 20
-140.0372902025643
 30
0.0
 10
84.38381964375544
 20
-139.9821863150812
 30
0.0
  0
LINE
  5
9F
330
97
100
AcDbEntity
  8
レイヤー 1
 62
    18
420
        0
370
     9
100
AcDbLine
 10
84.28391297711382
 20
-139.9821863150812
 30
0.0
 11
84.28391297711382
 21
-151.9821337867145
 31
0.0
  0
LINE
  5
A0
330
97
100
AcDbEntity
  8
レイヤー 1
 62
    18
420
        0
370
     9
100
AcDbLine
 10
86.24761519884499
 20
-139.9504715936681
 30
0.0
 11
83.28826825514056
 21
-139.9504715936681
 31
0.0
  0
LINE
  5
A1
330
97
100
AcDbEntity
  8
レイヤー 1
 62
    18
420
        0
370
     9
100
AcDbLine
 10
86.5438779765483
 20
-151.9821337867145
 30
0.0
 11
83.28343519958574
 21
-151.9821337867145
 31
0.0
  0
INSERT
  5
A3
330
97
100
AcDbEntity
  8
レイヤー 1
100
AcDbBlockReference
  2
Block_4
 10
0.0
 20
0.0
 30
0.0
  0
ENDBLK
  5
9A
330
97
100
AcDbEntity
  8
0
100
AcDbBlockEnd
  0
BLOCK
  5
A4
330
A2
100
AcDbEntity
  8
0
100
AcDbBlockBegin
  2
Block_4
 70
     0
 10
0.0
 20
0.0
 30
0.0
  3
Block_4
  1

  0
INSERT
  5
A7
330
A2
100
AcDbEntity
  8
レイヤー 1
100
AcDbBlockReference
  2
Block_5
 10
0.0
 20
0.0
 30
0.0
  0
ENDBLK
  5
A5
330
A2
100
AcDbEntity
  8
0
100
AcDbBlockEnd
  0
BLOCK
  5
A8
330
A6
100
AcDbEntity
  8
0
100
AcDbBlockBegin
  2
Block_5
 70
     0
 10
0.0
 20
0.0
 30
0.0
  3
Block_5
  1

  0
SPLINE
  5
AA
330
A6
100
AcDbEntity
  8
レイヤー 1
100
AcDbSpline
210
0.0
220
0.0
230
1.0
 70
    11
 71
     3
 72
    26
 73
    22
 74
     0
 42
0.0000000001
 43
0.0000000001
 40
0.0
 40
0.0
 40
0.0
 40
0.0
 40
1.0
 40
1.0
 40
1.0
 40
2.0
 40
2.0
 40
2.0
 40
3.0
 40
3.0
 40
3.0
 40
4.0
 40
4.0
 40
4.0
 40
5.0
 40
5.0
 40
5.0
 40
6.0
 40
6.0
 40
6.0
 40
7.0
 40
7.0
 40
7.0
 40
7.0
 10
83.57043726209351
 20
-146.694749583552
 30
0.0
 10
83.57043726209351
 20
-146.694749583552
 30
0.0
 10
82.46611190429666
 20
-146.694749583552
 30
0.0
 10
82.46611190429666
 20
-146.694749583552
 30
0.0
 10
82.46611190429666
 20
-146.694749583552
 30
0.0
 10
82.46611190429666
 20
-147.0247897310389
 30
0.0
 10
82.46611190429666
 20
-147.0247897310389
 30
0.0
 10
82.46611190429666
 20
-147.0247897310389
 30
0.0
 10
82.31814505320519
 20
-147.0247897310389
 30
0.0
 10
82.31814505320519
 20
-147.0247897310389
 30
0.0
 10
82.30333114261862
 20
-146.6926825262608
 30
0.0
 10
82.14037812616629
 20
-146.64617373721
 30
0.0
 10
82.02617321083026
 20
-146.6165459160368
 30
0.0
 10
82.02617321083026
 20
-146.6165459160368
 30
0.0
 10
82.02617321083026
 20
-146.4704738674622
 30
0.0
 10
82.02617321083026
 20
-146.4704738674622
 30
0.0
 10
82.02617321083026
 20
-146.4704738674622
 30
0.0
 10
83.57043726209351
 20
-146.4704738674622
 30
0.0
 10
83.57043726209351
 20
-146.4704738674622
 30
0.0
 10
83.57043726209351
 20
-146.4704738674622
 30
0.0
 10
83.57043726209351
 20
-146.694749583552
 30
0.0
 10
83.57043726209351
 20
-146.694749583552
 30
0.0
  0
HATCH
  5
AB
330
A6
100
AcDbEntity
  8
レイヤー 1
 62
    18
420
        0
440
 33554687
100
AcDbHatch
 10
0.0
 20
0.0
 30
0.0
210
0.0
220
0.0
230
1.0
  2
SOLID
 70
     1
 71
     1
 91
        1
 92
        1
 93
        1
 72
     4
 94
        3
 73
     0
 74
     0
 95
       26
 96
       22
 40
0.0
 40
0.0
 40
0.0
 40
0.0
 40
1.0
 40
1.0
 40
1.0
 40
2.0
 40
2.0
 40
2.0
 40
3.0
 40
3.0
 40
3.0
 40
4.0
 40
4.0
 40
4.0
 40
5.0
 40
5.0
 40
5.0
 40
6.0
 40
6.0
 40
6.0
 40
7.0
 40
7.0
 40
7.0
 40
7.0
 10
83.57043726209351
 20
-146.694749583552
 10
83.57043726209351
 20
-146.694749583552
 10
82.46611190429666
 20
-146.694749583552
 10
82.46611190429666
 20
-146.694749583552
 10
82.46611190429666
 20
-146.694749583552
 10
82.46611190429666
 20
-147.0247897310389
 10
82.46611190429666
 20
-147.0247897310389
 10
82.46611190429666
 20
-147.0247897310389
 10
82.31814505320519
 20
-147.0247897310389
 10
82.31814505320519
 20
-147.0247897310389
 10
82.30333114261862
 20
-146.6926825262608
 10
82.14037812616629
 20
-146.64617373721
 10
82.02617321083026
 20
-146.6165459160368
 10
82.02617321083026
 20
-146.6165459160368
 10
82.02617321083026
 20
-146.4704738674622
 10
82.02617321083026
 20
-146.4704738674622
 10
82.02617321083026
 20
-146.4704738674622
 10
83.57043726209351
 20
-146.4704738674622
 10
83.57043726209351
 20
-146.4704738674622
 10
83.57043726209351
 20
-146.4704738674622
 10
83.57043726209351
 20
-146.694749583552
 10
83.57043726209351
 20
-146.694749583552
 97
        0
 97
        1
330
AA
 75
     2
 76
     1
 98
        1
 10
0.0
 20
0.0
450
        0
451
        0
460
0.0
461
0.0
452
        0
462
0.0
453
        0
470

  0
SPLINE
  5
AC
330
A6
100
AcDbEntity
  8
レイヤー 1
100
AcDbSpline
210
0.0
220
0.0
230
1.0
 70
     9
 71
     3
 72
    44
 73
    40
 74
     0
 42
0.0000000001
 43
0.0000000001
 40
0.0
 40
0.0
 40
0.0
 40
0.0
 40
1.0
 40
1.0
 40
1.0
 40
2.0
 40
2.0
 40
2.0
 40
3.0
 40
3.0
 40
3.0
 40
4.0
 40
4.0
 40
4.0
 40
5.0
 40
5.0
 40
5.0
 40
6.0
 40
6.0
 40
6.0
 40
7.0
 40
7.0
 40
7.0
 40
8.0
 40
8.0
 40
8.0
 40
9.0
 40
9.0
 40
9.0
 40
10.0
 40
10.0
 40
10.0
 40
11.0
 40
11.0
 40
11.0
 40
12.0
 40
12.0
 40
12.0
 40
13.0
 40
13.0
 40
13.0
 40
13.0
 10
82.98873288940907
 20
-145.3763115413469
 30
0.0
 10
83.14737953650483
 20
-145.5940415760147
 30
0.0
 10
83.22144908943769
 20
-145.6870591541164
 30
0.0
 10
83.36528182594689
 20
-145.735979510007
 30
0.0
 10
83.36528182594689
 20
-145.735979510007
 30
0.0
 10
83.36528182594689
 20
-144.9573879303405
 30
0.0
 10
83.36528182594689
 20
-144.9573879303405
 30
0.0
 10
83.36528182594689
 20
-144.9573879303405
 30
0.0
 10
83.57043726209351
 20
-144.9573879303405
 30
0.0
 10
83.57043726209351
 20
-144.9573879303405
 30
0.0
 10
83.57043726209351
 20
-144.9573879303405
 30
0.0
 10
83.57043726209351
 20
-145.985404423139
 30
0.0
 10
83.57043726209351
 20
-145.985404423139
 30
0.0
 10
83.21283635072457
 20
-145.9537095446748
 30
0.0
 10
83.13463268320941
 20
-145.888252730455
 30
0.0
 10
82.83628741418677
 20
-145.5030910552041
 30
0.0
 10
82.63750540468784
 20
-145.24712046065
 30
0.0
 10
82.56980927840269
 20
-145.1816636464303
 30
0.0
 10
82.43234996854122
 20
-145.1816636464303
 30
0.0
 10
82.31383868384863
 20
-145.1816636464303
 30
0.0
 10
82.18275280063487
 20
-145.253666142072
 30
0.0
 10
82.18275280063487
 20
-145.4503810942798
 30
0.0
 10
82.18275280063487
 20
-145.7104858034161
 30
0.0
 10
82.41322968859808
 20
-145.7190985421292
 30
0.0
 10
82.52967391599952
 20
-145.7232326567115
 30
0.0
 10
82.52967391599952
 20
-145.7232326567115
 30
0.0
 10
82.52967391599952
 20
-145.9475083728013
 30
0.0
 10
82.52967391599952
 20
-145.9475083728013
 30
0.0
 10
82.40272214736807
 20
-145.9388956340882
 30
0.0
 10
82.29058428932319
 20
-145.9282158380839
 30
0.0
 10
82.17207300463059
 20
-145.8479451132776
 30
0.0
 10
82.01135930024369
 20
-145.7380465672981
 30
0.0
 10
81.97742510971398
 20
-145.5516669015461
 30
0.0
 10
81.97742510971398
 20
-145.4355671836932
 30
0.0
 10
81.97742510971398
 20
-145.1582369971306
 30
0.0
 10
82.16156546340057
 20
-144.9508422489185
 30
0.0
 10
82.43441702583238
 20
-144.9508422489185
 30
0.0
 10
82.66282685650443
 20
-144.9508422489185
 30
0.0
 10
82.76239011602816
 20
-145.06728647632
 30
0.0
 10
82.98873288940907
 20
-145.3763115413469
 30
0.0
  0
HATCH
  5
AD
330
A6
100
AcDbEntity
  8
レイヤー 1
 62
    18
420
        0
440
 33554687
100
AcDbHatch
 10
0.0
 20
0.0
 30
0.0
210
0.0
220
0.0
230
1.0
  2
SOLID
 70
     1
 71
     1
 91
        1
 92
        1
 93
        1
 72
     4
 94
        3
 73
     0
 74
     0
 95
       44
 96
       40
 40
0.0
 40
0.0
 40
0.0
 40
0.0
 40
1.0
 40
1.0
 40
1.0
 40
2.0
 40
2.0
 40
2.0
 40
3.0
 40
3.0
 40
3.0
 40
4.0
 40
4.0
 40
4.0
 40
5.0
 40
5.0
 40
5.0
 40
6.0
 40
6.0
 40
6.0
 40
7.0
 40
7.0
 40
7.0
 40
8.0
 40
8.0
 40
8.0
 40
9.0
 40
9.0
 40
9.0
 40
10.0
 40
10.0
 40
10.0
 40
11.0
 40
11.0
 40
11.0
 40
12.0
 40
12.0
 40
12.0
 40
13.0
 40
13.0
 40
13.0
 40
13.0
 10
82.98873288940907
 20
-145.3763115413469
 10
83.14737953650483
 20
-145.5940415760147
 10
83.22144908943769
 20
-145.6870591541164
 10
83.36528182594689
 20
-145.735979510007
 10
83.36528182594689
 20
-145.735979510007
 10
83.36528182594689
 20
-144.9573879303405
 10
83.36528182594689
 20
-144.9573879303405
 10
83.36528182594689
 20
-144.9573879303405
 10
83.57043726209351
 20
-144.9573879303405
 10
83.57043726209351
 20
-144.9573879303405
 10
83.57043726209351
 20
-144.9573879303405
 10
83.57043726209351
 20
-145.985404423139
 10
83.57043726209351
 20
-145.985404423139
 10
83.21283635072457
 20
-145.9537095446748
 10
83.13463268320941
 20
-145.888252730455
 10
82.83628741418677
 20
-145.5030910552041
 10
82.63750540468784
 20
-145.24712046065
 10
82.56980927840269
 20
-145.1816636464303
 10
82.43234996854122
 20
-145.1816636464303
 10
82.31383868384863
 20
-145.1816636464303
 10
82.18275280063487
 20
-145.253666142072
 10
82.18275280063487
 20
-145.4503810942798
 10
82.18275280063487
 20
-145.7104858034161
 10
82.41322968859808
 20
-145.7190985421292
 10
82.52967391599952
 20
-145.7232326567115
 10
82.52967391599952
 20
-145.7232326567115
 10
82.52967391599952
 20
-145.9475083728013
 10
82.52967391599952
 20
-145.9475083728013
 10
82.40272214736807
 20
-145.9388956340882
 10
82.29058428932319
 20
-145.9282158380839
 10
82.17207300463059
 20
-145.8479451132776
 10
82.01135930024369
 20
-145.7380465672981
 10
81.97742510971398
 20
-145.5516669015461
 10
81.97742510971398
 20
-145.4355671836932
 10
81.97742510971398
 20
-145.1582369971306
 10
82.16156546340057
 20
-144.9508422489185
 10
82.43441702583238
 20
-144.9508422489185
 10
82.66282685650443
 20
-144.9508422489185
 10
82.76239011602816
 20
-145.06728647632
 10
82.98873288940907
 20
-145.3763115413469
 97
        0
 97
        1
330
AC
 75
     2
 76
     1
 98
        1
 10
0.0
 20
0.0
450
        0
451
        0
460
0.0
461
0.0
452
        0
462
0.0
453
        0
470

  0
ENDBLK
  5
A9
330
A6
100
AcDbEntity
  8
0
100
AcDbBlockEnd
  0
BLOCK
  5
B5
330
B3
100
AcDbEntity
  8
0
100
AcDbBlockBegin
  2
Block_6
 70
     0
 10
0.0
 20
0.0
 30
0.0
  3
Block_6
  1

  0
INSERT
  5
B8
330
B3
100
AcDbEntity
  8
レイヤー 1
100
AcDbBlockReference
  2
Block_7
 10
0.0
 20
0.0
 30
0.0
  0
ENDBLK
  5
B6
330
B3
100
AcDbEntity
  8
0
100
AcDbBlockEnd
  0
BLOCK
  5
B9
330
B7
100
AcDbEntity
  8
0
100
AcDbBlockBegin
  2
Block_7
 70
     0
 10
0.0
 20
0.0
 30
0.0
  3
Block_7
  1

  0
SPLINE
  5
BB
330
B7
100
AcDbEntity
  8
レイヤー 1
100
AcDbSpline
210
0.0
220
0.0
230
1.0
 70
     9
 71
     3
 72
    17
 73
    13
 74
     0
 42
0.0000000001
 43
0.0000000001
 40
0.0
 40
0.0
 40
0.0
 40
0.0
 40
1.0
 40
1.0
 40
1.0
 40
2.0
 40
2.0
 40
2.0
 40
3.0
 40
3.0
 40
3.0
 40
4.0
 40
4.0
 40
4.0
 40
4.0
 10
109.6801269257049
 20
-143.8627088399023
 30
0.0
 10
109.6632459578272
 20
-143.8921644063013
 30
0.0
 10
109.6126030541941
 20
-143.9853542391772
 30
0.0
 10
109.6019232581898
 20
-144.0043022643461
 30
0.0
 10
109.7924370385241
 20
-144.0635579066924
 30
0.0
 10
109.8134521209841
 20
-144.0699313333401
 30
0.0
 10
109.8854546166258
 20
-144.0974920972221
 30
0.0
 10
109.9405761443899
 20
-144.0106756909939
 30
0.0
 10
109.963658284141
 20
-143.936606138061
 30
0.0
 10
109.9784721947276
 20
-143.8627088399023
 30
0.0
 10
109.9784721947276
 20
-143.8627088399023
 30
0.0
 10
109.6801269257049
 20
-143.8627088399023
 30
0.0
 10
109.6801269257049
 20
-143.8627088399023
 30
0.0
  0
SPLINE
  5
BC
330
B7
100
AcDbEntity
  8
レイヤー 1
100
AcDbSpline
210
0.0
220
0.0
230
1.0
 70
    11
 71
     3
 72
    20
 73
    16
 74
     0
 42
0.0000000001
 43
0.0000000001
 40
0.0
 40
0.0
 40
0.0
 40
0.0
 40
1.0
 40
1.0
 40
1.0
 40
2.0
 40
2.0
 40
2.0
 40
3.0
 40
3.0
 40
3.0
 40
4.0
 40
4.0
 40
4.0
 40
5.0
 40
5.0
 40
5.0
 40
5.0
 10
109.6167371687764
 20
-143.0122870193685
 30
0.0
 10
109.6167371687764
 20
-143.0122870193685
 30
0.0
 10
109.585042290312
 20
-143.0122870193685
 30
0.0
 10
109.585042290312
 20
-143.0122870193685
 30
0.0
 10
109.6315510793629
 20
-143.1116780241179
 30
0.0
 10
109.6632459578272
 20
-143.1919487489242
 30
0.0
 10
109.6970078935827
 20
-143.3189005175557
 30
0.0
 10
109.6970078935827
 20
-143.3189005175557
 30
0.0
 10
109.9044026417947
 20
-143.3189005175557
 30
0.0
 10
109.9044026417947
 20
-143.3189005175557
 30
0.0
 10
109.936097520259
 20
-143.2258829394539
 30
0.0
 10
109.9595241695587
 20
-143.1413058452911
 30
0.0
 10
109.9826063093099
 20
-143.0122870193685
 30
0.0
 10
109.9826063093099
 20
-143.0122870193685
 30
0.0
 10
109.6167371687764
 20
-143.0122870193685
 30
0.0
 10
109.6167371687764
 20
-143.0122870193685
 30
0.0
  0
SPLINE
  5
BD
330
B7
100
AcDbEntity
  8
レイヤー 1
100
AcDbSpline
210
0.0
220
0.0
230
1.0
 70
     9
 71
     3
 72
   242
 73
   238
 74
     0
 42
0.0000000001
 43
0.0000000001
 40
0.0
 40
0.0
 40
0.0
 40
0.0
 40
1.0
 40
1.0
 40
1.0
 40
2.0
 40
2.0
 40
2.0
 40
3.0
 40
3.0
 40
3.0
 40
4.0
 40
4.0
 40
4.0
 40
5.0
 40
5.0
 40
5.0
 40
6.0
 40
6.0
 40
6.0
 40
7.0
 40
7.0
 40
7.0
 40
8.0
 40
8.0
 40
8.0
 40
9.0
 40
9.0
 40
9.0
 40
10.0
 40
10.0
 40
10.0
 40
11.0
 40
11.0
 40
11.0
 40
12.0
 40
12.0
 40
12.0
 40
13.0
 40
13.0
 40
13.0
 40
14.0
 40
14.0
 40
14.0
 40
15.0
 40
15.0
 40
15.0
 40
16.0
 40
16.0
 40
16.0
 40
17.0
 40
17.0
 40
17.0
 40
18.0
 40
18.0
 40
18.0
 40
19.0
 40
19.0
 40
19.0
 40
20.0
 40
20.0
 40
20.0
 40
21.0
 40
21.0
 40
21.0
 40
22.0
 40
22.0
 40
22.0
 40
23.0
 40
23.0
 40
23.0
 40
24.0
 40
24.0
 40
24.0
 40
25.0
 40
25.0
 40
25.0
 40
26.0
 40
26.0
 40
26.0
 40
27.0
 40
27.0
 40
27.0
 40
28.0
 40
28.0
 40
28.0
 40
29.0
 40
29.0
 40
29.0
 40
30.0
 40
30.0
 40
30.0
 40
31.0
 40
31.0
 40
31.0
 40
32.0
 40
32.0
 40
32.0
 40
33.0
 40
33.0
 40
33.0
 40
34.0
 40
34.0
 40
34.0
 40
35.0
 40
35.0
 40
35.0
 40
36.0
 40
36.0
 40
36.0
 40
37.0
 40
37.0
 40
37.0
 40
38.0
 40
38.0
 40
38.0
 40
39.0
 40
39.0
 40
39.0
 40
40.0
 40
40.0
 40
40.0
 40
41.0
 40
41.0
 40
41.0
 40
42.0
 40
42.0
 40
42.0
 40
43.0
 40
43.0
 40
43.0
 40
44.0
 40
44.0
 40
44.0
 40
45.0
 40
45.0
 40
45.0
 40
46.0
 40
46.0
 40
46.0
 40
47.0
 40
47.0
 40
47.0
 40
48.0
 40
48.0
 40
48.0
 40
49.0
 40
49.0
 40
49.0
 40
50.0
 40
50.0
 40
50.0
 40
51.0
 40
51.0
 40
51.0
 40
52.0
 40
52.0
 40
52.0
 40
53.0
 40
53.0
 40
53.0
 40
54.0
 40
54.0
 40
54.0
 40
55.0
 40
55.0
 40
55.0
 40
56.0
 40
56.0
 40
56.0
 40
57.0
 40
57.0
 40
57.0
 40
58.0
 40
58.0
 40
58.0
 40
59.0
 40
59.0
 40
59.0
 40
60.0
 40
60.0
 40
60.0
 40
61.0
 40
61.0
 40
61.0
 40
62.0
 40
62.0
 40
62.0
 40
63.0
 40
63.0
 40
63.0
 40
64.0
 40
64.0
 40
64.0
 40
65.0
 40
65.0
 40
65.0
 40
66.0
 40
66.0
 40
66.0
 40
67.0
 40
67.0
 40
67.0
 40
68.0
 40
68.0
 40
68.0
 40
69.0
 40
69.0
 40
69.0
 40
70.0
 40
70.0
 40
70.0
 40
71.0
 40
71.0
 40
71.0
 40
72.0
 40
72.0
 40
72.0
 40
73.0
 40
73.0
 40
73.0
 40
74.0
 40
74.0
 40
74.0
 40
75.0
 40
75.0
 40
75.0
 40
76.0
 40
76.0
 40
76.0
 40
77.0
 40
77.0
 40
77.0
 40
78.0
 40
78.0
 40
78.0
 40
79.0
 40
79.0
 40
79.0
 40
79.0
 10
110.2451225852859
 20
-143.4775471646514
 30
0.0
 10
110.2451225852859
 20
-143.4775471646514
 30
0.0
 10
109.991219048023
 20
-143.4775471646514
 30
0.0
 10
109.991219048023
 20
-143.4775471646514
 30
0.0
 10
109.991219048023
 20
-143.4775471646514
 30
0.0
 10
109.7142333710089
 20
-143.4775471646514
 30
0.0
 10
109.7142333710089
 20
-143.4775471646514
 30
0.0
 10
109.7142333710089
 20
-143.4775471646514
 30
0.0
 10
109.8410128848661
 20
-143.51992183912
 30
0.0
 10
109.8410128848661
 20
-143.51992183912
 30
0.0
 10
109.8516926808704
 20
-143.5242282084766
 30
0.0
 10
109.8644395341658
 20
-143.53042938035
 30
0.0
 10
109.8644395341658
 20
-143.5431762336454
 30
0.0
 10
109.8644395341658
 20
-143.5643635708797
 30
0.0
 10
109.832400146153
 20
-143.5707369975274
 30
0.0
 10
109.811385063693
 20
-143.5748711121097
 30
0.0
 10
109.8007052676887
 20
-143.5981255066352
 30
0.0
 10
109.7710774465155
 20
-143.6637545756292
 30
0.0
 10
109.7521294213467
 20
-143.7081963073889
 30
0.0
 10
109.7521294213467
 20
-143.7081963073889
 30
0.0
 10
110.0229139264873
 20
-143.7081963073889
 30
0.0
 10
110.0229139264873
 20
-143.7081963073889
 30
0.0
 10
110.1138644472979
 20
-143.7081963073889
 30
0.0
 10
110.3105793995057
 20
-143.7038899380324
 30
0.0
 10
110.452517333498
 20
-143.6954494540935
 30
0.0
 10
110.452517333498
 20
-143.6954494540935
 30
0.0
 10
110.452517333498
 20
-143.8732163811324
 30
0.0
 10
110.452517333498
 20
-143.8732163811324
 30
0.0
 10
110.369835041852
 20
-143.8689100117758
 30
0.0
 10
110.3488199593919
 20
-143.8689100117758
 30
0.0
 10
110.1689859750619
 20
-143.8647758971935
 30
0.0
 10
110.1372910965976
 20
-144.0191161749327
 30
0.0
 10
110.0928493648379
 20
-144.0995591545133
 30
0.0
 10
110.0484076330782
 20
-144.1693223380896
 30
0.0
 10
110.1689859750619
 20
-144.2285779804359
 30
0.0
 10
110.2747504064591
 20
-144.296274106721
 30
0.0
 10
110.3784477805651
 20
-144.3787841435928
 30
0.0
 10
110.3784477805651
 20
-144.3787841435928
 30
0.0
 10
110.2599364958725
 20
-144.5458712746274
 30
0.0
 10
110.2599364958725
 20
-144.5458712746274
 30
0.0
 10
110.2365098465728
 20
-144.5269232494585
 30
0.0
 10
110.2237629932774
 20
-144.5184827655197
 30
0.0
 10
110.1117973900068
 20
-144.4337334165825
 30
0.0
 10
110.0632215436647
 20
-144.3956651114705
 30
0.0
 10
110.0039659013184
 20
-144.3598361184239
 30
0.0
 10
109.9233506669636
 20
-144.3153943866642
 30
0.0
 10
109.7118218041692
 20
-144.501601797642
 30
0.0
 10
109.5068386227969
 20
-144.5248561921674
 30
0.0
 10
109.2167615829388
 20
-144.5544840133405
 30
0.0
 10
109.2167615829388
 20
-144.5544840133405
 30
0.0
 10
109.1134087183814
 20
-144.3746500290105
 30
0.0
 10
109.1134087183814
 20
-144.3746500290105
 30
0.0
 10
109.4307020125729
 20
-144.3703436596539
 30
0.0
 10
109.6060573727721
 20
-144.3450222078373
 30
0.0
 10
109.7583305932201
 20
-144.2349514070836
 30
0.0
 10
109.6401638180761
 20
-144.1841362486762
 30
0.0
 10
109.5512803545566
 20
-144.1567477395684
 30
0.0
 10
109.5151068519615
 20
-144.144000886273
 30
0.0
 10
109.4961588267926
 20
-144.171561650155
 30
0.0
 10
109.481344916206
 20
-144.1905096753239
 30
0.0
 10
109.453784152324
 20
-144.2244438658536
 30
0.0
 10
109.453784152324
 20
-144.2244438658536
 30
0.0
 10
109.2570692001163
 20
-144.1419338289819
 30
0.0
 10
109.2570692001163
 20
-144.1419338289819
 30
0.0
 10
109.3397514917623
 20
-144.0614908494013
 30
0.0
 10
109.4010741913997
 20
-143.9662339592341
 30
0.0
 10
109.4579182669063
 20
-143.8647758971935
 30
0.0
 10
109.2677489961205
 20
-143.8689100117758
 30
0.0
 10
109.246389404112
 20
-143.8689100117758
 30
0.0
 10
109.1640516220145
 20
-143.8732163811324
 30
0.0
 10
109.1640516220145
 20
-143.8732163811324
 30
0.0
 10
109.1640516220145
 20
-143.6954494540935
 30
0.0
 10
109.1640516220145
 20
-143.6954494540935
 30
0.0
 10
109.3035779891671
 20
-143.7018228807412
 30
0.0
 10
109.5130397946703
 20
-143.7061292500978
 30
0.0
 10
109.5385335012612
 20
-143.7061292500978
 30
0.0
 10
109.5554144691389
 20
-143.672195059568
 30
0.0
 10
109.6105359969029
 20
-143.5516167175843
 30
0.0
 10
109.6294840220718
 20
-143.4775471646514
 30
0.0
 10
109.6105359969029
 20
-143.4775471646514
 30
0.0
 10
109.432769069864
 20
-143.4839205912991
 30
0.0
 10
109.2381211749474
 20
-143.4966674445945
 30
0.0
 10
109.2381211749474
 20
-143.4966674445945
 30
0.0
 10
109.2381211749474
 20
-143.6299926398737
 30
0.0
 10
109.2381211749474
 20
-143.6299926398737
 30
0.0
 10
109.1895453286054
 20
-143.6553140916903
 30
0.0
 10
109.1302896862591
 20
-143.6870089701546
 30
0.0
 10
108.9969644909799
 20
-143.7526380391486
 30
0.0
 10
108.9969644909799
 20
-143.7526380391486
 30
0.0
 10
108.9969644909799
 20
-143.898537832949
 30
0.0
 10
108.9969644909799
 20
-143.898537832949
 30
0.0
 10
108.9969644909799
 20
-143.898537832949
 30
0.0
 10
108.9969644909799
 20
-144.3662095450716
 30
0.0
 10
108.9969644909799
 20
-144.3662095450716
 30
0.0
 10
108.9969644909799
 20
-144.4929890589288
 30
0.0
 10
108.9607909883848
 20
-144.5522447012751
 30
0.0
 10
108.6776041394972
 20
-144.5438042173362
 30
0.0
 10
108.6776041394972
 20
-144.5438042173362
 30
0.0
 10
108.5739067653912
 20
-144.3365817238985
 30
0.0
 10
108.5739067653912
 20
-144.3365817238985
 30
0.0
 10
108.6372965223198
 20
-144.3491563224196
 30
0.0
 10
108.6858723686618
 20
-144.3534626917762
 30
0.0
 10
108.7261799858393
 20
-144.3534626917762
 30
0.0
 10
108.8023165960633
 20
-144.3534626917762
 30
0.0
 10
108.8129963920676
 20
-144.3302082972508
 30
0.0
 10
108.8129963920676
 20
-144.2645792282568
 30
0.0
 10
108.8129963920676
 20
-144.2645792282568
 30
0.0
 10
108.8129963920676
 20
-143.8351480760204
 30
0.0
 10
108.8129963920676
 20
-143.8351480760204
 30
0.0
 10
108.715500189835
 20
-143.8752834384235
 30
0.0
 10
108.6986192219573
 20
-143.8816568650712
 30
0.0
 10
108.6521104329064
 20
-143.9007771450144
 30
0.0
 10
108.6479763183241
 20
-143.9217922274744
 30
0.0
 10
108.6434976941933
 20
-143.9514200486476
 30
0.0
 10
108.6245496690244
 20
-143.9514200486476
 30
0.0
 10
108.6162814398598
 20
-143.9514200486476
 30
0.0
 10
108.6056016438555
 20
-143.9472859340652
 30
0.0
 10
108.5990559624335
 20
-143.9240315395398
 30
0.0
 10
108.5990559624335
 20
-143.9240315395398
 30
0.0
 10
108.5463460015092
 20
-143.7314507019143
 30
0.0
 10
108.5463460015092
 20
-143.7314507019143
 30
0.0
 10
108.6924180500838
 20
-143.6849419128634
 30
0.0
 10
108.7578748643036
 20
-143.661687518338
 30
0.0
 10
108.8129963920676
 20
-143.6405001811037
 30
0.0
 10
108.8129963920676
 20
-143.6405001811037
 30
0.0
 10
108.8129963920676
 20
-143.2279499967451
 30
0.0
 10
108.8129963920676
 20
-143.2279499967451
 30
0.0
 10
108.8129963920676
 20
-143.2279499967451
 30
0.0
 10
108.7599419215947
 20
-143.2279499967451
 30
0.0
 10
108.7599419215947
 20
-143.2279499967451
 30
0.0
 10
108.7599419215947
 20
-143.2279499967451
 30
0.0
 10
108.6817382540796
 20
-143.2279499967451
 30
0.0
 10
108.6817382540796
 20
-143.2279499967451
 30
0.0
 10
108.6138698730201
 20
-143.2279499967451
 30
0.0
 10
108.6056016438555
 20
-143.2279499967451
 30
0.0
 10
108.5694281412604
 20
-143.2343234233928
 30
0.0
 10
108.5694281412604
 20
-143.2343234233928
 30
0.0
 10
108.5694281412604
 20
-143.0396755284762
 30
0.0
 10
108.5694281412604
 20
-143.0396755284762
 30
0.0
 10
108.5969889051424
 20
-143.0460489551239
 30
0.0
 10
108.6056016438555
 20
-143.0460489551239
 30
0.0
 10
108.6751925726576
 20
-143.0460489551239
 30
0.0
 10
108.6751925726576
 20
-143.0460489551239
 30
0.0
 10
108.8085177679367
 20
-143.0460489551239
 30
0.0
 10
108.8085177679367
 20
-143.0460489551239
 30
0.0
 10
108.8085177679367
 20
-142.9762857715476
 30
0.0
 10
108.8085177679367
 20
-142.8937757346758
 30
0.0
 10
108.8064507106456
 20
-142.8894693653193
 30
0.0
 10
108.798182481481
 20
-142.7096353809892
 30
0.0
 10
108.798182481481
 20
-142.6906873558204
 30
0.0
 10
108.7957709146413
 20
-142.6441785667695
 30
0.0
 10
108.7957709146413
 20
-142.6441785667695
 30
0.0
 10
109.0117784015665
 20
-142.6526190507084
 30
0.0
 10
109.0117784015665
 20
-142.6526190507084
 30
0.0
 10
109.0224581975708
 20
-142.6526190507084
 30
0.0
 10
109.0434732800308
 20
-142.6546861079995
 30
0.0
 10
109.0434732800308
 20
-142.6715670758772
 30
0.0
 10
109.0434732800308
 20
-142.6906873558204
 30
0.0
 10
109.0286593694442
 20
-142.7011948970504
 30
0.0
 10
109.0031656628533
 20
-142.7203151769935
 30
0.0
 10
109.0031656628533
 20
-142.7709580806267
 30
0.0
 10
108.9969644909799
 20
-142.999540166073
 30
0.0
 10
108.9990315482711
 20
-143.0460489551239
 30
0.0
 10
109.1282226289679
 20
-143.0460489551239
 30
0.0
 10
109.1406249727148
 20
-143.0460489551239
 30
0.0
 10
109.2381211749474
 20
-143.037608471185
 30
0.0
 10
109.2381211749474
 20
-143.037608471185
 30
0.0
 10
109.2381211749474
 20
-143.2322563661016
 30
0.0
 10
109.2381211749474
 20
-143.2322563661016
 30
0.0
 10
109.1998806150611
 20
-143.2300170540362
 30
0.0
 10
109.1323567435502
 20
-143.2258829394539
 30
0.0
 10
108.9969644909799
 20
-143.2279499967451
 30
0.0
 10
108.9969644909799
 20
-143.2279499967451
 30
0.0
 10
108.9969644909799
 20
-143.5664306281709
 30
0.0
 10
108.9969644909799
 20
-143.5664306281709
 30
0.0
 10
109.0520860187439
 20
-143.5431762336454
 30
0.0
 10
109.1175428329637
 20
-143.5156154697635
 30
0.0
 10
109.1661186793057
 20
-143.492361075238
 30
0.0
 10
109.1661186793057
 20
-143.492361075238
 30
0.0
 10
109.1661186793057
 20
-143.3147664029734
 30
0.0
 10
109.1661186793057
 20
-143.3147664029734
 30
0.0
 10
109.280495849416
 20
-143.3273410014946
 30
0.0
 10
109.3990071341086
 20
-143.3273410014946
 30
0.0
 10
109.5151068519615
 20
-143.3273410014946
 30
0.0
 10
109.4920247122103
 20
-143.2322563661016
 30
0.0
 10
109.4644639483283
 20
-143.1497463292299
 30
0.0
 10
109.4010741913997
 20
-143.0164211339507
 30
0.0
 10
109.35663245964
 20
-143.0184881912419
 30
0.0
 10
109.273950167994
 20
-143.0227945605984
 30
0.0
 10
109.2360541176562
 20
-143.0248616178896
 30
0.0
 10
109.2360541176562
 20
-143.0248616178896
 30
0.0
 10
109.2360541176562
 20
-142.8450276335596
 30
0.0
 10
109.2360541176562
 20
-142.8450276335596
 30
0.0
 10
109.3607665742223
 20
-142.8534681174984
 30
0.0
 10
109.5343993866789
 20
-142.857774486855
 30
0.0
 10
109.6167371687764
 20
-142.857774486855
 30
0.0
 10
109.6167371687764
 20
-142.857774486855
 30
0.0
 10
109.6994194604224
 20
-142.857774486855
 30
0.0
 10
109.6994194604224
 20
-142.857774486855
 30
0.0
 10
109.6994194604224
 20
-142.6948214704027
 30
0.0
 10
109.6994194604224
 20
-142.6843139291726
 30
0.0
 10
109.6970078935827
 20
-142.6293646561829
 30
0.0
 10
109.6970078935827
 20
-142.6293646561829
 30
0.0
 10
109.9212836096724
 20
-142.6546861079995
 30
0.0
 10
109.9212836096724
 20
-142.6546861079995
 30
0.0
 10
109.9257622338033
 20
-142.6546861079995
 30
0.0
 10
109.9467773162633
 20
-142.6567531652906
 30
0.0
 10
109.9467773162633
 20
-142.6736341331684
 30
0.0
 10
109.9467773162633
 20
-142.688448043755
 30
0.0
 10
109.936097520259
 20
-142.6970607824681
 30
0.0
 10
109.908536756377
 20
-142.7118746930547
 30
0.0
 10
109.9023355845036
 20
-142.7773315072744
 30
0.0
 10
109.9002685272124
 20
-142.7985188445087
 30
0.0
 10
109.9002685272124
 20
-142.857774486855
 30
0.0
 10
109.9002685272124
 20
-142.857774486855
 30
0.0
 10
109.9953531626053
 20
-142.857774486855
 30
0.0
 10
109.9953531626053
 20
-142.857774486855
 30
0.0
 10
110.0780354542513
 20
-142.857774486855
 30
0.0
 10
110.2513237571594
 20
-142.8534681174984
 30
0.0
 10
110.376380723274
 20
-142.8450276335596
 30
0.0
 10
110.376380723274
 20
-142.8450276335596
 30
0.0
 10
110.376380723274
 20
-143.0248616178896
 30
0.0
 10
110.376380723274
 20
-143.0248616178896
 30
0.0
 10
110.3467529021008
 20
-143.0227945605984
 30
0.0
 10
110.2282416174082
 20
-143.0184881912419
 30
0.0
 10
110.1879340002308
 20
-143.0164211339507
 30
0.0
 10
110.1731200896442
 20
-143.0672362923582
 30
0.0
 10
110.1393581538888
 20
-143.179374150403
 30
0.0
 10
110.0735568301205
 20
-143.3189005175557
 30
0.0
 10
110.115931504589
 20
-143.3189005175557
 30
0.0
 10
110.3932616911517
 20
-143.2999524923868
 30
0.0
 10
110.4545843907891
 20
-143.2977131803214
 30
0.0
 10
110.4545843907891
 20
-143.2977131803214
 30
0.0
 10
110.4545843907891
 20
-143.481853534008
 30
0.0
 10
110.4545843907891
 20
-143.481853534008
 30
0.0
 10
110.424956569616
 20
-143.481853534008
 30
0.0
 10
110.4080756017382
 20
-143.4775471646514
 30
0.0
 10
110.2451225852859
 20
-143.4775471646514
 30
0.0
  0
HATCH
  5
BE
330
B7
100
AcDbEntity
  8
レイヤー 1
 62
   250
420
  2299925
440
 33554687
100
AcDbHatch
 10
0.0
 20
0.0
 30
0.0
210
0.0
220
0.0
230
1.0
  2
SOLID
 70
     1
 71
     1
 91
        3
 92
        1
 93
        1
 72
     4
 94
        3
 73
     0
 74
     0
 95
       17
 96
       13
 40
0.0
 40
0.0
 40
0.0
 40
0.0
 40
1.0
 40
1.0
 40
1.0
 40
2.0
 40
2.0
 40
2.0
 40
3.0
 40
3.0
 40
3.0
 40
4.0
 40
4.0
 40
4.0
 40
4.0
 10
109.6801269257049
 20
-143.8627088399023
 10
109.6632459578272
 20
-143.8921644063013
 10
109.6126030541941
 20
-143.9853542391772
 10
109.6019232581898
 20
-144.0043022643461
 10
109.7924370385241
 20
-144.0635579066924
 10
109.8134521209841
 20
-144.0699313333401
 10
109.8854546166258
 20
-144.0974920972221
 10
109.9405761443899
 20
-144.0106756909939
 10
109.963658284141
 20
-143.936606138061
 10
109.9784721947276
 20
-143.8627088399023
 10
109.9784721947276
 20
-143.8627088399023
 10
109.6801269257049
 20
-143.8627088399023
 10
109.6801269257049
 20
-143.8627088399023
 97
        0
 97
        1
330
BB
 92
        1
 93
        1
 72
     4
 94
        3
 73
     0
 74
     0
 95
       20
 96
       16
 40
0.0
 40
0.0
 40
0.0
 40
0.0
 40
1.0
 40
1.0
 40
1.0
 40
2.0
 40
2.0
 40
2.0
 40
3.0
 40
3.0
 40
3.0
 40
4.0
 40
4.0
 40
4.0
 40
5.0
 40
5.0
 40
5.0
 40
5.0
 10
109.6167371687764
 20
-143.0122870193685
 10
109.6167371687764
 20
-143.0122870193685
 10
109.585042290312
 20
-143.0122870193685
 10
109.585042290312
 20
-143.0122870193685
 10
109.6315510793629
 20
-143.1116780241179
 10
109.6632459578272
 20
-143.1919487489242
 10
109.6970078935827
 20
-143.3189005175557
 10
109.6970078935827
 20
-143.3189005175557
 10
109.9044026417947
 20
-143.3189005175557
 10
109.9044026417947
 20
-143.3189005175557
 10
109.936097520259
 20
-143.2258829394539
 10
109.9595241695587
 20
-143.1413058452911
 10
109.9826063093099
 20
-143.0122870193685
 10
109.9826063093099
 20
-143.0122870193685
 10
109.6167371687764
 20
-143.0122870193685
 10
109.6167371687764
 20
-143.0122870193685
 97
        0
 97
        1
330
BC
 92
        1
 93
        1
 72
     4
 94
        3
 73
     0
 74
     0
 95
      242
 96
      238
 40
0.0
 40
0.0
 40
0.0
 40
0.0
 40
1.0
 40
1.0
 40
1.0
 40
2.0
 40
2.0
 40
2.0
 40
3.0
 40
3.0
 40
3.0
 40
4.0
 40
4.0
 40
4.0
 40
5.0
 40
5.0
 40
5.0
 40
6.0
 40
6.0
 40
6.0
 40
7.0
 40
7.0
 40
7.0
 40
8.0
 40
8.0
 40
8.0
 40
9.0
 40
9.0
 40
9.0
 40
10.0
 40
10.0
 40
10.0
 40
11.0
 40
11.0
 40
11.0
 40
12.0
 40
12.0
 40
12.0
 40
13.0
 40
13.0
 40
13.0
 40
14.0
 40
14.0
 40
14.0
 40
15.0
 40
15.0
 40
15.0
 40
16.0
 40
16.0
 40
16.0
 40
17.0
 40
17.0
 40
17.0
 40
18.0
 40
18.0
 40
18.0
 40
19.0
 40
19.0
 40
19.0
 40
20.0
 40
20.0
 40
20.0
 40
21.0
 40
21.0
 40
21.0
 40
22.0
 40
22.0
 40
22.0
 40
23.0
 40
23.0
 40
23.0
 40
24.0
 40
24.0
 40
24.0
 40
25.0
 40
25.0
 40
25.0
 40
26.0
 40
26.0
 40
26.0
 40
27.0
 40
27.0
 40
27.0
 40
28.0
 40
28.0
 40
28.0
 40
29.0
 40
29.0
 40
29.0
 40
30.0
 40
30.0
 40
30.0
 40
31.0
 40
31.0
 40
31.0
 40
32.0
 40
32.0
 40
32.0
 40
33.0
 40
33.0
 40
33.0
 40
34.0
 40
34.0
 40
34.0
 40
35.0
 40
35.0
 40
35.0
 40
36.0
 40
36.0
 40
36.0
 40
37.0
 40
37.0
 40
37.0
 40
38.0
 40
38.0
 40
38.0
 40
39.0
 40
39.0
 40
39.0
 40
40.0
 40
40.0
 40
40.0
 40
41.0
 40
41.0
 40
41.0
 40
42.0
 40
42.0
 40
42.0
 40
43.0
 40
43.0
 40
43.0
 40
44.0
 40
44.0
 40
44.0
 40
45.0
 40
45.0
 40
45.0
 40
46.0
 40
46.0
 40
46.0
 40
47.0
 40
47.0
 40
47.0
 40
48.0
 40
48.0
 40
48.0
 40
49.0
 40
49.0
 40
49.0
 40
50.0
 40
50.0
 40
50.0
 40
51.0
 40
51.0
 40
51.0
 40
52.0
 40
52.0
 40
52.0
 40
53.0
 40
53.0
 40
53.0
 40
54.0
 40
54.0
 40
54.0
 40
55.0
 40
55.0
 40
55.0
 40
56.0
 40
56.0
 40
56.0
 40
57.0
 40
57.0
 40
57.0
 40
58.0
 40
58.0
 40
58.0
 40
59.0
 40
59.0
 40
59.0
 40
60.0
 40
60.0
 40
60.0
 40
61.0
 40
61.0
 40
61.0
 40
62.0
 40
62.0
 40
62.0
 40
63.0
 40
63.0
 40
63.0
 40
64.0
 40
64.0
 40
64.0
 40
65.0
 40
65.0
 40
65.0
 40
66.0
 40
66.0
 40
66.0
 40
67.0
 40
67.0
 40
67.0
 40
68.0
 40
68.0
 40
68.0
 40
69.0
 40
69.0
 40
69.0
 40
70.0
 40
70.0
 40
70.0
 40
71.0
 40
71.0
 40
71.0
 40
72.0
 40
72.0
 40
72.0
 40
73.0
 40
73.0
 40
73.0
 40
74.0
 40
74.0
 40
74.0
 40
75.0
 40
75.0
 40
75.0
 40
76.0
 40
76.0
 40
76.0
 40
77.0
 40
77.0
 40
77.0
 40
78.0
 40
78.0
 40
78.0
 40
79.0
 40
79.0
 40
79.0
 40
79.0
 10
110.2451225852859
 20
-143.4775471646514
 10
110.2451225852859
 20
-143.4775471646514
 10
109.991219048023
 20
-143.4775471646514
 10
109.991219048023
 20
-143.4775471646514
 10
109.991219048023
 20
-143.4775471646514
 10
109.7142333710089
 20
-143.4775471646514
 10
109.7142333710089
 20
-143.4775471646514
 10
109.7142333710089
 20
-143.4775471646514
 10
109.8410128848661
 20
-143.51992183912
 10
109.8410128848661
 20
-143.51992183912
 10
109.8516926808704
 20
-143.5242282084766
 10
109.8644395341658
 20
-143.53042938035
 10
109.8644395341658
 20
-143.5431762336454
 10
109.8644395341658
 20
-143.5643635708797
 10
109.832400146153
 20
-143.5707369975274
 10
109.811385063693
 20
-143.5748711121097
 10
109.8007052676887
 20
-143.5981255066352
 10
109.7710774465155
 20
-143.6637545756292
 10
109.7521294213467
 20
-143.7081963073889
 10
109.7521294213467
 20
-143.7081963073889
 10
110.0229139264873
 20
-143.7081963073889
 10
110.0229139264873
 20
-143.7081963073889
 10
110.1138644472979
 20
-143.7081963073889
 10
110.3105793995057
 20
-143.7038899380324
 10
110.452517333498
 20
-143.6954494540935
 10
110.452517333498
 20
-143.6954494540935
 10
110.452517333498
 20
-143.8732163811324
 10
110.452517333498
 20
-143.8732163811324
 10
110.369835041852
 20
-143.8689100117758
 10
110.3488199593919
 20
-143.8689100117758
 10
110.1689859750619
 20
-143.8647758971935
 10
110.1372910965976
 20
-144.0191161749327
 10
110.0928493648379
 20
-144.0995591545133
 10
110.0484076330782
 20
-144.1693223380896
 10
110.1689859750619
 20
-144.2285779804359
 10
110.2747504064591
 20
-144.296274106721
 10
110.3784477805651
 20
-144.3787841435928
 10
110.3784477805651
 20
-144.3787841435928
 10
110.2599364958725
 20
-144.5458712746274
 10
110.2599364958725
 20
-144.5458712746274
 10
110.2365098465728
 20
-144.5269232494585
 10
110.2237629932774
 20
-144.5184827655197
 10
110.1117973900068
 20
-144.4337334165825
 10
110.0632215436647
 20
-144.3956651114705
 10
110.0039659013184
 20
-144.3598361184239
 10
109.9233506669636
 20
-144.3153943866642
 10
109.7118218041692
 20
-144.501601797642
 10
109.5068386227969
 20
-144.5248561921674
 10
109.2167615829388
 20
-144.5544840133405
 10
109.2167615829388
 20
-144.5544840133405
 10
109.1134087183814
 20
-144.3746500290105
 10
109.1134087183814
 20
-144.3746500290105
 10
109.4307020125729
 20
-144.3703436596539
 10
109.6060573727721
 20
-144.3450222078373
 10
109.7583305932201
 20
-144.2349514070836
 10
109.6401638180761
 20
-144.1841362486762
 10
109.5512803545566
 20
-144.1567477395684
 10
109.5151068519615
 20
-144.144000886273
 10
109.4961588267926
 20
-144.171561650155
 10
109.481344916206
 20
-144.1905096753239
 10
109.453784152324
 20
-144.2244438658536
 10
109.453784152324
 20
-144.2244438658536
 10
109.2570692001163
 20
-144.1419338289819
 10
109.2570692001163
 20
-144.1419338289819
 10
109.3397514917623
 20
-144.0614908494013
 10
109.4010741913997
 20
-143.9662339592341
 10
109.4579182669063
 20
-143.8647758971935
 10
109.2677489961205
 20
-143.8689100117758
 10
109.246389404112
 20
-143.8689100117758
 10
109.1640516220145
 20
-143.8732163811324
 10
109.1640516220145
 20
-143.8732163811324
 10
109.1640516220145
 20
-143.6954494540935
 10
109.1640516220145
 20
-143.6954494540935
 10
109.3035779891671
 20
-143.7018228807412
 10
109.5130397946703
 20
-143.7061292500978
 10
109.5385335012612
 20
-143.7061292500978
 10
109.5554144691389
 20
-143.672195059568
 10
109.6105359969029
 20
-143.5516167175843
 10
109.6294840220718
 20
-143.4775471646514
 10
109.6105359969029
 20
-143.4775471646514
 10
109.432769069864
 20
-143.4839205912991
 10
109.2381211749474
 20
-143.4966674445945
 10
109.2381211749474
 20
-143.4966674445945
 10
109.2381211749474
 20
-143.6299926398737
 10
109.2381211749474
 20
-143.6299926398737
 10
109.1895453286054
 20
-143.6553140916903
 10
109.1302896862591
 20
-143.6870089701546
 10
108.9969644909799
 20
-143.7526380391486
 10
108.9969644909799
 20
-143.7526380391486
 10
108.9969644909799
 20
-143.898537832949
 10
108.9969644909799
 20
-143.898537832949
 10
108.9969644909799
 20
-143.898537832949
 10
108.9969644909799
 20
-144.3662095450716
 10
108.9969644909799
 20
-144.3662095450716
 10
108.9969644909799
 20
-144.4929890589288
 10
108.9607909883848
 20
-144.5522447012751
 10
108.6776041394972
 20
-144.5438042173362
 10
108.6776041394972
 20
-144.5438042173362
 10
108.5739067653912
 20
-144.3365817238985
 10
108.5739067653912
 20
-144.3365817238985
 10
108.6372965223198
 20
-144.3491563224196
 10
108.6858723686618
 20
-144.3534626917762
 10
108.7261799858393
 20
-144.3534626917762
 10
108.8023165960633
 20
-144.3534626917762
 10
108.8129963920676
 20
-144.3302082972508
 10
108.8129963920676
 20
-144.2645792282568
 10
108.8129963920676
 20
-144.2645792282568
 10
108.8129963920676
 20
-143.8351480760204
 10
108.8129963920676
 20
-143.8351480760204
 10
108.715500189835
 20
-143.8752834384235
 10
108.6986192219573
 20
-143.8816568650712
 10
108.6521104329064
 20
-143.9007771450144
 10
108.6479763183241
 20
-143.9217922274744
 10
108.6434976941933
 20
-143.9514200486476
 10
108.6245496690244
 20
-143.9514200486476
 10
108.6162814398598
 20
-143.9514200486476
 10
108.6056016438555
 20
-143.9472859340652
 10
108.5990559624335
 20
-143.9240315395398
 10
108.5990559624335
 20
-143.9240315395398
 10
108.5463460015092
 20
-143.7314507019143
 10
108.5463460015092
 20
-143.7314507019143
 10
108.6924180500838
 20
-143.6849419128634
 10
108.7578748643036
 20
-143.661687518338
 10
108.8129963920676
 20
-143.6405001811037
 10
108.8129963920676
 20
-143.6405001811037
 10
108.8129963920676
 20
-143.2279499967451
 10
108.8129963920676
 20
-143.2279499967451
 10
108.8129963920676
 20
-143.2279499967451
 10
108.7599419215947
 20
-143.2279499967451
 10
108.7599419215947
 20
-143.2279499967451
 10
108.7599419215947
 20
-143.2279499967451
 10
108.6817382540796
 20
-143.2279499967451
 10
108.6817382540796
 20
-143.2279499967451
 10
108.6138698730201
 20
-143.2279499967451
 10
108.6056016438555
 20
-143.2279499967451
 10
108.5694281412604
 20
-143.2343234233928
 10
108.5694281412604
 20
-143.2343234233928
 10
108.5694281412604
 20
-143.0396755284762
 10
108.5694281412604
 20
-143.0396755284762
 10
108.5969889051424
 20
-143.0460489551239
 10
108.6056016438555
 20
-143.0460489551239
 10
108.6751925726576
 20
-143.0460489551239
 10
108.6751925726576
 20
-143.0460489551239
 10
108.8085177679367
 20
-143.0460489551239
 10
108.8085177679367
 20
-143.0460489551239
 10
108.8085177679367
 20
-142.9762857715476
 10
108.8085177679367
 20
-142.8937757346758
 10
108.8064507106456
 20
-142.8894693653193
 10
108.798182481481
 20
-142.7096353809892
 10
108.798182481481
 20
-142.6906873558204
 10
108.7957709146413
 20
-142.6441785667695
 10
108.7957709146413
 20
-142.6441785667695
 10
109.0117784015665
 20
-142.6526190507084
 10
109.0117784015665
 20
-142.6526190507084
 10
109.0224581975708
 20
-142.6526190507084
 10
109.0434732800308
 20
-142.6546861079995
 10
109.0434732800308
 20
-142.6715670758772
 10
109.0434732800308
 20
-142.6906873558204
 10
109.0286593694442
 20
-142.7011948970504
 10
109.0031656628533
 20
-142.7203151769935
 10
109.0031656628533
 20
-142.7709580806267
 10
108.9969644909799
 20
-142.999540166073
 10
108.9990315482711
 20
-143.0460489551239
 10
109.1282226289679
 20
-143.0460489551239
 10
109.1406249727148
 20
-143.0460489551239
 10
109.2381211749474
 20
-143.037608471185
 10
109.2381211749474
 20
-143.037608471185
 10
109.2381211749474
 20
-143.2322563661016
 10
109.2381211749474
 20
-143.2322563661016
 10
109.1998806150611
 20
-143.2300170540362
 10
109.1323567435502
 20
-143.2258829394539
 10
108.9969644909799
 20
-143.2279499967451
 10
108.9969644909799
 20
-143.2279499967451
 10
108.9969644909799
 20
-143.5664306281709
 10
108.9969644909799
 20
-143.5664306281709
 10
109.0520860187439
 20
-143.5431762336454
 10
109.1175428329637
 20
-143.5156154697635
 10
109.1661186793057
 20
-143.492361075238
 10
109.1661186793057
 20
-143.492361075238
 10
109.1661186793057
 20
-143.3147664029734
 10
109.1661186793057
 20
-143.3147664029734
 10
109.280495849416
 20
-143.3273410014946
 10
109.3990071341086
 20
-143.3273410014946
 10
109.5151068519615
 20
-143.3273410014946
 10
109.4920247122103
 20
-143.2322563661016
 10
109.4644639483283
 20
-143.1497463292299
 10
109.4010741913997
 20
-143.0164211339507
 10
109.35663245964
 20
-143.0184881912419
 10
109.273950167994
 20
-143.0227945605984
 10
109.2360541176562
 20
-143.0248616178896
 10
109.2360541176562
 20
-143.0248616178896
 10
109.2360541176562
 20
-142.8450276335596
 10
109.2360541176562
 20
-142.8450276335596
 10
109.3607665742223
 20
-142.8534681174984
 10
109.5343993866789
 20
-142.857774486855
 10
109.6167371687764
 20
-142.857774486855
 10
109.6167371687764
 20
-142.857774486855
 10
109.6994194604224
 20
-142.857774486855
 10
109.6994194604224
 20
-142.857774486855
 10
109.6994194604224
 20
-142.6948214704027
 10
109.6994194604224
 20
-142.6843139291726
 10
109.6970078935827
 20
-142.6293646561829
 10
109.6970078935827
 20
-142.6293646561829
 10
109.9212836096724
 20
-142.6546861079995
 10
109.9212836096724
 20
-142.6546861079995
 10
109.9257622338033
 20
-142.6546861079995
 10
109.9467773162633
 20
-142.6567531652906
 10
109.9467773162633
 20
-142.6736341331684
 10
109.9467773162633
 20
-142.688448043755
 10
109.936097520259
 20
-142.6970607824681
 10
109.908536756377
 20
-142.7118746930547
 10
109.9023355845036
 20
-142.7773315072744
 10
109.9002685272124
 20
-142.7985188445087
 10
109.9002685272124
 20
-142.857774486855
 10
109.9002685272124
 20
-142.857774486855
 10
109.9953531626053
 20
-142.857774486855
 10
109.9953531626053
 20
-142.857774486855
 10
110.0780354542513
 20
-142.857774486855
 10
110.2513237571594
 20
-142.8534681174984
 10
110.376380723274
 20
-142.8450276335596
 10
110.376380723274
 20
-142.8450276335596
 10
110.376380723274
 20
-143.0248616178896
 10
110.376380723274
 20
-143.0248616178896
 10
110.3467529021008
 20
-143.0227945605984
 10
110.2282416174082
 20
-143.0184881912419
 10
110.1879340002308
 20
-143.0164211339507
 10
110.1731200896442
 20
-143.0672362923582
 10
110.1393581538888
 20
-143.179374150403
 10
110.0735568301205
 20
-143.3189005175557
 10
110.115931504589
 20
-143.3189005175557
 10
110.3932616911517
 20
-143.2999524923868
 10
110.4545843907891
 20
-143.2977131803214
 10
110.4545843907891
 20
-143.2977131803214
 10
110.4545843907891
 20
-143.481853534008
 10
110.4545843907891
 20
-143.481853534008
 10
110.424956569616
 20
-143.481853534008
 10
110.4080756017382
 20
-143.4775471646514
 10
110.2451225852859
 20
-143.4775471646514
 97
        0
 97
        1
330
BD
 75
     2
 76
     1
 98
        1
 10
0.0
 20
0.0
450
        0
451
        0
460
0.0
461
0.0
452
        0
462
0.0
453
        0
470

  0
SPLINE
  5
BF
330
B7
100
AcDbEntity
  8
レイヤー 1
100
AcDbSpline
210
0.0
220
0.0
230
1.0
 70
    11
 71
     3
 72
    17
 73
    13
 74
     0
 42
0.0000000001
 43
0.0000000001
 40
0.0
 40
0.0
 40
0.0
 40
0.0
 40
1.0
 40
1.0
 40
1.0
 40
2.0
 40
2.0
 40
2.0
 40
3.0
 40
3.0
 40
3.0
 40
4.0
 40
4.0
 40
4.0
 40
4.0
 10
112.1016845422871
 20
-144.2773260815522
 30
0.0
 10
112.1016845422871
 20
-144.2773260815522
 30
0.0
 10
111.3950954582623
 20
-144.2773260815522
 30
0.0
 10
111.3950954582623
 20
-144.2773260815522
 30
0.0
 10
111.3950954582623
 20
-144.2773260815522
 30
0.0
 10
111.3950954582623
 20
-144.3915309968882
 30
0.0
 10
111.3950954582623
 20
-144.3915309968882
 30
0.0
 10
111.3950954582623
 20
-144.3915309968882
 30
0.0
 10
112.1016845422871
 20
-144.3915309968882
 30
0.0
 10
112.1016845422871
 20
-144.3915309968882
 30
0.0
 10
112.1016845422871
 20
-144.3915309968882
 30
0.0
 10
112.1016845422871
 20
-144.2773260815522
 30
0.0
 10
112.1016845422871
 20
-144.2773260815522
 30
0.0
  0
SPLINE
  5
C0
330
B7
100
AcDbEntity
  8
レイヤー 1
100
AcDbSpline
210
0.0
220
0.0
230
1.0
 70
    11
 71
     3
 72
    17
 73
    13
 74
     0
 42
0.0000000001
 43
0.0000000001
 40
0.0
 40
0.0
 40
0.0
 40
0.0
 40
1.0
 40
1.0
 40
1.0
 40
2.0
 40
2.0
 40
2.0
 40
3.0
 40
3.0
 40
3.0
 40
4.0
 40
4.0
 40
4.0
 40
4.0
 10
112.1016845422871
 20
-144.0339300855193
 30
0.0
 10
112.1016845422871
 20
-144.0339300855193
 30
0.0
 10
111.3950954582623
 20
-144.0339300855193
 30
0.0
 10
111.3950954582623
 20
-144.0339300855193
 30
0.0
 10
111.3950954582623
 20
-144.0339300855193
 30
0.0
 10
111.3950954582623
 20
-144.1483072556296
 30
0.0
 10
111.3950954582623
 20
-144.1483072556296
 30
0.0
 10
111.3950954582623
 20
-144.1483072556296
 30
0.0
 10
112.1016845422871
 20
-144.1483072556296
 30
0.0
 10
112.1016845422871
 20
-144.1483072556296
 30
0.0
 10
112.1016845422871
 20
-144.1483072556296
 30
0.0
 10
112.1016845422871
 20
-144.0339300855193
 30
0.0
 10
112.1016845422871
 20
-144.0339300855193
 30
0.0
  0
SPLINE
  5
C1
330
B7
100
AcDbEntity
  8
レイヤー 1
100
AcDbSpline
210
0.0
220
0.0
230
1.0
 70
    11
 71
     3
 72
    17
 73
    13
 74
     0
 42
0.0000000001
 43
0.0000000001
 40
0.0
 40
0.0
 40
0.0
 40
0.0
 40
1.0
 40
1.0
 40
1.0
 40
2.0
 40
2.0
 40
2.0
 40
3.0
 40
3.0
 40
3.0
 40
4.0
 40
4.0
 40
4.0
 40
4.0
 10
112.1016845422871
 20
-143.8012138854906
 30
0.0
 10
112.1016845422871
 20
-143.8012138854906
 30
0.0
 10
111.3950954582623
 20
-143.8012138854906
 30
0.0
 10
111.3950954582623
 20
-143.8012138854906
 30
0.0
 10
111.3950954582623
 20
-143.8012138854906
 30
0.0
 10
111.3950954582623
 20
-143.9092176289532
 30
0.0
 10
111.3950954582623
 20
-143.9092176289532
 30
0.0
 10
111.3950954582623
 20
-143.9092176289532
 30
0.0
 10
112.1016845422871
 20
-143.9092176289532
 30
0.0
 10
112.1016845422871
 20
-143.9092176289532
 30
0.0
 10
112.1016845422871
 20
-143.9092176289532
 30
0.0
 10
112.1016845422871
 20
-143.8012138854906
 30
0.0
 10
112.1016845422871
 20
-143.8012138854906
 30
0.0
  0
SPLINE
  5
C2
330
B7
100
AcDbEntity
  8
レイヤー 1
100
AcDbSpline
210
0.0
220
0.0
230
1.0
 70
     9
 71
     3
 72
   203
 73
   199
 74
     0
 42
0.0000000001
 43
0.0000000001
 40
0.0
 40
0.0
 40
0.0
 40
0.0
 40
1.0
 40
1.0
 40
1.0
 40
2.0
 40
2.0
 40
2.0
 40
3.0
 40
3.0
 40
3.0
 40
4.0
 40
4.0
 40
4.0
 40
5.0
 40
5.0
 40
5.0
 40
6.0
 40
6.0
 40
6.0
 40
7.0
 40
7.0
 40
7.0
 40
8.0
 40
8.0
 40
8.0
 40
9.0
 40
9.0
 40
9.0
 40
10.0
 40
10.0
 40
10.0
 40
11.0
 40
11.0
 40
11.0
 40
12.0
 40
12.0
 40
12.0
 40
13.0
 40
13.0
 40
13.0
 40
14.0
 40
14.0
 40
14.0
 40
15.0
 40
15.0
 40
15.0
 40
16.0
 40
16.0
 40
16.0
 40
17.0
 40
17.0
 40
17.0
 40
18.0
 40
18.0
 40
18.0
 40
19.0
 40
19.0
 40
19.0
 40
20.0
 40
20.0
 40
20.0
 40
21.0
 40
21.0
 40
21.0
 40
22.0
 40
22.0
 40
22.0
 40
23.0
 40
23.0
 40
23.0
 40
24.0
 40
24.0
 40
24.0
 40
25.0
 40
25.0
 40
25.0
 40
26.0
 40
26.0
 40
26.0
 40
27.0
 40
27.0
 40
27.0
 40
28.0
 40
28.0
 40
28.0
 40
29.0
 40
29.0
 40
29.0
 40
30.0
 40
30.0
 40
30.0
 40
31.0
 40
31.0
 40
31.0
 40
32.0
 40
32.0
 40
32.0
 40
33.0
 40
33.0
 40
33.0
 40
34.0
 40
34.0
 40
34.0
 40
35.0
 40
35.0
 40
35.0
 40
36.0
 40
36.0
 40
36.0
 40
37.0
 40
37.0
 40
37.0
 40
38.0
 40
38.0
 40
38.0
 40
39.0
 40
39.0
 40
39.0
 40
40.0
 40
40.0
 40
40.0
 40
41.0
 40
41.0
 40
41.0
 40
42.0
 40
42.0
 40
42.0
 40
43.0
 40
43.0
 40
43.0
 40
44.0
 40
44.0
 40
44.0
 40
45.0
 40
45.0
 40
45.0
 40
46.0
 40
46.0
 40
46.0
 40
47.0
 40
47.0
 40
47.0
 40
48.0
 40
48.0
 40
48.0
 40
49.0
 40
49.0
 40
49.0
 40
50.0
 40
50.0
 40
50.0
 40
51.0
 40
51.0
 40
51.0
 40
52.0
 40
52.0
 40
52.0
 40
53.0
 40
53.0
 40
53.0
 40
54.0
 40
54.0
 40
54.0
 40
55.0
 40
55.0
 40
55.0
 40
56.0
 40
56.0
 40
56.0
 40
57.0
 40
57.0
 40
57.0
 40
58.0
 40
58.0
 40
58.0
 40
59.0
 40
59.0
 40
59.0
 40
60.0
 40
60.0
 40
60.0
 40
61.0
 40
61.0
 40
61.0
 40
62.0
 40
62.0
 40
62.0
 40
63.0
 40
63.0
 40
63.0
 40
64.0
 40
64.0
 40
64.0
 40
65.0
 40
65.0
 40
65.0
 40
66.0
 40
66.0
 40
66.0
 40
66.0
 10
111.9366644685436
 20
-143.5452432909366
 30
0.0
 10
111.9366644685436
 20
-143.5452432909366
 30
0.0
 10
111.3778699808361
 20
-143.5452432909366
 30
0.0
 10
111.3778699808361
 20
-143.5452432909366
 30
0.0
 10
111.3675346943803
 20
-143.5896850226963
 30
0.0
 10
111.3589219556672
 20
-143.6213799011606
 30
0.0
 10
111.3461751023718
 20
-143.6596204610469
 30
0.0
 10
111.3716688089626
 20
-143.6596204610469
 30
0.0
 10
111.3864827195492
 20
-143.661687518338
 30
0.0
 10
111.3926838914226
 20
-143.661687518338
 30
0.0
 10
111.3926838914226
 20
-143.661687518338
 30
0.0
 10
111.5811306144658
 20
-143.661687518338
 30
0.0
 10
111.5811306144658
 20
-143.661687518338
 30
0.0
 10
111.5811306144658
 20
-143.661687518338
 30
0.0
 10
111.9556124937125
 20
-143.661687518338
 30
0.0
 10
111.9556124937125
 20
-143.661687518338
 30
0.0
 10
112.0062553973456
 20
-143.661687518338
 30
0.0
 10
112.2897867557817
 20
-143.6489406650426
 30
0.0
 10
112.321481634246
 20
-143.6489406650426
 30
0.0
 10
112.3194145769548
 20
-143.6765014289246
 30
0.0
 10
112.3173475196637
 20
-143.6954494540935
 30
0.0
 10
112.3173475196637
 20
-143.7250772752666
 30
0.0
 10
112.3152804623726
 20
-143.7567721537309
 30
0.0
 10
112.3152804623726
 20
-143.8921644063013
 30
0.0
 10
112.3152804623726
 20
-143.9197251701832
 30
0.0
 10
112.3152804623726
 20
-143.9197251701832
 30
0.0
 10
112.3152804623726
 20
-144.1651882235073
 30
0.0
 10
112.3152804623726
 20
-144.1651882235073
 30
0.0
 10
112.3152804623726
 20
-144.209629955267
 30
0.0
 10
112.3194145769548
 20
-144.4063449074748
 30
0.0
 10
112.3235486915372
 20
-144.5586181279228
 30
0.0
 10
112.3235486915372
 20
-144.5586181279228
 30
0.0
 10
112.0972059181562
 20
-144.5586181279228
 30
0.0
 10
112.0972059181562
 20
-144.5586181279228
 30
0.0
 10
112.0972059181562
 20
-144.5586181279228
 30
0.0
 10
112.0992729754474
 20
-144.5248561921674
 30
0.0
 10
112.0992729754474
 20
-144.5248561921674
 30
0.0
 10
112.0992729754474
 20
-144.5248561921674
 30
0.0
 10
111.3971625155535
 20
-144.5248561921674
 30
0.0
 10
111.3971625155535
 20
-144.5248561921674
 30
0.0
 10
111.3971625155535
 20
-144.5248561921674
 30
0.0
 10
111.3992295728446
 20
-144.5586181279228
 30
0.0
 10
111.3992295728446
 20
-144.5586181279228
 30
0.0
 10
111.3992295728446
 20
-144.5586181279228
 30
0.0
 10
111.1811550286283
 20
-144.5586181279228
 30
0.0
 10
111.1811550286283
 20
-144.5586181279228
 30
0.0
 10
111.1856336527591
 20
-144.5036688549331
 30
0.0
 10
111.1856336527591
 20
-144.4909220016377
 30
0.0
 10
111.1918348246326
 20
-144.3767170863016
 30
0.0
 10
111.1939018819237
 20
-144.3491563224196
 30
0.0
 10
111.1959689392149
 20
-144.2160033819147
 30
0.0
 10
111.1959689392149
 20
-144.1968831019716
 30
0.0
 10
111.1959689392149
 20
-144.1968831019716
 30
0.0
 10
111.1959689392149
 20
-143.9937947231161
 30
0.0
 10
111.1959689392149
 20
-143.9937947231161
 30
0.0
 10
111.0564425720623
 20
-144.2433918910225
 30
0.0
 10
110.8872883837365
 20
-144.3746500290105
 30
0.0
 10
110.7815239523393
 20
-144.4401068432302
 30
0.0
 10
110.7815239523393
 20
-144.4401068432302
 30
0.0
 10
110.6078911398827
 20
-144.3005804760776
 30
0.0
 10
110.6078911398827
 20
-144.3005804760776
 30
0.0
 10
110.6967746034022
 20
-144.2497653176702
 30
0.0
 10
110.8407795946856
 20
-144.1629489114419
 30
0.0
 10
110.9782389045471
 20
-143.9684732712995
 30
0.0
 10
111.0691894253577
 20
-143.8415215026681
 30
0.0
 10
111.1346462395774
 20
-143.6976887661589
 30
0.0
 10
111.1687526848814
 20
-143.5452432909366
 30
0.0
 10
110.9399983446608
 20
-143.547482603002
 30
0.0
 10
110.7601643603308
 20
-143.5538560296497
 30
0.0
 10
110.6650797249379
 20
-143.5559230869408
 30
0.0
 10
110.6650797249379
 20
-143.5559230869408
 30
0.0
 10
110.6650797249379
 20
-143.378156159902
 30
0.0
 10
110.6650797249379
 20
-143.378156159902
 30
0.0
 10
110.8617946771456
 20
-143.3845295865497
 30
0.0
 10
111.1453260355817
 20
-143.3888359559063
 30
0.0
 10
111.2955321987386
 20
-143.3888359559063
 30
0.0
 10
111.2955321987386
 20
-143.3888359559063
 30
0.0
 10
111.5091281188241
 20
-143.3888359559063
 30
0.0
 10
111.5091281188241
 20
-143.3888359559063
 30
0.0
 10
111.5091281188241
 20
-143.3888359559063
 30
0.0
 10
111.5091281188241
 20
-143.2808322124437
 30
0.0
 10
111.5091281188241
 20
-143.2808322124437
 30
0.0
 10
111.5091281188241
 20
-143.2808322124437
 30
0.0
 10
111.3630560702495
 20
-143.2808322124437
 30
0.0
 10
111.3630560702495
 20
-143.2808322124437
 30
0.0
 10
111.1939018819237
 20
-143.2808322124437
 30
0.0
 10
111.024747693598
 20
-143.2851385818002
 30
0.0
 10
110.8576605625633
 20
-143.2915120084479
 30
0.0
 10
110.8576605625633
 20
-143.2915120084479
 30
0.0
 10
110.8576605625633
 20
-143.1201185080567
 30
0.0
 10
110.8576605625633
 20
-143.1201185080567
 30
0.0
 10
111.0120008403025
 20
-143.1306260492868
 30
0.0
 10
111.198035996506
 20
-143.1306260492868
 30
0.0
 10
111.3630560702495
 20
-143.1306260492868
 30
0.0
 10
111.3630560702495
 20
-143.1306260492868
 30
0.0
 10
111.5091281188241
 20
-143.1306260492868
 30
0.0
 10
111.5091281188241
 20
-143.1306260492868
 30
0.0
 10
111.5091281188241
 20
-143.1306260492868
 30
0.0
 10
111.5091281188241
 20
-143.0122870193685
 30
0.0
 10
111.5091281188241
 20
-143.0122870193685
 30
0.0
 10
111.5091281188241
 20
-143.0122870193685
 30
0.0
 10
111.3778699808361
 20
-143.0122870193685
 30
0.0
 10
111.3778699808361
 20
-143.0122870193685
 30
0.0
 10
111.3313611917852
 20
-143.0122870193685
 30
0.0
 10
111.128445067704
 20
-143.0207275033073
 30
0.0
 10
111.0860703932354
 20
-143.0207275033073
 30
0.0
 10
110.8831542691542
 20
-143.0248616178896
 30
0.0
 10
110.8066731493816
 20
-143.0269286751808
 30
0.0
 10
110.7284694818665
 20
-143.0291679872462
 30
0.0
 10
110.7284694818665
 20
-143.0291679872462
 30
0.0
 10
110.7284694818665
 20
-142.8450276335596
 30
0.0
 10
110.7284694818665
 20
-142.8450276335596
 30
0.0
 10
110.8428466519768
 20
-142.8534681174984
 30
0.0
 10
110.8872883837365
 20
-142.8534681174984
 30
0.0
 10
111.2700384921478
 20
-142.8620808562115
 30
0.0
 10
111.2066487352191
 20
-142.7668239660444
 30
0.0
 10
111.1790879713371
 20
-142.7392632021624
 30
0.0
 10
111.1432589782906
 20
-142.7032619543415
 30
0.0
 10
111.1432589782906
 20
-142.7032619543415
 30
0.0
 10
111.3186143384898
 20
-142.6207519174698
 30
0.0
 10
111.3186143384898
 20
-142.6207519174698
 30
0.0
 10
111.3589219556672
 20
-142.6567531652906
 30
0.0
 10
111.4033636874269
 20
-142.6991278397592
 30
0.0
 10
111.4774332403598
 20
-142.8090263857387
 30
0.0
 10
111.4774332403598
 20
-142.8090263857387
 30
0.0
 10
111.3630560702495
 20
-142.8641479135027
 30
0.0
 10
111.3630560702495
 20
-142.8641479135027
 30
0.0
 10
111.3630560702495
 20
-142.8641479135027
 30
0.0
 10
111.3737358662538
 20
-142.8641479135027
 30
0.0
 10
111.3737358662538
 20
-142.8641479135027
 30
0.0
 10
111.3737358662538
 20
-142.8641479135027
 30
0.0
 10
111.8963568513662
 20
-142.8641479135027
 30
0.0
 10
111.8963568513662
 20
-142.8641479135027
 30
0.0
 10
111.8963568513662
 20
-142.8641479135027
 30
0.0
 10
111.8012722159733
 20
-142.819706181743
 30
0.0
 10
111.8012722159733
 20
-142.819706181743
 30
0.0
 10
111.8284884703067
 20
-142.781637876631
 30
0.0
 10
111.8856770553619
 20
-142.7011948970504
 30
0.0
 10
111.9004909659485
 20
-142.6271253441175
 30
0.0
 10
111.9004909659485
 20
-142.6271253441175
 30
0.0
 10
112.114086886034
 20
-142.6906873558204
 30
0.0
 10
112.114086886034
 20
-142.6906873558204
 30
0.0
 10
112.1226996247471
 20
-142.6927544131115
 30
0.0
 10
112.1437147072071
 20
-142.7032619543415
 30
0.0
 10
112.1437147072071
 20
-142.7244492915758
 30
0.0
 10
112.1437147072071
 20
-142.7625175966878
 30
0.0
 10
112.0782578929873
 20
-142.7625175966878
 30
0.0
 10
112.0593098678185
 20
-142.7625175966878
 30
0.0
 10
112.0486300718142
 20
-142.781637876631
 30
0.0
 10
112.0252034225145
 20
-142.8217732390341
 30
0.0
 10
111.9955756013414
 20
-142.8620808562115
 30
0.0
 10
112.3955511871789
 20
-142.8557074295638
 30
0.0
 10
112.425179008352
 20
-142.8534681174984
 30
0.0
 10
112.5013156185761
 20
-142.847266945625
 30
0.0
 10
112.5013156185761
 20
-142.847266945625
 30
0.0
 10
112.5013156185761
 20
-143.0291679872462
 30
0.0
 10
112.5013156185761
 20
-143.0291679872462
 30
0.0
 10
112.4823675934072
 20
-143.0291679872462
 30
0.0
 10
112.4568738868163
 20
-143.0269286751808
 30
0.0
 10
112.2370767948574
 20
-143.0184881912419
 30
0.0
 10
112.1860893816757
 20
-143.0164211339507
 30
0.0
 10
111.9662922897167
 20
-143.0122870193685
 30
0.0
 10
111.921850557957
 20
-143.0122870193685
 30
0.0
 10
111.921850557957
 20
-143.0122870193685
 30
0.0
 10
111.7058430710319
 20
-143.0122870193685
 30
0.0
 10
111.7058430710319
 20
-143.0122870193685
 30
0.0
 10
111.7058430710319
 20
-143.0122870193685
 30
0.0
 10
111.7058430710319
 20
-143.1306260492868
 30
0.0
 10
111.7058430710319
 20
-143.1306260492868
 30
0.0
 10
111.7058430710319
 20
-143.1306260492868
 30
0.0
 10
111.8794758834884
 20
-143.1306260492868
 30
0.0
 10
111.8794758834884
 20
-143.1306260492868
 30
0.0
 10
112.0424288999408
 20
-143.1306260492868
 30
0.0
 10
112.2325981707265
 20
-143.1306260492868
 30
0.0
 10
112.3893500153054
 20
-143.1201185080567
 30
0.0
 10
112.3893500153054
 20
-143.1201185080567
 30
0.0
 10
112.3893500153054
 20
-143.2915120084479
 30
0.0
 10
112.3893500153054
 20
-143.2915120084479
 30
0.0
 10
112.1798882098022
 20
-143.2830715245091
 30
0.0
 10
111.9831732575945
 20
-143.2808322124437
 30
0.0
 10
111.8794758834884
 20
-143.2808322124437
 30
0.0
 10
111.8794758834884
 20
-143.2808322124437
 30
0.0
 10
111.7058430710319
 20
-143.2808322124437
 30
0.0
 10
111.7058430710319
 20
-143.2808322124437
 30
0.0
 10
111.7058430710319
 20
-143.2808322124437
 30
0.0
 10
111.7058430710319
 20
-143.3888359559063
 30
0.0
 10
111.7058430710319
 20
-143.3888359559063
 30
0.0
 10
111.7058430710319
 20
-143.3888359559063
 30
0.0
 10
111.9366644685436
 20
-143.3888359559063
 30
0.0
 10
111.9366644685436
 20
-143.3888359559063
 30
0.0
 10
112.0696451542742
 20
-143.3888359559063
 30
0.0
 10
112.3576551368411
 20
-143.3845295865497
 30
0.0
 10
112.5667724327958
 20
-143.378156159902
 30
0.0
 10
112.5667724327958
 20
-143.378156159902
 30
0.0
 10
112.5667724327958
 20
-143.5559230869408
 30
0.0
 10
112.5667724327958
 20
-143.5559230869408
 30
0.0
 10
112.3745361047189
 20
-143.5495496602931
 30
0.0
 10
112.0613769251096
 20
-143.5452432909366
 30
0.0
 10
111.9366644685436
 20
-143.5452432909366
 30
0.0
  0
HATCH
  5
C3
330
B7
100
AcDbEntity
  8
レイヤー 1
 62
   250
420
  2299925
440
 33554687
100
AcDbHatch
 10
0.0
 20
0.0
 30
0.0
210
0.0
220
0.0
230
1.0
  2
SOLID
 70
     1
 71
     1
 91
        4
 92
        1
 93
        1
 72
     4
 94
        3
 73
     0
 74
     0
 95
       17
 96
       13
 40
0.0
 40
0.0
 40
0.0
 40
0.0
 40
1.0
 40
1.0
 40
1.0
 40
2.0
 40
2.0
 40
2.0
 40
3.0
 40
3.0
 40
3.0
 40
4.0
 40
4.0
 40
4.0
 40
4.0
 10
112.1016845422871
 20
-144.2773260815522
 10
112.1016845422871
 20
-144.2773260815522
 10
111.3950954582623
 20
-144.2773260815522
 10
111.3950954582623
 20
-144.2773260815522
 10
111.3950954582623
 20
-144.2773260815522
 10
111.3950954582623
 20
-144.3915309968882
 10
111.3950954582623
 20
-144.3915309968882
 10
111.3950954582623
 20
-144.3915309968882
 10
112.1016845422871
 20
-144.3915309968882
 10
112.1016845422871
 20
-144.3915309968882
 10
112.1016845422871
 20
-144.3915309968882
 10
112.1016845422871
 20
-144.2773260815522
 10
112.1016845422871
 20
-144.2773260815522
 97
        0
 97
        1
330
BF
 92
        1
 93
        1
 72
     4
 94
        3
 73
     0
 74
     0
 95
       17
 96
       13
 40
0.0
 40
0.0
 40
0.0
 40
0.0
 40
1.0
 40
1.0
 40
1.0
 40
2.0
 40
2.0
 40
2.0
 40
3.0
 40
3.0
 40
3.0
 40
4.0
 40
4.0
 40
4.0
 40
4.0
 10
112.1016845422871
 20
-144.0339300855193
 10
112.1016845422871
 20
-144.0339300855193
 10
111.3950954582623
 20
-144.0339300855193
 10
111.3950954582623
 20
-144.0339300855193
 10
111.3950954582623
 20
-144.0339300855193
 10
111.3950954582623
 20
-144.1483072556296
 10
111.3950954582623
 20
-144.1483072556296
 10
111.3950954582623
 20
-144.1483072556296
 10
112.1016845422871
 20
-144.1483072556296
 10
112.1016845422871
 20
-144.1483072556296
 10
112.1016845422871
 20
-144.1483072556296
 10
112.1016845422871
 20
-144.0339300855193
 10
112.1016845422871
 20
-144.0339300855193
 97
        0
 97
        1
330
C0
 92
        1
 93
        1
 72
     4
 94
        3
 73
     0
 74
     0
 95
       17
 96
       13
 40
0.0
 40
0.0
 40
0.0
 40
0.0
 40
1.0
 40
1.0
 40
1.0
 40
2.0
 40
2.0
 40
2.0
 40
3.0
 40
3.0
 40
3.0
 40
4.0
 40
4.0
 40
4.0
 40
4.0
 10
112.1016845422871
 20
-143.8012138854906
 10
112.1016845422871
 20
-143.8012138854906
 10
111.3950954582623
 20
-143.8012138854906
 10
111.3950954582623
 20
-143.8012138854906
 10
111.3950954582623
 20
-143.8012138854906
 10
111.3950954582623
 20
-143.9092176289532
 10
111.3950954582623
 20
-143.9092176289532
 10
111.3950954582623
 20
-143.9092176289532
 10
112.1016845422871
 20
-143.9092176289532
 10
112.1016845422871
 20
-143.9092176289532
 10
112.1016845422871
 20
-143.9092176289532
 10
112.1016845422871
 20
-143.8012138854906
 10
112.1016845422871
 20
-143.8012138854906
 97
        0
 97
        1
330
C1
 92
        1
 93
        1
 72
     4
 94
        3
 73
     0
 74
     0
 95
      203
 96
      199
 40
0.0
 40
0.0
 40
0.0
 40
0.0
 40
1.0
 40
1.0
 40
1.0
 40
2.0
 40
2.0
 40
2.0
 40
3.0
 40
3.0
 40
3.0
 40
4.0
 40
4.0
 40
4.0
 40
5.0
 40
5.0
 40
5.0
 40
6.0
 40
6.0
 40
6.0
 40
7.0
 40
7.0
 40
7.0
 40
8.0
 40
8.0
 40
8.0
 40
9.0
 40
9.0
 40
9.0
 40
10.0
 40
10.0
 40
10.0
 40
11.0
 40
11.0
 40
11.0
 40
12.0
 40
12.0
 40
12.0
 40
13.0
 40
13.0
 40
13.0
 40
14.0
 40
14.0
 40
14.0
 40
15.0
 40
15.0
 40
15.0
 40
16.0
 40
16.0
 40
16.0
 40
17.0
 40
17.0
 40
17.0
 40
18.0
 40
18.0
 40
18.0
 40
19.0
 40
19.0
 40
19.0
 40
20.0
 40
20.0
 40
20.0
 40
21.0
 40
21.0
 40
21.0
 40
22.0
 40
22.0
 40
22.0
 40
23.0
 40
23.0
 40
23.0
 40
24.0
 40
24.0
 40
24.0
 40
25.0
 40
25.0
 40
25.0
 40
26.0
 40
26.0
 40
26.0
 40
27.0
 40
27.0
 40
27.0
 40
28.0
 40
28.0
 40
28.0
 40
29.0
 40
29.0
 40
29.0
 40
30.0
 40
30.0
 40
30.0
 40
31.0
 40
31.0
 40
31.0
 40
32.0
 40
32.0
 40
32.0
 40
33.0
 40
33.0
 40
33.0
 40
34.0
 40
34.0
 40
34.0
 40
35.0
 40
35.0
 40
35.0
 40
36.0
 40
36.0
 40
36.0
 40
37.0
 40
37.0
 40
37.0
 40
38.0
 40
38.0
 40
38.0
 40
39.0
 40
39.0
 40
39.0
 40
40.0
 40
40.0
 40
40.0
 40
41.0
 40
41.0
 40
41.0
 40
42.0
 40
42.0
 40
42.0
 40
43.0
 40
43.0
 40
43.0
 40
44.0
 40
44.0
 40
44.0
 40
45.0
 40
45.0
 40
45.0
 40
46.0
 40
46.0
 40
46.0
 40
47.0
 40
47.0
 40
47.0
 40
48.0
 40
48.0
 40
48.0
 40
49.0
 40
49.0
 40
49.0
 40
50.0
 40
50.0
 40
50.0
 40
51.0
 40
51.0
 40
51.0
 40
52.0
 40
52.0
 40
52.0
 40
53.0
 40
53.0
 40
53.0
 40
54.0
 40
54.0
 40
54.0
 40
55.0
 40
55.0
 40
55.0
 40
56.0
 40
56.0
 40
56.0
 40
57.0
 40
57.0
 40
57.0
 40
58.0
 40
58.0
 40
58.0
 40
59.0
 40
59.0
 40
59.0
 40
60.0
 40
60.0
 40
60.0
 40
61.0
 40
61.0
 40
61.0
 40
62.0
 40
62.0
 40
62.0
 40
63.0
 40
63.0
 40
63.0
 40
64.0
 40
64.0
 40
64.0
 40
65.0
 40
65.0
 40
65.0
 40
66.0
 40
66.0
 40
66.0
 40
66.0
 10
111.9366644685436
 20
-143.5452432909366
 10
111.9366644685436
 20
-143.5452432909366
 10
111.3778699808361
 20
-143.5452432909366
 10
111.3778699808361
 20
-143.5452432909366
 10
111.3675346943803
 20
-143.5896850226963
 10
111.3589219556672
 20
-143.6213799011606
 10
111.3461751023718
 20
-143.6596204610469
 10
111.3716688089626
 20
-143.6596204610469
 10
111.3864827195492
 20
-143.661687518338
 10
111.3926838914226
 20
-143.661687518338
 10
111.3926838914226
 20
-143.661687518338
 10
111.5811306144658
 20
-143.661687518338
 10
111.5811306144658
 20
-143.661687518338
 10
111.5811306144658
 20
-143.661687518338
 10
111.9556124937125
 20
-143.661687518338
 10
111.9556124937125
 20
-143.661687518338
 10
112.0062553973456
 20
-143.661687518338
 10
112.2897867557817
 20
-143.6489406650426
 10
112.321481634246
 20
-143.6489406650426
 10
112.3194145769548
 20
-143.6765014289246
 10
112.3173475196637
 20
-143.6954494540935
 10
112.3173475196637
 20
-143.7250772752666
 10
112.3152804623726
 20
-143.7567721537309
 10
112.3152804623726
 20
-143.8921644063013
 10
112.3152804623726
 20
-143.9197251701832
 10
112.3152804623726
 20
-143.9197251701832
 10
112.3152804623726
 20
-144.1651882235073
 10
112.3152804623726
 20
-144.1651882235073
 10
112.3152804623726
 20
-144.209629955267
 10
112.3194145769548
 20
-144.4063449074748
 10
112.3235486915372
 20
-144.5586181279228
 10
112.3235486915372
 20
-144.5586181279228
 10
112.0972059181562
 20
-144.5586181279228
 10
112.0972059181562
 20
-144.5586181279228
 10
112.0972059181562
 20
-144.5586181279228
 10
112.0992729754474
 20
-144.5248561921674
 10
112.0992729754474
 20
-144.5248561921674
 10
112.0992729754474
 20
-144.5248561921674
 10
111.3971625155535
 20
-144.5248561921674
 10
111.3971625155535
 20
-144.5248561921674
 10
111.3971625155535
 20
-144.5248561921674
 10
111.3992295728446
 20
-144.5586181279228
 10
111.3992295728446
 20
-144.5586181279228
 10
111.3992295728446
 20
-144.5586181279228
 10
111.1811550286283
 20
-144.5586181279228
 10
111.1811550286283
 20
-144.5586181279228
 10
111.1856336527591
 20
-144.5036688549331
 10
111.1856336527591
 20
-144.4909220016377
 10
111.1918348246326
 20
-144.3767170863016
 10
111.1939018819237
 20
-144.3491563224196
 10
111.1959689392149
 20
-144.2160033819147
 10
111.1959689392149
 20
-144.1968831019716
 10
111.1959689392149
 20
-144.1968831019716
 10
111.1959689392149
 20
-143.9937947231161
 10
111.1959689392149
 20
-143.9937947231161
 10
111.0564425720623
 20
-144.2433918910225
 10
110.8872883837365
 20
-144.3746500290105
 10
110.7815239523393
 20
-144.4401068432302
 10
110.7815239523393
 20
-144.4401068432302
 10
110.6078911398827
 20
-144.3005804760776
 10
110.6078911398827
 20
-144.3005804760776
 10
110.6967746034022
 20
-144.2497653176702
 10
110.8407795946856
 20
-144.1629489114419
 10
110.9782389045471
 20
-143.9684732712995
 10
111.0691894253577
 20
-143.8415215026681
 10
111.1346462395774
 20
-143.6976887661589
 10
111.1687526848814
 20
-143.5452432909366
 10
110.9399983446608
 20
-143.547482603002
 10
110.7601643603308
 20
-143.5538560296497
 10
110.6650797249379
 20
-143.5559230869408
 10
110.6650797249379
 20
-143.5559230869408
 10
110.6650797249379
 20
-143.378156159902
 10
110.6650797249379
 20
-143.378156159902
 10
110.8617946771456
 20
-143.3845295865497
 10
111.1453260355817
 20
-143.3888359559063
 10
111.2955321987386
 20
-143.3888359559063
 10
111.2955321987386
 20
-143.3888359559063
 10
111.5091281188241
 20
-143.3888359559063
 10
111.5091281188241
 20
-143.3888359559063
 10
111.5091281188241
 20
-143.3888359559063
 10
111.5091281188241
 20
-143.2808322124437
 10
111.5091281188241
 20
-143.2808322124437
 10
111.5091281188241
 20
-143.2808322124437
 10
111.3630560702495
 20
-143.2808322124437
 10
111.3630560702495
 20
-143.2808322124437
 10
111.1939018819237
 20
-143.2808322124437
 10
111.024747693598
 20
-143.2851385818002
 10
110.8576605625633
 20
-143.2915120084479
 10
110.8576605625633
 20
-143.2915120084479
 10
110.8576605625633
 20
-143.1201185080567
 10
110.8576605625633
 20
-143.1201185080567
 10
111.0120008403025
 20
-143.1306260492868
 10
111.198035996506
 20
-143.1306260492868
 10
111.3630560702495
 20
-143.1306260492868
 10
111.3630560702495
 20
-143.1306260492868
 10
111.5091281188241
 20
-143.1306260492868
 10
111.5091281188241
 20
-143.1306260492868
 10
111.5091281188241
 20
-143.1306260492868
 10
111.5091281188241
 20
-143.0122870193685
 10
111.5091281188241
 20
-143.0122870193685
 10
111.5091281188241
 20
-143.0122870193685
 10
111.3778699808361
 20
-143.0122870193685
 10
111.3778699808361
 20
-143.0122870193685
 10
111.3313611917852
 20
-143.0122870193685
 10
111.128445067704
 20
-143.0207275033073
 10
111.0860703932354
 20
-143.0207275033073
 10
110.8831542691542
 20
-143.0248616178896
 10
110.8066731493816
 20
-143.0269286751808
 10
110.7284694818665
 20
-143.0291679872462
 10
110.7284694818665
 20
-143.0291679872462
 10
110.7284694818665
 20
-142.8450276335596
 10
110.7284694818665
 20
-142.8450276335596
 10
110.8428466519768
 20
-142.8534681174984
 10
110.8872883837365
 20
-142.8534681174984
 10
111.2700384921478
 20
-142.8620808562115
 10
111.2066487352191
 20
-142.7668239660444
 10
111.1790879713371
 20
-142.7392632021624
 10
111.1432589782906
 20
-142.7032619543415
 10
111.1432589782906
 20
-142.7032619543415
 10
111.3186143384898
 20
-142.6207519174698
 10
111.3186143384898
 20
-142.6207519174698
 10
111.3589219556672
 20
-142.6567531652906
 10
111.4033636874269
 20
-142.6991278397592
 10
111.4774332403598
 20
-142.8090263857387
 10
111.4774332403598
 20
-142.8090263857387
 10
111.3630560702495
 20
-142.8641479135027
 10
111.3630560702495
 20
-142.8641479135027
 10
111.3630560702495
 20
-142.8641479135027
 10
111.3737358662538
 20
-142.8641479135027
 10
111.3737358662538
 20
-142.8641479135027
 10
111.3737358662538
 20
-142.8641479135027
 10
111.8963568513662
 20
-142.8641479135027
 10
111.8963568513662
 20
-142.8641479135027
 10
111.8963568513662
 20
-142.8641479135027
 10
111.8012722159733
 20
-142.819706181743
 10
111.8012722159733
 20
-142.819706181743
 10
111.8284884703067
 20
-142.781637876631
 10
111.8856770553619
 20
-142.7011948970504
 10
111.9004909659485
 20
-142.6271253441175
 10
111.9004909659485
 20
-142.6271253441175
 10
112.114086886034
 20
-142.6906873558204
 10
112.114086886034
 20
-142.6906873558204
 10
112.1226996247471
 20
-142.6927544131115
 10
112.1437147072071
 20
-142.7032619543415
 10
112.1437147072071
 20
-142.7244492915758
 10
112.1437147072071
 20
-142.7625175966878
 10
112.0782578929873
 20
-142.7625175966878
 10
112.0593098678185
 20
-142.7625175966878
 10
112.0486300718142
 20
-142.781637876631
 10
112.0252034225145
 20
-142.8217732390341
 10
111.9955756013414
 20
-142.8620808562115
 10
112.3955511871789
 20
-142.8557074295638
 10
112.425179008352
 20
-142.8534681174984
 10
112.5013156185761
 20
-142.847266945625
 10
112.5013156185761
 20
-142.847266945625
 10
112.5013156185761
 20
-143.0291679872462
 10
112.5013156185761
 20
-143.0291679872462
 10
112.4823675934072
 20
-143.0291679872462
 10
112.4568738868163
 20
-143.0269286751808
 10
112.2370767948574
 20
-143.0184881912419
 10
112.1860893816757
 20
-143.0164211339507
 10
111.9662922897167
 20
-143.0122870193685
 10
111.921850557957
 20
-143.0122870193685
 10
111.921850557957
 20
-143.0122870193685
 10
111.7058430710319
 20
-143.0122870193685
 10
111.7058430710319
 20
-143.0122870193685
 10
111.7058430710319
 20
-143.0122870193685
 10
111.7058430710319
 20
-143.1306260492868
 10
111.7058430710319
 20
-143.1306260492868
 10
111.7058430710319
 20
-143.1306260492868
 10
111.8794758834884
 20
-143.1306260492868
 10
111.8794758834884
 20
-143.1306260492868
 10
112.0424288999408
 20
-143.1306260492868
 10
112.2325981707265
 20
-143.1306260492868
 10
112.3893500153054
 20
-143.1201185080567
 10
112.3893500153054
 20
-143.1201185080567
 10
112.3893500153054
 20
-143.2915120084479
 10
112.3893500153054
 20
-143.2915120084479
 10
112.1798882098022
 20
-143.2830715245091
 10
111.9831732575945
 20
-143.2808322124437
 10
111.8794758834884
 20
-143.2808322124437
 10
111.8794758834884
 20
-143.2808322124437
 10
111.7058430710319
 20
-143.2808322124437
 10
111.7058430710319
 20
-143.2808322124437
 10
111.7058430710319
 20
-143.2808322124437
 10
111.7058430710319
 20
-143.3888359559063
 10
111.7058430710319
 20
-143.3888359559063
 10
111.7058430710319
 20
-143.3888359559063
 10
111.9366644685436
 20
-143.3888359559063
 10
111.9366644685436
 20
-143.3888359559063
 10
112.0696451542742
 20
-143.3888359559063
 10
112.3576551368411
 20
-143.3845295865497
 10
112.5667724327958
 20
-143.378156159902
 10
112.5667724327958
 20
-143.378156159902
 10
112.5667724327958
 20
-143.5559230869408
 10
112.5667724327958
 20
-143.5559230869408
 10
112.3745361047189
 20
-143.5495496602931
 10
112.0613769251096
 20
-143.5452432909366
 10
111.9366644685436
 20
-143.5452432909366
 97
        0
 97
        1
330
C2
 75
     2
 76
     1
 98
        1
 10
0.0
 20
0.0
450
        0
451
        0
460
0.0
461
0.0
452
        0
462
0.0
453
        0
470

  0
SPLINE
  5
C4
330
B7
100
AcDbEntity
  8
レイヤー 1
100
AcDbSpline
210
0.0
220
0.0
230
1.0
 70
     9
 71
     3
 72
    29
 73
    25
 74
     0
 42
0.0000000001
 43
0.0000000001
 40
0.0
 40
0.0
 40
0.0
 40
0.0
 40
1.0
 40
1.0
 40
1.0
 40
2.0
 40
2.0
 40
2.0
 40
3.0
 40
3.0
 40
3.0
 40
4.0
 40
4.0
 40
4.0
 40
5.0
 40
5.0
 40
5.0
 40
6.0
 40
6.0
 40
6.0
 40
7.0
 40
7.0
 40
7.0
 40
8.0
 40
8.0
 40
8.0
 40
8.0
 10
113.8118299411651
 20
-142.9931667394253
 30
0.0
 10
113.8118299411651
 20
-142.9931667394253
 30
0.0
 10
113.4583631443784
 20
-142.9931667394253
 30
0.0
 10
113.4583631443784
 20
-142.9931667394253
 30
0.0
 10
113.3463975411078
 20
-142.9931667394253
 30
0.0
 10
113.2068711739552
 20
-142.999540166073
 30
0.0
 10
113.0990396852669
 20
-143.0122870193685
 30
0.0
 10
113.0990396852669
 20
-143.0122870193685
 30
0.0
 10
113.0990396852669
 20
-142.7773315072744
 30
0.0
 10
113.0990396852669
 20
-142.7773315072744
 30
0.0
 10
113.217206460411
 20
-142.792145417861
 30
0.0
 10
113.4015190688718
 20
-142.7964517872175
 30
0.0
 10
113.4583631443784
 20
-142.7964517872175
 30
0.0
 10
113.4583631443784
 20
-142.7964517872175
 30
0.0
 10
113.8118299411651
 20
-142.7964517872175
 30
0.0
 10
113.8118299411651
 20
-142.7964517872175
 30
0.0
 10
113.830777966334
 20
-142.7964517872175
 30
0.0
 10
114.0340385999637
 20
-142.7964517872175
 30
0.0
 10
114.1756320244075
 20
-142.7773315072744
 30
0.0
 10
114.1756320244075
 20
-142.7773315072744
 30
0.0
 10
114.1756320244075
 20
-143.0122870193685
 30
0.0
 10
114.1756320244075
 20
-143.0122870193685
 30
0.0
 10
114.0192246893771
 20
-142.9931667394253
 30
0.0
 10
113.8287109090428
 20
-142.9931667394253
 30
0.0
 10
113.8118299411651
 20
-142.9931667394253
 30
0.0
  0
SPLINE
  5
C5
330
B7
100
AcDbEntity
  8
レイヤー 1
100
AcDbSpline
210
0.0
220
0.0
230
1.0
 70
     9
 71
     3
 72
    47
 73
    43
 74
     0
 42
0.0000000001
 43
0.0000000001
 40
0.0
 40
0.0
 40
0.0
 40
0.0
 40
1.0
 40
1.0
 40
1.0
 40
2.0
 40
2.0
 40
2.0
 40
3.0
 40
3.0
 40
3.0
 40
4.0
 40
4.0
 40
4.0
 40
5.0
 40
5.0
 40
5.0
 40
6.0
 40
6.0
 40
6.0
 40
7.0
 40
7.0
 40
7.0
 40
8.0
 40
8.0
 40
8.0
 40
9.0
 40
9.0
 40
9.0
 40
10.0
 40
10.0
 40
10.0
 40
11.0
 40
11.0
 40
11.0
 40
12.0
 40
12.0
 40
12.0
 40
13.0
 40
13.0
 40
13.0
 40
14.0
 40
14.0
 40
14.0
 40
14.0
 10
113.9134602579799
 20
-143.5219888964112
 30
0.0
 10
113.9134602579799
 20
-143.5219888964112
 30
0.0
 10
113.8118299411651
 20
-143.5219888964112
 30
0.0
 10
113.8118299411651
 20
-143.5219888964112
 30
0.0
 10
113.8118299411651
 20
-143.6088053026394
 30
0.0
 10
113.7908148587051
 20
-143.9981010924727
 30
0.0
 10
113.5940999064973
 20
-144.2180704392059
 30
0.0
 10
113.4414821765007
 20
-144.3872246275317
 30
0.0
 10
113.2344319378372
 20
-144.4571600658822
 30
0.0
 10
113.1496825889001
 20
-144.4845485749899
 30
0.0
 10
113.1496825889001
 20
-144.4845485749899
 30
0.0
 10
112.9550346939834
 20
-144.3174614439553
 30
0.0
 10
112.9550346939834
 20
-144.3174614439553
 30
0.0
 10
113.052530896216
 20
-144.3047145906599
 30
0.0
 10
113.2278862564152
 20
-144.2814601961345
 30
0.0
 10
113.4163329794584
 20
-144.0931857278656
 30
0.0
 10
113.4904025323913
 20
-144.0213554869981
 30
0.0
 10
113.5940999064973
 20
-143.8816568650712
 30
0.0
 10
113.5940999064973
 20
-143.5219888964112
 30
0.0
 10
113.5940999064973
 20
-143.5219888964112
 30
0.0
 10
113.3632785089855
 20
-143.5219888964112
 30
0.0
 10
113.3632785089855
 20
-143.5219888964112
 30
0.0
 10
113.1772433527821
 20
-143.5219888964112
 30
0.0
 10
112.99086368703
 20
-143.5262952657677
 30
0.0
 10
112.8048285308265
 20
-143.5411091763543
 30
0.0
 10
112.8048285308265
 20
-143.5411091763543
 30
0.0
 10
112.8048285308265
 20
-143.3211398296211
 30
0.0
 10
112.8048285308265
 20
-143.3211398296211
 30
0.0
 10
112.9932752538697
 20
-143.3359537402077
 30
0.0
 10
113.2788736695969
 20
-143.3400878547899
 30
0.0
 10
113.3632785089855
 20
-143.3400878547899
 30
0.0
 10
113.3632785089855
 20
-143.3400878547899
 30
0.0
 10
113.9134602579799
 20
-143.3400878547899
 30
0.0
 10
113.9134602579799
 20
-143.3400878547899
 30
0.0
 10
113.9324082831488
 20
-143.3400878547899
 30
0.0
 10
114.2497015773403
 20
-143.3400878547899
 30
0.0
 10
114.4781114080124
 20
-143.3211398296211
 30
0.0
 10
114.4781114080124
 20
-143.3211398296211
 30
0.0
 10
114.4781114080124
 20
-143.5411091763543
 30
0.0
 10
114.4781114080124
 20
-143.5411091763543
 30
0.0
 10
114.2900091945177
 20
-143.5262952657677
 30
0.0
 10
114.1015624714746
 20
-143.5219888964112
 30
0.0
 10
113.9134602579799
 20
-143.5219888964112
 30
0.0
  0
HATCH
  5
C6
330
B7
100
AcDbEntity
  8
レイヤー 1
 62
   250
420
  2299925
440
 33554687
100
AcDbHatch
 10
0.0
 20
0.0
 30
0.0
210
0.0
220
0.0
230
1.0
  2
SOLID
 70
     1
 71
     1
 91
        2
 92
        1
 93
        1
 72
     4
 94
        3
 73
     0
 74
     0
 95
       29
 96
       25
 40
0.0
 40
0.0
 40
0.0
 40
0.0
 40
1.0
 40
1.0
 40
1.0
 40
2.0
 40
2.0
 40
2.0
 40
3.0
 40
3.0
 40
3.0
 40
4.0
 40
4.0
 40
4.0
 40
5.0
 40
5.0
 40
5.0
 40
6.0
 40
6.0
 40
6.0
 40
7.0
 40
7.0
 40
7.0
 40
8.0
 40
8.0
 40
8.0
 40
8.0
 10
113.8118299411651
 20
-142.9931667394253
 10
113.8118299411651
 20
-142.9931667394253
 10
113.4583631443784
 20
-142.9931667394253
 10
113.4583631443784
 20
-142.9931667394253
 10
113.3463975411078
 20
-142.9931667394253
 10
113.2068711739552
 20
-142.999540166073
 10
113.0990396852669
 20
-143.0122870193685
 10
113.0990396852669
 20
-143.0122870193685
 10
113.0990396852669
 20
-142.7773315072744
 10
113.0990396852669
 20
-142.7773315072744
 10
113.217206460411
 20
-142.792145417861
 10
113.4015190688718
 20
-142.7964517872175
 10
113.4583631443784
 20
-142.7964517872175
 10
113.4583631443784
 20
-142.7964517872175
 10
113.8118299411651
 20
-142.7964517872175
 10
113.8118299411651
 20
-142.7964517872175
 10
113.830777966334
 20
-142.7964517872175
 10
114.0340385999637
 20
-142.7964517872175
 10
114.1756320244075
 20
-142.7773315072744
 10
114.1756320244075
 20
-142.7773315072744
 10
114.1756320244075
 20
-143.0122870193685
 10
114.1756320244075
 20
-143.0122870193685
 10
114.0192246893771
 20
-142.9931667394253
 10
113.8287109090428
 20
-142.9931667394253
 10
113.8118299411651
 20
-142.9931667394253
 97
        0
 97
        1
330
C4
 92
        1
 93
        1
 72
     4
 94
        3
 73
     0
 74
     0
 95
       47
 96
       43
 40
0.0
 40
0.0
 40
0.0
 40
0.0
 40
1.0
 40
1.0
 40
1.0
 40
2.0
 40
2.0
 40
2.0
 40
3.0
 40
3.0
 40
3.0
 40
4.0
 40
4.0
 40
4.0
 40
5.0
 40
5.0
 40
5.0
 40
6.0
 40
6.0
 40
6.0
 40
7.0
 40
7.0
 40
7.0
 40
8.0
 40
8.0
 40
8.0
 40
9.0
 40
9.0
 40
9.0
 40
10.0
 40
10.0
 40
10.0
 40
11.0
 40
11.0
 40
11.0
 40
12.0
 40
12.0
 40
12.0
 40
13.0
 40
13.0
 40
13.0
 40
14.0
 40
14.0
 40
14.0
 40
14.0
 10
113.9134602579799
 20
-143.5219888964112
 10
113.9134602579799
 20
-143.5219888964112
 10
113.8118299411651
 20
-143.5219888964112
 10
113.8118299411651
 20
-143.5219888964112
 10
113.8118299411651
 20
-143.6088053026394
 10
113.7908148587051
 20
-143.9981010924727
 10
113.5940999064973
 20
-144.2180704392059
 10
113.4414821765007
 20
-144.3872246275317
 10
113.2344319378372
 20
-144.4571600658822
 10
113.1496825889001
 20
-144.4845485749899
 10
113.1496825889001
 20
-144.4845485749899
 10
112.9550346939834
 20
-144.3174614439553
 10
112.9550346939834
 20
-144.3174614439553
 10
113.052530896216
 20
-144.3047145906599
 10
113.2278862564152
 20
-144.2814601961345
 10
113.4163329794584
 20
-144.0931857278656
 10
113.4904025323913
 20
-144.0213554869981
 10
113.5940999064973
 20
-143.8816568650712
 10
113.5940999064973
 20
-143.5219888964112
 10
113.5940999064973
 20
-143.5219888964112
 10
113.3632785089855
 20
-143.5219888964112
 10
113.3632785089855
 20
-143.5219888964112
 10
113.1772433527821
 20
-143.5219888964112
 10
112.99086368703
 20
-143.5262952657677
 10
112.8048285308265
 20
-143.5411091763543
 10
112.8048285308265
 20
-143.5411091763543
 10
112.8048285308265
 20
-143.3211398296211
 10
112.8048285308265
 20
-143.3211398296211
 10
112.9932752538697
 20
-143.3359537402077
 10
113.2788736695969
 20
-143.3400878547899
 10
113.3632785089855
 20
-143.3400878547899
 10
113.3632785089855
 20
-143.3400878547899
 10
113.9134602579799
 20
-143.3400878547899
 10
113.9134602579799
 20
-143.3400878547899
 10
113.9324082831488
 20
-143.3400878547899
 10
114.2497015773403
 20
-143.3400878547899
 10
114.4781114080124
 20
-143.3211398296211
 10
114.4781114080124
 20
-143.3211398296211
 10
114.4781114080124
 20
-143.5411091763543
 10
114.4781114080124
 20
-143.5411091763543
 10
114.2900091945177
 20
-143.5262952657677
 10
114.1015624714746
 20
-143.5219888964112
 10
113.9134602579799
 20
-143.5219888964112
 97
        0
 97
        1
330
C5
 75
     2
 76
     1
 98
        1
 10
0.0
 20
0.0
450
        0
451
        0
460
0.0
461
0.0
452
        0
462
0.0
453
        0
470

  0
SPLINE
  5
C7
330
B7
100
AcDbEntity
  8
レイヤー 1
100
AcDbSpline
210
0.0
220
0.0
230
1.0
 70
     9
 71
     3
 72
    29
 73
    25
 74
     0
 42
0.0000000001
 43
0.0000000001
 40
0.0
 40
0.0
 40
0.0
 40
0.0
 40
1.0
 40
1.0
 40
1.0
 40
2.0
 40
2.0
 40
2.0
 40
3.0
 40
3.0
 40
3.0
 40
4.0
 40
4.0
 40
4.0
 40
5.0
 40
5.0
 40
5.0
 40
6.0
 40
6.0
 40
6.0
 40
7.0
 40
7.0
 40
7.0
 40
8.0
 40
8.0
 40
8.0
 40
8.0
 10
115.7593424189768
 20
-143.6849419128634
 30
0.0
 10
115.7593424189768
 20
-143.6849419128634
 30
0.0
 10
115.2749619937507
 20
-143.6849419128634
 30
0.0
 10
115.2749619937507
 20
-143.6849419128634
 30
0.0
 10
115.2474012298687
 20
-143.6849419128634
 30
0.0
 10
114.9301079356772
 20
-143.6849419128634
 30
0.0
 10
114.7185790728828
 20
-143.7102633646801
 30
0.0
 10
114.7185790728828
 20
-143.7102633646801
 30
0.0
 10
114.7185790728828
 20
-143.4797864767168
 30
0.0
 10
114.7185790728828
 20
-143.4797864767168
 30
0.0
 10
114.8770534652043
 20
-143.5030408712423
 30
0.0
 10
115.0675672455387
 20
-143.5051079285334
 30
0.0
 10
115.2749619937507
 20
-143.5051079285334
 30
0.0
 10
115.2749619937507
 20
-143.5051079285334
 30
0.0
 10
115.7593424189768
 20
-143.5051079285334
 30
0.0
 10
115.7593424189768
 20
-143.5051079285334
 30
0.0
 10
115.9453775751803
 20
-143.5051079285334
 30
0.0
 10
116.1317572409323
 20
-143.5030408712423
 30
0.0
 10
116.3157253398447
 20
-143.4797864767168
 30
0.0
 10
116.3157253398447
 20
-143.4797864767168
 30
0.0
 10
116.3157253398447
 20
-143.7102633646801
 30
0.0
 10
116.3157253398447
 20
-143.7102633646801
 30
0.0
 10
116.1317572409323
 20
-143.6870089701546
 30
0.0
 10
115.8840548755429
 20
-143.6849419128634
 30
0.0
 10
115.7593424189768
 20
-143.6849419128634
 30
0.0
  0
HATCH
  5
C8
330
B7
100
AcDbEntity
  8
レイヤー 1
 62
   250
420
  2299925
440
 33554687
100
AcDbHatch
 10
0.0
 20
0.0
 30
0.0
210
0.0
220
0.0
230
1.0
  2
SOLID
 70
     1
 71
     1
 91
        1
 92
        1
 93
        1
 72
     4
 94
        3
 73
     0
 74
     0
 95
       29
 96
       25
 40
0.0
 40
0.0
 40
0.0
 40
0.0
 40
1.0
 40
1.0
 40
1.0
 40
2.0
 40
2.0
 40
2.0
 40
3.0
 40
3.0
 40
3.0
 40
4.0
 40
4.0
 40
4.0
 40
5.0
 40
5.0
 40
5.0
 40
6.0
 40
6.0
 40
6.0
 40
7.0
 40
7.0
 40
7.0
 40
8.0
 40
8.0
 40
8.0
 40
8.0
 10
115.7593424189768
 20
-143.6849419128634
 10
115.7593424189768
 20
-143.6849419128634
 10
115.2749619937507
 20
-143.6849419128634
 10
115.2749619937507
 20
-143.6849419128634
 10
115.2474012298687
 20
-143.6849419128634
 10
114.9301079356772
 20
-143.6849419128634
 10
114.7185790728828
 20
-143.7102633646801
 10
114.7185790728828
 20
-143.7102633646801
 10
114.7185790728828
 20
-143.4797864767168
 10
114.7185790728828
 20
-143.4797864767168
 10
114.8770534652043
 20
-143.5030408712423
 10
115.0675672455387
 20
-143.5051079285334
 10
115.2749619937507
 20
-143.5051079285334
 10
115.2749619937507
 20
-143.5051079285334
 10
115.7593424189768
 20
-143.5051079285334
 10
115.7593424189768
 20
-143.5051079285334
 10
115.9453775751803
 20
-143.5051079285334
 10
116.1317572409323
 20
-143.5030408712423
 10
116.3157253398447
 20
-143.4797864767168
 10
116.3157253398447
 20
-143.4797864767168
 10
116.3157253398447
 20
-143.7102633646801
 10
116.3157253398447
 20
-143.7102633646801
 10
116.1317572409323
 20
-143.6870089701546
 10
115.8840548755429
 20
-143.6849419128634
 10
115.7593424189768
 20
-143.6849419128634
 97
        0
 97
        1
330
C7
 75
     2
 76
     1
 98
        1
 10
0.0
 20
0.0
450
        0
451
        0
460
0.0
461
0.0
452
        0
462
0.0
453
        0
470

  0
SPLINE
  5
C9
330
B7
100
AcDbEntity
  8
レイヤー 1
100
AcDbSpline
210
0.0
220
0.0
230
1.0
 70
     9
 71
     3
 72
    17
 73
    13
 74
     0
 42
0.0000000001
 43
0.0000000001
 40
0.0
 40
0.0
 40
0.0
 40
0.0
 40
1.0
 40
1.0
 40
1.0
 40
2.0
 40
2.0
 40
2.0
 40
3.0
 40
3.0
 40
3.0
 40
4.0
 40
4.0
 40
4.0
 40
4.0
 10
118.1781439591707
 20
-142.7180758649281
 30
0.0
 10
118.1233669409553
 20
-142.7180758649281
 30
0.0
 10
118.0789252091955
 20
-142.7625175966878
 30
0.0
 10
118.0789252091955
 20
-142.8176391244518
 30
0.0
 10
118.0789252091955
 20
-142.8746554547327
 30
0.0
 10
118.1233669409553
 20
-142.923403555849
 30
0.0
 10
118.182278073753
 20
-142.923403555849
 30
0.0
 10
118.2415337160993
 20
-142.923403555849
 30
0.0
 10
118.2818413332767
 20
-142.8725883974415
 30
0.0
 10
118.2818413332767
 20
-142.819706181743
 30
0.0
 10
118.2818413332767
 20
-142.7625175966878
 30
0.0
 10
118.2353325442259
 20
-142.7180758649281
 30
0.0
 10
118.1781439591707
 20
-142.7180758649281
 30
0.0
  0
SPLINE
  5
CA
330
B7
100
AcDbEntity
  8
レイヤー 1
100
AcDbSpline
210
0.0
220
0.0
230
1.0
 70
     9
 71
     3
 72
    17
 73
    13
 74
     0
 42
0.0000000001
 43
0.0000000001
 40
0.0
 40
0.0
 40
0.0
 40
0.0
 40
1.0
 40
1.0
 40
1.0
 40
2.0
 40
2.0
 40
2.0
 40
3.0
 40
3.0
 40
3.0
 40
4.0
 40
4.0
 40
4.0
 40
4.0
 10
118.1802110164619
 20
-143.048116012415
 30
0.0
 10
118.0534315026047
 20
-143.048116012415
 30
0.0
 10
117.9518011857898
 20
-142.9466579503744
 30
0.0
 10
117.9518011857898
 20
-142.819706181743
 30
0.0
 10
117.9518011857898
 20
-142.6927544131115
 30
0.0
 10
118.0534315026047
 20
-142.5890570390055
 30
0.0
 10
118.1802110164619
 20
-142.5890570390055
 30
0.0
 10
118.3073350398676
 20
-142.5890570390055
 30
0.0
 10
118.4110324139736
 20
-142.6927544131115
 30
0.0
 10
118.4110324139736
 20
-142.819706181743
 30
0.0
 10
118.4110324139736
 20
-142.9466579503744
 30
0.0
 10
118.3073350398676
 20
-143.048116012415
 30
0.0
 10
118.1802110164619
 20
-143.048116012415
 30
0.0
  0
SPLINE
  5
CB
330
B7
100
AcDbEntity
  8
レイヤー 1
100
AcDbSpline
210
0.0
220
0.0
230
1.0
 70
     9
 71
     3
 72
    44
 73
    40
 74
     0
 42
0.0000000001
 43
0.0000000001
 40
0.0
 40
0.0
 40
0.0
 40
0.0
 40
1.0
 40
1.0
 40
1.0
 40
2.0
 40
2.0
 40
2.0
 40
3.0
 40
3.0
 40
3.0
 40
4.0
 40
4.0
 40
4.0
 40
5.0
 40
5.0
 40
5.0
 40
6.0
 40
6.0
 40
6.0
 40
7.0
 40
7.0
 40
7.0
 40
8.0
 40
8.0
 40
8.0
 40
9.0
 40
9.0
 40
9.0
 40
10.0
 40
10.0
 40
10.0
 40
11.0
 40
11.0
 40
11.0
 40
12.0
 40
12.0
 40
12.0
 40
13.0
 40
13.0
 40
13.0
 40
13.0
 10
117.9707492109587
 20
-143.2470702766882
 30
0.0
 10
117.8587836076881
 20
-143.6151787292871
 30
0.0
 10
117.8081407040549
 20
-143.7738253763829
 30
0.0
 10
117.6114257518471
 20
-144.0234225442893
 30
0.0
 10
117.4271131433862
 20
-144.2540716870268
 30
0.0
 10
117.1904350835496
 20
-144.4401068432302
 30
0.0
 10
116.9110378396958
 20
-144.5332966761062
 30
0.0
 10
116.9110378396958
 20
-144.5332966761062
 30
0.0
 10
116.7184570020704
 20
-144.3534626917762
 30
0.0
 10
116.7184570020704
 20
-144.3534626917762
 30
0.0
 10
117.3595892718753
 20
-144.2011894713282
 30
0.0
 10
117.6896294193623
 20
-143.6448065504603
 30
0.0
 10
117.7530191762909
 20
-143.2046956022196
 30
0.0
 10
117.7530191762909
 20
-143.2046956022196
 30
0.0
 10
116.9871744499199
 20
-143.2046956022196
 30
0.0
 10
116.9871744499199
 20
-143.2046956022196
 30
0.0
 10
116.8941568718181
 20
-143.2046956022196
 30
0.0
 10
116.7101887729058
 20
-143.2090019715762
 30
0.0
 10
116.5534369283269
 20
-143.2279499967451
 30
0.0
 10
116.5534369283269
 20
-143.2279499967451
 30
0.0
 10
116.5534369283269
 20
-143.0079806500119
 30
0.0
 10
116.5534369283269
 20
-143.0079806500119
 30
0.0
 10
116.6402533345552
 20
-143.0291679872462
 30
0.0
 10
116.892089814527
 20
-143.0291679872462
 30
0.0
 10
116.9913085645021
 20
-143.0291679872462
 30
0.0
 10
116.9913085645021
 20
-143.0291679872462
 30
0.0
 10
117.422979028804
 20
-143.0291679872462
 30
0.0
 10
117.422979028804
 20
-143.0291679872462
 30
0.0
 10
117.4653537032725
 20
-143.0291679872462
 30
0.0
 10
117.699964705818
 20
-143.0269286751808
 30
0.0
 10
117.7382052657043
 20
-143.0207275033073
 30
0.0
 10
117.7805799401729
 20
-143.0143540766596
 30
0.0
 10
117.7826469974641
 20
-143.0122870193685
 30
0.0
 10
117.8439696971015
 20
-142.971979402191
 30
0.0
 10
117.8439696971015
 20
-142.971979402191
 30
0.0
 10
118.0320719105961
 20
-143.1264919347045
 30
0.0
 10
118.0320719105961
 20
-143.1264919347045
 30
0.0
 10
118.0027885989715
 20
-143.1561197558776
 30
0.0
 10
117.9879746883849
 20
-143.1878146343419
 30
0.0
 10
117.9707492109587
 20
-143.2470702766882
 30
0.0
  0
HATCH
  5
CC
330
B7
100
AcDbEntity
  8
レイヤー 1
 62
   250
420
  2299925
440
 33554687
100
AcDbHatch
 10
0.0
 20
0.0
 30
0.0
210
0.0
220
0.0
230
1.0
  2
SOLID
 70
     1
 71
     1
 91
        3
 92
        1
 93
        1
 72
     4
 94
        3
 73
     0
 74
     0
 95
       17
 96
       13
 40
0.0
 40
0.0
 40
0.0
 40
0.0
 40
1.0
 40
1.0
 40
1.0
 40
2.0
 40
2.0
 40
2.0
 40
3.0
 40
3.0
 40
3.0
 40
4.0
 40
4.0
 40
4.0
 40
4.0
 10
118.1781439591707
 20
-142.7180758649281
 10
118.1233669409553
 20
-142.7180758649281
 10
118.0789252091955
 20
-142.7625175966878
 10
118.0789252091955
 20
-142.8176391244518
 10
118.0789252091955
 20
-142.8746554547327
 10
118.1233669409553
 20
-142.923403555849
 10
118.182278073753
 20
-142.923403555849
 10
118.2415337160993
 20
-142.923403555849
 10
118.2818413332767
 20
-142.8725883974415
 10
118.2818413332767
 20
-142.819706181743
 10
118.2818413332767
 20
-142.7625175966878
 10
118.2353325442259
 20
-142.7180758649281
 10
118.1781439591707
 20
-142.7180758649281
 97
        0
 97
        1
330
C9
 92
        1
 93
        1
 72
     4
 94
        3
 73
     0
 74
     0
 95
       17
 96
       13
 40
0.0
 40
0.0
 40
0.0
 40
0.0
 40
1.0
 40
1.0
 40
1.0
 40
2.0
 40
2.0
 40
2.0
 40
3.0
 40
3.0
 40
3.0
 40
4.0
 40
4.0
 40
4.0
 40
4.0
 10
118.1802110164619
 20
-143.048116012415
 10
118.0534315026047
 20
-143.048116012415
 10
117.9518011857898
 20
-142.9466579503744
 10
117.9518011857898
 20
-142.819706181743
 10
117.9518011857898
 20
-142.6927544131115
 10
118.0534315026047
 20
-142.5890570390055
 10
118.1802110164619
 20
-142.5890570390055
 10
118.3073350398676
 20
-142.5890570390055
 10
118.4110324139736
 20
-142.6927544131115
 10
118.4110324139736
 20
-142.819706181743
 10
118.4110324139736
 20
-142.9466579503744
 10
118.3073350398676
 20
-143.048116012415
 10
118.1802110164619
 20
-143.048116012415
 97
        0
 97
        1
330
CA
 92
        1
 93
        1
 72
     4
 94
        3
 73
     0
 74
     0
 95
       44
 96
       40
 40
0.0
 40
0.0
 40
0.0
 40
0.0
 40
1.0
 40
1.0
 40
1.0
 40
2.0
 40
2.0
 40
2.0
 40
3.0
 40
3.0
 40
3.0
 40
4.0
 40
4.0
 40
4.0
 40
5.0
 40
5.0
 40
5.0
 40
6.0
 40
6.0
 40
6.0
 40
7.0
 40
7.0
 40
7.0
 40
8.0
 40
8.0
 40
8.0
 40
9.0
 40
9.0
 40
9.0
 40
10.0
 40
10.0
 40
10.0
 40
11.0
 40
11.0
 40
11.0
 40
12.0
 40
12.0
 40
12.0
 40
13.0
 40
13.0
 40
13.0
 40
13.0
 10
117.9707492109587
 20
-143.2470702766882
 10
117.8587836076881
 20
-143.6151787292871
 10
117.8081407040549
 20
-143.7738253763829
 10
117.6114257518471
 20
-144.0234225442893
 10
117.4271131433862
 20
-144.2540716870268
 10
117.1904350835496
 20
-144.4401068432302
 10
116.9110378396958
 20
-144.5332966761062
 10
116.9110378396958
 20
-144.5332966761062
 10
116.7184570020704
 20
-144.3534626917762
 10
116.7184570020704
 20
-144.3534626917762
 10
117.3595892718753
 20
-144.2011894713282
 10
117.6896294193623
 20
-143.6448065504603
 10
117.7530191762909
 20
-143.2046956022196
 10
117.7530191762909
 20
-143.2046956022196
 10
116.9871744499199
 20
-143.2046956022196
 10
116.9871744499199
 20
-143.2046956022196
 10
116.8941568718181
 20
-143.2046956022196
 10
116.7101887729058
 20
-143.2090019715762
 10
116.5534369283269
 20
-143.2279499967451
 10
116.5534369283269
 20
-143.2279499967451
 10
116.5534369283269
 20
-143.0079806500119
 10
116.5534369283269
 20
-143.0079806500119
 10
116.6402533345552
 20
-143.0291679872462
 10
116.892089814527
 20
-143.0291679872462
 10
116.9913085645021
 20
-143.0291679872462
 10
116.9913085645021
 20
-143.0291679872462
 10
117.422979028804
 20
-143.0291679872462
 10
117.422979028804
 20
-143.0291679872462
 10
117.4653537032725
 20
-143.0291679872462
 10
117.699964705818
 20
-143.0269286751808
 10
117.7382052657043
 20
-143.0207275033073
 10
117.7805799401729
 20
-143.0143540766596
 10
117.7826469974641
 20
-143.0122870193685
 10
117.8439696971015
 20
-142.971979402191
 10
117.8439696971015
 20
-142.971979402191
 10
118.0320719105961
 20
-143.1264919347045
 10
118.0320719105961
 20
-143.1264919347045
 10
118.0027885989715
 20
-143.1561197558776
 10
117.9879746883849
 20
-143.1878146343419
 10
117.9707492109587
 20
-143.2470702766882
 97
        0
 97
        1
330
CB
 75
     2
 76
     1
 98
        1
 10
0.0
 20
0.0
450
        0
451
        0
460
0.0
461
0.0
452
        0
462
0.0
453
        0
470

  0
ENDBLK
  5
BA
330
B7
100
AcDbEntity
  8
0
100
AcDbBlockEnd
  0
ENDSEC
  0
SECTION
  2
ENTITIES
  0
INSERT
  5
7A
330
70
100
AcDbEntity
  8
レイヤー 1
100
AcDbBlockReference
  2
Block_0
 10
0.0
 20
0.0
 30
0.0
  0
LINE
  5
AE
330
70
100
AcDbEntity
  8
レイヤー 1
  6
AI-Linetype-0
 62
   154
420
    23468
370
    25
100
AcDbLine
 10
108.4267153361203
 20
-150.5142856956133
 30
0.0
 11
128.4270628814245
 21
-150.5142856956133
 31
0.0
  0
LINE
  5
B0
330
70
100
AcDbEntity
  8
レイヤー 1
 62
   250
420
  2299925
370
     9
100
AcDbLine
 10
113.4271285418825
 20
-150.0140876371424
 30
0.0
 11
113.6855057320376
 21
-149.0480762728985
 31
0.0
  0
LINE
  5
B1
330
70
100
AcDbEntity
  8
レイヤー 1
 62
   250
420
  2299925
370
     9
100
AcDbLine
 10
113.4271285418825
 20
-150.0140875191417
 30
0.0
 11
113.4271285418825
 21
-145.2706496958064
 31
0.0
  0
LINE
  5
B2
330
70
100
AcDbEntity
  8
レイヤー 1
 62
   250
420
  2299925
370
     9
100
AcDbLine
 10
113.4271285418825
 20
-150.0140876371424
 30
0.0
 11
113.1680485484921
 21
-149.0480762728985
 31
0.0
  0
INSERT
  5
B4
330
70
100
AcDbEntity
  8
レイヤー 1
100
AcDbBlockReference
  2
Block_6
 10
0.0
 20
0.0
 30
0.0
  0
ENDSEC
  0
SECTION
  2
OBJECTS
  0
DICTIONARY
  5
C
330
0
100
AcDbDictionary
281
     1
  3
ACAD_COLOR
350
63
  3
ACAD_DETAILVIEWSTYLE
350
6A
  3
ACAD_GROUP
350
D
  3
ACAD_LAYOUT
350
62
  3
ACAD_MATERIAL
350
10
  3
ACAD_MLEADERSTYLE
350
66
  3
ACAD_MLINESTYLE
350
5F
  3
ACAD_PLOTSETTINGS
350
61
  3
ACAD_PLOTSTYLENAME
350
E
  3
ACAD_SCALELIST
350
42
  3
ACAD_SECTIONVIEWSTYLE
350
68
  3
ACAD_TABLESTYLE
350
64
  3
ACAD_VISUALSTYLE
350
29
  3
ACDB_RECOMPOSE_DATA
350
D5
  3
AcDbVariableDictionary
350
CD
  0
DICTIONARY
  5
63
102
{ACAD_REACTORS
330
C
102
}
330
C
100
AcDbDictionary
281
     1
  0
DICTIONARY
  5
6A
102
{ACAD_REACTORS
330
C
102
}
330
C
100
AcDbDictionary
281
     1
  3
Imperial24
350
6B
  0
DICTIONARY
  5
D
102
{ACAD_REACTORS
330
C
102
}
330
C
100
AcDbDictionary
281
     1
  0
DICTIONARY
  5
62
102
{ACAD_REACTORS
330
C
102
}
330
C
100
AcDbDictionary
281
     1
  3
Layout1
350
6F
  3
Layout2
350
77
  3
Model
350
73
  0
DICTIONARY
  5
10
102
{ACAD_REACTORS
330
C
102
}
330
C
100
AcDbDictionary
281
     1
  3
ByBlock
350
19
  3
ByLayer
350
11
  3
Global
350
21
  0
DICTIONARY
  5
66
102
{ACAD_REACTORS
330
C
102
}
330
C
100
AcDbDictionary
281
     1
  3
Standard
350
67
  0
DICTIONARY
  5
5F
102
{ACAD_REACTORS
330
C
102
}
330
C
100
AcDbDictionary
281
     1
  3
Standard
350
60
  0
DICTIONARY
  5
61
102
{ACAD_REACTORS
330
C
102
}
330
C
100
AcDbDictionary
281
     1
  0
ACDBDICTIONARYWDFLT
  5
E
102
{ACAD_REACTORS
330
C
102
}
330
C
100
AcDbDictionary
281
     1
  3
Normal
350
F
100
AcDbDictionaryWithDefault
340
F
  0
DICTIONARY
  5
42
102
{ACAD_REACTORS
330
C
102
}
330
C
100
AcDbDictionary
281
     1
  3
A0
350
43
  3
A1
350
44
  3
A2
350
45
  3
A3
350
46
  3
A4
350
47
  3
A5
350
48
  3
A6
350
49
  3
A7
350
4A
  3
A8
350
4B
  3
A9
350
4C
  3
B0
350
4D
  3
B1
350
4E
  3
B2
350
4F
  3
B3
350
50
  3
B4
350
51
  3
B5
350
52
  3
B6
350
53
  0
DICTIONARY
  5
68
102
{ACAD_REACTORS
330
C
102
}
330
C
100
AcDbDictionary
281
     1
  3
Imperial24
350
69
  0
DICTIONARY
  5
64
102
{ACAD_REACTORS
330
C
102
}
330
C
100
AcDbDictionary
281
     1
  3
Standard
350
65
  0
DICTIONARY
  5
29
102
{ACAD_REACTORS
330
C
102
}
330
C
100
AcDbDictionary
281
     1
  3
2dWireframe
350
2F
  3
Basic
350
2E
  3
Brighten
350
35
  3
ColorChange
350
39
  3
Conceptual
350
32
  3
Dim
350
34
  3
EdgeColorOff
350
41
  3
Facepattern
350
38
  3
Flat
350
2A
  3
FlatWithEdges
350
2B
  3
Gouraud
350
2C
  3
GouraudWithEdges
350
2D
  3
Hidden
350
31
  3
JitterOff
350
3F
  3
Linepattern
350
37
  3
OverhangOff
350
40
  3
Realistic
350
33
  3
Shaded
350
3E
  3
Shaded with edges
350
3D
  3
Shades of Gray
350
3A
  3
Sketchy
350
3B
  3
Thicken
350
36
  3
Wireframe
350
30
  3
X-Ray
350
3C
  0
XRECORD
  5
D5
102
{ACAD_REACTORS
330
C
102
}
330
C
100
AcDbXrecord
280
     1
 90
        1
330
65
  0
DICTIONARY
  5
CD
102
{ACAD_REACTORS
330
C
102
}
330
C
100
AcDbDictionary
281
     1
  3
CANNOSCALE
350
D2
  3
CMLEADERSTYLE
350
CF
  3
CTABLESTYLE
350
CE
  3
CVIEWDETAILSTYLE
350
D0
  3
CVIEWSECTIONSTYLE
350
D1
  0
ACDBDETAILVIEWSTYLE
  5
6B
102
{ACAD_XDICTIONARY
360
10A
102
}
102
{ACAD_REACTORS
330
6A
102
}
330
6A
100
AcDbModelDocViewStyle
 70
     0
  3
Imperial24
290
     0
100
AcDbDetailViewStyle
 70
     0
 71
     0
 90
        3
 71
     1
340
55
 62
   256
 40
0.24
340
0
 62
   256
 40
0.24
300

 40
0.36
280
     3
 71
     2
340
5D
 90
       25
 62
   256
 71
     3
340
55
 62
   256
 40
0.24
 90
        1
 40
0.75
 90
        1
300
%<\AcVar ViewType \f "%tc1">% %<\AcVar ViewDetailId>%\PSCALE %<\AcVar ViewScale \f "%sn">%
 71
     4
340
5D
 90
       25
 62
   256
340
5D
 90
       25
 62
   256
280
     0
  0
LAYOUT
  5
6F
102
{ACAD_REACTORS
330
62
102
}
330
62
100
AcDbPlotSettings
  1

  2

  4

  6

 40
0.0
 41
0.0
 42
0.0
 43
0.0
 44
0.0
 45
0.0
 46
0.0
 47
0.0
 48
0.0
 49
0.0
140
0.0
141
0.0
142
1.0
143
1.0
 70
   688
 72
     0
 73
     0
 74
     5
  7

 75
    16
147
1.0
 76
     0
 77
     2
 78
   300
148
0.0
149
0.0
100
AcDbLayout
  1
Layout1
 70
     1
 71
     1
 10
0.0
 20
0.0
 11
12.0
 21
9.0
 12
0.0
 22
0.0
 32
0.0
 14
0.0
 24
0.0
 34
0.0
 15
0.0
 25
0.0
 35
0.0
146
0.0
 13
0.0
 23
0.0
 33
0.0
 16
1.0
 26
0.0
 36
0.0
 17
0.0
 27
1.0
 37
0.0
 76
     0
330
6C
  0
LAYOUT
  5
77
102
{ACAD_REACTORS
330
62
102
}
330
62
100
AcDbPlotSettings
  1

  2

  4

  6

 40
0.0
 41
0.0
 42
0.0
 43
0.0
 44
0.0
 45
0.0
 46
0.0
 47
0.0
 48
0.0
 49
0.0
140
0.0
141
0.0
142
1.0
143
1.0
 70
   688
 72
     0
 73
     0
 74
     5
  7

 75
    16
147
1.0
 76
     0
 77
     2
 78
   300
148
0.0
149
0.0
100
AcDbLayout
  1
Layout2
 70
     1
 71
     2
 10
0.0
 20
0.0
 11
12.0
 21
9.0
 12
0.0
 22
0.0
 32
0.0
 14
0.0
 24
0.0
 34
0.0
 15
0.0
 25
0.0
 35
0.0
146
0.0
 13
0.0
 23
0.0
 33
0.0
 16
1.0
 26
0.0
 36
0.0
 17
0.0
 27
1.0
 37
0.0
 76
     0
330
74
  0
LAYOUT
  5
73
102
{ACAD_REACTORS
330
62
102
}
330
62
100
AcDbPlotSettings
  1

  2

  4

  6

 40
0.0
 41
0.0
 42
0.0
 43
0.0
 44
0.0
 45
0.0
 46
0.0
 47
0.0
 48
0.0
 49
0.0
140
0.0
141
0.0
142
1.0
143
1.0
 70
  1712
 72
     0
 73
     0
 74
     0
  7

 75
     0
147
1.0
 76
     0
 77
     2
 78
   300
148
0.0
149
0.0
100
AcDbLayout
  1
Model
 70
     1
 71
     0
 10
0.0
 20
0.0
 11
12.0
 21
9.0
 12
0.0
 22
0.0
 32
0.0
 14
0.0
 24
0.0
 34
0.0
 15
0.0
 25
0.0
 35
0.0
146
0.0
 13
0.0
 23
0.0
 33
0.0
 16
1.0
 26
0.0
 36
0.0
 17
0.0
 27
1.0
 37
0.0
 76
     0
330
70
  0
MATERIAL
  5
19
102
{ACAD_XDICTIONARY
360
1A
102
}
102
{ACAD_REACTORS
330
10
102
}
330
10
100
AcDbMaterial
  1
ByBlock
 72
     0
 43
0.0208333333333333
 43
0.0
 43
0.0
 43
0.0
 43
0.0
 43
0.0208333333333333
 43
0.0
 43
0.0
 43
0.0
 43
0.0
 43
1.0
 43
0.0
 43
0.0
 43
0.0
 43
0.0
 43
1.0
 77
     0
 47
0.0208333333333333
 47
0.0
 47
0.0
 47
0.0
 47
0.0
 47
0.0208333333333333
 47
0.0
 47
0.0
 47
0.0
 47
0.0
 47
1.0
 47
0.0
 47
0.0
 47
0.0
 47
0.0
 47
1.0
171
     0
 49
0.0208333333333333
 49
0.0
 49
0.0
 49
0.0
 49
0.0
 49
0.0208333333333333
 49
0.0
 49
0.0
 49
0.0
 49
0.0
 49
1.0
 49
0.0
 49
0.0
 49
0.0
 49
0.0
 49
1.0
175
     0
142
0.0208333333333333
142
0.0
142
0.0
142
0.0
142
0.0
142
0.0208333333333333
142
0.0
142
0.0
142
0.0
142
0.0
142
1.0
142
0.0
142
0.0
142
0.0
142
0.0
142
1.0
179
     0
144
0.0208333333333333
144
0.0
144
0.0
144
0.0
144
0.0
144
0.0208333333333333
144
0.0
144
0.0
144
0.0
144
0.0
144
1.0
144
0.0
144
0.0
144
0.0
144
0.0
144
1.0
147
0.0208333333333333
147
0.0
147
0.0
147
0.0
147
0.0
147
0.0208333333333333
147
0.0
147
0.0
147
0.0
147
0.0
147
1.0
147
0.0
147
0.0
147
0.0
147
0.0
147
1.0
  0
MATERIAL
  5
11
102
{ACAD_XDICTIONARY
360
12
102
}
102
{ACAD_REACTORS
330
10
102
}
330
10
100
AcDbMaterial
  1
ByLayer
 72
     0
 43
0.0208333333333333
 43
0.0
 43
0.0
 43
0.0
 43
0.0
 43
0.0208333333333333
 43
0.0
 43
0.0
 43
0.0
 43
0.0
 43
1.0
 43
0.0
 43
0.0
 43
0.0
 43
0.0
 43
1.0
 77
     0
 47
0.0208333333333333
 47
0.0
 47
0.0
 47
0.0
 47
0.0
 47
0.0208333333333333
 47
0.0
 47
0.0
 47
0.0
 47
0.0
 47
1.0
 47
0.0
 47
0.0
 47
0.0
 47
0.0
 47
1.0
171
     0
 49
0.0208333333333333
 49
0.0
 49
0.0
 49
0.0
 49
0.0
 49
0.0208333333333333
 49
0.0
 49
0.0
 49
0.0
 49
0.0
 49
1.0
 49
0.0
 49
0.0
 49
0.0
 49
0.0
 49
1.0
175
     0
142
0.0208333333333333
142
0.0
142
0.0
142
0.0
142
0.0
142
0.0208333333333333
142
0.0
142
0.0
142
0.0
142
0.0
142
1.0
142
0.0
142
0.0
142
0.0
142
0.0
142
1.0
179
     0
144
0.0208333333333333
144
0.0
144
0.0
144
0.0
144
0.0
144
0.0208333333333333
144
0.0
144
0.0
144
0.0
144
0.0
144
1.0
144
0.0
144
0.0
144
0.0
144
0.0
144
1.0
147
0.0208333333333333
147
0.0
147
0.0
147
0.0
147
0.0
147
0.0208333333333333
147
0.0
147
0.0
147
0.0
147
0.0
147
1.0
147
0.0
147
0.0
147
0.0
147
0.0
147
1.0
  0
MATERIAL
  5
21
102
{ACAD_XDICTIONARY
360
22
102
}
102
{ACAD_REACTORS
330
10
102
}
330
10
100
AcDbMaterial
  1
Global
 72
     0
 43
0.0208333333333333
 43
0.0
 43
0.0
 43
0.0
 43
0.0
 43
0.0208333333333333
 43
0.0
 43
0.0
 43
0.0
 43
0.0
 43
1.0
 43
0.0
 43
0.0
 43
0.0
 43
0.0
 43
1.0
 77
     0
 47
0.0208333333333333
 47
0.0
 47
0.0
 47
0.0
 47
0.0
 47
0.0208333333333333
 47
0.0
 47
0.0
 47
0.0
 47
0.0
 47
1.0
 47
0.0
 47
0.0
 47
0.0
 47
0.0
 47
1.0
171
     0
 49
0.0208333333333333
 49
0.0
 49
0.0
 49
0.0
 49
0.0
 49
0.0208333333333333
 49
0.0
 49
0.0
 49
0.0
 49
0.0
 49
1.0
 49
0.0
 49
0.0
 49
0.0
 49
0.0
 49
1.0
175
     0
142
0.0208333333333333
142
0.0
142
0.0
142
0.0
142
0.0
142
0.0208333333333333
142
0.0
142
0.0
142
0.0
142
0.0
142
1.0
142
0.0
142
0.0
142
0.0
142
0.0
142
1.0
179
     0
144
0.0208333333333333
144
0.0
144
0.0
144
0.0
144
0.0
144
0.0208333333333333
144
0.0
144
0.0
144
0.0
144
0.0
144
1.0
144
0.0
144
0.0
144
0.0
144
0.0
144
1.0
147
0.0208333333333333
147
0.0
147
0.0
147
0.0
147
0.0
147
0.0208333333333333
147
0.0
147
0.0
147
0.0
147
0.0
147
1.0
147
0.0
147
0.0
147
0.0
147
0.0
147
1.0
  0
MLEADERSTYLE
  5
67
102
{ACAD_XDICTIONARY
360
106
102
}
102
{ACAD_REACTORS
330
66
102
}
330
66
100
AcDbMLeaderStyle
179
     2
170
     2
171
     1
172
     0
 90
        2
 40
0.0
 41
0.0
173
     1
 91
-1056964608
340
5B
 92
       -2
290
     1
 42
0.09
291
     1
 43
0.36
  3
Standard
 44
0.18
300

342
55
174
     1
178
     6
175
     1
176
     0
 93
-1056964608
 45
0.18
292
     0
297
     0
 46
0.18
 94
-1056964608
 47
1.0
 49
1.0
140
1.0
293
     1
141
0.0
294
     1
177
     0
142
1.0
295
     0
296
     0
143
0.125
271
     0
272
     9
273
     9
  0
MLINESTYLE
  5
60
102
{ACAD_REACTORS
330
5F
102
}
330
5F
100
AcDbMlineStyle
  2
STANDARD
 70
     0
  3

 62
   256
 51
90.0
 52
90.0
 71
     2
 49
0.5
 62
   256
  6
BYLAYER
 49
-0.5
 62
   256
  6
BYLAYER
  0
ACDBPLACEHOLDER
  5
F
102
{ACAD_REACTORS
330
E
102
}
330
E
  0
SCALE
  5
43
102
{ACAD_REACTORS
330
42
102
}
330
42
100
AcDbScale
 70
     0
300
1:1
140
1.0
141
1.0
290
     1
  0
SCALE
  5
44
102
{ACAD_REACTORS
330
42
102
}
330
42
100
AcDbScale
 70
     0
300
1/128" = 1'-0"
140
0.0078125
141
12.0
290
     0
  0
SCALE
  5
45
102
{ACAD_REACTORS
330
42
102
}
330
42
100
AcDbScale
 70
     0
300
1/64" = 1'-0"
140
0.015625
141
12.0
290
     0
  0
SCALE
  5
46
102
{ACAD_REACTORS
330
42
102
}
330
42
100
AcDbScale
 70
     0
300
1/32" = 1'-0"
140
0.03125
141
12.0
290
     0
  0
SCALE
  5
47
102
{ACAD_REACTORS
330
42
102
}
330
42
100
AcDbScale
 70
     0
300
1/16" = 1'-0"
140
0.0625
141
12.0
290
     0
  0
SCALE
  5
48
102
{ACAD_REACTORS
330
42
102
}
330
42
100
AcDbScale
 70
     0
300
3/32" = 1'-0"
140
0.09375
141
12.0
290
     0
  0
SCALE
  5
49
102
{ACAD_REACTORS
330
42
102
}
330
42
100
AcDbScale
 70
     0
300
1/8" = 1'-0"
140
0.125
141
12.0
290
     0
  0
SCALE
  5
4A
102
{ACAD_REACTORS
330
42
102
}
330
42
100
AcDbScale
 70
     0
300
3/16" = 1'-0"
140
0.1875
141
12.0
290
     0
  0
SCALE
  5
4B
102
{ACAD_REACTORS
330
42
102
}
330
42
100
AcDbScale
 70
     0
300
1/4" = 1'-0"
140
0.25
141
12.0
290
     0
  0
SCALE
  5
4C
102
{ACAD_REACTORS
330
42
102
}
330
42
100
AcDbScale
 70
     0
300
3/8" = 1'-0"
140
0.375
141
12.0
290
     0
  0
SCALE
  5
4D
102
{ACAD_REACTORS
330
42
102
}
330
42
100
AcDbScale
 70
     0
300
1/2" = 1'-0"
140
0.5
141
12.0
290
     0
  0
SCALE
  5
4E
102
{ACAD_REACTORS
330
42
102
}
330
42
100
AcDbScale
 70
     0
300
3/4" = 1'-0"
140
0.75
141
12.0
290
     0
  0
SCALE
  5
4F
102
{ACAD_REACTORS
330
42
102
}
330
42
100
AcDbScale
 70
     0
300
1" = 1'-0"
140
1.0
141
12.0
290
     0
  0
SCALE
  5
50
102
{ACAD_REACTORS
330
42
102
}
330
42
100
AcDbScale
 70
     0
300
1-1/2" = 1'-0"
140
1.5
141
12.0
290
     0
  0
SCALE
  5
51
102
{ACAD_REACTORS
330
42
102
}
330
42
100
AcDbScale
 70
     0
300
3" = 1'-0"
140
3.0
141
12.0
290
     0
  0
SCALE
  5
52
102
{ACAD_REACTORS
330
42
102
}
330
42
100
AcDbScale
 70
     0
300
6" = 1'-0"
140
6.0
141
12.0
290
     0
  0
SCALE
  5
53
102
{ACAD_REACTORS
330
42
102
}
330
42
100
AcDbScale
 70
     0
300
1'-0" = 1'-0"
140
12.0
141
12.0
290
     0
  0
ACDBSECTIONVIEWSTYLE
  5
69
102
{ACAD_XDICTIONARY
360
108
102
}
102
{ACAD_REACTORS
330
68
102
}
330
68
100
AcDbModelDocViewStyle
 70
     0
  3
Imperial24
290
     0
100
AcDbSectionViewStyle
 70
     0
 71
     0
 90
       78
 71
     1
340
55
 62
   256
 40
0.24
340
0
340
0
 62
   256
 40
0.24
300
I, O, Q, S, X, Z
 40
0.48
 90
        3
 40
0.18
 90
        1
 71
     2
340
5D
 90
       25
 62
   256
340
5D
 90
       50
 62
   256
 40
0.24
 40
0.0
 40
0.24
 71
     3
340
55
 62
   256
 40
0.24
 90
        1
 40
0.75
 90
        1
300
%<\AcVar ViewType \f "%tc1">% %<\AcVar ViewSectionStartId>%-%<\AcVar ViewSectionEndId>%\PSCALE %<\AcVar ViewScale \f "%sn">%
 71
     4
 62
   256
 62
   257
300
ANSI31
 40
1.0
 90
        0
290
     0
290
     0
 90
        6
 40
0.0
 40
1.570796326794896
 40
0.2617993877991494
 40
1.308996938995747
 40
-0.2617993877991494
 40
1.832595714594046
  0
TABLESTYLE
  5
65
102
{ACAD_XDICTIONARY
360
D3
102
}
102
{ACAD_REACTORS
330
64
102
}
330
64
100
AcDbTableStyle
280
     0
  3
Standard
 70
     0
 71
     0
 40
0.06
 41
0.06
280
     0
281
     0
  7
Standard
140
0.18
170
     2
 62
     0
 63
     7
283
     0
 90
      512
 91
        0
  1

274
    -2
284
     1
 64
     0
275
    -2
285
     1
 65
     0
276
    -2
286
     1
 66
     0
277
    -2
287
     1
 67
     0
278
    -2
288
     1
 68
     0
279
    -2
289
     1
 69
     0
  7
Standard
140
0.25
170
     5
 62
     0
 63
     7
283
     0
 90
      512
 91
        0
  1

274
    -2
284
     1
 64
     0
275
    -2
285
     1
 65
     0
276
    -2
286
     1
 66
     0
277
    -2
287
     1
 67
     0
278
    -2
288
     1
 68
     0
279
    -2
289
     1
 69
     0
  7
Standard
140
0.18
170
     5
 62
     0
 63
     7
283
     0
 90
      512
 91
        0
  1

274
    -2
284
     1
 64
     0
275
    -2
285
     1
 65
     0
276
    -2
286
     1
 66
     0
277
    -2
287
     1
 67
     0
278
    -2
288
     1
 68
     0
279
    -2
289
     1
 69
     0
  0
VISUALSTYLE
  5
2F
102
{ACAD_XDICTIONARY
360
E0
102
}
102
{ACAD_REACTORS
330
29
102
}
330
29
100
AcDbVisualStyle
  2
2dWireframe
 70
     4
177
     2
291
     0
 71
     0
176
     1
 72
     2
176
     1
 73
     0
176
     1
 90
        0
176
     1
 40
0.6
176
     1
 41
30.0
176
     1
 63
     7
421
 16777215
176
     1
 74
     1
176
     1
 91
        4
176
     1
 64
     7
176
     1
 65
   257
176
     1
 75
     1
176
     1
175
     1
176
     1
 42
1.0
176
     1
 92
        0
176
     1
 66
   257
176
     1
 43
1.0
176
     1
 76
     1
176
     1
 77
     6
176
     1
 78
     2
176
     1
 67
     7
176
     1
 79
     5
176
     1
170
     0
176
     1
171
     0
176
     1
290
     0
176
     1
 93
        1
176
     1
 44
0.0
176
     1
173
     0
176
     1
1001
ACAD
1000
AcDbSavedByObjectVersion
1070
     0
  0
VISUALSTYLE
  5
2E
102
{ACAD_XDICTIONARY
360
DE
102
}
102
{ACAD_REACTORS
330
29
102
}
330
29
100
AcDbVisualStyle
  2
Basic
 70
     7
177
     2
291
     1
 71
     1
176
     1
 72
     0
176
     1
 73
     1
176
     1
 90
        0
176
     1
 40
0.6
176
     1
 41
30.0
176
     1
 63
     7
421
 16777215
176
     1
 74
     0
176
     1
 91
        4
176
     1
 64
     7
176
     1
 65
   257
176
     1
 75
     1
176
     1
175
     1
176
     1
 42
1.0
176
     1
 92
        8
176
     1
 66
     7
176
     1
 43
1.0
176
     1
 76
     1
176
     1
 77
     6
176
     1
 78
     2
176
     1
 67
     7
176
     1
 79
     5
176
     1
170
     0
176
     1
171
     0
176
     1
290
     0
176
     1
 93
        1
176
     1
 44
0.0
176
     1
173
     0
176
     1
1001
ACAD
1000
AcDbSavedByObjectVersion
1070
     0
  0
VISUALSTYLE
  5
35
102
{ACAD_XDICTIONARY
360
EC
102
}
102
{ACAD_REACTORS
330
29
102
}
330
29
100
AcDbVisualStyle
  2
Brighten
 70
    12
177
     2
291
     1
 71
     2
176
     1
 72
     2
176
     1
 73
     0
176
     1
 90
        0
176
     1
 40
0.6
176
     1
 41
30.0
176
     1
 63
     7
421
 16777215
176
     1
 74
     1
176
     1
 91
        4
176
     1
 64
     7
176
     1
 65
   257
176
     1
 75
     1
176
     1
175
     1
176
     1
 42
1.0
176
     1
 92
        8
176
     1
 66
     7
176
     1
 43
1.0
176
     1
 76
     1
176
     1
 77
     6
176
     1
 78
     2
176
     1
 67
     7
176
     1
 79
     5
176
     1
170
     0
176
     1
171
     0
176
     1
290
     0
176
     1
 93
        1
176
     1
 44
50.0
176
     1
173
     0
176
     1
1001
ACAD
1000
AcDbSavedByObjectVersion
1070
     0
  0
VISUALSTYLE
  5
39
102
{ACAD_XDICTIONARY
360
F4
102
}
102
{ACAD_REACTORS
330
29
102
}
330
29
100
AcDbVisualStyle
  2
ColorChange
 70
    16
177
     2
291
     1
 71
     2
176
     1
 72
     2
176
     1
 73
     3
176
     1
 90
        0
176
     1
 40
0.6
176
     1
 41
30.0
176
     1
 63
     8
421
  8421504
176
     1
 74
     1
176
     1
 91
        4
176
     1
 64
     7
176
     1
 65
   257
176
     1
 75
     1
176
     1
175
     1
176
     1
 42
1.0
176
     1
 92
        8
176
     1
 66
     8
424
  8421504
176
     1
 43
1.0
176
     1
 76
     1
176
     1
 77
     6
176
     1
 78
     2
176
     1
 67
     7
176
     1
 79
     5
176
     1
170
     0
176
     1
171
     0
176
     1
290
     0
176
     1
 93
        1
176
     1
 44
0.0
176
     1
173
     0
176
     1
1001
ACAD
1000
AcDbSavedByObjectVersion
1070
     0
  0
VISUALSTYLE
  5
32
102
{ACAD_XDICTIONARY
360
E6
102
}
102
{ACAD_REACTORS
330
29
102
}
330
29
100
AcDbVisualStyle
  2
Conceptual
 70
     9
177
     2
291
     0
 71
     3
176
     1
 72
     2
176
     1
 73
     0
176
     1
 90
        0
176
     1
 40
0.6
176
     1
 41
30.0
176
     1
 63
     7
421
 16777215
176
     1
 74
     2
176
     1
 91
        2
176
     1
 64
     7
176
     1
 65
   257
176
     1
 75
     1
176
     1
175
     1
176
     1
 42
179.0
176
     1
 92
        8
176
     1
 66
     7
176
     1
 43
1.0
176
     1
 76
     1
176
     1
 77
     6
176
     1
 78
     2
176
     1
 67
     7
176
     1
 79
     3
176
     1
170
     0
176
     1
171
     0
176
     1
290
     0
176
     1
 93
        1
176
     1
 44
0.0
176
     1
173
     0
176
     1
1001
ACAD
1000
AcDbSavedByObjectVersion
1070
     0
  0
VISUALSTYLE
  5
34
102
{ACAD_XDICTIONARY
360
EA
102
}
102
{ACAD_REACTORS
330
29
102
}
330
29
100
AcDbVisualStyle
  2
Dim
 70
    11
177
     2
291
     1
 71
     2
176
     1
 72
     2
176
     1
 73
     0
176
     1
 90
        0
176
     1
 40
0.6
176
     1
 41
30.0
176
     1
 63
     7
421
 16777215
176
     1
 74
     1
176
     1
 91
        4
176
     1
 64
     7
176
     1
 65
   257
176
     1
 75
     1
176
     1
175
     1
176
     1
 42
1.0
176
     1
 92
        8
176
     1
 66
     7
176
     1
 43
1.0
176
     1
 76
     1
176
     1
 77
     6
176
     1
 78
     2
176
     1
 67
     7
176
     1
 79
     5
176
     1
170
     0
176
     1
171
     0
176
     1
290
     0
176
     1
 93
        1
176
     1
 44
-50.0
176
     1
173
     0
176
     1
1001
ACAD
1000
AcDbSavedByObjectVersion
1070
     0
  0
VISUALSTYLE
  5
41
102
{ACAD_XDICTIONARY
360
104
102
}
102
{ACAD_REACTORS
330
29
102
}
330
29
100
AcDbVisualStyle
  2
EdgeColorOff
 70
    22
177
     2
291
     1
 71
     2
176
     0
 72
     2
176
     0
 73
     0
176
     0
 90
        0
176
     0
 40
0.6
176
     0
 41
30.0
176
     0
 63
     7
421
 16777215
176
     0
 74
     1
176
     0
 91
        4
176
     0
 64
     7
176
     0
 65
   257
176
     0
 75
     1
176
     0
175
     1
176
     0
 42
1.0
176
     0
 92
        8
176
     2
 66
     7
176
     0
 43
1.0
176
     0
 76
     1
176
     0
 77
     6
176
     0
 78
     2
176
     0
 67
     7
176
     0
 79
     5
176
     0
170
     0
176
     0
171
     0
176
     0
290
     0
176
     0
 93
        1
176
     0
 44
0.0
176
     0
173
     0
176
     0
1001
ACAD
1000
AcDbSavedByObjectVersion
1070
     0
  0
VISUALSTYLE
  5
38
102
{ACAD_XDICTIONARY
360
F2
102
}
102
{ACAD_REACTORS
330
29
102
}
330
29
100
AcDbVisualStyle
  2
Facepattern
 70
    15
177
     2
291
     1
 71
     2
176
     1
 72
     2
176
     1
 73
     0
176
     1
 90
        0
176
     1
 40
0.6
176
     1
 41
30.0
176
     1
 63
     7
421
 16777215
176
     1
 74
     1
176
     1
 91
        4
176
     1
 64
     7
176
     1
 65
   257
176
     1
 75
     1
176
     1
175
     1
176
     1
 42
1.0
176
     1
 92
        8
176
     1
 66
     7
176
     1
 43
1.0
176
     1
 76
     1
176
     1
 77
     6
176
     1
 78
     2
176
     1
 67
     7
176
     1
 79
     5
176
     1
170
     0
176
     1
171
     0
176
     1
290
     0
176
     1
 93
        1
176
     1
 44
0.0
176
     1
173
     0
176
     1
1001
ACAD
1000
AcDbSavedByObjectVersion
1070
     0
  0
VISUALSTYLE
  5
2A
102
{ACAD_XDICTIONARY
360
D6
102
}
102
{ACAD_REACTORS
330
29
102
}
330
29
100
AcDbVisualStyle
  2
Flat
 70
     0
177
     2
291
     1
 71
     2
176
     1
 72
     1
176
     1
 73
     1
176
     1
 90
        2
176
     1
 40
0.6
176
     1
 41
30.0
176
     1
 63
     7
421
 16777215
176
     1
 74
     0
176
     1
 91
        0
176
     1
 64
     7
176
     1
 65
   257
176
     1
 75
     1
176
     1
175
     1
176
     1
 42
1.0
176
     1
 92
        8
176
     1
 66
     7
176
     1
 43
1.0
176
     1
 76
     1
176
     1
 77
     6
176
     1
 78
     2
176
     1
 67
     7
176
     1
 79
     5
176
     1
170
     0
176
     1
171
     0
176
     1
290
     0
176
     1
 93
       13
176
     1
 44
0.0
176
     1
173
     0
176
     1
1001
ACAD
1000
AcDbSavedByObjectVersion
1070
     0
  0
VISUALSTYLE
  5
2B
102
{ACAD_XDICTIONARY
360
D8
102
}
102
{ACAD_REACTORS
330
29
102
}
330
29
100
AcDbVisualStyle
  2
FlatWithEdges
 70
     1
177
     2
291
     1
 71
     2
176
     1
 72
     1
176
     1
 73
     1
176
     1
 90
        2
176
     1
 40
0.6
176
     1
 41
30.0
176
     1
 63
     7
421
 16777215
176
     1
 74
     1
176
     1
 91
        0
176
     1
 64
     7
176
     1
 65
   257
176
     1
 75
     1
176
     1
175
     1
176
     1
 42
1.0
176
     1
 92
        0
176
     1
 66
   257
176
     1
 43
1.0
176
     1
 76
     1
176
     1
 77
     6
176
     1
 78
     2
176
     1
 67
     7
176
     1
 79
     5
176
     1
170
     0
176
     1
171
     0
176
     1
290
     0
176
     1
 93
       13
176
     1
 44
0.0
176
     1
173
     0
176
     1
1001
ACAD
1000
AcDbSavedByObjectVersion
1070
     0
  0
VISUALSTYLE
  5
2C
102
{ACAD_XDICTIONARY
360
DA
102
}
102
{ACAD_REACTORS
330
29
102
}
330
29
100
AcDbVisualStyle
  2
Gouraud
 70
     2
177
     2
291
     1
 71
     2
176
     1
 72
     2
176
     1
 73
     1
176
     1
 90
        2
176
     1
 40
0.6
176
     1
 41
30.0
176
     1
 63
     7
421
 16777215
176
     1
 74
     0
176
     1
 91
        0
176
     1
 64
     7
176
     1
 65
   257
176
     1
 75
     1
176
     1
175
     1
176
     1
 42
1.0
176
     1
 92
        0
176
     1
 66
     7
176
     1
 43
1.0
176
     1
 76
     1
176
     1
 77
     6
176
     1
 78
     2
176
     1
 67
     7
176
     1
 79
     5
176
     1
170
     0
176
     1
171
     0
176
     1
290
     0
176
     1
 93
       13
176
     1
 44
0.0
176
     1
173
     0
176
     1
1001
ACAD
1000
AcDbSavedByObjectVersion
1070
     0
  0
VISUALSTYLE
  5
2D
102
{ACAD_XDICTIONARY
360
DC
102
}
102
{ACAD_REACTORS
330
29
102
}
330
29
100
AcDbVisualStyle
  2
GouraudWithEdges
 70
     3
177
     2
291
     1
 71
     2
176
     1
 72
     2
176
     1
 73
     1
176
     1
 90
        2
176
     1
 40
0.6
176
     1
 41
30.0
176
     1
 63
     7
421
 16777215
176
     1
 74
     1
176
     1
 91
        0
176
     1
 64
     7
176
     1
 65
   257
176
     1
 75
     1
176
     1
175
     1
176
     1
 42
1.0
176
     1
 92
        0
176
     1
 66
   257
176
     1
 43
1.0
176
     1
 76
     1
176
     1
 77
     6
176
     1
 78
     2
176
     1
 67
     7
176
     1
 79
     5
176
     1
170
     0
176
     1
171
     0
176
     1
290
     0
176
     1
 93
       13
176
     1
 44
0.0
176
     1
173
     0
176
     1
1001
ACAD
1000
AcDbSavedByObjectVersion
1070
     0
  0
VISUALSTYLE
  5
31
102
{ACAD_XDICTIONARY
360
E4
102
}
102
{ACAD_REACTORS
330
29
102
}
330
29
100
AcDbVisualStyle
  2
Hidden
 70
     6
177
     2
291
     0
 71
     1
176
     1
 72
     2
176
     1
 73
     2
176
     1
 90
        0
176
     1
 40
0.6
176
     1
 41
30.0
176
     1
 63
     7
421
 16777215
176
     1
 74
     2
176
     1
 91
        2
176
     1
 64
     7
176
     1
 65
   257
176
     1
 75
     2
176
     1
175
     1
176
     1
 42
40.0
176
     1
 92
        0
176
     1
 66
   257
176
     1
 43
1.0
176
     1
 76
     1
176
     1
 77
     6
176
     1
 78
     2
176
     1
 67
     7
176
     1
 79
     3
176
     1
170
     0
176
     1
171
     0
176
     1
290
     0
176
     1
 93
        1
176
     1
 44
0.0
176
     1
173
     0
176
     1
1001
ACAD
1000
AcDbSavedByObjectVersion
1070
     0
  0
VISUALSTYLE
  5
3F
102
{ACAD_XDICTIONARY
360
100
102
}
102
{ACAD_REACTORS
330
29
102
}
330
29
100
AcDbVisualStyle
  2
JitterOff
 70
    20
177
     2
291
     1
 71
     2
176
     0
 72
     2
176
     0
 73
     0
176
     0
 90
        0
176
     0
 40
0.6
176
     0
 41
30.0
176
     0
 63
     7
421
 16777215
176
     0
 74
     1
176
     0
 91
        4
176
     0
 64
     7
176
     0
 65
   257
176
     0
 75
     1
176
     0
175
     1
176
     0
 42
1.0
176
     0
 92
       10
176
     2
 66
     7
176
     0
 43
1.0
176
     0
 76
     1
176
     0
 77
     6
176
     0
 78
     2
176
     0
 67
     7
176
     0
 79
     5
176
     0
170
     0
176
     0
171
     0
176
     0
290
     0
176
     0
 93
        1
176
     0
 44
0.0
176
     0
173
     0
176
     0
1001
ACAD
1000
AcDbSavedByObjectVersion
1070
     0
  0
VISUALSTYLE
  5
37
102
{ACAD_XDICTIONARY
360
F0
102
}
102
{ACAD_REACTORS
330
29
102
}
330
29
100
AcDbVisualStyle
  2
Linepattern
 70
    14
177
     2
291
     1
 71
     2
176
     1
 72
     2
176
     1
 73
     0
176
     1
 90
        0
176
     1
 40
0.6
176
     1
 41
30.0
176
     1
 63
     7
421
 16777215
176
     1
 74
     1
176
     1
 91
        4
176
     1
 64
     7
176
     1
 65
   257
176
     1
 75
     7
176
     1
175
     7
176
     1
 42
1.0
176
     1
 92
        8
176
     1
 66
     7
176
     1
 43
1.0
176
     1
 76
     1
176
     1
 77
     6
176
     1
 78
     2
176
     1
 67
     7
176
     1
 79
     5
176
     1
170
     0
176
     1
171
     0
176
     1
290
     0
176
     1
 93
        1
176
     1
 44
0.0
176
     1
173
     0
176
     1
1001
ACAD
1000
AcDbSavedByObjectVersion
1070
     0
  0
VISUALSTYLE
  5
40
102
{ACAD_XDICTIONARY
360
102
102
}
102
{ACAD_REACTORS
330
29
102
}
330
29
100
AcDbVisualStyle
  2
OverhangOff
 70
    21
177
     2
291
     1
 71
     2
176
     0
 72
     2
176
     0
 73
     0
176
     0
 90
        0
176
     0
 40
0.6
176
     0
 41
30.0
176
     0
 63
     7
421
 16777215
176
     0
 74
     1
176
     0
 91
        4
176
     0
 64
     7
176
     0
 65
   257
176
     0
 75
     1
176
     0
175
     1
176
     0
 42
1.0
176
     0
 92
        9
176
     2
 66
     7
176
     0
 43
1.0
176
     0
 76
     1
176
     0
 77
     6
176
     0
 78
     2
176
     0
 67
     7
176
     0
 79
     5
176
     0
170
     0
176
     0
171
     0
176
     0
290
     0
176
     0
 93
        1
176
     0
 44
0.0
176
     0
173
     0
176
     0
1001
ACAD
1000
AcDbSavedByObjectVersion
1070
     0
  0
VISUALSTYLE
  5
33
102
{ACAD_XDICTIONARY
360
E8
102
}
102
{ACAD_REACTORS
330
29
102
}
330
29
100
AcDbVisualStyle
  2
Realistic
 70
     8
177
     2
291
     0
 71
     2
176
     1
 72
     3
176
     1
 73
     0
176
     1
 90
        2
176
     1
 40
0.6
176
     1
 41
30.0
176
     1
 63
     7
421
 16777215
176
     1
 74
     0
176
     1
 91
        0
176
     1
 64
     7
176
     1
 65
   257
176
     1
 75
     1
176
     1
175
     1
176
     1
 42
1.0
176
     1
 92
        8
176
     1
 66
   257
176
     1
 43
1.0
176
     1
 76
     1
176
     1
 77
     6
176
     1
 78
     2
176
     1
 67
     7
176
     1
 79
     3
176
     1
170
     0
176
     1
171
     0
176
     1
290
     0
176
     1
 93
       13
176
     1
 44
0.0
176
     1
173
     0
176
     1
1001
ACAD
1000
AcDbSavedByObjectVersion
1070
     0
  0
VISUALSTYLE
  5
3E
102
{ACAD_XDICTIONARY
360
FE
102
}
102
{ACAD_REACTORS
330
29
102
}
330
29
100
AcDbVisualStyle
  2
Shaded
 70
    27
177
     2
291
     0
 71
     2
176
     1
 72
     2
176
     1
 73
     1
176
     1
 90
        2
176
     1
 40
0.6
176
     1
 41
30.0
176
     1
 63
     7
421
 16777215
176
     1
 74
     0
176
     1
 91
        4
176
     1
 64
     7
176
     1
 65
   257
176
     1
 75
     1
176
     1
175
     1
176
     1
 42
1.0
176
     1
 92
        8
176
     1
 66
   257
176
     1
 43
1.0
176
     1
 76
     1
176
     1
 77
     6
176
     1
 78
     2
176
     1
 67
     8
425
  7895160
176
     1
 79
     3
176
     1
170
     0
176
     1
171
     0
176
     1
290
     0
176
     1
 93
        5
176
     1
 44
0.0
176
     1
173
     0
176
     1
1001
ACAD
1000
AcDbSavedByObjectVersion
1070
     0
  0
VISUALSTYLE
  5
3D
102
{ACAD_XDICTIONARY
360
FC
102
}
102
{ACAD_REACTORS
330
29
102
}
330
29
100
AcDbVisualStyle
  2
Shaded with edges
 70
    26
177
     2
291
     0
 71
     2
176
     1
 72
     2
176
     1
 73
     1
176
     1
 90
        2
176
     1
 40
0.6
176
     1
 41
30.0
176
     1
 63
     7
421
 16777215
176
     1
 74
     1
176
     1
 91
        2
176
     1
 64
     7
176
     1
 65
   257
176
     1
 75
     2
176
     1
175
     1
176
     1
 42
1.0
176
     1
 92
        8
176
     1
 66
   257
176
     1
 43
1.0
176
     1
 76
     1
176
     1
 77
     6
176
     1
 78
     2
176
     1
 67
     7
176
     1
 79
     3
176
     1
170
     0
176
     1
171
     0
176
     1
290
     0
176
     1
 93
        5
176
     1
 44
0.0
176
     1
173
     0
176
     1
1001
ACAD
1000
AcDbSavedByObjectVersion
1070
     0
  0
VISUALSTYLE
  5
3A
102
{ACAD_XDICTIONARY
360
F6
102
}
102
{ACAD_REACTORS
330
29
102
}
330
29
100
AcDbVisualStyle
  2
Shades of Gray
 70
    23
177
     2
291
     0
 71
     2
176
     1
 72
     2
176
     1
 73
     3
176
     1
 90
        0
176
     1
 40
0.6
176
     1
 41
30.0
176
     1
 63
     7
421
 16777215
176
     1
 74
     2
176
     1
 91
        2
176
     1
 64
     7
176
     1
 65
     7
176
     1
 75
     1
176
     1
175
     1
176
     1
 42
40.0
176
     1
 92
        8
176
     1
 66
     7
176
     1
 43
1.0
176
     1
 76
     1
176
     1
 77
     6
176
     1
 78
     2
176
     1
 67
     7
176
     1
 79
     3
176
     1
170
     0
176
     1
171
     0
176
     1
290
     0
176
     1
 93
        1
176
     1
 44
0.0
176
     1
173
     0
176
     1
1001
ACAD
1000
AcDbSavedByObjectVersion
1070
     0
  0
VISUALSTYLE
  5
3B
102
{ACAD_XDICTIONARY
360
F8
102
}
102
{ACAD_REACTORS
330
29
102
}
330
29
100
AcDbVisualStyle
  2
Sketchy
 70
    24
177
     2
291
     0
 71
     1
176
     1
 72
     2
176
     1
 73
     2
176
     1
 90
        0
176
     1
 40
0.6
176
     1
 41
30.0
176
     1
 63
     7
421
 16777215
176
     1
 74
     2
176
     1
 91
        2
176
     1
 64
     7
176
     1
 65
     7
176
     1
 75
     1
176
     1
175
     1
176
     1
 42
40.0
176
     1
 92
       11
176
     1
 66
     7
176
     1
 43
1.0
176
     1
 76
     1
176
     1
 77
     6
176
     1
 78
     2
176
     1
 67
     7
176
     1
 79
     6
176
     1
170
     0
176
     1
171
     0
176
     1
290
     0
176
     1
 93
        1
176
     1
 44
0.0
176
     1
173
     0
176
     1
1001
ACAD
1000
AcDbSavedByObjectVersion
1070
     0
  0
VISUALSTYLE
  5
36
102
{ACAD_XDICTIONARY
360
EE
102
}
102
{ACAD_REACTORS
330
29
102
}
330
29
100
AcDbVisualStyle
  2
Thicken
 70
    13
177
     2
291
     1
 71
     2
176
     1
 72
     2
176
     1
 73
     0
176
     1
 90
        0
176
     1
 40
0.6
176
     1
 41
30.0
176
     1
 63
     7
421
 16777215
176
     1
 74
     1
176
     1
 91
        4
176
     1
 64
     7
176
     1
 65
   257
176
     1
 75
     1
176
     1
175
     1
176
     1
 42
1.0
176
     1
 92
       12
176
     1
 66
     7
176
     1
 43
1.0
176
     1
 76
     1
176
     1
 77
     6
176
     1
 78
     2
176
     1
 67
     7
176
     1
 79
     5
176
     1
170
     0
176
     1
171
     0
176
     1
290
     0
176
     1
 93
        1
176
     1
 44
0.0
176
     1
173
     0
176
     1
1001
ACAD
1000
AcDbSavedByObjectVersion
1070
     0
  0
VISUALSTYLE
  5
30
102
{ACAD_XDICTIONARY
360
E2
102
}
102
{ACAD_REACTORS
330
29
102
}
330
29
100
AcDbVisualStyle
  2
Wireframe
 70
     5
177
     2
291
     0
 71
     0
176
     1
 72
     2
176
     1
 73
     0
176
     1
 90
        0
176
     1
 40
0.6
176
     1
 41
30.0
176
     1
 63
     7
421
 16777215
176
     1
 74
     1
176
     1
 91
        4
176
     1
 64
     7
176
     1
 65
   257
176
     1
 75
     1
176
     1
175
     1
176
     1
 42
1.0
176
     1
 92
        0
176
     1
 66
   257
176
     1
 43
1.0
176
     1
 76
     1
176
     1
 77
     6
176
     1
 78
     2
176
     1
 67
     7
176
     1
 79
     3
176
     1
170
     0
176
     1
171
     0
176
     1
290
     0
176
     1
 93
        1
176
     1
 44
0.0
176
     1
173
     0
176
     1
1001
ACAD
1000
AcDbSavedByObjectVersion
1070
     0
  0
VISUALSTYLE
  5
3C
102
{ACAD_XDICTIONARY
360
FA
102
}
102
{ACAD_REACTORS
330
29
102
}
330
29
100
AcDbVisualStyle
  2
X-Ray
 70
    25
177
     2
291
     0
 71
     2
176
     1
 72
     2
176
     1
 73
     1
176
     1
 90
        1
176
     1
 40
0.5
176
     1
 41
30.0
176
     1
 63
     7
421
 16777215
176
     1
 74
     1
176
     1
 91
        0
176
     1
 64
     7
176
     1
 65
   257
176
     1
 75
     1
176
     1
175
     1
176
     1
 42
1.0
176
     1
 92
        8
176
     1
 66
     7
176
     1
 43
1.0
176
     1
 76
     1
176
     1
 77
     6
176
     1
 78
     2
176
     1
 67
     7
176
     1
 79
     3
176
     1
170
     0
176
     1
171
     0
176
     1
290
     0
176
     1
 93
       13
176
     1
 44
0.0
176
     1
173
     0
176
     1
1001
ACAD
1000
AcDbSavedByObjectVersion
1070
     0
  0
DICTIONARYVAR
  5
D2
102
{ACAD_REACTORS
330
CD
102
}
330
CD
100
DictionaryVariables
280
     0
  1
1:1
  0
DICTIONARYVAR
  5
CF
102
{ACAD_REACTORS
330
CD
102
}
330
CD
100
DictionaryVariables
280
     0
  1
STANDARD
  0
DICTIONARYVAR
  5
CE
102
{ACAD_REACTORS
330
CD
102
}
330
CD
100
DictionaryVariables
280
     0
  1
STANDARD
  0
DICTIONARYVAR
  5
D0
102
{ACAD_REACTORS
330
CD
102
}
330
CD
100
DictionaryVariables
280
     0
  1
Imperial24
  0
DICTIONARYVAR
  5
D1
102
{ACAD_REACTORS
330
CD
102
}
330
CD
100
DictionaryVariables
280
     0
  1
Imperial24
  0
DICTIONARY
  5
10A
330
6B
100
AcDbDictionary
280
     1
281
     1
  3
ACAD_XREC_ROUNDTRIP
360
10B
  0
DICTIONARY
  5
1A
330
19
100
AcDbDictionary
280
     1
281
     1
  3
BUMPTILE
360
1C
  3
DIFFUSETILE
360
1B
  3
OPACITYTILE
360
1F
  3
REFLECTIONTILE
360
1E
  3
REFRACTIONTILE
360
20
  3
SPECULARTILE
360
1D
  0
DICTIONARY
  5
12
330
11
100
AcDbDictionary
280
     1
281
     1
  3
BUMPTILE
360
14
  3
DIFFUSETILE
360
13
  3
OPACITYTILE
360
17
  3
REFLECTIONTILE
360
16
  3
REFRACTIONTILE
360
18
  3
SPECULARTILE
360
15
  0
DICTIONARY
  5
22
330
21
100
AcDbDictionary
280
     1
281
     1
  3
BUMPTILE
360
24
  3
DIFFUSETILE
360
23
  3
OPACITYTILE
360
27
  3
REFLECTIONTILE
360
26
  3
REFRACTIONTILE
360
28
  3
SPECULARTILE
360
25
  0
DICTIONARY
  5
106
330
67
100
AcDbDictionary
280
     1
281
     1
  3
ACAD_XREC_ROUNDTRIP
360
107
  0
DICTIONARY
  5
108
330
69
100
AcDbDictionary
280
     1
281
     1
  3
ACAD_XREC_ROUNDTRIP
360
109
  0
DICTIONARY
  5
D3
330
65
100
AcDbDictionary
280
     1
281
     1
  3
ACAD_ROUNDTRIP_2008_TABLESTYLE_CELLSTYLEMAP
360
D4
  0
DICTIONARY
  5
E0
330
2F
100
AcDbDictionary
280
     1
281
     1
  3
ACAD_XREC_ROUNDTRIP
360
E1
  0
DICTIONARY
  5
DE
330
2E
100
AcDbDictionary
280
     1
281
     1
  3
ACAD_XREC_ROUNDTRIP
360
DF
  0
DICTIONARY
  5
EC
330
35
100
AcDbDictionary
280
     1
281
     1
  3
ACAD_XREC_ROUNDTRIP
360
ED
  0
DICTIONARY
  5
F4
330
39
100
AcDbDictionary
280
     1
281
     1
  3
ACAD_XREC_ROUNDTRIP
360
F5
  0
DICTIONARY
  5
E6
330
32
100
AcDbDictionary
280
     1
281
     1
  3
ACAD_XREC_ROUNDTRIP
360
E7
  0
DICTIONARY
  5
EA
330
34
100
AcDbDictionary
280
     1
281
     1
  3
ACAD_XREC_ROUNDTRIP
360
EB
  0
DICTIONARY
  5
104
330
41
100
AcDbDictionary
280
     1
281
     1
  3
ACAD_XREC_ROUNDTRIP
360
105
  0
DICTIONARY
  5
F2
330
38
100
AcDbDictionary
280
     1
281
     1
  3
ACAD_XREC_ROUNDTRIP
360
F3
  0
DICTIONARY
  5
D6
330
2A
100
AcDbDictionary
280
     1
281
     1
  3
ACAD_XREC_ROUNDTRIP
360
D7
  0
DICTIONARY
  5
D8
330
2B
100
AcDbDictionary
280
     1
281
     1
  3
ACAD_XREC_ROUNDTRIP
360
D9
  0
DICTIONARY
  5
DA
330
2C
100
AcDbDictionary
280
     1
281
     1
  3
ACAD_XREC_ROUNDTRIP
360
DB
  0
DICTIONARY
  5
DC
330
2D
100
AcDbDictionary
280
     1
281
     1
  3
ACAD_XREC_ROUNDTRIP
360
DD
  0
DICTIONARY
  5
E4
330
31
100
AcDbDictionary
280
     1
281
     1
  3
ACAD_XREC_ROUNDTRIP
360
E5
  0
DICTIONARY
  5
100
330
3F
100
AcDbDictionary
280
     1
281
     1
  3
ACAD_XREC_ROUNDTRIP
360
101
  0
DICTIONARY
  5
F0
330
37
100
AcDbDictionary
280
     1
281
     1
  3
ACAD_XREC_ROUNDTRIP
360
F1
  0
DICTIONARY
  5
102
330
40
100
AcDbDictionary
280
     1
281
     1
  3
ACAD_XREC_ROUNDTRIP
360
103
  0
DICTIONARY
  5
E8
330
33
100
AcDbDictionary
280
     1
281
     1
  3
ACAD_XREC_ROUNDTRIP
360
E9
  0
DICTIONARY
  5
FE
330
3E
100
AcDbDictionary
280
     1
281
     1
  3
ACAD_XREC_ROUNDTRIP
360
FF
  0
DICTIONARY
  5
FC
330
3D
100
AcDbDictionary
280
     1
281
     1
  3
ACAD_XREC_ROUNDTRIP
360
FD
  0
DICTIONARY
  5
F6
330
3A
100
AcDbDictionary
280
     1
281
     1
  3
ACAD_XREC_ROUNDTRIP
360
F7
  0
DICTIONARY
  5
F8
330
3B
100
AcDbDictionary
280
     1
281
     1
  3
ACAD_XREC_ROUNDTRIP
360
F9
  0
DICTIONARY
  5
EE
330
36
100
AcDbDictionary
280
     1
281
     1
  3
ACAD_XREC_ROUNDTRIP
360
EF
  0
DICTIONARY
  5
E2
330
30
100
AcDbDictionary
280
     1
281
     1
  3
ACAD_XREC_ROUNDTRIP
360
E3
  0
DICTIONARY
  5
FA
330
3C
100
AcDbDictionary
280
     1
281
     1
  3
ACAD_XREC_ROUNDTRIP
360
FB
  0
XRECORD
  5
10B
102
{ACAD_REACTORS
330
10A
102
}
330
10A
100
AcDbXrecord
280
     1
102
DISPLAYNAME
  1
Imperial24
102
FLAGS
 90
        0
  0
XRECORD
  5
1C
102
{ACAD_REACTORS
330
1A
102
}
330
1A
100
AcDbXrecord
280
     1
270
     1
271
     1
  0
XRECORD
  5
1B
102
{ACAD_REACTORS
330
1A
102
}
330
1A
100
AcDbXrecord
280
     1
270
     1
271
     1
  0
XRECORD
  5
1F
102
{ACAD_REACTORS
330
1A
102
}
330
1A
100
AcDbXrecord
280
     1
270
     1
271
     1
  0
XRECORD
  5
1E
102
{ACAD_REACTORS
330
1A
102
}
330
1A
100
AcDbXrecord
280
     1
270
     1
271
     1
  0
XRECORD
  5
20
102
{ACAD_REACTORS
330
1A
102
}
330
1A
100
AcDbXrecord
280
     1
270
     1
271
     1
  0
XRECORD
  5
1D
102
{ACAD_REACTORS
330
1A
102
}
330
1A
100
AcDbXrecord
280
     1
270
     1
271
     1
  0
XRECORD
  5
14
102
{ACAD_REACTORS
330
12
102
}
330
12
100
AcDbXrecord
280
     1
270
     1
271
     1
  0
XRECORD
  5
13
102
{ACAD_REACTORS
330
12
102
}
330
12
100
AcDbXrecord
280
     1
270
     1
271
     1
  0
XRECORD
  5
17
102
{ACAD_REACTORS
330
12
102
}
330
12
100
AcDbXrecord
280
     1
270
     1
271
     1
  0
XRECORD
  5
16
102
{ACAD_REACTORS
330
12
102
}
330
12
100
AcDbXrecord
280
     1
270
     1
271
     1
  0
XRECORD
  5
18
102
{ACAD_REACTORS
330
12
102
}
330
12
100
AcDbXrecord
280
     1
270
     1
271
     1
  0
XRECORD
  5
15
102
{ACAD_REACTORS
330
12
102
}
330
12
100
AcDbXrecord
280
     1
270
     1
271
     1
  0
XRECORD
  5
24
102
{ACAD_REACTORS
330
22
102
}
330
22
100
AcDbXrecord
280
     1
270
     1
271
     1
  0
XRECORD
  5
23
102
{ACAD_REACTORS
330
22
102
}
330
22
100
AcDbXrecord
280
     1
270
     1
271
     1
  0
XRECORD
  5
27
102
{ACAD_REACTORS
330
22
102
}
330
22
100
AcDbXrecord
280
     1
270
     1
271
     1
  0
XRECORD
  5
26
102
{ACAD_REACTORS
330
22
102
}
330
22
100
AcDbXrecord
280
     1
270
     1
271
     1
  0
XRECORD
  5
28
102
{ACAD_REACTORS
330
22
102
}
330
22
100
AcDbXrecord
280
     1
270
     1
271
     1
  0
XRECORD
  5
25
102
{ACAD_REACTORS
330
22
102
}
330
22
100
AcDbXrecord
280
     1
270
     1
271
     1
  0
XRECORD
  5
107
102
{ACAD_REACTORS
330
106
102
}
330
106
100
AcDbXrecord
280
     1
102
ACAD_ROUNDTRIP_2012_MLEADER_STYLE
298
     1
  0
XRECORD
  5
109
102
{ACAD_REACTORS
330
108
102
}
330
108
100
AcDbXrecord
280
     1
102
DISPLAYNAME
  1
Imperial24
102
FLAGS
 90
        0
  0
CELLSTYLEMAP
  5
D4
102
{ACAD_REACTORS
330
D3
102
}
330
D3
100
AcDbCellStyleMap
 90
        3
300
CELLSTYLE
  1
TABLEFORMAT_BEGIN
 90
        5
170
     1
 91
        0
 92
    32768
 62
   257
 93
        1
300
CONTENTFORMAT
  1
CONTENTFORMAT_BEGIN
 90
        0
 91
        0
 92
      512
 93
        0
300

 40
0.0
140
1.0
 94
        5
 62
     0
340
55
144
0.25
309
CONTENTFORMAT_END
171
     0
 94
        0
309
TABLEFORMAT_END
  1
CELLSTYLE_BEGIN
 90
        1
 91
        1
300
_TITLE
309
CELLSTYLE_END
300
CELLSTYLE
  1
TABLEFORMAT_BEGIN
 90
        5
170
     1
 91
        0
 92
        0
 62
   257
 93
        1
300
CONTENTFORMAT
  1
CONTENTFORMAT_BEGIN
 90
        0
 91
        0
 92
      512
 93
        0
300

 40
0.0
140
1.0
 94
        5
 62
     0
340
55
144
0.18
309
CONTENTFORMAT_END
171
     0
 94
        0
309
TABLEFORMAT_END
  1
CELLSTYLE_BEGIN
 90
        2
 91
        1
300
_HEADER
309
CELLSTYLE_END
300
CELLSTYLE
  1
TABLEFORMAT_BEGIN
 90
        5
170
     1
 91
        0
 92
        0
 62
   257
 93
        1
300
CONTENTFORMAT
  1
CONTENTFORMAT_BEGIN
 90
        0
 91
        0
 92
      512
 93
        0
300

 40
0.0
140
1.0
 94
        2
 62
     0
340
55
144
0.18
309
CONTENTFORMAT_END
171
     0
 94
        0
309
TABLEFORMAT_END
  1
CELLSTYLE_BEGIN
 90
        3
 91
        2
300
_DATA
309
CELLSTYLE_END
  0
XRECORD
  5
E1
102
{ACAD_REACTORS
330
E0
102
}
330
E0
100
AcDbXrecord
280
     1
102
RTVSPost2010Prop28
280
     1
102
RTVSPost2010PropOp28
 70
     1
102
RTVSPost2010Prop29
280
     1
102
RTVSPost2010PropOp29
 70
     1
102
RTVSPost2010Prop30
280
     0
102
RTVSPost2010PropOp30
 70
     1
102
RTVSPost2010Prop31
280
     0
102
RTVSPost2010PropOp31
 70
     1
102
RTVSPost2010Prop32
280
     0
102
RTVSPost2010PropOp32
 70
     1
102
RTVSPost2010Prop33
280
     0
102
RTVSPost2010PropOp33
 70
     1
102
RTVSPost2010Prop34
280
     0
102
RTVSPost2010PropOp34
 70
     1
102
RTVSPost2010Prop35
280
     0
102
RTVSPost2010PropOp35
 70
     1
102
RTVSPost2010Prop36
280
     0
102
RTVSPost2010PropOp36
 70
     1
102
RTVSPost2010Prop37
 90
       50
102
RTVSPost2010PropOp37
 70
     1
102
RTVSPost2010Prop38
140
0.0
102
RTVSPost2010PropOp38
 70
     1
102
RTVSPost2010Prop39
140
1.0
102
RTVSPost2010PropOp39
 70
     1
102
RTVSPost2010Prop40
 90
        0
102
RTVSPost2010PropOp40
 70
     1
102
RTVSPost2010Prop41ColorIndex
 90
       18
102
RTVSPost2010Prop41ColorRGB
 90
        0
102
RTVSPost2010PropOp41
 70
     1
102
RTVSPost2010Prop42
 90
       50
102
RTVSPost2010PropOp42
 70
     1
102
RTVSPost2010Prop43
 90
        3
102
RTVSPost2010PropOp43
 70
     1
102
RTVSPost2010Prop44ColorIndex
 90
        5
102
RTVSPost2010Prop44ColorRGB
 90
      255
102
RTVSPost2010PropOp44
 70
     1
102
RTVSPost2010Prop45
280
     0
102
RTVSPost2010PropOp45
 70
     1
102
RTVSPost2010Prop46
 90
       50
102
RTVSPost2010PropOp46
 70
     1
102
RTVSPost2010Prop47
 90
       50
102
RTVSPost2010PropOp47
 70
     1
102
RTVSPost2010Prop48
 90
       50
102
RTVSPost2010PropOp48
 70
     1
102
RTVSPost2010Prop49
280
     0
102
RTVSPost2010PropOp49
 70
     1
102
RTVSPost2010Prop50
 90
       50
102
RTVSPost2010PropOp50
 70
     1
102
RTVSPost2010Prop51ColorIndex
 90
      256
102
RTVSPost2010Prop51ColorRGB
 90
-16777216
102
RTVSPost2010PropOp51
 70
     0
102
RTVSPost2010Prop52
140
1.0
102
RTVSPost2010PropOp52
 70
     0
102
RTVSPost2010Prop53
 90
        2
102
RTVSPost2010PropOp53
 70
     1
102
RTVSPost2010Prop54
  1
strokes_ogs.tif
102
RTVSPost2010PropOp54
 70
     1
102
RTVSPost2010Prop55
280
     0
102
RTVSPost2010PropOp55
 70
     1
102
RTVSPost2010Prop56
140
1.0
102
RTVSPost2010PropOp56
 70
     1
102
RTVSPost2010Prop57
140
1.0
102
RTVSPost2010PropOp57
 70
     1
  0
XRECORD
  5
DF
102
{ACAD_REACTORS
330
DE
102
}
330
DE
100
AcDbXrecord
280
     1
102
RTVSPost2010Prop28
280
     0
102
RTVSPost2010PropOp28
 70
     1
102
RTVSPost2010Prop29
280
     1
102
RTVSPost2010PropOp29
 70
     1
102
RTVSPost2010Prop30
280
     1
102
RTVSPost2010PropOp30
 70
     1
102
RTVSPost2010Prop31
280
     0
102
RTVSPost2010PropOp31
 70
     1
102
RTVSPost2010Prop32
280
     0
102
RTVSPost2010PropOp32
 70
     1
102
RTVSPost2010Prop33
280
     0
102
RTVSPost2010PropOp33
 70
     1
102
RTVSPost2010Prop34
280
     0
102
RTVSPost2010PropOp34
 70
     1
102
RTVSPost2010Prop35
280
     0
102
RTVSPost2010PropOp35
 70
     1
102
RTVSPost2010Prop36
280
     0
102
RTVSPost2010PropOp36
 70
     1
102
RTVSPost2010Prop37
 90
       50
102
RTVSPost2010PropOp37
 70
     1
102
RTVSPost2010Prop38
140
0.0
102
RTVSPost2010PropOp38
 70
     1
102
RTVSPost2010Prop39
140
1.0
102
RTVSPost2010PropOp39
 70
     1
102
RTVSPost2010Prop40
 90
        0
102
RTVSPost2010PropOp40
 70
     1
102
RTVSPost2010Prop41ColorIndex
 90
       18
102
RTVSPost2010Prop41ColorRGB
 90
        0
102
RTVSPost2010PropOp41
 70
     1
102
RTVSPost2010Prop42
 90
       50
102
RTVSPost2010PropOp42
 70
     1
102
RTVSPost2010Prop43
 90
        3
102
RTVSPost2010PropOp43
 70
     1
102
RTVSPost2010Prop44ColorIndex
 90
        5
102
RTVSPost2010Prop44ColorRGB
 90
      255
102
RTVSPost2010PropOp44
 70
     1
102
RTVSPost2010Prop45
280
     0
102
RTVSPost2010PropOp45
 70
     1
102
RTVSPost2010Prop46
 90
       50
102
RTVSPost2010PropOp46
 70
     1
102
RTVSPost2010Prop47
 90
       50
102
RTVSPost2010PropOp47
 70
     1
102
RTVSPost2010Prop48
 90
       50
102
RTVSPost2010PropOp48
 70
     1
102
RTVSPost2010Prop49
280
     0
102
RTVSPost2010PropOp49
 70
     1
102
RTVSPost2010Prop50
 90
       50
102
RTVSPost2010PropOp50
 70
     1
102
RTVSPost2010Prop51ColorIndex
 90
      256
102
RTVSPost2010Prop51ColorRGB
 90
-16777216
102
RTVSPost2010PropOp51
 70
     0
102
RTVSPost2010Prop52
140
1.0
102
RTVSPost2010PropOp52
 70
     0
102
RTVSPost2010Prop53
 90
        2
102
RTVSPost2010PropOp53
 70
     1
102
RTVSPost2010Prop54
  1
strokes_ogs.tif
102
RTVSPost2010PropOp54
 70
     1
102
RTVSPost2010Prop55
280
     0
102
RTVSPost2010PropOp55
 70
     1
102
RTVSPost2010Prop56
140
1.0
102
RTVSPost2010PropOp56
 70
     1
102
RTVSPost2010Prop57
140
1.0
102
RTVSPost2010PropOp57
 70
     1
  0
XRECORD
  5
ED
102
{ACAD_REACTORS
330
EC
102
}
330
EC
100
AcDbXrecord
280
     1
102
RTVSPost2010Prop28
280
     0
102
RTVSPost2010PropOp28
 70
     1
102
RTVSPost2010Prop29
280
     1
102
RTVSPost2010PropOp29
 70
     1
102
RTVSPost2010Prop30
280
     1
102
RTVSPost2010PropOp30
 70
     1
102
RTVSPost2010Prop31
280
     0
102
RTVSPost2010PropOp31
 70
     1
102
RTVSPost2010Prop32
280
     0
102
RTVSPost2010PropOp32
 70
     1
102
RTVSPost2010Prop33
280
     0
102
RTVSPost2010PropOp33
 70
     1
102
RTVSPost2010Prop34
280
     0
102
RTVSPost2010PropOp34
 70
     1
102
RTVSPost2010Prop35
280
     0
102
RTVSPost2010PropOp35
 70
     1
102
RTVSPost2010Prop36
280
     0
102
RTVSPost2010PropOp36
 70
     1
102
RTVSPost2010Prop37
 90
       50
102
RTVSPost2010PropOp37
 70
     1
102
RTVSPost2010Prop38
140
0.0
102
RTVSPost2010PropOp38
 70
     1
102
RTVSPost2010Prop39
140
1.0
102
RTVSPost2010PropOp39
 70
     1
102
RTVSPost2010Prop40
 90
        0
102
RTVSPost2010PropOp40
 70
     1
102
RTVSPost2010Prop41ColorIndex
 90
       18
102
RTVSPost2010Prop41ColorRGB
 90
        0
102
RTVSPost2010PropOp41
 70
     1
102
RTVSPost2010Prop42
 90
       50
102
RTVSPost2010PropOp42
 70
     1
102
RTVSPost2010Prop43
 90
        3
102
RTVSPost2010PropOp43
 70
     1
102
RTVSPost2010Prop44ColorIndex
 90
        5
102
RTVSPost2010Prop44ColorRGB
 90
      255
102
RTVSPost2010PropOp44
 70
     1
102
RTVSPost2010Prop45
280
     0
102
RTVSPost2010PropOp45
 70
     1
102
RTVSPost2010Prop46
 90
       50
102
RTVSPost2010PropOp46
 70
     1
102
RTVSPost2010Prop47
 90
       50
102
RTVSPost2010PropOp47
 70
     1
102
RTVSPost2010Prop48
 90
       50
102
RTVSPost2010PropOp48
 70
     1
102
RTVSPost2010Prop49
280
     0
102
RTVSPost2010PropOp49
 70
     1
102
RTVSPost2010Prop50
 90
       50
102
RTVSPost2010PropOp50
 70
     1
102
RTVSPost2010Prop51ColorIndex
 90
      256
102
RTVSPost2010Prop51ColorRGB
 90
-16777216
102
RTVSPost2010PropOp51
 70
     0
102
RTVSPost2010Prop52
140
1.0
102
RTVSPost2010PropOp52
 70
     0
102
RTVSPost2010Prop53
 90
        2
102
RTVSPost2010PropOp53
 70
     1
102
RTVSPost2010Prop54
  1
strokes_ogs.tif
102
RTVSPost2010PropOp54
 70
     1
102
RTVSPost2010Prop55
280
     0
102
RTVSPost2010PropOp55
 70
     1
102
RTVSPost2010Prop56
140
1.0
102
RTVSPost2010PropOp56
 70
     1
102
RTVSPost2010Prop57
140
1.0
102
RTVSPost2010PropOp57
 70
     1
  0
XRECORD
  5
F5
102
{ACAD_REACTORS
330
F4
102
}
330
F4
100
AcDbXrecord
280
     1
102
RTVSPost2010Prop28
280
     0
102
RTVSPost2010PropOp28
 70
     1
102
RTVSPost2010Prop29
280
     1
102
RTVSPost2010PropOp29
 70
     1
102
RTVSPost2010Prop30
280
     1
102
RTVSPost2010PropOp30
 70
     1
102
RTVSPost2010Prop31
280
     0
102
RTVSPost2010PropOp31
 70
     1
102
RTVSPost2010Prop32
280
     0
102
RTVSPost2010PropOp32
 70
     1
102
RTVSPost2010Prop33
280
     0
102
RTVSPost2010PropOp33
 70
     1
102
RTVSPost2010Prop34
280
     0
102
RTVSPost2010PropOp34
 70
     1
102
RTVSPost2010Prop35
280
     0
102
RTVSPost2010PropOp35
 70
     1
102
RTVSPost2010Prop36
280
     0
102
RTVSPost2010PropOp36
 70
     1
102
RTVSPost2010Prop37
 90
       50
102
RTVSPost2010PropOp37
 70
     1
102
RTVSPost2010Prop38
140
0.0
102
RTVSPost2010PropOp38
 70
     1
102
RTVSPost2010Prop39
140
1.0
102
RTVSPost2010PropOp39
 70
     1
102
RTVSPost2010Prop40
 90
        0
102
RTVSPost2010PropOp40
 70
     1
102
RTVSPost2010Prop41ColorIndex
 90
       18
102
RTVSPost2010Prop41ColorRGB
 90
        0
102
RTVSPost2010PropOp41
 70
     1
102
RTVSPost2010Prop42
 90
       50
102
RTVSPost2010PropOp42
 70
     1
102
RTVSPost2010Prop43
 90
        3
102
RTVSPost2010PropOp43
 70
     1
102
RTVSPost2010Prop44ColorIndex
 90
        5
102
RTVSPost2010Prop44ColorRGB
 90
      255
102
RTVSPost2010PropOp44
 70
     1
102
RTVSPost2010Prop45
280
     0
102
RTVSPost2010PropOp45
 70
     1
102
RTVSPost2010Prop46
 90
       50
102
RTVSPost2010PropOp46
 70
     1
102
RTVSPost2010Prop47
 90
       50
102
RTVSPost2010PropOp47
 70
     1
102
RTVSPost2010Prop48
 90
       50
102
RTVSPost2010PropOp48
 70
     1
102
RTVSPost2010Prop49
280
     0
102
RTVSPost2010PropOp49
 70
     1
102
RTVSPost2010Prop50
 90
       50
102
RTVSPost2010PropOp50
 70
     1
102
RTVSPost2010Prop51ColorIndex
 90
      256
102
RTVSPost2010Prop51ColorRGB
 90
-16777216
102
RTVSPost2010PropOp51
 70
     0
102
RTVSPost2010Prop52
140
1.0
102
RTVSPost2010PropOp52
 70
     0
102
RTVSPost2010Prop53
 90
        2
102
RTVSPost2010PropOp53
 70
     1
102
RTVSPost2010Prop54
  1
strokes_ogs.tif
102
RTVSPost2010PropOp54
 70
     1
102
RTVSPost2010Prop55
280
     0
102
RTVSPost2010PropOp55
 70
     1
102
RTVSPost2010Prop56
140
1.0
102
RTVSPost2010PropOp56
 70
     1
102
RTVSPost2010Prop57
140
1.0
102
RTVSPost2010PropOp57
 70
     1
  0
XRECORD
  5
E7
102
{ACAD_REACTORS
330
E6
102
}
330
E6
100
AcDbXrecord
280
     1
102
RTVSPost2010Prop28
280
     0
102
RTVSPost2010PropOp28
 70
     1
102
RTVSPost2010Prop29
280
     1
102
RTVSPost2010PropOp29
 70
     1
102
RTVSPost2010Prop30
280
     1
102
RTVSPost2010PropOp30
 70
     1
102
RTVSPost2010Prop31
280
     0
102
RTVSPost2010PropOp31
 70
     1
102
RTVSPost2010Prop32
280
     0
102
RTVSPost2010PropOp32
 70
     1
102
RTVSPost2010Prop33
280
     0
102
RTVSPost2010PropOp33
 70
     1
102
RTVSPost2010Prop34
280
     0
102
RTVSPost2010PropOp34
 70
     1
102
RTVSPost2010Prop35
280
     0
102
RTVSPost2010PropOp35
 70
     1
102
RTVSPost2010Prop36
280
     0
102
RTVSPost2010PropOp36
 70
     1
102
RTVSPost2010Prop37
 90
       50
102
RTVSPost2010PropOp37
 70
     1
102
RTVSPost2010Prop38
140
0.0
102
RTVSPost2010PropOp38
 70
     1
102
RTVSPost2010Prop39
140
1.0
102
RTVSPost2010PropOp39
 70
     1
102
RTVSPost2010Prop40
 90
        0
102
RTVSPost2010PropOp40
 70
     1
102
RTVSPost2010Prop41ColorIndex
 90
       18
102
RTVSPost2010Prop41ColorRGB
 90
        0
102
RTVSPost2010PropOp41
 70
     1
102
RTVSPost2010Prop42
 90
       50
102
RTVSPost2010PropOp42
 70
     1
102
RTVSPost2010Prop43
 90
        3
102
RTVSPost2010PropOp43
 70
     1
102
RTVSPost2010Prop44ColorIndex
 90
        5
102
RTVSPost2010Prop44ColorRGB
 90
      255
102
RTVSPost2010PropOp44
 70
     1
102
RTVSPost2010Prop45
280
     0
102
RTVSPost2010PropOp45
 70
     1
102
RTVSPost2010Prop46
 90
       50
102
RTVSPost2010PropOp46
 70
     1
102
RTVSPost2010Prop47
 90
       50
102
RTVSPost2010PropOp47
 70
     1
102
RTVSPost2010Prop48
 90
       50
102
RTVSPost2010PropOp48
 70
     1
102
RTVSPost2010Prop49
280
     0
102
RTVSPost2010PropOp49
 70
     1
102
RTVSPost2010Prop50
 90
       50
102
RTVSPost2010PropOp50
 70
     1
102
RTVSPost2010Prop51ColorIndex
 90
      256
102
RTVSPost2010Prop51ColorRGB
 90
-16777216
102
RTVSPost2010PropOp51
 70
     0
102
RTVSPost2010Prop52
140
1.0
102
RTVSPost2010PropOp52
 70
     0
102
RTVSPost2010Prop53
 90
        2
102
RTVSPost2010PropOp53
 70
     1
102
RTVSPost2010Prop54
  1
strokes_ogs.tif
102
RTVSPost2010PropOp54
 70
     1
102
RTVSPost2010Prop55
280
     0
102
RTVSPost2010PropOp55
 70
     1
102
RTVSPost2010Prop56
140
1.0
102
RTVSPost2010PropOp56
 70
     1
102
RTVSPost2010Prop57
140
1.0
102
RTVSPost2010PropOp57
 70
     1
  0
XRECORD
  5
EB
102
{ACAD_REACTORS
330
EA
102
}
330
EA
100
AcDbXrecord
280
     1
102
RTVSPost2010Prop28
280
     0
102
RTVSPost2010PropOp28
 70
     1
102
RTVSPost2010Prop29
280
     1
102
RTVSPost2010PropOp29
 70
     1
102
RTVSPost2010Prop30
280
     1
102
RTVSPost2010PropOp30
 70
     1
102
RTVSPost2010Prop31
280
     0
102
RTVSPost2010PropOp31
 70
     1
102
RTVSPost2010Prop32
280
     0
102
RTVSPost2010PropOp32
 70
     1
102
RTVSPost2010Prop33
280
     0
102
RTVSPost2010PropOp33
 70
     1
102
RTVSPost2010Prop34
280
     0
102
RTVSPost2010PropOp34
 70
     1
102
RTVSPost2010Prop35
280
     0
102
RTVSPost2010PropOp35
 70
     1
102
RTVSPost2010Prop36
280
     0
102
RTVSPost2010PropOp36
 70
     1
102
RTVSPost2010Prop37
 90
       50
102
RTVSPost2010PropOp37
 70
     1
102
RTVSPost2010Prop38
140
0.0
102
RTVSPost2010PropOp38
 70
     1
102
RTVSPost2010Prop39
140
1.0
102
RTVSPost2010PropOp39
 70
     1
102
RTVSPost2010Prop40
 90
        0
102
RTVSPost2010PropOp40
 70
     1
102
RTVSPost2010Prop41ColorIndex
 90
       18
102
RTVSPost2010Prop41ColorRGB
 90
        0
102
RTVSPost2010PropOp41
 70
     1
102
RTVSPost2010Prop42
 90
       50
102
RTVSPost2010PropOp42
 70
     1
102
RTVSPost2010Prop43
 90
        3
102
RTVSPost2010PropOp43
 70
     1
102
RTVSPost2010Prop44ColorIndex
 90
        5
102
RTVSPost2010Prop44ColorRGB
 90
      255
102
RTVSPost2010PropOp44
 70
     1
102
RTVSPost2010Prop45
280
     0
102
RTVSPost2010PropOp45
 70
     1
102
RTVSPost2010Prop46
 90
       50
102
RTVSPost2010PropOp46
 70
     1
102
RTVSPost2010Prop47
 90
       50
102
RTVSPost2010PropOp47
 70
     1
102
RTVSPost2010Prop48
 90
       50
102
RTVSPost2010PropOp48
 70
     1
102
RTVSPost2010Prop49
280
     0
102
RTVSPost2010PropOp49
 70
     1
102
RTVSPost2010Prop50
 90
       50
102
RTVSPost2010PropOp50
 70
     1
102
RTVSPost2010Prop51ColorIndex
 90
      256
102
RTVSPost2010Prop51ColorRGB
 90
-16777216
102
RTVSPost2010PropOp51
 70
     0
102
RTVSPost2010Prop52
140
1.0
102
RTVSPost2010PropOp52
 70
     0
102
RTVSPost2010Prop53
 90
        2
102
RTVSPost2010PropOp53
 70
     1
102
RTVSPost2010Prop54
  1
strokes_ogs.tif
102
RTVSPost2010PropOp54
 70
     1
102
RTVSPost2010Prop55
280
     0
102
RTVSPost2010PropOp55
 70
     1
102
RTVSPost2010Prop56
140
1.0
102
RTVSPost2010PropOp56
 70
     1
102
RTVSPost2010Prop57
140
1.0
102
RTVSPost2010PropOp57
 70
     1
  0
XRECORD
  5
105
102
{ACAD_REACTORS
330
104
102
}
330
104
100
AcDbXrecord
280
     1
102
RTVSPost2010Prop28
280
     0
102
RTVSPost2010PropOp28
 70
     0
102
RTVSPost2010Prop29
280
     1
102
RTVSPost2010PropOp29
 70
     0
102
RTVSPost2010Prop30
280
     1
102
RTVSPost2010PropOp30
 70
     0
102
RTVSPost2010Prop31
280
     0
102
RTVSPost2010PropOp31
 70
     0
102
RTVSPost2010Prop32
280
     0
102
RTVSPost2010PropOp32
 70
     0
102
RTVSPost2010Prop33
280
     0
102
RTVSPost2010PropOp33
 70
     0
102
RTVSPost2010Prop34
280
     0
102
RTVSPost2010PropOp34
 70
     0
102
RTVSPost2010Prop35
280
     0
102
RTVSPost2010PropOp35
 70
     0
102
RTVSPost2010Prop36
280
     0
102
RTVSPost2010PropOp36
 70
     0
102
RTVSPost2010Prop37
 90
       50
102
RTVSPost2010PropOp37
 70
     0
102
RTVSPost2010Prop38
140
0.0
102
RTVSPost2010PropOp38
 70
     0
102
RTVSPost2010Prop39
140
1.0
102
RTVSPost2010PropOp39
 70
     0
102
RTVSPost2010Prop40
 90
        0
102
RTVSPost2010PropOp40
 70
     0
102
RTVSPost2010Prop41ColorIndex
 90
       18
102
RTVSPost2010Prop41ColorRGB
 90
        0
102
RTVSPost2010PropOp41
 70
     0
102
RTVSPost2010Prop42
 90
       50
102
RTVSPost2010PropOp42
 70
     0
102
RTVSPost2010Prop43
 90
        3
102
RTVSPost2010PropOp43
 70
     0
102
RTVSPost2010Prop44ColorIndex
 90
        5
102
RTVSPost2010Prop44ColorRGB
 90
      255
102
RTVSPost2010PropOp44
 70
     0
102
RTVSPost2010Prop45
280
     0
102
RTVSPost2010PropOp45
 70
     0
102
RTVSPost2010Prop46
 90
       50
102
RTVSPost2010PropOp46
 70
     0
102
RTVSPost2010Prop47
 90
       50
102
RTVSPost2010PropOp47
 70
     0
102
RTVSPost2010Prop48
 90
       50
102
RTVSPost2010PropOp48
 70
     0
102
RTVSPost2010Prop49
280
     0
102
RTVSPost2010PropOp49
 70
     0
102
RTVSPost2010Prop50
 90
       50
102
RTVSPost2010PropOp50
 70
     0
102
RTVSPost2010Prop51ColorIndex
 90
      256
102
RTVSPost2010Prop51ColorRGB
 90
-16777216
102
RTVSPost2010PropOp51
 70
     0
102
RTVSPost2010Prop52
140
1.0
102
RTVSPost2010PropOp52
 70
     0
102
RTVSPost2010Prop53
 90
        2
102
RTVSPost2010PropOp53
 70
     0
102
RTVSPost2010Prop54
  1
strokes_ogs.tif
102
RTVSPost2010PropOp54
 70
     0
102
RTVSPost2010Prop55
280
     0
102
RTVSPost2010PropOp55
 70
     0
102
RTVSPost2010Prop56
140
1.0
102
RTVSPost2010PropOp56
 70
     0
102
RTVSPost2010Prop57
140
1.0
102
RTVSPost2010PropOp57
 70
     0
  0
XRECORD
  5
F3
102
{ACAD_REACTORS
330
F2
102
}
330
F2
100
AcDbXrecord
280
     1
102
RTVSPost2010Prop28
280
     0
102
RTVSPost2010PropOp28
 70
     1
102
RTVSPost2010Prop29
280
     1
102
RTVSPost2010PropOp29
 70
     1
102
RTVSPost2010Prop30
280
     1
102
RTVSPost2010PropOp30
 70
     1
102
RTVSPost2010Prop31
280
     0
102
RTVSPost2010PropOp31
 70
     1
102
RTVSPost2010Prop32
280
     0
102
RTVSPost2010PropOp32
 70
     1
102
RTVSPost2010Prop33
280
     0
102
RTVSPost2010PropOp33
 70
     1
102
RTVSPost2010Prop34
280
     0
102
RTVSPost2010PropOp34
 70
     1
102
RTVSPost2010Prop35
280
     0
102
RTVSPost2010PropOp35
 70
     1
102
RTVSPost2010Prop36
280
     0
102
RTVSPost2010PropOp36
 70
     1
102
RTVSPost2010Prop37
 90
       50
102
RTVSPost2010PropOp37
 70
     1
102
RTVSPost2010Prop38
140
0.0
102
RTVSPost2010PropOp38
 70
     1
102
RTVSPost2010Prop39
140
1.0
102
RTVSPost2010PropOp39
 70
     1
102
RTVSPost2010Prop40
 90
        0
102
RTVSPost2010PropOp40
 70
     1
102
RTVSPost2010Prop41ColorIndex
 90
       18
102
RTVSPost2010Prop41ColorRGB
 90
        0
102
RTVSPost2010PropOp41
 70
     1
102
RTVSPost2010Prop42
 90
       50
102
RTVSPost2010PropOp42
 70
     1
102
RTVSPost2010Prop43
 90
        3
102
RTVSPost2010PropOp43
 70
     1
102
RTVSPost2010Prop44ColorIndex
 90
        5
102
RTVSPost2010Prop44ColorRGB
 90
      255
102
RTVSPost2010PropOp44
 70
     1
102
RTVSPost2010Prop45
280
     0
102
RTVSPost2010PropOp45
 70
     1
102
RTVSPost2010Prop46
 90
       50
102
RTVSPost2010PropOp46
 70
     1
102
RTVSPost2010Prop47
 90
       50
102
RTVSPost2010PropOp47
 70
     1
102
RTVSPost2010Prop48
 90
       50
102
RTVSPost2010PropOp48
 70
     1
102
RTVSPost2010Prop49
280
     0
102
RTVSPost2010PropOp49
 70
     1
102
RTVSPost2010Prop50
 90
       50
102
RTVSPost2010PropOp50
 70
     1
102
RTVSPost2010Prop51ColorIndex
 90
      256
102
RTVSPost2010Prop51ColorRGB
 90
-16777216
102
RTVSPost2010PropOp51
 70
     0
102
RTVSPost2010Prop52
140
1.0
102
RTVSPost2010PropOp52
 70
     0
102
RTVSPost2010Prop53
 90
        2
102
RTVSPost2010PropOp53
 70
     1
102
RTVSPost2010Prop54
  1
strokes_ogs.tif
102
RTVSPost2010PropOp54
 70
     1
102
RTVSPost2010Prop55
280
     0
102
RTVSPost2010PropOp55
 70
     1
102
RTVSPost2010Prop56
140
1.0
102
RTVSPost2010PropOp56
 70
     1
102
RTVSPost2010Prop57
140
1.0
102
RTVSPost2010PropOp57
 70
     1
  0
XRECORD
  5
D7
102
{ACAD_REACTORS
330
D6
102
}
330
D6
100
AcDbXrecord
280
     1
102
RTVSPost2010Prop28
280
     0
102
RTVSPost2010PropOp28
 70
     1
102
RTVSPost2010Prop29
280
     1
102
RTVSPost2010PropOp29
 70
     1
102
RTVSPost2010Prop30
280
     1
102
RTVSPost2010PropOp30
 70
     1
102
RTVSPost2010Prop31
280
     0
102
RTVSPost2010PropOp31
 70
     1
102
RTVSPost2010Prop32
280
     0
102
RTVSPost2010PropOp32
 70
     1
102
RTVSPost2010Prop33
280
     0
102
RTVSPost2010PropOp33
 70
     1
102
RTVSPost2010Prop34
280
     0
102
RTVSPost2010PropOp34
 70
     1
102
RTVSPost2010Prop35
280
     0
102
RTVSPost2010PropOp35
 70
     1
102
RTVSPost2010Prop36
280
     0
102
RTVSPost2010PropOp36
 70
     1
102
RTVSPost2010Prop37
 90
       50
102
RTVSPost2010PropOp37
 70
     1
102
RTVSPost2010Prop38
140
0.0
102
RTVSPost2010PropOp38
 70
     1
102
RTVSPost2010Prop39
140
1.0
102
RTVSPost2010PropOp39
 70
     1
102
RTVSPost2010Prop40
 90
        0
102
RTVSPost2010PropOp40
 70
     1
102
RTVSPost2010Prop41ColorIndex
 90
       18
102
RTVSPost2010Prop41ColorRGB
 90
        0
102
RTVSPost2010PropOp41
 70
     1
102
RTVSPost2010Prop42
 90
       50
102
RTVSPost2010PropOp42
 70
     1
102
RTVSPost2010Prop43
 90
        3
102
RTVSPost2010PropOp43
 70
     1
102
RTVSPost2010Prop44ColorIndex
 90
        5
102
RTVSPost2010Prop44ColorRGB
 90
      255
102
RTVSPost2010PropOp44
 70
     1
102
RTVSPost2010Prop45
280
     0
102
RTVSPost2010PropOp45
 70
     1
102
RTVSPost2010Prop46
 90
       50
102
RTVSPost2010PropOp46
 70
     1
102
RTVSPost2010Prop47
 90
       50
102
RTVSPost2010PropOp47
 70
     1
102
RTVSPost2010Prop48
 90
       50
102
RTVSPost2010PropOp48
 70
     1
102
RTVSPost2010Prop49
280
     0
102
RTVSPost2010PropOp49
 70
     1
102
RTVSPost2010Prop50
 90
       50
102
RTVSPost2010PropOp50
 70
     1
102
RTVSPost2010Prop51ColorIndex
 90
      256
102
RTVSPost2010Prop51ColorRGB
 90
-16777216
102
RTVSPost2010PropOp51
 70
     0
102
RTVSPost2010Prop52
140
1.0
102
RTVSPost2010PropOp52
 70
     0
102
RTVSPost2010Prop53
 90
        2
102
RTVSPost2010PropOp53
 70
     1
102
RTVSPost2010Prop54
  1
strokes_ogs.tif
102
RTVSPost2010PropOp54
 70
     1
102
RTVSPost2010Prop55
280
     0
102
RTVSPost2010PropOp55
 70
     1
102
RTVSPost2010Prop56
140
1.0
102
RTVSPost2010PropOp56
 70
     1
102
RTVSPost2010Prop57
140
1.0
102
RTVSPost2010PropOp57
 70
     1
  0
XRECORD
  5
D9
102
{ACAD_REACTORS
330
D8
102
}
330
D8
100
AcDbXrecord
280
     1
102
RTVSPost2010Prop28
280
     0
102
RTVSPost2010PropOp28
 70
     1
102
RTVSPost2010Prop29
280
     1
102
RTVSPost2010PropOp29
 70
     1
102
RTVSPost2010Prop30
280
     1
102
RTVSPost2010PropOp30
 70
     1
102
RTVSPost2010Prop31
280
     0
102
RTVSPost2010PropOp31
 70
     1
102
RTVSPost2010Prop32
280
     0
102
RTVSPost2010PropOp32
 70
     1
102
RTVSPost2010Prop33
280
     0
102
RTVSPost2010PropOp33
 70
     1
102
RTVSPost2010Prop34
280
     0
102
RTVSPost2010PropOp34
 70
     1
102
RTVSPost2010Prop35
280
     0
102
RTVSPost2010PropOp35
 70
     1
102
RTVSPost2010Prop36
280
     0
102
RTVSPost2010PropOp36
 70
     1
102
RTVSPost2010Prop37
 90
       50
102
RTVSPost2010PropOp37
 70
     1
102
RTVSPost2010Prop38
140
0.0
102
RTVSPost2010PropOp38
 70
     1
102
RTVSPost2010Prop39
140
1.0
102
RTVSPost2010PropOp39
 70
     1
102
RTVSPost2010Prop40
 90
        0
102
RTVSPost2010PropOp40
 70
     1
102
RTVSPost2010Prop41ColorIndex
 90
       18
102
RTVSPost2010Prop41ColorRGB
 90
        0
102
RTVSPost2010PropOp41
 70
     1
102
RTVSPost2010Prop42
 90
       50
102
RTVSPost2010PropOp42
 70
     1
102
RTVSPost2010Prop43
 90
        3
102
RTVSPost2010PropOp43
 70
     1
102
RTVSPost2010Prop44ColorIndex
 90
        5
102
RTVSPost2010Prop44ColorRGB
 90
      255
102
RTVSPost2010PropOp44
 70
     1
102
RTVSPost2010Prop45
280
     0
102
RTVSPost2010PropOp45
 70
     1
102
RTVSPost2010Prop46
 90
       50
102
RTVSPost2010PropOp46
 70
     1
102
RTVSPost2010Prop47
 90
       50
102
RTVSPost2010PropOp47
 70
     1
102
RTVSPost2010Prop48
 90
       50
102
RTVSPost2010PropOp48
 70
     1
102
RTVSPost2010Prop49
280
     0
102
RTVSPost2010PropOp49
 70
     1
102
RTVSPost2010Prop50
 90
       50
102
RTVSPost2010PropOp50
 70
     1
102
RTVSPost2010Prop51ColorIndex
 90
      256
102
RTVSPost2010Prop51ColorRGB
 90
-16777216
102
RTVSPost2010PropOp51
 70
     0
102
RTVSPost2010Prop52
140
1.0
102
RTVSPost2010PropOp52
 70
     0
102
RTVSPost2010Prop53
 90
        2
102
RTVSPost2010PropOp53
 70
     1
102
RTVSPost2010Prop54
  1
strokes_ogs.tif
102
RTVSPost2010PropOp54
 70
     1
102
RTVSPost2010Prop55
280
     0
102
RTVSPost2010PropOp55
 70
     1
102
RTVSPost2010Prop56
140
1.0
102
RTVSPost2010PropOp56
 70
     1
102
RTVSPost2010Prop57
140
1.0
102
RTVSPost2010PropOp57
 70
     1
  0
XRECORD
  5
DB
102
{ACAD_REACTORS
330
DA
102
}
330
DA
100
AcDbXrecord
280
     1
102
RTVSPost2010Prop28
280
     0
102
RTVSPost2010PropOp28
 70
     1
102
RTVSPost2010Prop29
280
     1
102
RTVSPost2010PropOp29
 70
     1
102
RTVSPost2010Prop30
280
     1
102
RTVSPost2010PropOp30
 70
     1
102
RTVSPost2010Prop31
280
     0
102
RTVSPost2010PropOp31
 70
     1
102
RTVSPost2010Prop32
280
     0
102
RTVSPost2010PropOp32
 70
     1
102
RTVSPost2010Prop33
280
     0
102
RTVSPost2010PropOp33
 70
     1
102
RTVSPost2010Prop34
280
     0
102
RTVSPost2010PropOp34
 70
     1
102
RTVSPost2010Prop35
280
     0
102
RTVSPost2010PropOp35
 70
     1
102
RTVSPost2010Prop36
280
     0
102
RTVSPost2010PropOp36
 70
     1
102
RTVSPost2010Prop37
 90
       50
102
RTVSPost2010PropOp37
 70
     1
102
RTVSPost2010Prop38
140
0.0
102
RTVSPost2010PropOp38
 70
     1
102
RTVSPost2010Prop39
140
1.0
102
RTVSPost2010PropOp39
 70
     1
102
RTVSPost2010Prop40
 90
        0
102
RTVSPost2010PropOp40
 70
     1
102
RTVSPost2010Prop41ColorIndex
 90
       18
102
RTVSPost2010Prop41ColorRGB
 90
        0
102
RTVSPost2010PropOp41
 70
     1
102
RTVSPost2010Prop42
 90
       50
102
RTVSPost2010PropOp42
 70
     1
102
RTVSPost2010Prop43
 90
        3
102
RTVSPost2010PropOp43
 70
     1
102
RTVSPost2010Prop44ColorIndex
 90
        5
102
RTVSPost2010Prop44ColorRGB
 90
      255
102
RTVSPost2010PropOp44
 70
     1
102
RTVSPost2010Prop45
280
     0
102
RTVSPost2010PropOp45
 70
     1
102
RTVSPost2010Prop46
 90
       50
102
RTVSPost2010PropOp46
 70
     1
102
RTVSPost2010Prop47
 90
       50
102
RTVSPost2010PropOp47
 70
     1
102
RTVSPost2010Prop48
 90
       50
102
RTVSPost2010PropOp48
 70
     1
102
RTVSPost2010Prop49
280
     0
102
RTVSPost2010PropOp49
 70
     1
102
RTVSPost2010Prop50
 90
       50
102
RTVSPost2010PropOp50
 70
     1
102
RTVSPost2010Prop51ColorIndex
 90
      256
102
RTVSPost2010Prop51ColorRGB
 90
-16777216
102
RTVSPost2010PropOp51
 70
     0
102
RTVSPost2010Prop52
140
1.0
102
RTVSPost2010PropOp52
 70
     0
102
RTVSPost2010Prop53
 90
        2
102
RTVSPost2010PropOp53
 70
     1
102
RTVSPost2010Prop54
  1
strokes_ogs.tif
102
RTVSPost2010PropOp54
 70
     1
102
RTVSPost2010Prop55
280
     0
102
RTVSPost2010PropOp55
 70
     1
102
RTVSPost2010Prop56
140
1.0
102
RTVSPost2010PropOp56
 70
     1
102
RTVSPost2010Prop57
140
1.0
102
RTVSPost2010PropOp57
 70
     1
  0
XRECORD
  5
DD
102
{ACAD_REACTORS
330
DC
102
}
330
DC
100
AcDbXrecord
280
     1
102
RTVSPost2010Prop28
280
     0
102
RTVSPost2010PropOp28
 70
     1
102
RTVSPost2010Prop29
280
     1
102
RTVSPost2010PropOp29
 70
     1
102
RTVSPost2010Prop30
280
     1
102
RTVSPost2010PropOp30
 70
     1
102
RTVSPost2010Prop31
280
     0
102
RTVSPost2010PropOp31
 70
     1
102
RTVSPost2010Prop32
280
     0
102
RTVSPost2010PropOp32
 70
     1
102
RTVSPost2010Prop33
280
     0
102
RTVSPost2010PropOp33
 70
     1
102
RTVSPost2010Prop34
280
     0
102
RTVSPost2010PropOp34
 70
     1
102
RTVSPost2010Prop35
280
     0
102
RTVSPost2010PropOp35
 70
     1
102
RTVSPost2010Prop36
280
     0
102
RTVSPost2010PropOp36
 70
     1
102
RTVSPost2010Prop37
 90
       50
102
RTVSPost2010PropOp37
 70
     1
102
RTVSPost2010Prop38
140
0.0
102
RTVSPost2010PropOp38
 70
     1
102
RTVSPost2010Prop39
140
1.0
102
RTVSPost2010PropOp39
 70
     1
102
RTVSPost2010Prop40
 90
        0
102
RTVSPost2010PropOp40
 70
     1
102
RTVSPost2010Prop41ColorIndex
 90
       18
102
RTVSPost2010Prop41ColorRGB
 90
        0
102
RTVSPost2010PropOp41
 70
     1
102
RTVSPost2010Prop42
 90
       50
102
RTVSPost2010PropOp42
 70
     1
102
RTVSPost2010Prop43
 90
        3
102
RTVSPost2010PropOp43
 70
     1
102
RTVSPost2010Prop44ColorIndex
 90
        5
102
RTVSPost2010Prop44ColorRGB
 90
      255
102
RTVSPost2010PropOp44
 70
     1
102
RTVSPost2010Prop45
280
     0
102
RTVSPost2010PropOp45
 70
     1
102
RTVSPost2010Prop46
 90
       50
102
RTVSPost2010PropOp46
 70
     1
102
RTVSPost2010Prop47
 90
       50
102
RTVSPost2010PropOp47
 70
     1
102
RTVSPost2010Prop48
 90
       50
102
RTVSPost2010PropOp48
 70
     1
102
RTVSPost2010Prop49
280
     0
102
RTVSPost2010PropOp49
 70
     1
102
RTVSPost2010Prop50
 90
       50
102
RTVSPost2010PropOp50
 70
     1
102
RTVSPost2010Prop51ColorIndex
 90
      256
102
RTVSPost2010Prop51ColorRGB
 90
-16777216
102
RTVSPost2010PropOp51
 70
     0
102
RTVSPost2010Prop52
140
1.0
102
RTVSPost2010PropOp52
 70
     0
102
RTVSPost2010Prop53
 90
        2
102
RTVSPost2010PropOp53
 70
     1
102
RTVSPost2010Prop54
  1
strokes_ogs.tif
102
RTVSPost2010PropOp54
 70
     1
102
RTVSPost2010Prop55
280
     0
102
RTVSPost2010PropOp55
 70
     1
102
RTVSPost2010Prop56
140
1.0
102
RTVSPost2010PropOp56
 70
     1
102
RTVSPost2010Prop57
140
1.0
102
RTVSPost2010PropOp57
 70
     1
  0
XRECORD
  5
E5
102
{ACAD_REACTORS
330
E4
102
}
330
E4
100
AcDbXrecord
280
     1
102
RTVSPost2010Prop28
280
     0
102
RTVSPost2010PropOp28
 70
     1
102
RTVSPost2010Prop29
280
     1
102
RTVSPost2010PropOp29
 70
     1
102
RTVSPost2010Prop30
280
     1
102
RTVSPost2010PropOp30
 70
     1
102
RTVSPost2010Prop31
280
     0
102
RTVSPost2010PropOp31
 70
     1
102
RTVSPost2010Prop32
280
     0
102
RTVSPost2010PropOp32
 70
     1
102
RTVSPost2010Prop33
280
     0
102
RTVSPost2010PropOp33
 70
     1
102
RTVSPost2010Prop34
280
     0
102
RTVSPost2010PropOp34
 70
     1
102
RTVSPost2010Prop35
280
     0
102
RTVSPost2010PropOp35
 70
     1
102
RTVSPost2010Prop36
280
     0
102
RTVSPost2010PropOp36
 70
     1
102
RTVSPost2010Prop37
 90
       50
102
RTVSPost2010PropOp37
 70
     1
102
RTVSPost2010Prop38
140
0.0
102
RTVSPost2010PropOp38
 70
     1
102
RTVSPost2010Prop39
140
1.0
102
RTVSPost2010PropOp39
 70
     1
102
RTVSPost2010Prop40
 90
        0
102
RTVSPost2010PropOp40
 70
     1
102
RTVSPost2010Prop41ColorIndex
 90
       18
102
RTVSPost2010Prop41ColorRGB
 90
        0
102
RTVSPost2010PropOp41
 70
     1
102
RTVSPost2010Prop42
 90
       50
102
RTVSPost2010PropOp42
 70
     1
102
RTVSPost2010Prop43
 90
        3
102
RTVSPost2010PropOp43
 70
     1
102
RTVSPost2010Prop44ColorIndex
 90
        5
102
RTVSPost2010Prop44ColorRGB
 90
      255
102
RTVSPost2010PropOp44
 70
     1
102
RTVSPost2010Prop45
280
     0
102
RTVSPost2010PropOp45
 70
     1
102
RTVSPost2010Prop46
 90
       50
102
RTVSPost2010PropOp46
 70
     1
102
RTVSPost2010Prop47
 90
       50
102
RTVSPost2010PropOp47
 70
     1
102
RTVSPost2010Prop48
 90
       50
102
RTVSPost2010PropOp48
 70
     1
102
RTVSPost2010Prop49
280
     0
102
RTVSPost2010PropOp49
 70
     1
102
RTVSPost2010Prop50
 90
       50
102
RTVSPost2010PropOp50
 70
     1
102
RTVSPost2010Prop51ColorIndex
 90
      256
102
RTVSPost2010Prop51ColorRGB
 90
-16777216
102
RTVSPost2010PropOp51
 70
     0
102
RTVSPost2010Prop52
140
1.0
102
RTVSPost2010PropOp52
 70
     0
102
RTVSPost2010Prop53
 90
        2
102
RTVSPost2010PropOp53
 70
     1
102
RTVSPost2010Prop54
  1
strokes_ogs.tif
102
RTVSPost2010PropOp54
 70
     1
102
RTVSPost2010Prop55
280
     0
102
RTVSPost2010PropOp55
 70
     1
102
RTVSPost2010Prop56
140
1.0
102
RTVSPost2010PropOp56
 70
     1
102
RTVSPost2010Prop57
140
1.0
102
RTVSPost2010PropOp57
 70
     1
  0
XRECORD
  5
101
102
{ACAD_REACTORS
330
100
102
}
330
100
100
AcDbXrecord
280
     1
102
RTVSPost2010Prop28
280
     0
102
RTVSPost2010PropOp28
 70
     0
102
RTVSPost2010Prop29
280
     1
102
RTVSPost2010PropOp29
 70
     0
102
RTVSPost2010Prop30
280
     1
102
RTVSPost2010PropOp30
 70
     0
102
RTVSPost2010Prop31
280
     0
102
RTVSPost2010PropOp31
 70
     0
102
RTVSPost2010Prop32
280
     0
102
RTVSPost2010PropOp32
 70
     0
102
RTVSPost2010Prop33
280
     0
102
RTVSPost2010PropOp33
 70
     0
102
RTVSPost2010Prop34
280
     0
102
RTVSPost2010PropOp34
 70
     0
102
RTVSPost2010Prop35
280
     0
102
RTVSPost2010PropOp35
 70
     0
102
RTVSPost2010Prop36
280
     0
102
RTVSPost2010PropOp36
 70
     0
102
RTVSPost2010Prop37
 90
       50
102
RTVSPost2010PropOp37
 70
     0
102
RTVSPost2010Prop38
140
0.0
102
RTVSPost2010PropOp38
 70
     0
102
RTVSPost2010Prop39
140
1.0
102
RTVSPost2010PropOp39
 70
     0
102
RTVSPost2010Prop40
 90
        0
102
RTVSPost2010PropOp40
 70
     0
102
RTVSPost2010Prop41ColorIndex
 90
       18
102
RTVSPost2010Prop41ColorRGB
 90
        0
102
RTVSPost2010PropOp41
 70
     0
102
RTVSPost2010Prop42
 90
       50
102
RTVSPost2010PropOp42
 70
     0
102
RTVSPost2010Prop43
 90
        3
102
RTVSPost2010PropOp43
 70
     0
102
RTVSPost2010Prop44ColorIndex
 90
        5
102
RTVSPost2010Prop44ColorRGB
 90
      255
102
RTVSPost2010PropOp44
 70
     0
102
RTVSPost2010Prop45
280
     0
102
RTVSPost2010PropOp45
 70
     0
102
RTVSPost2010Prop46
 90
       50
102
RTVSPost2010PropOp46
 70
     0
102
RTVSPost2010Prop47
 90
       50
102
RTVSPost2010PropOp47
 70
     0
102
RTVSPost2010Prop48
 90
       50
102
RTVSPost2010PropOp48
 70
     0
102
RTVSPost2010Prop49
280
     0
102
RTVSPost2010PropOp49
 70
     0
102
RTVSPost2010Prop50
 90
       50
102
RTVSPost2010PropOp50
 70
     0
102
RTVSPost2010Prop51ColorIndex
 90
      256
102
RTVSPost2010Prop51ColorRGB
 90
-16777216
102
RTVSPost2010PropOp51
 70
     0
102
RTVSPost2010Prop52
140
1.0
102
RTVSPost2010PropOp52
 70
     0
102
RTVSPost2010Prop53
 90
        2
102
RTVSPost2010PropOp53
 70
     0
102
RTVSPost2010Prop54
  1
strokes_ogs.tif
102
RTVSPost2010PropOp54
 70
     0
102
RTVSPost2010Prop55
280
     0
102
RTVSPost2010PropOp55
 70
     0
102
RTVSPost2010Prop56
140
1.0
102
RTVSPost2010PropOp56
 70
     0
102
RTVSPost2010Prop57
140
1.0
102
RTVSPost2010PropOp57
 70
     0
  0
XRECORD
  5
F1
102
{ACAD_REACTORS
330
F0
102
}
330
F0
100
AcDbXrecord
280
     1
102
RTVSPost2010Prop28
280
     0
102
RTVSPost2010PropOp28
 70
     1
102
RTVSPost2010Prop29
280
     1
102
RTVSPost2010PropOp29
 70
     1
102
RTVSPost2010Prop30
280
     1
102
RTVSPost2010PropOp30
 70
     1
102
RTVSPost2010Prop31
280
     0
102
RTVSPost2010PropOp31
 70
     1
102
RTVSPost2010Prop32
280
     0
102
RTVSPost2010PropOp32
 70
     1
102
RTVSPost2010Prop33
280
     0
102
RTVSPost2010PropOp33
 70
     1
102
RTVSPost2010Prop34
280
     0
102
RTVSPost2010PropOp34
 70
     1
102
RTVSPost2010Prop35
280
     0
102
RTVSPost2010PropOp35
 70
     1
102
RTVSPost2010Prop36
280
     0
102
RTVSPost2010PropOp36
 70
     1
102
RTVSPost2010Prop37
 90
       50
102
RTVSPost2010PropOp37
 70
     1
102
RTVSPost2010Prop38
140
0.0
102
RTVSPost2010PropOp38
 70
     1
102
RTVSPost2010Prop39
140
1.0
102
RTVSPost2010PropOp39
 70
     1
102
RTVSPost2010Prop40
 90
        0
102
RTVSPost2010PropOp40
 70
     1
102
RTVSPost2010Prop41ColorIndex
 90
       18
102
RTVSPost2010Prop41ColorRGB
 90
        0
102
RTVSPost2010PropOp41
 70
     1
102
RTVSPost2010Prop42
 90
       50
102
RTVSPost2010PropOp42
 70
     1
102
RTVSPost2010Prop43
 90
        3
102
RTVSPost2010PropOp43
 70
     1
102
RTVSPost2010Prop44ColorIndex
 90
        5
102
RTVSPost2010Prop44ColorRGB
 90
      255
102
RTVSPost2010PropOp44
 70
     1
102
RTVSPost2010Prop45
280
     0
102
RTVSPost2010PropOp45
 70
     1
102
RTVSPost2010Prop46
 90
       50
102
RTVSPost2010PropOp46
 70
     1
102
RTVSPost2010Prop47
 90
       50
102
RTVSPost2010PropOp47
 70
     1
102
RTVSPost2010Prop48
 90
       50
102
RTVSPost2010PropOp48
 70
     1
102
RTVSPost2010Prop49
280
     0
102
RTVSPost2010PropOp49
 70
     1
102
RTVSPost2010Prop50
 90
       50
102
RTVSPost2010PropOp50
 70
     1
102
RTVSPost2010Prop51ColorIndex
 90
      256
102
RTVSPost2010Prop51ColorRGB
 90
-16777216
102
RTVSPost2010PropOp51
 70
     0
102
RTVSPost2010Prop52
140
1.0
102
RTVSPost2010PropOp52
 70
     0
102
RTVSPost2010Prop53
 90
        2
102
RTVSPost2010PropOp53
 70
     1
102
RTVSPost2010Prop54
  1
strokes_ogs.tif
102
RTVSPost2010PropOp54
 70
     1
102
RTVSPost2010Prop55
280
     0
102
RTVSPost2010PropOp55
 70
     1
102
RTVSPost2010Prop56
140
1.0
102
RTVSPost2010PropOp56
 70
     1
102
RTVSPost2010Prop57
140
1.0
102
RTVSPost2010PropOp57
 70
     1
  0
XRECORD
  5
103
102
{ACAD_REACTORS
330
102
102
}
330
102
100
AcDbXrecord
280
     1
102
RTVSPost2010Prop28
280
     0
102
RTVSPost2010PropOp28
 70
     0
102
RTVSPost2010Prop29
280
     1
102
RTVSPost2010PropOp29
 70
     0
102
RTVSPost2010Prop30
280
     1
102
RTVSPost2010PropOp30
 70
     0
102
RTVSPost2010Prop31
280
     0
102
RTVSPost2010PropOp31
 70
     0
102
RTVSPost2010Prop32
280
     0
102
RTVSPost2010PropOp32
 70
     0
102
RTVSPost2010Prop33
280
     0
102
RTVSPost2010PropOp33
 70
     0
102
RTVSPost2010Prop34
280
     0
102
RTVSPost2010PropOp34
 70
     0
102
RTVSPost2010Prop35
280
     0
102
RTVSPost2010PropOp35
 70
     0
102
RTVSPost2010Prop36
280
     0
102
RTVSPost2010PropOp36
 70
     0
102
RTVSPost2010Prop37
 90
       50
102
RTVSPost2010PropOp37
 70
     0
102
RTVSPost2010Prop38
140
0.0
102
RTVSPost2010PropOp38
 70
     0
102
RTVSPost2010Prop39
140
1.0
102
RTVSPost2010PropOp39
 70
     0
102
RTVSPost2010Prop40
 90
        0
102
RTVSPost2010PropOp40
 70
     0
102
RTVSPost2010Prop41ColorIndex
 90
       18
102
RTVSPost2010Prop41ColorRGB
 90
        0
102
RTVSPost2010PropOp41
 70
     0
102
RTVSPost2010Prop42
 90
       50
102
RTVSPost2010PropOp42
 70
     0
102
RTVSPost2010Prop43
 90
        3
102
RTVSPost2010PropOp43
 70
     0
102
RTVSPost2010Prop44ColorIndex
 90
        5
102
RTVSPost2010Prop44ColorRGB
 90
      255
102
RTVSPost2010PropOp44
 70
     0
102
RTVSPost2010Prop45
280
     0
102
RTVSPost2010PropOp45
 70
     0
102
RTVSPost2010Prop46
 90
       50
102
RTVSPost2010PropOp46
 70
     0
102
RTVSPost2010Prop47
 90
       50
102
RTVSPost2010PropOp47
 70
     0
102
RTVSPost2010Prop48
 90
       50
102
RTVSPost2010PropOp48
 70
     0
102
RTVSPost2010Prop49
280
     0
102
RTVSPost2010PropOp49
 70
     0
102
RTVSPost2010Prop50
 90
       50
102
RTVSPost2010PropOp50
 70
     0
102
RTVSPost2010Prop51ColorIndex
 90
      256
102
RTVSPost2010Prop51ColorRGB
 90
-16777216
102
RTVSPost2010PropOp51
 70
     0
102
RTVSPost2010Prop52
140
1.0
102
RTVSPost2010PropOp52
 70
     0
102
RTVSPost2010Prop53
 90
        2
102
RTVSPost2010PropOp53
 70
     0
102
RTVSPost2010Prop54
  1
strokes_ogs.tif
102
RTVSPost2010PropOp54
 70
     0
102
RTVSPost2010Prop55
280
     0
102
RTVSPost2010PropOp55
 70
     0
102
RTVSPost2010Prop56
140
1.0
102
RTVSPost2010PropOp56
 70
     0
102
RTVSPost2010Prop57
140
1.0
102
RTVSPost2010PropOp57
 70
     0
  0
XRECORD
  5
E9
102
{ACAD_REACTORS
330
E8
102
}
330
E8
100
AcDbXrecord
280
     1
102
RTVSPost2010Prop28
280
     0
102
RTVSPost2010PropOp28
 70
     1
102
RTVSPost2010Prop29
280
     1
102
RTVSPost2010PropOp29
 70
     1
102
RTVSPost2010Prop30
280
     1
102
RTVSPost2010PropOp30
 70
     1
102
RTVSPost2010Prop31
280
     0
102
RTVSPost2010PropOp31
 70
     1
102
RTVSPost2010Prop32
280
     0
102
RTVSPost2010PropOp32
 70
     1
102
RTVSPost2010Prop33
280
     0
102
RTVSPost2010PropOp33
 70
     1
102
RTVSPost2010Prop34
280
     0
102
RTVSPost2010PropOp34
 70
     1
102
RTVSPost2010Prop35
280
     0
102
RTVSPost2010PropOp35
 70
     1
102
RTVSPost2010Prop36
280
     0
102
RTVSPost2010PropOp36
 70
     1
102
RTVSPost2010Prop37
 90
       50
102
RTVSPost2010PropOp37
 70
     1
102
RTVSPost2010Prop38
140
0.0
102
RTVSPost2010PropOp38
 70
     1
102
RTVSPost2010Prop39
140
1.0
102
RTVSPost2010PropOp39
 70
     1
102
RTVSPost2010Prop40
 90
        0
102
RTVSPost2010PropOp40
 70
     1
102
RTVSPost2010Prop41ColorIndex
 90
       18
102
RTVSPost2010Prop41ColorRGB
 90
        0
102
RTVSPost2010PropOp41
 70
     1
102
RTVSPost2010Prop42
 90
       50
102
RTVSPost2010PropOp42
 70
     1
102
RTVSPost2010Prop43
 90
        3
102
RTVSPost2010PropOp43
 70
     1
102
RTVSPost2010Prop44ColorIndex
 90
        5
102
RTVSPost2010Prop44ColorRGB
 90
      255
102
RTVSPost2010PropOp44
 70
     1
102
RTVSPost2010Prop45
280
     0
102
RTVSPost2010PropOp45
 70
     1
102
RTVSPost2010Prop46
 90
       50
102
RTVSPost2010PropOp46
 70
     1
102
RTVSPost2010Prop47
 90
       50
102
RTVSPost2010PropOp47
 70
     1
102
RTVSPost2010Prop48
 90
       50
102
RTVSPost2010PropOp48
 70
     1
102
RTVSPost2010Prop49
280
     0
102
RTVSPost2010PropOp49
 70
     1
102
RTVSPost2010Prop50
 90
       50
102
RTVSPost2010PropOp50
 70
     1
102
RTVSPost2010Prop51ColorIndex
 90
      256
102
RTVSPost2010Prop51ColorRGB
 90
-16777216
102
RTVSPost2010PropOp51
 70
     0
102
RTVSPost2010Prop52
140
1.0
102
RTVSPost2010PropOp52
 70
     0
102
RTVSPost2010Prop53
 90
        2
102
RTVSPost2010PropOp53
 70
     1
102
RTVSPost2010Prop54
  1
strokes_ogs.tif
102
RTVSPost2010PropOp54
 70
     1
102
RTVSPost2010Prop55
280
     0
102
RTVSPost2010PropOp55
 70
     1
102
RTVSPost2010Prop56
140
1.0
102
RTVSPost2010PropOp56
 70
     1
102
RTVSPost2010Prop57
140
1.0
102
RTVSPost2010PropOp57
 70
     1
  0
XRECORD
  5
FF
102
{ACAD_REACTORS
330
FE
102
}
330
FE
100
AcDbXrecord
280
     1
102
RTVSPost2010Prop28
280
     0
102
RTVSPost2010PropOp28
 70
     1
102
RTVSPost2010Prop29
280
     1
102
RTVSPost2010PropOp29
 70
     1
102
RTVSPost2010Prop30
280
     1
102
RTVSPost2010PropOp30
 70
     1
102
RTVSPost2010Prop31
280
     0
102
RTVSPost2010PropOp31
 70
     1
102
RTVSPost2010Prop32
280
     0
102
RTVSPost2010PropOp32
 70
     1
102
RTVSPost2010Prop33
280
     0
102
RTVSPost2010PropOp33
 70
     1
102
RTVSPost2010Prop34
280
     0
102
RTVSPost2010PropOp34
 70
     1
102
RTVSPost2010Prop35
280
     0
102
RTVSPost2010PropOp35
 70
     1
102
RTVSPost2010Prop36
280
     0
102
RTVSPost2010PropOp36
 70
     1
102
RTVSPost2010Prop37
 90
       50
102
RTVSPost2010PropOp37
 70
     1
102
RTVSPost2010Prop38
140
0.0
102
RTVSPost2010PropOp38
 70
     1
102
RTVSPost2010Prop39
140
1.0
102
RTVSPost2010PropOp39
 70
     1
102
RTVSPost2010Prop40
 90
        0
102
RTVSPost2010PropOp40
 70
     1
102
RTVSPost2010Prop41ColorIndex
 90
       18
102
RTVSPost2010Prop41ColorRGB
 90
        0
102
RTVSPost2010PropOp41
 70
     1
102
RTVSPost2010Prop42
 90
       50
102
RTVSPost2010PropOp42
 70
     1
102
RTVSPost2010Prop43
 90
        3
102
RTVSPost2010PropOp43
 70
     1
102
RTVSPost2010Prop44ColorIndex
 90
        5
102
RTVSPost2010Prop44ColorRGB
 90
      255
102
RTVSPost2010PropOp44
 70
     1
102
RTVSPost2010Prop45
280
     0
102
RTVSPost2010PropOp45
 70
     1
102
RTVSPost2010Prop46
 90
       50
102
RTVSPost2010PropOp46
 70
     1
102
RTVSPost2010Prop47
 90
       50
102
RTVSPost2010PropOp47
 70
     1
102
RTVSPost2010Prop48
 90
       50
102
RTVSPost2010PropOp48
 70
     1
102
RTVSPost2010Prop49
280
     0
102
RTVSPost2010PropOp49
 70
     1
102
RTVSPost2010Prop50
 90
       50
102
RTVSPost2010PropOp50
 70
     1
102
RTVSPost2010Prop51ColorIndex
 90
      256
102
RTVSPost2010Prop51ColorRGB
 90
-16777216
102
RTVSPost2010PropOp51
 70
     0
102
RTVSPost2010Prop52
140
1.0
102
RTVSPost2010PropOp52
 70
     0
102
RTVSPost2010Prop53
 90
        2
102
RTVSPost2010PropOp53
 70
     1
102
RTVSPost2010Prop54
  1
strokes_ogs.tif
102
RTVSPost2010PropOp54
 70
     1
102
RTVSPost2010Prop55
280
     0
102
RTVSPost2010PropOp55
 70
     1
102
RTVSPost2010Prop56
140
1.0
102
RTVSPost2010PropOp56
 70
     1
102
RTVSPost2010Prop57
140
1.0
102
RTVSPost2010PropOp57
 70
     1
  0
XRECORD
  5
FD
102
{ACAD_REACTORS
330
FC
102
}
330
FC
100
AcDbXrecord
280
     1
102
RTVSPost2010Prop28
280
     0
102
RTVSPost2010PropOp28
 70
     1
102
RTVSPost2010Prop29
280
     1
102
RTVSPost2010PropOp29
 70
     1
102
RTVSPost2010Prop30
280
     1
102
RTVSPost2010PropOp30
 70
     1
102
RTVSPost2010Prop31
280
     0
102
RTVSPost2010PropOp31
 70
     1
102
RTVSPost2010Prop32
280
     0
102
RTVSPost2010PropOp32
 70
     1
102
RTVSPost2010Prop33
280
     0
102
RTVSPost2010PropOp33
 70
     1
102
RTVSPost2010Prop34
280
     0
102
RTVSPost2010PropOp34
 70
     1
102
RTVSPost2010Prop35
280
     0
102
RTVSPost2010PropOp35
 70
     1
102
RTVSPost2010Prop36
280
     0
102
RTVSPost2010PropOp36
 70
     1
102
RTVSPost2010Prop37
 90
       50
102
RTVSPost2010PropOp37
 70
     1
102
RTVSPost2010Prop38
140
0.0
102
RTVSPost2010PropOp38
 70
     1
102
RTVSPost2010Prop39
140
1.0
102
RTVSPost2010PropOp39
 70
     1
102
RTVSPost2010Prop40
 90
        0
102
RTVSPost2010PropOp40
 70
     1
102
RTVSPost2010Prop41ColorIndex
 90
       18
102
RTVSPost2010Prop41ColorRGB
 90
        0
102
RTVSPost2010PropOp41
 70
     1
102
RTVSPost2010Prop42
 90
       50
102
RTVSPost2010PropOp42
 70
     1
102
RTVSPost2010Prop43
 90
        3
102
RTVSPost2010PropOp43
 70
     1
102
RTVSPost2010Prop44ColorIndex
 90
        5
102
RTVSPost2010Prop44ColorRGB
 90
      255
102
RTVSPost2010PropOp44
 70
     1
102
RTVSPost2010Prop45
280
     0
102
RTVSPost2010PropOp45
 70
     1
102
RTVSPost2010Prop46
 90
       50
102
RTVSPost2010PropOp46
 70
     1
102
RTVSPost2010Prop47
 90
       50
102
RTVSPost2010PropOp47
 70
     1
102
RTVSPost2010Prop48
 90
       50
102
RTVSPost2010PropOp48
 70
     1
102
RTVSPost2010Prop49
280
     0
102
RTVSPost2010PropOp49
 70
     1
102
RTVSPost2010Prop50
 90
       50
102
RTVSPost2010PropOp50
 70
     1
102
RTVSPost2010Prop51ColorIndex
 90
      256
102
RTVSPost2010Prop51ColorRGB
 90
-16777216
102
RTVSPost2010PropOp51
 70
     0
102
RTVSPost2010Prop52
140
1.0
102
RTVSPost2010PropOp52
 70
     0
102
RTVSPost2010Prop53
 90
        2
102
RTVSPost2010PropOp53
 70
     1
102
RTVSPost2010Prop54
  1
strokes_ogs.tif
102
RTVSPost2010PropOp54
 70
     1
102
RTVSPost2010Prop55
280
     0
102
RTVSPost2010PropOp55
 70
     1
102
RTVSPost2010Prop56
140
1.0
102
RTVSPost2010PropOp56
 70
     1
102
RTVSPost2010Prop57
140
1.0
102
RTVSPost2010PropOp57
 70
     1
  0
XRECORD
  5
F7
102
{ACAD_REACTORS
330
F6
102
}
330
F6
100
AcDbXrecord
280
     1
102
RTVSPost2010Prop28
280
     0
102
RTVSPost2010PropOp28
 70
     1
102
RTVSPost2010Prop29
280
     1
102
RTVSPost2010PropOp29
 70
     1
102
RTVSPost2010Prop30
280
     1
102
RTVSPost2010PropOp30
 70
     1
102
RTVSPost2010Prop31
280
     0
102
RTVSPost2010PropOp31
 70
     1
102
RTVSPost2010Prop32
280
     0
102
RTVSPost2010PropOp32
 70
     1
102
RTVSPost2010Prop33
280
     0
102
RTVSPost2010PropOp33
 70
     1
102
RTVSPost2010Prop34
280
     0
102
RTVSPost2010PropOp34
 70
     1
102
RTVSPost2010Prop35
280
     0
102
RTVSPost2010PropOp35
 70
     1
102
RTVSPost2010Prop36
280
     0
102
RTVSPost2010PropOp36
 70
     1
102
RTVSPost2010Prop37
 90
       50
102
RTVSPost2010PropOp37
 70
     1
102
RTVSPost2010Prop38
140
0.0
102
RTVSPost2010PropOp38
 70
     1
102
RTVSPost2010Prop39
140
1.0
102
RTVSPost2010PropOp39
 70
     1
102
RTVSPost2010Prop40
 90
        0
102
RTVSPost2010PropOp40
 70
     1
102
RTVSPost2010Prop41ColorIndex
 90
       18
102
RTVSPost2010Prop41ColorRGB
 90
        0
102
RTVSPost2010PropOp41
 70
     1
102
RTVSPost2010Prop42
 90
       50
102
RTVSPost2010PropOp42
 70
     1
102
RTVSPost2010Prop43
 90
        3
102
RTVSPost2010PropOp43
 70
     1
102
RTVSPost2010Prop44ColorIndex
 90
        5
102
RTVSPost2010Prop44ColorRGB
 90
      255
102
RTVSPost2010PropOp44
 70
     1
102
RTVSPost2010Prop45
280
     0
102
RTVSPost2010PropOp45
 70
     1
102
RTVSPost2010Prop46
 90
       50
102
RTVSPost2010PropOp46
 70
     1
102
RTVSPost2010Prop47
 90
       50
102
RTVSPost2010PropOp47
 70
     1
102
RTVSPost2010Prop48
 90
       50
102
RTVSPost2010PropOp48
 70
     1
102
RTVSPost2010Prop49
280
     0
102
RTVSPost2010PropOp49
 70
     1
102
RTVSPost2010Prop50
 90
       50
102
RTVSPost2010PropOp50
 70
     1
102
RTVSPost2010Prop51ColorIndex
 90
      256
102
RTVSPost2010Prop51ColorRGB
 90
-16777216
102
RTVSPost2010PropOp51
 70
     0
102
RTVSPost2010Prop52
140
1.0
102
RTVSPost2010PropOp52
 70
     0
102
RTVSPost2010Prop53
 90
        2
102
RTVSPost2010PropOp53
 70
     1
102
RTVSPost2010Prop54
  1
strokes_ogs.tif
102
RTVSPost2010PropOp54
 70
     1
102
RTVSPost2010Prop55
280
     0
102
RTVSPost2010PropOp55
 70
     1
102
RTVSPost2010Prop56
140
1.0
102
RTVSPost2010PropOp56
 70
     1
102
RTVSPost2010Prop57
140
1.0
102
RTVSPost2010PropOp57
 70
     1
  0
XRECORD
  5
F9
102
{ACAD_REACTORS
330
F8
102
}
330
F8
100
AcDbXrecord
280
     1
102
RTVSPost2010Prop28
280
     0
102
RTVSPost2010PropOp28
 70
     1
102
RTVSPost2010Prop29
280
     1
102
RTVSPost2010PropOp29
 70
     1
102
RTVSPost2010Prop30
280
     1
102
RTVSPost2010PropOp30
 70
     1
102
RTVSPost2010Prop31
280
     0
102
RTVSPost2010PropOp31
 70
     1
102
RTVSPost2010Prop32
280
     0
102
RTVSPost2010PropOp32
 70
     1
102
RTVSPost2010Prop33
280
     0
102
RTVSPost2010PropOp33
 70
     1
102
RTVSPost2010Prop34
280
     0
102
RTVSPost2010PropOp34
 70
     1
102
RTVSPost2010Prop35
280
     0
102
RTVSPost2010PropOp35
 70
     1
102
RTVSPost2010Prop36
280
     0
102
RTVSPost2010PropOp36
 70
     1
102
RTVSPost2010Prop37
 90
       50
102
RTVSPost2010PropOp37
 70
     1
102
RTVSPost2010Prop38
140
0.0
102
RTVSPost2010PropOp38
 70
     1
102
RTVSPost2010Prop39
140
1.0
102
RTVSPost2010PropOp39
 70
     1
102
RTVSPost2010Prop40
 90
        0
102
RTVSPost2010PropOp40
 70
     1
102
RTVSPost2010Prop41ColorIndex
 90
       18
102
RTVSPost2010Prop41ColorRGB
 90
        0
102
RTVSPost2010PropOp41
 70
     1
102
RTVSPost2010Prop42
 90
       50
102
RTVSPost2010PropOp42
 70
     1
102
RTVSPost2010Prop43
 90
        3
102
RTVSPost2010PropOp43
 70
     1
102
RTVSPost2010Prop44ColorIndex
 90
        5
102
RTVSPost2010Prop44ColorRGB
 90
      255
102
RTVSPost2010PropOp44
 70
     1
102
RTVSPost2010Prop45
280
     0
102
RTVSPost2010PropOp45
 70
     1
102
RTVSPost2010Prop46
 90
       50
102
RTVSPost2010PropOp46
 70
     1
102
RTVSPost2010Prop47
 90
       50
102
RTVSPost2010PropOp47
 70
     1
102
RTVSPost2010Prop48
 90
       50
102
RTVSPost2010PropOp48
 70
     1
102
RTVSPost2010Prop49
280
     0
102
RTVSPost2010PropOp49
 70
     1
102
RTVSPost2010Prop50
 90
       50
102
RTVSPost2010PropOp50
 70
     1
102
RTVSPost2010Prop51ColorIndex
 90
      256
102
RTVSPost2010Prop51ColorRGB
 90
-16777216
102
RTVSPost2010PropOp51
 70
     0
102
RTVSPost2010Prop52
140
1.0
102
RTVSPost2010PropOp52
 70
     0
102
RTVSPost2010Prop53
 90
        2
102
RTVSPost2010PropOp53
 70
     1
102
RTVSPost2010Prop54
  1
strokes_ogs.tif
102
RTVSPost2010PropOp54
 70
     1
102
RTVSPost2010Prop55
280
     0
102
RTVSPost2010PropOp55
 70
     1
102
RTVSPost2010Prop56
140
1.0
102
RTVSPost2010PropOp56
 70
     1
102
RTVSPost2010Prop57
140
1.0
102
RTVSPost2010PropOp57
 70
     1
  0
XRECORD
  5
EF
102
{ACAD_REACTORS
330
EE
102
}
330
EE
100
AcDbXrecord
280
     1
102
RTVSPost2010Prop28
280
     0
102
RTVSPost2010PropOp28
 70
     1
102
RTVSPost2010Prop29
280
     1
102
RTVSPost2010PropOp29
 70
     1
102
RTVSPost2010Prop30
280
     1
102
RTVSPost2010PropOp30
 70
     1
102
RTVSPost2010Prop31
280
     0
102
RTVSPost2010PropOp31
 70
     1
102
RTVSPost2010Prop32
280
     0
102
RTVSPost2010PropOp32
 70
     1
102
RTVSPost2010Prop33
280
     0
102
RTVSPost2010PropOp33
 70
     1
102
RTVSPost2010Prop34
280
     0
102
RTVSPost2010PropOp34
 70
     1
102
RTVSPost2010Prop35
280
     0
102
RTVSPost2010PropOp35
 70
     1
102
RTVSPost2010Prop36
280
     0
102
RTVSPost2010PropOp36
 70
     1
102
RTVSPost2010Prop37
 90
       50
102
RTVSPost2010PropOp37
 70
     1
102
RTVSPost2010Prop38
140
0.0
102
RTVSPost2010PropOp38
 70
     1
102
RTVSPost2010Prop39
140
1.0
102
RTVSPost2010PropOp39
 70
     1
102
RTVSPost2010Prop40
 90
        0
102
RTVSPost2010PropOp40
 70
     1
102
RTVSPost2010Prop41ColorIndex
 90
       18
102
RTVSPost2010Prop41ColorRGB
 90
        0
102
RTVSPost2010PropOp41
 70
     1
102
RTVSPost2010Prop42
 90
       50
102
RTVSPost2010PropOp42
 70
     1
102
RTVSPost2010Prop43
 90
        3
102
RTVSPost2010PropOp43
 70
     1
102
RTVSPost2010Prop44ColorIndex
 90
        5
102
RTVSPost2010Prop44ColorRGB
 90
      255
102
RTVSPost2010PropOp44
 70
     1
102
RTVSPost2010Prop45
280
     0
102
RTVSPost2010PropOp45
 70
     1
102
RTVSPost2010Prop46
 90
       50
102
RTVSPost2010PropOp46
 70
     1
102
RTVSPost2010Prop47
 90
       50
102
RTVSPost2010PropOp47
 70
     1
102
RTVSPost2010Prop48
 90
       50
102
RTVSPost2010PropOp48
 70
     1
102
RTVSPost2010Prop49
280
     0
102
RTVSPost2010PropOp49
 70
     1
102
RTVSPost2010Prop50
 90
       50
102
RTVSPost2010PropOp50
 70
     1
102
RTVSPost2010Prop51ColorIndex
 90
      256
102
RTVSPost2010Prop51ColorRGB
 90
-16777216
102
RTVSPost2010PropOp51
 70
     0
102
RTVSPost2010Prop52
140
1.0
102
RTVSPost2010PropOp52
 70
     0
102
RTVSPost2010Prop53
 90
        2
102
RTVSPost2010PropOp53
 70
     1
102
RTVSPost2010Prop54
  1
strokes_ogs.tif
102
RTVSPost2010PropOp54
 70
     1
102
RTVSPost2010Prop55
280
     0
102
RTVSPost2010PropOp55
 70
     1
102
RTVSPost2010Prop56
140
1.0
102
RTVSPost2010PropOp56
 70
     1
102
RTVSPost2010Prop57
140
1.0
102
RTVSPost2010PropOp57
 70
     1
  0
XRECORD
  5
E3
102
{ACAD_REACTORS
330
E2
102
}
330
E2
100
AcDbXrecord
280
     1
102
RTVSPost2010Prop28
280
     0
102
RTVSPost2010PropOp28
 70
     1
102
RTVSPost2010Prop29
280
     1
102
RTVSPost2010PropOp29
 70
     1
102
RTVSPost2010Prop30
280
     1
102
RTVSPost2010PropOp30
 70
     1
102
RTVSPost2010Prop31
280
     0
102
RTVSPost2010PropOp31
 70
     1
102
RTVSPost2010Prop32
280
     0
102
RTVSPost2010PropOp32
 70
     1
102
RTVSPost2010Prop33
280
     0
102
RTVSPost2010PropOp33
 70
     1
102
RTVSPost2010Prop34
280
     0
102
RTVSPost2010PropOp34
 70
     1
102
RTVSPost2010Prop35
280
     0
102
RTVSPost2010PropOp35
 70
     1
102
RTVSPost2010Prop36
280
     0
102
RTVSPost2010PropOp36
 70
     1
102
RTVSPost2010Prop37
 90
       50
102
RTVSPost2010PropOp37
 70
     1
102
RTVSPost2010Prop38
140
0.0
102
RTVSPost2010PropOp38
 70
     1
102
RTVSPost2010Prop39
140
1.0
102
RTVSPost2010PropOp39
 70
     1
102
RTVSPost2010Prop40
 90
        0
102
RTVSPost2010PropOp40
 70
     1
102
RTVSPost2010Prop41ColorIndex
 90
       18
102
RTVSPost2010Prop41ColorRGB
 90
        0
102
RTVSPost2010PropOp41
 70
     1
102
RTVSPost2010Prop42
 90
       50
102
RTVSPost2010PropOp42
 70
     1
102
RTVSPost2010Prop43
 90
        3
102
RTVSPost2010PropOp43
 70
     1
102
RTVSPost2010Prop44ColorIndex
 90
        5
102
RTVSPost2010Prop44ColorRGB
 90
      255
102
RTVSPost2010PropOp44
 70
     1
102
RTVSPost2010Prop45
280
     0
102
RTVSPost2010PropOp45
 70
     1
102
RTVSPost2010Prop46
 90
       50
102
RTVSPost2010PropOp46
 70
     1
102
RTVSPost2010Prop47
 90
       50
102
RTVSPost2010PropOp47
 70
     1
102
RTVSPost2010Prop48
 90
       50
102
RTVSPost2010PropOp48
 70
     1
102
RTVSPost2010Prop49
280
     0
102
RTVSPost2010PropOp49
 70
     1
102
RTVSPost2010Prop50
 90
       50
102
RTVSPost2010PropOp50
 70
     1
102
RTVSPost2010Prop51ColorIndex
 90
      256
102
RTVSPost2010Prop51ColorRGB
 90
-16777216
102
RTVSPost2010PropOp51
 70
     0
102
RTVSPost2010Prop52
140
1.0
102
RTVSPost2010PropOp52
 70
     0
102
RTVSPost2010Prop53
 90
        2
102
RTVSPost2010PropOp53
 70
     1
102
RTVSPost2010Prop54
  1
strokes_ogs.tif
102
RTVSPost2010PropOp54
 70
     1
102
RTVSPost2010Prop55
280
     0
102
RTVSPost2010PropOp55
 70
     1
102
RTVSPost2010Prop56
140
1.0
102
RTVSPost2010PropOp56
 70
     1
102
RTVSPost2010Prop57
140
1.0
102
RTVSPost2010PropOp57
 70
     1
  0
XRECORD
  5
FB
102
{ACAD_REACTORS
330
FA
102
}
330
FA
100
AcDbXrecord
280
     1
102
RTVSPost2010Prop28
280
     0
102
RTVSPost2010PropOp28
 70
     1
102
RTVSPost2010Prop29
280
     1
102
RTVSPost2010PropOp29
 70
     1
102
RTVSPost2010Prop30
280
     1
102
RTVSPost2010PropOp30
 70
     1
102
RTVSPost2010Prop31
280
     0
102
RTVSPost2010PropOp31
 70
     1
102
RTVSPost2010Prop32
280
     0
102
RTVSPost2010PropOp32
 70
     1
102
RTVSPost2010Prop33
280
     0
102
RTVSPost2010PropOp33
 70
     1
102
RTVSPost2010Prop34
280
     0
102
RTVSPost2010PropOp34
 70
     1
102
RTVSPost2010Prop35
280
     0
102
RTVSPost2010PropOp35
 70
     1
102
RTVSPost2010Prop36
280
     0
102
RTVSPost2010PropOp36
 70
     1
102
RTVSPost2010Prop37
 90
       50
102
RTVSPost2010PropOp37
 70
     1
102
RTVSPost2010Prop38
140
0.0
102
RTVSPost2010PropOp38
 70
     1
102
RTVSPost2010Prop39
140
1.0
102
RTVSPost2010PropOp39
 70
     1
102
RTVSPost2010Prop40
 90
        0
102
RTVSPost2010PropOp40
 70
     1
102
RTVSPost2010Prop41ColorIndex
 90
       18
102
RTVSPost2010Prop41ColorRGB
 90
        0
102
RTVSPost2010PropOp41
 70
     1
102
RTVSPost2010Prop42
 90
       50
102
RTVSPost2010PropOp42
 70
     1
102
RTVSPost2010Prop43
 90
        3
102
RTVSPost2010PropOp43
 70
     1
102
RTVSPost2010Prop44ColorIndex
 90
        5
102
RTVSPost2010Prop44ColorRGB
 90
      255
102
RTVSPost2010PropOp44
 70
     1
102
RTVSPost2010Prop45
280
     0
102
RTVSPost2010PropOp45
 70
     1
102
RTVSPost2010Prop46
 90
       50
102
RTVSPost2010PropOp46
 70
     1
102
RTVSPost2010Prop47
 90
       50
102
RTVSPost2010PropOp47
 70
     1
102
RTVSPost2010Prop48
 90
       50
102
RTVSPost2010PropOp48
 70
     1
102
RTVSPost2010Prop49
280
     0
102
RTVSPost2010PropOp49
 70
     1
102
RTVSPost2010Prop50
 90
       50
102
RTVSPost2010PropOp50
 70
     1
102
RTVSPost2010Prop51ColorIndex
 90
      256
102
RTVSPost2010Prop51ColorRGB
 90
-16777216
102
RTVSPost2010PropOp51
 70
     0
102
RTVSPost2010Prop52
140
1.0
102
RTVSPost2010PropOp52
 70
     0
102
RTVSPost2010Prop53
 90
        2
102
RTVSPost2010PropOp53
 70
     1
102
RTVSPost2010Prop54
  1
strokes_ogs.tif
102
RTVSPost2010PropOp54
 70
     1
102
RTVSPost2010Prop55
280
     0
102
RTVSPost2010PropOp55
 70
     1
102
RTVSPost2010Prop56
140
1.0
102
RTVSPost2010PropOp56
 70
     1
102
RTVSPost2010Prop57
140
1.0
102
RTVSPost2010PropOp57
 70
     1
  0
ENDSEC
  0
EOF
