  0
SECTION
  2
HEADER
  9
$ACADVER
  1
AC1024
  9
$ACADMAINTVER
 70
   226
  9
$DWGCODEPAGE
  3
ANSI_932
  9
$INSBASE
 10
0.0
 20
0.0
 30
0.0
  9
$EXTMIN
 10
1.000000000000000E+20
 20
1.000000000000000E+20
 30
1.000000000000000E+20
  9
$EXTMAX
 10
-1.000000000000000E+20
 20
-1.000000000000000E+20
 30
-1.000000000000000E+20
  9
$LIMMIN
 10
0.0
 20
0.0
  9
$LIMMAX
 10
12.0
 20
9.0
  9
$ORTHOMODE
 70
     0
  9
$REGENMODE
 70
     1
  9
$FILLMODE
 70
     1
  9
$QTEXTMODE
 70
     0
  9
$MIRRTEXT
 70
     0
  9
$LTSCALE
 40
1.0
  9
$ATTMODE
 70
     1
  9
$TEXTSIZE
 40
0.2
  9
$TRACEWID
 40
0.05
  9
$TEXTSTYLE
  7
Standard
  9
$CLAYER
  8
0
  9
$CELTYPE
  6
ByLayer
  9
$CECOLOR
 62
   256
  9
$CELTSCALE
 40
1.0
  9
$DISPSILH
 70
     0
  9
$DIMSCALE
 40
1.0
  9
$DIMASZ
 40
0.18
  9
$DIMEXO
 40
0.0625
  9
$DIMDLI
 40
0.38
  9
$DIMRND
 40
0.0
  9
$DIMDLE
 40
0.0
  9
$DIMEXE
 40
0.18
  9
$DIMTP
 40
0.0
  9
$DIMTM
 40
0.0
  9
$DIMTXT
 40
0.18
  9
$DIMCEN
 40
0.09
  9
$DIMTSZ
 40
0.0
  9
$DIMTOL
 70
     0
  9
$DIMLIM
 70
     0
  9
$DIMTIH
 70
     1
  9
$DIMTOH
 70
     1
  9
$DIMSE1
 70
     0
  9
$DIMSE2
 70
     0
  9
$DIMTAD
 70
     0
  9
$DIMZIN
 70
     0
  9
$DIMBLK
  1

  9
$DIMASO
 70
     1
  9
$DIMSHO
 70
     1
  9
$DIMPOST
  1

  9
$DIMAPOST
  1

  9
$DIMALT
 70
     0
  9
$DIMALTD
 70
     2
  9
$DIMALTF
 40
25.4
  9
$DIMLFAC
 40
1.0
  9
$DIMTOFL
 70
     0
  9
$DIMTVP
 40
0.0
  9
$DIMTIX
 70
     0
  9
$DIMSOXD
 70
     0
  9
$DIMSAH
 70
     0
  9
$DIMBLK1
  1

  9
$DIMBLK2
  1

  9
$DIMSTYLE
  2
Standard
  9
$DIMCLRD
 70
     0
  9
$DIMCLRE
 70
     0
  9
$DIMCLRT
 70
     0
  9
$DIMTFAC
 40
1.0
  9
$DIMGAP
 40
0.09
  9
$DIMJUST
 70
     0
  9
$DIMSD1
 70
     0
  9
$DIMSD2
 70
     0
  9
$DIMTOLJ
 70
     1
  9
$DIMTZIN
 70
     0
  9
$DIMALTZ
 70
     0
  9
$DIMALTTZ
 70
     0
  9
$DIMUPT
 70
     0
  9
$DIMDEC
 70
     4
  9
$DIMTDEC
 70
     4
  9
$DIMALTU
 70
     2
  9
$DIMALTTD
 70
     2
  9
$DIMTXSTY
  7
Standard
  9
$DIMAUNIT
 70
     0
  9
$DIMADEC
 70
     0
  9
$DIMALTRND
 40
0.0
  9
$DIMAZIN
 70
     0
  9
$DIMDSEP
 70
    46
  9
$DIMATFIT
 70
     3
  9
$DIMFRAC
 70
     0
  9
$DIMLDRBLK
  1

  9
$DIMLUNIT
 70
     2
  9
$DIMLWD
 70
    -2
  9
$DIMLWE
 70
    -2
  9
$DIMTMOVE
 70
     0
  9
$DIMFXL
 40
1.0
  9
$DIMFXLON
 70
     0
  9
$DIMJOGANG
 40
0.7853981633974483
  9
$DIMTFILL
 70
     0
  9
$DIMTFILLCLR
 70
     0
  9
$DIMARCSYM
 70
     0
  9
$DIMLTYPE
  6

  9
$DIMLTEX1
  6

  9
$DIMLTEX2
  6

  9
$DIMTXTDIRECTION
 70
     0
  9
$LUNITS
 70
     2
  9
$LUPREC
 70
     4
  9
$SKETCHINC
 40
0.1
  9
$FILLETRAD
 40
0.0
  9
$AUNITS
 70
     0
  9
$AUPREC
 70
     0
  9
$MENU
  1
.
  9
$ELEVATION
 40
0.0
  9
$PELEVATION
 40
0.0
  9
$THICKNESS
 40
0.0
  9
$LIMCHECK
 70
     0
  9
$CHAMFERA
 40
0.0
  9
$CHAMFERB
 40
0.0
  9
$CHAMFERC
 40
0.0
  9
$CHAMFERD
 40
0.0
  9
$SKPOLY
 70
     0
  9
$TDCREATE
 40
2459569.488750000
  9
$TDUCREATE
 40
2459569.113750000
  9
$TDUPDATE
 40
2459569.488750000
  9
$TDUUPDATE
 40
2459569.113750000
  9
$TDINDWG
 40
0.0000000000
  9
$TDUSRTIMER
 40
0.0000000000
  9
$USRTIMER
 70
     1
  9
$ANGBASE
 50
0.0
  9
$ANGDIR
 70
     0
  9
$PDMODE
 70
     0
  9
$PDSIZE
 40
0.0
  9
$PLINEWID
 40
0.0
  9
$SPLFRAME
 70
     0
  9
$SPLINETYPE
 70
     6
  9
$SPLINESEGS
 70
     8
  9
$HANDSEED
  5
1B0
  9
$SURFTAB1
 70
     6
  9
$SURFTAB2
 70
     6
  9
$SURFTYPE
 70
     6
  9
$SURFU
 70
     6
  9
$SURFV
 70
     6
  9
$UCSBASE
  2

  9
$UCSNAME
  2

  9
$UCSORG
 10
0.0
 20
0.0
 30
0.0
  9
$UCSXDIR
 10
1.0
 20
0.0
 30
0.0
  9
$UCSYDIR
 10
0.0
 20
1.0
 30
0.0
  9
$UCSORTHOREF
  2

  9
$UCSORTHOVIEW
 70
     0
  9
$UCSORGTOP
 10
0.0
 20
0.0
 30
0.0
  9
$UCSORGBOTTOM
 10
0.0
 20
0.0
 30
0.0
  9
$UCSORGLEFT
 10
0.0
 20
0.0
 30
0.0
  9
$UCSORGRIGHT
 10
0.0
 20
0.0
 30
0.0
  9
$UCSORGFRONT
 10
0.0
 20
0.0
 30
0.0
  9
$UCSORGBACK
 10
0.0
 20
0.0
 30
0.0
  9
$PUCSBASE
  2

  9
$PUCSNAME
  2

  9
$PUCSORG
 10
0.0
 20
0.0
 30
0.0
  9
$PUCSXDIR
 10
1.0
 20
0.0
 30
0.0
  9
$PUCSYDIR
 10
0.0
 20
1.0
 30
0.0
  9
$PUCSORTHOREF
  2

  9
$PUCSORTHOVIEW
 70
     0
  9
$PUCSORGTOP
 10
0.0
 20
0.0
 30
0.0
  9
$PUCSORGBOTTOM
 10
0.0
 20
0.0
 30
0.0
  9
$PUCSORGLEFT
 10
0.0
 20
0.0
 30
0.0
  9
$PUCSORGRIGHT
 10
0.0
 20
0.0
 30
0.0
  9
$PUCSORGFRONT
 10
0.0
 20
0.0
 30
0.0
  9
$PUCSORGBACK
 10
0.0
 20
0.0
 30
0.0
  9
$USERI1
 70
     0
  9
$USERI2
 70
     0
  9
$USERI3
 70
     0
  9
$USERI4
 70
     0
  9
$USERI5
 70
     0
  9
$USERR1
 40
0.0
  9
$USERR2
 40
0.0
  9
$USERR3
 40
0.0
  9
$USERR4
 40
0.0
  9
$USERR5
 40
0.0
  9
$WORLDVIEW
 70
     1
  9
$SHADEDGE
 70
     3
  9
$SHADEDIF
 70
    70
  9
$TILEMODE
 70
     1
  9
$MAXACTVP
 70
    64
  9
$PINSBASE
 10
0.0
 20
0.0
 30
0.0
  9
$PLIMCHECK
 70
     0
  9
$PEXTMIN
 10
1.000000000000000E+20
 20
1.000000000000000E+20
 30
1.000000000000000E+20
  9
$PEXTMAX
 10
-1.000000000000000E+20
 20
-1.000000000000000E+20
 30
-1.000000000000000E+20
  9
$PLIMMIN
 10
0.0
 20
0.0
  9
$PLIMMAX
 10
12.0
 20
9.0
  9
$UNITMODE
 70
     0
  9
$VISRETAIN
 70
     1
  9
$PLINEGEN
 70
     0
  9
$PSLTSCALE
 70
     1
  9
$TREEDEPTH
 70
  3020
  9
$CMLSTYLE
  2
Standard
  9
$CMLJUST
 70
     0
  9
$CMLSCALE
 40
1.0
  9
$PROXYGRAPHICS
 70
     1
  9
$MEASUREMENT
 70
     0
  9
$CELWEIGHT
370
    -1
  9
$ENDCAPS
280
     0
  9
$JOINSTYLE
280
     0
  9
$LWDISPLAY
290
     1
  9
$INSUNITS
 70
     4
  9
$HYPERLINKBASE
  1

  9
$STYLESHEET
  1

  9
$XEDIT
290
     1
  9
$CEPSNTYPE
380
     0
  9
$PSTYLEMODE
290
     1
  9
$FINGERPRINTGUID
  2
{0243A3BC-713B-F643-A039-C6F150A45B96}
  9
$VERSIONGUID
  2
{397CF3E3-D035-F047-8C91-D3AF282AB0F5}
  9
$EXTNAMES
290
     1
  9
$PSVPSCALE
 40
0.0
  9
$OLESTARTUP
290
     0
  9
$SORTENTS
280
   127
  9
$INDEXCTL
280
     0
  9
$HIDETEXT
280
     1
  9
$XCLIPFRAME
280
     2
  9
$HALOGAP
280
     0
  9
$OBSCOLOR
 70
   257
  9
$OBSLTYPE
280
     0
  9
$INTERSECTIONDISPLAY
280
     0
  9
$INTERSECTIONCOLOR
 70
   257
  9
$DIMASSOC
280
     2
  9
$PROJECTNAME
  1

  9
$CAMERADISPLAY
290
     0
  9
$LENSLENGTH
 40
50.0
  9
$CAMERAHEIGHT
 40
0.0
  9
$STEPSPERSEC
 40
2.0
  9
$STEPSIZE
 40
6.0
  9
$3DDWFPREC
 40
2.0
  9
$PSOLWIDTH
 40
0.25
  9
$PSOLHEIGHT
 40
4.0
  9
$LOFTANG1
 40
1.570796326794896
  9
$LOFTANG2
 40
1.570796326794896
  9
$LOFTMAG1
 40
0.0
  9
$LOFTMAG2
 40
0.0
  9
$LOFTPARAM
 70
     7
  9
$LOFTNORMALS
280
     1
  9
$LATITUDE
 40
37.795
  9
$LONGITUDE
 40
-122.394
  9
$NORTHDIRECTION
 40
0.0
  9
$TIMEZONE
 70
 -8000
  9
$LIGHTGLYPHDISPLAY
280
     1
  9
$TILEMODELIGHTSYNCH
280
     1
  9
$CMATERIAL
347
11
  9
$SOLIDHIST
280
     0
  9
$SHOWHIST
280
     1
  9
$DWFFRAME
280
     2
  9
$DGNFRAME
280
     0
  9
$REALWORLDSCALE
290
     1
  9
$INTERFERECOLOR
 62
     1
  9
$INTERFEREOBJVS
345
33
  9
$INTERFEREVPVS
346
30
  9
$CSHADOW
280
     0
  9
$SHADOWPLANELOCATION
 40
0.0
  0
ENDSEC
  0
SECTION
  2
CLASSES
  0
CLASS
  1
ACDBDICTIONARYWDFLT
  2
AcDbDictionaryWithDefault
  3
ObjectDBX Classes
 90
        0
 91
        1
280
     0
281
     0
  0
CLASS
  1
MATERIAL
  2
AcDbMaterial
  3
ObjectDBX Classes
 90
     1153
 91
        3
280
     0
281
     0
  0
CLASS
  1
VISUALSTYLE
  2
AcDbVisualStyle
  3
ObjectDBX Classes
 90
     4095
 91
       24
280
     0
281
     0
  0
CLASS
  1
SCALE
  2
AcDbScale
  3
ObjectDBX Classes
 90
     1153
 91
       17
280
     0
281
     0
  0
CLASS
  1
TABLESTYLE
  2
AcDbTableStyle
  3
ObjectDBX Classes
 90
     4095
 91
        1
280
     0
281
     0
  0
CLASS
  1
MLEADERSTYLE
  2
AcDbMLeaderStyle
  3
ACDB_MLEADERSTYLE_CLASS
 90
     4095
 91
        1
280
     0
281
     0
  0
CLASS
  1
ACDBSECTIONVIEWSTYLE
  2
AcDbSectionViewStyle
  3
ObjectDBX Classes
 90
     1025
 91
        1
280
     0
281
     0
  0
CLASS
  1
ACDBDETAILVIEWSTYLE
  2
AcDbDetailViewStyle
  3
ObjectDBX Classes
 90
     1025
 91
        1
280
     0
281
     0
  0
CLASS
  1
DICTIONARYVAR
  2
AcDbDictionaryVar
  3
ObjectDBX Classes
 90
        0
 91
        5
280
     0
281
     0
  0
CLASS
  1
CELLSTYLEMAP
  2
AcDbCellStyleMap
  3
ObjectDBX Classes
 90
     1152
 91
        1
280
     0
281
     0
  0
ENDSEC
  0
SECTION
  2
TABLES
  0
TABLE
  2
VPORT
  5
8
330
0
100
AcDbSymbolTable
 70
     1
  0
VPORT
  5
57
330
8
100
AcDbSymbolTableRecord
100
AcDbViewportTableRecord
  2
*Active
 70
     0
 10
0.0
 20
0.0
 11
1.0
 21
1.0
 12
0.0
 22
0.0
 13
0.0
 23
0.0
 14
1.0
 24
1.0
 15
0.0
 25
0.0
 16
0.0
 26
0.0
 36
1.0
 17
104.9999999737534
 27
-148.4999999628701
 37
0.0
 40
302.939999924255
 41
0.7070707070707534
 42
50.0
 43
0.0
 44
0.0
 50
0.0
 51
0.0
 71
     0
 72
   100
 73
     1
 74
     0
 75
     1
 76
     0
 77
     0
 78
     0
281
     0
 65
     1
110
0.0
120
0.0
130
0.0
111
1.0
121
0.0
131
0.0
112
0.0
122
1.0
132
0.0
 79
     0
146
0.0
 60
     3
 61
     5
292
     1
282
     1
141
0.0
142
0.0
 63
   250
421
  3355443
  0
ENDTAB
  0
TABLE
  2
LTYPE
  5
5
330
0
100
AcDbSymbolTable
 70
     3
  0
LTYPE
  5
5B
330
5
100
AcDbSymbolTableRecord
100
AcDbLinetypeTableRecord
  2
ByBlock
 70
     0
  3

 72
    65
 73
     0
 40
0.0
  0
LTYPE
  5
5C
330
5
100
AcDbSymbolTableRecord
100
AcDbLinetypeTableRecord
  2
ByLayer
 70
     0
  3

 72
    65
 73
     0
 40
0.0
  0
LTYPE
  5
5D
330
5
100
AcDbSymbolTableRecord
100
AcDbLinetypeTableRecord
  2
Continuous
 70
     0
  3
Solid line
 72
    65
 73
     0
 40
0.0
  0
LTYPE
  5
14D
330
5
100
AcDbSymbolTableRecord
100
AcDbLinetypeTableRecord
  2
AI-Linetype-0
 70
     0
  3
Adobe Illustrator Linetype No. 0
 72
    65
 73
     2
 40
1.411111110758333
 49
0.7055555553791667
 74
     0
 49
-0.7055555553791667
 74
     0
  0
LTYPE
  5
170
330
5
100
AcDbSymbolTableRecord
100
AcDbLinetypeTableRecord
  2
AI-Linetype-1
 70
     0
  3
Adobe Illustrator Linetype No. 1
 72
    65
 73
     2
 40
1.411111110758333
 49
0.7055555553791667
 74
     0
 49
-0.7055555553791667
 74
     0
  0
ENDTAB
  0
TABLE
  2
LAYER
  5
2
330
0
100
AcDbSymbolTable
 70
     2
  0
LAYER
  5
54
330
2
100
AcDbSymbolTableRecord
100
AcDbLayerTableRecord
  2
0
 70
     0
 62
     7
  6
Continuous
370
    -3
390
F
347
21
  0
LAYER
  5
78
330
2
100
AcDbSymbolTableRecord
100
AcDbLayerTableRecord
  2
レイヤー 1
 70
     0
 62
     7
  6
Continuous
370
     0
390
F
347
21
  0
ENDTAB
  0
TABLE
  2
STYLE
  5
3
330
0
100
AcDbSymbolTable
 70
     2
  0
STYLE
  5
55
330
3
100
AcDbSymbolTableRecord
100
AcDbTextStyleTableRecord
  2
Standard
 70
     0
 40
0.0
 41
1.0
 50
0.0
 71
     0
 42
0.2
  3
txt
  4

  0
STYLE
  5
5A
330
3
100
AcDbSymbolTableRecord
100
AcDbTextStyleTableRecord
  2
Annotative
 70
     0
 40
0.0
 41
1.0
 50
0.0
 71
     0
 42
0.2
  3
txt
  4

1001
AcadAnnotative
1000
AnnotativeData
1002
{
1070
     1
1070
     1
1002
}
  0
ENDTAB
  0
TABLE
  2
VIEW
  5
6
330
0
100
AcDbSymbolTable
 70
     0
  0
ENDTAB
  0
TABLE
  2
UCS
  5
7
330
0
100
AcDbSymbolTable
 70
     0
  0
ENDTAB
  0
TABLE
  2
APPID
  5
9
330
0
100
AcDbSymbolTable
 70
     2
  0
APPID
  5
56
330
9
100
AcDbSymbolTableRecord
100
AcDbRegAppTableRecord
  2
ACAD
 70
     0
  0
APPID
  5
5E
330
9
100
AcDbSymbolTableRecord
100
AcDbRegAppTableRecord
  2
AcadAnnotative
 70
     0
  0
ENDTAB
  0
TABLE
  2
DIMSTYLE
  5
A
330
0
100
AcDbSymbolTable
 70
     2
100
AcDbDimStyleTable
 71
     0
  0
DIMSTYLE
105
58
330
A
100
AcDbSymbolTableRecord
100
AcDbDimStyleTableRecord
  2
Standard
 70
     0
340
55
  0
DIMSTYLE
105
59
330
A
100
AcDbSymbolTableRecord
100
AcDbDimStyleTableRecord
  2
Annotative
 70
     0
340
55
1001
AcadAnnotative
1000
AnnotativeData
1002
{
1070
     1
1070
     1
1002
}
  0
ENDTAB
  0
TABLE
  2
BLOCK_RECORD
  5
1
330
0
100
AcDbSymbolTable
 70
     8
  0
BLOCK_RECORD
  5
70
330
1
100
AcDbSymbolTableRecord
100
AcDbBlockTableRecord
  2
*Model_Space
340
73
 70
     0
280
     1
281
     0
  0
BLOCK_RECORD
  5
6C
330
1
100
AcDbSymbolTableRecord
100
AcDbBlockTableRecord
  2
*Paper_Space
340
6F
 70
     0
280
     1
281
     0
  0
BLOCK_RECORD
  5
74
330
1
100
AcDbSymbolTableRecord
100
AcDbBlockTableRecord
  2
*Paper_Space0
340
77
 70
     0
280
     1
281
     0
  0
BLOCK_RECORD
  5
125
330
1
100
AcDbSymbolTableRecord
100
AcDbBlockTableRecord
  2
Block_0
340
0
102
{BLKREFS
331
126
102
}
 70
     0
280
     1
281
     0
  0
BLOCK_RECORD
  5
129
330
1
100
AcDbSymbolTableRecord
100
AcDbBlockTableRecord
  2
Block_1
340
0
102
{BLKREFS
331
12A
102
}
 70
     0
280
     1
281
     0
  0
BLOCK_RECORD
  5
138
330
1
100
AcDbSymbolTableRecord
100
AcDbBlockTableRecord
  2
Block_2
340
0
102
{BLKREFS
331
139
102
}
 70
     0
280
     1
281
     0
  0
BLOCK_RECORD
  5
13C
330
1
100
AcDbSymbolTableRecord
100
AcDbBlockTableRecord
  2
Block_3
340
0
102
{BLKREFS
331
13D
102
}
 70
     0
280
     1
281
     0
  0
BLOCK_RECORD
  5
148
330
1
100
AcDbSymbolTableRecord
100
AcDbBlockTableRecord
  2
Block_4
340
0
102
{BLKREFS
331
149
102
}
 70
     0
280
     1
281
     0
  0
BLOCK_RECORD
  5
154
330
1
100
AcDbSymbolTableRecord
100
AcDbBlockTableRecord
  2
Block_5
340
0
102
{BLKREFS
331
155
102
}
 70
     0
280
     1
281
     0
  0
BLOCK_RECORD
  5
158
330
1
100
AcDbSymbolTableRecord
100
AcDbBlockTableRecord
  2
Block_6
340
0
102
{BLKREFS
331
159
102
}
 70
     0
280
     1
281
     0
  0
ENDTAB
  0
ENDSEC
  0
SECTION
  2
BLOCKS
  0
BLOCK
  5
71
330
70
100
AcDbEntity
  8
0
100
AcDbBlockBegin
  2
*Model_Space
 70
     0
 10
0.0
 20
0.0
 30
0.0
  3
*Model_Space
  1

  0
ENDBLK
  5
72
330
70
100
AcDbEntity
  8
0
100
AcDbBlockEnd
  0
BLOCK
  5
6D
330
6C
100
AcDbEntity
 67
     1
  8
0
100
AcDbBlockBegin
  2
*Paper_Space
 70
     0
 10
0.0
 20
0.0
 30
0.0
  3
*Paper_Space
  1

  0
ENDBLK
  5
6E
330
6C
100
AcDbEntity
 67
     1
  8
0
100
AcDbBlockEnd
  0
BLOCK
  5
75
330
74
100
AcDbEntity
 67
     1
  8
0
100
AcDbBlockBegin
  2
*Paper_Space0
 70
     0
 10
0.0
 20
0.0
 30
0.0
  3
*Paper_Space0
  1

  0
ENDBLK
  5
76
330
74
100
AcDbEntity
 67
     1
  8
0
100
AcDbBlockEnd
  0
BLOCK
  5
127
330
125
100
AcDbEntity
  8
0
100
AcDbBlockBegin
  2
Block_0
 70
     0
 10
0.0
 20
0.0
 30
0.0
  3
Block_0
  1

  0
INSERT
  5
12A
330
125
100
AcDbEntity
  8
レイヤー 1
100
AcDbBlockReference
  2
Block_1
 10
0.0
 20
0.0
 30
0.0
  0
ENDBLK
  5
128
330
125
100
AcDbEntity
  8
0
100
AcDbBlockEnd
  0
BLOCK
  5
12B
330
129
100
AcDbEntity
  8
0
100
AcDbBlockBegin
  2
Block_1
 70
     0
 10
0.0
 20
0.0
 30
0.0
  3
Block_1
  1

  0
SPLINE
  5
12D
330
129
100
AcDbEntity
  8
レイヤー 1
100
AcDbSpline
210
0.0
220
0.0
230
1.0
 70
     9
 71
     3
 72
    62
 73
    58
 74
     0
 42
0.0000000001
 43
0.0000000001
 40
0.0
 40
0.0
 40
0.0
 40
0.0
 40
1.0
 40
1.0
 40
1.0
 40
2.0
 40
2.0
 40
2.0
 40
3.0
 40
3.0
 40
3.0
 40
4.0
 40
4.0
 40
4.0
 40
5.0
 40
5.0
 40
5.0
 40
6.0
 40
6.0
 40
6.0
 40
7.0
 40
7.0
 40
7.0
 40
8.0
 40
8.0
 40
8.0
 40
9.0
 40
9.0
 40
9.0
 40
10.0
 40
10.0
 40
10.0
 40
11.0
 40
11.0
 40
11.0
 40
12.0
 40
12.0
 40
12.0
 40
13.0
 40
13.0
 40
13.0
 40
14.0
 40
14.0
 40
14.0
 40
15.0
 40
15.0
 40
15.0
 40
16.0
 40
16.0
 40
16.0
 40
17.0
 40
17.0
 40
17.0
 40
18.0
 40
18.0
 40
18.0
 40
19.0
 40
19.0
 40
19.0
 40
19.0
 10
108.3806369086687
 20
-164.1295165605301
 30
0.0
 10
108.2790065918538
 20
-164.1295165605301
 30
0.0
 10
108.046118137051
 20
-164.1085014780701
 30
0.0
 10
107.9127929417718
 20
-163.9221218123181
 30
0.0
 10
107.833555745611
 20
-163.8101562090475
 30
0.0
 10
107.8290771214802
 20
-163.7105929495237
 30
0.0
 10
107.8245984973494
 20
-163.6261881101351
 30
0.0
 10
107.8245984973494
 20
-163.6261881101351
 30
0.0
 10
108.0595540094434
 20
-163.6261881101351
 30
0.0
 10
108.0595540094434
 20
-163.6261881101351
 30
0.0
 10
108.0619655762831
 20
-163.6999131535195
 30
0.0
 10
108.0733343913844
 20
-163.9348686656135
 30
0.0
 10
108.3761582845379
 20
-163.9348686656135
 30
0.0
 10
108.5229193522095
 20
-163.9348686656135
 30
0.0
 10
108.6858723686618
 20
-163.8649332272629
 30
0.0
 10
108.6858723686618
 20
-163.6365233965909
 30
0.0
 10
108.6858723686618
 20
-163.5200791691894
 30
0.0
 10
108.6452202419359
 20
-163.4715033228474
 30
0.0
 10
108.6111137966319
 20
-163.4398084443831
 30
0.0
 10
108.5322211100197
 20
-163.3657388914502
 30
0.0
 10
108.4078531630022
 20
-163.3529920381548
 30
0.0
 10
108.3489420302044
 20
-163.3529920381548
 30
0.0
 10
108.3286159668414
 20
-163.3529920381548
 30
0.0
 10
108.2903754069552
 20
-163.3554036049944
 30
0.0
 10
108.260747585782
 20
-163.3595377195768
 30
0.0
 10
108.260747585782
 20
-163.3595377195768
 30
0.0
 10
108.260747585782
 20
-163.1648898246601
 30
0.0
 10
108.260747585782
 20
-163.1648898246601
 30
0.0
 10
108.301399712508
 20
-163.1710909965336
 30
0.0
 10
108.3468749729133
 20
-163.1731580538247
 30
0.0
 10
108.3534206543352
 20
-163.1731580538247
 30
0.0
 10
108.4237006022343
 20
-163.1731580538247
 30
0.0
 10
108.6362629936743
 20
-163.1521429713647
 30
0.0
 10
108.6362629936743
 20
-162.9151204019795
 30
0.0
 10
108.6362629936743
 20
-162.7373534749406
 30
0.0
 10
108.4960476074246
 20
-162.6825764567252
 30
0.0
 10
108.378225341829
 20
-162.6825764567252
 30
0.0
 10
108.0957275120385
 20
-162.6825764567252
 30
0.0
 10
108.0867702637769
 20
-162.9151204019795
 30
0.0
 10
108.0822916396461
 20
-162.9871228976212
 30
0.0
 10
108.0822916396461
 20
-162.9871228976212
 30
0.0
 10
107.8652506240753
 20
-162.9871228976212
 30
0.0
 10
107.8652506240753
 20
-162.9871228976212
 30
0.0
 10
107.874207872337
 20
-162.8624104410552
 30
0.0
 10
107.9034911839616
 20
-162.4858615045174
 30
0.0
 10
108.39200572377
 20
-162.4858615045174
 30
0.0
 10
108.6314398599949
 20
-162.4858615045174
 30
0.0
 10
108.8894775118401
 20
-162.6126410183746
 30
0.0
 10
108.8894775118401
 20
-162.9089192301061
 30
0.0
 10
108.8894775118401
 20
-163.0949543863096
 30
0.0
 10
108.7875026854767
 20
-163.1776366779556
 30
0.0
 10
108.681393744531
 20
-163.238959377593
 30
0.0
 10
108.7468505587508
 20
-163.266520141475
 30
0.0
 10
108.9414984536674
 20
-163.3467908662813
 30
0.0
 10
108.9414984536674
 20
-163.6237765432954
 30
0.0
 10
108.9414984536674
 20
-163.9624294294955
 30
0.0
 10
108.6769151204002
 20
-164.1295165605301
 30
0.0
 10
108.3806369086687
 20
-164.1295165605301
 30
0.0
  0
HATCH
  5
12E
330
129
100
AcDbEntity
  8
レイヤー 1
 62
   250
420
  2299925
440
 33554687
100
AcDbHatch
 10
0.0
 20
0.0
 30
0.0
210
0.0
220
0.0
230
1.0
  2
SOLID
 70
     1
 71
     1
 91
        1
 92
        1
 93
        1
 72
     4
 94
        3
 73
     0
 74
     0
 95
       62
 96
       58
 40
0.0
 40
0.0
 40
0.0
 40
0.0
 40
1.0
 40
1.0
 40
1.0
 40
2.0
 40
2.0
 40
2.0
 40
3.0
 40
3.0
 40
3.0
 40
4.0
 40
4.0
 40
4.0
 40
5.0
 40
5.0
 40
5.0
 40
6.0
 40
6.0
 40
6.0
 40
7.0
 40
7.0
 40
7.0
 40
8.0
 40
8.0
 40
8.0
 40
9.0
 40
9.0
 40
9.0
 40
10.0
 40
10.0
 40
10.0
 40
11.0
 40
11.0
 40
11.0
 40
12.0
 40
12.0
 40
12.0
 40
13.0
 40
13.0
 40
13.0
 40
14.0
 40
14.0
 40
14.0
 40
15.0
 40
15.0
 40
15.0
 40
16.0
 40
16.0
 40
16.0
 40
17.0
 40
17.0
 40
17.0
 40
18.0
 40
18.0
 40
18.0
 40
19.0
 40
19.0
 40
19.0
 40
19.0
 10
108.3806369086687
 20
-164.1295165605301
 10
108.2790065918538
 20
-164.1295165605301
 10
108.046118137051
 20
-164.1085014780701
 10
107.9127929417718
 20
-163.9221218123181
 10
107.833555745611
 20
-163.8101562090475
 10
107.8290771214802
 20
-163.7105929495237
 10
107.8245984973494
 20
-163.6261881101351
 10
107.8245984973494
 20
-163.6261881101351
 10
108.0595540094434
 20
-163.6261881101351
 10
108.0595540094434
 20
-163.6261881101351
 10
108.0619655762831
 20
-163.6999131535195
 10
108.0733343913844
 20
-163.9348686656135
 10
108.3761582845379
 20
-163.9348686656135
 10
108.5229193522095
 20
-163.9348686656135
 10
108.6858723686618
 20
-163.8649332272629
 10
108.6858723686618
 20
-163.6365233965909
 10
108.6858723686618
 20
-163.5200791691894
 10
108.6452202419359
 20
-163.4715033228474
 10
108.6111137966319
 20
-163.4398084443831
 10
108.5322211100197
 20
-163.3657388914502
 10
108.4078531630022
 20
-163.3529920381548
 10
108.3489420302044
 20
-163.3529920381548
 10
108.3286159668414
 20
-163.3529920381548
 10
108.2903754069552
 20
-163.3554036049944
 10
108.260747585782
 20
-163.3595377195768
 10
108.260747585782
 20
-163.3595377195768
 10
108.260747585782
 20
-163.1648898246601
 10
108.260747585782
 20
-163.1648898246601
 10
108.301399712508
 20
-163.1710909965336
 10
108.3468749729133
 20
-163.1731580538247
 10
108.3534206543352
 20
-163.1731580538247
 10
108.4237006022343
 20
-163.1731580538247
 10
108.6362629936743
 20
-163.1521429713647
 10
108.6362629936743
 20
-162.9151204019795
 10
108.6362629936743
 20
-162.7373534749406
 10
108.4960476074246
 20
-162.6825764567252
 10
108.378225341829
 20
-162.6825764567252
 10
108.0957275120385
 20
-162.6825764567252
 10
108.0867702637769
 20
-162.9151204019795
 10
108.0822916396461
 20
-162.9871228976212
 10
108.0822916396461
 20
-162.9871228976212
 10
107.8652506240753
 20
-162.9871228976212
 10
107.8652506240753
 20
-162.9871228976212
 10
107.874207872337
 20
-162.8624104410552
 10
107.9034911839616
 20
-162.4858615045174
 10
108.39200572377
 20
-162.4858615045174
 10
108.6314398599949
 20
-162.4858615045174
 10
108.8894775118401
 20
-162.6126410183746
 10
108.8894775118401
 20
-162.9089192301061
 10
108.8894775118401
 20
-163.0949543863096
 10
108.7875026854767
 20
-163.1776366779556
 10
108.681393744531
 20
-163.238959377593
 10
108.7468505587508
 20
-163.266520141475
 10
108.9414984536674
 20
-163.3467908662813
 10
108.9414984536674
 20
-163.6237765432954
 10
108.9414984536674
 20
-163.9624294294955
 10
108.6769151204002
 20
-164.1295165605301
 10
108.3806369086687
 20
-164.1295165605301
 97
        0
 97
        1
330
12D
 75
     2
 76
     1
 98
        1
 10
0.0
 20
0.0
450
        0
451
        0
460
0.0
461
0.0
452
        0
462
0.0
453
        0
470

  0
SPLINE
  5
12F
330
129
100
AcDbEntity
  8
レイヤー 1
100
AcDbSpline
210
0.0
220
0.0
230
1.0
 70
     9
 71
     3
 72
    17
 73
    13
 74
     0
 42
0.0000000001
 43
0.0000000001
 40
0.0
 40
0.0
 40
0.0
 40
0.0
 40
1.0
 40
1.0
 40
1.0
 40
2.0
 40
2.0
 40
2.0
 40
3.0
 40
3.0
 40
3.0
 40
4.0
 40
4.0
 40
4.0
 40
4.0
 10
109.6473985185951
 20
-162.6780978325943
 30
0.0
 10
109.3807481280367
 20
-162.6780978325943
 30
0.0
 10
109.3311387530491
 20
-162.9616291910304
 30
0.0
 10
109.3311387530491
 20
-163.3064832491039
 30
0.0
 10
109.3311387530491
 20
-163.6261881101351
 30
0.0
 10
109.3693793129354
 20
-163.9348686656135
 30
0.0
 10
109.6473985185951
 20
-163.9348686656135
 30
0.0
 10
109.9119818518623
 20
-163.9348686656135
 30
0.0
 10
109.9640027936895
 20
-163.6534043644686
 30
0.0
 10
109.9640027936895
 20
-163.3064832491039
 30
0.0
 10
109.9640027936895
 20
-162.9871228976212
 30
0.0
 10
109.9233506669636
 20
-162.6780978325943
 30
0.0
 10
109.6473985185951
 20
-162.6780978325943
 30
0.0
  0
SPLINE
  5
130
330
129
100
AcDbEntity
  8
レイヤー 1
100
AcDbSpline
210
0.0
220
0.0
230
1.0
 70
     9
 71
     3
 72
    29
 73
    25
 74
     0
 42
0.0000000001
 43
0.0000000001
 40
0.0
 40
0.0
 40
0.0
 40
0.0
 40
1.0
 40
1.0
 40
1.0
 40
2.0
 40
2.0
 40
2.0
 40
3.0
 40
3.0
 40
3.0
 40
4.0
 40
4.0
 40
4.0
 40
5.0
 40
5.0
 40
5.0
 40
6.0
 40
6.0
 40
6.0
 40
7.0
 40
7.0
 40
7.0
 40
8.0
 40
8.0
 40
8.0
 40
8.0
 10
110.0725233014749
 20
-163.901106729858
 30
0.0
 10
109.957112602719
 20
-164.1105685353613
 30
0.0
 10
109.7717664656126
 20
-164.1295165605301
 30
0.0
 10
109.6473985185951
 20
-164.1295165605301
 30
0.0
 10
109.4758327634296
 20
-164.1295165605301
 30
0.0
 10
109.3242485620786
 20
-164.0830077714792
 30
0.0
 10
109.2226182452638
 20
-163.901106729858
 30
0.0
 10
109.1116861706387
 20
-163.7064588349414
 30
0.0
 10
109.0913601072758
 20
-163.4694362655562
 30
0.0
 10
109.0913601072758
 20
-163.3064832491039
 30
0.0
 10
109.0913601072758
 20
-163.162822767369
 30
0.0
 10
109.1096191133476
 20
-162.9109862873972
 30
0.0
 10
109.2226182452638
 20
-162.7122042778983
 30
0.0
 10
109.3376844344711
 20
-162.5089436442686
 30
0.0
 10
109.5095946991851
 20
-162.4858615045174
 30
0.0
 10
109.6473985185951
 20
-162.4858615045174
 30
0.0
 10
109.8172417260179
 20
-162.4858615045174
 30
0.0
 10
109.97089298466
 20
-162.5303032362771
 30
0.0
 10
110.0725233014749
 20
-162.7122042778983
 30
0.0
 10
110.1789767519691
 20
-162.9047851155238
 30
0.0
 10
110.2037814394629
 20
-163.1331949461959
 30
0.0
 10
110.2037814394629
 20
-163.3064832491039
 30
0.0
 10
110.2037814394629
 20
-163.4780490042694
 30
0.0
 10
110.1810438092603
 20
-163.7085258922326
 30
0.0
 10
110.0725233014749
 20
-163.901106729858
 30
0.0
  0
HATCH
  5
131
330
129
100
AcDbEntity
  8
レイヤー 1
 62
   250
420
  2299925
440
 33554687
100
AcDbHatch
 10
0.0
 20
0.0
 30
0.0
210
0.0
220
0.0
230
1.0
  2
SOLID
 70
     1
 71
     1
 91
        2
 92
        1
 93
        1
 72
     4
 94
        3
 73
     0
 74
     0
 95
       17
 96
       13
 40
0.0
 40
0.0
 40
0.0
 40
0.0
 40
1.0
 40
1.0
 40
1.0
 40
2.0
 40
2.0
 40
2.0
 40
3.0
 40
3.0
 40
3.0
 40
4.0
 40
4.0
 40
4.0
 40
4.0
 10
109.6473985185951
 20
-162.6780978325943
 10
109.3807481280367
 20
-162.6780978325943
 10
109.3311387530491
 20
-162.9616291910304
 10
109.3311387530491
 20
-163.3064832491039
 10
109.3311387530491
 20
-163.6261881101351
 10
109.3693793129354
 20
-163.9348686656135
 10
109.6473985185951
 20
-163.9348686656135
 10
109.9119818518623
 20
-163.9348686656135
 10
109.9640027936895
 20
-163.6534043644686
 10
109.9640027936895
 20
-163.3064832491039
 10
109.9640027936895
 20
-162.9871228976212
 10
109.9233506669636
 20
-162.6780978325943
 10
109.6473985185951
 20
-162.6780978325943
 97
        0
 97
        1
330
12F
 92
        1
 93
        1
 72
     4
 94
        3
 73
     0
 74
     0
 95
       29
 96
       25
 40
0.0
 40
0.0
 40
0.0
 40
0.0
 40
1.0
 40
1.0
 40
1.0
 40
2.0
 40
2.0
 40
2.0
 40
3.0
 40
3.0
 40
3.0
 40
4.0
 40
4.0
 40
4.0
 40
5.0
 40
5.0
 40
5.0
 40
6.0
 40
6.0
 40
6.0
 40
7.0
 40
7.0
 40
7.0
 40
8.0
 40
8.0
 40
8.0
 40
8.0
 10
110.0725233014749
 20
-163.901106729858
 10
109.957112602719
 20
-164.1105685353613
 10
109.7717664656126
 20
-164.1295165605301
 10
109.6473985185951
 20
-164.1295165605301
 10
109.4758327634296
 20
-164.1295165605301
 10
109.3242485620786
 20
-164.0830077714792
 10
109.2226182452638
 20
-163.901106729858
 10
109.1116861706387
 20
-163.7064588349414
 10
109.0913601072758
 20
-163.4694362655562
 10
109.0913601072758
 20
-163.3064832491039
 10
109.0913601072758
 20
-163.162822767369
 10
109.1096191133476
 20
-162.9109862873972
 10
109.2226182452638
 20
-162.7122042778983
 10
109.3376844344711
 20
-162.5089436442686
 10
109.5095946991851
 20
-162.4858615045174
 10
109.6473985185951
 20
-162.4858615045174
 10
109.8172417260179
 20
-162.4858615045174
 10
109.97089298466
 20
-162.5303032362771
 10
110.0725233014749
 20
-162.7122042778983
 10
110.1789767519691
 20
-162.9047851155238
 10
110.2037814394629
 20
-163.1331949461959
 10
110.2037814394629
 20
-163.3064832491039
 10
110.2037814394629
 20
-163.4780490042694
 10
110.1810438092603
 20
-163.7085258922326
 10
110.0725233014749
 20
-163.901106729858
 97
        0
 97
        1
330
130
 75
     2
 76
     1
 98
        1
 10
0.0
 20
0.0
450
        0
451
        0
460
0.0
461
0.0
452
        0
462
0.0
453
        0
470

  0
ENDBLK
  5
12C
330
129
100
AcDbEntity
  8
0
100
AcDbBlockEnd
  0
BLOCK
  5
13A
330
138
100
AcDbEntity
  8
0
100
AcDbBlockBegin
  2
Block_2
 70
     0
 10
0.0
 20
0.0
 30
0.0
  3
Block_2
  1

  0
INSERT
  5
13D
330
138
100
AcDbEntity
  8
レイヤー 1
100
AcDbBlockReference
  2
Block_3
 10
0.0
 20
0.0
 30
0.0
  0
ENDBLK
  5
13B
330
138
100
AcDbEntity
  8
0
100
AcDbBlockEnd
  0
BLOCK
  5
13E
330
13C
100
AcDbEntity
  8
0
100
AcDbBlockBegin
  2
Block_3
 70
     0
 10
0.0
 20
0.0
 30
0.0
  3
Block_3
  1

  0
SPLINE
  5
140
330
13C
100
AcDbEntity
  8
レイヤー 1
100
AcDbSpline
210
0.0
220
0.0
230
1.0
 70
     9
 71
     3
 72
    62
 73
    58
 74
     0
 42
0.0000000001
 43
0.0000000001
 40
0.0
 40
0.0
 40
0.0
 40
0.0
 40
1.0
 40
1.0
 40
1.0
 40
2.0
 40
2.0
 40
2.0
 40
3.0
 40
3.0
 40
3.0
 40
4.0
 40
4.0
 40
4.0
 40
5.0
 40
5.0
 40
5.0
 40
6.0
 40
6.0
 40
6.0
 40
7.0
 40
7.0
 40
7.0
 40
8.0
 40
8.0
 40
8.0
 40
9.0
 40
9.0
 40
9.0
 40
10.0
 40
10.0
 40
10.0
 40
11.0
 40
11.0
 40
11.0
 40
12.0
 40
12.0
 40
12.0
 40
13.0
 40
13.0
 40
13.0
 40
14.0
 40
14.0
 40
14.0
 40
15.0
 40
15.0
 40
15.0
 40
16.0
 40
16.0
 40
16.0
 40
17.0
 40
17.0
 40
17.0
 40
18.0
 40
18.0
 40
18.0
 40
19.0
 40
19.0
 40
19.0
 40
19.0
 10
89.73698592591645
 20
-146.1373331340386
 30
0.0
 10
89.73698592591645
 20
-146.2391357056277
 30
0.0
 10
89.71579858868215
 20
-146.4718519056563
 30
0.0
 10
89.52959117770442
 20
-146.6053493557098
 30
0.0
 10
89.41745331965952
 20
-146.6844142970962
 30
0.0
 10
89.31806231491007
 20
-146.6888929212271
 30
0.0
 10
89.23348522074718
 20
-146.6935438001321
 30
0.0
 10
89.23348522074718
 20
-146.6935438001321
 30
0.0
 10
89.23348522074718
 20
-146.4584160332639
 30
0.0
 10
89.23348522074718
 20
-146.4584160332639
 30
0.0
 10
89.30755477368006
 20
-146.4561767211984
 30
0.0
 10
89.54233803099983
 20
-146.4448079060971
 30
0.0
 10
89.54233803099983
 20
-146.1418117581694
 30
0.0
 10
89.54233803099983
 20
-145.9948784357235
 30
0.0
 10
89.47257484742353
 20
-145.8320976740454
 30
0.0
 10
89.24399276197719
 20
-145.8320976740454
 30
0.0
 10
89.12772078935002
 20
-145.8320976740454
 30
0.0
 10
89.07897268823374
 20
-145.8727498007714
 30
0.0
 10
89.04727780976944
 20
-145.9066839913011
 30
0.0
 10
88.97320825683655
 20
-145.9859211874618
 30
0.0
 10
88.9606336583154
 20
-146.1101168797051
 30
0.0
 10
88.9606336583154
 20
-146.1690280125029
 30
0.0
 10
88.9606336583154
 20
-146.1893540758658
 30
0.0
 10
88.96270071560655
 20
-146.2277668905264
 30
0.0
 10
88.96700708496311
 20
-146.2572224569253
 30
0.0
 10
88.96700708496311
 20
-146.2572224569253
 30
0.0
 10
88.7723591900465
 20
-146.2572224569253
 30
0.0
 10
88.7723591900465
 20
-146.2572224569253
 30
0.0
 10
88.77873261669421
 20
-146.2163980754251
 30
0.0
 10
88.78079967398535
 20
-146.1712673245683
 30
0.0
 10
88.78079967398535
 20
-146.1643771335978
 30
0.0
 10
88.78079967398535
 20
-146.0944416952472
 30
0.0
 10
88.75961233675107
 20
-145.8818793038073
 30
0.0
 10
88.52276202214014
 20
-145.8818793038073
 30
0.0
 10
88.34499509510125
 20
-145.8818793038073
 30
0.0
 10
88.29004582211153
 20
-146.022094690057
 30
0.0
 10
88.29004582211153
 20
-146.139572446104
 30
0.0
 10
88.29004582211153
 20
-146.4222425306687
 30
0.0
 10
88.52276202214014
 20
-146.4311997789304
 30
0.0
 10
88.59459226300762
 20
-146.4356784030612
 30
0.0
 10
88.59459226300762
 20
-146.4356784030612
 30
0.0
 10
88.59459226300762
 20
-146.6527194186319
 30
0.0
 10
88.59459226300762
 20
-146.6527194186319
 30
0.0
 10
88.46970755166729
 20
-146.6437621703703
 30
0.0
 10
88.09315861512949
 20
-146.6143066039714
 30
0.0
 10
88.09315861512949
 20
-146.1259643189372
 30
0.0
 10
88.09315861512949
 20
-145.8863579279381
 30
0.0
 10
88.22011038376095
 20
-145.6286647856414
 30
0.0
 10
88.51638859549243
 20
-145.6286647856414
 30
0.0
 10
88.70242375169594
 20
-145.6286647856414
 30
0.0
 10
88.78493378856765
 20
-145.7302951024563
 30
0.0
 10
88.84642874297936
 20
-145.8365762981762
 30
0.0
 10
88.8738172520871
 20
-145.7711194839565
 30
0.0
 10
88.95426023166768
 20
-145.5766438438141
 30
0.0
 10
89.23141816345603
 20
-145.5766438438141
 30
0.0
 10
89.56989879488183
 20
-145.5766438438141
 30
0.0
 10
89.73698592591645
 20
-145.8412271770814
 30
0.0
 10
89.73698592591645
 20
-146.1373331340386
 30
0.0
  0
HATCH
  5
141
330
13C
100
AcDbEntity
  8
レイヤー 1
 62
   250
420
  2299925
440
 33554687
100
AcDbHatch
 10
0.0
 20
0.0
 30
0.0
210
0.0
220
0.0
230
1.0
  2
SOLID
 70
     1
 71
     1
 91
        1
 92
        1
 93
        1
 72
     4
 94
        3
 73
     0
 74
     0
 95
       62
 96
       58
 40
0.0
 40
0.0
 40
0.0
 40
0.0
 40
1.0
 40
1.0
 40
1.0
 40
2.0
 40
2.0
 40
2.0
 40
3.0
 40
3.0
 40
3.0
 40
4.0
 40
4.0
 40
4.0
 40
5.0
 40
5.0
 40
5.0
 40
6.0
 40
6.0
 40
6.0
 40
7.0
 40
7.0
 40
7.0
 40
8.0
 40
8.0
 40
8.0
 40
9.0
 40
9.0
 40
9.0
 40
10.0
 40
10.0
 40
10.0
 40
11.0
 40
11.0
 40
11.0
 40
12.0
 40
12.0
 40
12.0
 40
13.0
 40
13.0
 40
13.0
 40
14.0
 40
14.0
 40
14.0
 40
15.0
 40
15.0
 40
15.0
 40
16.0
 40
16.0
 40
16.0
 40
17.0
 40
17.0
 40
17.0
 40
18.0
 40
18.0
 40
18.0
 40
19.0
 40
19.0
 40
19.0
 40
19.0
 10
89.73698592591645
 20
-146.1373331340386
 10
89.73698592591645
 20
-146.2391357056277
 10
89.71579858868215
 20
-146.4718519056563
 10
89.52959117770442
 20
-146.6053493557098
 10
89.41745331965952
 20
-146.6844142970962
 10
89.31806231491007
 20
-146.6888929212271
 10
89.23348522074718
 20
-146.6935438001321
 10
89.23348522074718
 20
-146.6935438001321
 10
89.23348522074718
 20
-146.4584160332639
 10
89.23348522074718
 20
-146.4584160332639
 10
89.30755477368006
 20
-146.4561767211984
 10
89.54233803099983
 20
-146.4448079060971
 10
89.54233803099983
 20
-146.1418117581694
 10
89.54233803099983
 20
-145.9948784357235
 10
89.47257484742353
 20
-145.8320976740454
 10
89.24399276197719
 20
-145.8320976740454
 10
89.12772078935002
 20
-145.8320976740454
 10
89.07897268823374
 20
-145.8727498007714
 10
89.04727780976944
 20
-145.9066839913011
 10
88.97320825683655
 20
-145.9859211874618
 10
88.9606336583154
 20
-146.1101168797051
 10
88.9606336583154
 20
-146.1690280125029
 10
88.9606336583154
 20
-146.1893540758658
 10
88.96270071560655
 20
-146.2277668905264
 10
88.96700708496311
 20
-146.2572224569253
 10
88.96700708496311
 20
-146.2572224569253
 10
88.7723591900465
 20
-146.2572224569253
 10
88.7723591900465
 20
-146.2572224569253
 10
88.77873261669421
 20
-146.2163980754251
 10
88.78079967398535
 20
-146.1712673245683
 10
88.78079967398535
 20
-146.1643771335978
 10
88.78079967398535
 20
-146.0944416952472
 10
88.75961233675107
 20
-145.8818793038073
 10
88.52276202214014
 20
-145.8818793038073
 10
88.34499509510125
 20
-145.8818793038073
 10
88.29004582211153
 20
-146.022094690057
 10
88.29004582211153
 20
-146.139572446104
 10
88.29004582211153
 20
-146.4222425306687
 10
88.52276202214014
 20
-146.4311997789304
 10
88.59459226300762
 20
-146.4356784030612
 10
88.59459226300762
 20
-146.4356784030612
 10
88.59459226300762
 20
-146.6527194186319
 10
88.59459226300762
 20
-146.6527194186319
 10
88.46970755166729
 20
-146.6437621703703
 10
88.09315861512949
 20
-146.6143066039714
 10
88.09315861512949
 20
-146.1259643189372
 10
88.09315861512949
 20
-145.8863579279381
 10
88.22011038376095
 20
-145.6286647856414
 10
88.51638859549243
 20
-145.6286647856414
 10
88.70242375169594
 20
-145.6286647856414
 10
88.78493378856765
 20
-145.7302951024563
 10
88.84642874297936
 20
-145.8365762981762
 10
88.8738172520871
 20
-145.7711194839565
 10
88.95426023166768
 20
-145.5766438438141
 10
89.23141816345603
 20
-145.5766438438141
 10
89.56989879488183
 20
-145.5766438438141
 10
89.73698592591645
 20
-145.8412271770814
 10
89.73698592591645
 20
-146.1373331340386
 97
        0
 97
        1
330
140
 75
     2
 76
     1
 98
        1
 10
0.0
 20
0.0
450
        0
451
        0
460
0.0
461
0.0
452
        0
462
0.0
453
        0
470

  0
SPLINE
  5
142
330
13C
100
AcDbEntity
  8
レイヤー 1
100
AcDbSpline
210
0.0
220
0.0
230
1.0
 70
     9
 71
     3
 72
    17
 73
    13
 74
     0
 42
0.0000000001
 43
0.0000000001
 40
0.0
 40
0.0
 40
0.0
 40
0.0
 40
1.0
 40
1.0
 40
1.0
 40
2.0
 40
2.0
 40
2.0
 40
3.0
 40
3.0
 40
3.0
 40
4.0
 40
4.0
 40
4.0
 40
4.0
 10
88.28573945275495
 20
-144.8703992693379
 30
0.0
 10
88.28573945275495
 20
-145.1372219146705
 30
0.0
 10
88.56927081119101
 20
-145.1870035444324
 30
0.0
 10
88.91412486926453
 20
-145.1870035444324
 30
0.0
 10
89.23348522074718
 20
-145.1870035444324
 30
0.0
 10
89.54233803099983
 20
-145.1485907297719
 30
0.0
 10
89.54233803099983
 20
-144.8703992693379
 30
0.0
 10
89.54233803099983
 20
-144.605988190845
 30
0.0
 10
89.26104598462918
 20
-144.5539672490177
 30
0.0
 10
88.91412486926453
 20
-144.5539672490177
 30
0.0
 10
88.59459226300762
 20
-144.5539672490177
 30
0.0
 10
88.28573945275495
 20
-144.5946193757437
 30
0.0
 10
88.28573945275495
 20
-144.8703992693379
 30
0.0
  0
SPLINE
  5
143
330
13C
100
AcDbEntity
  8
レイヤー 1
100
AcDbSpline
210
0.0
220
0.0
230
1.0
 70
     9
 71
     3
 72
    29
 73
    25
 74
     0
 42
0.0000000001
 43
0.0000000001
 40
0.0
 40
0.0
 40
0.0
 40
0.0
 40
1.0
 40
1.0
 40
1.0
 40
2.0
 40
2.0
 40
2.0
 40
3.0
 40
3.0
 40
3.0
 40
4.0
 40
4.0
 40
4.0
 40
5.0
 40
5.0
 40
5.0
 40
6.0
 40
6.0
 40
6.0
 40
7.0
 40
7.0
 40
7.0
 40
8.0
 40
8.0
 40
8.0
 40
8.0
 10
89.50857609524438
 20
-144.4454467412324
 30
0.0
 10
89.71786564597332
 20
-144.560685185214
 30
0.0
 10
89.73698592591645
 20
-144.7460313223204
 30
0.0
 10
89.73698592591645
 20
-144.8703992693379
 30
0.0
 10
89.73698592591645
 20
-145.0423095340519
 30
0.0
 10
89.69047713686558
 20
-145.1937214806286
 30
0.0
 10
89.50857609524438
 20
-145.2955240522178
 30
0.0
 10
89.31392820032776
 20
-145.4062838720686
 30
0.0
 10
89.07690563094257
 20
-145.4266099354315
 30
0.0
 10
88.91412486926453
 20
-145.4266099354315
 30
0.0
 10
88.77011987798109
 20
-145.4266099354315
 30
0.0
 10
88.51845565278358
 20
-145.408523184134
 30
0.0
 10
88.31950138851039
 20
-145.2955240522178
 30
0.0
 10
88.11658526442919
 20
-145.1801133534619
 30
0.0
 10
88.09315861512949
 20
-145.0083753435222
 30
0.0
 10
88.09315861512949
 20
-144.8703992693379
 30
0.0
 10
88.09315861512949
 20
-144.7009005714637
 30
0.0
 10
88.13760034688922
 20
-144.5470770580473
 30
0.0
 10
88.31950138851039
 20
-144.4454467412324
 30
0.0
 10
88.51208222613587
 20
-144.3391655455124
 30
0.0
 10
88.74049205680794
 20
-144.3143608580186
 30
0.0
 10
88.91412486926453
 20
-144.3143608580186
 30
0.0
 10
89.08534611488144
 20
-144.3143608580186
 30
0.0
 10
89.31599525761892
 20
-144.336926233447
 30
0.0
 10
89.50857609524438
 20
-144.4454467412324
 30
0.0
  0
HATCH
  5
144
330
13C
100
AcDbEntity
  8
レイヤー 1
 62
   250
420
  2299925
440
 33554687
100
AcDbHatch
 10
0.0
 20
0.0
 30
0.0
210
0.0
220
0.0
230
1.0
  2
SOLID
 70
     1
 71
     1
 91
        2
 92
        1
 93
        1
 72
     4
 94
        3
 73
     0
 74
     0
 95
       17
 96
       13
 40
0.0
 40
0.0
 40
0.0
 40
0.0
 40
1.0
 40
1.0
 40
1.0
 40
2.0
 40
2.0
 40
2.0
 40
3.0
 40
3.0
 40
3.0
 40
4.0
 40
4.0
 40
4.0
 40
4.0
 10
88.28573945275495
 20
-144.8703992693379
 10
88.28573945275495
 20
-145.1372219146705
 10
88.56927081119101
 20
-145.1870035444324
 10
88.91412486926453
 20
-145.1870035444324
 10
89.23348522074718
 20
-145.1870035444324
 10
89.54233803099983
 20
-145.1485907297719
 10
89.54233803099983
 20
-144.8703992693379
 10
89.54233803099983
 20
-144.605988190845
 10
89.26104598462918
 20
-144.5539672490177
 10
88.91412486926453
 20
-144.5539672490177
 10
88.59459226300762
 20
-144.5539672490177
 10
88.28573945275495
 20
-144.5946193757437
 10
88.28573945275495
 20
-144.8703992693379
 97
        0
 97
        1
330
142
 92
        1
 93
        1
 72
     4
 94
        3
 73
     0
 74
     0
 95
       29
 96
       25
 40
0.0
 40
0.0
 40
0.0
 40
0.0
 40
1.0
 40
1.0
 40
1.0
 40
2.0
 40
2.0
 40
2.0
 40
3.0
 40
3.0
 40
3.0
 40
4.0
 40
4.0
 40
4.0
 40
5.0
 40
5.0
 40
5.0
 40
6.0
 40
6.0
 40
6.0
 40
7.0
 40
7.0
 40
7.0
 40
8.0
 40
8.0
 40
8.0
 40
8.0
 10
89.50857609524438
 20
-144.4454467412324
 10
89.71786564597332
 20
-144.560685185214
 10
89.73698592591645
 20
-144.7460313223204
 10
89.73698592591645
 20
-144.8703992693379
 10
89.73698592591645
 20
-145.0423095340519
 10
89.69047713686558
 20
-145.1937214806286
 10
89.50857609524438
 20
-145.2955240522178
 10
89.31392820032776
 20
-145.4062838720686
 10
89.07690563094257
 20
-145.4266099354315
 10
88.91412486926453
 20
-145.4266099354315
 10
88.77011987798109
 20
-145.4266099354315
 10
88.51845565278358
 20
-145.408523184134
 10
88.31950138851039
 20
-145.2955240522178
 10
88.11658526442919
 20
-145.1801133534619
 10
88.09315861512949
 20
-145.0083753435222
 10
88.09315861512949
 20
-144.8703992693379
 10
88.09315861512949
 20
-144.7009005714637
 10
88.13760034688922
 20
-144.5470770580473
 10
88.31950138851039
 20
-144.4454467412324
 10
88.51208222613587
 20
-144.3391655455124
 10
88.74049205680794
 20
-144.3143608580186
 10
88.91412486926453
 20
-144.3143608580186
 10
89.08534611488144
 20
-144.3143608580186
 10
89.31599525761892
 20
-144.336926233447
 10
89.50857609524438
 20
-144.4454467412324
 97
        0
 97
        1
330
143
 75
     2
 76
     1
 98
        1
 10
0.0
 20
0.0
450
        0
451
        0
460
0.0
461
0.0
452
        0
462
0.0
453
        0
470

  0
ENDBLK
  5
13F
330
13C
100
AcDbEntity
  8
0
100
AcDbBlockEnd
  0
BLOCK
  5
14A
330
148
100
AcDbEntity
  8
0
100
AcDbBlockBegin
  2
Block_4
 70
     0
 10
0.0
 20
0.0
 30
0.0
  3
Block_4
  1

  0
LINE
  5
14C
330
148
100
AcDbEntity
  8
レイヤー 1
  6
AI-Linetype-0
 62
   154
420
    23468
370
    25
100
AcDbLine
 10
114.0248679424749
 20
-159.0073480278034
 30
0.0
 11
124.024636020693
 21
-159.0073480278034
 31
0.0
  0
LINE
  5
14E
330
148
100
AcDbEntity
  8
レイヤー 1
 62
   250
420
  2299925
370
     9
100
AcDbLine
 10
96.06445977897209
 20
-141.2192236334575
 30
0.0
 11
96.64789623629499
 21
-142.1117212958753
 31
0.0
  0
LINE
  5
14F
330
148
100
AcDbEntity
  8
レイヤー 1
 62
   250
420
  2299925
370
     9
100
AcDbLine
 10
96.06445977897209
 20
-141.2192236334575
 30
0.0
 11
99.40016409521417
 21
-151.3405865468891
 31
0.0
  0
LINE
  5
150
330
148
100
AcDbEntity
  8
レイヤー 1
 62
   250
420
  2299925
370
     9
100
AcDbLine
 10
96.06445977897209
 20
-141.2192236334575
 30
0.0
 11
96.13234311611295
 21
-142.3033306390836
 31
0.0
  0
LINE
  5
151
330
148
100
AcDbEntity
  8
レイヤー 1
 62
   250
420
  2299925
370
     9
100
AcDbLine
 10
112.9581194801855
 20
-158.6200940116736
 30
0.0
 11
111.9964351437585
 21
-158.5697883761057
 31
0.0
  0
LINE
  5
152
330
148
100
AcDbEntity
  8
レイヤー 1
 62
   250
420
  2299925
370
     9
100
AcDbLine
 10
112.9581194801855
 20
-158.6200940116736
 30
0.0
 11
103.9778684139633
 21
-155.699455148722
 31
0.0
  0
LINE
  5
153
330
148
100
AcDbEntity
  8
レイヤー 1
 62
   250
420
  2299925
370
     9
100
AcDbLine
 10
112.9581194801855
 20
-158.6200940116736
 30
0.0
 11
112.1651263018911
 21
-158.0995604979313
 31
0.0
  0
INSERT
  5
155
330
148
100
AcDbEntity
  8
レイヤー 1
100
AcDbBlockReference
  2
Block_5
 10
0.0
 20
0.0
 30
0.0
  0
LINE
  5
16F
330
148
100
AcDbEntity
  8
レイヤー 1
  6
AI-Linetype-1
 62
   154
420
    23468
370
    25
100
AcDbLine
 10
95.59256741556616
 20
-130.4215856897206
 30
0.0
 11
95.59256741556616
 21
-140.4213184901617
 31
0.0
  0
ENDBLK
  5
14B
330
148
100
AcDbEntity
  8
0
100
AcDbBlockEnd
  0
BLOCK
  5
156
330
154
100
AcDbEntity
  8
0
100
AcDbBlockBegin
  2
Block_5
 70
     0
 10
0.0
 20
0.0
 30
0.0
  3
Block_5
  1

  0
INSERT
  5
159
330
154
100
AcDbEntity
  8
レイヤー 1
100
AcDbBlockReference
  2
Block_6
 10
0.0
 20
0.0
 30
0.0
  0
ENDBLK
  5
157
330
154
100
AcDbEntity
  8
0
100
AcDbBlockEnd
  0
BLOCK
  5
15A
330
158
100
AcDbEntity
  8
0
100
AcDbBlockBegin
  2
Block_6
 70
     0
 10
0.0
 20
0.0
 30
0.0
  3
Block_6
  1

  0
SPLINE
  5
15C
330
158
100
AcDbEntity
  8
レイヤー 1
100
AcDbSpline
210
0.0
220
0.0
230
1.0
 70
     9
 71
     3
 72
    17
 73
    13
 74
     0
 42
0.0000000001
 43
0.0000000001
 40
0.0
 40
0.0
 40
0.0
 40
0.0
 40
1.0
 40
1.0
 40
1.0
 40
2.0
 40
2.0
 40
2.0
 40
3.0
 40
3.0
 40
3.0
 40
4.0
 40
4.0
 40
4.0
 40
4.0
 10
98.22931855183156
 20
-153.896893950241
 30
0.0
 10
98.21450464124499
 20
-153.9265217714142
 30
0.0
 10
98.17006290948526
 20
-154.0195393495159
 30
0.0
 10
98.16076115167509
 20
-154.0384873746848
 30
0.0
 10
98.32750377316118
 20
-154.0977430170311
 30
0.0
 10
98.34593503400727
 20
-154.1042886984531
 30
0.0
 10
98.40898028138735
 20
-154.1315049527866
 30
0.0
 10
98.45703936340658
 20
-154.0450330561068
 30
0.0
 10
98.47753768154381
 20
-153.9709635031739
 30
0.0
 10
98.49045678961351
 20
-153.896893950241
 30
0.0
 10
98.49045678961351
 20
-153.896893950241
 30
0.0
 10
98.22931855183156
 20
-153.896893950241
 30
0.0
 10
98.22931855183156
 20
-153.896893950241
 30
0.0
  0
SPLINE
  5
15D
330
158
100
AcDbEntity
  8
レイヤー 1
100
AcDbSpline
210
0.0
220
0.0
230
1.0
 70
    11
 71
     3
 72
    20
 73
    16
 74
     0
 42
0.0000000001
 43
0.0000000001
 40
0.0
 40
0.0
 40
0.0
 40
0.0
 40
1.0
 40
1.0
 40
1.0
 40
2.0
 40
2.0
 40
2.0
 40
3.0
 40
3.0
 40
3.0
 40
4.0
 40
4.0
 40
4.0
 40
5.0
 40
5.0
 40
5.0
 40
5.0
 10
98.17385251451904
 20
-153.0462998749329
 30
0.0
 10
98.17385251451904
 20
-153.0462998749329
 30
0.0
 10
98.14594724108852
 20
-153.0462998749329
 30
0.0
 10
98.14594724108852
 20
-153.0462998749329
 30
0.0
 10
98.18677162258872
 20
-153.1458631344566
 30
0.0
 10
98.21450464124499
 20
-153.2261338592629
 30
0.0
 10
98.24413246241814
 20
-153.3532578826686
 30
0.0
 10
98.24413246241814
 20
-153.3532578826686
 30
0.0
 10
98.4256889944908
 20
-153.3532578826686
 30
0.0
 10
98.4256889944908
 20
-153.3532578826686
 30
0.0
 10
98.45342201314707
 20
-153.2602403045669
 30
0.0
 10
98.47374807651004
 20
-153.1754909556297
 30
0.0
 10
98.494074139873
 20
-153.0462998749329
 30
0.0
 10
98.494074139873
 20
-153.0462998749329
 30
0.0
 10
98.17385251451904
 20
-153.0462998749329
 30
0.0
 10
98.17385251451904
 20
-153.0462998749329
 30
0.0
  0
SPLINE
  5
15E
330
158
100
AcDbEntity
  8
レイヤー 1
100
AcDbSpline
210
0.0
220
0.0
230
1.0
 70
     9
 71
     3
 72
   242
 73
   238
 74
     0
 42
0.0000000001
 43
0.0000000001
 40
0.0
 40
0.0
 40
0.0
 40
0.0
 40
1.0
 40
1.0
 40
1.0
 40
2.0
 40
2.0
 40
2.0
 40
3.0
 40
3.0
 40
3.0
 40
4.0
 40
4.0
 40
4.0
 40
5.0
 40
5.0
 40
5.0
 40
6.0
 40
6.0
 40
6.0
 40
7.0
 40
7.0
 40
7.0
 40
8.0
 40
8.0
 40
8.0
 40
9.0
 40
9.0
 40
9.0
 40
10.0
 40
10.0
 40
10.0
 40
11.0
 40
11.0
 40
11.0
 40
12.0
 40
12.0
 40
12.0
 40
13.0
 40
13.0
 40
13.0
 40
14.0
 40
14.0
 40
14.0
 40
15.0
 40
15.0
 40
15.0
 40
16.0
 40
16.0
 40
16.0
 40
17.0
 40
17.0
 40
17.0
 40
18.0
 40
18.0
 40
18.0
 40
19.0
 40
19.0
 40
19.0
 40
20.0
 40
20.0
 40
20.0
 40
21.0
 40
21.0
 40
21.0
 40
22.0
 40
22.0
 40
22.0
 40
23.0
 40
23.0
 40
23.0
 40
24.0
 40
24.0
 40
24.0
 40
25.0
 40
25.0
 40
25.0
 40
26.0
 40
26.0
 40
26.0
 40
27.0
 40
27.0
 40
27.0
 40
28.0
 40
28.0
 40
28.0
 40
29.0
 40
29.0
 40
29.0
 40
30.0
 40
30.0
 40
30.0
 40
31.0
 40
31.0
 40
31.0
 40
32.0
 40
32.0
 40
32.0
 40
33.0
 40
33.0
 40
33.0
 40
34.0
 40
34.0
 40
34.0
 40
35.0
 40
35.0
 40
35.0
 40
36.0
 40
36.0
 40
36.0
 40
37.0
 40
37.0
 40
37.0
 40
38.0
 40
38.0
 40
38.0
 40
39.0
 40
39.0
 40
39.0
 40
40.0
 40
40.0
 40
40.0
 40
41.0
 40
41.0
 40
41.0
 40
42.0
 40
42.0
 40
42.0
 40
43.0
 40
43.0
 40
43.0
 40
44.0
 40
44.0
 40
44.0
 40
45.0
 40
45.0
 40
45.0
 40
46.0
 40
46.0
 40
46.0
 40
47.0
 40
47.0
 40
47.0
 40
48.0
 40
48.0
 40
48.0
 40
49.0
 40
49.0
 40
49.0
 40
50.0
 40
50.0
 40
50.0
 40
51.0
 40
51.0
 40
51.0
 40
52.0
 40
52.0
 40
52.0
 40
53.0
 40
53.0
 40
53.0
 40
54.0
 40
54.0
 40
54.0
 40
55.0
 40
55.0
 40
55.0
 40
56.0
 40
56.0
 40
56.0
 40
57.0
 40
57.0
 40
57.0
 40
58.0
 40
58.0
 40
58.0
 40
59.0
 40
59.0
 40
59.0
 40
60.0
 40
60.0
 40
60.0
 40
61.0
 40
61.0
 40
61.0
 40
62.0
 40
62.0
 40
62.0
 40
63.0
 40
63.0
 40
63.0
 40
64.0
 40
64.0
 40
64.0
 40
65.0
 40
65.0
 40
65.0
 40
66.0
 40
66.0
 40
66.0
 40
67.0
 40
67.0
 40
67.0
 40
68.0
 40
68.0
 40
68.0
 40
69.0
 40
69.0
 40
69.0
 40
70.0
 40
70.0
 40
70.0
 40
71.0
 40
71.0
 40
71.0
 40
72.0
 40
72.0
 40
72.0
 40
73.0
 40
73.0
 40
73.0
 40
74.0
 40
74.0
 40
74.0
 40
75.0
 40
75.0
 40
75.0
 40
76.0
 40
76.0
 40
76.0
 40
77.0
 40
77.0
 40
77.0
 40
78.0
 40
78.0
 40
78.0
 40
79.0
 40
79.0
 40
79.0
 40
79.0
 10
98.72368975396492
 20
-153.5117322749901
 30
0.0
 10
98.72368975396492
 20
-153.5117322749901
 30
0.0
 10
98.50148109516631
 20
-153.5117322749901
 30
0.0
 10
98.50148109516631
 20
-153.5117322749901
 30
0.0
 10
98.50148109516631
 20
-153.5117322749901
 30
0.0
 10
98.25894637300471
 20
-153.5117322749901
 30
0.0
 10
98.25894637300471
 20
-153.5117322749901
 30
0.0
 10
98.25894637300471
 20
-153.5117322749901
 30
0.0
 10
98.37005070240401
 20
-153.5541069494587
 30
0.0
 10
98.37005070240401
 20
-153.5541069494587
 30
0.0
 10
98.37935246021419
 20
-153.558241064041
 30
0.0
 10
98.39037676576699
 20
-153.564786745463
 30
0.0
 10
98.39037676576699
 20
-153.5775335987584
 30
0.0
 10
98.39037676576699
 20
-153.5985486812184
 30
0.0
 10
98.36264374711074
 20
-153.6047498530918
 30
0.0
 10
98.34421248626465
 20
-153.6092284772227
 30
0.0
 10
98.33491072845447
 20
-153.6323106169739
 30
0.0
 10
98.30890025754085
 20
-153.6981119407421
 30
0.0
 10
98.29236379921164
 20
-153.7425536725018
 30
0.0
 10
98.29236379921164
 20
-153.7425536725018
 30
0.0
 10
98.52938636859683
 20
-153.7425536725018
 30
0.0
 10
98.52938636859683
 20
-153.7425536725018
 30
0.0
 10
98.60896807430609
 20
-153.7425536725018
 30
0.0
 10
98.78122284856859
 20
-153.738075048371
 30
0.0
 10
98.90524628603758
 20
-153.7298068192064
 30
0.0
 10
98.90524628603758
 20
-153.7298068192064
 30
0.0
 10
98.90524628603758
 20
-153.9075737462453
 30
0.0
 10
98.90524628603758
 20
-153.9075737462453
 30
0.0
 10
98.8330715356216
 20
-153.9030951221145
 30
0.0
 10
98.81446802000125
 20
-153.9030951221145
 30
0.0
 10
98.65702715632533
 20
-153.8989610075322
 30
0.0
 10
98.62929413766906
 20
-154.0533012852714
 30
0.0
 10
98.59036455868576
 20
-154.1339165196262
 30
0.0
 10
98.55160723447669
 20
-154.2035074484283
 30
0.0
 10
98.65702715632533
 20
-154.2627630907746
 30
0.0
 10
98.74970022487856
 20
-154.330631471834
 30
0.0
 10
98.84047849091489
 20
-154.4129692539315
 30
0.0
 10
98.84047849091489
 20
-154.4129692539315
 30
0.0
 10
98.73678111680888
 20
-154.5800563849661
 30
0.0
 10
98.73678111680888
 20
-154.5800563849661
 30
0.0
 10
98.71628279867163
 20
-154.5611083597972
 30
0.0
 10
98.70525849311883
 20
-154.5524956210841
 30
0.0
 10
98.60707327178921
 20
-154.4680907816954
 30
0.0
 10
98.56452634254637
 20
-154.4298502218092
 30
0.0
 10
98.51267765549337
 20
-154.3940212287626
 30
0.0
 10
98.44222545282001
 20
-154.3495794970028
 30
0.0
 10
98.25705157048783
 20
-154.5356146532063
 30
0.0
 10
98.07756209570632
 20
-154.5590413025061
 30
0.0
 10
97.82383081321766
 20
-154.5886691236792
 30
0.0
 10
97.82383081321766
 20
-154.5886691236792
 30
0.0
 10
97.73305254718133
 20
-154.4088351393491
 30
0.0
 10
97.73305254718133
 20
-154.4088351393491
 30
0.0
 10
98.01089949806673
 20
-154.4047010247669
 30
0.0
 10
98.16455075670887
 20
-154.379207318176
 30
0.0
 10
98.29787595198803
 20
-154.2693087721966
 30
0.0
 10
98.19417857788202
 20
-154.2183213590148
 30
0.0
 10
98.11631941991537
 20
-154.1907605951329
 30
0.0
 10
98.08496905099959
 20
-154.178358251386
 30
0.0
 10
98.06826033789613
 20
-154.2055745057194
 30
0.0
 10
98.05534122982646
 20
-154.2248670404368
 30
0.0
 10
98.0312255614297
 20
-154.2586289761923
 30
0.0
 10
98.0312255614297
 20
-154.2586289761923
 30
0.0
 10
97.85897078716722
 20
-154.1759466845463
 30
0.0
 10
97.85897078716722
 20
-154.1759466845463
 30
0.0
 10
97.9311455375832
 20
-154.0956759597399
 30
0.0
 10
97.98488902715309
 20
-154.0005913243471
 30
0.0
 10
98.03484291168921
 20
-153.8989610075322
 30
0.0
 10
97.86827254497739
 20
-153.9030951221145
 30
0.0
 10
97.84966902935703
 20
-153.9030951221145
 30
0.0
 10
97.77749427894105
 20
-153.9075737462453
 30
0.0
 10
97.77749427894105
 20
-153.9075737462453
 30
0.0
 10
97.77749427894105
 20
-153.7298068192064
 30
0.0
 10
97.77749427894105
 20
-153.7298068192064
 30
0.0
 10
97.89979516866742
 20
-153.7360079910799
 30
0.0
 10
98.08307424848271
 20
-153.7401421056622
 30
0.0
 10
98.10529511436257
 20
-153.7401421056622
 30
0.0
 10
98.12010902494915
 20
-153.7063801699067
 30
0.0
 10
98.16816810696838
 20
-153.585801827923
 30
0.0
 10
98.18487682007184
 20
-153.5117322749901
 30
0.0
 10
98.16816810696838
 20
-153.5117322749901
 30
0.0
 10
98.01262204580936
 20
-153.5182779564121
 30
0.0
 10
97.84226207406375
 20
-153.5310248097075
 30
0.0
 10
97.84226207406375
 20
-153.5310248097075
 30
0.0
 10
97.84226207406375
 20
-153.6640054954381
 30
0.0
 10
97.84226207406375
 20
-153.6640054954381
 30
0.0
 10
97.79971514482092
 20
-153.689499202029
 30
0.0
 10
97.7478664577679
 20
-153.7211940804933
 30
0.0
 10
97.6312499755922
 20
-153.7869954042616
 30
0.0
 10
97.6312499755922
 20
-153.7869954042616
 30
0.0
 10
97.6312499755922
 20
-153.9327229432877
 30
0.0
 10
97.6312499755922
 20
-153.9327229432877
 30
0.0
 10
97.6312499755922
 20
-153.9327229432877
 30
0.0
 10
97.6312499755922
 20
-154.400222400636
 30
0.0
 10
97.6312499755922
 20
-154.400222400636
 30
0.0
 10
97.6312499755922
 20
-154.5273464240418
 30
0.0
 10
97.59972735190217
 20
-154.5866020663881
 30
0.0
 10
97.35168047696417
 20
-154.5779893276749
 30
0.0
 10
97.35168047696417
 20
-154.5779893276749
 30
0.0
 10
97.26090221092784
 20
-154.3705945794629
 30
0.0
 10
97.26090221092784
 20
-154.3705945794629
 30
0.0
 10
97.31636824824036
 20
-154.3833414327583
 30
0.0
 10
97.35908743225746
 20
-154.3878200568891
 30
0.0
 10
97.39422740620701
 20
-154.3878200568891
 30
0.0
 10
97.46089000384658
 20
-154.3878200568891
 30
0.0
 10
97.47019176165677
 20
-154.3643934075894
 30
0.0
 10
97.47019176165677
 20
-154.2989365933697
 30
0.0
 10
97.47019176165677
 20
-154.2989365933697
 30
0.0
 10
97.47019176165677
 20
-153.869333186359
 30
0.0
 10
97.47019176165677
 20
-153.869333186359
 30
0.0
 10
97.38492564839683
 20
-153.9096408035365
 30
0.0
 10
97.37011173781025
 20
-153.9158419754099
 30
0.0
 10
97.32945961108431
 20
-153.9347900005788
 30
0.0
 10
97.32567000605053
 20
-153.9561495925873
 30
0.0
 10
97.32205265579104
 20
-153.9857774137605
 30
0.0
 10
97.30534394268756
 20
-153.9857774137605
 30
0.0
 10
97.29793698739428
 20
-153.9857774137605
 30
0.0
 10
97.28863522958411
 20
-153.9812987896296
 30
0.0
 10
97.2831230768077
 20
-153.9582166498785
 30
0.0
 10
97.2831230768077
 20
-153.9582166498785
 30
0.0
 10
97.23678654253109
 20
-153.765635812253
 30
0.0
 10
97.23678654253109
 20
-153.765635812253
 30
0.0
 10
97.36459958503386
 20
-153.7191270232021
 30
0.0
 10
97.42196042486327
 20
-153.696044883451
 30
0.0
 10
97.47019176165677
 20
-153.6746852914424
 30
0.0
 10
97.47019176165677
 20
-153.6746852914424
 30
0.0
 10
97.47019176165677
 20
-153.262307361858
 30
0.0
 10
97.47019176165677
 20
-153.262307361858
 30
0.0
 10
97.47019176165677
 20
-153.262307361858
 30
0.0
 10
97.42385522738016
 20
-153.262307361858
 30
0.0
 10
97.42385522738016
 20
-153.262307361858
 30
0.0
 10
97.42385522738016
 20
-153.262307361858
 30
0.0
 10
97.35529782722368
 20
-153.262307361858
 30
0.0
 10
97.35529782722368
 20
-153.262307361858
 30
0.0
 10
97.29604218487738
 20
-153.262307361858
 30
0.0
 10
97.28863522958411
 20
-153.262307361858
 30
0.0
 10
97.25711260589406
 20
-153.2685085337315
 30
0.0
 10
97.25711260589406
 20
-153.2685085337315
 30
0.0
 10
97.25711260589406
 20
-153.0738606388148
 30
0.0
 10
97.25711260589406
 20
-153.0738606388148
 30
0.0
 10
97.28122827429082
 20
-153.0804063202368
 30
0.0
 10
97.28863522958411
 20
-153.0804063202368
 30
0.0
 10
97.34978567444727
 20
-153.0804063202368
 30
0.0
 10
97.34978567444727
 20
-153.0804063202368
 30
0.0
 10
97.46640215662299
 20
-153.0804063202368
 30
0.0
 10
97.46640215662299
 20
-153.0804063202368
 30
0.0
 10
97.46640215662299
 20
-153.0104708818863
 30
0.0
 10
97.46640215662299
 20
-152.9277885902402
 30
0.0
 10
97.46450735410611
 20
-152.9236544756579
 30
0.0
 10
97.45710039881281
 20
-152.7438204913279
 30
0.0
 10
97.45710039881281
 20
-152.724872466159
 30
0.0
 10
97.45537785107018
 20
-152.6783636771082
 30
0.0
 10
97.45537785107018
 20
-152.6783636771082
 30
0.0
 10
97.64416908366188
 20
-152.6866319062728
 30
0.0
 10
97.64416908366188
 20
-152.6866319062728
 30
0.0
 10
97.65347084147206
 20
-152.6866319062728
 30
0.0
 10
97.67190210231815
 20
-152.6890434731124
 30
0.0
 10
97.67190210231815
 20
-152.7059244409902
 30
0.0
 10
97.67190210231815
 20
-152.724872466159
 30
0.0
 10
97.65898299424845
 20
-152.7355522621633
 30
0.0
 10
97.63676212836859
 20
-152.7545002873322
 30
0.0
 10
97.63676212836859
 20
-152.8051431909654
 30
0.0
 10
97.6312499755922
 20
-153.0338975311859
 30
0.0
 10
97.63314477810908
 20
-153.0804063202368
 30
0.0
 10
97.74597165525101
 20
-153.0804063202368
 30
0.0
 10
97.75716821557807
 20
-153.0804063202368
 30
0.0
 10
97.84226207406375
 20
-153.0717935815237
 30
0.0
 10
97.84226207406375
 20
-153.0717935815237
 30
0.0
 10
97.84226207406375
 20
-153.2664414764403
 30
0.0
 10
97.84226207406375
 20
-153.2664414764403
 30
0.0
 10
97.80901690263108
 20
-153.2643744191492
 30
0.0
 10
97.74976126028478
 20
-153.2602403045669
 30
0.0
 10
97.6312499755922
 20
-153.262307361858
 30
0.0
 10
97.6312499755922
 20
-153.262307361858
 30
0.0
 10
97.6312499755922
 20
-153.6006157385096
 30
0.0
 10
97.6312499755922
 20
-153.6006157385096
 30
0.0
 10
97.67930905761144
 20
-153.5775335987584
 30
0.0
 10
97.73684215221511
 20
-153.5499728348764
 30
0.0
 10
97.77938908145793
 20
-153.5265461855767
 30
0.0
 10
97.77938908145793
 20
-153.5265461855767
 30
0.0
 10
97.77938908145793
 20
-153.3487792585378
 30
0.0
 10
97.77938908145793
 20
-153.3487792585378
 30
0.0
 10
97.87929685053018
 20
-153.3615261118332
 30
0.0
 10
97.98299422463621
 20
-153.3615261118332
 30
0.0
 10
98.08496905099959
 20
-153.3615261118332
 30
0.0
 10
98.06447073286236
 20
-153.2664414764403
 30
0.0
 10
98.04052731923988
 20
-153.1837591847943
 30
0.0
 10
97.98488902715309
 20
-153.0507784990637
 30
0.0
 10
97.94595944816975
 20
-153.0528455563548
 30
0.0
 10
97.87378469775378
 20
-153.0569796709371
 30
0.0
 10
97.84053952632113
 20
-153.0590467282283
 30
0.0
 10
97.84053952632113
 20
-153.0590467282283
 30
0.0
 10
97.84053952632113
 20
-152.8792127438982
 30
0.0
 10
97.84053952632113
 20
-152.8792127438982
 30
0.0
 10
97.94974905320353
 20
-152.8878254826114
 30
0.0
 10
98.10150550932879
 20
-152.8919595971937
 30
0.0
 10
98.17385251451904
 20
-152.8919595971937
 30
0.0
 10
98.17385251451904
 20
-152.8919595971937
 30
0.0
 10
98.24602726493502
 20
-152.8919595971937
 30
0.0
 10
98.24602726493502
 20
-152.8919595971937
 30
0.0
 10
98.24602726493502
 20
-152.7290065807413
 30
0.0
 10
98.24602726493502
 20
-152.7186712942856
 30
0.0
 10
98.24413246241814
 20
-152.6635497665216
 30
0.0
 10
98.24413246241814
 20
-152.6635497665216
 30
0.0
 10
98.44050290507738
 20
-152.6890434731124
 30
0.0
 10
98.44050290507738
 20
-152.6890434731124
 30
0.0
 10
98.4441202553369
 20
-152.6890434731124
 30
0.0
 10
98.46272377095724
 20
-152.6911105304036
 30
0.0
 10
98.46272377095724
 20
-152.7079914982813
 30
0.0
 10
98.46272377095724
 20
-152.7228054088679
 30
0.0
 10
98.45342201314707
 20
-152.7310736380325
 30
0.0
 10
98.42930634475031
 20
-152.7458875486191
 30
0.0
 10
98.42379419197392
 20
-152.8116888723873
 30
0.0
 10
98.42189938945702
 20
-152.8327039548473
 30
0.0
 10
98.42189938945702
 20
-152.8919595971937
 30
0.0
 10
98.42189938945702
 20
-152.8919595971937
 30
0.0
 10
98.50527070020007
 20
-152.8919595971937
 30
0.0
 10
98.50527070020007
 20
-152.8919595971937
 30
0.0
 10
98.57744545061606
 20
-152.8919595971937
 30
0.0
 10
98.72937416151557
 20
-152.8878254826114
 30
0.0
 10
98.83858368839801
 20
-152.8792127438982
 30
0.0
 10
98.83858368839801
 20
-152.8792127438982
 30
0.0
 10
98.83858368839801
 20
-153.0590467282283
 30
0.0
 10
98.83858368839801
 20
-153.0590467282283
 30
0.0
 10
98.81257321748435
 20
-153.0569796709371
 30
0.0
 10
98.70887584337834
 20
-153.0528455563548
 30
0.0
 10
98.6737358694288
 20
-153.0507784990637
 30
0.0
 10
98.66081676135911
 20
-153.1014214026968
 30
0.0
 10
98.63118894018596
 20
-153.2133870059675
 30
0.0
 10
98.57382810035655
 20
-153.3532578826686
 30
0.0
 10
98.61086287682297
 20
-153.3532578826686
 30
0.0
 10
98.85339759898457
 20
-153.3339653479512
 30
0.0
 10
98.90714108855448
 20
-153.3318982906601
 30
0.0
 10
98.90714108855448
 20
-153.3318982906601
 30
0.0
 10
98.90714108855448
 20
-153.5162108991209
 30
0.0
 10
98.90714108855448
 20
-153.5162108991209
 30
0.0
 10
98.88113061764084
 20
-153.5162108991209
 30
0.0
 10
98.86631670705426
 20
-153.5117322749901
 30
0.0
 10
98.72368975396492
 20
-153.5117322749901
 30
0.0
  0
HATCH
  5
15F
330
158
100
AcDbEntity
  8
レイヤー 1
 62
   250
420
  2299925
440
 33554687
100
AcDbHatch
 10
0.0
 20
0.0
 30
0.0
210
0.0
220
0.0
230
1.0
  2
SOLID
 70
     1
 71
     1
 91
        3
 92
        1
 93
        1
 72
     4
 94
        3
 73
     0
 74
     0
 95
       17
 96
       13
 40
0.0
 40
0.0
 40
0.0
 40
0.0
 40
1.0
 40
1.0
 40
1.0
 40
2.0
 40
2.0
 40
2.0
 40
3.0
 40
3.0
 40
3.0
 40
4.0
 40
4.0
 40
4.0
 40
4.0
 10
98.22931855183156
 20
-153.896893950241
 10
98.21450464124499
 20
-153.9265217714142
 10
98.17006290948526
 20
-154.0195393495159
 10
98.16076115167509
 20
-154.0384873746848
 10
98.32750377316118
 20
-154.0977430170311
 10
98.34593503400727
 20
-154.1042886984531
 10
98.40898028138735
 20
-154.1315049527866
 10
98.45703936340658
 20
-154.0450330561068
 10
98.47753768154381
 20
-153.9709635031739
 10
98.49045678961351
 20
-153.896893950241
 10
98.49045678961351
 20
-153.896893950241
 10
98.22931855183156
 20
-153.896893950241
 10
98.22931855183156
 20
-153.896893950241
 97
        0
 97
        1
330
15C
 92
        1
 93
        1
 72
     4
 94
        3
 73
     0
 74
     0
 95
       20
 96
       16
 40
0.0
 40
0.0
 40
0.0
 40
0.0
 40
1.0
 40
1.0
 40
1.0
 40
2.0
 40
2.0
 40
2.0
 40
3.0
 40
3.0
 40
3.0
 40
4.0
 40
4.0
 40
4.0
 40
5.0
 40
5.0
 40
5.0
 40
5.0
 10
98.17385251451904
 20
-153.0462998749329
 10
98.17385251451904
 20
-153.0462998749329
 10
98.14594724108852
 20
-153.0462998749329
 10
98.14594724108852
 20
-153.0462998749329
 10
98.18677162258872
 20
-153.1458631344566
 10
98.21450464124499
 20
-153.2261338592629
 10
98.24413246241814
 20
-153.3532578826686
 10
98.24413246241814
 20
-153.3532578826686
 10
98.4256889944908
 20
-153.3532578826686
 10
98.4256889944908
 20
-153.3532578826686
 10
98.45342201314707
 20
-153.2602403045669
 10
98.47374807651004
 20
-153.1754909556297
 10
98.494074139873
 20
-153.0462998749329
 10
98.494074139873
 20
-153.0462998749329
 10
98.17385251451904
 20
-153.0462998749329
 10
98.17385251451904
 20
-153.0462998749329
 97
        0
 97
        1
330
15D
 92
        1
 93
        1
 72
     4
 94
        3
 73
     0
 74
     0
 95
      242
 96
      238
 40
0.0
 40
0.0
 40
0.0
 40
0.0
 40
1.0
 40
1.0
 40
1.0
 40
2.0
 40
2.0
 40
2.0
 40
3.0
 40
3.0
 40
3.0
 40
4.0
 40
4.0
 40
4.0
 40
5.0
 40
5.0
 40
5.0
 40
6.0
 40
6.0
 40
6.0
 40
7.0
 40
7.0
 40
7.0
 40
8.0
 40
8.0
 40
8.0
 40
9.0
 40
9.0
 40
9.0
 40
10.0
 40
10.0
 40
10.0
 40
11.0
 40
11.0
 40
11.0
 40
12.0
 40
12.0
 40
12.0
 40
13.0
 40
13.0
 40
13.0
 40
14.0
 40
14.0
 40
14.0
 40
15.0
 40
15.0
 40
15.0
 40
16.0
 40
16.0
 40
16.0
 40
17.0
 40
17.0
 40
17.0
 40
18.0
 40
18.0
 40
18.0
 40
19.0
 40
19.0
 40
19.0
 40
20.0
 40
20.0
 40
20.0
 40
21.0
 40
21.0
 40
21.0
 40
22.0
 40
22.0
 40
22.0
 40
23.0
 40
23.0
 40
23.0
 40
24.0
 40
24.0
 40
24.0
 40
25.0
 40
25.0
 40
25.0
 40
26.0
 40
26.0
 40
26.0
 40
27.0
 40
27.0
 40
27.0
 40
28.0
 40
28.0
 40
28.0
 40
29.0
 40
29.0
 40
29.0
 40
30.0
 40
30.0
 40
30.0
 40
31.0
 40
31.0
 40
31.0
 40
32.0
 40
32.0
 40
32.0
 40
33.0
 40
33.0
 40
33.0
 40
34.0
 40
34.0
 40
34.0
 40
35.0
 40
35.0
 40
35.0
 40
36.0
 40
36.0
 40
36.0
 40
37.0
 40
37.0
 40
37.0
 40
38.0
 40
38.0
 40
38.0
 40
39.0
 40
39.0
 40
39.0
 40
40.0
 40
40.0
 40
40.0
 40
41.0
 40
41.0
 40
41.0
 40
42.0
 40
42.0
 40
42.0
 40
43.0
 40
43.0
 40
43.0
 40
44.0
 40
44.0
 40
44.0
 40
45.0
 40
45.0
 40
45.0
 40
46.0
 40
46.0
 40
46.0
 40
47.0
 40
47.0
 40
47.0
 40
48.0
 40
48.0
 40
48.0
 40
49.0
 40
49.0
 40
49.0
 40
50.0
 40
50.0
 40
50.0
 40
51.0
 40
51.0
 40
51.0
 40
52.0
 40
52.0
 40
52.0
 40
53.0
 40
53.0
 40
53.0
 40
54.0
 40
54.0
 40
54.0
 40
55.0
 40
55.0
 40
55.0
 40
56.0
 40
56.0
 40
56.0
 40
57.0
 40
57.0
 40
57.0
 40
58.0
 40
58.0
 40
58.0
 40
59.0
 40
59.0
 40
59.0
 40
60.0
 40
60.0
 40
60.0
 40
61.0
 40
61.0
 40
61.0
 40
62.0
 40
62.0
 40
62.0
 40
63.0
 40
63.0
 40
63.0
 40
64.0
 40
64.0
 40
64.0
 40
65.0
 40
65.0
 40
65.0
 40
66.0
 40
66.0
 40
66.0
 40
67.0
 40
67.0
 40
67.0
 40
68.0
 40
68.0
 40
68.0
 40
69.0
 40
69.0
 40
69.0
 40
70.0
 40
70.0
 40
70.0
 40
71.0
 40
71.0
 40
71.0
 40
72.0
 40
72.0
 40
72.0
 40
73.0
 40
73.0
 40
73.0
 40
74.0
 40
74.0
 40
74.0
 40
75.0
 40
75.0
 40
75.0
 40
76.0
 40
76.0
 40
76.0
 40
77.0
 40
77.0
 40
77.0
 40
78.0
 40
78.0
 40
78.0
 40
79.0
 40
79.0
 40
79.0
 40
79.0
 10
98.72368975396492
 20
-153.5117322749901
 10
98.72368975396492
 20
-153.5117322749901
 10
98.50148109516631
 20
-153.5117322749901
 10
98.50148109516631
 20
-153.5117322749901
 10
98.50148109516631
 20
-153.5117322749901
 10
98.25894637300471
 20
-153.5117322749901
 10
98.25894637300471
 20
-153.5117322749901
 10
98.25894637300471
 20
-153.5117322749901
 10
98.37005070240401
 20
-153.5541069494587
 10
98.37005070240401
 20
-153.5541069494587
 10
98.37935246021419
 20
-153.558241064041
 10
98.39037676576699
 20
-153.564786745463
 10
98.39037676576699
 20
-153.5775335987584
 10
98.39037676576699
 20
-153.5985486812184
 10
98.36264374711074
 20
-153.6047498530918
 10
98.34421248626465
 20
-153.6092284772227
 10
98.33491072845447
 20
-153.6323106169739
 10
98.30890025754085
 20
-153.6981119407421
 10
98.29236379921164
 20
-153.7425536725018
 10
98.29236379921164
 20
-153.7425536725018
 10
98.52938636859683
 20
-153.7425536725018
 10
98.52938636859683
 20
-153.7425536725018
 10
98.60896807430609
 20
-153.7425536725018
 10
98.78122284856859
 20
-153.738075048371
 10
98.90524628603758
 20
-153.7298068192064
 10
98.90524628603758
 20
-153.7298068192064
 10
98.90524628603758
 20
-153.9075737462453
 10
98.90524628603758
 20
-153.9075737462453
 10
98.8330715356216
 20
-153.9030951221145
 10
98.81446802000125
 20
-153.9030951221145
 10
98.65702715632533
 20
-153.8989610075322
 10
98.62929413766906
 20
-154.0533012852714
 10
98.59036455868576
 20
-154.1339165196262
 10
98.55160723447669
 20
-154.2035074484283
 10
98.65702715632533
 20
-154.2627630907746
 10
98.74970022487856
 20
-154.330631471834
 10
98.84047849091489
 20
-154.4129692539315
 10
98.84047849091489
 20
-154.4129692539315
 10
98.73678111680888
 20
-154.5800563849661
 10
98.73678111680888
 20
-154.5800563849661
 10
98.71628279867163
 20
-154.5611083597972
 10
98.70525849311883
 20
-154.5524956210841
 10
98.60707327178921
 20
-154.4680907816954
 10
98.56452634254637
 20
-154.4298502218092
 10
98.51267765549337
 20
-154.3940212287626
 10
98.44222545282001
 20
-154.3495794970028
 10
98.25705157048783
 20
-154.5356146532063
 10
98.07756209570632
 20
-154.5590413025061
 10
97.82383081321766
 20
-154.5886691236792
 10
97.82383081321766
 20
-154.5886691236792
 10
97.73305254718133
 20
-154.4088351393491
 10
97.73305254718133
 20
-154.4088351393491
 10
98.01089949806673
 20
-154.4047010247669
 10
98.16455075670887
 20
-154.379207318176
 10
98.29787595198803
 20
-154.2693087721966
 10
98.19417857788202
 20
-154.2183213590148
 10
98.11631941991537
 20
-154.1907605951329
 10
98.08496905099959
 20
-154.178358251386
 10
98.06826033789613
 20
-154.2055745057194
 10
98.05534122982646
 20
-154.2248670404368
 10
98.0312255614297
 20
-154.2586289761923
 10
98.0312255614297
 20
-154.2586289761923
 10
97.85897078716722
 20
-154.1759466845463
 10
97.85897078716722
 20
-154.1759466845463
 10
97.9311455375832
 20
-154.0956759597399
 10
97.98488902715309
 20
-154.0005913243471
 10
98.03484291168921
 20
-153.8989610075322
 10
97.86827254497739
 20
-153.9030951221145
 10
97.84966902935703
 20
-153.9030951221145
 10
97.77749427894105
 20
-153.9075737462453
 10
97.77749427894105
 20
-153.9075737462453
 10
97.77749427894105
 20
-153.7298068192064
 10
97.77749427894105
 20
-153.7298068192064
 10
97.89979516866742
 20
-153.7360079910799
 10
98.08307424848271
 20
-153.7401421056622
 10
98.10529511436257
 20
-153.7401421056622
 10
98.12010902494915
 20
-153.7063801699067
 10
98.16816810696838
 20
-153.585801827923
 10
98.18487682007184
 20
-153.5117322749901
 10
98.16816810696838
 20
-153.5117322749901
 10
98.01262204580936
 20
-153.5182779564121
 10
97.84226207406375
 20
-153.5310248097075
 10
97.84226207406375
 20
-153.5310248097075
 10
97.84226207406375
 20
-153.6640054954381
 10
97.84226207406375
 20
-153.6640054954381
 10
97.79971514482092
 20
-153.689499202029
 10
97.7478664577679
 20
-153.7211940804933
 10
97.6312499755922
 20
-153.7869954042616
 10
97.6312499755922
 20
-153.7869954042616
 10
97.6312499755922
 20
-153.9327229432877
 10
97.6312499755922
 20
-153.9327229432877
 10
97.6312499755922
 20
-153.9327229432877
 10
97.6312499755922
 20
-154.400222400636
 10
97.6312499755922
 20
-154.400222400636
 10
97.6312499755922
 20
-154.5273464240418
 10
97.59972735190217
 20
-154.5866020663881
 10
97.35168047696417
 20
-154.5779893276749
 10
97.35168047696417
 20
-154.5779893276749
 10
97.26090221092784
 20
-154.3705945794629
 10
97.26090221092784
 20
-154.3705945794629
 10
97.31636824824036
 20
-154.3833414327583
 10
97.35908743225746
 20
-154.3878200568891
 10
97.39422740620701
 20
-154.3878200568891
 10
97.46089000384658
 20
-154.3878200568891
 10
97.47019176165677
 20
-154.3643934075894
 10
97.47019176165677
 20
-154.2989365933697
 10
97.47019176165677
 20
-154.2989365933697
 10
97.47019176165677
 20
-153.869333186359
 10
97.47019176165677
 20
-153.869333186359
 10
97.38492564839683
 20
-153.9096408035365
 10
97.37011173781025
 20
-153.9158419754099
 10
97.32945961108431
 20
-153.9347900005788
 10
97.32567000605053
 20
-153.9561495925873
 10
97.32205265579104
 20
-153.9857774137605
 10
97.30534394268756
 20
-153.9857774137605
 10
97.29793698739428
 20
-153.9857774137605
 10
97.28863522958411
 20
-153.9812987896296
 10
97.2831230768077
 20
-153.9582166498785
 10
97.2831230768077
 20
-153.9582166498785
 10
97.23678654253109
 20
-153.765635812253
 10
97.23678654253109
 20
-153.765635812253
 10
97.36459958503386
 20
-153.7191270232021
 10
97.42196042486327
 20
-153.696044883451
 10
97.47019176165677
 20
-153.6746852914424
 10
97.47019176165677
 20
-153.6746852914424
 10
97.47019176165677
 20
-153.262307361858
 10
97.47019176165677
 20
-153.262307361858
 10
97.47019176165677
 20
-153.262307361858
 10
97.42385522738016
 20
-153.262307361858
 10
97.42385522738016
 20
-153.262307361858
 10
97.42385522738016
 20
-153.262307361858
 10
97.35529782722368
 20
-153.262307361858
 10
97.35529782722368
 20
-153.262307361858
 10
97.29604218487738
 20
-153.262307361858
 10
97.28863522958411
 20
-153.262307361858
 10
97.25711260589406
 20
-153.2685085337315
 10
97.25711260589406
 20
-153.2685085337315
 10
97.25711260589406
 20
-153.0738606388148
 10
97.25711260589406
 20
-153.0738606388148
 10
97.28122827429082
 20
-153.0804063202368
 10
97.28863522958411
 20
-153.0804063202368
 10
97.34978567444727
 20
-153.0804063202368
 10
97.34978567444727
 20
-153.0804063202368
 10
97.46640215662299
 20
-153.0804063202368
 10
97.46640215662299
 20
-153.0804063202368
 10
97.46640215662299
 20
-153.0104708818863
 10
97.46640215662299
 20
-152.9277885902402
 10
97.46450735410611
 20
-152.9236544756579
 10
97.45710039881281
 20
-152.7438204913279
 10
97.45710039881281
 20
-152.724872466159
 10
97.45537785107018
 20
-152.6783636771082
 10
97.45537785107018
 20
-152.6783636771082
 10
97.64416908366188
 20
-152.6866319062728
 10
97.64416908366188
 20
-152.6866319062728
 10
97.65347084147206
 20
-152.6866319062728
 10
97.67190210231815
 20
-152.6890434731124
 10
97.67190210231815
 20
-152.7059244409902
 10
97.67190210231815
 20
-152.724872466159
 10
97.65898299424845
 20
-152.7355522621633
 10
97.63676212836859
 20
-152.7545002873322
 10
97.63676212836859
 20
-152.8051431909654
 10
97.6312499755922
 20
-153.0338975311859
 10
97.63314477810908
 20
-153.0804063202368
 10
97.74597165525101
 20
-153.0804063202368
 10
97.75716821557807
 20
-153.0804063202368
 10
97.84226207406375
 20
-153.0717935815237
 10
97.84226207406375
 20
-153.0717935815237
 10
97.84226207406375
 20
-153.2664414764403
 10
97.84226207406375
 20
-153.2664414764403
 10
97.80901690263108
 20
-153.2643744191492
 10
97.74976126028478
 20
-153.2602403045669
 10
97.6312499755922
 20
-153.262307361858
 10
97.6312499755922
 20
-153.262307361858
 10
97.6312499755922
 20
-153.6006157385096
 10
97.6312499755922
 20
-153.6006157385096
 10
97.67930905761144
 20
-153.5775335987584
 10
97.73684215221511
 20
-153.5499728348764
 10
97.77938908145793
 20
-153.5265461855767
 10
97.77938908145793
 20
-153.5265461855767
 10
97.77938908145793
 20
-153.3487792585378
 10
97.77938908145793
 20
-153.3487792585378
 10
97.87929685053018
 20
-153.3615261118332
 10
97.98299422463621
 20
-153.3615261118332
 10
98.08496905099959
 20
-153.3615261118332
 10
98.06447073286236
 20
-153.2664414764403
 10
98.04052731923988
 20
-153.1837591847943
 10
97.98488902715309
 20
-153.0507784990637
 10
97.94595944816975
 20
-153.0528455563548
 10
97.87378469775378
 20
-153.0569796709371
 10
97.84053952632113
 20
-153.0590467282283
 10
97.84053952632113
 20
-153.0590467282283
 10
97.84053952632113
 20
-152.8792127438982
 10
97.84053952632113
 20
-152.8792127438982
 10
97.94974905320353
 20
-152.8878254826114
 10
98.10150550932879
 20
-152.8919595971937
 10
98.17385251451904
 20
-152.8919595971937
 10
98.17385251451904
 20
-152.8919595971937
 10
98.24602726493502
 20
-152.8919595971937
 10
98.24602726493502
 20
-152.8919595971937
 10
98.24602726493502
 20
-152.7290065807413
 10
98.24602726493502
 20
-152.7186712942856
 10
98.24413246241814
 20
-152.6635497665216
 10
98.24413246241814
 20
-152.6635497665216
 10
98.44050290507738
 20
-152.6890434731124
 10
98.44050290507738
 20
-152.6890434731124
 10
98.4441202553369
 20
-152.6890434731124
 10
98.46272377095724
 20
-152.6911105304036
 10
98.46272377095724
 20
-152.7079914982813
 10
98.46272377095724
 20
-152.7228054088679
 10
98.45342201314707
 20
-152.7310736380325
 10
98.42930634475031
 20
-152.7458875486191
 10
98.42379419197392
 20
-152.8116888723873
 10
98.42189938945702
 20
-152.8327039548473
 10
98.42189938945702
 20
-152.8919595971937
 10
98.42189938945702
 20
-152.8919595971937
 10
98.50527070020007
 20
-152.8919595971937
 10
98.50527070020007
 20
-152.8919595971937
 10
98.57744545061606
 20
-152.8919595971937
 10
98.72937416151557
 20
-152.8878254826114
 10
98.83858368839801
 20
-152.8792127438982
 10
98.83858368839801
 20
-152.8792127438982
 10
98.83858368839801
 20
-153.0590467282283
 10
98.83858368839801
 20
-153.0590467282283
 10
98.81257321748435
 20
-153.0569796709371
 10
98.70887584337834
 20
-153.0528455563548
 10
98.6737358694288
 20
-153.0507784990637
 10
98.66081676135911
 20
-153.1014214026968
 10
98.63118894018596
 20
-153.2133870059675
 10
98.57382810035655
 20
-153.3532578826686
 10
98.61086287682297
 20
-153.3532578826686
 10
98.85339759898457
 20
-153.3339653479512
 10
98.90714108855448
 20
-153.3318982906601
 10
98.90714108855448
 20
-153.3318982906601
 10
98.90714108855448
 20
-153.5162108991209
 10
98.90714108855448
 20
-153.5162108991209
 10
98.88113061764084
 20
-153.5162108991209
 10
98.86631670705426
 20
-153.5117322749901
 10
98.72368975396492
 20
-153.5117322749901
 97
        0
 97
        1
330
15E
 75
     2
 76
     1
 98
        1
 10
0.0
 20
0.0
450
        0
451
        0
460
0.0
461
0.0
452
        0
462
0.0
453
        0
470

  0
SPLINE
  5
160
330
158
100
AcDbEntity
  8
レイヤー 1
100
AcDbSpline
210
0.0
220
0.0
230
1.0
 70
    11
 71
     3
 72
    17
 73
    13
 74
     0
 42
0.0000000001
 43
0.0000000001
 40
0.0
 40
0.0
 40
0.0
 40
0.0
 40
1.0
 40
1.0
 40
1.0
 40
2.0
 40
2.0
 40
2.0
 40
3.0
 40
3.0
 40
3.0
 40
4.0
 40
4.0
 40
4.0
 40
4.0
 10
100.3499470777771
 20
-154.3113389371166
 30
0.0
 10
100.3499470777771
 20
-154.3113389371166
 30
0.0
 10
99.73155243817476
 20
-154.3113389371166
 30
0.0
 10
99.73155243817476
 20
-154.3113389371166
 30
0.0
 10
99.73155243817476
 20
-154.3113389371166
 30
0.0
 10
99.73155243817476
 20
-154.4257161072269
 30
0.0
 10
99.73155243817476
 20
-154.4257161072269
 30
0.0
 10
99.73155243817476
 20
-154.4257161072269
 30
0.0
 10
100.3499470777771
 20
-154.4257161072269
 30
0.0
 10
100.3499470777771
 20
-154.4257161072269
 30
0.0
 10
100.3499470777771
 20
-154.4257161072269
 30
0.0
 10
100.3499470777771
 20
-154.3113389371166
 30
0.0
 10
100.3499470777771
 20
-154.3113389371166
 30
0.0
  0
SPLINE
  5
161
330
158
100
AcDbEntity
  8
レイヤー 1
100
AcDbSpline
210
0.0
220
0.0
230
1.0
 70
    11
 71
     3
 72
    17
 73
    13
 74
     0
 42
0.0000000001
 43
0.0000000001
 40
0.0
 40
0.0
 40
0.0
 40
0.0
 40
1.0
 40
1.0
 40
1.0
 40
2.0
 40
2.0
 40
2.0
 40
3.0
 40
3.0
 40
3.0
 40
4.0
 40
4.0
 40
4.0
 40
4.0
 10
100.3499470777771
 20
-154.068115195858
 30
0.0
 10
100.3499470777771
 20
-154.068115195858
 30
0.0
 10
99.73155243817476
 20
-154.068115195858
 30
0.0
 10
99.73155243817476
 20
-154.068115195858
 30
0.0
 10
99.73155243817476
 20
-154.068115195858
 30
0.0
 10
99.73155243817476
 20
-154.1824923659683
 30
0.0
 10
99.73155243817476
 20
-154.1824923659683
 30
0.0
 10
99.73155243817476
 20
-154.1824923659683
 30
0.0
 10
100.3499470777771
 20
-154.1824923659683
 30
0.0
 10
100.3499470777771
 20
-154.1824923659683
 30
0.0
 10
100.3499470777771
 20
-154.1824923659683
 30
0.0
 10
100.3499470777771
 20
-154.068115195858
 30
0.0
 10
100.3499470777771
 20
-154.068115195858
 30
0.0
  0
SPLINE
  5
162
330
158
100
AcDbEntity
  8
レイヤー 1
100
AcDbSpline
210
0.0
220
0.0
230
1.0
 70
    11
 71
     3
 72
    17
 73
    13
 74
     0
 42
0.0000000001
 43
0.0000000001
 40
0.0
 40
0.0
 40
0.0
 40
0.0
 40
1.0
 40
1.0
 40
1.0
 40
2.0
 40
2.0
 40
2.0
 40
3.0
 40
3.0
 40
3.0
 40
4.0
 40
4.0
 40
4.0
 40
4.0
 10
100.3499470777771
 20
-153.8355712506036
 30
0.0
 10
100.3499470777771
 20
-153.8355712506036
 30
0.0
 10
99.73155243817476
 20
-153.8355712506036
 30
0.0
 10
99.73155243817476
 20
-153.8355712506036
 30
0.0
 10
99.73155243817476
 20
-153.8355712506036
 30
0.0
 10
99.73155243817476
 20
-153.9434027392919
 30
0.0
 10
99.73155243817476
 20
-153.9434027392919
 30
0.0
 10
99.73155243817476
 20
-153.9434027392919
 30
0.0
 10
100.3499470777771
 20
-153.9434027392919
 30
0.0
 10
100.3499470777771
 20
-153.9434027392919
 30
0.0
 10
100.3499470777771
 20
-153.9434027392919
 30
0.0
 10
100.3499470777771
 20
-153.8355712506036
 30
0.0
 10
100.3499470777771
 20
-153.8355712506036
 30
0.0
  0
SPLINE
  5
163
330
158
100
AcDbEntity
  8
レイヤー 1
100
AcDbSpline
210
0.0
220
0.0
230
1.0
 70
     9
 71
     3
 72
   203
 73
   199
 74
     0
 42
0.0000000001
 43
0.0000000001
 40
0.0
 40
0.0
 40
0.0
 40
0.0
 40
1.0
 40
1.0
 40
1.0
 40
2.0
 40
2.0
 40
2.0
 40
3.0
 40
3.0
 40
3.0
 40
4.0
 40
4.0
 40
4.0
 40
5.0
 40
5.0
 40
5.0
 40
6.0
 40
6.0
 40
6.0
 40
7.0
 40
7.0
 40
7.0
 40
8.0
 40
8.0
 40
8.0
 40
9.0
 40
9.0
 40
9.0
 40
10.0
 40
10.0
 40
10.0
 40
11.0
 40
11.0
 40
11.0
 40
12.0
 40
12.0
 40
12.0
 40
13.0
 40
13.0
 40
13.0
 40
14.0
 40
14.0
 40
14.0
 40
15.0
 40
15.0
 40
15.0
 40
16.0
 40
16.0
 40
16.0
 40
17.0
 40
17.0
 40
17.0
 40
18.0
 40
18.0
 40
18.0
 40
19.0
 40
19.0
 40
19.0
 40
20.0
 40
20.0
 40
20.0
 40
21.0
 40
21.0
 40
21.0
 40
22.0
 40
22.0
 40
22.0
 40
23.0
 40
23.0
 40
23.0
 40
24.0
 40
24.0
 40
24.0
 40
25.0
 40
25.0
 40
25.0
 40
26.0
 40
26.0
 40
26.0
 40
27.0
 40
27.0
 40
27.0
 40
28.0
 40
28.0
 40
28.0
 40
29.0
 40
29.0
 40
29.0
 40
30.0
 40
30.0
 40
30.0
 40
31.0
 40
31.0
 40
31.0
 40
32.0
 40
32.0
 40
32.0
 40
33.0
 40
33.0
 40
33.0
 40
34.0
 40
34.0
 40
34.0
 40
35.0
 40
35.0
 40
35.0
 40
36.0
 40
36.0
 40
36.0
 40
37.0
 40
37.0
 40
37.0
 40
38.0
 40
38.0
 40
38.0
 40
39.0
 40
39.0
 40
39.0
 40
40.0
 40
40.0
 40
40.0
 40
41.0
 40
41.0
 40
41.0
 40
42.0
 40
42.0
 40
42.0
 40
43.0
 40
43.0
 40
43.0
 40
44.0
 40
44.0
 40
44.0
 40
45.0
 40
45.0
 40
45.0
 40
46.0
 40
46.0
 40
46.0
 40
47.0
 40
47.0
 40
47.0
 40
48.0
 40
48.0
 40
48.0
 40
49.0
 40
49.0
 40
49.0
 40
50.0
 40
50.0
 40
50.0
 40
51.0
 40
51.0
 40
51.0
 40
52.0
 40
52.0
 40
52.0
 40
53.0
 40
53.0
 40
53.0
 40
54.0
 40
54.0
 40
54.0
 40
55.0
 40
55.0
 40
55.0
 40
56.0
 40
56.0
 40
56.0
 40
57.0
 40
57.0
 40
57.0
 40
58.0
 40
58.0
 40
58.0
 40
59.0
 40
59.0
 40
59.0
 40
60.0
 40
60.0
 40
60.0
 40
61.0
 40
61.0
 40
61.0
 40
62.0
 40
62.0
 40
62.0
 40
63.0
 40
63.0
 40
63.0
 40
64.0
 40
64.0
 40
64.0
 40
65.0
 40
65.0
 40
65.0
 40
66.0
 40
66.0
 40
66.0
 40
66.0
 10
100.2055975769451
 20
-153.5796006560495
 30
0.0
 10
100.2055975769451
 20
-153.5796006560495
 30
0.0
 10
99.71673852758819
 20
-153.5796006560495
 30
0.0
 10
99.71673852758819
 20
-153.5796006560495
 30
0.0
 10
99.70743676977802
 20
-153.6240423878093
 30
0.0
 10
99.70002981448473
 20
-153.6557372662735
 30
0.0
 10
99.68900550893192
 20
-153.6936333166113
 30
0.0
 10
99.71105412003751
 20
-153.6936333166113
 30
0.0
 10
99.72414548288147
 20
-153.696044883451
 30
0.0
 10
99.72965763565788
 20
-153.696044883451
 30
0.0
 10
99.72965763565788
 20
-153.696044883451
 30
0.0
 10
99.89450545462709
 20
-153.696044883451
 30
0.0
 10
99.89450545462709
 20
-153.696044883451
 30
0.0
 10
99.89450545462709
 20
-153.696044883451
 30
0.0
 10
100.2223062900486
 20
-153.696044883451
 30
0.0
 10
100.2223062900486
 20
-153.696044883451
 30
0.0
 10
100.2667480218083
 20
-153.696044883451
 30
0.0
 10
100.5147948967463
 20
-153.6832980301556
 30
0.0
 10
100.5425279154025
 20
-153.6832980301556
 30
0.0
 10
100.5406331128857
 20
-153.710514284489
 30
0.0
 10
100.538910565143
 20
-153.7298068192064
 30
0.0
 10
100.538910565143
 20
-153.7594346403796
 30
0.0
 10
100.5370157626261
 20
-153.7911295188439
 30
0.0
 10
100.5370157626261
 20
-153.9265217714142
 30
0.0
 10
100.5370157626261
 20
-153.9540825352962
 30
0.0
 10
100.5370157626261
 20
-153.9540825352962
 30
0.0
 10
100.5370157626261
 20
-154.199373333846
 30
0.0
 10
100.5370157626261
 20
-154.199373333846
 30
0.0
 10
100.5370157626261
 20
-154.2438150656057
 30
0.0
 10
100.5406331128857
 20
-154.4405300178135
 30
0.0
 10
100.5444227179194
 20
-154.5928032382615
 30
0.0
 10
100.5444227179194
 20
-154.5928032382615
 30
0.0
 10
100.3463297275176
 20
-154.5928032382615
 30
0.0
 10
100.3463297275176
 20
-154.5928032382615
 30
0.0
 10
100.3463297275176
 20
-154.5928032382615
 30
0.0
 10
100.3480522752602
 20
-154.5590413025061
 30
0.0
 10
100.3480522752602
 20
-154.5590413025061
 30
0.0
 10
100.3480522752602
 20
-154.5590413025061
 30
0.0
 10
99.73344724069164
 20
-154.5590413025061
 30
0.0
 10
99.73344724069164
 20
-154.5590413025061
 30
0.0
 10
99.73344724069164
 20
-154.5590413025061
 30
0.0
 10
99.73516978843427
 20
-154.5928032382615
 30
0.0
 10
99.73516978843427
 20
-154.5928032382615
 30
0.0
 10
99.73516978843427
 20
-154.5928032382615
 30
0.0
 10
99.54448375332569
 20
-154.5928032382615
 30
0.0
 10
99.54448375332569
 20
-154.5928032382615
 30
0.0
 10
99.5481011035852
 20
-154.5376817104975
 30
0.0
 10
99.5481011035852
 20
-154.5252793667506
 30
0.0
 10
99.55378551113586
 20
-154.4109021966403
 30
0.0
 10
99.55568031365276
 20
-154.3833414327583
 30
0.0
 10
99.55740286139537
 20
-154.2500162374792
 30
0.0
 10
99.55740286139537
 20
-154.2310682123103
 30
0.0
 10
99.55740286139537
 20
-154.2310682123103
 30
0.0
 10
99.55740286139537
 20
-154.0281520882291
 30
0.0
 10
99.55740286139537
 20
-154.0281520882291
 30
0.0
 10
99.43527422644327
 20
-154.2775770013611
 30
0.0
 10
99.28713512057754
 20
-154.4088351393491
 30
0.0
 10
99.19446205202431
 20
-154.4742919535689
 30
0.0
 10
99.19446205202431
 20
-154.4742919535689
 30
0.0
 10
99.04270559589905
 20
-154.3347655864163
 30
0.0
 10
99.04270559589905
 20
-154.3347655864163
 30
0.0
 10
99.12039249909144
 20
-154.2841226827831
 30
0.0
 10
99.24631073907733
 20
-154.1973062765548
 30
0.0
 10
99.36671682628681
 20
-154.0026583816382
 30
0.0
 10
99.44629853199607
 20
-153.8755343582325
 30
0.0
 10
99.50365937182548
 20
-153.7318738764976
 30
0.0
 10
99.53328719299863
 20
-153.5796006560495
 30
0.0
 10
99.33347165485415
 20
-153.5816677133407
 30
0.0
 10
99.17603079117823
 20
-153.5878688852141
 30
0.0
 10
99.09265948043518
 20
-153.5899359425053
 30
0.0
 10
99.09265948043518
 20
-153.5899359425053
 30
0.0
 10
99.09265948043518
 20
-153.4125135250149
 30
0.0
 10
99.09265948043518
 20
-153.4125135250149
 30
0.0
 10
99.26491425469768
 20
-153.4187146968883
 30
0.0
 10
99.51296112963566
 20
-153.4228488114707
 30
0.0
 10
99.64456377717219
 20
-153.4228488114707
 30
0.0
 10
99.64456377717219
 20
-153.4228488114707
 30
0.0
 10
99.83146020724701
 20
-153.4228488114707
 30
0.0
 10
99.83146020724701
 20
-153.4228488114707
 30
0.0
 10
99.83146020724701
 20
-153.4228488114707
 30
0.0
 10
99.83146020724701
 20
-153.3150173227823
 30
0.0
 10
99.83146020724701
 20
-153.3150173227823
 30
0.0
 10
99.83146020724701
 20
-153.3150173227823
 30
0.0
 10
99.70381941951849
 20
-153.3150173227823
 30
0.0
 10
99.70381941951849
 20
-153.3150173227823
 30
0.0
 10
99.55568031365276
 20
-153.3150173227823
 30
0.0
 10
99.407541207787
 20
-153.3191514373647
 30
0.0
 10
99.26112464966388
 20
-153.3256971187866
 30
0.0
 10
99.26112464966388
 20
-153.3256971187866
 30
0.0
 10
99.26112464966388
 20
-153.1544758731697
 30
0.0
 10
99.26112464966388
 20
-153.1544758731697
 30
0.0
 10
99.39634464745994
 20
-153.1648111596254
 30
0.0
 10
99.55929766391227
 20
-153.1648111596254
 30
0.0
 10
99.70381941951849
 20
-153.1648111596254
 30
0.0
 10
99.70381941951849
 20
-153.1648111596254
 30
0.0
 10
99.83146020724701
 20
-153.1648111596254
 30
0.0
 10
99.83146020724701
 20
-153.1648111596254
 30
0.0
 10
99.83146020724701
 20
-153.1648111596254
 30
0.0
 10
99.83146020724701
 20
-153.0462998749329
 30
0.0
 10
99.83146020724701
 20
-153.0462998749329
 30
0.0
 10
99.83146020724701
 20
-153.0462998749329
 30
0.0
 10
99.71673852758819
 20
-153.0462998749329
 30
0.0
 10
99.71673852758819
 20
-153.0462998749329
 30
0.0
 10
99.67591414608797
 20
-153.0462998749329
 30
0.0
 10
99.49814721904907
 20
-153.054912613646
 30
0.0
 10
99.46111244258265
 20
-153.054912613646
 30
0.0
 10
99.28334551554376
 20
-153.0590467282283
 30
0.0
 10
99.21668291790417
 20
-153.0611137855194
 30
0.0
 10
99.14812551774771
 20
-153.0631808428106
 30
0.0
 10
99.14812551774771
 20
-153.0631808428106
 30
0.0
 10
99.14812551774771
 20
-152.8792127438982
 30
0.0
 10
99.14812551774771
 20
-152.8792127438982
 30
0.0
 10
99.2482055415942
 20
-152.8878254826114
 30
0.0
 10
99.28713512057754
 20
-152.8878254826114
 30
0.0
 10
99.62217065651808
 20
-152.896093711776
 30
0.0
 10
99.56670461920555
 20
-152.8010090763831
 30
0.0
 10
99.54258895080881
 20
-152.7734483125011
 30
0.0
 10
99.51123858189303
 20
-152.7376193194545
 30
0.0
 10
99.51123858189303
 20
-152.7376193194545
 30
0.0
 10
99.66488984053517
 20
-152.6549370278085
 30
0.0
 10
99.66488984053517
 20
-152.6549370278085
 30
0.0
 10
99.70002981448473
 20
-152.6911105304036
 30
0.0
 10
99.73895939346803
 20
-152.7334852048721
 30
0.0
 10
99.80372718859074
 20
-152.8433837508516
 30
0.0
 10
99.80372718859074
 20
-152.8433837508516
 30
0.0
 10
99.70381941951849
 20
-152.8981607690671
 30
0.0
 10
99.70381941951849
 20
-152.8981607690671
 30
0.0
 10
99.70381941951849
 20
-152.8981607690671
 30
0.0
 10
99.71294892255441
 20
-152.8981607690671
 30
0.0
 10
99.71294892255441
 20
-152.8981607690671
 30
0.0
 10
99.71294892255441
 20
-152.8981607690671
 30
0.0
 10
100.1702853482213
 20
-152.8981607690671
 30
0.0
 10
100.1702853482213
 20
-152.8981607690671
 30
0.0
 10
100.1702853482213
 20
-152.8981607690671
 30
0.0
 10
100.0870862922525
 20
-152.8540635468559
 30
0.0
 10
100.0870862922525
 20
-152.8540635468559
 30
0.0
 10
100.111029705875
 20
-152.8158229869696
 30
0.0
 10
100.1611558451854
 20
-152.7355522621633
 30
0.0
 10
100.1740749532551
 20
-152.6614827092305
 30
0.0
 10
100.1740749532551
 20
-152.6614827092305
 30
0.0
 10
100.3611436381041
 20
-152.724872466159
 30
0.0
 10
100.3611436381041
 20
-152.724872466159
 30
0.0
 10
100.3685505933974
 20
-152.7269395234502
 30
0.0
 10
100.3869818542435
 20
-152.7376193194545
 30
0.0
 10
100.3869818542435
 20
-152.7586344019145
 30
0.0
 10
100.3869818542435
 20
-152.7968749618008
 30
0.0
 10
100.3296210144141
 20
-152.7968749618008
 30
0.0
 10
100.3129123013106
 20
-152.7968749618008
 30
0.0
 10
100.3036105435005
 20
-152.8158229869696
 30
0.0
 10
100.2832844801375
 20
-152.8561306041471
 30
0.0
 10
100.2574462639981
 20
-152.896093711776
 30
0.0
 10
100.6074679652995
 20
-152.8898925399025
 30
0.0
 10
100.6333061814389
 20
-152.8878254826114
 30
0.0
 10
100.6999687790785
 20
-152.8812798011894
 30
0.0
 10
100.6999687790785
 20
-152.8812798011894
 30
0.0
 10
100.6999687790785
 20
-153.0631808428106
 30
0.0
 10
100.6999687790785
 20
-153.0631808428106
 30
0.0
 10
100.683260065975
 20
-153.0631808428106
 30
0.0
 10
100.6610392000951
 20
-153.0611137855194
 30
0.0
 10
100.4684583624697
 20
-153.0528455563548
 30
0.0
 10
100.4240166307099
 20
-153.0507784990637
 30
0.0
 10
100.2314357930845
 20
-153.0462998749329
 30
0.0
 10
100.1926784688754
 20
-153.0462998749329
 30
0.0
 10
100.1926784688754
 20
-153.0462998749329
 30
0.0
 10
100.0037149815095
 20
-153.0462998749329
 30
0.0
 10
100.0037149815095
 20
-153.0462998749329
 30
0.0
 10
100.0037149815095
 20
-153.0462998749329
 30
0.0
 10
100.0037149815095
 20
-153.1648111596254
 30
0.0
 10
100.0037149815095
 20
-153.1648111596254
 30
0.0
 10
100.0037149815095
 20
-153.1648111596254
 30
0.0
 10
100.1554714376347
 20
-153.1648111596254
 30
0.0
 10
100.1554714376347
 20
-153.1648111596254
 30
0.0
 10
100.2980983907241
 20
-153.1648111596254
 30
0.0
 10
100.4648410122102
 20
-153.1648111596254
 30
0.0
 10
100.6017835577488
 20
-153.1544758731697
 30
0.0
 10
100.6017835577488
 20
-153.1544758731697
 30
0.0
 10
100.6017835577488
 20
-153.3256971187866
 30
0.0
 10
100.6017835577488
 20
-153.3256971187866
 30
0.0
 10
100.4185044779335
 20
-153.3170843800735
 30
0.0
 10
100.2462497036711
 20
-153.3150173227823
 30
0.0
 10
100.1554714376347
 20
-153.3150173227823
 30
0.0
 10
100.1554714376347
 20
-153.3150173227823
 30
0.0
 10
100.0037149815095
 20
-153.3150173227823
 30
0.0
 10
100.0037149815095
 20
-153.3150173227823
 30
0.0
 10
100.0037149815095
 20
-153.3150173227823
 30
0.0
 10
100.0037149815095
 20
-153.4228488114707
 30
0.0
 10
100.0037149815095
 20
-153.4228488114707
 30
0.0
 10
100.0037149815095
 20
-153.4228488114707
 30
0.0
 10
100.2055975769451
 20
-153.4228488114707
 30
0.0
 10
100.2055975769451
 20
-153.4228488114707
 30
0.0
 10
100.3222140591208
 20
-153.4228488114707
 30
0.0
 10
100.5740505390926
 20
-153.4187146968883
 30
0.0
 10
100.7573296189079
 20
-153.4125135250149
 30
0.0
 10
100.7573296189079
 20
-153.4125135250149
 30
0.0
 10
100.7573296189079
 20
-153.5899359425053
 30
0.0
 10
100.7573296189079
 20
-153.5899359425053
 30
0.0
 10
100.5888644496792
 20
-153.5837347706318
 30
0.0
 10
100.3148071038275
 20
-153.5796006560495
 30
0.0
 10
100.2055975769451
 20
-153.5796006560495
 30
0.0
  0
HATCH
  5
164
330
158
100
AcDbEntity
  8
レイヤー 1
 62
   250
420
  2299925
440
 33554687
100
AcDbHatch
 10
0.0
 20
0.0
 30
0.0
210
0.0
220
0.0
230
1.0
  2
SOLID
 70
     1
 71
     1
 91
        4
 92
        1
 93
        1
 72
     4
 94
        3
 73
     0
 74
     0
 95
       17
 96
       13
 40
0.0
 40
0.0
 40
0.0
 40
0.0
 40
1.0
 40
1.0
 40
1.0
 40
2.0
 40
2.0
 40
2.0
 40
3.0
 40
3.0
 40
3.0
 40
4.0
 40
4.0
 40
4.0
 40
4.0
 10
100.3499470777771
 20
-154.3113389371166
 10
100.3499470777771
 20
-154.3113389371166
 10
99.73155243817476
 20
-154.3113389371166
 10
99.73155243817476
 20
-154.3113389371166
 10
99.73155243817476
 20
-154.3113389371166
 10
99.73155243817476
 20
-154.4257161072269
 10
99.73155243817476
 20
-154.4257161072269
 10
99.73155243817476
 20
-154.4257161072269
 10
100.3499470777771
 20
-154.4257161072269
 10
100.3499470777771
 20
-154.4257161072269
 10
100.3499470777771
 20
-154.4257161072269
 10
100.3499470777771
 20
-154.3113389371166
 10
100.3499470777771
 20
-154.3113389371166
 97
        0
 97
        1
330
160
 92
        1
 93
        1
 72
     4
 94
        3
 73
     0
 74
     0
 95
       17
 96
       13
 40
0.0
 40
0.0
 40
0.0
 40
0.0
 40
1.0
 40
1.0
 40
1.0
 40
2.0
 40
2.0
 40
2.0
 40
3.0
 40
3.0
 40
3.0
 40
4.0
 40
4.0
 40
4.0
 40
4.0
 10
100.3499470777771
 20
-154.068115195858
 10
100.3499470777771
 20
-154.068115195858
 10
99.73155243817476
 20
-154.068115195858
 10
99.73155243817476
 20
-154.068115195858
 10
99.73155243817476
 20
-154.068115195858
 10
99.73155243817476
 20
-154.1824923659683
 10
99.73155243817476
 20
-154.1824923659683
 10
99.73155243817476
 20
-154.1824923659683
 10
100.3499470777771
 20
-154.1824923659683
 10
100.3499470777771
 20
-154.1824923659683
 10
100.3499470777771
 20
-154.1824923659683
 10
100.3499470777771
 20
-154.068115195858
 10
100.3499470777771
 20
-154.068115195858
 97
        0
 97
        1
330
161
 92
        1
 93
        1
 72
     4
 94
        3
 73
     0
 74
     0
 95
       17
 96
       13
 40
0.0
 40
0.0
 40
0.0
 40
0.0
 40
1.0
 40
1.0
 40
1.0
 40
2.0
 40
2.0
 40
2.0
 40
3.0
 40
3.0
 40
3.0
 40
4.0
 40
4.0
 40
4.0
 40
4.0
 10
100.3499470777771
 20
-153.8355712506036
 10
100.3499470777771
 20
-153.8355712506036
 10
99.73155243817476
 20
-153.8355712506036
 10
99.73155243817476
 20
-153.8355712506036
 10
99.73155243817476
 20
-153.8355712506036
 10
99.73155243817476
 20
-153.9434027392919
 10
99.73155243817476
 20
-153.9434027392919
 10
99.73155243817476
 20
-153.9434027392919
 10
100.3499470777771
 20
-153.9434027392919
 10
100.3499470777771
 20
-153.9434027392919
 10
100.3499470777771
 20
-153.9434027392919
 10
100.3499470777771
 20
-153.8355712506036
 10
100.3499470777771
 20
-153.8355712506036
 97
        0
 97
        1
330
162
 92
        1
 93
        1
 72
     4
 94
        3
 73
     0
 74
     0
 95
      203
 96
      199
 40
0.0
 40
0.0
 40
0.0
 40
0.0
 40
1.0
 40
1.0
 40
1.0
 40
2.0
 40
2.0
 40
2.0
 40
3.0
 40
3.0
 40
3.0
 40
4.0
 40
4.0
 40
4.0
 40
5.0
 40
5.0
 40
5.0
 40
6.0
 40
6.0
 40
6.0
 40
7.0
 40
7.0
 40
7.0
 40
8.0
 40
8.0
 40
8.0
 40
9.0
 40
9.0
 40
9.0
 40
10.0
 40
10.0
 40
10.0
 40
11.0
 40
11.0
 40
11.0
 40
12.0
 40
12.0
 40
12.0
 40
13.0
 40
13.0
 40
13.0
 40
14.0
 40
14.0
 40
14.0
 40
15.0
 40
15.0
 40
15.0
 40
16.0
 40
16.0
 40
16.0
 40
17.0
 40
17.0
 40
17.0
 40
18.0
 40
18.0
 40
18.0
 40
19.0
 40
19.0
 40
19.0
 40
20.0
 40
20.0
 40
20.0
 40
21.0
 40
21.0
 40
21.0
 40
22.0
 40
22.0
 40
22.0
 40
23.0
 40
23.0
 40
23.0
 40
24.0
 40
24.0
 40
24.0
 40
25.0
 40
25.0
 40
25.0
 40
26.0
 40
26.0
 40
26.0
 40
27.0
 40
27.0
 40
27.0
 40
28.0
 40
28.0
 40
28.0
 40
29.0
 40
29.0
 40
29.0
 40
30.0
 40
30.0
 40
30.0
 40
31.0
 40
31.0
 40
31.0
 40
32.0
 40
32.0
 40
32.0
 40
33.0
 40
33.0
 40
33.0
 40
34.0
 40
34.0
 40
34.0
 40
35.0
 40
35.0
 40
35.0
 40
36.0
 40
36.0
 40
36.0
 40
37.0
 40
37.0
 40
37.0
 40
38.0
 40
38.0
 40
38.0
 40
39.0
 40
39.0
 40
39.0
 40
40.0
 40
40.0
 40
40.0
 40
41.0
 40
41.0
 40
41.0
 40
42.0
 40
42.0
 40
42.0
 40
43.0
 40
43.0
 40
43.0
 40
44.0
 40
44.0
 40
44.0
 40
45.0
 40
45.0
 40
45.0
 40
46.0
 40
46.0
 40
46.0
 40
47.0
 40
47.0
 40
47.0
 40
48.0
 40
48.0
 40
48.0
 40
49.0
 40
49.0
 40
49.0
 40
50.0
 40
50.0
 40
50.0
 40
51.0
 40
51.0
 40
51.0
 40
52.0
 40
52.0
 40
52.0
 40
53.0
 40
53.0
 40
53.0
 40
54.0
 40
54.0
 40
54.0
 40
55.0
 40
55.0
 40
55.0
 40
56.0
 40
56.0
 40
56.0
 40
57.0
 40
57.0
 40
57.0
 40
58.0
 40
58.0
 40
58.0
 40
59.0
 40
59.0
 40
59.0
 40
60.0
 40
60.0
 40
60.0
 40
61.0
 40
61.0
 40
61.0
 40
62.0
 40
62.0
 40
62.0
 40
63.0
 40
63.0
 40
63.0
 40
64.0
 40
64.0
 40
64.0
 40
65.0
 40
65.0
 40
65.0
 40
66.0
 40
66.0
 40
66.0
 40
66.0
 10
100.2055975769451
 20
-153.5796006560495
 10
100.2055975769451
 20
-153.5796006560495
 10
99.71673852758819
 20
-153.5796006560495
 10
99.71673852758819
 20
-153.5796006560495
 10
99.70743676977802
 20
-153.6240423878093
 10
99.70002981448473
 20
-153.6557372662735
 10
99.68900550893192
 20
-153.6936333166113
 10
99.71105412003751
 20
-153.6936333166113
 10
99.72414548288147
 20
-153.696044883451
 10
99.72965763565788
 20
-153.696044883451
 10
99.72965763565788
 20
-153.696044883451
 10
99.89450545462709
 20
-153.696044883451
 10
99.89450545462709
 20
-153.696044883451
 10
99.89450545462709
 20
-153.696044883451
 10
100.2223062900486
 20
-153.696044883451
 10
100.2223062900486
 20
-153.696044883451
 10
100.2667480218083
 20
-153.696044883451
 10
100.5147948967463
 20
-153.6832980301556
 10
100.5425279154025
 20
-153.6832980301556
 10
100.5406331128857
 20
-153.710514284489
 10
100.538910565143
 20
-153.7298068192064
 10
100.538910565143
 20
-153.7594346403796
 10
100.5370157626261
 20
-153.7911295188439
 10
100.5370157626261
 20
-153.9265217714142
 10
100.5370157626261
 20
-153.9540825352962
 10
100.5370157626261
 20
-153.9540825352962
 10
100.5370157626261
 20
-154.199373333846
 10
100.5370157626261
 20
-154.199373333846
 10
100.5370157626261
 20
-154.2438150656057
 10
100.5406331128857
 20
-154.4405300178135
 10
100.5444227179194
 20
-154.5928032382615
 10
100.5444227179194
 20
-154.5928032382615
 10
100.3463297275176
 20
-154.5928032382615
 10
100.3463297275176
 20
-154.5928032382615
 10
100.3463297275176
 20
-154.5928032382615
 10
100.3480522752602
 20
-154.5590413025061
 10
100.3480522752602
 20
-154.5590413025061
 10
100.3480522752602
 20
-154.5590413025061
 10
99.73344724069164
 20
-154.5590413025061
 10
99.73344724069164
 20
-154.5590413025061
 10
99.73344724069164
 20
-154.5590413025061
 10
99.73516978843427
 20
-154.5928032382615
 10
99.73516978843427
 20
-154.5928032382615
 10
99.73516978843427
 20
-154.5928032382615
 10
99.54448375332569
 20
-154.5928032382615
 10
99.54448375332569
 20
-154.5928032382615
 10
99.5481011035852
 20
-154.5376817104975
 10
99.5481011035852
 20
-154.5252793667506
 10
99.55378551113586
 20
-154.4109021966403
 10
99.55568031365276
 20
-154.3833414327583
 10
99.55740286139537
 20
-154.2500162374792
 10
99.55740286139537
 20
-154.2310682123103
 10
99.55740286139537
 20
-154.2310682123103
 10
99.55740286139537
 20
-154.0281520882291
 10
99.55740286139537
 20
-154.0281520882291
 10
99.43527422644327
 20
-154.2775770013611
 10
99.28713512057754
 20
-154.4088351393491
 10
99.19446205202431
 20
-154.4742919535689
 10
99.19446205202431
 20
-154.4742919535689
 10
99.04270559589905
 20
-154.3347655864163
 10
99.04270559589905
 20
-154.3347655864163
 10
99.12039249909144
 20
-154.2841226827831
 10
99.24631073907733
 20
-154.1973062765548
 10
99.36671682628681
 20
-154.0026583816382
 10
99.44629853199607
 20
-153.8755343582325
 10
99.50365937182548
 20
-153.7318738764976
 10
99.53328719299863
 20
-153.5796006560495
 10
99.33347165485415
 20
-153.5816677133407
 10
99.17603079117823
 20
-153.5878688852141
 10
99.09265948043518
 20
-153.5899359425053
 10
99.09265948043518
 20
-153.5899359425053
 10
99.09265948043518
 20
-153.4125135250149
 10
99.09265948043518
 20
-153.4125135250149
 10
99.26491425469768
 20
-153.4187146968883
 10
99.51296112963566
 20
-153.4228488114707
 10
99.64456377717219
 20
-153.4228488114707
 10
99.64456377717219
 20
-153.4228488114707
 10
99.83146020724701
 20
-153.4228488114707
 10
99.83146020724701
 20
-153.4228488114707
 10
99.83146020724701
 20
-153.4228488114707
 10
99.83146020724701
 20
-153.3150173227823
 10
99.83146020724701
 20
-153.3150173227823
 10
99.83146020724701
 20
-153.3150173227823
 10
99.70381941951849
 20
-153.3150173227823
 10
99.70381941951849
 20
-153.3150173227823
 10
99.55568031365276
 20
-153.3150173227823
 10
99.407541207787
 20
-153.3191514373647
 10
99.26112464966388
 20
-153.3256971187866
 10
99.26112464966388
 20
-153.3256971187866
 10
99.26112464966388
 20
-153.1544758731697
 10
99.26112464966388
 20
-153.1544758731697
 10
99.39634464745994
 20
-153.1648111596254
 10
99.55929766391227
 20
-153.1648111596254
 10
99.70381941951849
 20
-153.1648111596254
 10
99.70381941951849
 20
-153.1648111596254
 10
99.83146020724701
 20
-153.1648111596254
 10
99.83146020724701
 20
-153.1648111596254
 10
99.83146020724701
 20
-153.1648111596254
 10
99.83146020724701
 20
-153.0462998749329
 10
99.83146020724701
 20
-153.0462998749329
 10
99.83146020724701
 20
-153.0462998749329
 10
99.71673852758819
 20
-153.0462998749329
 10
99.71673852758819
 20
-153.0462998749329
 10
99.67591414608797
 20
-153.0462998749329
 10
99.49814721904907
 20
-153.054912613646
 10
99.46111244258265
 20
-153.054912613646
 10
99.28334551554376
 20
-153.0590467282283
 10
99.21668291790417
 20
-153.0611137855194
 10
99.14812551774771
 20
-153.0631808428106
 10
99.14812551774771
 20
-153.0631808428106
 10
99.14812551774771
 20
-152.8792127438982
 10
99.14812551774771
 20
-152.8792127438982
 10
99.2482055415942
 20
-152.8878254826114
 10
99.28713512057754
 20
-152.8878254826114
 10
99.62217065651808
 20
-152.896093711776
 10
99.56670461920555
 20
-152.8010090763831
 10
99.54258895080881
 20
-152.7734483125011
 10
99.51123858189303
 20
-152.7376193194545
 10
99.51123858189303
 20
-152.7376193194545
 10
99.66488984053517
 20
-152.6549370278085
 10
99.66488984053517
 20
-152.6549370278085
 10
99.70002981448473
 20
-152.6911105304036
 10
99.73895939346803
 20
-152.7334852048721
 10
99.80372718859074
 20
-152.8433837508516
 10
99.80372718859074
 20
-152.8433837508516
 10
99.70381941951849
 20
-152.8981607690671
 10
99.70381941951849
 20
-152.8981607690671
 10
99.70381941951849
 20
-152.8981607690671
 10
99.71294892255441
 20
-152.8981607690671
 10
99.71294892255441
 20
-152.8981607690671
 10
99.71294892255441
 20
-152.8981607690671
 10
100.1702853482213
 20
-152.8981607690671
 10
100.1702853482213
 20
-152.8981607690671
 10
100.1702853482213
 20
-152.8981607690671
 10
100.0870862922525
 20
-152.8540635468559
 10
100.0870862922525
 20
-152.8540635468559
 10
100.111029705875
 20
-152.8158229869696
 10
100.1611558451854
 20
-152.7355522621633
 10
100.1740749532551
 20
-152.6614827092305
 10
100.1740749532551
 20
-152.6614827092305
 10
100.3611436381041
 20
-152.724872466159
 10
100.3611436381041
 20
-152.724872466159
 10
100.3685505933974
 20
-152.7269395234502
 10
100.3869818542435
 20
-152.7376193194545
 10
100.3869818542435
 20
-152.7586344019145
 10
100.3869818542435
 20
-152.7968749618008
 10
100.3296210144141
 20
-152.7968749618008
 10
100.3129123013106
 20
-152.7968749618008
 10
100.3036105435005
 20
-152.8158229869696
 10
100.2832844801375
 20
-152.8561306041471
 10
100.2574462639981
 20
-152.896093711776
 10
100.6074679652995
 20
-152.8898925399025
 10
100.6333061814389
 20
-152.8878254826114
 10
100.6999687790785
 20
-152.8812798011894
 10
100.6999687790785
 20
-152.8812798011894
 10
100.6999687790785
 20
-153.0631808428106
 10
100.6999687790785
 20
-153.0631808428106
 10
100.683260065975
 20
-153.0631808428106
 10
100.6610392000951
 20
-153.0611137855194
 10
100.4684583624697
 20
-153.0528455563548
 10
100.4240166307099
 20
-153.0507784990637
 10
100.2314357930845
 20
-153.0462998749329
 10
100.1926784688754
 20
-153.0462998749329
 10
100.1926784688754
 20
-153.0462998749329
 10
100.0037149815095
 20
-153.0462998749329
 10
100.0037149815095
 20
-153.0462998749329
 10
100.0037149815095
 20
-153.0462998749329
 10
100.0037149815095
 20
-153.1648111596254
 10
100.0037149815095
 20
-153.1648111596254
 10
100.0037149815095
 20
-153.1648111596254
 10
100.1554714376347
 20
-153.1648111596254
 10
100.1554714376347
 20
-153.1648111596254
 10
100.2980983907241
 20
-153.1648111596254
 10
100.4648410122102
 20
-153.1648111596254
 10
100.6017835577488
 20
-153.1544758731697
 10
100.6017835577488
 20
-153.1544758731697
 10
100.6017835577488
 20
-153.3256971187866
 10
100.6017835577488
 20
-153.3256971187866
 10
100.4185044779335
 20
-153.3170843800735
 10
100.2462497036711
 20
-153.3150173227823
 10
100.1554714376347
 20
-153.3150173227823
 10
100.1554714376347
 20
-153.3150173227823
 10
100.0037149815095
 20
-153.3150173227823
 10
100.0037149815095
 20
-153.3150173227823
 10
100.0037149815095
 20
-153.3150173227823
 10
100.0037149815095
 20
-153.4228488114707
 10
100.0037149815095
 20
-153.4228488114707
 10
100.0037149815095
 20
-153.4228488114707
 10
100.2055975769451
 20
-153.4228488114707
 10
100.2055975769451
 20
-153.4228488114707
 10
100.3222140591208
 20
-153.4228488114707
 10
100.5740505390926
 20
-153.4187146968883
 10
100.7573296189079
 20
-153.4125135250149
 10
100.7573296189079
 20
-153.4125135250149
 10
100.7573296189079
 20
-153.5899359425053
 10
100.7573296189079
 20
-153.5899359425053
 10
100.5888644496792
 20
-153.5837347706318
 10
100.3148071038275
 20
-153.5796006560495
 10
100.2055975769451
 20
-153.5796006560495
 97
        0
 97
        1
330
163
 75
     2
 76
     1
 98
        1
 10
0.0
 20
0.0
450
        0
451
        0
460
0.0
461
0.0
452
        0
462
0.0
453
        0
470

  0
SPLINE
  5
165
330
158
100
AcDbEntity
  8
レイヤー 1
100
AcDbSpline
210
0.0
220
0.0
230
1.0
 70
     9
 71
     3
 72
    29
 73
    25
 74
     0
 42
0.0000000001
 43
0.0000000001
 40
0.0
 40
0.0
 40
0.0
 40
0.0
 40
1.0
 40
1.0
 40
1.0
 40
2.0
 40
2.0
 40
2.0
 40
3.0
 40
3.0
 40
3.0
 40
4.0
 40
4.0
 40
4.0
 40
5.0
 40
5.0
 40
5.0
 40
6.0
 40
6.0
 40
6.0
 40
7.0
 40
7.0
 40
7.0
 40
8.0
 40
8.0
 40
8.0
 40
8.0
 10
101.8483913590865
 20
-153.027351849764
 30
0.0
 10
101.8483913590865
 20
-153.027351849764
 30
0.0
 10
101.5391940392853
 20
-153.027351849764
 30
0.0
 10
101.5391940392853
 20
-153.027351849764
 30
0.0
 10
101.4410088179557
 20
-153.027351849764
 30
0.0
 10
101.3187079282293
 20
-153.0338975311859
 30
0.0
 10
101.2243123119335
 20
-153.0462998749329
 30
0.0
 10
101.2243123119335
 20
-153.0462998749329
 30
0.0
 10
101.2243123119335
 20
-152.8116888723873
 30
0.0
 10
101.2243123119335
 20
-152.8116888723873
 30
0.0
 10
101.3280096860395
 20
-152.8265027829739
 30
0.0
 10
101.4890678999749
 20
-152.8306368975562
 30
0.0
 10
101.5391940392853
 20
-152.8306368975562
 30
0.0
 10
101.5391940392853
 20
-152.8306368975562
 30
0.0
 10
101.8483913590865
 20
-152.8306368975562
 30
0.0
 10
101.8483913590865
 20
-152.8306368975562
 30
0.0
 10
101.86510007219
 20
-152.8306368975562
 30
0.0
 10
102.0428669992289
 20
-152.8306368975562
 30
0.0
 10
102.1668904366978
 20
-152.8116888723873
 30
0.0
 10
102.1668904366978
 20
-152.8116888723873
 30
0.0
 10
102.1668904366978
 20
-153.0462998749329
 30
0.0
 10
102.1668904366978
 20
-153.0462998749329
 30
0.0
 10
102.0297756363849
 20
-153.027351849764
 30
0.0
 10
101.8632052696731
 20
-153.027351849764
 30
0.0
 10
101.8483913590865
 20
-153.027351849764
 30
0.0
  0
SPLINE
  5
166
330
158
100
AcDbEntity
  8
レイヤー 1
100
AcDbSpline
210
0.0
220
0.0
230
1.0
 70
     9
 71
     3
 72
    47
 73
    43
 74
     0
 42
0.0000000001
 43
0.0000000001
 40
0.0
 40
0.0
 40
0.0
 40
0.0
 40
1.0
 40
1.0
 40
1.0
 40
2.0
 40
2.0
 40
2.0
 40
3.0
 40
3.0
 40
3.0
 40
4.0
 40
4.0
 40
4.0
 40
5.0
 40
5.0
 40
5.0
 40
6.0
 40
6.0
 40
6.0
 40
7.0
 40
7.0
 40
7.0
 40
8.0
 40
8.0
 40
8.0
 40
9.0
 40
9.0
 40
9.0
 40
10.0
 40
10.0
 40
10.0
 40
11.0
 40
11.0
 40
11.0
 40
12.0
 40
12.0
 40
12.0
 40
13.0
 40
13.0
 40
13.0
 40
14.0
 40
14.0
 40
14.0
 40
14.0
 10
101.9372748226059
 20
-153.5561740067498
 30
0.0
 10
101.9372748226059
 20
-153.5561740067498
 30
0.0
 10
101.8483913590865
 20
-153.5561740067498
 30
0.0
 10
101.8483913590865
 20
-153.5561740067498
 30
0.0
 10
101.8483913590865
 20
-153.6429904129781
 30
0.0
 10
101.8297878434661
 20
-154.0322862028113
 30
0.0
 10
101.6577053239779
 20
-154.2520832947703
 30
0.0
 10
101.5243801286987
 20
-154.4215819926446
 30
0.0
 10
101.3428235966261
 20
-154.4911729214466
 30
0.0
 10
101.2687540436932
 20
-154.5187336853286
 30
0.0
 10
101.2687540436932
 20
-154.5187336853286
 30
0.0
 10
101.0983940719476
 20
-154.351646554294
 30
0.0
 10
101.0983940719476
 20
-154.351646554294
 30
0.0
 10
101.1836601852075
 20
-154.3388997009986
 30
0.0
 10
101.3373114438497
 20
-154.3158175612474
 30
0.0
 10
101.5021592628189
 20
-154.1273708382043
 30
0.0
 10
101.5669270579416
 20
-154.0553683425625
 30
0.0
 10
101.6577053239779
 20
-153.9158419754099
 30
0.0
 10
101.6577053239779
 20
-153.5561740067498
 30
0.0
 10
101.6577053239779
 20
-153.5561740067498
 30
0.0
 10
101.4558227285423
 20
-153.5561740067498
 30
0.0
 10
101.4558227285423
 20
-153.5561740067498
 30
0.0
 10
101.2928697120899
 20
-153.5561740067498
 30
0.0
 10
101.1299166956376
 20
-153.5606526308806
 30
0.0
 10
100.9669636791853
 20
-153.5754665414672
 30
0.0
 10
100.9669636791853
 20
-153.5754665414672
 30
0.0
 10
100.9669636791853
 20
-153.3553249399598
 30
0.0
 10
100.9669636791853
 20
-153.3553249399598
 30
0.0
 10
101.1318114981545
 20
-153.3701388505464
 30
0.0
 10
101.3817531756094
 20
-153.3742729651286
 30
0.0
 10
101.4558227285423
 20
-153.3742729651286
 30
0.0
 10
101.4558227285423
 20
-153.3742729651286
 30
0.0
 10
101.9372748226059
 20
-153.3742729651286
 30
0.0
 10
101.9372748226059
 20
-153.3742729651286
 30
0.0
 10
101.9539835357094
 20
-153.3742729651286
 30
0.0
 10
102.2316582318205
 20
-153.3742729651286
 30
0.0
 10
102.4316460247393
 20
-153.3553249399598
 30
0.0
 10
102.4316460247393
 20
-153.3553249399598
 30
0.0
 10
102.4316460247393
 20
-153.5754665414672
 30
0.0
 10
102.4316460247393
 20
-153.5754665414672
 30
0.0
 10
102.2667982057701
 20
-153.5606526308806
 30
0.0
 10
102.1021226415751
 20
-153.5561740067498
 30
0.0
 10
101.9372748226059
 20
-153.5561740067498
 30
0.0
  0
HATCH
  5
167
330
158
100
AcDbEntity
  8
レイヤー 1
 62
   250
420
  2299925
440
 33554687
100
AcDbHatch
 10
0.0
 20
0.0
 30
0.0
210
0.0
220
0.0
230
1.0
  2
SOLID
 70
     1
 71
     1
 91
        2
 92
        1
 93
        1
 72
     4
 94
        3
 73
     0
 74
     0
 95
       29
 96
       25
 40
0.0
 40
0.0
 40
0.0
 40
0.0
 40
1.0
 40
1.0
 40
1.0
 40
2.0
 40
2.0
 40
2.0
 40
3.0
 40
3.0
 40
3.0
 40
4.0
 40
4.0
 40
4.0
 40
5.0
 40
5.0
 40
5.0
 40
6.0
 40
6.0
 40
6.0
 40
7.0
 40
7.0
 40
7.0
 40
8.0
 40
8.0
 40
8.0
 40
8.0
 10
101.8483913590865
 20
-153.027351849764
 10
101.8483913590865
 20
-153.027351849764
 10
101.5391940392853
 20
-153.027351849764
 10
101.5391940392853
 20
-153.027351849764
 10
101.4410088179557
 20
-153.027351849764
 10
101.3187079282293
 20
-153.0338975311859
 10
101.2243123119335
 20
-153.0462998749329
 10
101.2243123119335
 20
-153.0462998749329
 10
101.2243123119335
 20
-152.8116888723873
 10
101.2243123119335
 20
-152.8116888723873
 10
101.3280096860395
 20
-152.8265027829739
 10
101.4890678999749
 20
-152.8306368975562
 10
101.5391940392853
 20
-152.8306368975562
 10
101.5391940392853
 20
-152.8306368975562
 10
101.8483913590865
 20
-152.8306368975562
 10
101.8483913590865
 20
-152.8306368975562
 10
101.86510007219
 20
-152.8306368975562
 10
102.0428669992289
 20
-152.8306368975562
 10
102.1668904366978
 20
-152.8116888723873
 10
102.1668904366978
 20
-152.8116888723873
 10
102.1668904366978
 20
-153.0462998749329
 10
102.1668904366978
 20
-153.0462998749329
 10
102.0297756363849
 20
-153.027351849764
 10
101.8632052696731
 20
-153.027351849764
 10
101.8483913590865
 20
-153.027351849764
 97
        0
 97
        1
330
165
 92
        1
 93
        1
 72
     4
 94
        3
 73
     0
 74
     0
 95
       47
 96
       43
 40
0.0
 40
0.0
 40
0.0
 40
0.0
 40
1.0
 40
1.0
 40
1.0
 40
2.0
 40
2.0
 40
2.0
 40
3.0
 40
3.0
 40
3.0
 40
4.0
 40
4.0
 40
4.0
 40
5.0
 40
5.0
 40
5.0
 40
6.0
 40
6.0
 40
6.0
 40
7.0
 40
7.0
 40
7.0
 40
8.0
 40
8.0
 40
8.0
 40
9.0
 40
9.0
 40
9.0
 40
10.0
 40
10.0
 40
10.0
 40
11.0
 40
11.0
 40
11.0
 40
12.0
 40
12.0
 40
12.0
 40
13.0
 40
13.0
 40
13.0
 40
14.0
 40
14.0
 40
14.0
 40
14.0
 10
101.9372748226059
 20
-153.5561740067498
 10
101.9372748226059
 20
-153.5561740067498
 10
101.8483913590865
 20
-153.5561740067498
 10
101.8483913590865
 20
-153.5561740067498
 10
101.8483913590865
 20
-153.6429904129781
 10
101.8297878434661
 20
-154.0322862028113
 10
101.6577053239779
 20
-154.2520832947703
 10
101.5243801286987
 20
-154.4215819926446
 10
101.3428235966261
 20
-154.4911729214466
 10
101.2687540436932
 20
-154.5187336853286
 10
101.2687540436932
 20
-154.5187336853286
 10
101.0983940719476
 20
-154.351646554294
 10
101.0983940719476
 20
-154.351646554294
 10
101.1836601852075
 20
-154.3388997009986
 10
101.3373114438497
 20
-154.3158175612474
 10
101.5021592628189
 20
-154.1273708382043
 10
101.5669270579416
 20
-154.0553683425625
 10
101.6577053239779
 20
-153.9158419754099
 10
101.6577053239779
 20
-153.5561740067498
 10
101.6577053239779
 20
-153.5561740067498
 10
101.4558227285423
 20
-153.5561740067498
 10
101.4558227285423
 20
-153.5561740067498
 10
101.2928697120899
 20
-153.5561740067498
 10
101.1299166956376
 20
-153.5606526308806
 10
100.9669636791853
 20
-153.5754665414672
 10
100.9669636791853
 20
-153.5754665414672
 10
100.9669636791853
 20
-153.3553249399598
 10
100.9669636791853
 20
-153.3553249399598
 10
101.1318114981545
 20
-153.3701388505464
 10
101.3817531756094
 20
-153.3742729651286
 10
101.4558227285423
 20
-153.3742729651286
 10
101.4558227285423
 20
-153.3742729651286
 10
101.9372748226059
 20
-153.3742729651286
 10
101.9372748226059
 20
-153.3742729651286
 10
101.9539835357094
 20
-153.3742729651286
 10
102.2316582318205
 20
-153.3742729651286
 10
102.4316460247393
 20
-153.3553249399598
 10
102.4316460247393
 20
-153.3553249399598
 10
102.4316460247393
 20
-153.5754665414672
 10
102.4316460247393
 20
-153.5754665414672
 10
102.2667982057701
 20
-153.5606526308806
 10
102.1021226415751
 20
-153.5561740067498
 10
101.9372748226059
 20
-153.5561740067498
 97
        0
 97
        1
330
166
 75
     2
 76
     1
 98
        1
 10
0.0
 20
0.0
450
        0
451
        0
460
0.0
461
0.0
452
        0
462
0.0
453
        0
470

  0
SPLINE
  5
168
330
158
100
AcDbEntity
  8
レイヤー 1
100
AcDbSpline
210
0.0
220
0.0
230
1.0
 70
     9
 71
     3
 72
    29
 73
    25
 74
     0
 42
0.0000000001
 43
0.0000000001
 40
0.0
 40
0.0
 40
0.0
 40
0.0
 40
1.0
 40
1.0
 40
1.0
 40
2.0
 40
2.0
 40
2.0
 40
3.0
 40
3.0
 40
3.0
 40
4.0
 40
4.0
 40
4.0
 40
5.0
 40
5.0
 40
5.0
 40
6.0
 40
6.0
 40
6.0
 40
7.0
 40
7.0
 40
7.0
 40
8.0
 40
8.0
 40
8.0
 40
8.0
 10
103.5540581338337
 20
-153.7191270232021
 30
0.0
 10
103.5540581338337
 20
-153.7191270232021
 30
0.0
 10
103.1299668795994
 20
-153.7191270232021
 30
0.0
 10
103.1299668795994
 20
-153.7191270232021
 30
0.0
 10
103.1058512112027
 20
-153.7191270232021
 30
0.0
 10
102.8281765150915
 20
-153.7191270232021
 30
0.0
 10
102.6430026327594
 20
-153.744620729793
 30
0.0
 10
102.6430026327594
 20
-153.744620729793
 30
0.0
 10
102.6430026327594
 20
-153.5137993322813
 30
0.0
 10
102.6430026327594
 20
-153.5137993322813
 30
0.0
 10
102.7818399808149
 20
-153.5372259815809
 30
0.0
 10
102.9484103475268
 20
-153.5392930388721
 30
0.0
 10
103.1299668795994
 20
-153.5392930388721
 30
0.0
 10
103.1299668795994
 20
-153.5392930388721
 30
0.0
 10
103.5540581338337
 20
-153.5392930388721
 30
0.0
 10
103.5540581338337
 20
-153.5392930388721
 30
0.0
 10
103.717011150286
 20
-153.5392930388721
 30
0.0
 10
103.8799641667383
 20
-153.5372259815809
 30
0.0
 10
104.0410223806738
 20
-153.5137993322813
 30
0.0
 10
104.0410223806738
 20
-153.5137993322813
 30
0.0
 10
104.0410223806738
 20
-153.744620729793
 30
0.0
 10
104.0410223806738
 20
-153.744620729793
 30
0.0
 10
103.8799641667383
 20
-153.7211940804933
 30
0.0
 10
103.6632676607161
 20
-153.7191270232021
 30
0.0
 10
103.5540581338337
 20
-153.7191270232021
 30
0.0
  0
HATCH
  5
169
330
158
100
AcDbEntity
  8
レイヤー 1
 62
   250
420
  2299925
440
 33554687
100
AcDbHatch
 10
0.0
 20
0.0
 30
0.0
210
0.0
220
0.0
230
1.0
  2
SOLID
 70
     1
 71
     1
 91
        1
 92
        1
 93
        1
 72
     4
 94
        3
 73
     0
 74
     0
 95
       29
 96
       25
 40
0.0
 40
0.0
 40
0.0
 40
0.0
 40
1.0
 40
1.0
 40
1.0
 40
2.0
 40
2.0
 40
2.0
 40
3.0
 40
3.0
 40
3.0
 40
4.0
 40
4.0
 40
4.0
 40
5.0
 40
5.0
 40
5.0
 40
6.0
 40
6.0
 40
6.0
 40
7.0
 40
7.0
 40
7.0
 40
8.0
 40
8.0
 40
8.0
 40
8.0
 10
103.5540581338337
 20
-153.7191270232021
 10
103.5540581338337
 20
-153.7191270232021
 10
103.1299668795994
 20
-153.7191270232021
 10
103.1299668795994
 20
-153.7191270232021
 10
103.1058512112027
 20
-153.7191270232021
 10
102.8281765150915
 20
-153.7191270232021
 10
102.6430026327594
 20
-153.744620729793
 10
102.6430026327594
 20
-153.744620729793
 10
102.6430026327594
 20
-153.5137993322813
 10
102.6430026327594
 20
-153.5137993322813
 10
102.7818399808149
 20
-153.5372259815809
 10
102.9484103475268
 20
-153.5392930388721
 10
103.1299668795994
 20
-153.5392930388721
 10
103.1299668795994
 20
-153.5392930388721
 10
103.5540581338337
 20
-153.5392930388721
 10
103.5540581338337
 20
-153.5392930388721
 10
103.717011150286
 20
-153.5392930388721
 10
103.8799641667383
 20
-153.5372259815809
 10
104.0410223806738
 20
-153.5137993322813
 10
104.0410223806738
 20
-153.5137993322813
 10
104.0410223806738
 20
-153.744620729793
 10
104.0410223806738
 20
-153.744620729793
 10
103.8799641667383
 20
-153.7211940804933
 10
103.6632676607161
 20
-153.7191270232021
 10
103.5540581338337
 20
-153.7191270232021
 97
        0
 97
        1
330
168
 75
     2
 76
     1
 98
        1
 10
0.0
 20
0.0
450
        0
451
        0
460
0.0
461
0.0
452
        0
462
0.0
453
        0
470

  0
SPLINE
  5
16A
330
158
100
AcDbEntity
  8
レイヤー 1
100
AcDbSpline
210
0.0
220
0.0
230
1.0
 70
     9
 71
     3
 72
    47
 73
    43
 74
     0
 42
0.0000000001
 43
0.0000000001
 40
0.0
 40
0.0
 40
0.0
 40
0.0
 40
1.0
 40
1.0
 40
1.0
 40
2.0
 40
2.0
 40
2.0
 40
3.0
 40
3.0
 40
3.0
 40
4.0
 40
4.0
 40
4.0
 40
5.0
 40
5.0
 40
5.0
 40
6.0
 40
6.0
 40
6.0
 40
7.0
 40
7.0
 40
7.0
 40
8.0
 40
8.0
 40
8.0
 40
9.0
 40
9.0
 40
9.0
 40
10.0
 40
10.0
 40
10.0
 40
11.0
 40
11.0
 40
11.0
 40
12.0
 40
12.0
 40
12.0
 40
13.0
 40
13.0
 40
13.0
 40
14.0
 40
14.0
 40
14.0
 40
14.0
 10
105.4984700257087
 20
-153.1248480519965
 30
0.0
 10
105.4373195808455
 20
-153.4039007863018
 30
0.0
 10
105.3706569832059
 20
-153.7084472271979
 30
0.0
 10
105.0965996373543
 20
-154.0405544319759
 30
0.0
 10
104.8892048891423
 20
-154.2903238546566
 30
0.0
 10
104.6744031856369
 20
-154.3898871141803
 30
0.0
 10
104.5817301170837
 20
-154.4319172791003
 30
0.0
 10
104.5817301170837
 20
-154.4319172791003
 30
0.0
 10
104.4113701453381
 20
-154.2500162374792
 30
0.0
 10
104.4113701453381
 20
-154.2500162374792
 30
0.0
 10
104.5743231617904
 20
-154.2035074484283
 30
0.0
 10
104.8909274368849
 20
-154.1104898703265
 30
0.0
 10
105.1501708721499
 20
-153.6154296490961
 30
0.0
 10
105.2909030227224
 20
-153.3487792585378
 30
0.0
 10
105.3020995830495
 20
-153.1754909556297
 30
0.0
 10
105.3095065383427
 20
-153.0845404348191
 30
0.0
 10
105.3095065383427
 20
-153.0845404348191
 30
0.0
 10
104.8669840232624
 20
-153.0845404348191
 30
0.0
 10
104.8669840232624
 20
-153.0845404348191
 30
0.0
 10
104.7632866491564
 20
-153.0845404348191
 30
0.0
 10
104.3946614322347
 20
-153.103488459988
 30
0.0
 10
104.2613362369555
 20
-153.1141682559923
 30
0.0
 10
104.2613362369555
 20
-153.1141682559923
 30
0.0
 10
104.2613362369555
 20
-152.9047064504891
 30
0.0
 10
104.2613362369555
 20
-152.9047064504891
 30
0.0
 10
104.3855319291987
 20
-152.9174533037845
 30
0.0
 10
104.6280666513603
 20
-152.9215874183668
 30
0.0
 10
104.7298692229495
 20
-152.9215874183668
 30
0.0
 10
104.7298692229495
 20
-152.9215874183668
 30
0.0
 10
105.0409613452675
 20
-152.9215874183668
 30
0.0
 10
105.0409613452675
 20
-152.9215874183668
 30
0.0
 10
105.0650770136643
 20
-152.9215874183668
 30
0.0
 10
105.2058091642367
 20
-152.9195203610757
 30
0.0
 10
105.3020995830495
 20
-152.9047064504891
 30
0.0
 10
105.3520534675856
 20
-152.8981607690671
 30
0.0
 10
105.3668673781722
 20
-152.8792127438982
 30
0.0
 10
105.3871934415351
 20
-152.8561306041471
 30
0.0
 10
105.3871934415351
 20
-152.8561306041471
 30
0.0
 10
105.5522135152786
 20
-153.006336767304
 30
0.0
 10
105.5522135152786
 20
-153.006336767304
 30
0.0
 10
105.5391221524347
 20
-153.0359645884771
 30
0.0
 10
105.5298203946245
 20
-153.054912613646
 30
0.0
 10
105.4984700257087
 20
-153.1248480519965
 30
0.0
  0
HATCH
  5
16B
330
158
100
AcDbEntity
  8
レイヤー 1
 62
   250
420
  2299925
440
 33554687
100
AcDbHatch
 10
0.0
 20
0.0
 30
0.0
210
0.0
220
0.0
230
1.0
  2
SOLID
 70
     1
 71
     1
 91
        1
 92
        1
 93
        1
 72
     4
 94
        3
 73
     0
 74
     0
 95
       47
 96
       43
 40
0.0
 40
0.0
 40
0.0
 40
0.0
 40
1.0
 40
1.0
 40
1.0
 40
2.0
 40
2.0
 40
2.0
 40
3.0
 40
3.0
 40
3.0
 40
4.0
 40
4.0
 40
4.0
 40
5.0
 40
5.0
 40
5.0
 40
6.0
 40
6.0
 40
6.0
 40
7.0
 40
7.0
 40
7.0
 40
8.0
 40
8.0
 40
8.0
 40
9.0
 40
9.0
 40
9.0
 40
10.0
 40
10.0
 40
10.0
 40
11.0
 40
11.0
 40
11.0
 40
12.0
 40
12.0
 40
12.0
 40
13.0
 40
13.0
 40
13.0
 40
14.0
 40
14.0
 40
14.0
 40
14.0
 10
105.4984700257087
 20
-153.1248480519965
 10
105.4373195808455
 20
-153.4039007863018
 10
105.3706569832059
 20
-153.7084472271979
 10
105.0965996373543
 20
-154.0405544319759
 10
104.8892048891423
 20
-154.2903238546566
 10
104.6744031856369
 20
-154.3898871141803
 10
104.5817301170837
 20
-154.4319172791003
 10
104.5817301170837
 20
-154.4319172791003
 10
104.4113701453381
 20
-154.2500162374792
 10
104.4113701453381
 20
-154.2500162374792
 10
104.5743231617904
 20
-154.2035074484283
 10
104.8909274368849
 20
-154.1104898703265
 10
105.1501708721499
 20
-153.6154296490961
 10
105.2909030227224
 20
-153.3487792585378
 10
105.3020995830495
 20
-153.1754909556297
 10
105.3095065383427
 20
-153.0845404348191
 10
105.3095065383427
 20
-153.0845404348191
 10
104.8669840232624
 20
-153.0845404348191
 10
104.8669840232624
 20
-153.0845404348191
 10
104.7632866491564
 20
-153.0845404348191
 10
104.3946614322347
 20
-153.103488459988
 10
104.2613362369555
 20
-153.1141682559923
 10
104.2613362369555
 20
-153.1141682559923
 10
104.2613362369555
 20
-152.9047064504891
 10
104.2613362369555
 20
-152.9047064504891
 10
104.3855319291987
 20
-152.9174533037845
 10
104.6280666513603
 20
-152.9215874183668
 10
104.7298692229495
 20
-152.9215874183668
 10
104.7298692229495
 20
-152.9215874183668
 10
105.0409613452675
 20
-152.9215874183668
 10
105.0409613452675
 20
-152.9215874183668
 10
105.0650770136643
 20
-152.9215874183668
 10
105.2058091642367
 20
-152.9195203610757
 10
105.3020995830495
 20
-152.9047064504891
 10
105.3520534675856
 20
-152.8981607690671
 10
105.3668673781722
 20
-152.8792127438982
 10
105.3871934415351
 20
-152.8561306041471
 10
105.3871934415351
 20
-152.8561306041471
 10
105.5522135152786
 20
-153.006336767304
 10
105.5522135152786
 20
-153.006336767304
 10
105.5391221524347
 20
-153.0359645884771
 10
105.5298203946245
 20
-153.054912613646
 10
105.4984700257087
 20
-153.1248480519965
 97
        0
 97
        1
330
16A
 75
     2
 76
     1
 98
        1
 10
0.0
 20
0.0
450
        0
451
        0
460
0.0
461
0.0
452
        0
462
0.0
453
        0
470

  0
SPLINE
  5
16C
330
158
100
AcDbEntity
  8
レイヤー 1
100
AcDbSpline
210
0.0
220
0.0
230
1.0
 70
    11
 71
     3
 72
    17
 73
    13
 74
     0
 42
0.0000000001
 43
0.0000000001
 40
0.0
 40
0.0
 40
0.0
 40
0.0
 40
1.0
 40
1.0
 40
1.0
 40
2.0
 40
2.0
 40
2.0
 40
3.0
 40
3.0
 40
3.0
 40
4.0
 40
4.0
 40
4.0
 40
4.0
 10
105.8409125169425
 20
-152.9067735077802
 30
0.0
 10
105.8409125169425
 20
-152.9660291501265
 30
0.0
 10
105.881909153217
 20
-153.0125379391774
 30
0.0
 10
105.9335855854957
 20
-153.0125379391774
 30
0.0
 10
105.985606527323
 20
-153.0125379391774
 30
0.0
 10
106.0279812017916
 20
-152.9660291501265
 30
0.0
 10
106.0279812017916
 20
-152.9067735077802
 30
0.0
 10
106.0279812017916
 20
-152.8475178654339
 30
0.0
 10
105.985606527323
 20
-152.7989420190919
 30
0.0
 10
105.9335855854957
 20
-152.7989420190919
 30
0.0
 10
105.881909153217
 20
-152.7989420190919
 30
0.0
 10
105.8409125169425
 20
-152.8475178654339
 30
0.0
 10
105.8409125169425
 20
-152.9067735077802
 30
0.0
  0
SPLINE
  5
16D
330
158
100
AcDbEntity
  8
レイヤー 1
100
AcDbSpline
210
0.0
220
0.0
230
1.0
 70
     9
 71
     3
 72
    17
 73
    13
 74
     0
 42
0.0000000001
 43
0.0000000001
 40
0.0
 40
0.0
 40
0.0
 40
0.0
 40
1.0
 40
1.0
 40
1.0
 40
2.0
 40
2.0
 40
2.0
 40
3.0
 40
3.0
 40
3.0
 40
4.0
 40
4.0
 40
4.0
 40
4.0
 10
106.116864665311
 20
-152.9067735077802
 30
0.0
 10
106.116864665311
 20
-153.0211506778905
 30
0.0
 10
106.0355604118591
 20
-153.1162353132834
 30
0.0
 10
105.9335855854957
 20
-153.1162353132834
 30
0.0
 10
105.8336778164235
 20
-153.1162353132834
 30
0.0
 10
105.7503065056805
 20
-153.0211506778905
 30
0.0
 10
105.7503065056805
 20
-152.9067735077802
 30
0.0
 10
105.7503065056805
 20
-152.7903292803788
 30
0.0
 10
105.8336778164235
 20
-152.697311702277
 30
0.0
 10
105.9335855854957
 20
-152.697311702277
 30
0.0
 10
106.033493354568
 20
-152.697311702277
 30
0.0
 10
106.116864665311
 20
-152.7903292803788
 30
0.0
 10
106.116864665311
 20
-152.9067735077802
 30
0.0
  0
HATCH
  5
16E
330
158
100
AcDbEntity
  8
レイヤー 1
 62
   250
420
  2299925
440
 33554687
100
AcDbHatch
 10
0.0
 20
0.0
 30
0.0
210
0.0
220
0.0
230
1.0
  2
SOLID
 70
     1
 71
     1
 91
        2
 92
        1
 93
        1
 72
     4
 94
        3
 73
     0
 74
     0
 95
       17
 96
       13
 40
0.0
 40
0.0
 40
0.0
 40
0.0
 40
1.0
 40
1.0
 40
1.0
 40
2.0
 40
2.0
 40
2.0
 40
3.0
 40
3.0
 40
3.0
 40
4.0
 40
4.0
 40
4.0
 40
4.0
 10
105.8409125169425
 20
-152.9067735077802
 10
105.8409125169425
 20
-152.9660291501265
 10
105.881909153217
 20
-153.0125379391774
 10
105.9335855854957
 20
-153.0125379391774
 10
105.985606527323
 20
-153.0125379391774
 10
106.0279812017916
 20
-152.9660291501265
 10
106.0279812017916
 20
-152.9067735077802
 10
106.0279812017916
 20
-152.8475178654339
 10
105.985606527323
 20
-152.7989420190919
 10
105.9335855854957
 20
-152.7989420190919
 10
105.881909153217
 20
-152.7989420190919
 10
105.8409125169425
 20
-152.8475178654339
 10
105.8409125169425
 20
-152.9067735077802
 97
        0
 97
        1
330
16C
 92
        1
 93
        1
 72
     4
 94
        3
 73
     0
 74
     0
 95
       17
 96
       13
 40
0.0
 40
0.0
 40
0.0
 40
0.0
 40
1.0
 40
1.0
 40
1.0
 40
2.0
 40
2.0
 40
2.0
 40
3.0
 40
3.0
 40
3.0
 40
4.0
 40
4.0
 40
4.0
 40
4.0
 10
106.116864665311
 20
-152.9067735077802
 10
106.116864665311
 20
-153.0211506778905
 10
106.0355604118591
 20
-153.1162353132834
 10
105.9335855854957
 20
-153.1162353132834
 10
105.8336778164235
 20
-153.1162353132834
 10
105.7503065056805
 20
-153.0211506778905
 10
105.7503065056805
 20
-152.9067735077802
 10
105.7503065056805
 20
-152.7903292803788
 10
105.8336778164235
 20
-152.697311702277
 10
105.9335855854957
 20
-152.697311702277
 10
106.033493354568
 20
-152.697311702277
 10
106.116864665311
 20
-152.7903292803788
 10
106.116864665311
 20
-152.9067735077802
 97
        0
 97
        1
330
16D
 75
     2
 76
     1
 98
        1
 10
0.0
 20
0.0
450
        0
451
        0
460
0.0
461
0.0
452
        0
462
0.0
453
        0
470

  0
ENDBLK
  5
15B
330
158
100
AcDbEntity
  8
0
100
AcDbBlockEnd
  0
ENDSEC
  0
SECTION
  2
ENTITIES
  0
LINE
  5
79
330
70
100
AcDbEntity
  8
レイヤー 1
 62
   250
420
  2299925
370
    25
100
AcDbLine
 10
95.05861713444682
 20
-130.4567223539071
 30
0.0
 11
95.05861713444682
 21
-159.4568541140524
 31
0.0
  0
LINE
  5
7A
330
70
100
AcDbEntity
  8
レイヤー 1
 62
   250
420
  2299925
370
    25
100
AcDbLine
 10
95.06034574555682
 20
-159.4513507808595
 30
0.0
 11
124.0604769080471
 21
-159.4513507808595
 31
0.0
  0
LINE
  5
7B
330
70
100
AcDbEntity
  8
レイヤー 1
 62
   250
420
  2299925
370
    25
100
AcDbLine
 10
124.0604769080471
 20
-159.4513507808595
 30
0.0
 11
124.0604769080471
 21
-160.0514610433272
 31
0.0
  0
LINE
  5
7C
330
70
100
AcDbEntity
  8
レイヤー 1
 62
   250
420
  2299925
370
    25
100
AcDbLine
 10
94.45882435681891
 20
-130.4567223539071
 30
0.0
 11
95.05861713444682
 21
-130.4567223539071
 31
0.0
  0
LINE
  5
7D
330
70
100
AcDbEntity
  8
レイヤー 1
 62
   250
420
  2299925
370
    25
100
AcDbLine
 10
123.0599991557936
 20
-160.0680063206828
 30
0.0
 11
123.5533588654292
 21
-159.6594130792244
 31
0.0
  0
LINE
  5
7E
330
70
100
AcDbEntity
  8
レイヤー 1
 62
   250
420
  2299925
370
    25
100
AcDbLine
 10
123.5533588654292
 20
-159.6594130792244
 30
0.0
 11
124.0604769080471
 21
-160.0514610433272
 31
0.0
  0
LINE
  5
7F
330
70
100
AcDbEntity
  8
レイヤー 1
 62
   250
420
  2299925
370
    25
100
AcDbLine
 10
122.059556681317
 20
-160.0845515980385
 30
0.0
 11
122.5528811131757
 21
-159.6759643862402
 31
0.0
  0
LINE
  5
80
330
70
100
AcDbEntity
  8
レイヤー 1
 62
   250
420
  2299925
370
    25
100
AcDbLine
 10
122.5528811131757
 20
-159.6759643862402
 30
0.0
 11
123.0599991557936
 21
-160.0680063206828
 31
0.0
  0
LINE
  5
81
330
70
100
AcDbEntity
  8
レイヤー 1
 62
   250
420
  2299925
370
    25
100
AcDbLine
 10
121.0591142068404
 20
-160.1010908568912
 30
0.0
 11
121.5524386386991
 21
-159.6925096635959
 31
0.0
  0
LINE
  5
82
330
70
100
AcDbEntity
  8
レイヤー 1
 62
   250
420
  2299925
370
    25
100
AcDbLine
 10
121.5524386386991
 20
-159.6925096635959
 30
0.0
 11
122.059556681317
 21
-160.0845515980385
 31
0.0
  0
LINE
  5
83
330
70
100
AcDbEntity
  8
レイヤー 1
 62
   250
420
  2299925
370
    25
100
AcDbLine
 10
120.058636454587
 20
-160.117606874973
 30
0.0
 11
120.5519961642225
 21
-159.7097252187123
 31
0.0
  0
LINE
  5
84
330
70
100
AcDbEntity
  8
レイヤー 1
 62
   250
420
  2299925
370
    25
100
AcDbLine
 10
120.5519961642225
 20
-159.7097252187123
 30
0.0
 11
121.0591142068404
 21
-160.1010908568912
 31
0.0
  0
LINE
  5
85
330
70
100
AcDbEntity
  8
レイヤー 1
 62
   250
420
  2299925
370
    25
100
AcDbLine
 10
119.0581939801104
 20
-160.1341521523287
 30
0.0
 11
119.5515184119691
 21
-159.7262704960679
 31
0.0
  0
LINE
  5
86
330
70
100
AcDbEntity
  8
レイヤー 1
 62
   250
420
  2299925
370
    25
100
AcDbLine
 10
119.5515184119691
 20
-159.7262704960679
 30
0.0
 11
120.058636454587
 21
-160.117606874973
 31
0.0
  0
LINE
  5
87
330
70
100
AcDbEntity
  8
レイヤー 1
 62
   250
420
  2299925
370
    25
100
AcDbLine
 10
118.0577526842527
 20
-160.1506974296843
 30
0.0
 11
118.5510759374925
 21
-159.7427804956467
 31
0.0
  0
LINE
  5
88
330
70
100
AcDbEntity
  8
レイヤー 1
 62
   250
420
  2299925
370
    25
100
AcDbLine
 10
118.5510759374925
 20
-159.7427804956467
 30
0.0
 11
119.0581939801104
 21
-160.1341521523287
 31
0.0
  0
LINE
  5
89
330
70
100
AcDbEntity
  8
レイヤー 1
 62
   250
420
  2299925
370
    25
100
AcDbLine
 10
117.0572749067253
 20
-160.1679129848007
 30
0.0
 11
117.5506334630159
 21
-159.7593257730024
 31
0.0
  0
LINE
  5
8A
330
70
100
AcDbEntity
  8
レイヤー 1
 62
   250
420
  2299925
370
    25
100
AcDbLine
 10
117.5506334630159
 20
-159.7593257730024
 30
0.0
 11
118.0577526842527
 21
-160.1506974296843
 31
0.0
  0
LINE
  5
8B
330
70
100
AcDbEntity
  8
レイヤー 1
 62
   250
420
  2299925
370
    25
100
AcDbLine
 10
116.0568312789037
 20
-160.1844582621564
 30
0.0
 11
116.5501557107624
 21
-159.7758710503581
 31
0.0
  0
LINE
  5
8C
330
70
100
AcDbEntity
  8
レイヤー 1
 62
   250
420
  2299925
370
    25
100
AcDbLine
 10
116.5501557107624
 20
-159.7758710503581
 30
0.0
 11
117.0572749067253
 21
-160.1679129848007
 31
0.0
  0
LINE
  5
8D
330
70
100
AcDbEntity
  8
レイヤー 1
 62
   250
420
  2299925
370
    25
100
AcDbLine
 10
115.0563535266503
 20
-160.201003539512
 30
0.0
 11
115.5497132362858
 21
-159.7924103014128
 31
0.0
  0
LINE
  5
8E
330
70
100
AcDbEntity
  8
レイヤー 1
 62
   250
420
  2299925
370
    25
100
AcDbLine
 10
115.5497132362858
 20
-159.7924103014128
 30
0.0
 11
116.0568312789037
 21
-160.1844582621564
 31
0.0
  0
LINE
  5
8F
330
70
100
AcDbEntity
  8
レイヤー 1
 62
   250
420
  2299925
370
    25
100
AcDbLine
 10
114.0559110521737
 20
-160.2175075235294
 30
0.0
 11
114.5492354840324
 21
-159.8089263272925
 31
0.0
  0
LINE
  5
90
330
70
100
AcDbEntity
  8
レイヤー 1
 62
   250
420
  2299925
370
    25
100
AcDbLine
 10
114.5492354840324
 20
-159.8089263272925
 30
0.0
 11
115.0563535266503
 21
-160.201003539512
 31
0.0
  0
LINE
  5
91
330
70
100
AcDbEntity
  8
レイヤー 1
 62
   250
420
  2299925
370
    25
100
AcDbLine
 10
113.0554685776971
 20
-160.2340588164465
 30
0.0
 11
113.5487930095558
 21
-159.8261771601858
 31
0.0
  0
LINE
  5
92
330
70
100
AcDbEntity
  8
レイヤー 1
 62
   250
420
  2299925
370
    25
100
AcDbLine
 10
113.5487930095558
 20
-159.8261771601858
 30
0.0
 11
114.0559110521737
 21
-160.2175075235294
 31
0.0
  0
LINE
  5
93
330
70
100
AcDbEntity
  8
レイヤー 1
 62
   250
420
  2299925
370
    25
100
AcDbLine
 10
112.0549908254437
 20
-160.2506040938022
 30
0.0
 11
112.5490208128399
 21
-159.8426871597645
 31
0.0
  0
LINE
  5
94
330
70
100
AcDbEntity
  8
レイヤー 1
 62
   250
420
  2299925
370
    25
100
AcDbLine
 10
112.5490208128399
 20
-159.8426871597645
 30
0.0
 11
113.0554685776971
 21
-160.2340588164465
 31
0.0
  0
LINE
  5
95
330
70
100
AcDbEntity
  8
レイヤー 1
 62
   250
420
  2299925
370
    25
100
AcDbLine
 10
111.0545483509671
 20
-160.2671493711578
 30
0.0
 11
111.5485783383633
 21
-159.8592324371202
 31
0.0
  0
LINE
  5
96
330
70
100
AcDbEntity
  8
レイヤー 1
 62
   250
420
  2299925
370
    25
100
AcDbLine
 10
111.5485783383633
 20
-159.8592324371202
 30
0.0
 11
112.0549908254437
 21
-160.2506040938022
 31
0.0
  0
LINE
  5
97
330
70
100
AcDbEntity
  8
レイヤー 1
 62
   250
420
  2299925
370
    25
100
AcDbLine
 10
110.0541058764905
 20
-160.2836593707366
 30
0.0
 11
110.5481005861098
 21
-159.8757777144759
 31
0.0
  0
LINE
  5
98
330
70
100
AcDbEntity
  8
レイヤー 1
 62
   250
420
  2299925
370
    25
100
AcDbLine
 10
110.5481005861098
 20
-159.8757777144759
 30
0.0
 11
111.0545483509671
 21
-160.2671493711578
 31
0.0
  0
LINE
  5
99
330
70
100
AcDbEntity
  8
レイヤー 1
 62
   250
420
  2299925
370
    25
100
AcDbLine
 10
109.053628124237
 20
-160.3009102036299
 30
0.0
 11
109.5476581116332
 21
-159.8923229918316
 31
0.0
  0
LINE
  5
9A
330
70
100
AcDbEntity
  8
レイヤー 1
 62
   250
420
  2299925
370
    25
100
AcDbLine
 10
109.5476581116332
 20
-159.8923229918316
 30
0.0
 11
110.0541058764905
 21
-160.2836593707366
 31
0.0
  0
LINE
  5
9B
330
70
100
AcDbEntity
  8
レイヤー 1
 62
   250
420
  2299925
370
    25
100
AcDbLine
 10
108.0531856497604
 20
-160.3174202032087
 30
0.0
 11
108.5472165755183
 21
-159.908826968051
 31
0.0
  0
LINE
  5
9C
330
70
100
AcDbEntity
  8
レイヤー 1
 62
   250
420
  2299925
370
    25
100
AcDbLine
 10
108.5472165755183
 20
-159.908826968051
 30
0.0
 11
109.053628124237
 21
-160.3009102036299
 31
0.0
  0
LINE
  5
9D
330
70
100
AcDbEntity
  8
レイヤー 1
 62
   250
420
  2299925
370
    25
100
AcDbLine
 10
107.052707897507
 20
-160.3339654805643
 30
0.0
 11
107.5467387979909
 21
-159.9253782687661
 31
0.0
  0
LINE
  5
9E
330
70
100
AcDbEntity
  8
レイヤー 1
 62
   250
420
  2299925
370
    25
100
AcDbLine
 10
107.5467387979909
 20
-159.9253782687661
 30
0.0
 11
108.0531856497604
 21
-160.3174202032087
 31
0.0
  0
LINE
  5
9F
330
70
100
AcDbEntity
  8
レイヤー 1
 62
   250
420
  2299925
370
    25
100
AcDbLine
 10
106.0522662983643
 20
-160.3505047457185
 30
0.0
 11
106.5462962982416
 21
-159.9419235461217
 31
0.0
  0
LINE
  5
A0
330
70
100
AcDbEntity
  8
レイヤー 1
 62
   250
420
  2299925
370
    25
100
AcDbLine
 10
106.5462962982416
 20
-159.9419235461217
 30
0.0
 11
107.052707897507
 21
-160.3339654805643
 31
0.0
  0
LINE
  5
A1
330
70
100
AcDbEntity
  8
レイヤー 1
 62
   250
420
  2299925
370
    25
100
AcDbLine
 10
105.0524940763928
 20
-160.3670560352757
 30
0.0
 11
105.5458537984911
 21
-159.9591391012381
 31
0.0
  0
LINE
  5
A2
330
70
100
AcDbEntity
  8
レイヤー 1
 62
   250
420
  2299925
370
    25
100
AcDbLine
 10
105.5458537984911
 20
-159.9591391012381
 30
0.0
 11
106.0522662983643
 21
-160.3505047457185
 31
0.0
  0
LINE
  5
A3
330
70
100
AcDbEntity
  8
レイヤー 1
 62
   250
420
  2299925
370
    25
100
AcDbLine
 10
104.0520515766429
 20
-160.3835660348545
 30
0.0
 11
104.545376020964
 21
-159.9756843785938
 31
0.0
  0
LINE
  5
A4
330
70
100
AcDbEntity
  8
レイヤー 1
 62
   250
420
  2299925
370
    25
100
AcDbLine
 10
104.545376020964
 20
-159.9756843785938
 30
0.0
 11
105.0524940763928
 21
-160.3670560352757
 31
0.0
  0
LINE
  5
A5
330
70
100
AcDbEntity
  8
レイヤー 1
 62
   250
420
  2299925
370
    25
100
AcDbLine
 10
103.0515737991148
 20
-160.4001113122102
 30
0.0
 11
103.5449335212141
 21
-159.9922296559494
 31
0.0
  0
LINE
  5
A6
330
70
100
AcDbEntity
  8
レイヤー 1
 62
   250
420
  2299925
370
    25
100
AcDbLine
 10
103.5449335212141
 20
-159.9922296559494
 30
0.0
 11
104.0520515766429
 21
-160.3835660348545
 31
0.0
  0
LINE
  5
A7
330
70
100
AcDbEntity
  8
レイヤー 1
 62
   250
420
  2299925
370
    25
100
AcDbLine
 10
102.0511312993649
 20
-160.4166565895658
 30
0.0
 11
102.544455743686
 21
-160.0087396555282
 31
0.0
  0
LINE
  5
A8
330
70
100
AcDbEntity
  8
レイヤー 1
 62
   250
420
  2299925
370
    25
100
AcDbLine
 10
102.544455743686
 20
-160.0087396555282
 30
0.0
 11
103.0515737991148
 21
-160.4001113122102
 31
0.0
  0
LINE
  5
A9
330
70
100
AcDbEntity
  8
レイヤー 1
 62
   250
420
  2299925
370
    25
100
AcDbLine
 10
101.050688799615
 20
-160.4338721446815
 30
0.0
 11
101.5440132439361
 21
-160.0252849328839
 31
0.0
  0
LINE
  5
AA
330
70
100
AcDbEntity
  8
レイヤー 1
 62
   250
420
  2299925
370
    25
100
AcDbLine
 10
101.5440132439361
 20
-160.0252849328839
 30
0.0
 11
102.0511312993649
 21
-160.4166565895658
 31
0.0
  0
LINE
  5
AB
330
70
100
AcDbEntity
  8
レイヤー 1
 62
   250
420
  2299925
370
    25
100
AcDbLine
 10
100.0502110220875
 20
-160.4504174220378
 30
0.0
 11
100.5435707441862
 21
-160.0418241902401
 31
0.0
  0
LINE
  5
AC
330
70
100
AcDbEntity
  8
レイヤー 1
 62
   250
420
  2299925
370
    25
100
AcDbLine
 10
100.5435707441862
 20
-160.0418241902401
 30
0.0
 11
101.050688799615
 21
-160.4338721446815
 31
0.0
  0
LINE
  5
AD
330
70
100
AcDbEntity
  8
レイヤー 1
 62
   250
420
  2299925
370
    25
100
AcDbLine
 10
94.44227907904485
 20
-131.4572001061606
 30
0.0
 11
94.8501960233875
 21
-130.9631701187643
 31
0.0
  0
LINE
  5
AE
330
70
100
AcDbEntity
  8
レイヤー 1
 62
   250
420
  2299925
370
    25
100
AcDbLine
 10
94.8501960233875
 20
-130.9631701187643
 30
0.0
 11
94.45882435681891
 21
-130.4567223539071
 31
0.0
  0
LINE
  5
AF
330
70
100
AcDbEntity
  8
レイヤー 1
 62
   250
420
  2299925
370
    25
100
AcDbLine
 10
94.42576907904991
 20
-132.4576425806372
 30
0.0
 11
94.83400352339154
 21
-131.9636125932409
 31
0.0
  0
LINE
  5
B0
330
70
100
AcDbEntity
  8
レイヤー 1
 62
   250
420
  2299925
370
    25
100
AcDbLine
 10
94.83400352339154
 20
-131.9636125932409
 30
0.0
 11
94.44227907904485
 21
-131.4572001061606
 31
0.0
  0
LINE
  5
B1
330
70
100
AcDbEntity
  8
レイヤー 1
 62
   250
420
  2299925
370
    25
100
AcDbLine
 10
94.40957657905329
 20
-133.4580850551137
 30
0.0
 11
94.81781102339523
 21
-132.9640550677175
 31
0.0
  0
LINE
  5
B2
330
70
100
AcDbEntity
  8
レイヤー 1
 62
   250
420
  2299925
370
    25
100
AcDbLine
 10
94.81781102339523
 20
-132.9640550677175
 30
0.0
 11
94.42576907904991
 21
-132.4576425806372
 31
0.0
  0
LINE
  5
B3
330
70
100
AcDbEntity
  8
レイヤー 1
 62
   250
420
  2299925
370
    25
100
AcDbLine
 10
94.39338407905763
 20
-134.4585628073675
 30
0.0
 11
94.80126574562214
 21
-133.964532819971
 31
0.0
  0
LINE
  5
B4
330
70
100
AcDbEntity
  8
レイヤー 1
 62
   250
420
  2299925
370
    25
100
AcDbLine
 10
94.80126574562214
 20
-133.964532819971
 30
0.0
 11
94.40957657905329
 21
-133.4580850551137
 31
0.0
  0
LINE
  5
B5
330
70
100
AcDbEntity
  8
レイヤー 1
 62
   250
420
  2299925
370
    25
100
AcDbLine
 10
94.37683880128325
 20
-135.4590052818438
 30
0.0
 11
94.78507324562583
 21
-134.9649686409535
 31
0.0
  0
LINE
  5
B6
330
70
100
AcDbEntity
  8
レイヤー 1
 62
   250
420
  2299925
370
    25
100
AcDbLine
 10
94.78507324562583
 20
-134.9649686409535
 30
0.0
 11
94.39338407905763
 21
-134.4585628073675
 31
0.0
  0
LINE
  5
B7
330
70
100
AcDbEntity
  8
レイヤー 1
 62
   250
420
  2299925
370
    25
100
AcDbLine
 10
94.36029352351017
 20
-136.4594477563204
 30
0.0
 11
94.76888074563019
 21
-135.9654464184813
 31
0.0
  0
LINE
  5
B8
330
70
100
AcDbEntity
  8
レイヤー 1
 62
   250
420
  2299925
370
    25
100
AcDbLine
 10
94.76888074563019
 20
-135.9654464184813
 30
0.0
 11
94.37683880128325
 21
-135.4590052818438
 31
0.0
  0
LINE
  5
B9
330
70
100
AcDbEntity
  8
レイヤー 1
 62
   250
420
  2299925
370
    25
100
AcDbLine
 10
94.34445380129162
 20
-137.4599255085735
 30
0.0
 11
94.75237074563429
 21
-136.9658955211779
 31
0.0
  0
LINE
  5
BA
330
70
100
AcDbEntity
  8
レイヤー 1
 62
   250
420
  2299925
370
    25
100
AcDbLine
 10
94.75237074563429
 20
-136.9658955211779
 30
0.0
 11
94.36029352351017
 21
-136.4594477563204
 31
0.0
  0
LINE
  5
BB
330
70
100
AcDbEntity
  8
レイヤー 1
 62
   250
420
  2299925
370
    25
100
AcDbLine
 10
94.3279085235182
 20
-138.4603679830504
 30
0.0
 11
94.73582546786118
 21
-137.9663379956542
 31
0.0
  0
LINE
  5
BC
330
70
100
AcDbEntity
  8
レイヤー 1
 62
   250
420
  2299925
370
    25
100
AcDbLine
 10
94.73582546786118
 20
-137.9663379956542
 30
0.0
 11
94.34445380129162
 21
-137.4599255085735
 31
0.0
  0
LINE
  5
BD
330
70
100
AcDbEntity
  8
レイヤー 1
 62
   250
420
  2299925
370
    25
100
AcDbLine
 10
94.31139852352229
 20
-139.4608457353039
 30
0.0
 11
94.71963296786489
 21
-138.9668157479077
 31
0.0
  0
LINE
  5
BE
330
70
100
AcDbEntity
  8
レイヤー 1
 62
   250
420
  2299925
370
    25
100
AcDbLine
 10
94.71963296786489
 20
-138.9668157479077
 30
0.0
 11
94.3279085235182
 21
-138.4603679830504
 31
0.0
  0
LINE
  5
BF
330
70
100
AcDbEntity
  8
レイヤー 1
 62
   250
420
  2299925
370
    25
100
AcDbLine
 10
94.29520602352665
 20
-140.4612882097805
 30
0.0
 11
94.70344046786891
 21
-139.9672582223842
 31
0.0
  0
LINE
  5
C0
330
70
100
AcDbEntity
  8
レイヤー 1
 62
   250
420
  2299925
370
    25
100
AcDbLine
 10
94.70344046786891
 20
-139.9672582223842
 30
0.0
 11
94.31139852352229
 21
-139.4608457353039
 31
0.0
  0
LINE
  5
C1
330
70
100
AcDbEntity
  8
レイヤー 1
 62
   250
420
  2299925
370
    25
100
AcDbLine
 10
94.27901352353035
 20
-141.4617241948849
 30
0.0
 11
94.68689519009485
 21
-140.9677006968611
 31
0.0
  0
LINE
  5
C2
330
70
100
AcDbEntity
  8
レイヤー 1
 62
   250
420
  2299925
370
    25
100
AcDbLine
 10
94.68689519009485
 20
-140.9677006968611
 30
0.0
 11
94.29520602352665
 21
-140.4612882097805
 31
0.0
  0
LINE
  5
C3
330
70
100
AcDbEntity
  8
レイヤー 1
 62
   250
420
  2299925
370
    25
100
AcDbLine
 10
94.26246824575693
 20
-142.4614964168572
 30
0.0
 11
94.67070269009919
 21
-141.9681784491143
 31
0.0
  0
LINE
  5
C4
330
70
100
AcDbEntity
  8
レイヤー 1
 62
   250
420
  2299925
370
    25
100
AcDbLine
 10
94.67070269009919
 20
-141.9681784491143
 30
0.0
 11
94.27901352353035
 21
-141.4617241948849
 31
0.0
  0
LINE
  5
C5
330
70
100
AcDbEntity
  8
レイヤー 1
 62
   250
420
  2299925
370
    25
100
AcDbLine
 10
94.24592296798287
 20
-143.4619741943849
 30
0.0
 11
94.6545101901029
 21
-142.9686209235909
 31
0.0
  0
LINE
  5
C6
330
70
100
AcDbEntity
  8
レイヤー 1
 62
   250
420
  2299925
370
    25
100
AcDbLine
 10
94.6545101901029
 20
-142.9686209235909
 30
0.0
 11
94.26246824575693
 21
-142.4614964168572
 31
0.0
  0
LINE
  5
C7
330
70
100
AcDbEntity
  8
レイヤー 1
 62
   250
420
  2299925
370
    25
100
AcDbLine
 10
94.23008324576498
 20
-144.462423107703
 30
0.0
 11
94.63796491232947
 21
-143.9690986758443
 31
0.0
  0
LINE
  5
C8
330
70
100
AcDbEntity
  8
レイヤー 1
 62
   250
420
  2299925
370
    25
100
AcDbLine
 10
94.63796491232947
 20
-143.9690986758443
 30
0.0
 11
94.24592296798287
 21
-143.4619741943849
 31
0.0
  0
LINE
  5
C9
330
70
100
AcDbEntity
  8
レイヤー 1
 62
   250
420
  2299925
370
    25
100
AcDbLine
 10
94.21353796799092
 20
-145.4628655821799
 30
0.0
 11
94.62145491233357
 21
-144.9695411503209
 31
0.0
  0
LINE
  5
CA
330
70
100
AcDbEntity
  8
レイヤー 1
 62
   250
420
  2299925
370
    25
100
AcDbLine
 10
94.62145491233357
 20
-144.9695411503209
 30
0.0
 11
94.23008324576498
 21
-144.462423107703
 31
0.0
  0
LINE
  5
CB
330
70
100
AcDbEntity
  8
レイヤー 1
 62
   250
420
  2299925
370
    25
100
AcDbLine
 10
94.1969926902175
 20
-146.4633433344331
 30
0.0
 11
94.60526241233791
 21
-145.9699836247975
 31
0.0
  0
LINE
  5
CC
330
70
100
AcDbEntity
  8
レイヤー 1
 62
   250
420
  2299925
370
    25
100
AcDbLine
 10
94.60526241233791
 20
-145.9699836247975
 30
0.0
 11
94.21353796799092
 21
-145.4628655821799
 31
0.0
  0
LINE
  5
CD
330
70
100
AcDbEntity
  8
レイヤー 1
 62
   250
420
  2299925
370
    25
100
AcDbLine
 10
94.18080019022216
 20
-147.4637858089097
 30
0.0
 11
94.5890699123413
 21
-146.970461377051
 31
0.0
  0
LINE
  5
CE
330
70
100
AcDbEntity
  8
レイヤー 1
 62
   250
420
  2299925
370
    25
100
AcDbLine
 10
94.5890699123413
 20
-146.970461377051
 30
0.0
 11
94.1969926902175
 21
-146.4633433344331
 31
0.0
  0
LINE
  5
CF
330
70
100
AcDbEntity
  8
レイヤー 1
 62
   250
420
  2299925
370
    25
100
AcDbLine
 10
94.16460769022586
 20
-148.4642282833862
 30
0.0
 11
94.5725246345682
 21
-147.9709038515276
 31
0.0
  0
LINE
  5
D0
330
70
100
AcDbEntity
  8
レイヤー 1
 62
   250
420
  2299925
370
    25
100
AcDbLine
 10
94.5725246345682
 20
-147.9709038515276
 30
0.0
 11
94.18080019022216
 21
-147.4637858089097
 31
0.0
  0
LINE
  5
D1
330
70
100
AcDbEntity
  8
レイヤー 1
 62
   250
420
  2299925
370
    25
100
AcDbLine
 10
94.14809769022932
 20
-149.46470603564
 30
0.0
 11
94.55597935679477
 21
-148.9713463260045
 31
0.0
  0
LINE
  5
D2
330
70
100
AcDbEntity
  8
レイヤー 1
 62
   250
420
  2299925
370
    25
100
AcDbLine
 10
94.55597935679477
 20
-148.9713463260045
 30
0.0
 11
94.16460769022586
 21
-148.4642282833862
 31
0.0
  0
LINE
  5
D3
330
70
100
AcDbEntity
  8
レイヤー 1
 62
   250
420
  2299925
370
    25
100
AcDbLine
 10
94.13155241245622
 20
-150.4651485101166
 30
0.0
 11
94.54013963457624
 21
-149.9718240782579
 31
0.0
  0
LINE
  5
D4
330
70
100
AcDbEntity
  8
レイヤー 1
 62
   250
420
  2299925
370
    25
100
AcDbLine
 10
94.54013963457624
 20
-149.9718240782579
 30
0.0
 11
94.14809769022932
 21
-149.46470603564
 31
0.0
  0
LINE
  5
D5
330
70
100
AcDbEntity
  8
レイヤー 1
 62
   250
420
  2299925
370
    25
100
AcDbLine
 10
94.11571269023768
 20
-151.4656262623701
 30
0.0
 11
94.52359435680314
 21
-150.9722603036184
 31
0.0
  0
LINE
  5
D6
330
70
100
AcDbEntity
  8
レイヤー 1
 62
   250
420
  2299925
370
    25
100
AcDbLine
 10
94.52359435680314
 20
-150.9722603036184
 30
0.0
 11
94.13155241245622
 21
-150.4651485101166
 31
0.0
  0
LINE
  5
D7
330
70
100
AcDbEntity
  8
レイヤー 1
 62
   250
420
  2299925
370
    25
100
AcDbLine
 10
94.09916741246426
 20
-152.4660687368467
 30
0.0
 11
94.50704907902876
 21
-151.9727380811464
 31
0.0
  0
LINE
  5
D8
330
70
100
AcDbEntity
  8
レイヤー 1
 62
   250
420
  2299925
370
    25
100
AcDbLine
 10
94.50704907902876
 20
-151.9727380811464
 30
0.0
 11
94.11571269023768
 21
-151.4656262623701
 31
0.0
  0
LINE
  5
D9
330
70
100
AcDbEntity
  8
レイヤー 1
 62
   250
420
  2299925
370
    25
100
AcDbLine
 10
94.08262213469116
 20
-153.4665112113233
 30
0.0
 11
94.4908565790331
 21
-152.9731867794646
 31
0.0
  0
LINE
  5
DA
330
70
100
AcDbEntity
  8
レイヤー 1
 62
   250
420
  2299925
370
    25
100
AcDbLine
 10
94.4908565790331
 20
-152.9731867794646
 30
0.0
 11
94.09916741246426
 21
-152.4660687368467
 31
0.0
  0
LINE
  5
DB
330
70
100
AcDbEntity
  8
レイヤー 1
 62
   250
420
  2299925
370
    25
100
AcDbLine
 10
101.8520235216371
 20
-141.9454242830281
 30
0.0
 11
109.3354270059366
 21
-134.4619847517247
 31
0.0
  0
LINE
  5
DC
330
70
100
AcDbEntity
  8
レイヤー 1
 62
   250
420
  2299925
370
    25
100
AcDbLine
 10
95.04792796778238
 20
-160.5331085310393
 30
0.0
 11
94.58698852345321
 21
-160.5406932530681
 31
0.0
  0
LINE
  5
DD
330
70
100
AcDbEntity
  8
レイヤー 1
 62
   250
420
  2299925
370
    25
100
AcDbLine
 10
96.04840574531046
 20
-160.5165632536837
 30
0.0
 11
95.54128768988167
 21
-160.1251915970017
 31
0.0
  0
LINE
  5
DE
330
70
100
AcDbEntity
  8
レイヤー 1
 62
   250
420
  2299925
370
    25
100
AcDbLine
 10
95.54128768988167
 20
-160.1251915970017
 30
0.0
 11
95.04792796778238
 21
-160.5331085310393
 31
0.0
  0
LINE
  5
DF
330
70
100
AcDbEntity
  8
レイヤー 1
 62
   250
420
  2299925
370
    25
100
AcDbLine
 10
97.04884824506036
 20
-160.500017976328
 30
0.0
 11
96.54173018963158
 21
-160.1086815974229
 31
0.0
  0
LINE
  5
E0
330
70
100
AcDbEntity
  8
レイヤー 1
 62
   250
420
  2299925
370
    25
100
AcDbLine
 10
96.54173018963158
 20
-160.1086815974229
 30
0.0
 11
96.04840574531046
 21
-160.5165632536837
 31
0.0
  0
LINE
  5
E1
330
70
100
AcDbEntity
  8
レイヤー 1
 62
   250
420
  2299925
370
    25
100
AcDbLine
 10
98.04932602258778
 20
-160.4835019679076
 30
0.0
 11
97.542207967159
 21
-160.0921363200673
 31
0.0
  0
LINE
  5
E2
330
70
100
AcDbEntity
  8
レイヤー 1
 62
   250
420
  2299925
370
    25
100
AcDbLine
 10
97.542207967159
 20
-160.0921363200673
 30
0.0
 11
97.04884824506036
 21
-160.500017976328
 31
0.0
  0
LINE
  5
E3
330
70
100
AcDbEntity
  8
レイヤー 1
 62
   250
420
  2299925
370
    25
100
AcDbLine
 10
99.04976852233801
 20
-160.4669626993935
 30
0.0
 11
98.54265046690922
 21
-160.074885487174
 31
0.0
  0
LINE
  5
E4
330
70
100
AcDbEntity
  8
レイヤー 1
 62
   250
420
  2299925
370
    25
100
AcDbLine
 10
98.54265046690922
 20
-160.074885487174
 30
0.0
 11
98.04932602258778
 21
-160.4835019679076
 31
0.0
  0
LINE
  5
E5
330
70
100
AcDbEntity
  8
レイヤー 1
 62
   250
420
  2299925
370
    25
100
AcDbLine
 10
100.0502110220875
 20
-160.4504174220378
 30
0.0
 11
99.54309296665881
 21
-160.0583754875952
 31
0.0
  0
LINE
  5
E6
330
70
100
AcDbEntity
  8
レイヤー 1
 62
   250
420
  2299925
370
    25
100
AcDbLine
 10
99.54309296665881
 20
-160.0583754875952
 30
0.0
 11
99.04976852233801
 21
-160.4669626993935
 31
0.0
  0
LINE
  5
E7
330
70
100
AcDbEntity
  8
レイヤー 1
 62
   250
420
  2299925
370
    25
100
AcDbLine
 10
93.97721213471703
 20
-159.9315871574965
 30
0.0
 11
93.98479685693793
 21
-159.4692658570501
 31
0.0
  0
LINE
  5
E8
330
70
100
AcDbEntity
  8
レイヤー 1
 62
   250
420
  2299925
370
    25
100
AcDbLine
 10
94.00098935693327
 20
-158.468788079522
 30
0.0
 11
94.3926785235021
 21
-158.9752419041172
 31
0.0
  0
LINE
  5
E9
330
70
100
AcDbEntity
  8
レイヤー 1
 62
   250
420
  2299925
370
    25
100
AcDbLine
 10
94.3926785235021
 20
-158.9752419041172
 30
0.0
 11
93.98479685693793
 21
-159.4692658570501
 31
0.0
  0
LINE
  5
EA
330
70
100
AcDbEntity
  8
レイヤー 1
 62
   250
420
  2299925
370
    25
100
AcDbLine
 10
94.01718185692892
 20
-157.4683516647833
 30
0.0
 11
94.40922380127553
 21
-157.9747641518637
 31
0.0
  0
LINE
  5
EB
330
70
100
AcDbEntity
  8
レイヤー 1
 62
   250
420
  2299925
370
    25
100
AcDbLine
 10
94.40922380127553
 20
-157.9747641518637
 30
0.0
 11
94.00098935693327
 21
-158.468788079522
 31
0.0
  0
LINE
  5
EC
330
70
100
AcDbEntity
  8
レイヤー 1
 62
   250
420
  2299925
370
    25
100
AcDbLine
 10
94.03369185692483
 20
-156.4678739125299
 30
0.0
 11
94.42576907904991
 21
-156.9743216773871
 31
0.0
  0
LINE
  5
ED
330
70
100
AcDbEntity
  8
レイヤー 1
 62
   250
420
  2299925
370
    25
100
AcDbLine
 10
94.42576907904991
 20
-156.9743216773871
 30
0.0
 11
94.01718185692892
 21
-157.4683516647833
 31
0.0
  0
LINE
  5
EE
330
70
100
AcDbEntity
  8
レイヤー 1
 62
   250
420
  2299925
370
    25
100
AcDbLine
 10
94.05023713469889
 20
-155.4674314380533
 30
0.0
 11
94.44160880126782
 21
-155.9738439251337
 31
0.0
  0
LINE
  5
EF
330
70
100
AcDbEntity
  8
レイヤー 1
 62
   250
420
  2299925
370
    25
100
AcDbLine
 10
94.44160880126782
 20
-155.9738439251337
 30
0.0
 11
94.03369185692483
 21
-156.4678739125299
 31
0.0
  0
LINE
  5
F0
330
70
100
AcDbEntity
  8
レイヤー 1
 62
   250
420
  2299925
370
    25
100
AcDbLine
 10
94.06642963469487
 20
-154.4669889635767
 30
0.0
 11
94.4581540790409
 21
-154.9734014506571
 31
0.0
  0
LINE
  5
F1
330
70
100
AcDbEntity
  8
レイヤー 1
 62
   250
420
  2299925
370
    25
100
AcDbLine
 10
94.4581540790409
 20
-154.9734014506571
 30
0.0
 11
94.05023713469889
 21
-155.4674314380533
 31
0.0
  0
LINE
  5
F2
330
70
100
AcDbEntity
  8
レイヤー 1
 62
   250
420
  2299925
370
    25
100
AcDbLine
 10
94.08262213469116
 20
-153.4665112113233
 30
0.0
 11
94.4746640790368
 21
-153.9736292539411
 31
0.0
  0
LINE
  5
F3
330
70
100
AcDbEntity
  8
レイヤー 1
 62
   250
420
  2299925
370
    25
100
AcDbLine
 10
94.4746640790368
 20
-153.9736292539411
 30
0.0
 11
94.06642963469487
 21
-154.4669889635767
 31
0.0
  0
LINE
  5
F4
330
70
100
AcDbEntity
  8
レイヤー 1
 62
   250
420
  2299925
370
    25
100
AcDbLine
 10
110.3372805914883
 20
-150.4307173998839
 30
0.0
 11
117.8207201227921
 21
-142.9472714167355
 31
0.0
  0
LINE
  5
F5
330
70
100
AcDbEntity
  8
レイヤー 1
 62
   250
420
  2299925
370
    25
100
AcDbLine
 10
104.1795101877216
 20
-148.1031955148192
 30
0.0
 11
115.4931982377277
 21
-136.7895066367888
 31
0.0
  0
LINE
  5
F6
330
70
100
AcDbEntity
  8
レイヤー 1
 62
   250
420
  2299925
370
    25
100
AcDbLine
 10
106.7137237394885
 20
-149.8119741927977
 30
0.0
 11
117.2019831941329
 21
-139.32372101658
 31
0.0
  0
LINE
  5
F7
330
70
100
AcDbEntity
  8
レイヤー 1
 62
   250
420
  2299925
370
    25
100
AcDbLine
 10
108.341194353348
 20
-150.3053049030835
 30
0.0
 11
117.6960131815292
 21
-140.951190697282
 31
0.0
  0
LINE
  5
F8
330
70
100
AcDbEntity
  8
レイヤー 1
 62
   250
420
  2299925
370
    25
100
AcDbLine
 10
109.2803231184535
 20
-150.4272601777499
 30
0.0
 11
117.8172629006581
 21
-141.8903203955454
 31
0.0
  0
LINE
  5
F9
330
70
100
AcDbEntity
  8
レイヤー 1
 62
   250
420
  2299925
370
    25
100
AcDbLine
 10
107.4916339974201
 20
-150.095155186222
 30
0.0
 11
117.4851579091308
 21
-140.1009257189741
 31
0.0
  0
LINE
  5
FA
330
70
100
AcDbEntity
  8
レイヤー 1
 62
   250
420
  2299925
370
    25
100
AcDbLine
 10
105.3405018540984
 20
-149.0637035458705
 30
0.0
 11
106.130124353901
 21
-148.2740810660151
 31
0.0
  0
LINE
  5
FB
330
70
100
AcDbEntity
  8
レイヤー 1
 62
   250
420
  2299925
370
    25
100
AcDbLine
 10
105.9992085206003
 20
-149.4660818689383
 30
0.0
 11
116.8560845918464
 21
-138.609204923698
 31
0.0
  0
LINE
  5
FC
330
70
100
AcDbEntity
  8
レイヤー 1
 62
   250
420
  2299925
370
    25
100
AcDbLine
 10
104.7348529653609
 20
-148.6089377241389
 30
0.0
 11
105.6567671317964
 21
-147.6870235809922
 31
0.0
  0
LINE
  5
FD
330
70
100
AcDbEntity
  8
レイヤー 1
 62
   250
420
  2299925
370
    25
100
AcDbLine
 10
102.4714307437048
 20
-145.5689811350279
 30
0.0
 11
102.9248207435909
 21
-145.1156264243718
 31
0.0
  0
LINE
  5
FE
330
70
100
AcDbEntity
  8
レイヤー 1
 62
   250
420
  2299925
370
    25
100
AcDbLine
 10
101.9774007438281
 20
-143.9415114543259
 30
0.0
 11
111.3315141772344
 21
-134.5873972485248
 31
0.0
  0
LINE
  5
FF
330
70
100
AcDbEntity
  8
レイヤー 1
 62
   250
420
  2299925
370
    25
100
AcDbLine
 10
101.8561510216364
 20
-143.0023817560629
 30
0.0
 11
110.3923844789714
 21
-134.4654353077453
 31
0.0
  0
LINE
  5
100
330
70
100
AcDbEntity
  8
レイヤー 1
 62
   250
420
  2299925
370
    25
100
AcDbLine
 10
102.1882560215536
 20
-144.7917764326339
 30
0.0
 11
112.1817791555423
 21
-134.7975469653857
 31
0.0
  0
LINE
  5
101
330
70
100
AcDbEntity
  8
レイヤー 1
 62
   250
420
  2299925
370
    25
100
AcDbLine
 10
103.2197076879616
 20
-146.9422038777719
 30
0.0
 11
106.130124353901
 21
-144.0317872853561
 31
0.0
  0
LINE
  5
102
330
70
100
AcDbEntity
  8
レイヤー 1
 62
   250
420
  2299925
370
    25
100
AcDbLine
 10
103.6744735211812
 20
-147.5478464155855
 30
0.0
 11
106.7171809616225
 21
-144.5051380830128
 31
0.0
  0
LINE
  5
103
330
70
100
AcDbEntity
  8
レイヤー 1
 62
   250
420
  2299925
370
    25
100
AcDbLine
 10
102.8173293547293
 20
-146.2841964159016
 30
0.0
 11
103.5924526878684
 21
-145.5090441921126
 31
0.0
  0
LINE
  5
104
330
70
100
AcDbEntity
  8
レイヤー 1
 62
   250
420
  2299925
370
    25
100
AcDbLine
 10
112.5056291472802
 20
-135.5347819465772
 30
0.0
 11
112.9589838579364
 21
-135.0807216803835
 31
0.0
  0
LINE
  5
105
330
70
100
AcDbEntity
  8
レイヤー 1
 62
   250
420
  2299925
370
    25
100
AcDbLine
 10
108.2633353666213
 20
-139.7770757272362
 30
0.0
 11
111.4100777863412
 21
-136.6303333075163
 31
0.0
  0
LINE
  5
106
330
70
100
AcDbEntity
  8
レイヤー 1
 62
   250
420
  2299925
370
    25
100
AcDbLine
 10
104.0203368544286
 20
-144.0200686386896
 30
0.0
 11
107.1677840056822
 21
-140.8726270881752
 31
0.0
  0
LINE
  5
107
330
70
100
AcDbEntity
  8
レイヤー 1
 62
   250
420
  2299925
370
    25
100
AcDbLine
 10
104.4137899098859
 20
-144.6870367130838
 30
0.0
 11
107.8347456553333
 21
-141.2660448559161
 31
0.0
  0
LINE
  5
108
330
70
100
AcDbEntity
  8
レイヤー 1
 62
   250
420
  2299925
370
    25
100
AcDbLine
 10
108.6567531343621
 20
-140.4447429324248
 30
0.0
 11
112.0777449915298
 21
-137.02377975155
 31
0.0
  0
LINE
  5
109
330
70
100
AcDbEntity
  8
レイヤー 1
 62
   250
420
  2299925
370
    25
100
AcDbLine
 10
112.8990469150211
 20
-136.2017788740052
 30
0.0
 11
113.6742055063562
 21
-135.42662028267
 31
0.0
  0
LINE
  5
10A
330
70
100
AcDbEntity
  8
レイヤー 1
 62
   250
420
  2299925
370
    25
100
AcDbLine
 10
111.4217900082646
 20
-138.7401207536911
 30
0.0
 11
114.3322066006803
 21
-135.8289986057378
 31
0.0
  0
LINE
  5
10B
330
70
100
AcDbEntity
  8
レイヤー 1
 62
   250
420
  2299925
370
    25
100
AcDbLine
 10
111.8951472184105
 20
-139.3271429609375
 30
0.0
 11
114.9385610296554
 21
-136.2844347052298
 31
0.0
  0
LINE
  5
10C
330
70
100
AcDbEntity
  8
レイヤー 1
 62
   250
420
  2299925
370
    25
100
AcDbLine
 10
107.178825949845
 20
-142.9824145343504
 30
0.0
 11
110.3731228127961
 21
-139.7887879491599
 31
0.0
  0
LINE
  5
10D
330
70
100
AcDbEntity
  8
レイヤー 1
 62
   250
420
  2299925
370
    25
100
AcDbLine
 10
107.6528534377515
 20
-143.5694367415961
 30
0.0
 11
110.9601450200422
 21
-140.2621451593055
 31
0.0
  0
LINE
  5
10E
330
70
100
AcDbEntity
  8
レイヤー 1
 62
   250
420
  2299925
370
    25
100
AcDbLine
 10
110.8347325232417
 20
-142.5090573242042
 30
0.0
 11
114.1420241055323
 21
-139.2017657419136
 31
0.0
  0
LINE
  5
10F
330
70
100
AcDbEntity
  8
レイヤー 1
 62
   250
420
  2299925
370
    25
100
AcDbLine
 10
111.4217900082646
 20
-142.9824145343504
 30
0.0
 11
114.6153813156782
 21
-139.7887879491599
 31
0.0
  0
LINE
  5
110
330
70
100
AcDbEntity
  8
レイヤー 1
 62
   250
420
  2299925
370
    25
100
AcDbLine
 10
115.0770263039006
 20
-138.2660579880077
 30
0.0
 11
115.9989415736565
 21
-137.3448494003986
 31
0.0
  0
LINE
  5
111
330
70
100
AcDbEntity
  8
レイヤー 1
 62
   250
420
  2299925
370
    25
100
AcDbLine
 10
115.6640837889236
 20
-138.7401207536911
 30
0.0
 11
116.4537062687786
 21
-137.9504982738361
 31
0.0
  0
LINE
  5
112
330
70
100
AcDbEntity
  8
レイヤー 1
 62
   250
420
  2299925
370
    25
100
AcDbLine
 10
106.5917693537857
 20
-146.7513511048631
 30
0.0
 11
109.8990610196255
 21
-143.4447298003335
 31
0.0
  0
LINE
  5
113
330
70
100
AcDbEntity
  8
レイヤー 1
 62
   250
420
  2299925
370
    25
100
AcDbLine
 10
107.178825949845
 20
-147.2253785927697
 30
0.0
 11
110.3731228127961
 21
-144.0317872853561
 31
0.0
  0
SPLINE
  5
114
330
70
100
AcDbEntity
  8
レイヤー 1
 62
   250
420
  2299925
370
     9
100
AcDbSpline
210
0.0
220
0.0
230
1.0
 70
     9
 71
     3
 72
    17
 73
    13
 74
     0
 42
0.0000000001
 43
0.0000000001
 40
0.0
 40
0.0
 40
0.0
 40
0.0
 40
1.0
 40
1.0
 40
1.0
 40
2.0
 40
2.0
 40
2.0
 40
3.0
 40
3.0
 40
3.0
 40
4.0
 40
4.0
 40
4.0
 40
4.0
 10
124.1603835721649
 20
-164.4515464113599
 30
0.0
 10
124.1603835721649
 20
-164.3957428769398
 30
0.0
 10
124.1155807955301
 20
-164.3509401003044
 30
0.0
 10
124.0604769080471
 20
-164.3509401003044
 30
0.0
 10
124.0046674650264
 20
-164.3509401003044
 30
0.0
 10
123.9605702439292
 20
-164.3957428769398
 30
0.0
 10
123.9605702439292
 20
-164.4515464113599
 30
0.0
 10
123.9605702439292
 20
-164.5066562074435
 30
0.0
 10
124.0046674650264
 20
-164.5514589840782
 30
0.0
 10
124.0604769080471
 20
-164.5514589840782
 30
0.0
 10
124.1155807955301
 20
-164.5514589840782
 30
0.0
 10
124.1603835721649
 20
-164.5066562074435
 30
0.0
 10
124.1603835721649
 20
-164.4515464113599
 30
0.0
  0
CIRCLE
  5
115
330
70
100
AcDbEntity
  8
レイヤー 1
 62
   250
420
  2299925
370
     9
100
AcDbCircle
 10
90.0587682468074
 20
-130.4567223539071
 30
0.0
 40
0.0999066653798568
  0
SPLINE
  5
116
330
70
100
AcDbEntity
  8
レイヤー 1
 62
   250
420
  2299925
370
    25
100
AcDbSpline
210
0.0
220
0.0
230
1.0
 70
     9
 71
     3
 72
    17
 73
    13
 74
     0
 42
0.0000000001
 43
0.0000000001
 40
0.0
 40
0.0
 40
0.0
 40
0.0
 40
1.0
 40
1.0
 40
1.0
 40
2.0
 40
2.0
 40
2.0
 40
3.0
 40
3.0
 40
3.0
 40
4.0
 40
4.0
 40
4.0
 40
4.0
 10
117.8365610176412
 20
-142.4463269724163
 30
0.0
 10
117.8365610176412
 20
-138.0283563274053
 30
0.0
 10
114.2550541026487
 20
-134.4461450299062
 30
0.0
 10
109.8363714376009
 20
-134.4461450299062
 30
0.0
 10
105.4183599096345
 20
-134.4461450299062
 30
0.0
 10
101.8368540771966
 20
-138.0283563274053
 30
0.0
 10
101.8368540771966
 20
-142.4463269724163
 30
0.0
 10
101.8368540771966
 20
-146.8643458242026
 30
0.0
 10
105.4183599096345
 20
-150.446557121702
 30
0.0
 10
109.8363714376009
 20
-150.446557121702
 30
0.0
 10
114.2550541026487
 20
-150.446557121702
 30
0.0
 10
117.8365610176412
 20
-146.8643458242026
 30
0.0
 10
117.8365610176412
 20
-142.4463269724163
 30
0.0
  0
SPLINE
  5
117
330
70
100
AcDbEntity
  8
レイヤー 1
 62
   250
420
  2299925
370
    25
100
AcDbSpline
210
0.0
220
0.0
230
1.0
 70
     9
 71
     3
 72
    17
 73
    13
 74
     0
 42
0.0000000001
 43
0.0000000001
 40
0.0
 40
0.0
 40
0.0
 40
0.0
 40
1.0
 40
1.0
 40
1.0
 40
2.0
 40
2.0
 40
2.0
 40
3.0
 40
3.0
 40
3.0
 40
4.0
 40
4.0
 40
4.0
 40
4.0
 10
107.6666470485107
 20
-143.718979237781
 30
0.0
 10
107.6666470485107
 20
-143.2773014712713
 30
0.0
 10
107.3083659465401
 20
-142.9190203693007
 30
0.0
 10
106.8666881800305
 20
-142.9190203693007
 30
0.0
 10
106.4250112982711
 20
-142.9190203693007
 30
0.0
 10
106.06673018725
 20
-143.2773014712713
 30
0.0
 10
106.06673018725
 20
-143.718979237781
 30
0.0
 10
106.06673018725
 20
-144.1613272820513
 30
0.0
 10
106.4250112982711
 20
-144.5188964163426
 30
0.0
 10
106.8666881800305
 20
-144.5188964163426
 30
0.0
 10
107.3083659465401
 20
-144.5188964163426
 30
0.0
 10
107.6666470485107
 20
-144.1613272820513
 30
0.0
 10
107.6666470485107
 20
-143.718979237781
 30
0.0
  0
SPLINE
  5
118
330
70
100
AcDbEntity
  8
レイヤー 1
 62
   250
420
  2299925
370
    25
100
AcDbSpline
210
0.0
220
0.0
230
1.0
 70
     9
 71
     3
 72
    17
 73
    13
 74
     0
 42
0.0000000001
 43
0.0000000001
 40
0.0
 40
0.0
 40
0.0
 40
0.0
 40
1.0
 40
1.0
 40
1.0
 40
2.0
 40
2.0
 40
2.0
 40
3.0
 40
3.0
 40
3.0
 40
4.0
 40
4.0
 40
4.0
 40
4.0
 10
111.9096111069304
 20
-139.476685457122
 30
0.0
 10
111.9096111069304
 20
-139.0350076906124
 30
0.0
 10
111.5513300049598
 20
-138.6767265886418
 30
0.0
 10
111.1096522384501
 20
-138.6767265886418
 30
0.0
 10
110.6673041941798
 20
-138.6767265886418
 30
0.0
 10
110.3097286477468
 20
-139.0350076906124
 30
0.0
 10
110.3097286477468
 20
-139.476685457122
 30
0.0
 10
110.3097286477468
 20
-139.918321417493
 30
0.0
 10
110.6673041941798
 20
-140.2766443256026
 30
0.0
 10
111.1096522384501
 20
-140.2766443256026
 30
0.0
 10
111.5513300049598
 20
-140.2766443256026
 30
0.0
 10
111.9096111069304
 20
-139.918321417493
 30
0.0
 10
111.9096111069304
 20
-139.476685457122
 30
0.0
  0
CIRCLE
  5
119
330
70
100
AcDbEntity
  8
レイヤー 1
 62
   250
420
  2299925
370
    25
100
AcDbCircle
 10
103.613831021197
 20
-144.7090853236325
 30
0.0
 40
0.7999588785843505
  0
SPLINE
  5
11A
330
70
100
AcDbEntity
  8
レイヤー 1
 62
   250
420
  2299925
370
    25
100
AcDbSpline
210
0.0
220
0.0
230
1.0
 70
     9
 71
     3
 72
    17
 73
    13
 74
     0
 42
0.0000000001
 43
0.0000000001
 40
0.0
 40
0.0
 40
0.0
 40
0.0
 40
1.0
 40
1.0
 40
1.0
 40
2.0
 40
2.0
 40
2.0
 40
3.0
 40
3.0
 40
3.0
 40
4.0
 40
4.0
 40
4.0
 40
4.0
 10
108.6567531343621
 20
-140.4667915429734
 30
0.0
 10
108.6567531343621
 20
-140.0244434987028
 30
0.0
 10
108.2984720323915
 20
-139.6668326744932
 30
0.0
 10
107.8567942658819
 20
-139.6668326744932
 30
0.0
 10
107.4151526869128
 20
-139.6668326744932
 30
0.0
 10
107.0568706751785
 20
-140.0244434987028
 30
0.0
 10
107.0568706751785
 20
-140.4667915429734
 30
0.0
 10
107.0568706751785
 20
-140.9084693094831
 30
0.0
 10
107.4151526869128
 20
-141.2667504114536
 30
0.0
 10
107.8567942658819
 20
-141.2667504114536
 30
0.0
 10
108.2984720323915
 20
-141.2667504114536
 30
0.0
 10
108.6567531343621
 20
-140.9084693094831
 30
0.0
 10
108.6567531343621
 20
-140.4667915429734
 30
0.0
  0
SPLINE
  5
11B
330
70
100
AcDbEntity
  8
レイヤー 1
 62
   250
420
  2299925
370
    25
100
AcDbSpline
210
0.0
220
0.0
230
1.0
 70
     9
 71
     3
 72
    17
 73
    13
 74
     0
 42
0.0000000001
 43
0.0000000001
 40
0.0
 40
0.0
 40
0.0
 40
0.0
 40
1.0
 40
1.0
 40
1.0
 40
2.0
 40
2.0
 40
2.0
 40
3.0
 40
3.0
 40
3.0
 40
4.0
 40
4.0
 40
4.0
 40
4.0
 10
112.8990469150211
 20
-136.2238274845538
 30
0.0
 10
112.8990469150211
 20
-135.7821497180441
 30
0.0
 10
112.5414360908112
 20
-135.4238686160735
 30
0.0
 10
112.0990880465408
 20
-135.4238686160735
 30
0.0
 10
111.6574455578081
 20
-135.4238686160735
 30
0.0
 10
111.2991644558375
 20
-135.7821497180441
 30
0.0
 10
111.2991644558375
 20
-136.2238274845538
 30
0.0
 10
111.2991644558375
 20
-136.6654699732865
 30
0.0
 10
111.6574455578081
 20
-137.02377975155
 30
0.0
 10
112.0990880465408
 20
-137.02377975155
 30
0.0
 10
112.5414360908112
 20
-137.02377975155
 30
0.0
 10
112.8990469150211
 20
-136.6654699732865
 30
0.0
 10
112.8990469150211
 20
-136.2238274845538
 30
0.0
  0
SPLINE
  5
11C
330
70
100
AcDbEntity
  8
レイヤー 1
 62
   250
420
  2299925
370
    25
100
AcDbSpline
210
0.0
220
0.0
230
1.0
 70
     8
 71
     3
 72
    11
 73
     7
 74
     0
 42
0.0000000001
 43
0.0000000001
 40
0.0
 40
0.0
 40
0.0
 40
0.0
 40
1.0
 40
1.0
 40
1.0
 40
2.0
 40
2.0
 40
2.0
 40
2.0
 10
93.97721213471703
 20
-159.9315871574965
 30
0.0
 10
93.97170880138451
 20
-160.2623103012961
 30
0.0
 10
94.23593935687426
 20
-160.5358601976358
 30
0.0
 10
94.56733880123627
 20
-160.5406932530681
 30
0.0
 10
94.57390046790141
 20
-160.5413575234483
 30
0.0
 10
94.58042685678838
 20
-160.5413575234483
 30
0.0
 10
94.58698852345321
 20
-160.5406932530681
 30
0.0
  0
SPLINE
  5
11D
330
70
100
AcDbEntity
  8
レイヤー 1
 62
   250
420
  2299925
370
     9
100
AcDbSpline
210
0.0
220
0.0
230
1.0
 70
     9
 71
     3
 72
    17
 73
    13
 74
     0
 42
0.0000000001
 43
0.0000000001
 40
0.0
 40
0.0
 40
0.0
 40
0.0
 40
1.0
 40
1.0
 40
1.0
 40
2.0
 40
2.0
 40
2.0
 40
3.0
 40
3.0
 40
3.0
 40
4.0
 40
4.0
 40
4.0
 40
4.0
 10
94.07711880135867
 20
-164.4515464113599
 30
0.0
 10
94.07711880135867
 20
-164.3957428769398
 30
0.0
 10
94.03231602359227
 20
-164.3509401003044
 30
0.0
 10
93.97721213471703
 20
-164.3509401003044
 30
0.0
 10
93.92207296806427
 20
-164.3509401003044
 30
0.0
 10
93.87730546807539
 20
-164.3957428769398
 30
0.0
 10
93.87730546807539
 20
-164.4515464113599
 30
0.0
 10
93.87730546807539
 20
-164.5066562074435
 30
0.0
 10
93.92207296806427
 20
-164.5514589840782
 30
0.0
 10
93.97721213471703
 20
-164.5514589840782
 30
0.0
 10
94.03231602359227
 20
-164.5514589840782
 30
0.0
 10
94.07711880135867
 20
-164.5066562074435
 30
0.0
 10
94.07711880135867
 20
-164.4515464113599
 30
0.0
  0
SPLINE
  5
11E
330
70
100
AcDbEntity
  8
レイヤー 1
 62
   250
420
  2299925
370
     9
100
AcDbSpline
210
0.0
220
0.0
230
1.0
 70
     9
 71
     3
 72
    17
 73
    13
 74
     0
 42
0.0000000001
 43
0.0000000001
 40
0.0
 40
0.0
 40
0.0
 40
0.0
 40
1.0
 40
1.0
 40
1.0
 40
2.0
 40
2.0
 40
2.0
 40
3.0
 40
3.0
 40
3.0
 40
4.0
 40
4.0
 40
4.0
 40
4.0
 10
90.15867491344911
 20
-160.5406932530681
 30
0.0
 10
90.15867491344911
 20
-160.4855540878081
 30
0.0
 10
90.11387213568335
 20
-160.4407865889502
 30
0.0
 10
90.05876824680747
 20
-160.4407865889502
 30
0.0
 10
90.00362908015537
 20
-160.4407865889502
 30
0.0
 10
89.95886158016551
 20
-160.4855540878081
 30
0.0
 10
89.95886158016551
 20
-160.5406932530681
 30
0.0
 10
89.95886158016551
 20
-160.5965026960887
 30
0.0
 10
90.00362908015537
 20
-160.6412701949466
 30
0.0
 10
90.05876824680747
 20
-160.6412701949466
 30
0.0
 10
90.11387213568335
 20
-160.6412701949466
 30
0.0
 10
90.15867491344911
 20
-160.5965026960887
 30
0.0
 10
90.15867491344911
 20
-160.5406932530681
 30
0.0
  0
CIRCLE
  5
11F
330
70
100
AcDbEntity
  8
レイヤー 1
 62
   250
420
  2299925
370
    25
100
AcDbCircle
 10
106.4422619052519
 20
-147.5375163625843
 30
0.0
 40
0.7999587654101131
  0
CIRCLE
  5
120
330
70
100
AcDbEntity
  8
レイヤー 1
 62
   250
420
  2299925
370
    25
100
AcDbCircle
 10
110.6852253048337
 20
-143.2952225819252
 30
0.0
 40
0.799958868480238
  0
SPLINE
  5
121
330
70
100
AcDbEntity
  8
レイヤー 1
 62
   250
420
  2299925
370
    25
100
AcDbSpline
210
0.0
220
0.0
230
1.0
 70
     9
 71
     3
 72
    17
 73
    13
 74
     0
 42
0.0000000001
 43
0.0000000001
 40
0.0
 40
0.0
 40
0.0
 40
0.0
 40
1.0
 40
1.0
 40
1.0
 40
2.0
 40
2.0
 40
2.0
 40
3.0
 40
3.0
 40
3.0
 40
4.0
 40
4.0
 40
4.0
 40
4.0
 10
115.7274779539729
 20
-139.0522519732651
 30
0.0
 10
115.7274779539729
 20
-138.6105741955979
 30
0.0
 10
115.369867129763
 20
-138.2522996550254
 30
0.0
 10
114.9275190854927
 20
-138.2522996550254
 30
0.0
 10
114.4858776851457
 20
-138.2522996550254
 30
0.0
 10
114.1275602170124
 20
-138.6105741955979
 30
0.0
 10
114.1275602170124
 20
-139.0522519732651
 30
0.0
 10
114.1275602170124
 20
-139.4939010122383
 30
0.0
 10
114.4858776851457
 20
-139.852182114209
 30
0.0
 10
114.9275190854927
 20
-139.852182114209
 30
0.0
 10
115.369867129763
 20
-139.852182114209
 30
0.0
 10
115.7274779539729
 20
-139.4939010122383
 30
0.0
 10
115.7274779539729
 20
-139.0522519732651
 30
0.0
  0
LINE
  5
122
330
70
100
AcDbEntity
  8
レイヤー 1
 62
   250
420
  2299925
370
     9
100
AcDbLine
 10
93.97721213471703
 20
-164.4515464113599
 30
0.0
 11
124.0604769080471
 21
-164.4515464113599
 31
0.0
  0
LINE
  5
123
330
70
100
AcDbEntity
  8
レイヤー 1
 62
   250
420
  2299925
370
     9
100
AcDbLine
 10
93.97721213471703
 20
-162.4713048704807
 30
0.0
 11
93.97721213471703
 21
-165.4513186333318
 31
0.0
  0
LINE
  5
124
330
70
100
AcDbEntity
  8
レイヤー 1
 62
   250
420
  2299925
370
     9
100
AcDbLine
 10
124.0604769080471
 20
-162.5912140340882
 30
0.0
 11
124.0604769080471
 21
-165.4513186333318
 31
0.0
  0
INSERT
  5
126
330
70
100
AcDbEntity
  8
レイヤー 1
100
AcDbBlockReference
  2
Block_0
 10
0.0
 20
0.0
 30
0.0
  0
SPLINE
  5
132
330
70
100
AcDbEntity
  8
レイヤー 1
 62
   250
420
  2299925
370
    25
100
AcDbSpline
210
0.0
220
0.0
230
1.0
 70
     9
 71
     3
 72
    17
 73
    13
 74
     0
 42
0.0000000001
 43
0.0000000001
 40
0.0
 40
0.0
 40
0.0
 40
0.0
 40
1.0
 40
1.0
 40
1.0
 40
2.0
 40
2.0
 40
2.0
 40
3.0
 40
3.0
 40
3.0
 40
4.0
 40
4.0
 40
4.0
 40
4.0
 10
94.01234880137476
 20
-159.9315871574965
 30
0.0
 10
94.01234880137476
 20
-159.9508841014487
 30
0.0
 10
93.99650907915686
 20
-159.9667238232668
 30
0.0
 10
93.97721213471703
 20
-159.9667238232668
 30
0.0
 10
93.95791519027687
 20
-159.9667238232668
 30
0.0
 10
93.94207546805963
 20
-159.9508841014487
 30
0.0
 10
93.94207546805963
 20
-159.9315871574965
 30
0.0
 10
93.94207546805963
 20
-159.9116199357837
 30
0.0
 10
93.95791519027687
 20
-159.8957449361887
 30
0.0
 10
93.97721213471703
 20
-159.8957449361887
 30
0.0
 10
93.99650907915686
 20
-159.8957449361887
 30
0.0
 10
94.01234880137476
 20
-159.9116199357837
 30
0.0
 10
94.01234880137476
 20
-159.9315871574965
 30
0.0
  0
SPLINE
  5
133
330
70
100
AcDbEntity
  8
レイヤー 1
 62
   250
420
  2299925
370
    25
100
AcDbSpline
210
0.0
220
0.0
230
1.0
 70
     9
 71
     3
 72
    17
 73
    13
 74
     0
 42
0.0000000001
 43
0.0000000001
 40
0.0
 40
0.0
 40
0.0
 40
0.0
 40
1.0
 40
1.0
 40
1.0
 40
2.0
 40
2.0
 40
2.0
 40
3.0
 40
3.0
 40
3.0
 40
4.0
 40
4.0
 40
4.0
 40
4.0
 10
124.0956135738173
 20
-160.0514610433272
 30
0.0
 10
124.0956135738173
 20
-160.0707519680101
 30
0.0
 10
124.0797738519992
 20
-160.0866269680068
 30
0.0
 10
124.0604769080471
 20
-160.0866269680068
 30
0.0
 10
124.0404744085574
 20
-160.0866269680068
 30
0.0
 10
124.0246360160945
 20
-160.0707519680101
 30
0.0
 10
124.0246360160945
 20
-160.0514610433272
 30
0.0
 10
124.0246360160945
 20
-160.0314938216137
 30
0.0
 10
124.0404744085574
 20
-160.0156540997963
 30
0.0
 10
124.0604769080471
 20
-160.0156540997963
 30
0.0
 10
124.0797738519992
 20
-160.0156540997963
 30
0.0
 10
124.0956135738173
 20
-160.0314938216137
 30
0.0
 10
124.0956135738173
 20
-160.0514610433272
 30
0.0
  0
SPLINE
  5
134
330
70
100
AcDbEntity
  8
レイヤー 1
 62
   250
420
  2299925
370
     9
100
AcDbSpline
210
0.0
220
0.0
230
1.0
 70
     9
 71
     3
 72
    17
 73
    13
 74
     0
 42
0.0000000001
 43
0.0000000001
 40
0.0
 40
0.0
 40
0.0
 40
0.0
 40
1.0
 40
1.0
 40
1.0
 40
2.0
 40
2.0
 40
2.0
 40
3.0
 40
3.0
 40
3.0
 40
4.0
 40
4.0
 40
4.0
 40
4.0
 10
124.0956135738173
 20
-164.4515464113599
 30
0.0
 10
124.0956135738173
 20
-164.4708492639125
 30
0.0
 10
124.0797738519992
 20
-164.4866889857306
 30
0.0
 10
124.0604769080471
 20
-164.4866889857306
 30
0.0
 10
124.0404744085574
 20
-164.4866889857306
 30
0.0
 10
124.0246360160945
 20
-164.4708492639125
 30
0.0
 10
124.0246360160945
 20
-164.4515464113599
 30
0.0
 10
124.0246360160945
 20
-164.4315850982476
 30
0.0
 10
124.0404744085574
 20
-164.4157100986526
 30
0.0
 10
124.0604769080471
 20
-164.4157100986526
 30
0.0
 10
124.0797738519992
 20
-164.4157100986526
 30
0.0
 10
124.0956135738173
 20
-164.4315850982476
 30
0.0
 10
124.0956135738173
 20
-164.4515464113599
 30
0.0
  0
LINE
  5
135
330
70
100
AcDbEntity
  8
レイヤー 1
 62
   250
420
  2299925
370
     9
100
AcDbLine
 10
90.05876824680747
 20
-130.4567223539071
 30
0.0
 11
90.05876824680747
 21
-160.5406932530681
 31
0.0
  0
LINE
  5
136
330
70
100
AcDbEntity
  8
レイヤー 1
 62
   250
420
  2299925
370
     9
100
AcDbLine
 10
91.91843630189838
 20
-130.4567223539071
 30
0.0
 11
89.05864324705781
 21
-130.4567223539071
 31
0.0
  0
LINE
  5
137
330
70
100
AcDbEntity
  8
レイヤー 1
 62
   250
420
  2299925
370
     9
100
AcDbLine
 10
92.04727074631067
 20
-160.5406932530681
 30
0.0
 11
89.05864324705781
 21
-160.5406932530681
 31
0.0
  0
INSERT
  5
139
330
70
100
AcDbEntity
  8
レイヤー 1
100
AcDbBlockReference
  2
Block_2
 10
0.0
 20
0.0
 30
0.0
  0
SPLINE
  5
145
330
70
100
AcDbEntity
  8
レイヤー 1
 62
   250
420
  2299925
370
    25
100
AcDbSpline
210
0.0
220
0.0
230
1.0
 70
     9
 71
     3
 72
    17
 73
    13
 74
     0
 42
0.0000000001
 43
0.0000000001
 40
0.0
 40
0.0
 40
0.0
 40
0.0
 40
1.0
 40
1.0
 40
1.0
 40
2.0
 40
2.0
 40
2.0
 40
3.0
 40
3.0
 40
3.0
 40
4.0
 40
4.0
 40
4.0
 40
4.0
 10
94.49396102347696
 20
-130.4567223539071
 30
0.0
 10
94.49396102347696
 20
-130.4760192978593
 30
0.0
 10
94.47812130125809
 20
-130.4918590196773
 30
0.0
 10
94.45882435681891
 20
-130.4918590196773
 30
0.0
 10
94.43920991237948
 20
-130.4918590196773
 30
0.0
 10
94.42333491238375
 20
-130.4760192978593
 30
0.0
 10
94.42333491238375
 20
-130.4567223539071
 30
0.0
 10
94.42333491238375
 20
-130.4374186420854
 30
0.0
 10
94.43920991237948
 20
-130.4215856881368
 30
0.0
 10
94.45882435681891
 20
-130.4215856881368
 30
0.0
 10
94.47812130125809
 20
-130.4215856881368
 30
0.0
 10
94.49396102347696
 20
-130.4374186420854
 30
0.0
 10
94.49396102347696
 20
-130.4567223539071
 30
0.0
  0
SPLINE
  5
146
330
70
100
AcDbEntity
  8
レイヤー 1
 62
   250
420
  2299925
370
    25
100
AcDbSpline
210
0.0
220
0.0
230
1.0
 70
     9
 71
     3
 72
    17
 73
    13
 74
     0
 42
0.0000000001
 43
0.0000000001
 40
0.0
 40
0.0
 40
0.0
 40
0.0
 40
1.0
 40
1.0
 40
1.0
 40
2.0
 40
2.0
 40
2.0
 40
3.0
 40
3.0
 40
3.0
 40
4.0
 40
4.0
 40
4.0
 40
4.0
 10
94.62212519011158
 20
-160.5406932530681
 30
0.0
 10
94.62212519011158
 20
-160.5606604747809
 30
0.0
 10
94.60663824567081
 20
-160.576500196599
 30
0.0
 10
94.58698852345321
 20
-160.576500196599
 30
0.0
 10
94.56769157901435
 20
-160.576500196599
 30
0.0
 10
94.5518518567958
 20
-160.5606604747809
 30
0.0
 10
94.5518518567958
 20
-160.5406932530681
 30
0.0
 10
94.5518518567958
 20
-160.5213963091159
 30
0.0
 10
94.56769157901435
 20
-160.5055565872978
 30
0.0
 10
94.58698852345321
 20
-160.5055565872978
 30
0.0
 10
94.60663824567081
 20
-160.5055565872978
 30
0.0
 10
94.62212519011158
 20
-160.5213963091159
 30
0.0
 10
94.62212519011158
 20
-160.5406932530681
 30
0.0
  0
SPLINE
  5
147
330
70
100
AcDbEntity
  8
レイヤー 1
 62
   250
420
  2299925
370
     9
100
AcDbSpline
210
0.0
220
0.0
230
1.0
 70
     9
 71
     3
 72
    17
 73
    13
 74
     0
 42
0.0000000001
 43
0.0000000001
 40
0.0
 40
0.0
 40
0.0
 40
0.0
 40
1.0
 40
1.0
 40
1.0
 40
2.0
 40
2.0
 40
2.0
 40
3.0
 40
3.0
 40
3.0
 40
4.0
 40
4.0
 40
4.0
 40
4.0
 10
90.09390491346584
 20
-160.5406932530681
 30
0.0
 10
90.09390491346584
 20
-160.5606604747809
 30
0.0
 10
90.07806519124731
 20
-160.576500196599
 30
0.0
 10
90.05876824680747
 20
-160.576500196599
 30
0.0
 10
90.03947130236861
 20
-160.576500196599
 30
0.0
 10
90.02363158014976
 20
-160.5606604747809
 30
0.0
 10
90.02363158014976
 20
-160.5406932530681
 30
0.0
 10
90.02363158014976
 20
-160.5213963091159
 30
0.0
 10
90.03947130236861
 20
-160.5055565872978
 30
0.0
 10
90.05876824680747
 20
-160.5055565872978
 30
0.0
 10
90.07806519124731
 20
-160.5055565872978
 30
0.0
 10
90.09390491346584
 20
-160.5213963091159
 30
0.0
 10
90.09390491346584
 20
-160.5406932530681
 30
0.0
  0
INSERT
  5
149
330
70
100
AcDbEntity
  8
レイヤー 1
100
AcDbBlockReference
  2
Block_4
 10
0.0
 20
0.0
 30
0.0
  0
ENDSEC
  0
SECTION
  2
OBJECTS
  0
DICTIONARY
  5
C
330
0
100
AcDbDictionary
281
     1
  3
ACAD_COLOR
350
63
  3
ACAD_DETAILVIEWSTYLE
350
6A
  3
ACAD_GROUP
350
D
  3
ACAD_LAYOUT
350
62
  3
ACAD_MATERIAL
350
10
  3
ACAD_MLEADERSTYLE
350
66
  3
ACAD_MLINESTYLE
350
5F
  3
ACAD_PLOTSETTINGS
350
61
  3
ACAD_PLOTSTYLENAME
350
E
  3
ACAD_SCALELIST
350
42
  3
ACAD_SECTIONVIEWSTYLE
350
68
  3
ACAD_TABLESTYLE
350
64
  3
ACAD_VISUALSTYLE
350
29
  3
ACDB_RECOMPOSE_DATA
350
179
  3
AcDbVariableDictionary
350
171
  0
DICTIONARY
  5
63
102
{ACAD_REACTORS
330
C
102
}
330
C
100
AcDbDictionary
281
     1
  0
DICTIONARY
  5
6A
102
{ACAD_REACTORS
330
C
102
}
330
C
100
AcDbDictionary
281
     1
  3
Imperial24
350
6B
  0
DICTIONARY
  5
D
102
{ACAD_REACTORS
330
C
102
}
330
C
100
AcDbDictionary
281
     1
  0
DICTIONARY
  5
62
102
{ACAD_REACTORS
330
C
102
}
330
C
100
AcDbDictionary
281
     1
  3
Layout1
350
6F
  3
Layout2
350
77
  3
Model
350
73
  0
DICTIONARY
  5
10
102
{ACAD_REACTORS
330
C
102
}
330
C
100
AcDbDictionary
281
     1
  3
ByBlock
350
19
  3
ByLayer
350
11
  3
Global
350
21
  0
DICTIONARY
  5
66
102
{ACAD_REACTORS
330
C
102
}
330
C
100
AcDbDictionary
281
     1
  3
Standard
350
67
  0
DICTIONARY
  5
5F
102
{ACAD_REACTORS
330
C
102
}
330
C
100
AcDbDictionary
281
     1
  3
Standard
350
60
  0
DICTIONARY
  5
61
102
{ACAD_REACTORS
330
C
102
}
330
C
100
AcDbDictionary
281
     1
  0
ACDBDICTIONARYWDFLT
  5
E
102
{ACAD_REACTORS
330
C
102
}
330
C
100
AcDbDictionary
281
     1
  3
Normal
350
F
100
AcDbDictionaryWithDefault
340
F
  0
DICTIONARY
  5
42
102
{ACAD_REACTORS
330
C
102
}
330
C
100
AcDbDictionary
281
     1
  3
A0
350
43
  3
A1
350
44
  3
A2
350
45
  3
A3
350
46
  3
A4
350
47
  3
A5
350
48
  3
A6
350
49
  3
A7
350
4A
  3
A8
350
4B
  3
A9
350
4C
  3
B0
350
4D
  3
B1
350
4E
  3
B2
350
4F
  3
B3
350
50
  3
B4
350
51
  3
B5
350
52
  3
B6
350
53
  0
DICTIONARY
  5
68
102
{ACAD_REACTORS
330
C
102
}
330
C
100
AcDbDictionary
281
     1
  3
Imperial24
350
69
  0
DICTIONARY
  5
64
102
{ACAD_REACTORS
330
C
102
}
330
C
100
AcDbDictionary
281
     1
  3
Standard
350
65
  0
DICTIONARY
  5
29
102
{ACAD_REACTORS
330
C
102
}
330
C
100
AcDbDictionary
281
     1
  3
2dWireframe
350
2F
  3
Basic
350
2E
  3
Brighten
350
35
  3
ColorChange
350
39
  3
Conceptual
350
32
  3
Dim
350
34
  3
EdgeColorOff
350
41
  3
Facepattern
350
38
  3
Flat
350
2A
  3
FlatWithEdges
350
2B
  3
Gouraud
350
2C
  3
GouraudWithEdges
350
2D
  3
Hidden
350
31
  3
JitterOff
350
3F
  3
Linepattern
350
37
  3
OverhangOff
350
40
  3
Realistic
350
33
  3
Shaded
350
3E
  3
Shaded with edges
350
3D
  3
Shades of Gray
350
3A
  3
Sketchy
350
3B
  3
Thicken
350
36
  3
Wireframe
350
30
  3
X-Ray
350
3C
  0
XRECORD
  5
179
102
{ACAD_REACTORS
330
C
102
}
330
C
100
AcDbXrecord
280
     1
 90
        1
330
65
  0
DICTIONARY
  5
171
102
{ACAD_REACTORS
330
C
102
}
330
C
100
AcDbDictionary
281
     1
  3
CANNOSCALE
350
176
  3
CMLEADERSTYLE
350
173
  3
CTABLESTYLE
350
172
  3
CVIEWDETAILSTYLE
350
174
  3
CVIEWSECTIONSTYLE
350
175
  0
ACDBDETAILVIEWSTYLE
  5
6B
102
{ACAD_XDICTIONARY
360
1AE
102
}
102
{ACAD_REACTORS
330
6A
102
}
330
6A
100
AcDbModelDocViewStyle
 70
     0
  3
Imperial24
290
     0
100
AcDbDetailViewStyle
 70
     0
 71
     0
 90
        3
 71
     1
340
55
 62
   256
 40
0.24
340
0
 62
   256
 40
0.24
300

 40
0.36
280
     3
 71
     2
340
5D
 90
       25
 62
   256
 71
     3
340
55
 62
   256
 40
0.24
 90
        1
 40
0.75
 90
        1
300
%<\AcVar ViewType \f "%tc1">% %<\AcVar ViewDetailId>%\PSCALE %<\AcVar ViewScale \f "%sn">%
 71
     4
340
5D
 90
       25
 62
   256
340
5D
 90
       25
 62
   256
280
     0
  0
LAYOUT
  5
6F
102
{ACAD_REACTORS
330
62
102
}
330
62
100
AcDbPlotSettings
  1

  2

  4

  6

 40
0.0
 41
0.0
 42
0.0
 43
0.0
 44
0.0
 45
0.0
 46
0.0
 47
0.0
 48
0.0
 49
0.0
140
0.0
141
0.0
142
1.0
143
1.0
 70
   688
 72
     0
 73
     0
 74
     5
  7

 75
    16
147
1.0
 76
     0
 77
     2
 78
   300
148
0.0
149
0.0
100
AcDbLayout
  1
Layout1
 70
     1
 71
     1
 10
0.0
 20
0.0
 11
12.0
 21
9.0
 12
0.0
 22
0.0
 32
0.0
 14
0.0
 24
0.0
 34
0.0
 15
0.0
 25
0.0
 35
0.0
146
0.0
 13
0.0
 23
0.0
 33
0.0
 16
1.0
 26
0.0
 36
0.0
 17
0.0
 27
1.0
 37
0.0
 76
     0
330
6C
  0
LAYOUT
  5
77
102
{ACAD_REACTORS
330
62
102
}
330
62
100
AcDbPlotSettings
  1

  2

  4

  6

 40
0.0
 41
0.0
 42
0.0
 43
0.0
 44
0.0
 45
0.0
 46
0.0
 47
0.0
 48
0.0
 49
0.0
140
0.0
141
0.0
142
1.0
143
1.0
 70
   688
 72
     0
 73
     0
 74
     5
  7

 75
    16
147
1.0
 76
     0
 77
     2
 78
   300
148
0.0
149
0.0
100
AcDbLayout
  1
Layout2
 70
     1
 71
     2
 10
0.0
 20
0.0
 11
12.0
 21
9.0
 12
0.0
 22
0.0
 32
0.0
 14
0.0
 24
0.0
 34
0.0
 15
0.0
 25
0.0
 35
0.0
146
0.0
 13
0.0
 23
0.0
 33
0.0
 16
1.0
 26
0.0
 36
0.0
 17
0.0
 27
1.0
 37
0.0
 76
     0
330
74
  0
LAYOUT
  5
73
102
{ACAD_REACTORS
330
62
102
}
330
62
100
AcDbPlotSettings
  1

  2

  4

  6

 40
0.0
 41
0.0
 42
0.0
 43
0.0
 44
0.0
 45
0.0
 46
0.0
 47
0.0
 48
0.0
 49
0.0
140
0.0
141
0.0
142
1.0
143
1.0
 70
  1712
 72
     0
 73
     0
 74
     0
  7

 75
     0
147
1.0
 76
     0
 77
     2
 78
   300
148
0.0
149
0.0
100
AcDbLayout
  1
Model
 70
     1
 71
     0
 10
0.0
 20
0.0
 11
12.0
 21
9.0
 12
0.0
 22
0.0
 32
0.0
 14
0.0
 24
0.0
 34
0.0
 15
0.0
 25
0.0
 35
0.0
146
0.0
 13
0.0
 23
0.0
 33
0.0
 16
1.0
 26
0.0
 36
0.0
 17
0.0
 27
1.0
 37
0.0
 76
     0
330
70
  0
MATERIAL
  5
19
102
{ACAD_XDICTIONARY
360
1A
102
}
102
{ACAD_REACTORS
330
10
102
}
330
10
100
AcDbMaterial
  1
ByBlock
 72
     0
 43
0.0208333333333333
 43
0.0
 43
0.0
 43
0.0
 43
0.0
 43
0.0208333333333333
 43
0.0
 43
0.0
 43
0.0
 43
0.0
 43
1.0
 43
0.0
 43
0.0
 43
0.0
 43
0.0
 43
1.0
 77
     0
 47
0.0208333333333333
 47
0.0
 47
0.0
 47
0.0
 47
0.0
 47
0.0208333333333333
 47
0.0
 47
0.0
 47
0.0
 47
0.0
 47
1.0
 47
0.0
 47
0.0
 47
0.0
 47
0.0
 47
1.0
171
     0
 49
0.0208333333333333
 49
0.0
 49
0.0
 49
0.0
 49
0.0
 49
0.0208333333333333
 49
0.0
 49
0.0
 49
0.0
 49
0.0
 49
1.0
 49
0.0
 49
0.0
 49
0.0
 49
0.0
 49
1.0
175
     0
142
0.0208333333333333
142
0.0
142
0.0
142
0.0
142
0.0
142
0.0208333333333333
142
0.0
142
0.0
142
0.0
142
0.0
142
1.0
142
0.0
142
0.0
142
0.0
142
0.0
142
1.0
179
     0
144
0.0208333333333333
144
0.0
144
0.0
144
0.0
144
0.0
144
0.0208333333333333
144
0.0
144
0.0
144
0.0
144
0.0
144
1.0
144
0.0
144
0.0
144
0.0
144
0.0
144
1.0
147
0.0208333333333333
147
0.0
147
0.0
147
0.0
147
0.0
147
0.0208333333333333
147
0.0
147
0.0
147
0.0
147
0.0
147
1.0
147
0.0
147
0.0
147
0.0
147
0.0
147
1.0
  0
MATERIAL
  5
11
102
{ACAD_XDICTIONARY
360
12
102
}
102
{ACAD_REACTORS
330
10
102
}
330
10
100
AcDbMaterial
  1
ByLayer
 72
     0
 43
0.0208333333333333
 43
0.0
 43
0.0
 43
0.0
 43
0.0
 43
0.0208333333333333
 43
0.0
 43
0.0
 43
0.0
 43
0.0
 43
1.0
 43
0.0
 43
0.0
 43
0.0
 43
0.0
 43
1.0
 77
     0
 47
0.0208333333333333
 47
0.0
 47
0.0
 47
0.0
 47
0.0
 47
0.0208333333333333
 47
0.0
 47
0.0
 47
0.0
 47
0.0
 47
1.0
 47
0.0
 47
0.0
 47
0.0
 47
0.0
 47
1.0
171
     0
 49
0.0208333333333333
 49
0.0
 49
0.0
 49
0.0
 49
0.0
 49
0.0208333333333333
 49
0.0
 49
0.0
 49
0.0
 49
0.0
 49
1.0
 49
0.0
 49
0.0
 49
0.0
 49
0.0
 49
1.0
175
     0
142
0.0208333333333333
142
0.0
142
0.0
142
0.0
142
0.0
142
0.0208333333333333
142
0.0
142
0.0
142
0.0
142
0.0
142
1.0
142
0.0
142
0.0
142
0.0
142
0.0
142
1.0
179
     0
144
0.0208333333333333
144
0.0
144
0.0
144
0.0
144
0.0
144
0.0208333333333333
144
0.0
144
0.0
144
0.0
144
0.0
144
1.0
144
0.0
144
0.0
144
0.0
144
0.0
144
1.0
147
0.0208333333333333
147
0.0
147
0.0
147
0.0
147
0.0
147
0.0208333333333333
147
0.0
147
0.0
147
0.0
147
0.0
147
1.0
147
0.0
147
0.0
147
0.0
147
0.0
147
1.0
  0
MATERIAL
  5
21
102
{ACAD_XDICTIONARY
360
22
102
}
102
{ACAD_REACTORS
330
10
102
}
330
10
100
AcDbMaterial
  1
Global
 72
     0
 43
0.0208333333333333
 43
0.0
 43
0.0
 43
0.0
 43
0.0
 43
0.0208333333333333
 43
0.0
 43
0.0
 43
0.0
 43
0.0
 43
1.0
 43
0.0
 43
0.0
 43
0.0
 43
0.0
 43
1.0
 77
     0
 47
0.0208333333333333
 47
0.0
 47
0.0
 47
0.0
 47
0.0
 47
0.0208333333333333
 47
0.0
 47
0.0
 47
0.0
 47
0.0
 47
1.0
 47
0.0
 47
0.0
 47
0.0
 47
0.0
 47
1.0
171
     0
 49
0.0208333333333333
 49
0.0
 49
0.0
 49
0.0
 49
0.0
 49
0.0208333333333333
 49
0.0
 49
0.0
 49
0.0
 49
0.0
 49
1.0
 49
0.0
 49
0.0
 49
0.0
 49
0.0
 49
1.0
175
     0
142
0.0208333333333333
142
0.0
142
0.0
142
0.0
142
0.0
142
0.0208333333333333
142
0.0
142
0.0
142
0.0
142
0.0
142
1.0
142
0.0
142
0.0
142
0.0
142
0.0
142
1.0
179
     0
144
0.0208333333333333
144
0.0
144
0.0
144
0.0
144
0.0
144
0.0208333333333333
144
0.0
144
0.0
144
0.0
144
0.0
144
1.0
144
0.0
144
0.0
144
0.0
144
0.0
144
1.0
147
0.0208333333333333
147
0.0
147
0.0
147
0.0
147
0.0
147
0.0208333333333333
147
0.0
147
0.0
147
0.0
147
0.0
147
1.0
147
0.0
147
0.0
147
0.0
147
0.0
147
1.0
  0
MLEADERSTYLE
  5
67
102
{ACAD_XDICTIONARY
360
1AA
102
}
102
{ACAD_REACTORS
330
66
102
}
330
66
100
AcDbMLeaderStyle
179
     2
170
     2
171
     1
172
     0
 90
        2
 40
0.0
 41
0.0
173
     1
 91
-1056964608
340
5B
 92
       -2
290
     1
 42
0.09
291
     1
 43
0.36
  3
Standard
 44
0.18
300

342
55
174
     1
178
     6
175
     1
176
     0
 93
-1056964608
 45
0.18
292
     0
297
     0
 46
0.18
 94
-1056964608
 47
1.0
 49
1.0
140
1.0
293
     1
141
0.0
294
     1
177
     0
142
1.0
295
     0
296
     0
143
0.125
271
     0
272
     9
273
     9
  0
MLINESTYLE
  5
60
102
{ACAD_REACTORS
330
5F
102
}
330
5F
100
AcDbMlineStyle
  2
STANDARD
 70
     0
  3

 62
   256
 51
90.0
 52
90.0
 71
     2
 49
0.5
 62
   256
  6
BYLAYER
 49
-0.5
 62
   256
  6
BYLAYER
  0
ACDBPLACEHOLDER
  5
F
102
{ACAD_REACTORS
330
E
102
}
330
E
  0
SCALE
  5
43
102
{ACAD_REACTORS
330
42
102
}
330
42
100
AcDbScale
 70
     0
300
1:1
140
1.0
141
1.0
290
     1
  0
SCALE
  5
44
102
{ACAD_REACTORS
330
42
102
}
330
42
100
AcDbScale
 70
     0
300
1/128" = 1'-0"
140
0.0078125
141
12.0
290
     0
  0
SCALE
  5
45
102
{ACAD_REACTORS
330
42
102
}
330
42
100
AcDbScale
 70
     0
300
1/64" = 1'-0"
140
0.015625
141
12.0
290
     0
  0
SCALE
  5
46
102
{ACAD_REACTORS
330
42
102
}
330
42
100
AcDbScale
 70
     0
300
1/32" = 1'-0"
140
0.03125
141
12.0
290
     0
  0
SCALE
  5
47
102
{ACAD_REACTORS
330
42
102
}
330
42
100
AcDbScale
 70
     0
300
1/16" = 1'-0"
140
0.0625
141
12.0
290
     0
  0
SCALE
  5
48
102
{ACAD_REACTORS
330
42
102
}
330
42
100
AcDbScale
 70
     0
300
3/32" = 1'-0"
140
0.09375
141
12.0
290
     0
  0
SCALE
  5
49
102
{ACAD_REACTORS
330
42
102
}
330
42
100
AcDbScale
 70
     0
300
1/8" = 1'-0"
140
0.125
141
12.0
290
     0
  0
SCALE
  5
4A
102
{ACAD_REACTORS
330
42
102
}
330
42
100
AcDbScale
 70
     0
300
3/16" = 1'-0"
140
0.1875
141
12.0
290
     0
  0
SCALE
  5
4B
102
{ACAD_REACTORS
330
42
102
}
330
42
100
AcDbScale
 70
     0
300
1/4" = 1'-0"
140
0.25
141
12.0
290
     0
  0
SCALE
  5
4C
102
{ACAD_REACTORS
330
42
102
}
330
42
100
AcDbScale
 70
     0
300
3/8" = 1'-0"
140
0.375
141
12.0
290
     0
  0
SCALE
  5
4D
102
{ACAD_REACTORS
330
42
102
}
330
42
100
AcDbScale
 70
     0
300
1/2" = 1'-0"
140
0.5
141
12.0
290
     0
  0
SCALE
  5
4E
102
{ACAD_REACTORS
330
42
102
}
330
42
100
AcDbScale
 70
     0
300
3/4" = 1'-0"
140
0.75
141
12.0
290
     0
  0
SCALE
  5
4F
102
{ACAD_REACTORS
330
42
102
}
330
42
100
AcDbScale
 70
     0
300
1" = 1'-0"
140
1.0
141
12.0
290
     0
  0
SCALE
  5
50
102
{ACAD_REACTORS
330
42
102
}
330
42
100
AcDbScale
 70
     0
300
1-1/2" = 1'-0"
140
1.5
141
12.0
290
     0
  0
SCALE
  5
51
102
{ACAD_REACTORS
330
42
102
}
330
42
100
AcDbScale
 70
     0
300
3" = 1'-0"
140
3.0
141
12.0
290
     0
  0
SCALE
  5
52
102
{ACAD_REACTORS
330
42
102
}
330
42
100
AcDbScale
 70
     0
300
6" = 1'-0"
140
6.0
141
12.0
290
     0
  0
SCALE
  5
53
102
{ACAD_REACTORS
330
42
102
}
330
42
100
AcDbScale
 70
     0
300
1'-0" = 1'-0"
140
12.0
141
12.0
290
     0
  0
ACDBSECTIONVIEWSTYLE
  5
69
102
{ACAD_XDICTIONARY
360
1AC
102
}
102
{ACAD_REACTORS
330
68
102
}
330
68
100
AcDbModelDocViewStyle
 70
     0
  3
Imperial24
290
     0
100
AcDbSectionViewStyle
 70
     0
 71
     0
 90
       78
 71
     1
340
55
 62
   256
 40
0.24
340
0
340
0
 62
   256
 40
0.24
300
I, O, Q, S, X, Z
 40
0.48
 90
        3
 40
0.18
 90
        1
 71
     2
340
5D
 90
       25
 62
   256
340
5D
 90
       50
 62
   256
 40
0.24
 40
0.0
 40
0.24
 71
     3
340
55
 62
   256
 40
0.24
 90
        1
 40
0.75
 90
        1
300
%<\AcVar ViewType \f "%tc1">% %<\AcVar ViewSectionStartId>%-%<\AcVar ViewSectionEndId>%\PSCALE %<\AcVar ViewScale \f "%sn">%
 71
     4
 62
   256
 62
   257
300
ANSI31
 40
1.0
 90
        0
290
     0
290
     0
 90
        6
 40
0.0
 40
1.570796326794896
 40
0.2617993877991494
 40
1.308996938995747
 40
-0.2617993877991494
 40
1.832595714594046
  0
TABLESTYLE
  5
65
102
{ACAD_XDICTIONARY
360
177
102
}
102
{ACAD_REACTORS
330
64
102
}
330
64
100
AcDbTableStyle
280
     0
  3
Standard
 70
     0
 71
     0
 40
0.06
 41
0.06
280
     0
281
     0
  7
Standard
140
0.18
170
     2
 62
     0
 63
     7
283
     0
 90
      512
 91
        0
  1

274
    -2
284
     1
 64
     0
275
    -2
285
     1
 65
     0
276
    -2
286
     1
 66
     0
277
    -2
287
     1
 67
     0
278
    -2
288
     1
 68
     0
279
    -2
289
     1
 69
     0
  7
Standard
140
0.25
170
     5
 62
     0
 63
     7
283
     0
 90
      512
 91
        0
  1

274
    -2
284
     1
 64
     0
275
    -2
285
     1
 65
     0
276
    -2
286
     1
 66
     0
277
    -2
287
     1
 67
     0
278
    -2
288
     1
 68
     0
279
    -2
289
     1
 69
     0
  7
Standard
140
0.18
170
     5
 62
     0
 63
     7
283
     0
 90
      512
 91
        0
  1

274
    -2
284
     1
 64
     0
275
    -2
285
     1
 65
     0
276
    -2
286
     1
 66
     0
277
    -2
287
     1
 67
     0
278
    -2
288
     1
 68
     0
279
    -2
289
     1
 69
     0
  0
VISUALSTYLE
  5
2F
102
{ACAD_XDICTIONARY
360
184
102
}
102
{ACAD_REACTORS
330
29
102
}
330
29
100
AcDbVisualStyle
  2
2dWireframe
 70
     4
177
     2
291
     0
 71
     0
176
     1
 72
     2
176
     1
 73
     0
176
     1
 90
        0
176
     1
 40
0.6
176
     1
 41
30.0
176
     1
 63
     7
421
 16777215
176
     1
 74
     1
176
     1
 91
        4
176
     1
 64
     7
176
     1
 65
   257
176
     1
 75
     1
176
     1
175
     1
176
     1
 42
1.0
176
     1
 92
        0
176
     1
 66
   257
176
     1
 43
1.0
176
     1
 76
     1
176
     1
 77
     6
176
     1
 78
     2
176
     1
 67
     7
176
     1
 79
     5
176
     1
170
     0
176
     1
171
     0
176
     1
290
     0
176
     1
 93
        1
176
     1
 44
0.0
176
     1
173
     0
176
     1
1001
ACAD
1000
AcDbSavedByObjectVersion
1070
     0
  0
VISUALSTYLE
  5
2E
102
{ACAD_XDICTIONARY
360
182
102
}
102
{ACAD_REACTORS
330
29
102
}
330
29
100
AcDbVisualStyle
  2
Basic
 70
     7
177
     2
291
     1
 71
     1
176
     1
 72
     0
176
     1
 73
     1
176
     1
 90
        0
176
     1
 40
0.6
176
     1
 41
30.0
176
     1
 63
     7
421
 16777215
176
     1
 74
     0
176
     1
 91
        4
176
     1
 64
     7
176
     1
 65
   257
176
     1
 75
     1
176
     1
175
     1
176
     1
 42
1.0
176
     1
 92
        8
176
     1
 66
     7
176
     1
 43
1.0
176
     1
 76
     1
176
     1
 77
     6
176
     1
 78
     2
176
     1
 67
     7
176
     1
 79
     5
176
     1
170
     0
176
     1
171
     0
176
     1
290
     0
176
     1
 93
        1
176
     1
 44
0.0
176
     1
173
     0
176
     1
1001
ACAD
1000
AcDbSavedByObjectVersion
1070
     0
  0
VISUALSTYLE
  5
35
102
{ACAD_XDICTIONARY
360
190
102
}
102
{ACAD_REACTORS
330
29
102
}
330
29
100
AcDbVisualStyle
  2
Brighten
 70
    12
177
     2
291
     1
 71
     2
176
     1
 72
     2
176
     1
 73
     0
176
     1
 90
        0
176
     1
 40
0.6
176
     1
 41
30.0
176
     1
 63
     7
421
 16777215
176
     1
 74
     1
176
     1
 91
        4
176
     1
 64
     7
176
     1
 65
   257
176
     1
 75
     1
176
     1
175
     1
176
     1
 42
1.0
176
     1
 92
        8
176
     1
 66
     7
176
     1
 43
1.0
176
     1
 76
     1
176
     1
 77
     6
176
     1
 78
     2
176
     1
 67
     7
176
     1
 79
     5
176
     1
170
     0
176
     1
171
     0
176
     1
290
     0
176
     1
 93
        1
176
     1
 44
50.0
176
     1
173
     0
176
     1
1001
ACAD
1000
AcDbSavedByObjectVersion
1070
     0
  0
VISUALSTYLE
  5
39
102
{ACAD_XDICTIONARY
360
198
102
}
102
{ACAD_REACTORS
330
29
102
}
330
29
100
AcDbVisualStyle
  2
ColorChange
 70
    16
177
     2
291
     1
 71
     2
176
     1
 72
     2
176
     1
 73
     3
176
     1
 90
        0
176
     1
 40
0.6
176
     1
 41
30.0
176
     1
 63
     8
421
  8421504
176
     1
 74
     1
176
     1
 91
        4
176
     1
 64
     7
176
     1
 65
   257
176
     1
 75
     1
176
     1
175
     1
176
     1
 42
1.0
176
     1
 92
        8
176
     1
 66
     8
424
  8421504
176
     1
 43
1.0
176
     1
 76
     1
176
     1
 77
     6
176
     1
 78
     2
176
     1
 67
     7
176
     1
 79
     5
176
     1
170
     0
176
     1
171
     0
176
     1
290
     0
176
     1
 93
        1
176
     1
 44
0.0
176
     1
173
     0
176
     1
1001
ACAD
1000
AcDbSavedByObjectVersion
1070
     0
  0
VISUALSTYLE
  5
32
102
{ACAD_XDICTIONARY
360
18A
102
}
102
{ACAD_REACTORS
330
29
102
}
330
29
100
AcDbVisualStyle
  2
Conceptual
 70
     9
177
     2
291
     0
 71
     3
176
     1
 72
     2
176
     1
 73
     0
176
     1
 90
        0
176
     1
 40
0.6
176
     1
 41
30.0
176
     1
 63
     7
421
 16777215
176
     1
 74
     2
176
     1
 91
        2
176
     1
 64
     7
176
     1
 65
   257
176
     1
 75
     1
176
     1
175
     1
176
     1
 42
179.0
176
     1
 92
        8
176
     1
 66
     7
176
     1
 43
1.0
176
     1
 76
     1
176
     1
 77
     6
176
     1
 78
     2
176
     1
 67
     7
176
     1
 79
     3
176
     1
170
     0
176
     1
171
     0
176
     1
290
     0
176
     1
 93
        1
176
     1
 44
0.0
176
     1
173
     0
176
     1
1001
ACAD
1000
AcDbSavedByObjectVersion
1070
     0
  0
VISUALSTYLE
  5
34
102
{ACAD_XDICTIONARY
360
18E
102
}
102
{ACAD_REACTORS
330
29
102
}
330
29
100
AcDbVisualStyle
  2
Dim
 70
    11
177
     2
291
     1
 71
     2
176
     1
 72
     2
176
     1
 73
     0
176
     1
 90
        0
176
     1
 40
0.6
176
     1
 41
30.0
176
     1
 63
     7
421
 16777215
176
     1
 74
     1
176
     1
 91
        4
176
     1
 64
     7
176
     1
 65
   257
176
     1
 75
     1
176
     1
175
     1
176
     1
 42
1.0
176
     1
 92
        8
176
     1
 66
     7
176
     1
 43
1.0
176
     1
 76
     1
176
     1
 77
     6
176
     1
 78
     2
176
     1
 67
     7
176
     1
 79
     5
176
     1
170
     0
176
     1
171
     0
176
     1
290
     0
176
     1
 93
        1
176
     1
 44
-50.0
176
     1
173
     0
176
     1
1001
ACAD
1000
AcDbSavedByObjectVersion
1070
     0
  0
VISUALSTYLE
  5
41
102
{ACAD_XDICTIONARY
360
1A8
102
}
102
{ACAD_REACTORS
330
29
102
}
330
29
100
AcDbVisualStyle
  2
EdgeColorOff
 70
    22
177
     2
291
     1
 71
     2
176
     0
 72
     2
176
     0
 73
     0
176
     0
 90
        0
176
     0
 40
0.6
176
     0
 41
30.0
176
     0
 63
     7
421
 16777215
176
     0
 74
     1
176
     0
 91
        4
176
     0
 64
     7
176
     0
 65
   257
176
     0
 75
     1
176
     0
175
     1
176
     0
 42
1.0
176
     0
 92
        8
176
     2
 66
     7
176
     0
 43
1.0
176
     0
 76
     1
176
     0
 77
     6
176
     0
 78
     2
176
     0
 67
     7
176
     0
 79
     5
176
     0
170
     0
176
     0
171
     0
176
     0
290
     0
176
     0
 93
        1
176
     0
 44
0.0
176
     0
173
     0
176
     0
1001
ACAD
1000
AcDbSavedByObjectVersion
1070
     0
  0
VISUALSTYLE
  5
38
102
{ACAD_XDICTIONARY
360
196
102
}
102
{ACAD_REACTORS
330
29
102
}
330
29
100
AcDbVisualStyle
  2
Facepattern
 70
    15
177
     2
291
     1
 71
     2
176
     1
 72
     2
176
     1
 73
     0
176
     1
 90
        0
176
     1
 40
0.6
176
     1
 41
30.0
176
     1
 63
     7
421
 16777215
176
     1
 74
     1
176
     1
 91
        4
176
     1
 64
     7
176
     1
 65
   257
176
     1
 75
     1
176
     1
175
     1
176
     1
 42
1.0
176
     1
 92
        8
176
     1
 66
     7
176
     1
 43
1.0
176
     1
 76
     1
176
     1
 77
     6
176
     1
 78
     2
176
     1
 67
     7
176
     1
 79
     5
176
     1
170
     0
176
     1
171
     0
176
     1
290
     0
176
     1
 93
        1
176
     1
 44
0.0
176
     1
173
     0
176
     1
1001
ACAD
1000
AcDbSavedByObjectVersion
1070
     0
  0
VISUALSTYLE
  5
2A
102
{ACAD_XDICTIONARY
360
17A
102
}
102
{ACAD_REACTORS
330
29
102
}
330
29
100
AcDbVisualStyle
  2
Flat
 70
     0
177
     2
291
     1
 71
     2
176
     1
 72
     1
176
     1
 73
     1
176
     1
 90
        2
176
     1
 40
0.6
176
     1
 41
30.0
176
     1
 63
     7
421
 16777215
176
     1
 74
     0
176
     1
 91
        0
176
     1
 64
     7
176
     1
 65
   257
176
     1
 75
     1
176
     1
175
     1
176
     1
 42
1.0
176
     1
 92
        8
176
     1
 66
     7
176
     1
 43
1.0
176
     1
 76
     1
176
     1
 77
     6
176
     1
 78
     2
176
     1
 67
     7
176
     1
 79
     5
176
     1
170
     0
176
     1
171
     0
176
     1
290
     0
176
     1
 93
       13
176
     1
 44
0.0
176
     1
173
     0
176
     1
1001
ACAD
1000
AcDbSavedByObjectVersion
1070
     0
  0
VISUALSTYLE
  5
2B
102
{ACAD_XDICTIONARY
360
17C
102
}
102
{ACAD_REACTORS
330
29
102
}
330
29
100
AcDbVisualStyle
  2
FlatWithEdges
 70
     1
177
     2
291
     1
 71
     2
176
     1
 72
     1
176
     1
 73
     1
176
     1
 90
        2
176
     1
 40
0.6
176
     1
 41
30.0
176
     1
 63
     7
421
 16777215
176
     1
 74
     1
176
     1
 91
        0
176
     1
 64
     7
176
     1
 65
   257
176
     1
 75
     1
176
     1
175
     1
176
     1
 42
1.0
176
     1
 92
        0
176
     1
 66
   257
176
     1
 43
1.0
176
     1
 76
     1
176
     1
 77
     6
176
     1
 78
     2
176
     1
 67
     7
176
     1
 79
     5
176
     1
170
     0
176
     1
171
     0
176
     1
290
     0
176
     1
 93
       13
176
     1
 44
0.0
176
     1
173
     0
176
     1
1001
ACAD
1000
AcDbSavedByObjectVersion
1070
     0
  0
VISUALSTYLE
  5
2C
102
{ACAD_XDICTIONARY
360
17E
102
}
102
{ACAD_REACTORS
330
29
102
}
330
29
100
AcDbVisualStyle
  2
Gouraud
 70
     2
177
     2
291
     1
 71
     2
176
     1
 72
     2
176
     1
 73
     1
176
     1
 90
        2
176
     1
 40
0.6
176
     1
 41
30.0
176
     1
 63
     7
421
 16777215
176
     1
 74
     0
176
     1
 91
        0
176
     1
 64
     7
176
     1
 65
   257
176
     1
 75
     1
176
     1
175
     1
176
     1
 42
1.0
176
     1
 92
        0
176
     1
 66
     7
176
     1
 43
1.0
176
     1
 76
     1
176
     1
 77
     6
176
     1
 78
     2
176
     1
 67
     7
176
     1
 79
     5
176
     1
170
     0
176
     1
171
     0
176
     1
290
     0
176
     1
 93
       13
176
     1
 44
0.0
176
     1
173
     0
176
     1
1001
ACAD
1000
AcDbSavedByObjectVersion
1070
     0
  0
VISUALSTYLE
  5
2D
102
{ACAD_XDICTIONARY
360
180
102
}
102
{ACAD_REACTORS
330
29
102
}
330
29
100
AcDbVisualStyle
  2
GouraudWithEdges
 70
     3
177
     2
291
     1
 71
     2
176
     1
 72
     2
176
     1
 73
     1
176
     1
 90
        2
176
     1
 40
0.6
176
     1
 41
30.0
176
     1
 63
     7
421
 16777215
176
     1
 74
     1
176
     1
 91
        0
176
     1
 64
     7
176
     1
 65
   257
176
     1
 75
     1
176
     1
175
     1
176
     1
 42
1.0
176
     1
 92
        0
176
     1
 66
   257
176
     1
 43
1.0
176
     1
 76
     1
176
     1
 77
     6
176
     1
 78
     2
176
     1
 67
     7
176
     1
 79
     5
176
     1
170
     0
176
     1
171
     0
176
     1
290
     0
176
     1
 93
       13
176
     1
 44
0.0
176
     1
173
     0
176
     1
1001
ACAD
1000
AcDbSavedByObjectVersion
1070
     0
  0
VISUALSTYLE
  5
31
102
{ACAD_XDICTIONARY
360
188
102
}
102
{ACAD_REACTORS
330
29
102
}
330
29
100
AcDbVisualStyle
  2
Hidden
 70
     6
177
     2
291
     0
 71
     1
176
     1
 72
     2
176
     1
 73
     2
176
     1
 90
        0
176
     1
 40
0.6
176
     1
 41
30.0
176
     1
 63
     7
421
 16777215
176
     1
 74
     2
176
     1
 91
        2
176
     1
 64
     7
176
     1
 65
   257
176
     1
 75
     2
176
     1
175
     1
176
     1
 42
40.0
176
     1
 92
        0
176
     1
 66
   257
176
     1
 43
1.0
176
     1
 76
     1
176
     1
 77
     6
176
     1
 78
     2
176
     1
 67
     7
176
     1
 79
     3
176
     1
170
     0
176
     1
171
     0
176
     1
290
     0
176
     1
 93
        1
176
     1
 44
0.0
176
     1
173
     0
176
     1
1001
ACAD
1000
AcDbSavedByObjectVersion
1070
     0
  0
VISUALSTYLE
  5
3F
102
{ACAD_XDICTIONARY
360
1A4
102
}
102
{ACAD_REACTORS
330
29
102
}
330
29
100
AcDbVisualStyle
  2
JitterOff
 70
    20
177
     2
291
     1
 71
     2
176
     0
 72
     2
176
     0
 73
     0
176
     0
 90
        0
176
     0
 40
0.6
176
     0
 41
30.0
176
     0
 63
     7
421
 16777215
176
     0
 74
     1
176
     0
 91
        4
176
     0
 64
     7
176
     0
 65
   257
176
     0
 75
     1
176
     0
175
     1
176
     0
 42
1.0
176
     0
 92
       10
176
     2
 66
     7
176
     0
 43
1.0
176
     0
 76
     1
176
     0
 77
     6
176
     0
 78
     2
176
     0
 67
     7
176
     0
 79
     5
176
     0
170
     0
176
     0
171
     0
176
     0
290
     0
176
     0
 93
        1
176
     0
 44
0.0
176
     0
173
     0
176
     0
1001
ACAD
1000
AcDbSavedByObjectVersion
1070
     0
  0
VISUALSTYLE
  5
37
102
{ACAD_XDICTIONARY
360
194
102
}
102
{ACAD_REACTORS
330
29
102
}
330
29
100
AcDbVisualStyle
  2
Linepattern
 70
    14
177
     2
291
     1
 71
     2
176
     1
 72
     2
176
     1
 73
     0
176
     1
 90
        0
176
     1
 40
0.6
176
     1
 41
30.0
176
     1
 63
     7
421
 16777215
176
     1
 74
     1
176
     1
 91
        4
176
     1
 64
     7
176
     1
 65
   257
176
     1
 75
     7
176
     1
175
     7
176
     1
 42
1.0
176
     1
 92
        8
176
     1
 66
     7
176
     1
 43
1.0
176
     1
 76
     1
176
     1
 77
     6
176
     1
 78
     2
176
     1
 67
     7
176
     1
 79
     5
176
     1
170
     0
176
     1
171
     0
176
     1
290
     0
176
     1
 93
        1
176
     1
 44
0.0
176
     1
173
     0
176
     1
1001
ACAD
1000
AcDbSavedByObjectVersion
1070
     0
  0
VISUALSTYLE
  5
40
102
{ACAD_XDICTIONARY
360
1A6
102
}
102
{ACAD_REACTORS
330
29
102
}
330
29
100
AcDbVisualStyle
  2
OverhangOff
 70
    21
177
     2
291
     1
 71
     2
176
     0
 72
     2
176
     0
 73
     0
176
     0
 90
        0
176
     0
 40
0.6
176
     0
 41
30.0
176
     0
 63
     7
421
 16777215
176
     0
 74
     1
176
     0
 91
        4
176
     0
 64
     7
176
     0
 65
   257
176
     0
 75
     1
176
     0
175
     1
176
     0
 42
1.0
176
     0
 92
        9
176
     2
 66
     7
176
     0
 43
1.0
176
     0
 76
     1
176
     0
 77
     6
176
     0
 78
     2
176
     0
 67
     7
176
     0
 79
     5
176
     0
170
     0
176
     0
171
     0
176
     0
290
     0
176
     0
 93
        1
176
     0
 44
0.0
176
     0
173
     0
176
     0
1001
ACAD
1000
AcDbSavedByObjectVersion
1070
     0
  0
VISUALSTYLE
  5
33
102
{ACAD_XDICTIONARY
360
18C
102
}
102
{ACAD_REACTORS
330
29
102
}
330
29
100
AcDbVisualStyle
  2
Realistic
 70
     8
177
     2
291
     0
 71
     2
176
     1
 72
     3
176
     1
 73
     0
176
     1
 90
        2
176
     1
 40
0.6
176
     1
 41
30.0
176
     1
 63
     7
421
 16777215
176
     1
 74
     0
176
     1
 91
        0
176
     1
 64
     7
176
     1
 65
   257
176
     1
 75
     1
176
     1
175
     1
176
     1
 42
1.0
176
     1
 92
        8
176
     1
 66
   257
176
     1
 43
1.0
176
     1
 76
     1
176
     1
 77
     6
176
     1
 78
     2
176
     1
 67
     7
176
     1
 79
     3
176
     1
170
     0
176
     1
171
     0
176
     1
290
     0
176
     1
 93
       13
176
     1
 44
0.0
176
     1
173
     0
176
     1
1001
ACAD
1000
AcDbSavedByObjectVersion
1070
     0
  0
VISUALSTYLE
  5
3E
102
{ACAD_XDICTIONARY
360
1A2
102
}
102
{ACAD_REACTORS
330
29
102
}
330
29
100
AcDbVisualStyle
  2
Shaded
 70
    27
177
     2
291
     0
 71
     2
176
     1
 72
     2
176
     1
 73
     1
176
     1
 90
        2
176
     1
 40
0.6
176
     1
 41
30.0
176
     1
 63
     7
421
 16777215
176
     1
 74
     0
176
     1
 91
        4
176
     1
 64
     7
176
     1
 65
   257
176
     1
 75
     1
176
     1
175
     1
176
     1
 42
1.0
176
     1
 92
        8
176
     1
 66
   257
176
     1
 43
1.0
176
     1
 76
     1
176
     1
 77
     6
176
     1
 78
     2
176
     1
 67
     8
425
  7895160
176
     1
 79
     3
176
     1
170
     0
176
     1
171
     0
176
     1
290
     0
176
     1
 93
        5
176
     1
 44
0.0
176
     1
173
     0
176
     1
1001
ACAD
1000
AcDbSavedByObjectVersion
1070
     0
  0
VISUALSTYLE
  5
3D
102
{ACAD_XDICTIONARY
360
1A0
102
}
102
{ACAD_REACTORS
330
29
102
}
330
29
100
AcDbVisualStyle
  2
Shaded with edges
 70
    26
177
     2
291
     0
 71
     2
176
     1
 72
     2
176
     1
 73
     1
176
     1
 90
        2
176
     1
 40
0.6
176
     1
 41
30.0
176
     1
 63
     7
421
 16777215
176
     1
 74
     1
176
     1
 91
        2
176
     1
 64
     7
176
     1
 65
   257
176
     1
 75
     2
176
     1
175
     1
176
     1
 42
1.0
176
     1
 92
        8
176
     1
 66
   257
176
     1
 43
1.0
176
     1
 76
     1
176
     1
 77
     6
176
     1
 78
     2
176
     1
 67
     7
176
     1
 79
     3
176
     1
170
     0
176
     1
171
     0
176
     1
290
     0
176
     1
 93
        5
176
     1
 44
0.0
176
     1
173
     0
176
     1
1001
ACAD
1000
AcDbSavedByObjectVersion
1070
     0
  0
VISUALSTYLE
  5
3A
102
{ACAD_XDICTIONARY
360
19A
102
}
102
{ACAD_REACTORS
330
29
102
}
330
29
100
AcDbVisualStyle
  2
Shades of Gray
 70
    23
177
     2
291
     0
 71
     2
176
     1
 72
     2
176
     1
 73
     3
176
     1
 90
        0
176
     1
 40
0.6
176
     1
 41
30.0
176
     1
 63
     7
421
 16777215
176
     1
 74
     2
176
     1
 91
        2
176
     1
 64
     7
176
     1
 65
     7
176
     1
 75
     1
176
     1
175
     1
176
     1
 42
40.0
176
     1
 92
        8
176
     1
 66
     7
176
     1
 43
1.0
176
     1
 76
     1
176
     1
 77
     6
176
     1
 78
     2
176
     1
 67
     7
176
     1
 79
     3
176
     1
170
     0
176
     1
171
     0
176
     1
290
     0
176
     1
 93
        1
176
     1
 44
0.0
176
     1
173
     0
176
     1
1001
ACAD
1000
AcDbSavedByObjectVersion
1070
     0
  0
VISUALSTYLE
  5
3B
102
{ACAD_XDICTIONARY
360
19C
102
}
102
{ACAD_REACTORS
330
29
102
}
330
29
100
AcDbVisualStyle
  2
Sketchy
 70
    24
177
     2
291
     0
 71
     1
176
     1
 72
     2
176
     1
 73
     2
176
     1
 90
        0
176
     1
 40
0.6
176
     1
 41
30.0
176
     1
 63
     7
421
 16777215
176
     1
 74
     2
176
     1
 91
        2
176
     1
 64
     7
176
     1
 65
     7
176
     1
 75
     1
176
     1
175
     1
176
     1
 42
40.0
176
     1
 92
       11
176
     1
 66
     7
176
     1
 43
1.0
176
     1
 76
     1
176
     1
 77
     6
176
     1
 78
     2
176
     1
 67
     7
176
     1
 79
     6
176
     1
170
     0
176
     1
171
     0
176
     1
290
     0
176
     1
 93
        1
176
     1
 44
0.0
176
     1
173
     0
176
     1
1001
ACAD
1000
AcDbSavedByObjectVersion
1070
     0
  0
VISUALSTYLE
  5
36
102
{ACAD_XDICTIONARY
360
192
102
}
102
{ACAD_REACTORS
330
29
102
}
330
29
100
AcDbVisualStyle
  2
Thicken
 70
    13
177
     2
291
     1
 71
     2
176
     1
 72
     2
176
     1
 73
     0
176
     1
 90
        0
176
     1
 40
0.6
176
     1
 41
30.0
176
     1
 63
     7
421
 16777215
176
     1
 74
     1
176
     1
 91
        4
176
     1
 64
     7
176
     1
 65
   257
176
     1
 75
     1
176
     1
175
     1
176
     1
 42
1.0
176
     1
 92
       12
176
     1
 66
     7
176
     1
 43
1.0
176
     1
 76
     1
176
     1
 77
     6
176
     1
 78
     2
176
     1
 67
     7
176
     1
 79
     5
176
     1
170
     0
176
     1
171
     0
176
     1
290
     0
176
     1
 93
        1
176
     1
 44
0.0
176
     1
173
     0
176
     1
1001
ACAD
1000
AcDbSavedByObjectVersion
1070
     0
  0
VISUALSTYLE
  5
30
102
{ACAD_XDICTIONARY
360
186
102
}
102
{ACAD_REACTORS
330
29
102
}
330
29
100
AcDbVisualStyle
  2
Wireframe
 70
     5
177
     2
291
     0
 71
     0
176
     1
 72
     2
176
     1
 73
     0
176
     1
 90
        0
176
     1
 40
0.6
176
     1
 41
30.0
176
     1
 63
     7
421
 16777215
176
     1
 74
     1
176
     1
 91
        4
176
     1
 64
     7
176
     1
 65
   257
176
     1
 75
     1
176
     1
175
     1
176
     1
 42
1.0
176
     1
 92
        0
176
     1
 66
   257
176
     1
 43
1.0
176
     1
 76
     1
176
     1
 77
     6
176
     1
 78
     2
176
     1
 67
     7
176
     1
 79
     3
176
     1
170
     0
176
     1
171
     0
176
     1
290
     0
176
     1
 93
        1
176
     1
 44
0.0
176
     1
173
     0
176
     1
1001
ACAD
1000
AcDbSavedByObjectVersion
1070
     0
  0
VISUALSTYLE
  5
3C
102
{ACAD_XDICTIONARY
360
19E
102
}
102
{ACAD_REACTORS
330
29
102
}
330
29
100
AcDbVisualStyle
  2
X-Ray
 70
    25
177
     2
291
     0
 71
     2
176
     1
 72
     2
176
     1
 73
     1
176
     1
 90
        1
176
     1
 40
0.5
176
     1
 41
30.0
176
     1
 63
     7
421
 16777215
176
     1
 74
     1
176
     1
 91
        0
176
     1
 64
     7
176
     1
 65
   257
176
     1
 75
     1
176
     1
175
     1
176
     1
 42
1.0
176
     1
 92
        8
176
     1
 66
     7
176
     1
 43
1.0
176
     1
 76
     1
176
     1
 77
     6
176
     1
 78
     2
176
     1
 67
     7
176
     1
 79
     3
176
     1
170
     0
176
     1
171
     0
176
     1
290
     0
176
     1
 93
       13
176
     1
 44
0.0
176
     1
173
     0
176
     1
1001
ACAD
1000
AcDbSavedByObjectVersion
1070
     0
  0
DICTIONARYVAR
  5
176
102
{ACAD_REACTORS
330
171
102
}
330
171
100
DictionaryVariables
280
     0
  1
1:1
  0
DICTIONARYVAR
  5
173
102
{ACAD_REACTORS
330
171
102
}
330
171
100
DictionaryVariables
280
     0
  1
STANDARD
  0
DICTIONARYVAR
  5
172
102
{ACAD_REACTORS
330
171
102
}
330
171
100
DictionaryVariables
280
     0
  1
STANDARD
  0
DICTIONARYVAR
  5
174
102
{ACAD_REACTORS
330
171
102
}
330
171
100
DictionaryVariables
280
     0
  1
Imperial24
  0
DICTIONARYVAR
  5
175
102
{ACAD_REACTORS
330
171
102
}
330
171
100
DictionaryVariables
280
     0
  1
Imperial24
  0
DICTIONARY
  5
1AE
330
6B
100
AcDbDictionary
280
     1
281
     1
  3
ACAD_XREC_ROUNDTRIP
360
1AF
  0
DICTIONARY
  5
1A
330
19
100
AcDbDictionary
280
     1
281
     1
  3
BUMPTILE
360
1C
  3
DIFFUSETILE
360
1B
  3
OPACITYTILE
360
1F
  3
REFLECTIONTILE
360
1E
  3
REFRACTIONTILE
360
20
  3
SPECULARTILE
360
1D
  0
DICTIONARY
  5
12
330
11
100
AcDbDictionary
280
     1
281
     1
  3
BUMPTILE
360
14
  3
DIFFUSETILE
360
13
  3
OPACITYTILE
360
17
  3
REFLECTIONTILE
360
16
  3
REFRACTIONTILE
360
18
  3
SPECULARTILE
360
15
  0
DICTIONARY
  5
22
330
21
100
AcDbDictionary
280
     1
281
     1
  3
BUMPTILE
360
24
  3
DIFFUSETILE
360
23
  3
OPACITYTILE
360
27
  3
REFLECTIONTILE
360
26
  3
REFRACTIONTILE
360
28
  3
SPECULARTILE
360
25
  0
DICTIONARY
  5
1AA
330
67
100
AcDbDictionary
280
     1
281
     1
  3
ACAD_XREC_ROUNDTRIP
360
1AB
  0
DICTIONARY
  5
1AC
330
69
100
AcDbDictionary
280
     1
281
     1
  3
ACAD_XREC_ROUNDTRIP
360
1AD
  0
DICTIONARY
  5
177
330
65
100
AcDbDictionary
280
     1
281
     1
  3
ACAD_ROUNDTRIP_2008_TABLESTYLE_CELLSTYLEMAP
360
178
  0
DICTIONARY
  5
184
330
2F
100
AcDbDictionary
280
     1
281
     1
  3
ACAD_XREC_ROUNDTRIP
360
185
  0
DICTIONARY
  5
182
330
2E
100
AcDbDictionary
280
     1
281
     1
  3
ACAD_XREC_ROUNDTRIP
360
183
  0
DICTIONARY
  5
190
330
35
100
AcDbDictionary
280
     1
281
     1
  3
ACAD_XREC_ROUNDTRIP
360
191
  0
DICTIONARY
  5
198
330
39
100
AcDbDictionary
280
     1
281
     1
  3
ACAD_XREC_ROUNDTRIP
360
199
  0
DICTIONARY
  5
18A
330
32
100
AcDbDictionary
280
     1
281
     1
  3
ACAD_XREC_ROUNDTRIP
360
18B
  0
DICTIONARY
  5
18E
330
34
100
AcDbDictionary
280
     1
281
     1
  3
ACAD_XREC_ROUNDTRIP
360
18F
  0
DICTIONARY
  5
1A8
330
41
100
AcDbDictionary
280
     1
281
     1
  3
ACAD_XREC_ROUNDTRIP
360
1A9
  0
DICTIONARY
  5
196
330
38
100
AcDbDictionary
280
     1
281
     1
  3
ACAD_XREC_ROUNDTRIP
360
197
  0
DICTIONARY
  5
17A
330
2A
100
AcDbDictionary
280
     1
281
     1
  3
ACAD_XREC_ROUNDTRIP
360
17B
  0
DICTIONARY
  5
17C
330
2B
100
AcDbDictionary
280
     1
281
     1
  3
ACAD_XREC_ROUNDTRIP
360
17D
  0
DICTIONARY
  5
17E
330
2C
100
AcDbDictionary
280
     1
281
     1
  3
ACAD_XREC_ROUNDTRIP
360
17F
  0
DICTIONARY
  5
180
330
2D
100
AcDbDictionary
280
     1
281
     1
  3
ACAD_XREC_ROUNDTRIP
360
181
  0
DICTIONARY
  5
188
330
31
100
AcDbDictionary
280
     1
281
     1
  3
ACAD_XREC_ROUNDTRIP
360
189
  0
DICTIONARY
  5
1A4
330
3F
100
AcDbDictionary
280
     1
281
     1
  3
ACAD_XREC_ROUNDTRIP
360
1A5
  0
DICTIONARY
  5
194
330
37
100
AcDbDictionary
280
     1
281
     1
  3
ACAD_XREC_ROUNDTRIP
360
195
  0
DICTIONARY
  5
1A6
330
40
100
AcDbDictionary
280
     1
281
     1
  3
ACAD_XREC_ROUNDTRIP
360
1A7
  0
DICTIONARY
  5
18C
330
33
100
AcDbDictionary
280
     1
281
     1
  3
ACAD_XREC_ROUNDTRIP
360
18D
  0
DICTIONARY
  5
1A2
330
3E
100
AcDbDictionary
280
     1
281
     1
  3
ACAD_XREC_ROUNDTRIP
360
1A3
  0
DICTIONARY
  5
1A0
330
3D
100
AcDbDictionary
280
     1
281
     1
  3
ACAD_XREC_ROUNDTRIP
360
1A1
  0
DICTIONARY
  5
19A
330
3A
100
AcDbDictionary
280
     1
281
     1
  3
ACAD_XREC_ROUNDTRIP
360
19B
  0
DICTIONARY
  5
19C
330
3B
100
AcDbDictionary
280
     1
281
     1
  3
ACAD_XREC_ROUNDTRIP
360
19D
  0
DICTIONARY
  5
192
330
36
100
AcDbDictionary
280
     1
281
     1
  3
ACAD_XREC_ROUNDTRIP
360
193
  0
DICTIONARY
  5
186
330
30
100
AcDbDictionary
280
     1
281
     1
  3
ACAD_XREC_ROUNDTRIP
360
187
  0
DICTIONARY
  5
19E
330
3C
100
AcDbDictionary
280
     1
281
     1
  3
ACAD_XREC_ROUNDTRIP
360
19F
  0
XRECORD
  5
1AF
102
{ACAD_REACTORS
330
1AE
102
}
330
1AE
100
AcDbXrecord
280
     1
102
DISPLAYNAME
  1
Imperial24
102
FLAGS
 90
        0
  0
XRECORD
  5
1C
102
{ACAD_REACTORS
330
1A
102
}
330
1A
100
AcDbXrecord
280
     1
270
     1
271
     1
  0
XRECORD
  5
1B
102
{ACAD_REACTORS
330
1A
102
}
330
1A
100
AcDbXrecord
280
     1
270
     1
271
     1
  0
XRECORD
  5
1F
102
{ACAD_REACTORS
330
1A
102
}
330
1A
100
AcDbXrecord
280
     1
270
     1
271
     1
  0
XRECORD
  5
1E
102
{ACAD_REACTORS
330
1A
102
}
330
1A
100
AcDbXrecord
280
     1
270
     1
271
     1
  0
XRECORD
  5
20
102
{ACAD_REACTORS
330
1A
102
}
330
1A
100
AcDbXrecord
280
     1
270
     1
271
     1
  0
XRECORD
  5
1D
102
{ACAD_REACTORS
330
1A
102
}
330
1A
100
AcDbXrecord
280
     1
270
     1
271
     1
  0
XRECORD
  5
14
102
{ACAD_REACTORS
330
12
102
}
330
12
100
AcDbXrecord
280
     1
270
     1
271
     1
  0
XRECORD
  5
13
102
{ACAD_REACTORS
330
12
102
}
330
12
100
AcDbXrecord
280
     1
270
     1
271
     1
  0
XRECORD
  5
17
102
{ACAD_REACTORS
330
12
102
}
330
12
100
AcDbXrecord
280
     1
270
     1
271
     1
  0
XRECORD
  5
16
102
{ACAD_REACTORS
330
12
102
}
330
12
100
AcDbXrecord
280
     1
270
     1
271
     1
  0
XRECORD
  5
18
102
{ACAD_REACTORS
330
12
102
}
330
12
100
AcDbXrecord
280
     1
270
     1
271
     1
  0
XRECORD
  5
15
102
{ACAD_REACTORS
330
12
102
}
330
12
100
AcDbXrecord
280
     1
270
     1
271
     1
  0
XRECORD
  5
24
102
{ACAD_REACTORS
330
22
102
}
330
22
100
AcDbXrecord
280
     1
270
     1
271
     1
  0
XRECORD
  5
23
102
{ACAD_REACTORS
330
22
102
}
330
22
100
AcDbXrecord
280
     1
270
     1
271
     1
  0
XRECORD
  5
27
102
{ACAD_REACTORS
330
22
102
}
330
22
100
AcDbXrecord
280
     1
270
     1
271
     1
  0
XRECORD
  5
26
102
{ACAD_REACTORS
330
22
102
}
330
22
100
AcDbXrecord
280
     1
270
     1
271
     1
  0
XRECORD
  5
28
102
{ACAD_REACTORS
330
22
102
}
330
22
100
AcDbXrecord
280
     1
270
     1
271
     1
  0
XRECORD
  5
25
102
{ACAD_REACTORS
330
22
102
}
330
22
100
AcDbXrecord
280
     1
270
     1
271
     1
  0
XRECORD
  5
1AB
102
{ACAD_REACTORS
330
1AA
102
}
330
1AA
100
AcDbXrecord
280
     1
102
ACAD_ROUNDTRIP_2012_MLEADER_STYLE
298
     1
  0
XRECORD
  5
1AD
102
{ACAD_REACTORS
330
1AC
102
}
330
1AC
100
AcDbXrecord
280
     1
102
DISPLAYNAME
  1
Imperial24
102
FLAGS
 90
        0
  0
CELLSTYLEMAP
  5
178
102
{ACAD_REACTORS
330
177
102
}
330
177
100
AcDbCellStyleMap
 90
        3
300
CELLSTYLE
  1
TABLEFORMAT_BEGIN
 90
        5
170
     1
 91
        0
 92
    32768
 62
   257
 93
        1
300
CONTENTFORMAT
  1
CONTENTFORMAT_BEGIN
 90
        0
 91
        0
 92
      512
 93
        0
300

 40
0.0
140
1.0
 94
        5
 62
     0
340
55
144
0.25
309
CONTENTFORMAT_END
171
     0
 94
        0
309
TABLEFORMAT_END
  1
CELLSTYLE_BEGIN
 90
        1
 91
        1
300
_TITLE
309
CELLSTYLE_END
300
CELLSTYLE
  1
TABLEFORMAT_BEGIN
 90
        5
170
     1
 91
        0
 92
        0
 62
   257
 93
        1
300
CONTENTFORMAT
  1
CONTENTFORMAT_BEGIN
 90
        0
 91
        0
 92
      512
 93
        0
300

 40
0.0
140
1.0
 94
        5
 62
     0
340
55
144
0.18
309
CONTENTFORMAT_END
171
     0
 94
        0
309
TABLEFORMAT_END
  1
CELLSTYLE_BEGIN
 90
        2
 91
        1
300
_HEADER
309
CELLSTYLE_END
300
CELLSTYLE
  1
TABLEFORMAT_BEGIN
 90
        5
170
     1
 91
        0
 92
        0
 62
   257
 93
        1
300
CONTENTFORMAT
  1
CONTENTFORMAT_BEGIN
 90
        0
 91
        0
 92
      512
 93
        0
300

 40
0.0
140
1.0
 94
        2
 62
     0
340
55
144
0.18
309
CONTENTFORMAT_END
171
     0
 94
        0
309
TABLEFORMAT_END
  1
CELLSTYLE_BEGIN
 90
        3
 91
        2
300
_DATA
309
CELLSTYLE_END
  0
XRECORD
  5
185
102
{ACAD_REACTORS
330
184
102
}
330
184
100
AcDbXrecord
280
     1
102
RTVSPost2010Prop28
280
     1
102
RTVSPost2010PropOp28
 70
     1
102
RTVSPost2010Prop29
280
     1
102
RTVSPost2010PropOp29
 70
     1
102
RTVSPost2010Prop30
280
     0
102
RTVSPost2010PropOp30
 70
     1
102
RTVSPost2010Prop31
280
     0
102
RTVSPost2010PropOp31
 70
     1
102
RTVSPost2010Prop32
280
     0
102
RTVSPost2010PropOp32
 70
     1
102
RTVSPost2010Prop33
280
     0
102
RTVSPost2010PropOp33
 70
     1
102
RTVSPost2010Prop34
280
     0
102
RTVSPost2010PropOp34
 70
     1
102
RTVSPost2010Prop35
280
     0
102
RTVSPost2010PropOp35
 70
     1
102
RTVSPost2010Prop36
280
     0
102
RTVSPost2010PropOp36
 70
     1
102
RTVSPost2010Prop37
 90
       50
102
RTVSPost2010PropOp37
 70
     1
102
RTVSPost2010Prop38
140
0.0
102
RTVSPost2010PropOp38
 70
     1
102
RTVSPost2010Prop39
140
1.0
102
RTVSPost2010PropOp39
 70
     1
102
RTVSPost2010Prop40
 90
        0
102
RTVSPost2010PropOp40
 70
     1
102
RTVSPost2010Prop41ColorIndex
 90
       18
102
RTVSPost2010Prop41ColorRGB
 90
        0
102
RTVSPost2010PropOp41
 70
     1
102
RTVSPost2010Prop42
 90
       50
102
RTVSPost2010PropOp42
 70
     1
102
RTVSPost2010Prop43
 90
        3
102
RTVSPost2010PropOp43
 70
     1
102
RTVSPost2010Prop44ColorIndex
 90
        5
102
RTVSPost2010Prop44ColorRGB
 90
      255
102
RTVSPost2010PropOp44
 70
     1
102
RTVSPost2010Prop45
280
     0
102
RTVSPost2010PropOp45
 70
     1
102
RTVSPost2010Prop46
 90
       50
102
RTVSPost2010PropOp46
 70
     1
102
RTVSPost2010Prop47
 90
       50
102
RTVSPost2010PropOp47
 70
     1
102
RTVSPost2010Prop48
 90
       50
102
RTVSPost2010PropOp48
 70
     1
102
RTVSPost2010Prop49
280
     0
102
RTVSPost2010PropOp49
 70
     1
102
RTVSPost2010Prop50
 90
       50
102
RTVSPost2010PropOp50
 70
     1
102
RTVSPost2010Prop51ColorIndex
 90
      256
102
RTVSPost2010Prop51ColorRGB
 90
-16777216
102
RTVSPost2010PropOp51
 70
     0
102
RTVSPost2010Prop52
140
1.0
102
RTVSPost2010PropOp52
 70
     0
102
RTVSPost2010Prop53
 90
        2
102
RTVSPost2010PropOp53
 70
     1
102
RTVSPost2010Prop54
  1
strokes_ogs.tif
102
RTVSPost2010PropOp54
 70
     1
102
RTVSPost2010Prop55
280
     0
102
RTVSPost2010PropOp55
 70
     1
102
RTVSPost2010Prop56
140
1.0
102
RTVSPost2010PropOp56
 70
     1
102
RTVSPost2010Prop57
140
1.0
102
RTVSPost2010PropOp57
 70
     1
  0
XRECORD
  5
183
102
{ACAD_REACTORS
330
182
102
}
330
182
100
AcDbXrecord
280
     1
102
RTVSPost2010Prop28
280
     0
102
RTVSPost2010PropOp28
 70
     1
102
RTVSPost2010Prop29
280
     1
102
RTVSPost2010PropOp29
 70
     1
102
RTVSPost2010Prop30
280
     1
102
RTVSPost2010PropOp30
 70
     1
102
RTVSPost2010Prop31
280
     0
102
RTVSPost2010PropOp31
 70
     1
102
RTVSPost2010Prop32
280
     0
102
RTVSPost2010PropOp32
 70
     1
102
RTVSPost2010Prop33
280
     0
102
RTVSPost2010PropOp33
 70
     1
102
RTVSPost2010Prop34
280
     0
102
RTVSPost2010PropOp34
 70
     1
102
RTVSPost2010Prop35
280
     0
102
RTVSPost2010PropOp35
 70
     1
102
RTVSPost2010Prop36
280
     0
102
RTVSPost2010PropOp36
 70
     1
102
RTVSPost2010Prop37
 90
       50
102
RTVSPost2010PropOp37
 70
     1
102
RTVSPost2010Prop38
140
0.0
102
RTVSPost2010PropOp38
 70
     1
102
RTVSPost2010Prop39
140
1.0
102
RTVSPost2010PropOp39
 70
     1
102
RTVSPost2010Prop40
 90
        0
102
RTVSPost2010PropOp40
 70
     1
102
RTVSPost2010Prop41ColorIndex
 90
       18
102
RTVSPost2010Prop41ColorRGB
 90
        0
102
RTVSPost2010PropOp41
 70
     1
102
RTVSPost2010Prop42
 90
       50
102
RTVSPost2010PropOp42
 70
     1
102
RTVSPost2010Prop43
 90
        3
102
RTVSPost2010PropOp43
 70
     1
102
RTVSPost2010Prop44ColorIndex
 90
        5
102
RTVSPost2010Prop44ColorRGB
 90
      255
102
RTVSPost2010PropOp44
 70
     1
102
RTVSPost2010Prop45
280
     0
102
RTVSPost2010PropOp45
 70
     1
102
RTVSPost2010Prop46
 90
       50
102
RTVSPost2010PropOp46
 70
     1
102
RTVSPost2010Prop47
 90
       50
102
RTVSPost2010PropOp47
 70
     1
102
RTVSPost2010Prop48
 90
       50
102
RTVSPost2010PropOp48
 70
     1
102
RTVSPost2010Prop49
280
     0
102
RTVSPost2010PropOp49
 70
     1
102
RTVSPost2010Prop50
 90
       50
102
RTVSPost2010PropOp50
 70
     1
102
RTVSPost2010Prop51ColorIndex
 90
      256
102
RTVSPost2010Prop51ColorRGB
 90
-16777216
102
RTVSPost2010PropOp51
 70
     0
102
RTVSPost2010Prop52
140
1.0
102
RTVSPost2010PropOp52
 70
     0
102
RTVSPost2010Prop53
 90
        2
102
RTVSPost2010PropOp53
 70
     1
102
RTVSPost2010Prop54
  1
strokes_ogs.tif
102
RTVSPost2010PropOp54
 70
     1
102
RTVSPost2010Prop55
280
     0
102
RTVSPost2010PropOp55
 70
     1
102
RTVSPost2010Prop56
140
1.0
102
RTVSPost2010PropOp56
 70
     1
102
RTVSPost2010Prop57
140
1.0
102
RTVSPost2010PropOp57
 70
     1
  0
XRECORD
  5
191
102
{ACAD_REACTORS
330
190
102
}
330
190
100
AcDbXrecord
280
     1
102
RTVSPost2010Prop28
280
     0
102
RTVSPost2010PropOp28
 70
     1
102
RTVSPost2010Prop29
280
     1
102
RTVSPost2010PropOp29
 70
     1
102
RTVSPost2010Prop30
280
     1
102
RTVSPost2010PropOp30
 70
     1
102
RTVSPost2010Prop31
280
     0
102
RTVSPost2010PropOp31
 70
     1
102
RTVSPost2010Prop32
280
     0
102
RTVSPost2010PropOp32
 70
     1
102
RTVSPost2010Prop33
280
     0
102
RTVSPost2010PropOp33
 70
     1
102
RTVSPost2010Prop34
280
     0
102
RTVSPost2010PropOp34
 70
     1
102
RTVSPost2010Prop35
280
     0
102
RTVSPost2010PropOp35
 70
     1
102
RTVSPost2010Prop36
280
     0
102
RTVSPost2010PropOp36
 70
     1
102
RTVSPost2010Prop37
 90
       50
102
RTVSPost2010PropOp37
 70
     1
102
RTVSPost2010Prop38
140
0.0
102
RTVSPost2010PropOp38
 70
     1
102
RTVSPost2010Prop39
140
1.0
102
RTVSPost2010PropOp39
 70
     1
102
RTVSPost2010Prop40
 90
        0
102
RTVSPost2010PropOp40
 70
     1
102
RTVSPost2010Prop41ColorIndex
 90
       18
102
RTVSPost2010Prop41ColorRGB
 90
        0
102
RTVSPost2010PropOp41
 70
     1
102
RTVSPost2010Prop42
 90
       50
102
RTVSPost2010PropOp42
 70
     1
102
RTVSPost2010Prop43
 90
        3
102
RTVSPost2010PropOp43
 70
     1
102
RTVSPost2010Prop44ColorIndex
 90
        5
102
RTVSPost2010Prop44ColorRGB
 90
      255
102
RTVSPost2010PropOp44
 70
     1
102
RTVSPost2010Prop45
280
     0
102
RTVSPost2010PropOp45
 70
     1
102
RTVSPost2010Prop46
 90
       50
102
RTVSPost2010PropOp46
 70
     1
102
RTVSPost2010Prop47
 90
       50
102
RTVSPost2010PropOp47
 70
     1
102
RTVSPost2010Prop48
 90
       50
102
RTVSPost2010PropOp48
 70
     1
102
RTVSPost2010Prop49
280
     0
102
RTVSPost2010PropOp49
 70
     1
102
RTVSPost2010Prop50
 90
       50
102
RTVSPost2010PropOp50
 70
     1
102
RTVSPost2010Prop51ColorIndex
 90
      256
102
RTVSPost2010Prop51ColorRGB
 90
-16777216
102
RTVSPost2010PropOp51
 70
     0
102
RTVSPost2010Prop52
140
1.0
102
RTVSPost2010PropOp52
 70
     0
102
RTVSPost2010Prop53
 90
        2
102
RTVSPost2010PropOp53
 70
     1
102
RTVSPost2010Prop54
  1
strokes_ogs.tif
102
RTVSPost2010PropOp54
 70
     1
102
RTVSPost2010Prop55
280
     0
102
RTVSPost2010PropOp55
 70
     1
102
RTVSPost2010Prop56
140
1.0
102
RTVSPost2010PropOp56
 70
     1
102
RTVSPost2010Prop57
140
1.0
102
RTVSPost2010PropOp57
 70
     1
  0
XRECORD
  5
199
102
{ACAD_REACTORS
330
198
102
}
330
198
100
AcDbXrecord
280
     1
102
RTVSPost2010Prop28
280
     0
102
RTVSPost2010PropOp28
 70
     1
102
RTVSPost2010Prop29
280
     1
102
RTVSPost2010PropOp29
 70
     1
102
RTVSPost2010Prop30
280
     1
102
RTVSPost2010PropOp30
 70
     1
102
RTVSPost2010Prop31
280
     0
102
RTVSPost2010PropOp31
 70
     1
102
RTVSPost2010Prop32
280
     0
102
RTVSPost2010PropOp32
 70
     1
102
RTVSPost2010Prop33
280
     0
102
RTVSPost2010PropOp33
 70
     1
102
RTVSPost2010Prop34
280
     0
102
RTVSPost2010PropOp34
 70
     1
102
RTVSPost2010Prop35
280
     0
102
RTVSPost2010PropOp35
 70
     1
102
RTVSPost2010Prop36
280
     0
102
RTVSPost2010PropOp36
 70
     1
102
RTVSPost2010Prop37
 90
       50
102
RTVSPost2010PropOp37
 70
     1
102
RTVSPost2010Prop38
140
0.0
102
RTVSPost2010PropOp38
 70
     1
102
RTVSPost2010Prop39
140
1.0
102
RTVSPost2010PropOp39
 70
     1
102
RTVSPost2010Prop40
 90
        0
102
RTVSPost2010PropOp40
 70
     1
102
RTVSPost2010Prop41ColorIndex
 90
       18
102
RTVSPost2010Prop41ColorRGB
 90
        0
102
RTVSPost2010PropOp41
 70
     1
102
RTVSPost2010Prop42
 90
       50
102
RTVSPost2010PropOp42
 70
     1
102
RTVSPost2010Prop43
 90
        3
102
RTVSPost2010PropOp43
 70
     1
102
RTVSPost2010Prop44ColorIndex
 90
        5
102
RTVSPost2010Prop44ColorRGB
 90
      255
102
RTVSPost2010PropOp44
 70
     1
102
RTVSPost2010Prop45
280
     0
102
RTVSPost2010PropOp45
 70
     1
102
RTVSPost2010Prop46
 90
       50
102
RTVSPost2010PropOp46
 70
     1
102
RTVSPost2010Prop47
 90
       50
102
RTVSPost2010PropOp47
 70
     1
102
RTVSPost2010Prop48
 90
       50
102
RTVSPost2010PropOp48
 70
     1
102
RTVSPost2010Prop49
280
     0
102
RTVSPost2010PropOp49
 70
     1
102
RTVSPost2010Prop50
 90
       50
102
RTVSPost2010PropOp50
 70
     1
102
RTVSPost2010Prop51ColorIndex
 90
      256
102
RTVSPost2010Prop51ColorRGB
 90
-16777216
102
RTVSPost2010PropOp51
 70
     0
102
RTVSPost2010Prop52
140
1.0
102
RTVSPost2010PropOp52
 70
     0
102
RTVSPost2010Prop53
 90
        2
102
RTVSPost2010PropOp53
 70
     1
102
RTVSPost2010Prop54
  1
strokes_ogs.tif
102
RTVSPost2010PropOp54
 70
     1
102
RTVSPost2010Prop55
280
     0
102
RTVSPost2010PropOp55
 70
     1
102
RTVSPost2010Prop56
140
1.0
102
RTVSPost2010PropOp56
 70
     1
102
RTVSPost2010Prop57
140
1.0
102
RTVSPost2010PropOp57
 70
     1
  0
XRECORD
  5
18B
102
{ACAD_REACTORS
330
18A
102
}
330
18A
100
AcDbXrecord
280
     1
102
RTVSPost2010Prop28
280
     0
102
RTVSPost2010PropOp28
 70
     1
102
RTVSPost2010Prop29
280
     1
102
RTVSPost2010PropOp29
 70
     1
102
RTVSPost2010Prop30
280
     1
102
RTVSPost2010PropOp30
 70
     1
102
RTVSPost2010Prop31
280
     0
102
RTVSPost2010PropOp31
 70
     1
102
RTVSPost2010Prop32
280
     0
102
RTVSPost2010PropOp32
 70
     1
102
RTVSPost2010Prop33
280
     0
102
RTVSPost2010PropOp33
 70
     1
102
RTVSPost2010Prop34
280
     0
102
RTVSPost2010PropOp34
 70
     1
102
RTVSPost2010Prop35
280
     0
102
RTVSPost2010PropOp35
 70
     1
102
RTVSPost2010Prop36
280
     0
102
RTVSPost2010PropOp36
 70
     1
102
RTVSPost2010Prop37
 90
       50
102
RTVSPost2010PropOp37
 70
     1
102
RTVSPost2010Prop38
140
0.0
102
RTVSPost2010PropOp38
 70
     1
102
RTVSPost2010Prop39
140
1.0
102
RTVSPost2010PropOp39
 70
     1
102
RTVSPost2010Prop40
 90
        0
102
RTVSPost2010PropOp40
 70
     1
102
RTVSPost2010Prop41ColorIndex
 90
       18
102
RTVSPost2010Prop41ColorRGB
 90
        0
102
RTVSPost2010PropOp41
 70
     1
102
RTVSPost2010Prop42
 90
       50
102
RTVSPost2010PropOp42
 70
     1
102
RTVSPost2010Prop43
 90
        3
102
RTVSPost2010PropOp43
 70
     1
102
RTVSPost2010Prop44ColorIndex
 90
        5
102
RTVSPost2010Prop44ColorRGB
 90
      255
102
RTVSPost2010PropOp44
 70
     1
102
RTVSPost2010Prop45
280
     0
102
RTVSPost2010PropOp45
 70
     1
102
RTVSPost2010Prop46
 90
       50
102
RTVSPost2010PropOp46
 70
     1
102
RTVSPost2010Prop47
 90
       50
102
RTVSPost2010PropOp47
 70
     1
102
RTVSPost2010Prop48
 90
       50
102
RTVSPost2010PropOp48
 70
     1
102
RTVSPost2010Prop49
280
     0
102
RTVSPost2010PropOp49
 70
     1
102
RTVSPost2010Prop50
 90
       50
102
RTVSPost2010PropOp50
 70
     1
102
RTVSPost2010Prop51ColorIndex
 90
      256
102
RTVSPost2010Prop51ColorRGB
 90
-16777216
102
RTVSPost2010PropOp51
 70
     0
102
RTVSPost2010Prop52
140
1.0
102
RTVSPost2010PropOp52
 70
     0
102
RTVSPost2010Prop53
 90
        2
102
RTVSPost2010PropOp53
 70
     1
102
RTVSPost2010Prop54
  1
strokes_ogs.tif
102
RTVSPost2010PropOp54
 70
     1
102
RTVSPost2010Prop55
280
     0
102
RTVSPost2010PropOp55
 70
     1
102
RTVSPost2010Prop56
140
1.0
102
RTVSPost2010PropOp56
 70
     1
102
RTVSPost2010Prop57
140
1.0
102
RTVSPost2010PropOp57
 70
     1
  0
XRECORD
  5
18F
102
{ACAD_REACTORS
330
18E
102
}
330
18E
100
AcDbXrecord
280
     1
102
RTVSPost2010Prop28
280
     0
102
RTVSPost2010PropOp28
 70
     1
102
RTVSPost2010Prop29
280
     1
102
RTVSPost2010PropOp29
 70
     1
102
RTVSPost2010Prop30
280
     1
102
RTVSPost2010PropOp30
 70
     1
102
RTVSPost2010Prop31
280
     0
102
RTVSPost2010PropOp31
 70
     1
102
RTVSPost2010Prop32
280
     0
102
RTVSPost2010PropOp32
 70
     1
102
RTVSPost2010Prop33
280
     0
102
RTVSPost2010PropOp33
 70
     1
102
RTVSPost2010Prop34
280
     0
102
RTVSPost2010PropOp34
 70
     1
102
RTVSPost2010Prop35
280
     0
102
RTVSPost2010PropOp35
 70
     1
102
RTVSPost2010Prop36
280
     0
102
RTVSPost2010PropOp36
 70
     1
102
RTVSPost2010Prop37
 90
       50
102
RTVSPost2010PropOp37
 70
     1
102
RTVSPost2010Prop38
140
0.0
102
RTVSPost2010PropOp38
 70
     1
102
RTVSPost2010Prop39
140
1.0
102
RTVSPost2010PropOp39
 70
     1
102
RTVSPost2010Prop40
 90
        0
102
RTVSPost2010PropOp40
 70
     1
102
RTVSPost2010Prop41ColorIndex
 90
       18
102
RTVSPost2010Prop41ColorRGB
 90
        0
102
RTVSPost2010PropOp41
 70
     1
102
RTVSPost2010Prop42
 90
       50
102
RTVSPost2010PropOp42
 70
     1
102
RTVSPost2010Prop43
 90
        3
102
RTVSPost2010PropOp43
 70
     1
102
RTVSPost2010Prop44ColorIndex
 90
        5
102
RTVSPost2010Prop44ColorRGB
 90
      255
102
RTVSPost2010PropOp44
 70
     1
102
RTVSPost2010Prop45
280
     0
102
RTVSPost2010PropOp45
 70
     1
102
RTVSPost2010Prop46
 90
       50
102
RTVSPost2010PropOp46
 70
     1
102
RTVSPost2010Prop47
 90
       50
102
RTVSPost2010PropOp47
 70
     1
102
RTVSPost2010Prop48
 90
       50
102
RTVSPost2010PropOp48
 70
     1
102
RTVSPost2010Prop49
280
     0
102
RTVSPost2010PropOp49
 70
     1
102
RTVSPost2010Prop50
 90
       50
102
RTVSPost2010PropOp50
 70
     1
102
RTVSPost2010Prop51ColorIndex
 90
      256
102
RTVSPost2010Prop51ColorRGB
 90
-16777216
102
RTVSPost2010PropOp51
 70
     0
102
RTVSPost2010Prop52
140
1.0
102
RTVSPost2010PropOp52
 70
     0
102
RTVSPost2010Prop53
 90
        2
102
RTVSPost2010PropOp53
 70
     1
102
RTVSPost2010Prop54
  1
strokes_ogs.tif
102
RTVSPost2010PropOp54
 70
     1
102
RTVSPost2010Prop55
280
     0
102
RTVSPost2010PropOp55
 70
     1
102
RTVSPost2010Prop56
140
1.0
102
RTVSPost2010PropOp56
 70
     1
102
RTVSPost2010Prop57
140
1.0
102
RTVSPost2010PropOp57
 70
     1
  0
XRECORD
  5
1A9
102
{ACAD_REACTORS
330
1A8
102
}
330
1A8
100
AcDbXrecord
280
     1
102
RTVSPost2010Prop28
280
     0
102
RTVSPost2010PropOp28
 70
     0
102
RTVSPost2010Prop29
280
     1
102
RTVSPost2010PropOp29
 70
     0
102
RTVSPost2010Prop30
280
     1
102
RTVSPost2010PropOp30
 70
     0
102
RTVSPost2010Prop31
280
     0
102
RTVSPost2010PropOp31
 70
     0
102
RTVSPost2010Prop32
280
     0
102
RTVSPost2010PropOp32
 70
     0
102
RTVSPost2010Prop33
280
     0
102
RTVSPost2010PropOp33
 70
     0
102
RTVSPost2010Prop34
280
     0
102
RTVSPost2010PropOp34
 70
     0
102
RTVSPost2010Prop35
280
     0
102
RTVSPost2010PropOp35
 70
     0
102
RTVSPost2010Prop36
280
     0
102
RTVSPost2010PropOp36
 70
     0
102
RTVSPost2010Prop37
 90
       50
102
RTVSPost2010PropOp37
 70
     0
102
RTVSPost2010Prop38
140
0.0
102
RTVSPost2010PropOp38
 70
     0
102
RTVSPost2010Prop39
140
1.0
102
RTVSPost2010PropOp39
 70
     0
102
RTVSPost2010Prop40
 90
        0
102
RTVSPost2010PropOp40
 70
     0
102
RTVSPost2010Prop41ColorIndex
 90
       18
102
RTVSPost2010Prop41ColorRGB
 90
        0
102
RTVSPost2010PropOp41
 70
     0
102
RTVSPost2010Prop42
 90
       50
102
RTVSPost2010PropOp42
 70
     0
102
RTVSPost2010Prop43
 90
        3
102
RTVSPost2010PropOp43
 70
     0
102
RTVSPost2010Prop44ColorIndex
 90
        5
102
RTVSPost2010Prop44ColorRGB
 90
      255
102
RTVSPost2010PropOp44
 70
     0
102
RTVSPost2010Prop45
280
     0
102
RTVSPost2010PropOp45
 70
     0
102
RTVSPost2010Prop46
 90
       50
102
RTVSPost2010PropOp46
 70
     0
102
RTVSPost2010Prop47
 90
       50
102
RTVSPost2010PropOp47
 70
     0
102
RTVSPost2010Prop48
 90
       50
102
RTVSPost2010PropOp48
 70
     0
102
RTVSPost2010Prop49
280
     0
102
RTVSPost2010PropOp49
 70
     0
102
RTVSPost2010Prop50
 90
       50
102
RTVSPost2010PropOp50
 70
     0
102
RTVSPost2010Prop51ColorIndex
 90
      256
102
RTVSPost2010Prop51ColorRGB
 90
-16777216
102
RTVSPost2010PropOp51
 70
     0
102
RTVSPost2010Prop52
140
1.0
102
RTVSPost2010PropOp52
 70
     0
102
RTVSPost2010Prop53
 90
        2
102
RTVSPost2010PropOp53
 70
     0
102
RTVSPost2010Prop54
  1
strokes_ogs.tif
102
RTVSPost2010PropOp54
 70
     0
102
RTVSPost2010Prop55
280
     0
102
RTVSPost2010PropOp55
 70
     0
102
RTVSPost2010Prop56
140
1.0
102
RTVSPost2010PropOp56
 70
     0
102
RTVSPost2010Prop57
140
1.0
102
RTVSPost2010PropOp57
 70
     0
  0
XRECORD
  5
197
102
{ACAD_REACTORS
330
196
102
}
330
196
100
AcDbXrecord
280
     1
102
RTVSPost2010Prop28
280
     0
102
RTVSPost2010PropOp28
 70
     1
102
RTVSPost2010Prop29
280
     1
102
RTVSPost2010PropOp29
 70
     1
102
RTVSPost2010Prop30
280
     1
102
RTVSPost2010PropOp30
 70
     1
102
RTVSPost2010Prop31
280
     0
102
RTVSPost2010PropOp31
 70
     1
102
RTVSPost2010Prop32
280
     0
102
RTVSPost2010PropOp32
 70
     1
102
RTVSPost2010Prop33
280
     0
102
RTVSPost2010PropOp33
 70
     1
102
RTVSPost2010Prop34
280
     0
102
RTVSPost2010PropOp34
 70
     1
102
RTVSPost2010Prop35
280
     0
102
RTVSPost2010PropOp35
 70
     1
102
RTVSPost2010Prop36
280
     0
102
RTVSPost2010PropOp36
 70
     1
102
RTVSPost2010Prop37
 90
       50
102
RTVSPost2010PropOp37
 70
     1
102
RTVSPost2010Prop38
140
0.0
102
RTVSPost2010PropOp38
 70
     1
102
RTVSPost2010Prop39
140
1.0
102
RTVSPost2010PropOp39
 70
     1
102
RTVSPost2010Prop40
 90
        0
102
RTVSPost2010PropOp40
 70
     1
102
RTVSPost2010Prop41ColorIndex
 90
       18
102
RTVSPost2010Prop41ColorRGB
 90
        0
102
RTVSPost2010PropOp41
 70
     1
102
RTVSPost2010Prop42
 90
       50
102
RTVSPost2010PropOp42
 70
     1
102
RTVSPost2010Prop43
 90
        3
102
RTVSPost2010PropOp43
 70
     1
102
RTVSPost2010Prop44ColorIndex
 90
        5
102
RTVSPost2010Prop44ColorRGB
 90
      255
102
RTVSPost2010PropOp44
 70
     1
102
RTVSPost2010Prop45
280
     0
102
RTVSPost2010PropOp45
 70
     1
102
RTVSPost2010Prop46
 90
       50
102
RTVSPost2010PropOp46
 70
     1
102
RTVSPost2010Prop47
 90
       50
102
RTVSPost2010PropOp47
 70
     1
102
RTVSPost2010Prop48
 90
       50
102
RTVSPost2010PropOp48
 70
     1
102
RTVSPost2010Prop49
280
     0
102
RTVSPost2010PropOp49
 70
     1
102
RTVSPost2010Prop50
 90
       50
102
RTVSPost2010PropOp50
 70
     1
102
RTVSPost2010Prop51ColorIndex
 90
      256
102
RTVSPost2010Prop51ColorRGB
 90
-16777216
102
RTVSPost2010PropOp51
 70
     0
102
RTVSPost2010Prop52
140
1.0
102
RTVSPost2010PropOp52
 70
     0
102
RTVSPost2010Prop53
 90
        2
102
RTVSPost2010PropOp53
 70
     1
102
RTVSPost2010Prop54
  1
strokes_ogs.tif
102
RTVSPost2010PropOp54
 70
     1
102
RTVSPost2010Prop55
280
     0
102
RTVSPost2010PropOp55
 70
     1
102
RTVSPost2010Prop56
140
1.0
102
RTVSPost2010PropOp56
 70
     1
102
RTVSPost2010Prop57
140
1.0
102
RTVSPost2010PropOp57
 70
     1
  0
XRECORD
  5
17B
102
{ACAD_REACTORS
330
17A
102
}
330
17A
100
AcDbXrecord
280
     1
102
RTVSPost2010Prop28
280
     0
102
RTVSPost2010PropOp28
 70
     1
102
RTVSPost2010Prop29
280
     1
102
RTVSPost2010PropOp29
 70
     1
102
RTVSPost2010Prop30
280
     1
102
RTVSPost2010PropOp30
 70
     1
102
RTVSPost2010Prop31
280
     0
102
RTVSPost2010PropOp31
 70
     1
102
RTVSPost2010Prop32
280
     0
102
RTVSPost2010PropOp32
 70
     1
102
RTVSPost2010Prop33
280
     0
102
RTVSPost2010PropOp33
 70
     1
102
RTVSPost2010Prop34
280
     0
102
RTVSPost2010PropOp34
 70
     1
102
RTVSPost2010Prop35
280
     0
102
RTVSPost2010PropOp35
 70
     1
102
RTVSPost2010Prop36
280
     0
102
RTVSPost2010PropOp36
 70
     1
102
RTVSPost2010Prop37
 90
       50
102
RTVSPost2010PropOp37
 70
     1
102
RTVSPost2010Prop38
140
0.0
102
RTVSPost2010PropOp38
 70
     1
102
RTVSPost2010Prop39
140
1.0
102
RTVSPost2010PropOp39
 70
     1
102
RTVSPost2010Prop40
 90
        0
102
RTVSPost2010PropOp40
 70
     1
102
RTVSPost2010Prop41ColorIndex
 90
       18
102
RTVSPost2010Prop41ColorRGB
 90
        0
102
RTVSPost2010PropOp41
 70
     1
102
RTVSPost2010Prop42
 90
       50
102
RTVSPost2010PropOp42
 70
     1
102
RTVSPost2010Prop43
 90
        3
102
RTVSPost2010PropOp43
 70
     1
102
RTVSPost2010Prop44ColorIndex
 90
        5
102
RTVSPost2010Prop44ColorRGB
 90
      255
102
RTVSPost2010PropOp44
 70
     1
102
RTVSPost2010Prop45
280
     0
102
RTVSPost2010PropOp45
 70
     1
102
RTVSPost2010Prop46
 90
       50
102
RTVSPost2010PropOp46
 70
     1
102
RTVSPost2010Prop47
 90
       50
102
RTVSPost2010PropOp47
 70
     1
102
RTVSPost2010Prop48
 90
       50
102
RTVSPost2010PropOp48
 70
     1
102
RTVSPost2010Prop49
280
     0
102
RTVSPost2010PropOp49
 70
     1
102
RTVSPost2010Prop50
 90
       50
102
RTVSPost2010PropOp50
 70
     1
102
RTVSPost2010Prop51ColorIndex
 90
      256
102
RTVSPost2010Prop51ColorRGB
 90
-16777216
102
RTVSPost2010PropOp51
 70
     0
102
RTVSPost2010Prop52
140
1.0
102
RTVSPost2010PropOp52
 70
     0
102
RTVSPost2010Prop53
 90
        2
102
RTVSPost2010PropOp53
 70
     1
102
RTVSPost2010Prop54
  1
strokes_ogs.tif
102
RTVSPost2010PropOp54
 70
     1
102
RTVSPost2010Prop55
280
     0
102
RTVSPost2010PropOp55
 70
     1
102
RTVSPost2010Prop56
140
1.0
102
RTVSPost2010PropOp56
 70
     1
102
RTVSPost2010Prop57
140
1.0
102
RTVSPost2010PropOp57
 70
     1
  0
XRECORD
  5
17D
102
{ACAD_REACTORS
330
17C
102
}
330
17C
100
AcDbXrecord
280
     1
102
RTVSPost2010Prop28
280
     0
102
RTVSPost2010PropOp28
 70
     1
102
RTVSPost2010Prop29
280
     1
102
RTVSPost2010PropOp29
 70
     1
102
RTVSPost2010Prop30
280
     1
102
RTVSPost2010PropOp30
 70
     1
102
RTVSPost2010Prop31
280
     0
102
RTVSPost2010PropOp31
 70
     1
102
RTVSPost2010Prop32
280
     0
102
RTVSPost2010PropOp32
 70
     1
102
RTVSPost2010Prop33
280
     0
102
RTVSPost2010PropOp33
 70
     1
102
RTVSPost2010Prop34
280
     0
102
RTVSPost2010PropOp34
 70
     1
102
RTVSPost2010Prop35
280
     0
102
RTVSPost2010PropOp35
 70
     1
102
RTVSPost2010Prop36
280
     0
102
RTVSPost2010PropOp36
 70
     1
102
RTVSPost2010Prop37
 90
       50
102
RTVSPost2010PropOp37
 70
     1
102
RTVSPost2010Prop38
140
0.0
102
RTVSPost2010PropOp38
 70
     1
102
RTVSPost2010Prop39
140
1.0
102
RTVSPost2010PropOp39
 70
     1
102
RTVSPost2010Prop40
 90
        0
102
RTVSPost2010PropOp40
 70
     1
102
RTVSPost2010Prop41ColorIndex
 90
       18
102
RTVSPost2010Prop41ColorRGB
 90
        0
102
RTVSPost2010PropOp41
 70
     1
102
RTVSPost2010Prop42
 90
       50
102
RTVSPost2010PropOp42
 70
     1
102
RTVSPost2010Prop43
 90
        3
102
RTVSPost2010PropOp43
 70
     1
102
RTVSPost2010Prop44ColorIndex
 90
        5
102
RTVSPost2010Prop44ColorRGB
 90
      255
102
RTVSPost2010PropOp44
 70
     1
102
RTVSPost2010Prop45
280
     0
102
RTVSPost2010PropOp45
 70
     1
102
RTVSPost2010Prop46
 90
       50
102
RTVSPost2010PropOp46
 70
     1
102
RTVSPost2010Prop47
 90
       50
102
RTVSPost2010PropOp47
 70
     1
102
RTVSPost2010Prop48
 90
       50
102
RTVSPost2010PropOp48
 70
     1
102
RTVSPost2010Prop49
280
     0
102
RTVSPost2010PropOp49
 70
     1
102
RTVSPost2010Prop50
 90
       50
102
RTVSPost2010PropOp50
 70
     1
102
RTVSPost2010Prop51ColorIndex
 90
      256
102
RTVSPost2010Prop51ColorRGB
 90
-16777216
102
RTVSPost2010PropOp51
 70
     0
102
RTVSPost2010Prop52
140
1.0
102
RTVSPost2010PropOp52
 70
     0
102
RTVSPost2010Prop53
 90
        2
102
RTVSPost2010PropOp53
 70
     1
102
RTVSPost2010Prop54
  1
strokes_ogs.tif
102
RTVSPost2010PropOp54
 70
     1
102
RTVSPost2010Prop55
280
     0
102
RTVSPost2010PropOp55
 70
     1
102
RTVSPost2010Prop56
140
1.0
102
RTVSPost2010PropOp56
 70
     1
102
RTVSPost2010Prop57
140
1.0
102
RTVSPost2010PropOp57
 70
     1
  0
XRECORD
  5
17F
102
{ACAD_REACTORS
330
17E
102
}
330
17E
100
AcDbXrecord
280
     1
102
RTVSPost2010Prop28
280
     0
102
RTVSPost2010PropOp28
 70
     1
102
RTVSPost2010Prop29
280
     1
102
RTVSPost2010PropOp29
 70
     1
102
RTVSPost2010Prop30
280
     1
102
RTVSPost2010PropOp30
 70
     1
102
RTVSPost2010Prop31
280
     0
102
RTVSPost2010PropOp31
 70
     1
102
RTVSPost2010Prop32
280
     0
102
RTVSPost2010PropOp32
 70
     1
102
RTVSPost2010Prop33
280
     0
102
RTVSPost2010PropOp33
 70
     1
102
RTVSPost2010Prop34
280
     0
102
RTVSPost2010PropOp34
 70
     1
102
RTVSPost2010Prop35
280
     0
102
RTVSPost2010PropOp35
 70
     1
102
RTVSPost2010Prop36
280
     0
102
RTVSPost2010PropOp36
 70
     1
102
RTVSPost2010Prop37
 90
       50
102
RTVSPost2010PropOp37
 70
     1
102
RTVSPost2010Prop38
140
0.0
102
RTVSPost2010PropOp38
 70
     1
102
RTVSPost2010Prop39
140
1.0
102
RTVSPost2010PropOp39
 70
     1
102
RTVSPost2010Prop40
 90
        0
102
RTVSPost2010PropOp40
 70
     1
102
RTVSPost2010Prop41ColorIndex
 90
       18
102
RTVSPost2010Prop41ColorRGB
 90
        0
102
RTVSPost2010PropOp41
 70
     1
102
RTVSPost2010Prop42
 90
       50
102
RTVSPost2010PropOp42
 70
     1
102
RTVSPost2010Prop43
 90
        3
102
RTVSPost2010PropOp43
 70
     1
102
RTVSPost2010Prop44ColorIndex
 90
        5
102
RTVSPost2010Prop44ColorRGB
 90
      255
102
RTVSPost2010PropOp44
 70
     1
102
RTVSPost2010Prop45
280
     0
102
RTVSPost2010PropOp45
 70
     1
102
RTVSPost2010Prop46
 90
       50
102
RTVSPost2010PropOp46
 70
     1
102
RTVSPost2010Prop47
 90
       50
102
RTVSPost2010PropOp47
 70
     1
102
RTVSPost2010Prop48
 90
       50
102
RTVSPost2010PropOp48
 70
     1
102
RTVSPost2010Prop49
280
     0
102
RTVSPost2010PropOp49
 70
     1
102
RTVSPost2010Prop50
 90
       50
102
RTVSPost2010PropOp50
 70
     1
102
RTVSPost2010Prop51ColorIndex
 90
      256
102
RTVSPost2010Prop51ColorRGB
 90
-16777216
102
RTVSPost2010PropOp51
 70
     0
102
RTVSPost2010Prop52
140
1.0
102
RTVSPost2010PropOp52
 70
     0
102
RTVSPost2010Prop53
 90
        2
102
RTVSPost2010PropOp53
 70
     1
102
RTVSPost2010Prop54
  1
strokes_ogs.tif
102
RTVSPost2010PropOp54
 70
     1
102
RTVSPost2010Prop55
280
     0
102
RTVSPost2010PropOp55
 70
     1
102
RTVSPost2010Prop56
140
1.0
102
RTVSPost2010PropOp56
 70
     1
102
RTVSPost2010Prop57
140
1.0
102
RTVSPost2010PropOp57
 70
     1
  0
XRECORD
  5
181
102
{ACAD_REACTORS
330
180
102
}
330
180
100
AcDbXrecord
280
     1
102
RTVSPost2010Prop28
280
     0
102
RTVSPost2010PropOp28
 70
     1
102
RTVSPost2010Prop29
280
     1
102
RTVSPost2010PropOp29
 70
     1
102
RTVSPost2010Prop30
280
     1
102
RTVSPost2010PropOp30
 70
     1
102
RTVSPost2010Prop31
280
     0
102
RTVSPost2010PropOp31
 70
     1
102
RTVSPost2010Prop32
280
     0
102
RTVSPost2010PropOp32
 70
     1
102
RTVSPost2010Prop33
280
     0
102
RTVSPost2010PropOp33
 70
     1
102
RTVSPost2010Prop34
280
     0
102
RTVSPost2010PropOp34
 70
     1
102
RTVSPost2010Prop35
280
     0
102
RTVSPost2010PropOp35
 70
     1
102
RTVSPost2010Prop36
280
     0
102
RTVSPost2010PropOp36
 70
     1
102
RTVSPost2010Prop37
 90
       50
102
RTVSPost2010PropOp37
 70
     1
102
RTVSPost2010Prop38
140
0.0
102
RTVSPost2010PropOp38
 70
     1
102
RTVSPost2010Prop39
140
1.0
102
RTVSPost2010PropOp39
 70
     1
102
RTVSPost2010Prop40
 90
        0
102
RTVSPost2010PropOp40
 70
     1
102
RTVSPost2010Prop41ColorIndex
 90
       18
102
RTVSPost2010Prop41ColorRGB
 90
        0
102
RTVSPost2010PropOp41
 70
     1
102
RTVSPost2010Prop42
 90
       50
102
RTVSPost2010PropOp42
 70
     1
102
RTVSPost2010Prop43
 90
        3
102
RTVSPost2010PropOp43
 70
     1
102
RTVSPost2010Prop44ColorIndex
 90
        5
102
RTVSPost2010Prop44ColorRGB
 90
      255
102
RTVSPost2010PropOp44
 70
     1
102
RTVSPost2010Prop45
280
     0
102
RTVSPost2010PropOp45
 70
     1
102
RTVSPost2010Prop46
 90
       50
102
RTVSPost2010PropOp46
 70
     1
102
RTVSPost2010Prop47
 90
       50
102
RTVSPost2010PropOp47
 70
     1
102
RTVSPost2010Prop48
 90
       50
102
RTVSPost2010PropOp48
 70
     1
102
RTVSPost2010Prop49
280
     0
102
RTVSPost2010PropOp49
 70
     1
102
RTVSPost2010Prop50
 90
       50
102
RTVSPost2010PropOp50
 70
     1
102
RTVSPost2010Prop51ColorIndex
 90
      256
102
RTVSPost2010Prop51ColorRGB
 90
-16777216
102
RTVSPost2010PropOp51
 70
     0
102
RTVSPost2010Prop52
140
1.0
102
RTVSPost2010PropOp52
 70
     0
102
RTVSPost2010Prop53
 90
        2
102
RTVSPost2010PropOp53
 70
     1
102
RTVSPost2010Prop54
  1
strokes_ogs.tif
102
RTVSPost2010PropOp54
 70
     1
102
RTVSPost2010Prop55
280
     0
102
RTVSPost2010PropOp55
 70
     1
102
RTVSPost2010Prop56
140
1.0
102
RTVSPost2010PropOp56
 70
     1
102
RTVSPost2010Prop57
140
1.0
102
RTVSPost2010PropOp57
 70
     1
  0
XRECORD
  5
189
102
{ACAD_REACTORS
330
188
102
}
330
188
100
AcDbXrecord
280
     1
102
RTVSPost2010Prop28
280
     0
102
RTVSPost2010PropOp28
 70
     1
102
RTVSPost2010Prop29
280
     1
102
RTVSPost2010PropOp29
 70
     1
102
RTVSPost2010Prop30
280
     1
102
RTVSPost2010PropOp30
 70
     1
102
RTVSPost2010Prop31
280
     0
102
RTVSPost2010PropOp31
 70
     1
102
RTVSPost2010Prop32
280
     0
102
RTVSPost2010PropOp32
 70
     1
102
RTVSPost2010Prop33
280
     0
102
RTVSPost2010PropOp33
 70
     1
102
RTVSPost2010Prop34
280
     0
102
RTVSPost2010PropOp34
 70
     1
102
RTVSPost2010Prop35
280
     0
102
RTVSPost2010PropOp35
 70
     1
102
RTVSPost2010Prop36
280
     0
102
RTVSPost2010PropOp36
 70
     1
102
RTVSPost2010Prop37
 90
       50
102
RTVSPost2010PropOp37
 70
     1
102
RTVSPost2010Prop38
140
0.0
102
RTVSPost2010PropOp38
 70
     1
102
RTVSPost2010Prop39
140
1.0
102
RTVSPost2010PropOp39
 70
     1
102
RTVSPost2010Prop40
 90
        0
102
RTVSPost2010PropOp40
 70
     1
102
RTVSPost2010Prop41ColorIndex
 90
       18
102
RTVSPost2010Prop41ColorRGB
 90
        0
102
RTVSPost2010PropOp41
 70
     1
102
RTVSPost2010Prop42
 90
       50
102
RTVSPost2010PropOp42
 70
     1
102
RTVSPost2010Prop43
 90
        3
102
RTVSPost2010PropOp43
 70
     1
102
RTVSPost2010Prop44ColorIndex
 90
        5
102
RTVSPost2010Prop44ColorRGB
 90
      255
102
RTVSPost2010PropOp44
 70
     1
102
RTVSPost2010Prop45
280
     0
102
RTVSPost2010PropOp45
 70
     1
102
RTVSPost2010Prop46
 90
       50
102
RTVSPost2010PropOp46
 70
     1
102
RTVSPost2010Prop47
 90
       50
102
RTVSPost2010PropOp47
 70
     1
102
RTVSPost2010Prop48
 90
       50
102
RTVSPost2010PropOp48
 70
     1
102
RTVSPost2010Prop49
280
     0
102
RTVSPost2010PropOp49
 70
     1
102
RTVSPost2010Prop50
 90
       50
102
RTVSPost2010PropOp50
 70
     1
102
RTVSPost2010Prop51ColorIndex
 90
      256
102
RTVSPost2010Prop51ColorRGB
 90
-16777216
102
RTVSPost2010PropOp51
 70
     0
102
RTVSPost2010Prop52
140
1.0
102
RTVSPost2010PropOp52
 70
     0
102
RTVSPost2010Prop53
 90
        2
102
RTVSPost2010PropOp53
 70
     1
102
RTVSPost2010Prop54
  1
strokes_ogs.tif
102
RTVSPost2010PropOp54
 70
     1
102
RTVSPost2010Prop55
280
     0
102
RTVSPost2010PropOp55
 70
     1
102
RTVSPost2010Prop56
140
1.0
102
RTVSPost2010PropOp56
 70
     1
102
RTVSPost2010Prop57
140
1.0
102
RTVSPost2010PropOp57
 70
     1
  0
XRECORD
  5
1A5
102
{ACAD_REACTORS
330
1A4
102
}
330
1A4
100
AcDbXrecord
280
     1
102
RTVSPost2010Prop28
280
     0
102
RTVSPost2010PropOp28
 70
     0
102
RTVSPost2010Prop29
280
     1
102
RTVSPost2010PropOp29
 70
     0
102
RTVSPost2010Prop30
280
     1
102
RTVSPost2010PropOp30
 70
     0
102
RTVSPost2010Prop31
280
     0
102
RTVSPost2010PropOp31
 70
     0
102
RTVSPost2010Prop32
280
     0
102
RTVSPost2010PropOp32
 70
     0
102
RTVSPost2010Prop33
280
     0
102
RTVSPost2010PropOp33
 70
     0
102
RTVSPost2010Prop34
280
     0
102
RTVSPost2010PropOp34
 70
     0
102
RTVSPost2010Prop35
280
     0
102
RTVSPost2010PropOp35
 70
     0
102
RTVSPost2010Prop36
280
     0
102
RTVSPost2010PropOp36
 70
     0
102
RTVSPost2010Prop37
 90
       50
102
RTVSPost2010PropOp37
 70
     0
102
RTVSPost2010Prop38
140
0.0
102
RTVSPost2010PropOp38
 70
     0
102
RTVSPost2010Prop39
140
1.0
102
RTVSPost2010PropOp39
 70
     0
102
RTVSPost2010Prop40
 90
        0
102
RTVSPost2010PropOp40
 70
     0
102
RTVSPost2010Prop41ColorIndex
 90
       18
102
RTVSPost2010Prop41ColorRGB
 90
        0
102
RTVSPost2010PropOp41
 70
     0
102
RTVSPost2010Prop42
 90
       50
102
RTVSPost2010PropOp42
 70
     0
102
RTVSPost2010Prop43
 90
        3
102
RTVSPost2010PropOp43
 70
     0
102
RTVSPost2010Prop44ColorIndex
 90
        5
102
RTVSPost2010Prop44ColorRGB
 90
      255
102
RTVSPost2010PropOp44
 70
     0
102
RTVSPost2010Prop45
280
     0
102
RTVSPost2010PropOp45
 70
     0
102
RTVSPost2010Prop46
 90
       50
102
RTVSPost2010PropOp46
 70
     0
102
RTVSPost2010Prop47
 90
       50
102
RTVSPost2010PropOp47
 70
     0
102
RTVSPost2010Prop48
 90
       50
102
RTVSPost2010PropOp48
 70
     0
102
RTVSPost2010Prop49
280
     0
102
RTVSPost2010PropOp49
 70
     0
102
RTVSPost2010Prop50
 90
       50
102
RTVSPost2010PropOp50
 70
     0
102
RTVSPost2010Prop51ColorIndex
 90
      256
102
RTVSPost2010Prop51ColorRGB
 90
-16777216
102
RTVSPost2010PropOp51
 70
     0
102
RTVSPost2010Prop52
140
1.0
102
RTVSPost2010PropOp52
 70
     0
102
RTVSPost2010Prop53
 90
        2
102
RTVSPost2010PropOp53
 70
     0
102
RTVSPost2010Prop54
  1
strokes_ogs.tif
102
RTVSPost2010PropOp54
 70
     0
102
RTVSPost2010Prop55
280
     0
102
RTVSPost2010PropOp55
 70
     0
102
RTVSPost2010Prop56
140
1.0
102
RTVSPost2010PropOp56
 70
     0
102
RTVSPost2010Prop57
140
1.0
102
RTVSPost2010PropOp57
 70
     0
  0
XRECORD
  5
195
102
{ACAD_REACTORS
330
194
102
}
330
194
100
AcDbXrecord
280
     1
102
RTVSPost2010Prop28
280
     0
102
RTVSPost2010PropOp28
 70
     1
102
RTVSPost2010Prop29
280
     1
102
RTVSPost2010PropOp29
 70
     1
102
RTVSPost2010Prop30
280
     1
102
RTVSPost2010PropOp30
 70
     1
102
RTVSPost2010Prop31
280
     0
102
RTVSPost2010PropOp31
 70
     1
102
RTVSPost2010Prop32
280
     0
102
RTVSPost2010PropOp32
 70
     1
102
RTVSPost2010Prop33
280
     0
102
RTVSPost2010PropOp33
 70
     1
102
RTVSPost2010Prop34
280
     0
102
RTVSPost2010PropOp34
 70
     1
102
RTVSPost2010Prop35
280
     0
102
RTVSPost2010PropOp35
 70
     1
102
RTVSPost2010Prop36
280
     0
102
RTVSPost2010PropOp36
 70
     1
102
RTVSPost2010Prop37
 90
       50
102
RTVSPost2010PropOp37
 70
     1
102
RTVSPost2010Prop38
140
0.0
102
RTVSPost2010PropOp38
 70
     1
102
RTVSPost2010Prop39
140
1.0
102
RTVSPost2010PropOp39
 70
     1
102
RTVSPost2010Prop40
 90
        0
102
RTVSPost2010PropOp40
 70
     1
102
RTVSPost2010Prop41ColorIndex
 90
       18
102
RTVSPost2010Prop41ColorRGB
 90
        0
102
RTVSPost2010PropOp41
 70
     1
102
RTVSPost2010Prop42
 90
       50
102
RTVSPost2010PropOp42
 70
     1
102
RTVSPost2010Prop43
 90
        3
102
RTVSPost2010PropOp43
 70
     1
102
RTVSPost2010Prop44ColorIndex
 90
        5
102
RTVSPost2010Prop44ColorRGB
 90
      255
102
RTVSPost2010PropOp44
 70
     1
102
RTVSPost2010Prop45
280
     0
102
RTVSPost2010PropOp45
 70
     1
102
RTVSPost2010Prop46
 90
       50
102
RTVSPost2010PropOp46
 70
     1
102
RTVSPost2010Prop47
 90
       50
102
RTVSPost2010PropOp47
 70
     1
102
RTVSPost2010Prop48
 90
       50
102
RTVSPost2010PropOp48
 70
     1
102
RTVSPost2010Prop49
280
     0
102
RTVSPost2010PropOp49
 70
     1
102
RTVSPost2010Prop50
 90
       50
102
RTVSPost2010PropOp50
 70
     1
102
RTVSPost2010Prop51ColorIndex
 90
      256
102
RTVSPost2010Prop51ColorRGB
 90
-16777216
102
RTVSPost2010PropOp51
 70
     0
102
RTVSPost2010Prop52
140
1.0
102
RTVSPost2010PropOp52
 70
     0
102
RTVSPost2010Prop53
 90
        2
102
RTVSPost2010PropOp53
 70
     1
102
RTVSPost2010Prop54
  1
strokes_ogs.tif
102
RTVSPost2010PropOp54
 70
     1
102
RTVSPost2010Prop55
280
     0
102
RTVSPost2010PropOp55
 70
     1
102
RTVSPost2010Prop56
140
1.0
102
RTVSPost2010PropOp56
 70
     1
102
RTVSPost2010Prop57
140
1.0
102
RTVSPost2010PropOp57
 70
     1
  0
XRECORD
  5
1A7
102
{ACAD_REACTORS
330
1A6
102
}
330
1A6
100
AcDbXrecord
280
     1
102
RTVSPost2010Prop28
280
     0
102
RTVSPost2010PropOp28
 70
     0
102
RTVSPost2010Prop29
280
     1
102
RTVSPost2010PropOp29
 70
     0
102
RTVSPost2010Prop30
280
     1
102
RTVSPost2010PropOp30
 70
     0
102
RTVSPost2010Prop31
280
     0
102
RTVSPost2010PropOp31
 70
     0
102
RTVSPost2010Prop32
280
     0
102
RTVSPost2010PropOp32
 70
     0
102
RTVSPost2010Prop33
280
     0
102
RTVSPost2010PropOp33
 70
     0
102
RTVSPost2010Prop34
280
     0
102
RTVSPost2010PropOp34
 70
     0
102
RTVSPost2010Prop35
280
     0
102
RTVSPost2010PropOp35
 70
     0
102
RTVSPost2010Prop36
280
     0
102
RTVSPost2010PropOp36
 70
     0
102
RTVSPost2010Prop37
 90
       50
102
RTVSPost2010PropOp37
 70
     0
102
RTVSPost2010Prop38
140
0.0
102
RTVSPost2010PropOp38
 70
     0
102
RTVSPost2010Prop39
140
1.0
102
RTVSPost2010PropOp39
 70
     0
102
RTVSPost2010Prop40
 90
        0
102
RTVSPost2010PropOp40
 70
     0
102
RTVSPost2010Prop41ColorIndex
 90
       18
102
RTVSPost2010Prop41ColorRGB
 90
        0
102
RTVSPost2010PropOp41
 70
     0
102
RTVSPost2010Prop42
 90
       50
102
RTVSPost2010PropOp42
 70
     0
102
RTVSPost2010Prop43
 90
        3
102
RTVSPost2010PropOp43
 70
     0
102
RTVSPost2010Prop44ColorIndex
 90
        5
102
RTVSPost2010Prop44ColorRGB
 90
      255
102
RTVSPost2010PropOp44
 70
     0
102
RTVSPost2010Prop45
280
     0
102
RTVSPost2010PropOp45
 70
     0
102
RTVSPost2010Prop46
 90
       50
102
RTVSPost2010PropOp46
 70
     0
102
RTVSPost2010Prop47
 90
       50
102
RTVSPost2010PropOp47
 70
     0
102
RTVSPost2010Prop48
 90
       50
102
RTVSPost2010PropOp48
 70
     0
102
RTVSPost2010Prop49
280
     0
102
RTVSPost2010PropOp49
 70
     0
102
RTVSPost2010Prop50
 90
       50
102
RTVSPost2010PropOp50
 70
     0
102
RTVSPost2010Prop51ColorIndex
 90
      256
102
RTVSPost2010Prop51ColorRGB
 90
-16777216
102
RTVSPost2010PropOp51
 70
     0
102
RTVSPost2010Prop52
140
1.0
102
RTVSPost2010PropOp52
 70
     0
102
RTVSPost2010Prop53
 90
        2
102
RTVSPost2010PropOp53
 70
     0
102
RTVSPost2010Prop54
  1
strokes_ogs.tif
102
RTVSPost2010PropOp54
 70
     0
102
RTVSPost2010Prop55
280
     0
102
RTVSPost2010PropOp55
 70
     0
102
RTVSPost2010Prop56
140
1.0
102
RTVSPost2010PropOp56
 70
     0
102
RTVSPost2010Prop57
140
1.0
102
RTVSPost2010PropOp57
 70
     0
  0
XRECORD
  5
18D
102
{ACAD_REACTORS
330
18C
102
}
330
18C
100
AcDbXrecord
280
     1
102
RTVSPost2010Prop28
280
     0
102
RTVSPost2010PropOp28
 70
     1
102
RTVSPost2010Prop29
280
     1
102
RTVSPost2010PropOp29
 70
     1
102
RTVSPost2010Prop30
280
     1
102
RTVSPost2010PropOp30
 70
     1
102
RTVSPost2010Prop31
280
     0
102
RTVSPost2010PropOp31
 70
     1
102
RTVSPost2010Prop32
280
     0
102
RTVSPost2010PropOp32
 70
     1
102
RTVSPost2010Prop33
280
     0
102
RTVSPost2010PropOp33
 70
     1
102
RTVSPost2010Prop34
280
     0
102
RTVSPost2010PropOp34
 70
     1
102
RTVSPost2010Prop35
280
     0
102
RTVSPost2010PropOp35
 70
     1
102
RTVSPost2010Prop36
280
     0
102
RTVSPost2010PropOp36
 70
     1
102
RTVSPost2010Prop37
 90
       50
102
RTVSPost2010PropOp37
 70
     1
102
RTVSPost2010Prop38
140
0.0
102
RTVSPost2010PropOp38
 70
     1
102
RTVSPost2010Prop39
140
1.0
102
RTVSPost2010PropOp39
 70
     1
102
RTVSPost2010Prop40
 90
        0
102
RTVSPost2010PropOp40
 70
     1
102
RTVSPost2010Prop41ColorIndex
 90
       18
102
RTVSPost2010Prop41ColorRGB
 90
        0
102
RTVSPost2010PropOp41
 70
     1
102
RTVSPost2010Prop42
 90
       50
102
RTVSPost2010PropOp42
 70
     1
102
RTVSPost2010Prop43
 90
        3
102
RTVSPost2010PropOp43
 70
     1
102
RTVSPost2010Prop44ColorIndex
 90
        5
102
RTVSPost2010Prop44ColorRGB
 90
      255
102
RTVSPost2010PropOp44
 70
     1
102
RTVSPost2010Prop45
280
     0
102
RTVSPost2010PropOp45
 70
     1
102
RTVSPost2010Prop46
 90
       50
102
RTVSPost2010PropOp46
 70
     1
102
RTVSPost2010Prop47
 90
       50
102
RTVSPost2010PropOp47
 70
     1
102
RTVSPost2010Prop48
 90
       50
102
RTVSPost2010PropOp48
 70
     1
102
RTVSPost2010Prop49
280
     0
102
RTVSPost2010PropOp49
 70
     1
102
RTVSPost2010Prop50
 90
       50
102
RTVSPost2010PropOp50
 70
     1
102
RTVSPost2010Prop51ColorIndex
 90
      256
102
RTVSPost2010Prop51ColorRGB
 90
-16777216
102
RTVSPost2010PropOp51
 70
     0
102
RTVSPost2010Prop52
140
1.0
102
RTVSPost2010PropOp52
 70
     0
102
RTVSPost2010Prop53
 90
        2
102
RTVSPost2010PropOp53
 70
     1
102
RTVSPost2010Prop54
  1
strokes_ogs.tif
102
RTVSPost2010PropOp54
 70
     1
102
RTVSPost2010Prop55
280
     0
102
RTVSPost2010PropOp55
 70
     1
102
RTVSPost2010Prop56
140
1.0
102
RTVSPost2010PropOp56
 70
     1
102
RTVSPost2010Prop57
140
1.0
102
RTVSPost2010PropOp57
 70
     1
  0
XRECORD
  5
1A3
102
{ACAD_REACTORS
330
1A2
102
}
330
1A2
100
AcDbXrecord
280
     1
102
RTVSPost2010Prop28
280
     0
102
RTVSPost2010PropOp28
 70
     1
102
RTVSPost2010Prop29
280
     1
102
RTVSPost2010PropOp29
 70
     1
102
RTVSPost2010Prop30
280
     1
102
RTVSPost2010PropOp30
 70
     1
102
RTVSPost2010Prop31
280
     0
102
RTVSPost2010PropOp31
 70
     1
102
RTVSPost2010Prop32
280
     0
102
RTVSPost2010PropOp32
 70
     1
102
RTVSPost2010Prop33
280
     0
102
RTVSPost2010PropOp33
 70
     1
102
RTVSPost2010Prop34
280
     0
102
RTVSPost2010PropOp34
 70
     1
102
RTVSPost2010Prop35
280
     0
102
RTVSPost2010PropOp35
 70
     1
102
RTVSPost2010Prop36
280
     0
102
RTVSPost2010PropOp36
 70
     1
102
RTVSPost2010Prop37
 90
       50
102
RTVSPost2010PropOp37
 70
     1
102
RTVSPost2010Prop38
140
0.0
102
RTVSPost2010PropOp38
 70
     1
102
RTVSPost2010Prop39
140
1.0
102
RTVSPost2010PropOp39
 70
     1
102
RTVSPost2010Prop40
 90
        0
102
RTVSPost2010PropOp40
 70
     1
102
RTVSPost2010Prop41ColorIndex
 90
       18
102
RTVSPost2010Prop41ColorRGB
 90
        0
102
RTVSPost2010PropOp41
 70
     1
102
RTVSPost2010Prop42
 90
       50
102
RTVSPost2010PropOp42
 70
     1
102
RTVSPost2010Prop43
 90
        3
102
RTVSPost2010PropOp43
 70
     1
102
RTVSPost2010Prop44ColorIndex
 90
        5
102
RTVSPost2010Prop44ColorRGB
 90
      255
102
RTVSPost2010PropOp44
 70
     1
102
RTVSPost2010Prop45
280
     0
102
RTVSPost2010PropOp45
 70
     1
102
RTVSPost2010Prop46
 90
       50
102
RTVSPost2010PropOp46
 70
     1
102
RTVSPost2010Prop47
 90
       50
102
RTVSPost2010PropOp47
 70
     1
102
RTVSPost2010Prop48
 90
       50
102
RTVSPost2010PropOp48
 70
     1
102
RTVSPost2010Prop49
280
     0
102
RTVSPost2010PropOp49
 70
     1
102
RTVSPost2010Prop50
 90
       50
102
RTVSPost2010PropOp50
 70
     1
102
RTVSPost2010Prop51ColorIndex
 90
      256
102
RTVSPost2010Prop51ColorRGB
 90
-16777216
102
RTVSPost2010PropOp51
 70
     0
102
RTVSPost2010Prop52
140
1.0
102
RTVSPost2010PropOp52
 70
     0
102
RTVSPost2010Prop53
 90
        2
102
RTVSPost2010PropOp53
 70
     1
102
RTVSPost2010Prop54
  1
strokes_ogs.tif
102
RTVSPost2010PropOp54
 70
     1
102
RTVSPost2010Prop55
280
     0
102
RTVSPost2010PropOp55
 70
     1
102
RTVSPost2010Prop56
140
1.0
102
RTVSPost2010PropOp56
 70
     1
102
RTVSPost2010Prop57
140
1.0
102
RTVSPost2010PropOp57
 70
     1
  0
XRECORD
  5
1A1
102
{ACAD_REACTORS
330
1A0
102
}
330
1A0
100
AcDbXrecord
280
     1
102
RTVSPost2010Prop28
280
     0
102
RTVSPost2010PropOp28
 70
     1
102
RTVSPost2010Prop29
280
     1
102
RTVSPost2010PropOp29
 70
     1
102
RTVSPost2010Prop30
280
     1
102
RTVSPost2010PropOp30
 70
     1
102
RTVSPost2010Prop31
280
     0
102
RTVSPost2010PropOp31
 70
     1
102
RTVSPost2010Prop32
280
     0
102
RTVSPost2010PropOp32
 70
     1
102
RTVSPost2010Prop33
280
     0
102
RTVSPost2010PropOp33
 70
     1
102
RTVSPost2010Prop34
280
     0
102
RTVSPost2010PropOp34
 70
     1
102
RTVSPost2010Prop35
280
     0
102
RTVSPost2010PropOp35
 70
     1
102
RTVSPost2010Prop36
280
     0
102
RTVSPost2010PropOp36
 70
     1
102
RTVSPost2010Prop37
 90
       50
102
RTVSPost2010PropOp37
 70
     1
102
RTVSPost2010Prop38
140
0.0
102
RTVSPost2010PropOp38
 70
     1
102
RTVSPost2010Prop39
140
1.0
102
RTVSPost2010PropOp39
 70
     1
102
RTVSPost2010Prop40
 90
        0
102
RTVSPost2010PropOp40
 70
     1
102
RTVSPost2010Prop41ColorIndex
 90
       18
102
RTVSPost2010Prop41ColorRGB
 90
        0
102
RTVSPost2010PropOp41
 70
     1
102
RTVSPost2010Prop42
 90
       50
102
RTVSPost2010PropOp42
 70
     1
102
RTVSPost2010Prop43
 90
        3
102
RTVSPost2010PropOp43
 70
     1
102
RTVSPost2010Prop44ColorIndex
 90
        5
102
RTVSPost2010Prop44ColorRGB
 90
      255
102
RTVSPost2010PropOp44
 70
     1
102
RTVSPost2010Prop45
280
     0
102
RTVSPost2010PropOp45
 70
     1
102
RTVSPost2010Prop46
 90
       50
102
RTVSPost2010PropOp46
 70
     1
102
RTVSPost2010Prop47
 90
       50
102
RTVSPost2010PropOp47
 70
     1
102
RTVSPost2010Prop48
 90
       50
102
RTVSPost2010PropOp48
 70
     1
102
RTVSPost2010Prop49
280
     0
102
RTVSPost2010PropOp49
 70
     1
102
RTVSPost2010Prop50
 90
       50
102
RTVSPost2010PropOp50
 70
     1
102
RTVSPost2010Prop51ColorIndex
 90
      256
102
RTVSPost2010Prop51ColorRGB
 90
-16777216
102
RTVSPost2010PropOp51
 70
     0
102
RTVSPost2010Prop52
140
1.0
102
RTVSPost2010PropOp52
 70
     0
102
RTVSPost2010Prop53
 90
        2
102
RTVSPost2010PropOp53
 70
     1
102
RTVSPost2010Prop54
  1
strokes_ogs.tif
102
RTVSPost2010PropOp54
 70
     1
102
RTVSPost2010Prop55
280
     0
102
RTVSPost2010PropOp55
 70
     1
102
RTVSPost2010Prop56
140
1.0
102
RTVSPost2010PropOp56
 70
     1
102
RTVSPost2010Prop57
140
1.0
102
RTVSPost2010PropOp57
 70
     1
  0
XRECORD
  5
19B
102
{ACAD_REACTORS
330
19A
102
}
330
19A
100
AcDbXrecord
280
     1
102
RTVSPost2010Prop28
280
     0
102
RTVSPost2010PropOp28
 70
     1
102
RTVSPost2010Prop29
280
     1
102
RTVSPost2010PropOp29
 70
     1
102
RTVSPost2010Prop30
280
     1
102
RTVSPost2010PropOp30
 70
     1
102
RTVSPost2010Prop31
280
     0
102
RTVSPost2010PropOp31
 70
     1
102
RTVSPost2010Prop32
280
     0
102
RTVSPost2010PropOp32
 70
     1
102
RTVSPost2010Prop33
280
     0
102
RTVSPost2010PropOp33
 70
     1
102
RTVSPost2010Prop34
280
     0
102
RTVSPost2010PropOp34
 70
     1
102
RTVSPost2010Prop35
280
     0
102
RTVSPost2010PropOp35
 70
     1
102
RTVSPost2010Prop36
280
     0
102
RTVSPost2010PropOp36
 70
     1
102
RTVSPost2010Prop37
 90
       50
102
RTVSPost2010PropOp37
 70
     1
102
RTVSPost2010Prop38
140
0.0
102
RTVSPost2010PropOp38
 70
     1
102
RTVSPost2010Prop39
140
1.0
102
RTVSPost2010PropOp39
 70
     1
102
RTVSPost2010Prop40
 90
        0
102
RTVSPost2010PropOp40
 70
     1
102
RTVSPost2010Prop41ColorIndex
 90
       18
102
RTVSPost2010Prop41ColorRGB
 90
        0
102
RTVSPost2010PropOp41
 70
     1
102
RTVSPost2010Prop42
 90
       50
102
RTVSPost2010PropOp42
 70
     1
102
RTVSPost2010Prop43
 90
        3
102
RTVSPost2010PropOp43
 70
     1
102
RTVSPost2010Prop44ColorIndex
 90
        5
102
RTVSPost2010Prop44ColorRGB
 90
      255
102
RTVSPost2010PropOp44
 70
     1
102
RTVSPost2010Prop45
280
     0
102
RTVSPost2010PropOp45
 70
     1
102
RTVSPost2010Prop46
 90
       50
102
RTVSPost2010PropOp46
 70
     1
102
RTVSPost2010Prop47
 90
       50
102
RTVSPost2010PropOp47
 70
     1
102
RTVSPost2010Prop48
 90
       50
102
RTVSPost2010PropOp48
 70
     1
102
RTVSPost2010Prop49
280
     0
102
RTVSPost2010PropOp49
 70
     1
102
RTVSPost2010Prop50
 90
       50
102
RTVSPost2010PropOp50
 70
     1
102
RTVSPost2010Prop51ColorIndex
 90
      256
102
RTVSPost2010Prop51ColorRGB
 90
-16777216
102
RTVSPost2010PropOp51
 70
     0
102
RTVSPost2010Prop52
140
1.0
102
RTVSPost2010PropOp52
 70
     0
102
RTVSPost2010Prop53
 90
        2
102
RTVSPost2010PropOp53
 70
     1
102
RTVSPost2010Prop54
  1
strokes_ogs.tif
102
RTVSPost2010PropOp54
 70
     1
102
RTVSPost2010Prop55
280
     0
102
RTVSPost2010PropOp55
 70
     1
102
RTVSPost2010Prop56
140
1.0
102
RTVSPost2010PropOp56
 70
     1
102
RTVSPost2010Prop57
140
1.0
102
RTVSPost2010PropOp57
 70
     1
  0
XRECORD
  5
19D
102
{ACAD_REACTORS
330
19C
102
}
330
19C
100
AcDbXrecord
280
     1
102
RTVSPost2010Prop28
280
     0
102
RTVSPost2010PropOp28
 70
     1
102
RTVSPost2010Prop29
280
     1
102
RTVSPost2010PropOp29
 70
     1
102
RTVSPost2010Prop30
280
     1
102
RTVSPost2010PropOp30
 70
     1
102
RTVSPost2010Prop31
280
     0
102
RTVSPost2010PropOp31
 70
     1
102
RTVSPost2010Prop32
280
     0
102
RTVSPost2010PropOp32
 70
     1
102
RTVSPost2010Prop33
280
     0
102
RTVSPost2010PropOp33
 70
     1
102
RTVSPost2010Prop34
280
     0
102
RTVSPost2010PropOp34
 70
     1
102
RTVSPost2010Prop35
280
     0
102
RTVSPost2010PropOp35
 70
     1
102
RTVSPost2010Prop36
280
     0
102
RTVSPost2010PropOp36
 70
     1
102
RTVSPost2010Prop37
 90
       50
102
RTVSPost2010PropOp37
 70
     1
102
RTVSPost2010Prop38
140
0.0
102
RTVSPost2010PropOp38
 70
     1
102
RTVSPost2010Prop39
140
1.0
102
RTVSPost2010PropOp39
 70
     1
102
RTVSPost2010Prop40
 90
        0
102
RTVSPost2010PropOp40
 70
     1
102
RTVSPost2010Prop41ColorIndex
 90
       18
102
RTVSPost2010Prop41ColorRGB
 90
        0
102
RTVSPost2010PropOp41
 70
     1
102
RTVSPost2010Prop42
 90
       50
102
RTVSPost2010PropOp42
 70
     1
102
RTVSPost2010Prop43
 90
        3
102
RTVSPost2010PropOp43
 70
     1
102
RTVSPost2010Prop44ColorIndex
 90
        5
102
RTVSPost2010Prop44ColorRGB
 90
      255
102
RTVSPost2010PropOp44
 70
     1
102
RTVSPost2010Prop45
280
     0
102
RTVSPost2010PropOp45
 70
     1
102
RTVSPost2010Prop46
 90
       50
102
RTVSPost2010PropOp46
 70
     1
102
RTVSPost2010Prop47
 90
       50
102
RTVSPost2010PropOp47
 70
     1
102
RTVSPost2010Prop48
 90
       50
102
RTVSPost2010PropOp48
 70
     1
102
RTVSPost2010Prop49
280
     0
102
RTVSPost2010PropOp49
 70
     1
102
RTVSPost2010Prop50
 90
       50
102
RTVSPost2010PropOp50
 70
     1
102
RTVSPost2010Prop51ColorIndex
 90
      256
102
RTVSPost2010Prop51ColorRGB
 90
-16777216
102
RTVSPost2010PropOp51
 70
     0
102
RTVSPost2010Prop52
140
1.0
102
RTVSPost2010PropOp52
 70
     0
102
RTVSPost2010Prop53
 90
        2
102
RTVSPost2010PropOp53
 70
     1
102
RTVSPost2010Prop54
  1
strokes_ogs.tif
102
RTVSPost2010PropOp54
 70
     1
102
RTVSPost2010Prop55
280
     0
102
RTVSPost2010PropOp55
 70
     1
102
RTVSPost2010Prop56
140
1.0
102
RTVSPost2010PropOp56
 70
     1
102
RTVSPost2010Prop57
140
1.0
102
RTVSPost2010PropOp57
 70
     1
  0
XRECORD
  5
193
102
{ACAD_REACTORS
330
192
102
}
330
192
100
AcDbXrecord
280
     1
102
RTVSPost2010Prop28
280
     0
102
RTVSPost2010PropOp28
 70
     1
102
RTVSPost2010Prop29
280
     1
102
RTVSPost2010PropOp29
 70
     1
102
RTVSPost2010Prop30
280
     1
102
RTVSPost2010PropOp30
 70
     1
102
RTVSPost2010Prop31
280
     0
102
RTVSPost2010PropOp31
 70
     1
102
RTVSPost2010Prop32
280
     0
102
RTVSPost2010PropOp32
 70
     1
102
RTVSPost2010Prop33
280
     0
102
RTVSPost2010PropOp33
 70
     1
102
RTVSPost2010Prop34
280
     0
102
RTVSPost2010PropOp34
 70
     1
102
RTVSPost2010Prop35
280
     0
102
RTVSPost2010PropOp35
 70
     1
102
RTVSPost2010Prop36
280
     0
102
RTVSPost2010PropOp36
 70
     1
102
RTVSPost2010Prop37
 90
       50
102
RTVSPost2010PropOp37
 70
     1
102
RTVSPost2010Prop38
140
0.0
102
RTVSPost2010PropOp38
 70
     1
102
RTVSPost2010Prop39
140
1.0
102
RTVSPost2010PropOp39
 70
     1
102
RTVSPost2010Prop40
 90
        0
102
RTVSPost2010PropOp40
 70
     1
102
RTVSPost2010Prop41ColorIndex
 90
       18
102
RTVSPost2010Prop41ColorRGB
 90
        0
102
RTVSPost2010PropOp41
 70
     1
102
RTVSPost2010Prop42
 90
       50
102
RTVSPost2010PropOp42
 70
     1
102
RTVSPost2010Prop43
 90
        3
102
RTVSPost2010PropOp43
 70
     1
102
RTVSPost2010Prop44ColorIndex
 90
        5
102
RTVSPost2010Prop44ColorRGB
 90
      255
102
RTVSPost2010PropOp44
 70
     1
102
RTVSPost2010Prop45
280
     0
102
RTVSPost2010PropOp45
 70
     1
102
RTVSPost2010Prop46
 90
       50
102
RTVSPost2010PropOp46
 70
     1
102
RTVSPost2010Prop47
 90
       50
102
RTVSPost2010PropOp47
 70
     1
102
RTVSPost2010Prop48
 90
       50
102
RTVSPost2010PropOp48
 70
     1
102
RTVSPost2010Prop49
280
     0
102
RTVSPost2010PropOp49
 70
     1
102
RTVSPost2010Prop50
 90
       50
102
RTVSPost2010PropOp50
 70
     1
102
RTVSPost2010Prop51ColorIndex
 90
      256
102
RTVSPost2010Prop51ColorRGB
 90
-16777216
102
RTVSPost2010PropOp51
 70
     0
102
RTVSPost2010Prop52
140
1.0
102
RTVSPost2010PropOp52
 70
     0
102
RTVSPost2010Prop53
 90
        2
102
RTVSPost2010PropOp53
 70
     1
102
RTVSPost2010Prop54
  1
strokes_ogs.tif
102
RTVSPost2010PropOp54
 70
     1
102
RTVSPost2010Prop55
280
     0
102
RTVSPost2010PropOp55
 70
     1
102
RTVSPost2010Prop56
140
1.0
102
RTVSPost2010PropOp56
 70
     1
102
RTVSPost2010Prop57
140
1.0
102
RTVSPost2010PropOp57
 70
     1
  0
XRECORD
  5
187
102
{ACAD_REACTORS
330
186
102
}
330
186
100
AcDbXrecord
280
     1
102
RTVSPost2010Prop28
280
     0
102
RTVSPost2010PropOp28
 70
     1
102
RTVSPost2010Prop29
280
     1
102
RTVSPost2010PropOp29
 70
     1
102
RTVSPost2010Prop30
280
     1
102
RTVSPost2010PropOp30
 70
     1
102
RTVSPost2010Prop31
280
     0
102
RTVSPost2010PropOp31
 70
     1
102
RTVSPost2010Prop32
280
     0
102
RTVSPost2010PropOp32
 70
     1
102
RTVSPost2010Prop33
280
     0
102
RTVSPost2010PropOp33
 70
     1
102
RTVSPost2010Prop34
280
     0
102
RTVSPost2010PropOp34
 70
     1
102
RTVSPost2010Prop35
280
     0
102
RTVSPost2010PropOp35
 70
     1
102
RTVSPost2010Prop36
280
     0
102
RTVSPost2010PropOp36
 70
     1
102
RTVSPost2010Prop37
 90
       50
102
RTVSPost2010PropOp37
 70
     1
102
RTVSPost2010Prop38
140
0.0
102
RTVSPost2010PropOp38
 70
     1
102
RTVSPost2010Prop39
140
1.0
102
RTVSPost2010PropOp39
 70
     1
102
RTVSPost2010Prop40
 90
        0
102
RTVSPost2010PropOp40
 70
     1
102
RTVSPost2010Prop41ColorIndex
 90
       18
102
RTVSPost2010Prop41ColorRGB
 90
        0
102
RTVSPost2010PropOp41
 70
     1
102
RTVSPost2010Prop42
 90
       50
102
RTVSPost2010PropOp42
 70
     1
102
RTVSPost2010Prop43
 90
        3
102
RTVSPost2010PropOp43
 70
     1
102
RTVSPost2010Prop44ColorIndex
 90
        5
102
RTVSPost2010Prop44ColorRGB
 90
      255
102
RTVSPost2010PropOp44
 70
     1
102
RTVSPost2010Prop45
280
     0
102
RTVSPost2010PropOp45
 70
     1
102
RTVSPost2010Prop46
 90
       50
102
RTVSPost2010PropOp46
 70
     1
102
RTVSPost2010Prop47
 90
       50
102
RTVSPost2010PropOp47
 70
     1
102
RTVSPost2010Prop48
 90
       50
102
RTVSPost2010PropOp48
 70
     1
102
RTVSPost2010Prop49
280
     0
102
RTVSPost2010PropOp49
 70
     1
102
RTVSPost2010Prop50
 90
       50
102
RTVSPost2010PropOp50
 70
     1
102
RTVSPost2010Prop51ColorIndex
 90
      256
102
RTVSPost2010Prop51ColorRGB
 90
-16777216
102
RTVSPost2010PropOp51
 70
     0
102
RTVSPost2010Prop52
140
1.0
102
RTVSPost2010PropOp52
 70
     0
102
RTVSPost2010Prop53
 90
        2
102
RTVSPost2010PropOp53
 70
     1
102
RTVSPost2010Prop54
  1
strokes_ogs.tif
102
RTVSPost2010PropOp54
 70
     1
102
RTVSPost2010Prop55
280
     0
102
RTVSPost2010PropOp55
 70
     1
102
RTVSPost2010Prop56
140
1.0
102
RTVSPost2010PropOp56
 70
     1
102
RTVSPost2010Prop57
140
1.0
102
RTVSPost2010PropOp57
 70
     1
  0
XRECORD
  5
19F
102
{ACAD_REACTORS
330
19E
102
}
330
19E
100
AcDbXrecord
280
     1
102
RTVSPost2010Prop28
280
     0
102
RTVSPost2010PropOp28
 70
     1
102
RTVSPost2010Prop29
280
     1
102
RTVSPost2010PropOp29
 70
     1
102
RTVSPost2010Prop30
280
     1
102
RTVSPost2010PropOp30
 70
     1
102
RTVSPost2010Prop31
280
     0
102
RTVSPost2010PropOp31
 70
     1
102
RTVSPost2010Prop32
280
     0
102
RTVSPost2010PropOp32
 70
     1
102
RTVSPost2010Prop33
280
     0
102
RTVSPost2010PropOp33
 70
     1
102
RTVSPost2010Prop34
280
     0
102
RTVSPost2010PropOp34
 70
     1
102
RTVSPost2010Prop35
280
     0
102
RTVSPost2010PropOp35
 70
     1
102
RTVSPost2010Prop36
280
     0
102
RTVSPost2010PropOp36
 70
     1
102
RTVSPost2010Prop37
 90
       50
102
RTVSPost2010PropOp37
 70
     1
102
RTVSPost2010Prop38
140
0.0
102
RTVSPost2010PropOp38
 70
     1
102
RTVSPost2010Prop39
140
1.0
102
RTVSPost2010PropOp39
 70
     1
102
RTVSPost2010Prop40
 90
        0
102
RTVSPost2010PropOp40
 70
     1
102
RTVSPost2010Prop41ColorIndex
 90
       18
102
RTVSPost2010Prop41ColorRGB
 90
        0
102
RTVSPost2010PropOp41
 70
     1
102
RTVSPost2010Prop42
 90
       50
102
RTVSPost2010PropOp42
 70
     1
102
RTVSPost2010Prop43
 90
        3
102
RTVSPost2010PropOp43
 70
     1
102
RTVSPost2010Prop44ColorIndex
 90
        5
102
RTVSPost2010Prop44ColorRGB
 90
      255
102
RTVSPost2010PropOp44
 70
     1
102
RTVSPost2010Prop45
280
     0
102
RTVSPost2010PropOp45
 70
     1
102
RTVSPost2010Prop46
 90
       50
102
RTVSPost2010PropOp46
 70
     1
102
RTVSPost2010Prop47
 90
       50
102
RTVSPost2010PropOp47
 70
     1
102
RTVSPost2010Prop48
 90
       50
102
RTVSPost2010PropOp48
 70
     1
102
RTVSPost2010Prop49
280
     0
102
RTVSPost2010PropOp49
 70
     1
102
RTVSPost2010Prop50
 90
       50
102
RTVSPost2010PropOp50
 70
     1
102
RTVSPost2010Prop51ColorIndex
 90
      256
102
RTVSPost2010Prop51ColorRGB
 90
-16777216
102
RTVSPost2010PropOp51
 70
     0
102
RTVSPost2010Prop52
140
1.0
102
RTVSPost2010PropOp52
 70
     0
102
RTVSPost2010Prop53
 90
        2
102
RTVSPost2010PropOp53
 70
     1
102
RTVSPost2010Prop54
  1
strokes_ogs.tif
102
RTVSPost2010PropOp54
 70
     1
102
RTVSPost2010Prop55
280
     0
102
RTVSPost2010PropOp55
 70
     1
102
RTVSPost2010Prop56
140
1.0
102
RTVSPost2010PropOp56
 70
     1
102
RTVSPost2010Prop57
140
1.0
102
RTVSPost2010PropOp57
 70
     1
  0
ENDSEC
  0
EOF
