  0
SECTION
  2
HEADER
  9
$ACADVER
  1
AC1024
  9
$ACADMAINTVER
 70
   226
  9
$DWGCODEPAGE
  3
ANSI_932
  9
$INSBASE
 10
0.0
 20
0.0
 30
0.0
  9
$EXTMIN
 10
1.000000000000000E+20
 20
1.000000000000000E+20
 30
1.000000000000000E+20
  9
$EXTMAX
 10
-1.000000000000000E+20
 20
-1.000000000000000E+20
 30
-1.000000000000000E+20
  9
$LIMMIN
 10
0.0
 20
0.0
  9
$LIMMAX
 10
12.0
 20
9.0
  9
$ORTHOMODE
 70
     0
  9
$REGENMODE
 70
     1
  9
$FILLMODE
 70
     1
  9
$QTEXTMODE
 70
     0
  9
$MIRRTEXT
 70
     0
  9
$LTSCALE
 40
1.0
  9
$ATTMODE
 70
     1
  9
$TEXTSIZE
 40
0.2
  9
$TRACEWID
 40
0.05
  9
$TEXTSTYLE
  7
Standard
  9
$CLAYER
  8
0
  9
$CELTYPE
  6
ByLayer
  9
$CECOLOR
 62
   256
  9
$CELTSCALE
 40
1.0
  9
$DISPSILH
 70
     0
  9
$DIMSCALE
 40
1.0
  9
$DIMASZ
 40
0.18
  9
$DIMEXO
 40
0.0625
  9
$DIMDLI
 40
0.38
  9
$DIMRND
 40
0.0
  9
$DIMDLE
 40
0.0
  9
$DIMEXE
 40
0.18
  9
$DIMTP
 40
0.0
  9
$DIMTM
 40
0.0
  9
$DIMTXT
 40
0.18
  9
$DIMCEN
 40
0.09
  9
$DIMTSZ
 40
0.0
  9
$DIMTOL
 70
     0
  9
$DIMLIM
 70
     0
  9
$DIMTIH
 70
     1
  9
$DIMTOH
 70
     1
  9
$DIMSE1
 70
     0
  9
$DIMSE2
 70
     0
  9
$DIMTAD
 70
     0
  9
$DIMZIN
 70
     0
  9
$DIMBLK
  1

  9
$DIMASO
 70
     1
  9
$DIMSHO
 70
     1
  9
$DIMPOST
  1

  9
$DIMAPOST
  1

  9
$DIMALT
 70
     0
  9
$DIMALTD
 70
     2
  9
$DIMALTF
 40
25.4
  9
$DIMLFAC
 40
1.0
  9
$DIMTOFL
 70
     0
  9
$DIMTVP
 40
0.0
  9
$DIMTIX
 70
     0
  9
$DIMSOXD
 70
     0
  9
$DIMSAH
 70
     0
  9
$DIMBLK1
  1

  9
$DIMBLK2
  1

  9
$DIMSTYLE
  2
Standard
  9
$DIMCLRD
 70
     0
  9
$DIMCLRE
 70
     0
  9
$DIMCLRT
 70
     0
  9
$DIMTFAC
 40
1.0
  9
$DIMGAP
 40
0.09
  9
$DIMJUST
 70
     0
  9
$DIMSD1
 70
     0
  9
$DIMSD2
 70
     0
  9
$DIMTOLJ
 70
     1
  9
$DIMTZIN
 70
     0
  9
$DIMALTZ
 70
     0
  9
$DIMALTTZ
 70
     0
  9
$DIMUPT
 70
     0
  9
$DIMDEC
 70
     4
  9
$DIMTDEC
 70
     4
  9
$DIMALTU
 70
     2
  9
$DIMALTTD
 70
     2
  9
$DIMTXSTY
  7
Standard
  9
$DIMAUNIT
 70
     0
  9
$DIMADEC
 70
     0
  9
$DIMALTRND
 40
0.0
  9
$DIMAZIN
 70
     0
  9
$DIMDSEP
 70
    46
  9
$DIMATFIT
 70
     3
  9
$DIMFRAC
 70
     0
  9
$DIMLDRBLK
  1

  9
$DIMLUNIT
 70
     2
  9
$DIMLWD
 70
    -2
  9
$DIMLWE
 70
    -2
  9
$DIMTMOVE
 70
     0
  9
$DIMFXL
 40
1.0
  9
$DIMFXLON
 70
     0
  9
$DIMJOGANG
 40
0.7853981633974483
  9
$DIMTFILL
 70
     0
  9
$DIMTFILLCLR
 70
     0
  9
$DIMARCSYM
 70
     0
  9
$DIMLTYPE
  6

  9
$DIMLTEX1
  6

  9
$DIMLTEX2
  6

  9
$DIMTXTDIRECTION
 70
     0
  9
$LUNITS
 70
     2
  9
$LUPREC
 70
     4
  9
$SKETCHINC
 40
0.1
  9
$FILLETRAD
 40
0.0
  9
$AUNITS
 70
     0
  9
$AUPREC
 70
     0
  9
$MENU
  1
.
  9
$ELEVATION
 40
0.0
  9
$PELEVATION
 40
0.0
  9
$THICKNESS
 40
0.0
  9
$LIMCHECK
 70
     0
  9
$CHAMFERA
 40
0.0
  9
$CHAMFERB
 40
0.0
  9
$CHAMFERC
 40
0.0
  9
$CHAMFERD
 40
0.0
  9
$SKPOLY
 70
     0
  9
$TDCREATE
 40
2459569.488680556
  9
$TDUCREATE
 40
2459569.113680556
  9
$TDUPDATE
 40
2459569.488680556
  9
$TDUUPDATE
 40
2459569.113680556
  9
$TDINDWG
 40
0.0000000000
  9
$TDUSRTIMER
 40
0.0000000000
  9
$USRTIMER
 70
     1
  9
$ANGBASE
 50
0.0
  9
$ANGDIR
 70
     0
  9
$PDMODE
 70
     0
  9
$PDSIZE
 40
0.0
  9
$PLINEWID
 40
0.0
  9
$SPLFRAME
 70
     0
  9
$SPLINETYPE
 70
     6
  9
$SPLINESEGS
 70
     8
  9
$HANDSEED
  5
181
  9
$SURFTAB1
 70
     6
  9
$SURFTAB2
 70
     6
  9
$SURFTYPE
 70
     6
  9
$SURFU
 70
     6
  9
$SURFV
 70
     6
  9
$UCSBASE
  2

  9
$UCSNAME
  2

  9
$UCSORG
 10
0.0
 20
0.0
 30
0.0
  9
$UCSXDIR
 10
1.0
 20
0.0
 30
0.0
  9
$UCSYDIR
 10
0.0
 20
1.0
 30
0.0
  9
$UCSORTHOREF
  2

  9
$UCSORTHOVIEW
 70
     0
  9
$UCSORGTOP
 10
0.0
 20
0.0
 30
0.0
  9
$UCSORGBOTTOM
 10
0.0
 20
0.0
 30
0.0
  9
$UCSORGLEFT
 10
0.0
 20
0.0
 30
0.0
  9
$UCSORGRIGHT
 10
0.0
 20
0.0
 30
0.0
  9
$UCSORGFRONT
 10
0.0
 20
0.0
 30
0.0
  9
$UCSORGBACK
 10
0.0
 20
0.0
 30
0.0
  9
$PUCSBASE
  2

  9
$PUCSNAME
  2

  9
$PUCSORG
 10
0.0
 20
0.0
 30
0.0
  9
$PUCSXDIR
 10
1.0
 20
0.0
 30
0.0
  9
$PUCSYDIR
 10
0.0
 20
1.0
 30
0.0
  9
$PUCSORTHOREF
  2

  9
$PUCSORTHOVIEW
 70
     0
  9
$PUCSORGTOP
 10
0.0
 20
0.0
 30
0.0
  9
$PUCSORGBOTTOM
 10
0.0
 20
0.0
 30
0.0
  9
$PUCSORGLEFT
 10
0.0
 20
0.0
 30
0.0
  9
$PUCSORGRIGHT
 10
0.0
 20
0.0
 30
0.0
  9
$PUCSORGFRONT
 10
0.0
 20
0.0
 30
0.0
  9
$PUCSORGBACK
 10
0.0
 20
0.0
 30
0.0
  9
$USERI1
 70
     0
  9
$USERI2
 70
     0
  9
$USERI3
 70
     0
  9
$USERI4
 70
     0
  9
$USERI5
 70
     0
  9
$USERR1
 40
0.0
  9
$USERR2
 40
0.0
  9
$USERR3
 40
0.0
  9
$USERR4
 40
0.0
  9
$USERR5
 40
0.0
  9
$WORLDVIEW
 70
     1
  9
$SHADEDGE
 70
     3
  9
$SHADEDIF
 70
    70
  9
$TILEMODE
 70
     1
  9
$MAXACTVP
 70
    64
  9
$PINSBASE
 10
0.0
 20
0.0
 30
0.0
  9
$PLIMCHECK
 70
     0
  9
$PEXTMIN
 10
1.000000000000000E+20
 20
1.000000000000000E+20
 30
1.000000000000000E+20
  9
$PEXTMAX
 10
-1.000000000000000E+20
 20
-1.000000000000000E+20
 30
-1.000000000000000E+20
  9
$PLIMMIN
 10
0.0
 20
0.0
  9
$PLIMMAX
 10
12.0
 20
9.0
  9
$UNITMODE
 70
     0
  9
$VISRETAIN
 70
     1
  9
$PLINEGEN
 70
     0
  9
$PSLTSCALE
 70
     1
  9
$TREEDEPTH
 70
  3020
  9
$CMLSTYLE
  2
Standard
  9
$CMLJUST
 70
     0
  9
$CMLSCALE
 40
1.0
  9
$PROXYGRAPHICS
 70
     1
  9
$MEASUREMENT
 70
     0
  9
$CELWEIGHT
370
    -1
  9
$ENDCAPS
280
     0
  9
$JOINSTYLE
280
     0
  9
$LWDISPLAY
290
     1
  9
$INSUNITS
 70
     4
  9
$HYPERLINKBASE
  1

  9
$STYLESHEET
  1

  9
$XEDIT
290
     1
  9
$CEPSNTYPE
380
     0
  9
$PSTYLEMODE
290
     1
  9
$FINGERPRINTGUID
  2
{70E8D3B6-861A-594B-8C6B-E1B2C760792D}
  9
$VERSIONGUID
  2
{9269A559-50A9-084C-9F9E-FC04CA893ACC}
  9
$EXTNAMES
290
     1
  9
$PSVPSCALE
 40
0.0
  9
$OLESTARTUP
290
     0
  9
$SORTENTS
280
   127
  9
$INDEXCTL
280
     0
  9
$HIDETEXT
280
     1
  9
$XCLIPFRAME
280
     2
  9
$HALOGAP
280
     0
  9
$OBSCOLOR
 70
   257
  9
$OBSLTYPE
280
     0
  9
$INTERSECTIONDISPLAY
280
     0
  9
$INTERSECTIONCOLOR
 70
   257
  9
$DIMASSOC
280
     2
  9
$PROJECTNAME
  1

  9
$CAMERADISPLAY
290
     0
  9
$LENSLENGTH
 40
50.0
  9
$CAMERAHEIGHT
 40
0.0
  9
$STEPSPERSEC
 40
2.0
  9
$STEPSIZE
 40
6.0
  9
$3DDWFPREC
 40
2.0
  9
$PSOLWIDTH
 40
0.25
  9
$PSOLHEIGHT
 40
4.0
  9
$LOFTANG1
 40
1.570796326794896
  9
$LOFTANG2
 40
1.570796326794896
  9
$LOFTMAG1
 40
0.0
  9
$LOFTMAG2
 40
0.0
  9
$LOFTPARAM
 70
     7
  9
$LOFTNORMALS
280
     1
  9
$LATITUDE
 40
37.795
  9
$LONGITUDE
 40
-122.394
  9
$NORTHDIRECTION
 40
0.0
  9
$TIMEZONE
 70
 -8000
  9
$LIGHTGLYPHDISPLAY
280
     1
  9
$TILEMODELIGHTSYNCH
280
     1
  9
$CMATERIAL
347
11
  9
$SOLIDHIST
280
     0
  9
$SHOWHIST
280
     1
  9
$DWFFRAME
280
     2
  9
$DGNFRAME
280
     0
  9
$REALWORLDSCALE
290
     1
  9
$INTERFERECOLOR
 62
     1
  9
$INTERFEREOBJVS
345
33
  9
$INTERFEREVPVS
346
30
  9
$CSHADOW
280
     0
  9
$SHADOWPLANELOCATION
 40
0.0
  0
ENDSEC
  0
SECTION
  2
CLASSES
  0
CLASS
  1
ACDBDICTIONARYWDFLT
  2
AcDbDictionaryWithDefault
  3
ObjectDBX Classes
 90
        0
 91
        1
280
     0
281
     0
  0
CLASS
  1
MATERIAL
  2
AcDbMaterial
  3
ObjectDBX Classes
 90
     1153
 91
        3
280
     0
281
     0
  0
CLASS
  1
VISUALSTYLE
  2
AcDbVisualStyle
  3
ObjectDBX Classes
 90
     4095
 91
       24
280
     0
281
     0
  0
CLASS
  1
SCALE
  2
AcDbScale
  3
ObjectDBX Classes
 90
     1153
 91
       17
280
     0
281
     0
  0
CLASS
  1
TABLESTYLE
  2
AcDbTableStyle
  3
ObjectDBX Classes
 90
     4095
 91
        1
280
     0
281
     0
  0
CLASS
  1
MLEADERSTYLE
  2
AcDbMLeaderStyle
  3
ACDB_MLEADERSTYLE_CLASS
 90
     4095
 91
        1
280
     0
281
     0
  0
CLASS
  1
ACDBSECTIONVIEWSTYLE
  2
AcDbSectionViewStyle
  3
ObjectDBX Classes
 90
     1025
 91
        1
280
     0
281
     0
  0
CLASS
  1
ACDBDETAILVIEWSTYLE
  2
AcDbDetailViewStyle
  3
ObjectDBX Classes
 90
     1025
 91
        1
280
     0
281
     0
  0
CLASS
  1
DICTIONARYVAR
  2
AcDbDictionaryVar
  3
ObjectDBX Classes
 90
        0
 91
        5
280
     0
281
     0
  0
CLASS
  1
CELLSTYLEMAP
  2
AcDbCellStyleMap
  3
ObjectDBX Classes
 90
     1152
 91
        1
280
     0
281
     0
  0
ENDSEC
  0
SECTION
  2
TABLES
  0
TABLE
  2
VPORT
  5
8
330
0
100
AcDbSymbolTable
 70
     1
  0
VPORT
  5
57
330
8
100
AcDbSymbolTableRecord
100
AcDbViewportTableRecord
  2
*Active
 70
     0
 10
0.0
 20
0.0
 11
1.0
 21
1.0
 12
0.0
 22
0.0
 13
0.0
 23
0.0
 14
1.0
 24
1.0
 15
0.0
 25
0.0
 16
0.0
 26
0.0
 36
1.0
 17
104.9999999737534
 27
-148.4999999628701
 37
0.0
 40
302.939999924255
 41
0.7070707070707534
 42
50.0
 43
0.0
 44
0.0
 50
0.0
 51
0.0
 71
     0
 72
   100
 73
     1
 74
     0
 75
     1
 76
     0
 77
     0
 78
     0
281
     0
 65
     1
110
0.0
120
0.0
130
0.0
111
1.0
121
0.0
131
0.0
112
0.0
122
1.0
132
0.0
 79
     0
146
0.0
 60
     3
 61
     5
292
     1
282
     1
141
0.0
142
0.0
 63
   250
421
  3355443
  0
ENDTAB
  0
TABLE
  2
LTYPE
  5
5
330
0
100
AcDbSymbolTable
 70
     3
  0
LTYPE
  5
5B
330
5
100
AcDbSymbolTableRecord
100
AcDbLinetypeTableRecord
  2
ByBlock
 70
     0
  3

 72
    65
 73
     0
 40
0.0
  0
LTYPE
  5
5C
330
5
100
AcDbSymbolTableRecord
100
AcDbLinetypeTableRecord
  2
ByLayer
 70
     0
  3

 72
    65
 73
     0
 40
0.0
  0
LTYPE
  5
5D
330
5
100
AcDbSymbolTableRecord
100
AcDbLinetypeTableRecord
  2
Continuous
 70
     0
  3
Solid line
 72
    65
 73
     0
 40
0.0
  0
LTYPE
  5
11F
330
5
100
AcDbSymbolTableRecord
100
AcDbLinetypeTableRecord
  2
AI-Linetype-0
 70
     0
  3
Adobe Illustrator Linetype No. 0
 72
    65
 73
     2
 40
1.411111110758333
 49
0.7055555553791667
 74
     0
 49
-0.7055555553791667
 74
     0
  0
LTYPE
  5
121
330
5
100
AcDbSymbolTableRecord
100
AcDbLinetypeTableRecord
  2
AI-Linetype-1
 70
     0
  3
Adobe Illustrator Linetype No. 1
 72
    65
 73
     2
 40
1.411111110758333
 49
0.7055555553791667
 74
     0
 49
-0.7055555553791667
 74
     0
  0
ENDTAB
  0
TABLE
  2
LAYER
  5
2
330
0
100
AcDbSymbolTable
 70
     2
  0
LAYER
  5
54
330
2
100
AcDbSymbolTableRecord
100
AcDbLayerTableRecord
  2
0
 70
     0
 62
     7
  6
Continuous
370
    -3
390
F
347
21
  0
LAYER
  5
78
330
2
100
AcDbSymbolTableRecord
100
AcDbLayerTableRecord
  2
レイヤー 1
 70
     0
 62
     7
  6
Continuous
370
     0
390
F
347
21
  0
ENDTAB
  0
TABLE
  2
STYLE
  5
3
330
0
100
AcDbSymbolTable
 70
     2
  0
STYLE
  5
55
330
3
100
AcDbSymbolTableRecord
100
AcDbTextStyleTableRecord
  2
Standard
 70
     0
 40
0.0
 41
1.0
 50
0.0
 71
     0
 42
0.2
  3
txt
  4

  0
STYLE
  5
5A
330
3
100
AcDbSymbolTableRecord
100
AcDbTextStyleTableRecord
  2
Annotative
 70
     0
 40
0.0
 41
1.0
 50
0.0
 71
     0
 42
0.2
  3
txt
  4

1001
AcadAnnotative
1000
AnnotativeData
1002
{
1070
     1
1070
     1
1002
}
  0
ENDTAB
  0
TABLE
  2
VIEW
  5
6
330
0
100
AcDbSymbolTable
 70
     0
  0
ENDTAB
  0
TABLE
  2
UCS
  5
7
330
0
100
AcDbSymbolTable
 70
     0
  0
ENDTAB
  0
TABLE
  2
APPID
  5
9
330
0
100
AcDbSymbolTable
 70
     2
  0
APPID
  5
56
330
9
100
AcDbSymbolTableRecord
100
AcDbRegAppTableRecord
  2
ACAD
 70
     0
  0
APPID
  5
5E
330
9
100
AcDbSymbolTableRecord
100
AcDbRegAppTableRecord
  2
AcadAnnotative
 70
     0
  0
ENDTAB
  0
TABLE
  2
DIMSTYLE
  5
A
330
0
100
AcDbSymbolTable
 70
     2
100
AcDbDimStyleTable
 71
     0
  0
DIMSTYLE
105
58
330
A
100
AcDbSymbolTableRecord
100
AcDbDimStyleTableRecord
  2
Standard
 70
     0
340
55
  0
DIMSTYLE
105
59
330
A
100
AcDbSymbolTableRecord
100
AcDbDimStyleTableRecord
  2
Annotative
 70
     0
340
55
1001
AcadAnnotative
1000
AnnotativeData
1002
{
1070
     1
1070
     1
1002
}
  0
ENDTAB
  0
TABLE
  2
BLOCK_RECORD
  5
1
330
0
100
AcDbSymbolTable
 70
     7
  0
BLOCK_RECORD
  5
70
330
1
100
AcDbSymbolTableRecord
100
AcDbBlockTableRecord
  2
*Model_Space
340
73
 70
     0
280
     1
281
     0
  0
BLOCK_RECORD
  5
6C
330
1
100
AcDbSymbolTableRecord
100
AcDbBlockTableRecord
  2
*Paper_Space
340
6F
 70
     0
280
     1
281
     0
  0
BLOCK_RECORD
  5
74
330
1
100
AcDbSymbolTableRecord
100
AcDbBlockTableRecord
  2
*Paper_Space0
340
77
 70
     0
280
     1
281
     0
  0
BLOCK_RECORD
  5
FB
330
1
100
AcDbSymbolTableRecord
100
AcDbBlockTableRecord
  2
Block_0
340
0
102
{BLKREFS
331
FC
102
}
 70
     0
280
     1
281
     0
  0
BLOCK_RECORD
  5
FF
330
1
100
AcDbSymbolTableRecord
100
AcDbBlockTableRecord
  2
Block_1
340
0
102
{BLKREFS
331
100
102
}
 70
     0
280
     1
281
     0
  0
BLOCK_RECORD
  5
10E
330
1
100
AcDbSymbolTableRecord
100
AcDbBlockTableRecord
  2
Block_2
340
0
102
{BLKREFS
331
10F
102
}
 70
     0
280
     1
281
     0
  0
BLOCK_RECORD
  5
112
330
1
100
AcDbSymbolTableRecord
100
AcDbBlockTableRecord
  2
Block_3
340
0
102
{BLKREFS
331
113
102
}
 70
     0
280
     1
281
     0
  0
BLOCK_RECORD
  5
128
330
1
100
AcDbSymbolTableRecord
100
AcDbBlockTableRecord
  2
Block_4
340
0
102
{BLKREFS
331
129
102
}
 70
     0
280
     1
281
     0
  0
BLOCK_RECORD
  5
12C
330
1
100
AcDbSymbolTableRecord
100
AcDbBlockTableRecord
  2
Block_5
340
0
102
{BLKREFS
331
12D
102
}
 70
     0
280
     1
281
     0
  0
ENDTAB
  0
ENDSEC
  0
SECTION
  2
BLOCKS
  0
BLOCK
  5
71
330
70
100
AcDbEntity
  8
0
100
AcDbBlockBegin
  2
*Model_Space
 70
     0
 10
0.0
 20
0.0
 30
0.0
  3
*Model_Space
  1

  0
ENDBLK
  5
72
330
70
100
AcDbEntity
  8
0
100
AcDbBlockEnd
  0
BLOCK
  5
6D
330
6C
100
AcDbEntity
 67
     1
  8
0
100
AcDbBlockBegin
  2
*Paper_Space
 70
     0
 10
0.0
 20
0.0
 30
0.0
  3
*Paper_Space
  1

  0
ENDBLK
  5
6E
330
6C
100
AcDbEntity
 67
     1
  8
0
100
AcDbBlockEnd
  0
BLOCK
  5
75
330
74
100
AcDbEntity
 67
     1
  8
0
100
AcDbBlockBegin
  2
*Paper_Space0
 70
     0
 10
0.0
 20
0.0
 30
0.0
  3
*Paper_Space0
  1

  0
ENDBLK
  5
76
330
74
100
AcDbEntity
 67
     1
  8
0
100
AcDbBlockEnd
  0
BLOCK
  5
FD
330
FB
100
AcDbEntity
  8
0
100
AcDbBlockBegin
  2
Block_0
 70
     0
 10
0.0
 20
0.0
 30
0.0
  3
Block_0
  1

  0
INSERT
  5
100
330
FB
100
AcDbEntity
  8
レイヤー 1
100
AcDbBlockReference
  2
Block_1
 10
0.0
 20
0.0
 30
0.0
  0
ENDBLK
  5
FE
330
FB
100
AcDbEntity
  8
0
100
AcDbBlockEnd
  0
BLOCK
  5
101
330
FF
100
AcDbEntity
  8
0
100
AcDbBlockBegin
  2
Block_1
 70
     0
 10
0.0
 20
0.0
 30
0.0
  3
Block_1
  1

  0
SPLINE
  5
103
330
FF
100
AcDbEntity
  8
レイヤー 1
100
AcDbSpline
210
0.0
220
0.0
230
1.0
 70
     9
 71
     3
 72
    62
 73
    58
 74
     0
 42
0.0000000001
 43
0.0000000001
 40
0.0
 40
0.0
 40
0.0
 40
0.0
 40
1.0
 40
1.0
 40
1.0
 40
2.0
 40
2.0
 40
2.0
 40
3.0
 40
3.0
 40
3.0
 40
4.0
 40
4.0
 40
4.0
 40
5.0
 40
5.0
 40
5.0
 40
6.0
 40
6.0
 40
6.0
 40
7.0
 40
7.0
 40
7.0
 40
8.0
 40
8.0
 40
8.0
 40
9.0
 40
9.0
 40
9.0
 40
10.0
 40
10.0
 40
10.0
 40
11.0
 40
11.0
 40
11.0
 40
12.0
 40
12.0
 40
12.0
 40
13.0
 40
13.0
 40
13.0
 40
14.0
 40
14.0
 40
14.0
 40
15.0
 40
15.0
 40
15.0
 40
16.0
 40
16.0
 40
16.0
 40
17.0
 40
17.0
 40
17.0
 40
18.0
 40
18.0
 40
18.0
 40
19.0
 40
19.0
 40
19.0
 40
19.0
 10
108.3293049859385
 20
-164.1295165605301
 30
0.0
 10
108.2276746691236
 20
-164.1295165605301
 30
0.0
 10
107.9947862143207
 20
-164.1085014780701
 30
0.0
 10
107.8614610190416
 20
-163.9221218123181
 30
0.0
 10
107.7822238228808
 20
-163.8101562090475
 30
0.0
 10
107.77774519875
 20
-163.7105929495237
 30
0.0
 10
107.7732665746192
 20
-163.6261881101351
 30
0.0
 10
107.7732665746192
 20
-163.6261881101351
 30
0.0
 10
108.0082220867132
 20
-163.6261881101351
 30
0.0
 10
108.0082220867132
 20
-163.6261881101351
 30
0.0
 10
108.0106336535529
 20
-163.6999131535195
 30
0.0
 10
108.0220024686542
 20
-163.9348686656135
 30
0.0
 10
108.3248263618077
 20
-163.9348686656135
 30
0.0
 10
108.4715874294793
 20
-163.9348686656135
 30
0.0
 10
108.6345404459316
 20
-163.8649332272629
 30
0.0
 10
108.6345404459316
 20
-163.6365233965909
 30
0.0
 10
108.6345404459316
 20
-163.5200791691894
 30
0.0
 10
108.5938883192057
 20
-163.4715033228474
 30
0.0
 10
108.5597818739017
 20
-163.4398084443831
 30
0.0
 10
108.4808891872895
 20
-163.3657388914502
 30
0.0
 10
108.356521240272
 20
-163.3529920381548
 30
0.0
 10
108.2976101074742
 20
-163.3529920381548
 30
0.0
 10
108.2772840441112
 20
-163.3529920381548
 30
0.0
 10
108.2390434842249
 20
-163.3554036049944
 30
0.0
 10
108.2094156630518
 20
-163.3595377195768
 30
0.0
 10
108.2094156630518
 20
-163.3595377195768
 30
0.0
 10
108.2094156630518
 20
-163.1648898246601
 30
0.0
 10
108.2094156630518
 20
-163.1648898246601
 30
0.0
 10
108.2500677897777
 20
-163.1710909965336
 30
0.0
 10
108.295543050183
 20
-163.1731580538247
 30
0.0
 10
108.302088731605
 20
-163.1731580538247
 30
0.0
 10
108.3723686795041
 20
-163.1731580538247
 30
0.0
 10
108.584931070944
 20
-163.1521429713647
 30
0.0
 10
108.584931070944
 20
-162.9151204019795
 30
0.0
 10
108.584931070944
 20
-162.7373534749406
 30
0.0
 10
108.4447156846944
 20
-162.6825764567252
 30
0.0
 10
108.3268934190988
 20
-162.6825764567252
 30
0.0
 10
108.0443955893083
 20
-162.6825764567252
 30
0.0
 10
108.0354383410467
 20
-162.9151204019795
 30
0.0
 10
108.0309597169158
 20
-162.9871228976212
 30
0.0
 10
108.0309597169158
 20
-162.9871228976212
 30
0.0
 10
107.8139187013451
 20
-162.9871228976212
 30
0.0
 10
107.8139187013451
 20
-162.9871228976212
 30
0.0
 10
107.8228759496068
 20
-162.8624104410552
 30
0.0
 10
107.8521592612314
 20
-162.4858615045174
 30
0.0
 10
108.3406738010398
 20
-162.4858615045174
 30
0.0
 10
108.5801079372647
 20
-162.4858615045174
 30
0.0
 10
108.8381455891099
 20
-162.6126410183746
 30
0.0
 10
108.8381455891099
 20
-162.9089192301061
 30
0.0
 10
108.8381455891099
 20
-163.0949543863096
 30
0.0
 10
108.7361707627465
 20
-163.1776366779556
 30
0.0
 10
108.6300618218008
 20
-163.238959377593
 30
0.0
 10
108.6955186360205
 20
-163.266520141475
 30
0.0
 10
108.8901665309371
 20
-163.3467908662813
 30
0.0
 10
108.8901665309371
 20
-163.6237765432954
 30
0.0
 10
108.8901665309371
 20
-163.9624294294955
 30
0.0
 10
108.62558319767
 20
-164.1295165605301
 30
0.0
 10
108.3293049859385
 20
-164.1295165605301
 30
0.0
  0
HATCH
  5
104
330
FF
100
AcDbEntity
  8
レイヤー 1
 62
   250
420
  2299925
440
 33554687
100
AcDbHatch
 10
0.0
 20
0.0
 30
0.0
210
0.0
220
0.0
230
1.0
  2
SOLID
 70
     1
 71
     1
 91
        1
 92
        1
 93
        1
 72
     4
 94
        3
 73
     0
 74
     0
 95
       62
 96
       58
 40
0.0
 40
0.0
 40
0.0
 40
0.0
 40
1.0
 40
1.0
 40
1.0
 40
2.0
 40
2.0
 40
2.0
 40
3.0
 40
3.0
 40
3.0
 40
4.0
 40
4.0
 40
4.0
 40
5.0
 40
5.0
 40
5.0
 40
6.0
 40
6.0
 40
6.0
 40
7.0
 40
7.0
 40
7.0
 40
8.0
 40
8.0
 40
8.0
 40
9.0
 40
9.0
 40
9.0
 40
10.0
 40
10.0
 40
10.0
 40
11.0
 40
11.0
 40
11.0
 40
12.0
 40
12.0
 40
12.0
 40
13.0
 40
13.0
 40
13.0
 40
14.0
 40
14.0
 40
14.0
 40
15.0
 40
15.0
 40
15.0
 40
16.0
 40
16.0
 40
16.0
 40
17.0
 40
17.0
 40
17.0
 40
18.0
 40
18.0
 40
18.0
 40
19.0
 40
19.0
 40
19.0
 40
19.0
 10
108.3293049859385
 20
-164.1295165605301
 10
108.2276746691236
 20
-164.1295165605301
 10
107.9947862143207
 20
-164.1085014780701
 10
107.8614610190416
 20
-163.9221218123181
 10
107.7822238228808
 20
-163.8101562090475
 10
107.77774519875
 20
-163.7105929495237
 10
107.7732665746192
 20
-163.6261881101351
 10
107.7732665746192
 20
-163.6261881101351
 10
108.0082220867132
 20
-163.6261881101351
 10
108.0082220867132
 20
-163.6261881101351
 10
108.0106336535529
 20
-163.6999131535195
 10
108.0220024686542
 20
-163.9348686656135
 10
108.3248263618077
 20
-163.9348686656135
 10
108.4715874294793
 20
-163.9348686656135
 10
108.6345404459316
 20
-163.8649332272629
 10
108.6345404459316
 20
-163.6365233965909
 10
108.6345404459316
 20
-163.5200791691894
 10
108.5938883192057
 20
-163.4715033228474
 10
108.5597818739017
 20
-163.4398084443831
 10
108.4808891872895
 20
-163.3657388914502
 10
108.356521240272
 20
-163.3529920381548
 10
108.2976101074742
 20
-163.3529920381548
 10
108.2772840441112
 20
-163.3529920381548
 10
108.2390434842249
 20
-163.3554036049944
 10
108.2094156630518
 20
-163.3595377195768
 10
108.2094156630518
 20
-163.3595377195768
 10
108.2094156630518
 20
-163.1648898246601
 10
108.2094156630518
 20
-163.1648898246601
 10
108.2500677897777
 20
-163.1710909965336
 10
108.295543050183
 20
-163.1731580538247
 10
108.302088731605
 20
-163.1731580538247
 10
108.3723686795041
 20
-163.1731580538247
 10
108.584931070944
 20
-163.1521429713647
 10
108.584931070944
 20
-162.9151204019795
 10
108.584931070944
 20
-162.7373534749406
 10
108.4447156846944
 20
-162.6825764567252
 10
108.3268934190988
 20
-162.6825764567252
 10
108.0443955893083
 20
-162.6825764567252
 10
108.0354383410467
 20
-162.9151204019795
 10
108.0309597169158
 20
-162.9871228976212
 10
108.0309597169158
 20
-162.9871228976212
 10
107.8139187013451
 20
-162.9871228976212
 10
107.8139187013451
 20
-162.9871228976212
 10
107.8228759496068
 20
-162.8624104410552
 10
107.8521592612314
 20
-162.4858615045174
 10
108.3406738010398
 20
-162.4858615045174
 10
108.5801079372647
 20
-162.4858615045174
 10
108.8381455891099
 20
-162.6126410183746
 10
108.8381455891099
 20
-162.9089192301061
 10
108.8381455891099
 20
-163.0949543863096
 10
108.7361707627465
 20
-163.1776366779556
 10
108.6300618218008
 20
-163.238959377593
 10
108.6955186360205
 20
-163.266520141475
 10
108.8901665309371
 20
-163.3467908662813
 10
108.8901665309371
 20
-163.6237765432954
 10
108.8901665309371
 20
-163.9624294294955
 10
108.62558319767
 20
-164.1295165605301
 10
108.3293049859385
 20
-164.1295165605301
 97
        0
 97
        1
330
103
 75
     2
 76
     1
 98
        1
 10
0.0
 20
0.0
450
        0
451
        0
460
0.0
461
0.0
452
        0
462
0.0
453
        0
470

  0
SPLINE
  5
105
330
FF
100
AcDbEntity
  8
レイヤー 1
100
AcDbSpline
210
0.0
220
0.0
230
1.0
 70
     9
 71
     3
 72
    17
 73
    13
 74
     0
 42
0.0000000001
 43
0.0000000001
 40
0.0
 40
0.0
 40
0.0
 40
0.0
 40
1.0
 40
1.0
 40
1.0
 40
2.0
 40
2.0
 40
2.0
 40
3.0
 40
3.0
 40
3.0
 40
4.0
 40
4.0
 40
4.0
 40
4.0
 10
109.5960665958649
 20
-162.6780978325943
 30
0.0
 10
109.3294162053065
 20
-162.6780978325943
 30
0.0
 10
109.2798068303189
 20
-162.9616291910304
 30
0.0
 10
109.2798068303189
 20
-163.3064832491039
 30
0.0
 10
109.2798068303189
 20
-163.6261881101351
 30
0.0
 10
109.3180473902052
 20
-163.9348686656135
 30
0.0
 10
109.5960665958649
 20
-163.9348686656135
 30
0.0
 10
109.860649929132
 20
-163.9348686656135
 30
0.0
 10
109.9126708709593
 20
-163.6534043644686
 30
0.0
 10
109.9126708709593
 20
-163.3064832491039
 30
0.0
 10
109.9126708709593
 20
-162.9871228976212
 30
0.0
 10
109.8720187442334
 20
-162.6780978325943
 30
0.0
 10
109.5960665958649
 20
-162.6780978325943
 30
0.0
  0
SPLINE
  5
106
330
FF
100
AcDbEntity
  8
レイヤー 1
100
AcDbSpline
210
0.0
220
0.0
230
1.0
 70
     9
 71
     3
 72
    29
 73
    25
 74
     0
 42
0.0000000001
 43
0.0000000001
 40
0.0
 40
0.0
 40
0.0
 40
0.0
 40
1.0
 40
1.0
 40
1.0
 40
2.0
 40
2.0
 40
2.0
 40
3.0
 40
3.0
 40
3.0
 40
4.0
 40
4.0
 40
4.0
 40
5.0
 40
5.0
 40
5.0
 40
6.0
 40
6.0
 40
6.0
 40
7.0
 40
7.0
 40
7.0
 40
8.0
 40
8.0
 40
8.0
 40
8.0
 10
110.0211913787447
 20
-163.901106729858
 30
0.0
 10
109.9057806799888
 20
-164.1105685353613
 30
0.0
 10
109.7204345428824
 20
-164.1295165605301
 30
0.0
 10
109.5960665958649
 20
-164.1295165605301
 30
0.0
 10
109.4245008406994
 20
-164.1295165605301
 30
0.0
 10
109.2729166393484
 20
-164.0830077714792
 30
0.0
 10
109.1712863225335
 20
-163.901106729858
 30
0.0
 10
109.0603542479085
 20
-163.7064588349414
 30
0.0
 10
109.0400281845455
 20
-163.4694362655562
 30
0.0
 10
109.0400281845455
 20
-163.3064832491039
 30
0.0
 10
109.0400281845455
 20
-163.162822767369
 30
0.0
 10
109.0579426810688
 20
-162.9109862873972
 30
0.0
 10
109.1712863225335
 20
-162.7122042778983
 30
0.0
 10
109.2863525117409
 20
-162.5089436442686
 30
0.0
 10
109.4582627764549
 20
-162.4858615045174
 30
0.0
 10
109.5960665958649
 20
-162.4858615045174
 30
0.0
 10
109.7659098032877
 20
-162.4858615045174
 30
0.0
 10
109.9195610619298
 20
-162.5303032362771
 30
0.0
 10
110.0211913787447
 20
-162.7122042778983
 30
0.0
 10
110.1276448292389
 20
-162.9047851155238
 30
0.0
 10
110.1524495167327
 20
-163.1331949461959
 30
0.0
 10
110.1524495167327
 20
-163.3064832491039
 30
0.0
 10
110.1524495167327
 20
-163.4780490042694
 30
0.0
 10
110.12971188653
 20
-163.7085258922326
 30
0.0
 10
110.0211913787447
 20
-163.901106729858
 30
0.0
  0
HATCH
  5
107
330
FF
100
AcDbEntity
  8
レイヤー 1
 62
   250
420
  2299925
440
 33554687
100
AcDbHatch
 10
0.0
 20
0.0
 30
0.0
210
0.0
220
0.0
230
1.0
  2
SOLID
 70
     1
 71
     1
 91
        2
 92
        1
 93
        1
 72
     4
 94
        3
 73
     0
 74
     0
 95
       17
 96
       13
 40
0.0
 40
0.0
 40
0.0
 40
0.0
 40
1.0
 40
1.0
 40
1.0
 40
2.0
 40
2.0
 40
2.0
 40
3.0
 40
3.0
 40
3.0
 40
4.0
 40
4.0
 40
4.0
 40
4.0
 10
109.5960665958649
 20
-162.6780978325943
 10
109.3294162053065
 20
-162.6780978325943
 10
109.2798068303189
 20
-162.9616291910304
 10
109.2798068303189
 20
-163.3064832491039
 10
109.2798068303189
 20
-163.6261881101351
 10
109.3180473902052
 20
-163.9348686656135
 10
109.5960665958649
 20
-163.9348686656135
 10
109.860649929132
 20
-163.9348686656135
 10
109.9126708709593
 20
-163.6534043644686
 10
109.9126708709593
 20
-163.3064832491039
 10
109.9126708709593
 20
-162.9871228976212
 10
109.8720187442334
 20
-162.6780978325943
 10
109.5960665958649
 20
-162.6780978325943
 97
        0
 97
        1
330
105
 92
        1
 93
        1
 72
     4
 94
        3
 73
     0
 74
     0
 95
       29
 96
       25
 40
0.0
 40
0.0
 40
0.0
 40
0.0
 40
1.0
 40
1.0
 40
1.0
 40
2.0
 40
2.0
 40
2.0
 40
3.0
 40
3.0
 40
3.0
 40
4.0
 40
4.0
 40
4.0
 40
5.0
 40
5.0
 40
5.0
 40
6.0
 40
6.0
 40
6.0
 40
7.0
 40
7.0
 40
7.0
 40
8.0
 40
8.0
 40
8.0
 40
8.0
 10
110.0211913787447
 20
-163.901106729858
 10
109.9057806799888
 20
-164.1105685353613
 10
109.7204345428824
 20
-164.1295165605301
 10
109.5960665958649
 20
-164.1295165605301
 10
109.4245008406994
 20
-164.1295165605301
 10
109.2729166393484
 20
-164.0830077714792
 10
109.1712863225335
 20
-163.901106729858
 10
109.0603542479085
 20
-163.7064588349414
 10
109.0400281845455
 20
-163.4694362655562
 10
109.0400281845455
 20
-163.3064832491039
 10
109.0400281845455
 20
-163.162822767369
 10
109.0579426810688
 20
-162.9109862873972
 10
109.1712863225335
 20
-162.7122042778983
 10
109.2863525117409
 20
-162.5089436442686
 10
109.4582627764549
 20
-162.4858615045174
 10
109.5960665958649
 20
-162.4858615045174
 10
109.7659098032877
 20
-162.4858615045174
 10
109.9195610619298
 20
-162.5303032362771
 10
110.0211913787447
 20
-162.7122042778983
 10
110.1276448292389
 20
-162.9047851155238
 10
110.1524495167327
 20
-163.1331949461959
 10
110.1524495167327
 20
-163.3064832491039
 10
110.1524495167327
 20
-163.4780490042694
 10
110.12971188653
 20
-163.7085258922326
 10
110.0211913787447
 20
-163.901106729858
 97
        0
 97
        1
330
106
 75
     2
 76
     1
 98
        1
 10
0.0
 20
0.0
450
        0
451
        0
460
0.0
461
0.0
452
        0
462
0.0
453
        0
470

  0
ENDBLK
  5
102
330
FF
100
AcDbEntity
  8
0
100
AcDbBlockEnd
  0
BLOCK
  5
110
330
10E
100
AcDbEntity
  8
0
100
AcDbBlockBegin
  2
Block_2
 70
     0
 10
0.0
 20
0.0
 30
0.0
  3
Block_2
  1

  0
INSERT
  5
113
330
10E
100
AcDbEntity
  8
レイヤー 1
100
AcDbBlockReference
  2
Block_3
 10
0.0
 20
0.0
 30
0.0
  0
ENDBLK
  5
111
330
10E
100
AcDbEntity
  8
0
100
AcDbBlockEnd
  0
BLOCK
  5
114
330
112
100
AcDbEntity
  8
0
100
AcDbBlockBegin
  2
Block_3
 70
     0
 10
0.0
 20
0.0
 30
0.0
  3
Block_3
  1

  0
SPLINE
  5
116
330
112
100
AcDbEntity
  8
レイヤー 1
100
AcDbSpline
210
0.0
220
0.0
230
1.0
 70
     9
 71
     3
 72
    62
 73
    58
 74
     0
 42
0.0000000001
 43
0.0000000001
 40
0.0
 40
0.0
 40
0.0
 40
0.0
 40
1.0
 40
1.0
 40
1.0
 40
2.0
 40
2.0
 40
2.0
 40
3.0
 40
3.0
 40
3.0
 40
4.0
 40
4.0
 40
4.0
 40
5.0
 40
5.0
 40
5.0
 40
6.0
 40
6.0
 40
6.0
 40
7.0
 40
7.0
 40
7.0
 40
8.0
 40
8.0
 40
8.0
 40
9.0
 40
9.0
 40
9.0
 40
10.0
 40
10.0
 40
10.0
 40
11.0
 40
11.0
 40
11.0
 40
12.0
 40
12.0
 40
12.0
 40
13.0
 40
13.0
 40
13.0
 40
14.0
 40
14.0
 40
14.0
 40
15.0
 40
15.0
 40
15.0
 40
16.0
 40
16.0
 40
16.0
 40
17.0
 40
17.0
 40
17.0
 40
18.0
 40
18.0
 40
18.0
 40
19.0
 40
19.0
 40
19.0
 40
19.0
 10
89.68599851273475
 20
-146.1373331340386
 30
0.0
 10
89.68599851273475
 20
-146.2391357056277
 30
0.0
 10
89.66481117550047
 20
-146.4718519056563
 30
0.0
 10
89.47860376452272
 20
-146.6053493557098
 30
0.0
 10
89.36646590647782
 20
-146.6844142970962
 30
0.0
 10
89.26707490172837
 20
-146.6888929212271
 30
0.0
 10
89.1824978075655
 20
-146.6935438001321
 30
0.0
 10
89.1824978075655
 20
-146.6935438001321
 30
0.0
 10
89.1824978075655
 20
-146.4584160332639
 30
0.0
 10
89.1824978075655
 20
-146.4584160332639
 30
0.0
 10
89.25656736049836
 20
-146.4561767211984
 30
0.0
 10
89.49135061781815
 20
-146.4448079060971
 30
0.0
 10
89.49135061781815
 20
-146.1418117581694
 30
0.0
 10
89.49135061781815
 20
-145.9948784357235
 30
0.0
 10
89.42158743424183
 20
-145.8320976740454
 30
0.0
 10
89.19300534879551
 20
-145.8320976740454
 30
0.0
 10
89.07673337616833
 20
-145.8320976740454
 30
0.0
 10
89.02798527505202
 20
-145.8727498007714
 30
0.0
 10
88.99629039658774
 20
-145.9066839913011
 30
0.0
 10
88.92222084365487
 20
-145.9859211874618
 30
0.0
 10
88.90964624513371
 20
-146.1101168797051
 30
0.0
 10
88.90964624513371
 20
-146.1690280125029
 30
0.0
 10
88.90964624513371
 20
-146.1893540758658
 30
0.0
 10
88.91171330242485
 20
-146.2277668905264
 30
0.0
 10
88.91601967178141
 20
-146.2572224569253
 30
0.0
 10
88.91601967178141
 20
-146.2572224569253
 30
0.0
 10
88.72137177686481
 20
-146.2572224569253
 30
0.0
 10
88.72137177686481
 20
-146.2572224569253
 30
0.0
 10
88.72774520351251
 20
-146.2163980754251
 30
0.0
 10
88.72981226080366
 20
-146.1712673245683
 30
0.0
 10
88.72981226080366
 20
-146.1643771335978
 30
0.0
 10
88.72981226080366
 20
-146.0944416952472
 30
0.0
 10
88.70862492356938
 20
-145.8818793038073
 30
0.0
 10
88.47177460895846
 20
-145.8818793038073
 30
0.0
 10
88.29400768191955
 20
-145.8818793038073
 30
0.0
 10
88.23905840892981
 20
-146.022094690057
 30
0.0
 10
88.23905840892981
 20
-146.139572446104
 30
0.0
 10
88.23905840892981
 20
-146.4222425306687
 30
0.0
 10
88.47177460895846
 20
-146.4311997789304
 30
0.0
 10
88.5436048498259
 20
-146.4356784030612
 30
0.0
 10
88.5436048498259
 20
-146.4356784030612
 30
0.0
 10
88.5436048498259
 20
-146.6527194186319
 30
0.0
 10
88.5436048498259
 20
-146.6527194186319
 30
0.0
 10
88.4187201384856
 20
-146.6437621703703
 30
0.0
 10
88.04217120194779
 20
-146.6143066039714
 30
0.0
 10
88.04217120194779
 20
-146.1259643189372
 30
0.0
 10
88.04217120194779
 20
-145.8863579279381
 30
0.0
 10
88.16912297057925
 20
-145.6286647856414
 30
0.0
 10
88.46540118231073
 20
-145.6286647856414
 30
0.0
 10
88.65143633851422
 20
-145.6286647856414
 30
0.0
 10
88.73394637538597
 20
-145.7302951024563
 30
0.0
 10
88.79544132979766
 20
-145.8365762981762
 30
0.0
 10
88.8228298389054
 20
-145.7711194839565
 30
0.0
 10
88.90327281848598
 20
-145.5766438438141
 30
0.0
 10
89.18043075027433
 20
-145.5766438438141
 30
0.0
 10
89.51891138170013
 20
-145.5766438438141
 30
0.0
 10
89.68599851273475
 20
-145.8412271770814
 30
0.0
 10
89.68599851273475
 20
-146.1373331340386
 30
0.0
  0
HATCH
  5
117
330
112
100
AcDbEntity
  8
レイヤー 1
 62
   250
420
  2299925
440
 33554687
100
AcDbHatch
 10
0.0
 20
0.0
 30
0.0
210
0.0
220
0.0
230
1.0
  2
SOLID
 70
     1
 71
     1
 91
        1
 92
        1
 93
        1
 72
     4
 94
        3
 73
     0
 74
     0
 95
       62
 96
       58
 40
0.0
 40
0.0
 40
0.0
 40
0.0
 40
1.0
 40
1.0
 40
1.0
 40
2.0
 40
2.0
 40
2.0
 40
3.0
 40
3.0
 40
3.0
 40
4.0
 40
4.0
 40
4.0
 40
5.0
 40
5.0
 40
5.0
 40
6.0
 40
6.0
 40
6.0
 40
7.0
 40
7.0
 40
7.0
 40
8.0
 40
8.0
 40
8.0
 40
9.0
 40
9.0
 40
9.0
 40
10.0
 40
10.0
 40
10.0
 40
11.0
 40
11.0
 40
11.0
 40
12.0
 40
12.0
 40
12.0
 40
13.0
 40
13.0
 40
13.0
 40
14.0
 40
14.0
 40
14.0
 40
15.0
 40
15.0
 40
15.0
 40
16.0
 40
16.0
 40
16.0
 40
17.0
 40
17.0
 40
17.0
 40
18.0
 40
18.0
 40
18.0
 40
19.0
 40
19.0
 40
19.0
 40
19.0
 10
89.68599851273475
 20
-146.1373331340386
 10
89.68599851273475
 20
-146.2391357056277
 10
89.66481117550047
 20
-146.4718519056563
 10
89.47860376452272
 20
-146.6053493557098
 10
89.36646590647782
 20
-146.6844142970962
 10
89.26707490172837
 20
-146.6888929212271
 10
89.1824978075655
 20
-146.6935438001321
 10
89.1824978075655
 20
-146.6935438001321
 10
89.1824978075655
 20
-146.4584160332639
 10
89.1824978075655
 20
-146.4584160332639
 10
89.25656736049836
 20
-146.4561767211984
 10
89.49135061781815
 20
-146.4448079060971
 10
89.49135061781815
 20
-146.1418117581694
 10
89.49135061781815
 20
-145.9948784357235
 10
89.42158743424183
 20
-145.8320976740454
 10
89.19300534879551
 20
-145.8320976740454
 10
89.07673337616833
 20
-145.8320976740454
 10
89.02798527505202
 20
-145.8727498007714
 10
88.99629039658774
 20
-145.9066839913011
 10
88.92222084365487
 20
-145.9859211874618
 10
88.90964624513371
 20
-146.1101168797051
 10
88.90964624513371
 20
-146.1690280125029
 10
88.90964624513371
 20
-146.1893540758658
 10
88.91171330242485
 20
-146.2277668905264
 10
88.91601967178141
 20
-146.2572224569253
 10
88.91601967178141
 20
-146.2572224569253
 10
88.72137177686481
 20
-146.2572224569253
 10
88.72137177686481
 20
-146.2572224569253
 10
88.72774520351251
 20
-146.2163980754251
 10
88.72981226080366
 20
-146.1712673245683
 10
88.72981226080366
 20
-146.1643771335978
 10
88.72981226080366
 20
-146.0944416952472
 10
88.70862492356938
 20
-145.8818793038073
 10
88.47177460895846
 20
-145.8818793038073
 10
88.29400768191955
 20
-145.8818793038073
 10
88.23905840892981
 20
-146.022094690057
 10
88.23905840892981
 20
-146.139572446104
 10
88.23905840892981
 20
-146.4222425306687
 10
88.47177460895846
 20
-146.4311997789304
 10
88.5436048498259
 20
-146.4356784030612
 10
88.5436048498259
 20
-146.4356784030612
 10
88.5436048498259
 20
-146.6527194186319
 10
88.5436048498259
 20
-146.6527194186319
 10
88.4187201384856
 20
-146.6437621703703
 10
88.04217120194779
 20
-146.6143066039714
 10
88.04217120194779
 20
-146.1259643189372
 10
88.04217120194779
 20
-145.8863579279381
 10
88.16912297057925
 20
-145.6286647856414
 10
88.46540118231073
 20
-145.6286647856414
 10
88.65143633851422
 20
-145.6286647856414
 10
88.73394637538597
 20
-145.7302951024563
 10
88.79544132979766
 20
-145.8365762981762
 10
88.8228298389054
 20
-145.7711194839565
 10
88.90327281848598
 20
-145.5766438438141
 10
89.18043075027433
 20
-145.5766438438141
 10
89.51891138170013
 20
-145.5766438438141
 10
89.68599851273475
 20
-145.8412271770814
 10
89.68599851273475
 20
-146.1373331340386
 97
        0
 97
        1
330
116
 75
     2
 76
     1
 98
        1
 10
0.0
 20
0.0
450
        0
451
        0
460
0.0
461
0.0
452
        0
462
0.0
453
        0
470

  0
SPLINE
  5
118
330
112
100
AcDbEntity
  8
レイヤー 1
100
AcDbSpline
210
0.0
220
0.0
230
1.0
 70
     9
 71
     3
 72
    17
 73
    13
 74
     0
 42
0.0000000001
 43
0.0000000001
 40
0.0
 40
0.0
 40
0.0
 40
0.0
 40
1.0
 40
1.0
 40
1.0
 40
2.0
 40
2.0
 40
2.0
 40
3.0
 40
3.0
 40
3.0
 40
4.0
 40
4.0
 40
4.0
 40
4.0
 10
88.23475203957327
 20
-144.8703992693379
 30
0.0
 10
88.23475203957327
 20
-145.1372219146705
 30
0.0
 10
88.51828339800931
 20
-145.1870035444324
 30
0.0
 10
88.86313745608282
 20
-145.1870035444324
 30
0.0
 10
89.1824978075655
 20
-145.1870035444324
 30
0.0
 10
89.49135061781815
 20
-145.1485907297719
 30
0.0
 10
89.49135061781815
 20
-144.8703992693379
 30
0.0
 10
89.49135061781815
 20
-144.605988190845
 30
0.0
 10
89.21005857144749
 20
-144.5539672490177
 30
0.0
 10
88.86313745608282
 20
-144.5539672490177
 30
0.0
 10
88.5436048498259
 20
-144.5539672490177
 30
0.0
 10
88.23475203957327
 20
-144.5946193757437
 30
0.0
 10
88.23475203957327
 20
-144.8703992693379
 30
0.0
  0
SPLINE
  5
119
330
112
100
AcDbEntity
  8
レイヤー 1
100
AcDbSpline
210
0.0
220
0.0
230
1.0
 70
     9
 71
     3
 72
    29
 73
    25
 74
     0
 42
0.0000000001
 43
0.0000000001
 40
0.0
 40
0.0
 40
0.0
 40
0.0
 40
1.0
 40
1.0
 40
1.0
 40
2.0
 40
2.0
 40
2.0
 40
3.0
 40
3.0
 40
3.0
 40
4.0
 40
4.0
 40
4.0
 40
5.0
 40
5.0
 40
5.0
 40
6.0
 40
6.0
 40
6.0
 40
7.0
 40
7.0
 40
7.0
 40
8.0
 40
8.0
 40
8.0
 40
8.0
 10
89.45758868206269
 20
-144.4454467412324
 30
0.0
 10
89.66687823279162
 20
-144.560685185214
 30
0.0
 10
89.68599851273475
 20
-144.7460313223204
 30
0.0
 10
89.68599851273475
 20
-144.8703992693379
 30
0.0
 10
89.68599851273475
 20
-145.0423095340519
 30
0.0
 10
89.63948972368388
 20
-145.1937214806286
 30
0.0
 10
89.45758868206269
 20
-145.2955240522178
 30
0.0
 10
89.26294078714608
 20
-145.4062838720686
 30
0.0
 10
89.02591821776089
 20
-145.4266099354315
 30
0.0
 10
88.86313745608282
 20
-145.4266099354315
 30
0.0
 10
88.71913246479939
 20
-145.4266099354315
 30
0.0
 10
88.46746823960188
 20
-145.408523184134
 30
0.0
 10
88.2685139753287
 20
-145.2955240522178
 30
0.0
 10
88.06559785124749
 20
-145.1801133534619
 30
0.0
 10
88.04217120194779
 20
-145.0083753435222
 30
0.0
 10
88.04217120194779
 20
-144.8703992693379
 30
0.0
 10
88.04217120194779
 20
-144.7009005714637
 30
0.0
 10
88.08661293370752
 20
-144.5470770580473
 30
0.0
 10
88.2685139753287
 20
-144.4454467412324
 30
0.0
 10
88.46109481295417
 20
-144.3391655455124
 30
0.0
 10
88.68950464362624
 20
-144.3143608580186
 30
0.0
 10
88.86313745608282
 20
-144.3143608580186
 30
0.0
 10
89.03435870169975
 20
-144.3143608580186
 30
0.0
 10
89.26500784443723
 20
-144.336926233447
 30
0.0
 10
89.45758868206269
 20
-144.4454467412324
 30
0.0
  0
HATCH
  5
11A
330
112
100
AcDbEntity
  8
レイヤー 1
 62
   250
420
  2299925
440
 33554687
100
AcDbHatch
 10
0.0
 20
0.0
 30
0.0
210
0.0
220
0.0
230
1.0
  2
SOLID
 70
     1
 71
     1
 91
        2
 92
        1
 93
        1
 72
     4
 94
        3
 73
     0
 74
     0
 95
       17
 96
       13
 40
0.0
 40
0.0
 40
0.0
 40
0.0
 40
1.0
 40
1.0
 40
1.0
 40
2.0
 40
2.0
 40
2.0
 40
3.0
 40
3.0
 40
3.0
 40
4.0
 40
4.0
 40
4.0
 40
4.0
 10
88.23475203957327
 20
-144.8703992693379
 10
88.23475203957327
 20
-145.1372219146705
 10
88.51828339800931
 20
-145.1870035444324
 10
88.86313745608282
 20
-145.1870035444324
 10
89.1824978075655
 20
-145.1870035444324
 10
89.49135061781815
 20
-145.1485907297719
 10
89.49135061781815
 20
-144.8703992693379
 10
89.49135061781815
 20
-144.605988190845
 10
89.21005857144749
 20
-144.5539672490177
 10
88.86313745608282
 20
-144.5539672490177
 10
88.5436048498259
 20
-144.5539672490177
 10
88.23475203957327
 20
-144.5946193757437
 10
88.23475203957327
 20
-144.8703992693379
 97
        0
 97
        1
330
118
 92
        1
 93
        1
 72
     4
 94
        3
 73
     0
 74
     0
 95
       29
 96
       25
 40
0.0
 40
0.0
 40
0.0
 40
0.0
 40
1.0
 40
1.0
 40
1.0
 40
2.0
 40
2.0
 40
2.0
 40
3.0
 40
3.0
 40
3.0
 40
4.0
 40
4.0
 40
4.0
 40
5.0
 40
5.0
 40
5.0
 40
6.0
 40
6.0
 40
6.0
 40
7.0
 40
7.0
 40
7.0
 40
8.0
 40
8.0
 40
8.0
 40
8.0
 10
89.45758868206269
 20
-144.4454467412324
 10
89.66687823279162
 20
-144.560685185214
 10
89.68599851273475
 20
-144.7460313223204
 10
89.68599851273475
 20
-144.8703992693379
 10
89.68599851273475
 20
-145.0423095340519
 10
89.63948972368388
 20
-145.1937214806286
 10
89.45758868206269
 20
-145.2955240522178
 10
89.26294078714608
 20
-145.4062838720686
 10
89.02591821776089
 20
-145.4266099354315
 10
88.86313745608282
 20
-145.4266099354315
 10
88.71913246479939
 20
-145.4266099354315
 10
88.46746823960188
 20
-145.408523184134
 10
88.2685139753287
 20
-145.2955240522178
 10
88.06559785124749
 20
-145.1801133534619
 10
88.04217120194779
 20
-145.0083753435222
 10
88.04217120194779
 20
-144.8703992693379
 10
88.04217120194779
 20
-144.7009005714637
 10
88.08661293370752
 20
-144.5470770580473
 10
88.2685139753287
 20
-144.4454467412324
 10
88.46109481295417
 20
-144.3391655455124
 10
88.68950464362624
 20
-144.3143608580186
 10
88.86313745608282
 20
-144.3143608580186
 10
89.03435870169975
 20
-144.3143608580186
 10
89.26500784443723
 20
-144.336926233447
 10
89.45758868206269
 20
-144.4454467412324
 97
        0
 97
        1
330
119
 75
     2
 76
     1
 98
        1
 10
0.0
 20
0.0
450
        0
451
        0
460
0.0
461
0.0
452
        0
462
0.0
453
        0
470

  0
ENDBLK
  5
115
330
112
100
AcDbEntity
  8
0
100
AcDbBlockEnd
  0
BLOCK
  5
12A
330
128
100
AcDbEntity
  8
0
100
AcDbBlockBegin
  2
Block_4
 70
     0
 10
0.0
 20
0.0
 30
0.0
  3
Block_4
  1

  0
INSERT
  5
12D
330
128
100
AcDbEntity
  8
レイヤー 1
100
AcDbBlockReference
  2
Block_5
 10
0.0
 20
0.0
 30
0.0
  0
ENDBLK
  5
12B
330
128
100
AcDbEntity
  8
0
100
AcDbBlockEnd
  0
BLOCK
  5
12E
330
12C
100
AcDbEntity
  8
0
100
AcDbBlockBegin
  2
Block_5
 70
     0
 10
0.0
 20
0.0
 30
0.0
  3
Block_5
  1

  0
SPLINE
  5
130
330
12C
100
AcDbEntity
  8
レイヤー 1
100
AcDbSpline
210
0.0
220
0.0
230
1.0
 70
     9
 71
     3
 72
    17
 73
    13
 74
     0
 42
0.0000000001
 43
0.0000000001
 40
0.0
 40
0.0
 40
0.0
 40
0.0
 40
1.0
 40
1.0
 40
1.0
 40
2.0
 40
2.0
 40
2.0
 40
3.0
 40
3.0
 40
3.0
 40
4.0
 40
4.0
 40
4.0
 40
4.0
 10
115.2339653574762
 20
-138.0534165778998
 30
0.0
 10
115.2191514468897
 20
-138.0828721442987
 30
0.0
 10
115.1747097151299
 20
-138.1760619771747
 30
0.0
 10
115.1654079573197
 20
-138.1950100023436
 30
0.0
 10
115.3321505788058
 20
-138.2542656446899
 30
0.0
 10
115.3507540944262
 20
-138.2606390713376
 30
0.0
 10
115.4137993418063
 20
-138.2881998352196
 30
0.0
 10
115.4616861690512
 20
-138.2013834289913
 30
0.0
 10
115.4823567419627
 20
-138.1273138760584
 30
0.0
 10
115.4951035952581
 20
-138.0534165778998
 30
0.0
 10
115.4951035952581
 20
-138.0534165778998
 30
0.0
 10
115.2339653574762
 20
-138.0534165778998
 30
0.0
 10
115.2339653574762
 20
-138.0534165778998
 30
0.0
  0
SPLINE
  5
131
330
12C
100
AcDbEntity
  8
レイヤー 1
100
AcDbSpline
210
0.0
220
0.0
230
1.0
 70
    11
 71
     3
 72
    20
 73
    16
 74
     0
 42
0.0000000001
 43
0.0000000001
 40
0.0
 40
0.0
 40
0.0
 40
0.0
 40
1.0
 40
1.0
 40
1.0
 40
2.0
 40
2.0
 40
2.0
 40
3.0
 40
3.0
 40
3.0
 40
4.0
 40
4.0
 40
4.0
 40
5.0
 40
5.0
 40
5.0
 40
5.0
 10
115.1784993201637
 20
-137.2029947573659
 30
0.0
 10
115.1784993201637
 20
-137.2029947573659
 30
0.0
 10
115.1509385562817
 20
-137.2029947573659
 30
0.0
 10
115.1509385562817
 20
-137.2029947573659
 30
0.0
 10
115.1915906830076
 20
-137.3023857621154
 30
0.0
 10
115.2191514468897
 20
-137.3826564869217
 30
0.0
 10
115.2487792680628
 20
-137.5096082555531
 30
0.0
 10
115.2487792680628
 20
-137.5096082555531
 30
0.0
 10
115.4303358001355
 20
-137.5096082555531
 30
0.0
 10
115.4303358001355
 20
-137.5096082555531
 30
0.0
 10
115.458241073566
 20
-137.4165906774514
 30
0.0
 10
115.4785671369289
 20
-137.3320135832885
 30
0.0
 10
115.4988932002919
 20
-137.2029947573659
 30
0.0
 10
115.4988932002919
 20
-137.2029947573659
 30
0.0
 10
115.1784993201637
 20
-137.2029947573659
 30
0.0
 10
115.1784993201637
 20
-137.2029947573659
 30
0.0
  0
SPLINE
  5
132
330
12C
100
AcDbEntity
  8
レイヤー 1
100
AcDbSpline
210
0.0
220
0.0
230
1.0
 70
     9
 71
     3
 72
   242
 73
   238
 74
     0
 42
0.0000000001
 43
0.0000000001
 40
0.0
 40
0.0
 40
0.0
 40
0.0
 40
1.0
 40
1.0
 40
1.0
 40
2.0
 40
2.0
 40
2.0
 40
3.0
 40
3.0
 40
3.0
 40
4.0
 40
4.0
 40
4.0
 40
5.0
 40
5.0
 40
5.0
 40
6.0
 40
6.0
 40
6.0
 40
7.0
 40
7.0
 40
7.0
 40
8.0
 40
8.0
 40
8.0
 40
9.0
 40
9.0
 40
9.0
 40
10.0
 40
10.0
 40
10.0
 40
11.0
 40
11.0
 40
11.0
 40
12.0
 40
12.0
 40
12.0
 40
13.0
 40
13.0
 40
13.0
 40
14.0
 40
14.0
 40
14.0
 40
15.0
 40
15.0
 40
15.0
 40
16.0
 40
16.0
 40
16.0
 40
17.0
 40
17.0
 40
17.0
 40
18.0
 40
18.0
 40
18.0
 40
19.0
 40
19.0
 40
19.0
 40
20.0
 40
20.0
 40
20.0
 40
21.0
 40
21.0
 40
21.0
 40
22.0
 40
22.0
 40
22.0
 40
23.0
 40
23.0
 40
23.0
 40
24.0
 40
24.0
 40
24.0
 40
25.0
 40
25.0
 40
25.0
 40
26.0
 40
26.0
 40
26.0
 40
27.0
 40
27.0
 40
27.0
 40
28.0
 40
28.0
 40
28.0
 40
29.0
 40
29.0
 40
29.0
 40
30.0
 40
30.0
 40
30.0
 40
31.0
 40
31.0
 40
31.0
 40
32.0
 40
32.0
 40
32.0
 40
33.0
 40
33.0
 40
33.0
 40
34.0
 40
34.0
 40
34.0
 40
35.0
 40
35.0
 40
35.0
 40
36.0
 40
36.0
 40
36.0
 40
37.0
 40
37.0
 40
37.0
 40
38.0
 40
38.0
 40
38.0
 40
39.0
 40
39.0
 40
39.0
 40
40.0
 40
40.0
 40
40.0
 40
41.0
 40
41.0
 40
41.0
 40
42.0
 40
42.0
 40
42.0
 40
43.0
 40
43.0
 40
43.0
 40
44.0
 40
44.0
 40
44.0
 40
45.0
 40
45.0
 40
45.0
 40
46.0
 40
46.0
 40
46.0
 40
47.0
 40
47.0
 40
47.0
 40
48.0
 40
48.0
 40
48.0
 40
49.0
 40
49.0
 40
49.0
 40
50.0
 40
50.0
 40
50.0
 40
51.0
 40
51.0
 40
51.0
 40
52.0
 40
52.0
 40
52.0
 40
53.0
 40
53.0
 40
53.0
 40
54.0
 40
54.0
 40
54.0
 40
55.0
 40
55.0
 40
55.0
 40
56.0
 40
56.0
 40
56.0
 40
57.0
 40
57.0
 40
57.0
 40
58.0
 40
58.0
 40
58.0
 40
59.0
 40
59.0
 40
59.0
 40
60.0
 40
60.0
 40
60.0
 40
61.0
 40
61.0
 40
61.0
 40
62.0
 40
62.0
 40
62.0
 40
63.0
 40
63.0
 40
63.0
 40
64.0
 40
64.0
 40
64.0
 40
65.0
 40
65.0
 40
65.0
 40
66.0
 40
66.0
 40
66.0
 40
67.0
 40
67.0
 40
67.0
 40
68.0
 40
68.0
 40
68.0
 40
69.0
 40
69.0
 40
69.0
 40
70.0
 40
70.0
 40
70.0
 40
71.0
 40
71.0
 40
71.0
 40
72.0
 40
72.0
 40
72.0
 40
73.0
 40
73.0
 40
73.0
 40
74.0
 40
74.0
 40
74.0
 40
75.0
 40
75.0
 40
75.0
 40
76.0
 40
76.0
 40
76.0
 40
77.0
 40
77.0
 40
77.0
 40
78.0
 40
78.0
 40
78.0
 40
79.0
 40
79.0
 40
79.0
 40
79.0
 10
115.7283365596096
 20
-137.6682549026489
 30
0.0
 10
115.7283365596096
 20
-137.6682549026489
 30
0.0
 10
115.5064724103595
 20
-137.6682549026489
 30
0.0
 10
115.5064724103595
 20
-137.6682549026489
 30
0.0
 10
115.5064724103595
 20
-137.6682549026489
 30
0.0
 10
115.2635931786494
 20
-137.6682549026489
 30
0.0
 10
115.2635931786494
 20
-137.6682549026489
 30
0.0
 10
115.2635931786494
 20
-137.6682549026489
 30
0.0
 10
115.3748697628229
 20
-137.7106295771175
 30
0.0
 10
115.3748697628229
 20
-137.7106295771175
 30
0.0
 10
115.3841715206331
 20
-137.714935946474
 30
0.0
 10
115.3951958261859
 20
-137.7211371183475
 30
0.0
 10
115.3951958261859
 20
-137.7338839716429
 30
0.0
 10
115.3951958261859
 20
-137.7550713088772
 30
0.0
 10
115.3672905527554
 20
-137.7614447355249
 30
0.0
 10
115.3490315466836
 20
-137.7655788501072
 30
0.0
 10
115.3397297888734
 20
-137.7888332446326
 30
0.0
 10
115.3135470631855
 20
-137.8544623136267
 30
0.0
 10
115.2970106048563
 20
-137.8989040453864
 30
0.0
 10
115.2970106048563
 20
-137.8989040453864
 30
0.0
 10
115.5340331742415
 20
-137.8989040453864
 30
0.0
 10
115.5340331742415
 20
-137.8989040453864
 30
0.0
 10
115.6136148799507
 20
-137.8989040453864
 30
0.0
 10
115.7858696542132
 20
-137.8945976760298
 30
0.0
 10
115.9098930916822
 20
-137.8861571920909
 30
0.0
 10
115.9098930916822
 20
-137.8861571920909
 30
0.0
 10
115.9098930916822
 20
-138.0639241191298
 30
0.0
 10
115.9098930916822
 20
-138.0639241191298
 30
0.0
 10
115.8378905960405
 20
-138.0596177497733
 30
0.0
 10
115.8192870804201
 20
-138.0596177497733
 30
0.0
 10
115.6618462167442
 20
-138.055483635191
 30
0.0
 10
115.6339409433137
 20
-138.2098239129301
 30
0.0
 10
115.5953558738789
 20
-138.2902668925108
 30
0.0
 10
115.5564262948956
 20
-138.3600300760871
 30
0.0
 10
115.6618462167442
 20
-138.4192857184334
 30
0.0
 10
115.7545192852975
 20
-138.4869818447185
 30
0.0
 10
115.8451252965595
 20
-138.5694918815902
 30
0.0
 10
115.8451252965595
 20
-138.5694918815902
 30
0.0
 10
115.7414279224535
 20
-138.7365790126249
 30
0.0
 10
115.7414279224535
 20
-138.7365790126249
 30
0.0
 10
115.7211018590905
 20
-138.717630987456
 30
0.0
 10
115.7100775535377
 20
-138.7091905035171
 30
0.0
 10
115.6118923322081
 20
-138.62444115458
 30
0.0
 10
115.569173148191
 20
-138.586372849468
 30
0.0
 10
115.5174967159123
 20
-138.5505438564214
 30
0.0
 10
115.4472167680132
 20
-138.5061021246617
 30
0.0
 10
115.2618706309067
 20
-138.6923095356394
 30
0.0
 10
115.0823811561252
 20
-138.7155639301649
 30
0.0
 10
114.8284776188623
 20
-138.745191751338
 30
0.0
 10
114.8284776188623
 20
-138.745191751338
 30
0.0
 10
114.7378716076002
 20
-138.565357767008
 30
0.0
 10
114.7378716076002
 20
-138.565357767008
 30
0.0
 10
115.0155463037114
 20
-138.5610513976514
 30
0.0
 10
115.1691975623535
 20
-138.5357299458348
 30
0.0
 10
115.3025227576327
 20
-138.4256591450811
 30
0.0
 10
115.1988253835267
 20
-138.3748439866736
 30
0.0
 10
115.1213107351085
 20
-138.3474554775659
 30
0.0
 10
115.0896158566443
 20
-138.3347086242705
 30
0.0
 10
115.0730793983151
 20
-138.3622693881525
 30
0.0
 10
115.0599880354711
 20
-138.3812174133213
 30
0.0
 10
115.0358723670743
 20
-138.4151516038511
 30
0.0
 10
115.0358723670743
 20
-138.4151516038511
 30
0.0
 10
114.8636175928118
 20
-138.3326415669793
 30
0.0
 10
114.8636175928118
 20
-138.3326415669793
 30
0.0
 10
114.9359645980021
 20
-138.2521985873987
 30
0.0
 10
114.989708087572
 20
-138.1569416972316
 30
0.0
 10
115.0396619721081
 20
-138.055483635191
 30
0.0
 10
114.872919350622
 20
-138.0596177497733
 30
0.0
 10
114.8546603445502
 20
-138.0596177497733
 30
0.0
 10
114.78231333936
 20
-138.0639241191298
 30
0.0
 10
114.78231333936
 20
-138.0639241191298
 30
0.0
 10
114.78231333936
 20
-137.8861571920909
 30
0.0
 10
114.78231333936
 20
-137.8861571920909
 30
0.0
 10
114.9046142290863
 20
-137.8925306187386
 30
0.0
 10
115.0878933089016
 20
-137.8968369880952
 30
0.0
 10
115.1099419200072
 20
-137.8968369880952
 30
0.0
 10
115.1247558305938
 20
-137.8629027975655
 30
0.0
 10
115.1729871673873
 20
-137.7423244555818
 30
0.0
 10
115.1895236257165
 20
-137.6682549026489
 30
0.0
 10
115.1729871673873
 20
-137.6682549026489
 30
0.0
 10
115.017268851454
 20
-137.6746283292966
 30
0.0
 10
114.8470811344826
 20
-137.687375182592
 30
0.0
 10
114.8470811344826
 20
-137.687375182592
 30
0.0
 10
114.8470811344826
 20
-137.8207003778712
 30
0.0
 10
114.8470811344826
 20
-137.8207003778712
 30
0.0
 10
114.8043619504655
 20
-137.8460218296878
 30
0.0
 10
114.7526855181868
 20
-137.8777167081521
 30
0.0
 10
114.6358967812368
 20
-137.9433457771461
 30
0.0
 10
114.6358967812368
 20
-137.9433457771461
 30
0.0
 10
114.6358967812368
 20
-138.0892455709464
 30
0.0
 10
114.6358967812368
 20
-138.0892455709464
 30
0.0
 10
114.6358967812368
 20
-138.0892455709464
 30
0.0
 10
114.6358967812368
 20
-138.5569172830691
 30
0.0
 10
114.6358967812368
 20
-138.5569172830691
 30
0.0
 10
114.6358967812368
 20
-138.6836967969263
 30
0.0
 10
114.6045464123211
 20
-138.7429524392726
 30
0.0
 10
114.3564995373831
 20
-138.7345119553337
 30
0.0
 10
114.3564995373831
 20
-138.7345119553337
 30
0.0
 10
114.2655490165725
 20
-138.527289461896
 30
0.0
 10
114.2655490165725
 20
-138.527289461896
 30
0.0
 10
114.3213595634335
 20
-138.5398640604171
 30
0.0
 10
114.3637342379021
 20
-138.5441704297737
 30
0.0
 10
114.3988742118517
 20
-138.5441704297737
 30
0.0
 10
114.4657090642655
 20
-138.5441704297737
 30
0.0
 10
114.4750108220757
 20
-138.5209160352482
 30
0.0
 10
114.4750108220757
 20
-138.4552869662542
 30
0.0
 10
114.4750108220757
 20
-138.4552869662542
 30
0.0
 10
114.4750108220757
 20
-138.0258558140178
 30
0.0
 10
114.4750108220757
 20
-138.0258558140178
 30
0.0
 10
114.3895724540415
 20
-138.065991176421
 30
0.0
 10
114.3747585434549
 20
-138.0723646030687
 30
0.0
 10
114.3341064167289
 20
-138.0914848830118
 30
0.0
 10
114.3303168116952
 20
-138.1124999654719
 30
0.0
 10
114.3268717162099
 20
-138.142127786645
 30
0.0
 10
114.3099907483322
 20
-138.142127786645
 30
0.0
 10
114.3027560478132
 20
-138.142127786645
 30
0.0
 10
114.293454290003
 20
-138.1379936720627
 30
0.0
 10
114.2879421372266
 20
-138.1147392775373
 30
0.0
 10
114.2879421372266
 20
-138.1147392775373
 30
0.0
 10
114.2414333481757
 20
-137.9221584399118
 30
0.0
 10
114.2414333481757
 20
-137.9221584399118
 30
0.0
 10
114.3692463906785
 20
-137.8756496508609
 30
0.0
 10
114.4267794852822
 20
-137.8523952563355
 30
0.0
 10
114.4750108220757
 20
-137.8312079191012
 30
0.0
 10
114.4750108220757
 20
-137.8312079191012
 30
0.0
 10
114.4750108220757
 20
-137.4186577347425
 30
0.0
 10
114.4750108220757
 20
-137.4186577347425
 30
0.0
 10
114.4750108220757
 20
-137.4186577347425
 30
0.0
 10
114.4285020330248
 20
-137.4186577347425
 30
0.0
 10
114.4285020330248
 20
-137.4186577347425
 30
0.0
 10
114.4285020330248
 20
-137.4186577347425
 30
0.0
 10
114.3599446328683
 20
-137.4186577347425
 30
0.0
 10
114.3599446328683
 20
-137.4186577347425
 30
0.0
 10
114.300688990522
 20
-137.4186577347425
 30
0.0
 10
114.293454290003
 20
-137.4186577347425
 30
0.0
 10
114.2621039210872
 20
-137.4250311613903
 30
0.0
 10
114.2621039210872
 20
-137.4250311613903
 30
0.0
 10
114.2621039210872
 20
-137.2303832664736
 30
0.0
 10
114.2621039210872
 20
-137.2303832664736
 30
0.0
 10
114.2858750799355
 20
-137.2367566931214
 30
0.0
 10
114.293454290003
 20
-137.2367566931214
 30
0.0
 10
114.3544324800919
 20
-137.2367566931214
 30
0.0
 10
114.3544324800919
 20
-137.2367566931214
 30
0.0
 10
114.4712212170419
 20
-137.2367566931214
 30
0.0
 10
114.4712212170419
 20
-137.2367566931214
 30
0.0
 10
114.4712212170419
 20
-137.166993509545
 30
0.0
 10
114.4712212170419
 20
-137.0844834726733
 30
0.0
 10
114.4694986692993
 20
-137.0801771033167
 30
0.0
 10
114.4619194592317
 20
-136.9003431189867
 30
0.0
 10
114.4619194592317
 20
-136.8813950938178
 30
0.0
 10
114.4601969114891
 20
-136.8348863047669
 30
0.0
 10
114.4601969114891
 20
-136.8348863047669
 30
0.0
 10
114.6489881440808
 20
-136.8433267887058
 30
0.0
 10
114.6489881440808
 20
-136.8433267887058
 30
0.0
 10
114.6582899018909
 20
-136.8433267887058
 30
0.0
 10
114.6768934175113
 20
-136.845393845997
 30
0.0
 10
114.6768934175113
 20
-136.8622748138747
 30
0.0
 10
114.6768934175113
 20
-136.8813950938178
 30
0.0
 10
114.6638020546674
 20
-136.8919026350478
 30
0.0
 10
114.6414089340132
 20
-136.911022914991
 30
0.0
 10
114.6414089340132
 20
-136.9616658186241
 30
0.0
 10
114.6358967812368
 20
-137.1902479040705
 30
0.0
 10
114.637963838528
 20
-137.2367566931214
 30
0.0
 10
114.7506184608957
 20
-137.2367566931214
 30
0.0
 10
114.761987275997
 20
-137.2367566931214
 30
0.0
 10
114.8470811344826
 20
-137.2283162091825
 30
0.0
 10
114.8470811344826
 20
-137.2283162091825
 30
0.0
 10
114.8470811344826
 20
-137.4229641040991
 30
0.0
 10
114.8470811344826
 20
-137.4229641040991
 30
0.0
 10
114.8136637082757
 20
-137.4207247920337
 30
0.0
 10
114.7544080659294
 20
-137.4165906774514
 30
0.0
 10
114.6358967812368
 20
-137.4186577347425
 30
0.0
 10
114.6358967812368
 20
-137.4186577347425
 30
0.0
 10
114.6358967812368
 20
-137.7571383661683
 30
0.0
 10
114.6358967812368
 20
-137.7571383661683
 30
0.0
 10
114.6841281180303
 20
-137.7338839716429
 30
0.0
 10
114.741661212634
 20
-137.7063232077609
 30
0.0
 10
114.7840358871026
 20
-137.6830688132355
 30
0.0
 10
114.7840358871026
 20
-137.6830688132355
 30
0.0
 10
114.7840358871026
 20
-137.5054741409708
 30
0.0
 10
114.7840358871026
 20
-137.5054741409708
 30
0.0
 10
114.8842881657234
 20
-137.518048739492
 30
0.0
 10
114.9876410302808
 20
-137.518048739492
 30
0.0
 10
115.0896158566443
 20
-137.518048739492
 30
0.0
 10
115.0692897932813
 20
-137.4229641040991
 30
0.0
 10
115.0451741248845
 20
-137.3404540672274
 30
0.0
 10
114.989708087572
 20
-137.2071288719482
 30
0.0
 10
114.9507785085887
 20
-137.2091959292393
 30
0.0
 10
114.8784315033984
 20
-137.2135022985959
 30
0.0
 10
114.84535858674
 20
-137.2155693558871
 30
0.0
 10
114.84535858674
 20
-137.2155693558871
 30
0.0
 10
114.84535858674
 20
-137.035735371557
 30
0.0
 10
114.84535858674
 20
-137.035735371557
 30
0.0
 10
114.9545681136225
 20
-137.0441758554959
 30
0.0
 10
115.1061523149734
 20
-137.0484822248525
 30
0.0
 10
115.1784993201637
 20
-137.0484822248525
 30
0.0
 10
115.1784993201637
 20
-137.0484822248525
 30
0.0
 10
115.2508463253539
 20
-137.0484822248525
 30
0.0
 10
115.2508463253539
 20
-137.0484822248525
 30
0.0
 10
115.2508463253539
 20
-136.8855292084001
 30
0.0
 10
115.2508463253539
 20
-136.8750216671701
 30
0.0
 10
115.2487792680628
 20
-136.8200723941804
 30
0.0
 10
115.2487792680628
 20
-136.8200723941804
 30
0.0
 10
115.445149710722
 20
-136.845393845997
 30
0.0
 10
115.445149710722
 20
-136.845393845997
 30
0.0
 10
115.4489393157558
 20
-136.845393845997
 30
0.0
 10
115.4675428313762
 20
-136.8474609032881
 30
0.0
 10
115.4675428313762
 20
-136.8643418711658
 30
0.0
 10
115.4675428313762
 20
-136.8791557817524
 30
0.0
 10
115.458241073566
 20
-136.8877685204655
 30
0.0
 10
115.4341254051692
 20
-136.9025824310521
 30
0.0
 10
115.4286132523928
 20
-136.9680392452718
 30
0.0
 10
115.4265461951017
 20
-136.9892265825062
 30
0.0
 10
115.4265461951017
 20
-137.0484822248525
 30
0.0
 10
115.4265461951017
 20
-137.0484822248525
 30
0.0
 10
115.5099175058447
 20
-137.0484822248525
 30
0.0
 10
115.5099175058447
 20
-137.0484822248525
 30
0.0
 10
115.582264511035
 20
-137.0484822248525
 30
0.0
 10
115.7341932219345
 20
-137.0441758554959
 30
0.0
 10
115.8434027488169
 20
-137.035735371557
 30
0.0
 10
115.8434027488169
 20
-137.035735371557
 30
0.0
 10
115.8434027488169
 20
-137.2155693558871
 30
0.0
 10
115.8434027488169
 20
-137.2155693558871
 30
0.0
 10
115.817220023129
 20
-137.2135022985959
 30
0.0
 10
115.7138671585715
 20
-137.2091959292393
 30
0.0
 10
115.6783826750734
 20
-137.2071288719482
 30
0.0
 10
115.665635821778
 20
-137.2579440303556
 30
0.0
 10
115.6360080006049
 20
-137.3700818884005
 30
0.0
 10
115.5784749060012
 20
-137.5096082555531
 30
0.0
 10
115.6156819372419
 20
-137.5096082555531
 30
0.0
 10
115.8582166594035
 20
-137.4906602303843
 30
0.0
 10
115.9119601489734
 20
-137.4884209183188
 30
0.0
 10
115.9119601489734
 20
-137.4884209183188
 30
0.0
 10
115.9119601489734
 20
-137.6725612720055
 30
0.0
 10
115.9119601489734
 20
-137.6725612720055
 30
0.0
 10
115.8857774232855
 20
-137.6725612720055
 30
0.0
 10
115.8709635126989
 20
-137.6682549026489
 30
0.0
 10
115.7283365596096
 20
-137.6682549026489
 30
0.0
  0
HATCH
  5
133
330
12C
100
AcDbEntity
  8
レイヤー 1
 62
   250
420
  2299925
440
 33554687
100
AcDbHatch
 10
0.0
 20
0.0
 30
0.0
210
0.0
220
0.0
230
1.0
  2
SOLID
 70
     1
 71
     1
 91
        3
 92
        1
 93
        1
 72
     4
 94
        3
 73
     0
 74
     0
 95
       17
 96
       13
 40
0.0
 40
0.0
 40
0.0
 40
0.0
 40
1.0
 40
1.0
 40
1.0
 40
2.0
 40
2.0
 40
2.0
 40
3.0
 40
3.0
 40
3.0
 40
4.0
 40
4.0
 40
4.0
 40
4.0
 10
115.2339653574762
 20
-138.0534165778998
 10
115.2191514468897
 20
-138.0828721442987
 10
115.1747097151299
 20
-138.1760619771747
 10
115.1654079573197
 20
-138.1950100023436
 10
115.3321505788058
 20
-138.2542656446899
 10
115.3507540944262
 20
-138.2606390713376
 10
115.4137993418063
 20
-138.2881998352196
 10
115.4616861690512
 20
-138.2013834289913
 10
115.4823567419627
 20
-138.1273138760584
 10
115.4951035952581
 20
-138.0534165778998
 10
115.4951035952581
 20
-138.0534165778998
 10
115.2339653574762
 20
-138.0534165778998
 10
115.2339653574762
 20
-138.0534165778998
 97
        0
 97
        1
330
130
 92
        1
 93
        1
 72
     4
 94
        3
 73
     0
 74
     0
 95
       20
 96
       16
 40
0.0
 40
0.0
 40
0.0
 40
0.0
 40
1.0
 40
1.0
 40
1.0
 40
2.0
 40
2.0
 40
2.0
 40
3.0
 40
3.0
 40
3.0
 40
4.0
 40
4.0
 40
4.0
 40
5.0
 40
5.0
 40
5.0
 40
5.0
 10
115.1784993201637
 20
-137.2029947573659
 10
115.1784993201637
 20
-137.2029947573659
 10
115.1509385562817
 20
-137.2029947573659
 10
115.1509385562817
 20
-137.2029947573659
 10
115.1915906830076
 20
-137.3023857621154
 10
115.2191514468897
 20
-137.3826564869217
 10
115.2487792680628
 20
-137.5096082555531
 10
115.2487792680628
 20
-137.5096082555531
 10
115.4303358001355
 20
-137.5096082555531
 10
115.4303358001355
 20
-137.5096082555531
 10
115.458241073566
 20
-137.4165906774514
 10
115.4785671369289
 20
-137.3320135832885
 10
115.4988932002919
 20
-137.2029947573659
 10
115.4988932002919
 20
-137.2029947573659
 10
115.1784993201637
 20
-137.2029947573659
 10
115.1784993201637
 20
-137.2029947573659
 97
        0
 97
        1
330
131
 92
        1
 93
        1
 72
     4
 94
        3
 73
     0
 74
     0
 95
      242
 96
      238
 40
0.0
 40
0.0
 40
0.0
 40
0.0
 40
1.0
 40
1.0
 40
1.0
 40
2.0
 40
2.0
 40
2.0
 40
3.0
 40
3.0
 40
3.0
 40
4.0
 40
4.0
 40
4.0
 40
5.0
 40
5.0
 40
5.0
 40
6.0
 40
6.0
 40
6.0
 40
7.0
 40
7.0
 40
7.0
 40
8.0
 40
8.0
 40
8.0
 40
9.0
 40
9.0
 40
9.0
 40
10.0
 40
10.0
 40
10.0
 40
11.0
 40
11.0
 40
11.0
 40
12.0
 40
12.0
 40
12.0
 40
13.0
 40
13.0
 40
13.0
 40
14.0
 40
14.0
 40
14.0
 40
15.0
 40
15.0
 40
15.0
 40
16.0
 40
16.0
 40
16.0
 40
17.0
 40
17.0
 40
17.0
 40
18.0
 40
18.0
 40
18.0
 40
19.0
 40
19.0
 40
19.0
 40
20.0
 40
20.0
 40
20.0
 40
21.0
 40
21.0
 40
21.0
 40
22.0
 40
22.0
 40
22.0
 40
23.0
 40
23.0
 40
23.0
 40
24.0
 40
24.0
 40
24.0
 40
25.0
 40
25.0
 40
25.0
 40
26.0
 40
26.0
 40
26.0
 40
27.0
 40
27.0
 40
27.0
 40
28.0
 40
28.0
 40
28.0
 40
29.0
 40
29.0
 40
29.0
 40
30.0
 40
30.0
 40
30.0
 40
31.0
 40
31.0
 40
31.0
 40
32.0
 40
32.0
 40
32.0
 40
33.0
 40
33.0
 40
33.0
 40
34.0
 40
34.0
 40
34.0
 40
35.0
 40
35.0
 40
35.0
 40
36.0
 40
36.0
 40
36.0
 40
37.0
 40
37.0
 40
37.0
 40
38.0
 40
38.0
 40
38.0
 40
39.0
 40
39.0
 40
39.0
 40
40.0
 40
40.0
 40
40.0
 40
41.0
 40
41.0
 40
41.0
 40
42.0
 40
42.0
 40
42.0
 40
43.0
 40
43.0
 40
43.0
 40
44.0
 40
44.0
 40
44.0
 40
45.0
 40
45.0
 40
45.0
 40
46.0
 40
46.0
 40
46.0
 40
47.0
 40
47.0
 40
47.0
 40
48.0
 40
48.0
 40
48.0
 40
49.0
 40
49.0
 40
49.0
 40
50.0
 40
50.0
 40
50.0
 40
51.0
 40
51.0
 40
51.0
 40
52.0
 40
52.0
 40
52.0
 40
53.0
 40
53.0
 40
53.0
 40
54.0
 40
54.0
 40
54.0
 40
55.0
 40
55.0
 40
55.0
 40
56.0
 40
56.0
 40
56.0
 40
57.0
 40
57.0
 40
57.0
 40
58.0
 40
58.0
 40
58.0
 40
59.0
 40
59.0
 40
59.0
 40
60.0
 40
60.0
 40
60.0
 40
61.0
 40
61.0
 40
61.0
 40
62.0
 40
62.0
 40
62.0
 40
63.0
 40
63.0
 40
63.0
 40
64.0
 40
64.0
 40
64.0
 40
65.0
 40
65.0
 40
65.0
 40
66.0
 40
66.0
 40
66.0
 40
67.0
 40
67.0
 40
67.0
 40
68.0
 40
68.0
 40
68.0
 40
69.0
 40
69.0
 40
69.0
 40
70.0
 40
70.0
 40
70.0
 40
71.0
 40
71.0
 40
71.0
 40
72.0
 40
72.0
 40
72.0
 40
73.0
 40
73.0
 40
73.0
 40
74.0
 40
74.0
 40
74.0
 40
75.0
 40
75.0
 40
75.0
 40
76.0
 40
76.0
 40
76.0
 40
77.0
 40
77.0
 40
77.0
 40
78.0
 40
78.0
 40
78.0
 40
79.0
 40
79.0
 40
79.0
 40
79.0
 10
115.7283365596096
 20
-137.6682549026489
 10
115.7283365596096
 20
-137.6682549026489
 10
115.5064724103595
 20
-137.6682549026489
 10
115.5064724103595
 20
-137.6682549026489
 10
115.5064724103595
 20
-137.6682549026489
 10
115.2635931786494
 20
-137.6682549026489
 10
115.2635931786494
 20
-137.6682549026489
 10
115.2635931786494
 20
-137.6682549026489
 10
115.3748697628229
 20
-137.7106295771175
 10
115.3748697628229
 20
-137.7106295771175
 10
115.3841715206331
 20
-137.714935946474
 10
115.3951958261859
 20
-137.7211371183475
 10
115.3951958261859
 20
-137.7338839716429
 10
115.3951958261859
 20
-137.7550713088772
 10
115.3672905527554
 20
-137.7614447355249
 10
115.3490315466836
 20
-137.7655788501072
 10
115.3397297888734
 20
-137.7888332446326
 10
115.3135470631855
 20
-137.8544623136267
 10
115.2970106048563
 20
-137.8989040453864
 10
115.2970106048563
 20
-137.8989040453864
 10
115.5340331742415
 20
-137.8989040453864
 10
115.5340331742415
 20
-137.8989040453864
 10
115.6136148799507
 20
-137.8989040453864
 10
115.7858696542132
 20
-137.8945976760298
 10
115.9098930916822
 20
-137.8861571920909
 10
115.9098930916822
 20
-137.8861571920909
 10
115.9098930916822
 20
-138.0639241191298
 10
115.9098930916822
 20
-138.0639241191298
 10
115.8378905960405
 20
-138.0596177497733
 10
115.8192870804201
 20
-138.0596177497733
 10
115.6618462167442
 20
-138.055483635191
 10
115.6339409433137
 20
-138.2098239129301
 10
115.5953558738789
 20
-138.2902668925108
 10
115.5564262948956
 20
-138.3600300760871
 10
115.6618462167442
 20
-138.4192857184334
 10
115.7545192852975
 20
-138.4869818447185
 10
115.8451252965595
 20
-138.5694918815902
 10
115.8451252965595
 20
-138.5694918815902
 10
115.7414279224535
 20
-138.7365790126249
 10
115.7414279224535
 20
-138.7365790126249
 10
115.7211018590905
 20
-138.717630987456
 10
115.7100775535377
 20
-138.7091905035171
 10
115.6118923322081
 20
-138.62444115458
 10
115.569173148191
 20
-138.586372849468
 10
115.5174967159123
 20
-138.5505438564214
 10
115.4472167680132
 20
-138.5061021246617
 10
115.2618706309067
 20
-138.6923095356394
 10
115.0823811561252
 20
-138.7155639301649
 10
114.8284776188623
 20
-138.745191751338
 10
114.8284776188623
 20
-138.745191751338
 10
114.7378716076002
 20
-138.565357767008
 10
114.7378716076002
 20
-138.565357767008
 10
115.0155463037114
 20
-138.5610513976514
 10
115.1691975623535
 20
-138.5357299458348
 10
115.3025227576327
 20
-138.4256591450811
 10
115.1988253835267
 20
-138.3748439866736
 10
115.1213107351085
 20
-138.3474554775659
 10
115.0896158566443
 20
-138.3347086242705
 10
115.0730793983151
 20
-138.3622693881525
 10
115.0599880354711
 20
-138.3812174133213
 10
115.0358723670743
 20
-138.4151516038511
 10
115.0358723670743
 20
-138.4151516038511
 10
114.8636175928118
 20
-138.3326415669793
 10
114.8636175928118
 20
-138.3326415669793
 10
114.9359645980021
 20
-138.2521985873987
 10
114.989708087572
 20
-138.1569416972316
 10
115.0396619721081
 20
-138.055483635191
 10
114.872919350622
 20
-138.0596177497733
 10
114.8546603445502
 20
-138.0596177497733
 10
114.78231333936
 20
-138.0639241191298
 10
114.78231333936
 20
-138.0639241191298
 10
114.78231333936
 20
-137.8861571920909
 10
114.78231333936
 20
-137.8861571920909
 10
114.9046142290863
 20
-137.8925306187386
 10
115.0878933089016
 20
-137.8968369880952
 10
115.1099419200072
 20
-137.8968369880952
 10
115.1247558305938
 20
-137.8629027975655
 10
115.1729871673873
 20
-137.7423244555818
 10
115.1895236257165
 20
-137.6682549026489
 10
115.1729871673873
 20
-137.6682549026489
 10
115.017268851454
 20
-137.6746283292966
 10
114.8470811344826
 20
-137.687375182592
 10
114.8470811344826
 20
-137.687375182592
 10
114.8470811344826
 20
-137.8207003778712
 10
114.8470811344826
 20
-137.8207003778712
 10
114.8043619504655
 20
-137.8460218296878
 10
114.7526855181868
 20
-137.8777167081521
 10
114.6358967812368
 20
-137.9433457771461
 10
114.6358967812368
 20
-137.9433457771461
 10
114.6358967812368
 20
-138.0892455709464
 10
114.6358967812368
 20
-138.0892455709464
 10
114.6358967812368
 20
-138.0892455709464
 10
114.6358967812368
 20
-138.5569172830691
 10
114.6358967812368
 20
-138.5569172830691
 10
114.6358967812368
 20
-138.6836967969263
 10
114.6045464123211
 20
-138.7429524392726
 10
114.3564995373831
 20
-138.7345119553337
 10
114.3564995373831
 20
-138.7345119553337
 10
114.2655490165725
 20
-138.527289461896
 10
114.2655490165725
 20
-138.527289461896
 10
114.3213595634335
 20
-138.5398640604171
 10
114.3637342379021
 20
-138.5441704297737
 10
114.3988742118517
 20
-138.5441704297737
 10
114.4657090642655
 20
-138.5441704297737
 10
114.4750108220757
 20
-138.5209160352482
 10
114.4750108220757
 20
-138.4552869662542
 10
114.4750108220757
 20
-138.4552869662542
 10
114.4750108220757
 20
-138.0258558140178
 10
114.4750108220757
 20
-138.0258558140178
 10
114.3895724540415
 20
-138.065991176421
 10
114.3747585434549
 20
-138.0723646030687
 10
114.3341064167289
 20
-138.0914848830118
 10
114.3303168116952
 20
-138.1124999654719
 10
114.3268717162099
 20
-138.142127786645
 10
114.3099907483322
 20
-138.142127786645
 10
114.3027560478132
 20
-138.142127786645
 10
114.293454290003
 20
-138.1379936720627
 10
114.2879421372266
 20
-138.1147392775373
 10
114.2879421372266
 20
-138.1147392775373
 10
114.2414333481757
 20
-137.9221584399118
 10
114.2414333481757
 20
-137.9221584399118
 10
114.3692463906785
 20
-137.8756496508609
 10
114.4267794852822
 20
-137.8523952563355
 10
114.4750108220757
 20
-137.8312079191012
 10
114.4750108220757
 20
-137.8312079191012
 10
114.4750108220757
 20
-137.4186577347425
 10
114.4750108220757
 20
-137.4186577347425
 10
114.4750108220757
 20
-137.4186577347425
 10
114.4285020330248
 20
-137.4186577347425
 10
114.4285020330248
 20
-137.4186577347425
 10
114.4285020330248
 20
-137.4186577347425
 10
114.3599446328683
 20
-137.4186577347425
 10
114.3599446328683
 20
-137.4186577347425
 10
114.300688990522
 20
-137.4186577347425
 10
114.293454290003
 20
-137.4186577347425
 10
114.2621039210872
 20
-137.4250311613903
 10
114.2621039210872
 20
-137.4250311613903
 10
114.2621039210872
 20
-137.2303832664736
 10
114.2621039210872
 20
-137.2303832664736
 10
114.2858750799355
 20
-137.2367566931214
 10
114.293454290003
 20
-137.2367566931214
 10
114.3544324800919
 20
-137.2367566931214
 10
114.3544324800919
 20
-137.2367566931214
 10
114.4712212170419
 20
-137.2367566931214
 10
114.4712212170419
 20
-137.2367566931214
 10
114.4712212170419
 20
-137.166993509545
 10
114.4712212170419
 20
-137.0844834726733
 10
114.4694986692993
 20
-137.0801771033167
 10
114.4619194592317
 20
-136.9003431189867
 10
114.4619194592317
 20
-136.8813950938178
 10
114.4601969114891
 20
-136.8348863047669
 10
114.4601969114891
 20
-136.8348863047669
 10
114.6489881440808
 20
-136.8433267887058
 10
114.6489881440808
 20
-136.8433267887058
 10
114.6582899018909
 20
-136.8433267887058
 10
114.6768934175113
 20
-136.845393845997
 10
114.6768934175113
 20
-136.8622748138747
 10
114.6768934175113
 20
-136.8813950938178
 10
114.6638020546674
 20
-136.8919026350478
 10
114.6414089340132
 20
-136.911022914991
 10
114.6414089340132
 20
-136.9616658186241
 10
114.6358967812368
 20
-137.1902479040705
 10
114.637963838528
 20
-137.2367566931214
 10
114.7506184608957
 20
-137.2367566931214
 10
114.761987275997
 20
-137.2367566931214
 10
114.8470811344826
 20
-137.2283162091825
 10
114.8470811344826
 20
-137.2283162091825
 10
114.8470811344826
 20
-137.4229641040991
 10
114.8470811344826
 20
-137.4229641040991
 10
114.8136637082757
 20
-137.4207247920337
 10
114.7544080659294
 20
-137.4165906774514
 10
114.6358967812368
 20
-137.4186577347425
 10
114.6358967812368
 20
-137.4186577347425
 10
114.6358967812368
 20
-137.7571383661683
 10
114.6358967812368
 20
-137.7571383661683
 10
114.6841281180303
 20
-137.7338839716429
 10
114.741661212634
 20
-137.7063232077609
 10
114.7840358871026
 20
-137.6830688132355
 10
114.7840358871026
 20
-137.6830688132355
 10
114.7840358871026
 20
-137.5054741409708
 10
114.7840358871026
 20
-137.5054741409708
 10
114.8842881657234
 20
-137.518048739492
 10
114.9876410302808
 20
-137.518048739492
 10
115.0896158566443
 20
-137.518048739492
 10
115.0692897932813
 20
-137.4229641040991
 10
115.0451741248845
 20
-137.3404540672274
 10
114.989708087572
 20
-137.2071288719482
 10
114.9507785085887
 20
-137.2091959292393
 10
114.8784315033984
 20
-137.2135022985959
 10
114.84535858674
 20
-137.2155693558871
 10
114.84535858674
 20
-137.2155693558871
 10
114.84535858674
 20
-137.035735371557
 10
114.84535858674
 20
-137.035735371557
 10
114.9545681136225
 20
-137.0441758554959
 10
115.1061523149734
 20
-137.0484822248525
 10
115.1784993201637
 20
-137.0484822248525
 10
115.1784993201637
 20
-137.0484822248525
 10
115.2508463253539
 20
-137.0484822248525
 10
115.2508463253539
 20
-137.0484822248525
 10
115.2508463253539
 20
-136.8855292084001
 10
115.2508463253539
 20
-136.8750216671701
 10
115.2487792680628
 20
-136.8200723941804
 10
115.2487792680628
 20
-136.8200723941804
 10
115.445149710722
 20
-136.845393845997
 10
115.445149710722
 20
-136.845393845997
 10
115.4489393157558
 20
-136.845393845997
 10
115.4675428313762
 20
-136.8474609032881
 10
115.4675428313762
 20
-136.8643418711658
 10
115.4675428313762
 20
-136.8791557817524
 10
115.458241073566
 20
-136.8877685204655
 10
115.4341254051692
 20
-136.9025824310521
 10
115.4286132523928
 20
-136.9680392452718
 10
115.4265461951017
 20
-136.9892265825062
 10
115.4265461951017
 20
-137.0484822248525
 10
115.4265461951017
 20
-137.0484822248525
 10
115.5099175058447
 20
-137.0484822248525
 10
115.5099175058447
 20
-137.0484822248525
 10
115.582264511035
 20
-137.0484822248525
 10
115.7341932219345
 20
-137.0441758554959
 10
115.8434027488169
 20
-137.035735371557
 10
115.8434027488169
 20
-137.035735371557
 10
115.8434027488169
 20
-137.2155693558871
 10
115.8434027488169
 20
-137.2155693558871
 10
115.817220023129
 20
-137.2135022985959
 10
115.7138671585715
 20
-137.2091959292393
 10
115.6783826750734
 20
-137.2071288719482
 10
115.665635821778
 20
-137.2579440303556
 10
115.6360080006049
 20
-137.3700818884005
 10
115.5784749060012
 20
-137.5096082555531
 10
115.6156819372419
 20
-137.5096082555531
 10
115.8582166594035
 20
-137.4906602303843
 10
115.9119601489734
 20
-137.4884209183188
 10
115.9119601489734
 20
-137.4884209183188
 10
115.9119601489734
 20
-137.6725612720055
 10
115.9119601489734
 20
-137.6725612720055
 10
115.8857774232855
 20
-137.6725612720055
 10
115.8709635126989
 20
-137.6682549026489
 10
115.7283365596096
 20
-137.6682549026489
 97
        0
 97
        1
330
132
 75
     2
 76
     1
 98
        1
 10
0.0
 20
0.0
450
        0
451
        0
460
0.0
461
0.0
452
        0
462
0.0
453
        0
470

  0
SPLINE
  5
134
330
12C
100
AcDbEntity
  8
レイヤー 1
100
AcDbSpline
210
0.0
220
0.0
230
1.0
 70
    11
 71
     3
 72
    17
 73
    13
 74
     0
 42
0.0000000001
 43
0.0000000001
 40
0.0
 40
0.0
 40
0.0
 40
0.0
 40
1.0
 40
1.0
 40
1.0
 40
2.0
 40
2.0
 40
2.0
 40
3.0
 40
3.0
 40
3.0
 40
4.0
 40
4.0
 40
4.0
 40
4.0
 10
117.354766138196
 20
-138.4680338195497
 30
0.0
 10
117.354766138196
 20
-138.4680338195497
 30
0.0
 10
116.7363714985937
 20
-138.4680338195497
 30
0.0
 10
116.7363714985937
 20
-138.4680338195497
 30
0.0
 10
116.7363714985937
 20
-138.4680338195497
 30
0.0
 10
116.7363714985937
 20
-138.5822387348857
 30
0.0
 10
116.7363714985937
 20
-138.5822387348857
 30
0.0
 10
116.7363714985937
 20
-138.5822387348857
 30
0.0
 10
117.354766138196
 20
-138.5822387348857
 30
0.0
 10
117.354766138196
 20
-138.5822387348857
 30
0.0
 10
117.354766138196
 20
-138.5822387348857
 30
0.0
 10
117.354766138196
 20
-138.4680338195497
 30
0.0
 10
117.354766138196
 20
-138.4680338195497
 30
0.0
  0
SPLINE
  5
135
330
12C
100
AcDbEntity
  8
レイヤー 1
100
AcDbSpline
210
0.0
220
0.0
230
1.0
 70
    11
 71
     3
 72
    17
 73
    13
 74
     0
 42
0.0000000001
 43
0.0000000001
 40
0.0
 40
0.0
 40
0.0
 40
0.0
 40
1.0
 40
1.0
 40
1.0
 40
2.0
 40
2.0
 40
2.0
 40
3.0
 40
3.0
 40
3.0
 40
4.0
 40
4.0
 40
4.0
 40
4.0
 10
117.354766138196
 20
-138.2246378235167
 30
0.0
 10
117.354766138196
 20
-138.2246378235167
 30
0.0
 10
116.7363714985937
 20
-138.2246378235167
 30
0.0
 10
116.7363714985937
 20
-138.2246378235167
 30
0.0
 10
116.7363714985937
 20
-138.2246378235167
 30
0.0
 10
116.7363714985937
 20
-138.339014993627
 30
0.0
 10
116.7363714985937
 20
-138.339014993627
 30
0.0
 10
116.7363714985937
 20
-138.339014993627
 30
0.0
 10
117.354766138196
 20
-138.339014993627
 30
0.0
 10
117.354766138196
 20
-138.339014993627
 30
0.0
 10
117.354766138196
 20
-138.339014993627
 30
0.0
 10
117.354766138196
 20
-138.2246378235167
 30
0.0
 10
117.354766138196
 20
-138.2246378235167
 30
0.0
  0
SPLINE
  5
136
330
12C
100
AcDbEntity
  8
レイヤー 1
100
AcDbSpline
210
0.0
220
0.0
230
1.0
 70
    11
 71
     3
 72
    17
 73
    13
 74
     0
 42
0.0000000001
 43
0.0000000001
 40
0.0
 40
0.0
 40
0.0
 40
0.0
 40
1.0
 40
1.0
 40
1.0
 40
2.0
 40
2.0
 40
2.0
 40
3.0
 40
3.0
 40
3.0
 40
4.0
 40
4.0
 40
4.0
 40
4.0
 10
117.354766138196
 20
-137.9919216234881
 30
0.0
 10
117.354766138196
 20
-137.9919216234881
 30
0.0
 10
116.7363714985937
 20
-137.9919216234881
 30
0.0
 10
116.7363714985937
 20
-137.9919216234881
 30
0.0
 10
116.7363714985937
 20
-137.9919216234881
 30
0.0
 10
116.7363714985937
 20
-138.0999253669507
 30
0.0
 10
116.7363714985937
 20
-138.0999253669507
 30
0.0
 10
116.7363714985937
 20
-138.0999253669507
 30
0.0
 10
117.354766138196
 20
-138.0999253669507
 30
0.0
 10
117.354766138196
 20
-138.0999253669507
 30
0.0
 10
117.354766138196
 20
-138.0999253669507
 30
0.0
 10
117.354766138196
 20
-137.9919216234881
 30
0.0
 10
117.354766138196
 20
-137.9919216234881
 30
0.0
  0
SPLINE
  5
137
330
12C
100
AcDbEntity
  8
レイヤー 1
100
AcDbSpline
210
0.0
220
0.0
230
1.0
 70
     9
 71
     3
 72
   203
 73
   199
 74
     0
 42
0.0000000001
 43
0.0000000001
 40
0.0
 40
0.0
 40
0.0
 40
0.0
 40
1.0
 40
1.0
 40
1.0
 40
2.0
 40
2.0
 40
2.0
 40
3.0
 40
3.0
 40
3.0
 40
4.0
 40
4.0
 40
4.0
 40
5.0
 40
5.0
 40
5.0
 40
6.0
 40
6.0
 40
6.0
 40
7.0
 40
7.0
 40
7.0
 40
8.0
 40
8.0
 40
8.0
 40
9.0
 40
9.0
 40
9.0
 40
10.0
 40
10.0
 40
10.0
 40
11.0
 40
11.0
 40
11.0
 40
12.0
 40
12.0
 40
12.0
 40
13.0
 40
13.0
 40
13.0
 40
14.0
 40
14.0
 40
14.0
 40
15.0
 40
15.0
 40
15.0
 40
16.0
 40
16.0
 40
16.0
 40
17.0
 40
17.0
 40
17.0
 40
18.0
 40
18.0
 40
18.0
 40
19.0
 40
19.0
 40
19.0
 40
20.0
 40
20.0
 40
20.0
 40
21.0
 40
21.0
 40
21.0
 40
22.0
 40
22.0
 40
22.0
 40
23.0
 40
23.0
 40
23.0
 40
24.0
 40
24.0
 40
24.0
 40
25.0
 40
25.0
 40
25.0
 40
26.0
 40
26.0
 40
26.0
 40
27.0
 40
27.0
 40
27.0
 40
28.0
 40
28.0
 40
28.0
 40
29.0
 40
29.0
 40
29.0
 40
30.0
 40
30.0
 40
30.0
 40
31.0
 40
31.0
 40
31.0
 40
32.0
 40
32.0
 40
32.0
 40
33.0
 40
33.0
 40
33.0
 40
34.0
 40
34.0
 40
34.0
 40
35.0
 40
35.0
 40
35.0
 40
36.0
 40
36.0
 40
36.0
 40
37.0
 40
37.0
 40
37.0
 40
38.0
 40
38.0
 40
38.0
 40
39.0
 40
39.0
 40
39.0
 40
40.0
 40
40.0
 40
40.0
 40
41.0
 40
41.0
 40
41.0
 40
42.0
 40
42.0
 40
42.0
 40
43.0
 40
43.0
 40
43.0
 40
44.0
 40
44.0
 40
44.0
 40
45.0
 40
45.0
 40
45.0
 40
46.0
 40
46.0
 40
46.0
 40
47.0
 40
47.0
 40
47.0
 40
48.0
 40
48.0
 40
48.0
 40
49.0
 40
49.0
 40
49.0
 40
50.0
 40
50.0
 40
50.0
 40
51.0
 40
51.0
 40
51.0
 40
52.0
 40
52.0
 40
52.0
 40
53.0
 40
53.0
 40
53.0
 40
54.0
 40
54.0
 40
54.0
 40
55.0
 40
55.0
 40
55.0
 40
56.0
 40
56.0
 40
56.0
 40
57.0
 40
57.0
 40
57.0
 40
58.0
 40
58.0
 40
58.0
 40
59.0
 40
59.0
 40
59.0
 40
60.0
 40
60.0
 40
60.0
 40
61.0
 40
61.0
 40
61.0
 40
62.0
 40
62.0
 40
62.0
 40
63.0
 40
63.0
 40
63.0
 40
64.0
 40
64.0
 40
64.0
 40
65.0
 40
65.0
 40
65.0
 40
66.0
 40
66.0
 40
66.0
 40
66.0
 10
117.210416637364
 20
-137.7359510289341
 30
0.0
 10
117.210416637364
 20
-137.7359510289341
 30
0.0
 10
116.7215575880071
 20
-137.7359510289341
 30
0.0
 10
116.7215575880071
 20
-137.7359510289341
 30
0.0
 10
116.7122558301969
 20
-137.7803927606938
 30
0.0
 10
116.7050211296779
 20
-137.8120876391581
 30
0.0
 10
116.6936523145766
 20
-137.8503281990443
 30
0.0
 10
116.7160454352307
 20
-137.8503281990443
 30
0.0
 10
116.7291367980746
 20
-137.8523952563355
 30
0.0
 10
116.734648950851
 20
-137.8523952563355
 30
0.0
 10
116.734648950851
 20
-137.8523952563355
 30
0.0
 10
116.899324515046
 20
-137.8523952563355
 30
0.0
 10
116.899324515046
 20
-137.8523952563355
 30
0.0
 10
116.899324515046
 20
-137.8523952563355
 30
0.0
 10
117.2269530956932
 20
-137.8523952563355
 30
0.0
 10
117.2269530956932
 20
-137.8523952563355
 30
0.0
 10
117.2717393370015
 20
-137.8523952563355
 30
0.0
 10
117.5197862119395
 20
-137.8396484030401
 30
0.0
 10
117.5473469758215
 20
-137.8396484030401
 30
0.0
 10
117.5456244280788
 20
-137.8672091669221
 30
0.0
 10
117.5439018803362
 20
-137.8861571920909
 30
0.0
 10
117.5439018803362
 20
-137.9157850132641
 30
0.0
 10
117.5418348230451
 20
-137.9474798917284
 30
0.0
 10
117.5418348230451
 20
-138.0828721442987
 30
0.0
 10
117.5418348230451
 20
-138.1104329081807
 30
0.0
 10
117.5418348230451
 20
-138.1104329081807
 30
0.0
 10
117.5418348230451
 20
-138.3558959615048
 30
0.0
 10
117.5418348230451
 20
-138.3558959615048
 30
0.0
 10
117.5418348230451
 20
-138.4003376932645
 30
0.0
 10
117.5456244280788
 20
-138.5970526454723
 30
0.0
 10
117.5494140331126
 20
-138.7493258659203
 30
0.0
 10
117.5494140331126
 20
-138.7493258659203
 30
0.0
 10
117.3513210427107
 20
-138.7493258659203
 30
0.0
 10
117.3513210427107
 20
-138.7493258659203
 30
0.0
 10
117.3513210427107
 20
-138.7493258659203
 30
0.0
 10
117.3530435904534
 20
-138.7155639301649
 30
0.0
 10
117.3530435904534
 20
-138.7155639301649
 30
0.0
 10
117.3530435904534
 20
-138.7155639301649
 30
0.0
 10
116.7384385558848
 20
-138.7155639301649
 30
0.0
 10
116.7384385558848
 20
-138.7155639301649
 30
0.0
 10
116.7384385558848
 20
-138.7155639301649
 30
0.0
 10
116.7401611036275
 20
-138.7493258659203
 30
0.0
 10
116.7401611036275
 20
-138.7493258659203
 30
0.0
 10
116.7401611036275
 20
-138.7493258659203
 30
0.0
 10
116.5493028137446
 20
-138.7493258659203
 30
0.0
 10
116.5493028137446
 20
-138.7493258659203
 30
0.0
 10
116.5530924187784
 20
-138.6943765929306
 30
0.0
 10
116.5530924187784
 20
-138.6816297396351
 30
0.0
 10
116.5586045715548
 20
-138.5674248242991
 30
0.0
 10
116.5606716288459
 20
-138.5398640604171
 30
0.0
 10
116.5623941765886
 20
-138.4067111199122
 30
0.0
 10
116.5623941765886
 20
-138.387590839969
 30
0.0
 10
116.5623941765886
 20
-138.387590839969
 30
0.0
 10
116.5623941765886
 20
-138.1845024611136
 30
0.0
 10
116.5623941765886
 20
-138.1845024611136
 30
0.0
 10
116.4400932868622
 20
-138.4340996290199
 30
0.0
 10
116.2919541809964
 20
-138.565357767008
 30
0.0
 10
116.1992811124432
 20
-138.6308145812277
 30
0.0
 10
116.1992811124432
 20
-138.6308145812277
 30
0.0
 10
116.0476969110922
 20
-138.4912882140751
 30
0.0
 10
116.0476969110922
 20
-138.4912882140751
 30
0.0
 10
116.1252115595104
 20
-138.4404730556676
 30
0.0
 10
116.2513020542705
 20
-138.3536566494393
 30
0.0
 10
116.3715358867057
 20
-138.159181009297
 30
0.0
 10
116.451117592415
 20
-138.0322292406656
 30
0.0
 10
116.5086506870186
 20
-137.8883965041564
 30
0.0
 10
116.5382785081918
 20
-137.7359510289341
 30
0.0
 10
116.3381184604988
 20
-137.7381903409995
 30
0.0
 10
116.1810221063714
 20
-137.7445637676472
 30
0.0
 10
116.0976507956283
 20
-137.7466308249383
 30
0.0
 10
116.0976507956283
 20
-137.7466308249383
 30
0.0
 10
116.0976507956283
 20
-137.5688638978994
 30
0.0
 10
116.0976507956283
 20
-137.5688638978994
 30
0.0
 10
116.2699055698908
 20
-137.5752373245471
 30
0.0
 10
116.5179524448288
 20
-137.5795436939037
 30
0.0
 10
116.6495550923654
 20
-137.5795436939037
 30
0.0
 10
116.6495550923654
 20
-137.5795436939037
 30
0.0
 10
116.8362792676659
 20
-137.5795436939037
 30
0.0
 10
116.8362792676659
 20
-137.5795436939037
 30
0.0
 10
116.8362792676659
 20
-137.5795436939037
 30
0.0
 10
116.8362792676659
 20
-137.4715399504411
 30
0.0
 10
116.8362792676659
 20
-137.4715399504411
 30
0.0
 10
116.8362792676659
 20
-137.4715399504411
 30
0.0
 10
116.7088107347117
 20
-137.4715399504411
 30
0.0
 10
116.7088107347117
 20
-137.4715399504411
 30
0.0
 10
116.5606716288459
 20
-137.4715399504411
 30
0.0
 10
116.4125325229802
 20
-137.4758463197977
 30
0.0
 10
116.2661159648571
 20
-137.4822197464454
 30
0.0
 10
116.2661159648571
 20
-137.4822197464454
 30
0.0
 10
116.2661159648571
 20
-137.3108262460542
 30
0.0
 10
116.2661159648571
 20
-137.3108262460542
 30
0.0
 10
116.4011637078788
 20
-137.3213337872842
 30
0.0
 10
116.5641167243312
 20
-137.3213337872842
 30
0.0
 10
116.7088107347117
 20
-137.3213337872842
 30
0.0
 10
116.7088107347117
 20
-137.3213337872842
 30
0.0
 10
116.8362792676659
 20
-137.3213337872842
 30
0.0
 10
116.8362792676659
 20
-137.3213337872842
 30
0.0
 10
116.8362792676659
 20
-137.3213337872842
 30
0.0
 10
116.8362792676659
 20
-137.2029947573659
 30
0.0
 10
116.8362792676659
 20
-137.2029947573659
 30
0.0
 10
116.8362792676659
 20
-137.2029947573659
 30
0.0
 10
116.7215575880071
 20
-137.2029947573659
 30
0.0
 10
116.7215575880071
 20
-137.2029947573659
 30
0.0
 10
116.6809054612812
 20
-137.2029947573659
 30
0.0
 10
116.5031385342423
 20
-137.2114352413048
 30
0.0
 10
116.4659315030016
 20
-137.2114352413048
 30
0.0
 10
116.2881645759627
 20
-137.2155693558871
 30
0.0
 10
116.2216742330973
 20
-137.2176364131782
 30
0.0
 10
116.1531168329409
 20
-137.2198757252436
 30
0.0
 10
116.1531168329409
 20
-137.2198757252436
 30
0.0
 10
116.1531168329409
 20
-137.035735371557
 30
0.0
 10
116.1531168329409
 20
-137.035735371557
 30
0.0
 10
116.2530246020131
 20
-137.0441758554959
 30
0.0
 10
116.2919541809964
 20
-137.0441758554959
 30
0.0
 10
116.6271619717113
 20
-137.052788594209
 30
0.0
 10
116.5716959343987
 20
-136.9575317040419
 30
0.0
 10
116.547580266002
 20
-136.9299709401599
 30
0.0
 10
116.5158853875377
 20
-136.893969692339
 30
0.0
 10
116.5158853875377
 20
-136.893969692339
 30
0.0
 10
116.6698811557283
 20
-136.8114596554673
 30
0.0
 10
116.6698811557283
 20
-136.8114596554673
 30
0.0
 10
116.7050211296779
 20
-136.8474609032881
 30
0.0
 10
116.7439507086612
 20
-136.8898355777567
 30
0.0
 10
116.8087185037839
 20
-136.9997341237362
 30
0.0
 10
116.8087185037839
 20
-136.9997341237362
 30
0.0
 10
116.7088107347117
 20
-137.0548556515002
 30
0.0
 10
116.7088107347117
 20
-137.0548556515002
 30
0.0
 10
116.7088107347117
 20
-137.0548556515002
 30
0.0
 10
116.7177679829733
 20
-137.0548556515002
 30
0.0
 10
116.7177679829733
 20
-137.0548556515002
 30
0.0
 10
116.7177679829733
 20
-137.0548556515002
 30
0.0
 10
117.1752766634145
 20
-137.0548556515002
 30
0.0
 10
117.1752766634145
 20
-137.0548556515002
 30
0.0
 10
117.1752766634145
 20
-137.0548556515002
 30
0.0
 10
117.0919053526715
 20
-137.0104139197404
 30
0.0
 10
117.0919053526715
 20
-137.0104139197404
 30
0.0
 10
117.1160210210682
 20
-136.9723456146284
 30
0.0
 10
117.1659749056043
 20
-136.8919026350478
 30
0.0
 10
117.1790662684483
 20
-136.817833082115
 30
0.0
 10
117.1790662684483
 20
-136.817833082115
 30
0.0
 10
117.3661349532973
 20
-136.8813950938178
 30
0.0
 10
117.3661349532973
 20
-136.8813950938178
 30
0.0
 10
117.3733696538164
 20
-136.883462151109
 30
0.0
 10
117.3919731694367
 20
-136.893969692339
 30
0.0
 10
117.3919731694367
 20
-136.9151570295733
 30
0.0
 10
117.3919731694367
 20
-136.9532253346853
 30
0.0
 10
117.334440074833
 20
-136.9532253346853
 30
0.0
 10
117.3179036165038
 20
-136.9532253346853
 30
0.0
 10
117.3086018586937
 20
-136.9723456146284
 30
0.0
 10
117.2882757953307
 20
-137.0124809770316
 30
0.0
 10
117.2624375791913
 20
-137.052788594209
 30
0.0
 10
117.6121147709442
 20
-137.0464151675613
 30
0.0
 10
117.6382974966321
 20
-137.0441758554959
 30
0.0
 10
117.7047878394974
 20
-137.0379746836224
 30
0.0
 10
117.7047878394974
 20
-137.0379746836224
 30
0.0
 10
117.7047878394974
 20
-137.2198757252436
 30
0.0
 10
117.7047878394974
 20
-137.2198757252436
 30
0.0
 10
117.6882513811682
 20
-137.2198757252436
 30
0.0
 10
117.6658582605141
 20
-137.2176364131782
 30
0.0
 10
117.4732774228886
 20
-137.2091959292393
 30
0.0
 10
117.4288356911289
 20
-137.2071288719482
 30
0.0
 10
117.2362548535034
 20
-137.2029947573659
 30
0.0
 10
117.1973252745201
 20
-137.2029947573659
 30
0.0
 10
117.1973252745201
 20
-137.2029947573659
 30
0.0
 10
117.0085340419284
 20
-137.2029947573659
 30
0.0
 10
117.0085340419284
 20
-137.2029947573659
 30
0.0
 10
117.0085340419284
 20
-137.2029947573659
 30
0.0
 10
117.0085340419284
 20
-137.3213337872842
 30
0.0
 10
117.0085340419284
 20
-137.3213337872842
 30
0.0
 10
117.0085340419284
 20
-137.3213337872842
 30
0.0
 10
117.1604627528279
 20
-137.3213337872842
 30
0.0
 10
117.1604627528279
 20
-137.3213337872842
 30
0.0
 10
117.3030897059173
 20
-137.3213337872842
 30
0.0
 10
117.4698323274034
 20
-137.3213337872842
 30
0.0
 10
117.6066026181678
 20
-137.3108262460542
 30
0.0
 10
117.6066026181678
 20
-137.3108262460542
 30
0.0
 10
117.6066026181678
 20
-137.4822197464454
 30
0.0
 10
117.6066026181678
 20
-137.4822197464454
 30
0.0
 10
117.4233235383525
 20
-137.4737792625065
 30
0.0
 10
117.25106876409
 20
-137.4715399504411
 30
0.0
 10
117.1604627528279
 20
-137.4715399504411
 30
0.0
 10
117.1604627528279
 20
-137.4715399504411
 30
0.0
 10
117.0085340419284
 20
-137.4715399504411
 30
0.0
 10
117.0085340419284
 20
-137.4715399504411
 30
0.0
 10
117.0085340419284
 20
-137.4715399504411
 30
0.0
 10
117.0085340419284
 20
-137.5795436939037
 30
0.0
 10
117.0085340419284
 20
-137.5795436939037
 30
0.0
 10
117.0085340419284
 20
-137.5795436939037
 30
0.0
 10
117.210416637364
 20
-137.5795436939037
 30
0.0
 10
117.210416637364
 20
-137.5795436939037
 30
0.0
 10
117.327205374314
 20
-137.5795436939037
 30
0.0
 10
117.5790418542858
 20
-137.5752373245471
 30
0.0
 10
117.7623209341011
 20
-137.5688638978994
 30
0.0
 10
117.7623209341011
 20
-137.5688638978994
 30
0.0
 10
117.7623209341011
 20
-137.7466308249383
 30
0.0
 10
117.7623209341011
 20
-137.7466308249383
 30
0.0
 10
117.5938557648724
 20
-137.7402573982906
 30
0.0
 10
117.3196261642465
 20
-137.7359510289341
 30
0.0
 10
117.210416637364
 20
-137.7359510289341
 30
0.0
  0
HATCH
  5
138
330
12C
100
AcDbEntity
  8
レイヤー 1
 62
   250
420
  2299925
440
 33554687
100
AcDbHatch
 10
0.0
 20
0.0
 30
0.0
210
0.0
220
0.0
230
1.0
  2
SOLID
 70
     1
 71
     1
 91
        4
 92
        1
 93
        1
 72
     4
 94
        3
 73
     0
 74
     0
 95
       17
 96
       13
 40
0.0
 40
0.0
 40
0.0
 40
0.0
 40
1.0
 40
1.0
 40
1.0
 40
2.0
 40
2.0
 40
2.0
 40
3.0
 40
3.0
 40
3.0
 40
4.0
 40
4.0
 40
4.0
 40
4.0
 10
117.354766138196
 20
-138.4680338195497
 10
117.354766138196
 20
-138.4680338195497
 10
116.7363714985937
 20
-138.4680338195497
 10
116.7363714985937
 20
-138.4680338195497
 10
116.7363714985937
 20
-138.4680338195497
 10
116.7363714985937
 20
-138.5822387348857
 10
116.7363714985937
 20
-138.5822387348857
 10
116.7363714985937
 20
-138.5822387348857
 10
117.354766138196
 20
-138.5822387348857
 10
117.354766138196
 20
-138.5822387348857
 10
117.354766138196
 20
-138.5822387348857
 10
117.354766138196
 20
-138.4680338195497
 10
117.354766138196
 20
-138.4680338195497
 97
        0
 97
        1
330
134
 92
        1
 93
        1
 72
     4
 94
        3
 73
     0
 74
     0
 95
       17
 96
       13
 40
0.0
 40
0.0
 40
0.0
 40
0.0
 40
1.0
 40
1.0
 40
1.0
 40
2.0
 40
2.0
 40
2.0
 40
3.0
 40
3.0
 40
3.0
 40
4.0
 40
4.0
 40
4.0
 40
4.0
 10
117.354766138196
 20
-138.2246378235167
 10
117.354766138196
 20
-138.2246378235167
 10
116.7363714985937
 20
-138.2246378235167
 10
116.7363714985937
 20
-138.2246378235167
 10
116.7363714985937
 20
-138.2246378235167
 10
116.7363714985937
 20
-138.339014993627
 10
116.7363714985937
 20
-138.339014993627
 10
116.7363714985937
 20
-138.339014993627
 10
117.354766138196
 20
-138.339014993627
 10
117.354766138196
 20
-138.339014993627
 10
117.354766138196
 20
-138.339014993627
 10
117.354766138196
 20
-138.2246378235167
 10
117.354766138196
 20
-138.2246378235167
 97
        0
 97
        1
330
135
 92
        1
 93
        1
 72
     4
 94
        3
 73
     0
 74
     0
 95
       17
 96
       13
 40
0.0
 40
0.0
 40
0.0
 40
0.0
 40
1.0
 40
1.0
 40
1.0
 40
2.0
 40
2.0
 40
2.0
 40
3.0
 40
3.0
 40
3.0
 40
4.0
 40
4.0
 40
4.0
 40
4.0
 10
117.354766138196
 20
-137.9919216234881
 10
117.354766138196
 20
-137.9919216234881
 10
116.7363714985937
 20
-137.9919216234881
 10
116.7363714985937
 20
-137.9919216234881
 10
116.7363714985937
 20
-137.9919216234881
 10
116.7363714985937
 20
-138.0999253669507
 10
116.7363714985937
 20
-138.0999253669507
 10
116.7363714985937
 20
-138.0999253669507
 10
117.354766138196
 20
-138.0999253669507
 10
117.354766138196
 20
-138.0999253669507
 10
117.354766138196
 20
-138.0999253669507
 10
117.354766138196
 20
-137.9919216234881
 10
117.354766138196
 20
-137.9919216234881
 97
        0
 97
        1
330
136
 92
        1
 93
        1
 72
     4
 94
        3
 73
     0
 74
     0
 95
      203
 96
      199
 40
0.0
 40
0.0
 40
0.0
 40
0.0
 40
1.0
 40
1.0
 40
1.0
 40
2.0
 40
2.0
 40
2.0
 40
3.0
 40
3.0
 40
3.0
 40
4.0
 40
4.0
 40
4.0
 40
5.0
 40
5.0
 40
5.0
 40
6.0
 40
6.0
 40
6.0
 40
7.0
 40
7.0
 40
7.0
 40
8.0
 40
8.0
 40
8.0
 40
9.0
 40
9.0
 40
9.0
 40
10.0
 40
10.0
 40
10.0
 40
11.0
 40
11.0
 40
11.0
 40
12.0
 40
12.0
 40
12.0
 40
13.0
 40
13.0
 40
13.0
 40
14.0
 40
14.0
 40
14.0
 40
15.0
 40
15.0
 40
15.0
 40
16.0
 40
16.0
 40
16.0
 40
17.0
 40
17.0
 40
17.0
 40
18.0
 40
18.0
 40
18.0
 40
19.0
 40
19.0
 40
19.0
 40
20.0
 40
20.0
 40
20.0
 40
21.0
 40
21.0
 40
21.0
 40
22.0
 40
22.0
 40
22.0
 40
23.0
 40
23.0
 40
23.0
 40
24.0
 40
24.0
 40
24.0
 40
25.0
 40
25.0
 40
25.0
 40
26.0
 40
26.0
 40
26.0
 40
27.0
 40
27.0
 40
27.0
 40
28.0
 40
28.0
 40
28.0
 40
29.0
 40
29.0
 40
29.0
 40
30.0
 40
30.0
 40
30.0
 40
31.0
 40
31.0
 40
31.0
 40
32.0
 40
32.0
 40
32.0
 40
33.0
 40
33.0
 40
33.0
 40
34.0
 40
34.0
 40
34.0
 40
35.0
 40
35.0
 40
35.0
 40
36.0
 40
36.0
 40
36.0
 40
37.0
 40
37.0
 40
37.0
 40
38.0
 40
38.0
 40
38.0
 40
39.0
 40
39.0
 40
39.0
 40
40.0
 40
40.0
 40
40.0
 40
41.0
 40
41.0
 40
41.0
 40
42.0
 40
42.0
 40
42.0
 40
43.0
 40
43.0
 40
43.0
 40
44.0
 40
44.0
 40
44.0
 40
45.0
 40
45.0
 40
45.0
 40
46.0
 40
46.0
 40
46.0
 40
47.0
 40
47.0
 40
47.0
 40
48.0
 40
48.0
 40
48.0
 40
49.0
 40
49.0
 40
49.0
 40
50.0
 40
50.0
 40
50.0
 40
51.0
 40
51.0
 40
51.0
 40
52.0
 40
52.0
 40
52.0
 40
53.0
 40
53.0
 40
53.0
 40
54.0
 40
54.0
 40
54.0
 40
55.0
 40
55.0
 40
55.0
 40
56.0
 40
56.0
 40
56.0
 40
57.0
 40
57.0
 40
57.0
 40
58.0
 40
58.0
 40
58.0
 40
59.0
 40
59.0
 40
59.0
 40
60.0
 40
60.0
 40
60.0
 40
61.0
 40
61.0
 40
61.0
 40
62.0
 40
62.0
 40
62.0
 40
63.0
 40
63.0
 40
63.0
 40
64.0
 40
64.0
 40
64.0
 40
65.0
 40
65.0
 40
65.0
 40
66.0
 40
66.0
 40
66.0
 40
66.0
 10
117.210416637364
 20
-137.7359510289341
 10
117.210416637364
 20
-137.7359510289341
 10
116.7215575880071
 20
-137.7359510289341
 10
116.7215575880071
 20
-137.7359510289341
 10
116.7122558301969
 20
-137.7803927606938
 10
116.7050211296779
 20
-137.8120876391581
 10
116.6936523145766
 20
-137.8503281990443
 10
116.7160454352307
 20
-137.8503281990443
 10
116.7291367980746
 20
-137.8523952563355
 10
116.734648950851
 20
-137.8523952563355
 10
116.734648950851
 20
-137.8523952563355
 10
116.899324515046
 20
-137.8523952563355
 10
116.899324515046
 20
-137.8523952563355
 10
116.899324515046
 20
-137.8523952563355
 10
117.2269530956932
 20
-137.8523952563355
 10
117.2269530956932
 20
-137.8523952563355
 10
117.2717393370015
 20
-137.8523952563355
 10
117.5197862119395
 20
-137.8396484030401
 10
117.5473469758215
 20
-137.8396484030401
 10
117.5456244280788
 20
-137.8672091669221
 10
117.5439018803362
 20
-137.8861571920909
 10
117.5439018803362
 20
-137.9157850132641
 10
117.5418348230451
 20
-137.9474798917284
 10
117.5418348230451
 20
-138.0828721442987
 10
117.5418348230451
 20
-138.1104329081807
 10
117.5418348230451
 20
-138.1104329081807
 10
117.5418348230451
 20
-138.3558959615048
 10
117.5418348230451
 20
-138.3558959615048
 10
117.5418348230451
 20
-138.4003376932645
 10
117.5456244280788
 20
-138.5970526454723
 10
117.5494140331126
 20
-138.7493258659203
 10
117.5494140331126
 20
-138.7493258659203
 10
117.3513210427107
 20
-138.7493258659203
 10
117.3513210427107
 20
-138.7493258659203
 10
117.3513210427107
 20
-138.7493258659203
 10
117.3530435904534
 20
-138.7155639301649
 10
117.3530435904534
 20
-138.7155639301649
 10
117.3530435904534
 20
-138.7155639301649
 10
116.7384385558848
 20
-138.7155639301649
 10
116.7384385558848
 20
-138.7155639301649
 10
116.7384385558848
 20
-138.7155639301649
 10
116.7401611036275
 20
-138.7493258659203
 10
116.7401611036275
 20
-138.7493258659203
 10
116.7401611036275
 20
-138.7493258659203
 10
116.5493028137446
 20
-138.7493258659203
 10
116.5493028137446
 20
-138.7493258659203
 10
116.5530924187784
 20
-138.6943765929306
 10
116.5530924187784
 20
-138.6816297396351
 10
116.5586045715548
 20
-138.5674248242991
 10
116.5606716288459
 20
-138.5398640604171
 10
116.5623941765886
 20
-138.4067111199122
 10
116.5623941765886
 20
-138.387590839969
 10
116.5623941765886
 20
-138.387590839969
 10
116.5623941765886
 20
-138.1845024611136
 10
116.5623941765886
 20
-138.1845024611136
 10
116.4400932868622
 20
-138.4340996290199
 10
116.2919541809964
 20
-138.565357767008
 10
116.1992811124432
 20
-138.6308145812277
 10
116.1992811124432
 20
-138.6308145812277
 10
116.0476969110922
 20
-138.4912882140751
 10
116.0476969110922
 20
-138.4912882140751
 10
116.1252115595104
 20
-138.4404730556676
 10
116.2513020542705
 20
-138.3536566494393
 10
116.3715358867057
 20
-138.159181009297
 10
116.451117592415
 20
-138.0322292406656
 10
116.5086506870186
 20
-137.8883965041564
 10
116.5382785081918
 20
-137.7359510289341
 10
116.3381184604988
 20
-137.7381903409995
 10
116.1810221063714
 20
-137.7445637676472
 10
116.0976507956283
 20
-137.7466308249383
 10
116.0976507956283
 20
-137.7466308249383
 10
116.0976507956283
 20
-137.5688638978994
 10
116.0976507956283
 20
-137.5688638978994
 10
116.2699055698908
 20
-137.5752373245471
 10
116.5179524448288
 20
-137.5795436939037
 10
116.6495550923654
 20
-137.5795436939037
 10
116.6495550923654
 20
-137.5795436939037
 10
116.8362792676659
 20
-137.5795436939037
 10
116.8362792676659
 20
-137.5795436939037
 10
116.8362792676659
 20
-137.5795436939037
 10
116.8362792676659
 20
-137.4715399504411
 10
116.8362792676659
 20
-137.4715399504411
 10
116.8362792676659
 20
-137.4715399504411
 10
116.7088107347117
 20
-137.4715399504411
 10
116.7088107347117
 20
-137.4715399504411
 10
116.5606716288459
 20
-137.4715399504411
 10
116.4125325229802
 20
-137.4758463197977
 10
116.2661159648571
 20
-137.4822197464454
 10
116.2661159648571
 20
-137.4822197464454
 10
116.2661159648571
 20
-137.3108262460542
 10
116.2661159648571
 20
-137.3108262460542
 10
116.4011637078788
 20
-137.3213337872842
 10
116.5641167243312
 20
-137.3213337872842
 10
116.7088107347117
 20
-137.3213337872842
 10
116.7088107347117
 20
-137.3213337872842
 10
116.8362792676659
 20
-137.3213337872842
 10
116.8362792676659
 20
-137.3213337872842
 10
116.8362792676659
 20
-137.3213337872842
 10
116.8362792676659
 20
-137.2029947573659
 10
116.8362792676659
 20
-137.2029947573659
 10
116.8362792676659
 20
-137.2029947573659
 10
116.7215575880071
 20
-137.2029947573659
 10
116.7215575880071
 20
-137.2029947573659
 10
116.6809054612812
 20
-137.2029947573659
 10
116.5031385342423
 20
-137.2114352413048
 10
116.4659315030016
 20
-137.2114352413048
 10
116.2881645759627
 20
-137.2155693558871
 10
116.2216742330973
 20
-137.2176364131782
 10
116.1531168329409
 20
-137.2198757252436
 10
116.1531168329409
 20
-137.2198757252436
 10
116.1531168329409
 20
-137.035735371557
 10
116.1531168329409
 20
-137.035735371557
 10
116.2530246020131
 20
-137.0441758554959
 10
116.2919541809964
 20
-137.0441758554959
 10
116.6271619717113
 20
-137.052788594209
 10
116.5716959343987
 20
-136.9575317040419
 10
116.547580266002
 20
-136.9299709401599
 10
116.5158853875377
 20
-136.893969692339
 10
116.5158853875377
 20
-136.893969692339
 10
116.6698811557283
 20
-136.8114596554673
 10
116.6698811557283
 20
-136.8114596554673
 10
116.7050211296779
 20
-136.8474609032881
 10
116.7439507086612
 20
-136.8898355777567
 10
116.8087185037839
 20
-136.9997341237362
 10
116.8087185037839
 20
-136.9997341237362
 10
116.7088107347117
 20
-137.0548556515002
 10
116.7088107347117
 20
-137.0548556515002
 10
116.7088107347117
 20
-137.0548556515002
 10
116.7177679829733
 20
-137.0548556515002
 10
116.7177679829733
 20
-137.0548556515002
 10
116.7177679829733
 20
-137.0548556515002
 10
117.1752766634145
 20
-137.0548556515002
 10
117.1752766634145
 20
-137.0548556515002
 10
117.1752766634145
 20
-137.0548556515002
 10
117.0919053526715
 20
-137.0104139197404
 10
117.0919053526715
 20
-137.0104139197404
 10
117.1160210210682
 20
-136.9723456146284
 10
117.1659749056043
 20
-136.8919026350478
 10
117.1790662684483
 20
-136.817833082115
 10
117.1790662684483
 20
-136.817833082115
 10
117.3661349532973
 20
-136.8813950938178
 10
117.3661349532973
 20
-136.8813950938178
 10
117.3733696538164
 20
-136.883462151109
 10
117.3919731694367
 20
-136.893969692339
 10
117.3919731694367
 20
-136.9151570295733
 10
117.3919731694367
 20
-136.9532253346853
 10
117.334440074833
 20
-136.9532253346853
 10
117.3179036165038
 20
-136.9532253346853
 10
117.3086018586937
 20
-136.9723456146284
 10
117.2882757953307
 20
-137.0124809770316
 10
117.2624375791913
 20
-137.052788594209
 10
117.6121147709442
 20
-137.0464151675613
 10
117.6382974966321
 20
-137.0441758554959
 10
117.7047878394974
 20
-137.0379746836224
 10
117.7047878394974
 20
-137.0379746836224
 10
117.7047878394974
 20
-137.2198757252436
 10
117.7047878394974
 20
-137.2198757252436
 10
117.6882513811682
 20
-137.2198757252436
 10
117.6658582605141
 20
-137.2176364131782
 10
117.4732774228886
 20
-137.2091959292393
 10
117.4288356911289
 20
-137.2071288719482
 10
117.2362548535034
 20
-137.2029947573659
 10
117.1973252745201
 20
-137.2029947573659
 10
117.1973252745201
 20
-137.2029947573659
 10
117.0085340419284
 20
-137.2029947573659
 10
117.0085340419284
 20
-137.2029947573659
 10
117.0085340419284
 20
-137.2029947573659
 10
117.0085340419284
 20
-137.3213337872842
 10
117.0085340419284
 20
-137.3213337872842
 10
117.0085340419284
 20
-137.3213337872842
 10
117.1604627528279
 20
-137.3213337872842
 10
117.1604627528279
 20
-137.3213337872842
 10
117.3030897059173
 20
-137.3213337872842
 10
117.4698323274034
 20
-137.3213337872842
 10
117.6066026181678
 20
-137.3108262460542
 10
117.6066026181678
 20
-137.3108262460542
 10
117.6066026181678
 20
-137.4822197464454
 10
117.6066026181678
 20
-137.4822197464454
 10
117.4233235383525
 20
-137.4737792625065
 10
117.25106876409
 20
-137.4715399504411
 10
117.1604627528279
 20
-137.4715399504411
 10
117.1604627528279
 20
-137.4715399504411
 10
117.0085340419284
 20
-137.4715399504411
 10
117.0085340419284
 20
-137.4715399504411
 10
117.0085340419284
 20
-137.4715399504411
 10
117.0085340419284
 20
-137.5795436939037
 10
117.0085340419284
 20
-137.5795436939037
 10
117.0085340419284
 20
-137.5795436939037
 10
117.210416637364
 20
-137.5795436939037
 10
117.210416637364
 20
-137.5795436939037
 10
117.327205374314
 20
-137.5795436939037
 10
117.5790418542858
 20
-137.5752373245471
 10
117.7623209341011
 20
-137.5688638978994
 10
117.7623209341011
 20
-137.5688638978994
 10
117.7623209341011
 20
-137.7466308249383
 10
117.7623209341011
 20
-137.7466308249383
 10
117.5938557648724
 20
-137.7402573982906
 10
117.3196261642465
 20
-137.7359510289341
 10
117.210416637364
 20
-137.7359510289341
 97
        0
 97
        1
330
137
 75
     2
 76
     1
 98
        1
 10
0.0
 20
0.0
450
        0
451
        0
460
0.0
461
0.0
452
        0
462
0.0
453
        0
470

  0
SPLINE
  5
139
330
12C
100
AcDbEntity
  8
レイヤー 1
100
AcDbSpline
210
0.0
220
0.0
230
1.0
 70
     9
 71
     3
 72
    29
 73
    25
 74
     0
 42
0.0000000001
 43
0.0000000001
 40
0.0
 40
0.0
 40
0.0
 40
0.0
 40
1.0
 40
1.0
 40
1.0
 40
2.0
 40
2.0
 40
2.0
 40
3.0
 40
3.0
 40
3.0
 40
4.0
 40
4.0
 40
4.0
 40
5.0
 40
5.0
 40
5.0
 40
6.0
 40
6.0
 40
6.0
 40
7.0
 40
7.0
 40
7.0
 40
8.0
 40
8.0
 40
8.0
 40
8.0
 10
118.8533826742797
 20
-137.1838744774228
 30
0.0
 10
118.8533826742797
 20
-137.1838744774228
 30
0.0
 10
118.5440130997043
 20
-137.1838744774228
 30
0.0
 10
118.5440130997043
 20
-137.1838744774228
 30
0.0
 10
118.4458278783746
 20
-137.1838744774228
 30
0.0
 10
118.3235269886483
 20
-137.1902479040705
 30
0.0
 10
118.2291313723524
 20
-137.2029947573659
 30
0.0
 10
118.2291313723524
 20
-137.2029947573659
 30
0.0
 10
118.2291313723524
 20
-136.9680392452718
 30
0.0
 10
118.2291313723524
 20
-136.9680392452718
 30
0.0
 10
118.3328287464584
 20
-136.9828531558584
 30
0.0
 10
118.4940592151681
 20
-136.987159525215
 30
0.0
 10
118.5440130997043
 20
-136.987159525215
 30
0.0
 10
118.5440130997043
 20
-136.987159525215
 30
0.0
 10
118.8533826742797
 20
-136.987159525215
 30
0.0
 10
118.8533826742797
 20
-136.987159525215
 30
0.0
 10
118.8699191326089
 20
-136.987159525215
 30
0.0
 10
119.0476860596478
 20
-136.987159525215
 30
0.0
 10
119.1717094971168
 20
-136.9680392452718
 30
0.0
 10
119.1717094971168
 20
-136.9680392452718
 30
0.0
 10
119.1717094971168
 20
-137.2029947573659
 30
0.0
 10
119.1717094971168
 20
-137.2029947573659
 30
0.0
 10
119.0345946968038
 20
-137.1838744774228
 30
0.0
 10
118.8681965848663
 20
-137.1838744774228
 30
0.0
 10
118.8533826742797
 20
-137.1838744774228
 30
0.0
  0
SPLINE
  5
13A
330
12C
100
AcDbEntity
  8
レイヤー 1
100
AcDbSpline
210
0.0
220
0.0
230
1.0
 70
     9
 71
     3
 72
    47
 73
    43
 74
     0
 42
0.0000000001
 43
0.0000000001
 40
0.0
 40
0.0
 40
0.0
 40
0.0
 40
1.0
 40
1.0
 40
1.0
 40
2.0
 40
2.0
 40
2.0
 40
3.0
 40
3.0
 40
3.0
 40
4.0
 40
4.0
 40
4.0
 40
5.0
 40
5.0
 40
5.0
 40
6.0
 40
6.0
 40
6.0
 40
7.0
 40
7.0
 40
7.0
 40
8.0
 40
8.0
 40
8.0
 40
9.0
 40
9.0
 40
9.0
 40
10.0
 40
10.0
 40
10.0
 40
11.0
 40
11.0
 40
11.0
 40
12.0
 40
12.0
 40
12.0
 40
13.0
 40
13.0
 40
13.0
 40
14.0
 40
14.0
 40
14.0
 40
14.0
 10
118.9422661377991
 20
-137.7126966344086
 30
0.0
 10
118.9422661377991
 20
-137.7126966344086
 30
0.0
 10
118.8533826742797
 20
-137.7126966344086
 30
0.0
 10
118.8533826742797
 20
-137.7126966344086
 30
0.0
 10
118.8533826742797
 20
-137.7995130406369
 30
0.0
 10
118.8347791586593
 20
-138.1888088304701
 30
0.0
 10
118.6625243843969
 20
-138.4087781772034
 30
0.0
 10
118.5291991891177
 20
-138.5779323655291
 30
0.0
 10
118.347642657045
 20
-138.6478678038797
 30
0.0
 10
118.2735731041121
 20
-138.6752563129874
 30
0.0
 10
118.2735731041121
 20
-138.6752563129874
 30
0.0
 10
118.1033853871408
 20
-138.5081691819528
 30
0.0
 10
118.1033853871408
 20
-138.5081691819528
 30
0.0
 10
118.1884792456265
 20
-138.4954223286574
 30
0.0
 10
118.3421305042686
 20
-138.4721679341319
 30
0.0
 10
118.5071505780121
 20
-138.283893465863
 30
0.0
 10
118.5719183731348
 20
-138.2120632249956
 30
0.0
 10
118.6625243843969
 20
-138.0723646030687
 30
0.0
 10
118.6625243843969
 20
-137.7126966344086
 30
0.0
 10
118.6625243843969
 20
-137.7126966344086
 30
0.0
 10
118.4606417889612
 20
-137.7126966344086
 30
0.0
 10
118.4606417889612
 20
-137.7126966344086
 30
0.0
 10
118.2976887725089
 20
-137.7126966344086
 30
0.0
 10
118.1347357560566
 20
-137.7170030037652
 30
0.0
 10
117.9717827396043
 20
-137.7318169143518
 30
0.0
 10
117.9717827396043
 20
-137.7318169143518
 30
0.0
 10
117.9717827396043
 20
-137.5118475676185
 30
0.0
 10
117.9717827396043
 20
-137.5118475676185
 30
0.0
 10
118.1364583037992
 20
-137.5266614782051
 30
0.0
 10
118.3865722360283
 20
-137.5307955927874
 30
0.0
 10
118.4606417889612
 20
-137.5307955927874
 30
0.0
 10
118.4606417889612
 20
-137.5307955927874
 30
0.0
 10
118.9422661377991
 20
-137.5307955927874
 30
0.0
 10
118.9422661377991
 20
-137.5307955927874
 30
0.0
 10
118.9588025961283
 20
-137.5307955927874
 30
0.0
 10
119.2364772922395
 20
-137.5307955927874
 30
0.0
 10
119.4366373399325
 20
-137.5118475676185
 30
0.0
 10
119.4366373399325
 20
-137.5118475676185
 30
0.0
 10
119.4366373399325
 20
-137.7318169143518
 30
0.0
 10
119.4366373399325
 20
-137.7318169143518
 30
0.0
 10
119.271617266189
 20
-137.7170030037652
 30
0.0
 10
119.1069417019941
 20
-137.7126966344086
 30
0.0
 10
118.9422661377991
 20
-137.7126966344086
 30
0.0
  0
HATCH
  5
13B
330
12C
100
AcDbEntity
  8
レイヤー 1
 62
   250
420
  2299925
440
 33554687
100
AcDbHatch
 10
0.0
 20
0.0
 30
0.0
210
0.0
220
0.0
230
1.0
  2
SOLID
 70
     1
 71
     1
 91
        2
 92
        1
 93
        1
 72
     4
 94
        3
 73
     0
 74
     0
 95
       29
 96
       25
 40
0.0
 40
0.0
 40
0.0
 40
0.0
 40
1.0
 40
1.0
 40
1.0
 40
2.0
 40
2.0
 40
2.0
 40
3.0
 40
3.0
 40
3.0
 40
4.0
 40
4.0
 40
4.0
 40
5.0
 40
5.0
 40
5.0
 40
6.0
 40
6.0
 40
6.0
 40
7.0
 40
7.0
 40
7.0
 40
8.0
 40
8.0
 40
8.0
 40
8.0
 10
118.8533826742797
 20
-137.1838744774228
 10
118.8533826742797
 20
-137.1838744774228
 10
118.5440130997043
 20
-137.1838744774228
 10
118.5440130997043
 20
-137.1838744774228
 10
118.4458278783746
 20
-137.1838744774228
 10
118.3235269886483
 20
-137.1902479040705
 10
118.2291313723524
 20
-137.2029947573659
 10
118.2291313723524
 20
-137.2029947573659
 10
118.2291313723524
 20
-136.9680392452718
 10
118.2291313723524
 20
-136.9680392452718
 10
118.3328287464584
 20
-136.9828531558584
 10
118.4940592151681
 20
-136.987159525215
 10
118.5440130997043
 20
-136.987159525215
 10
118.5440130997043
 20
-136.987159525215
 10
118.8533826742797
 20
-136.987159525215
 10
118.8533826742797
 20
-136.987159525215
 10
118.8699191326089
 20
-136.987159525215
 10
119.0476860596478
 20
-136.987159525215
 10
119.1717094971168
 20
-136.9680392452718
 10
119.1717094971168
 20
-136.9680392452718
 10
119.1717094971168
 20
-137.2029947573659
 10
119.1717094971168
 20
-137.2029947573659
 10
119.0345946968038
 20
-137.1838744774228
 10
118.8681965848663
 20
-137.1838744774228
 10
118.8533826742797
 20
-137.1838744774228
 97
        0
 97
        1
330
139
 92
        1
 93
        1
 72
     4
 94
        3
 73
     0
 74
     0
 95
       47
 96
       43
 40
0.0
 40
0.0
 40
0.0
 40
0.0
 40
1.0
 40
1.0
 40
1.0
 40
2.0
 40
2.0
 40
2.0
 40
3.0
 40
3.0
 40
3.0
 40
4.0
 40
4.0
 40
4.0
 40
5.0
 40
5.0
 40
5.0
 40
6.0
 40
6.0
 40
6.0
 40
7.0
 40
7.0
 40
7.0
 40
8.0
 40
8.0
 40
8.0
 40
9.0
 40
9.0
 40
9.0
 40
10.0
 40
10.0
 40
10.0
 40
11.0
 40
11.0
 40
11.0
 40
12.0
 40
12.0
 40
12.0
 40
13.0
 40
13.0
 40
13.0
 40
14.0
 40
14.0
 40
14.0
 40
14.0
 10
118.9422661377991
 20
-137.7126966344086
 10
118.9422661377991
 20
-137.7126966344086
 10
118.8533826742797
 20
-137.7126966344086
 10
118.8533826742797
 20
-137.7126966344086
 10
118.8533826742797
 20
-137.7995130406369
 10
118.8347791586593
 20
-138.1888088304701
 10
118.6625243843969
 20
-138.4087781772034
 10
118.5291991891177
 20
-138.5779323655291
 10
118.347642657045
 20
-138.6478678038797
 10
118.2735731041121
 20
-138.6752563129874
 10
118.2735731041121
 20
-138.6752563129874
 10
118.1033853871408
 20
-138.5081691819528
 10
118.1033853871408
 20
-138.5081691819528
 10
118.1884792456265
 20
-138.4954223286574
 10
118.3421305042686
 20
-138.4721679341319
 10
118.5071505780121
 20
-138.283893465863
 10
118.5719183731348
 20
-138.2120632249956
 10
118.6625243843969
 20
-138.0723646030687
 10
118.6625243843969
 20
-137.7126966344086
 10
118.6625243843969
 20
-137.7126966344086
 10
118.4606417889612
 20
-137.7126966344086
 10
118.4606417889612
 20
-137.7126966344086
 10
118.2976887725089
 20
-137.7126966344086
 10
118.1347357560566
 20
-137.7170030037652
 10
117.9717827396043
 20
-137.7318169143518
 10
117.9717827396043
 20
-137.7318169143518
 10
117.9717827396043
 20
-137.5118475676185
 10
117.9717827396043
 20
-137.5118475676185
 10
118.1364583037992
 20
-137.5266614782051
 10
118.3865722360283
 20
-137.5307955927874
 10
118.4606417889612
 20
-137.5307955927874
 10
118.4606417889612
 20
-137.5307955927874
 10
118.9422661377991
 20
-137.5307955927874
 10
118.9422661377991
 20
-137.5307955927874
 10
118.9588025961283
 20
-137.5307955927874
 10
119.2364772922395
 20
-137.5307955927874
 10
119.4366373399325
 20
-137.5118475676185
 10
119.4366373399325
 20
-137.5118475676185
 10
119.4366373399325
 20
-137.7318169143518
 10
119.4366373399325
 20
-137.7318169143518
 10
119.271617266189
 20
-137.7170030037652
 10
119.1069417019941
 20
-137.7126966344086
 10
118.9422661377991
 20
-137.7126966344086
 97
        0
 97
        1
330
13A
 75
     2
 76
     1
 98
        1
 10
0.0
 20
0.0
450
        0
451
        0
460
0.0
461
0.0
452
        0
462
0.0
453
        0
470

  0
SPLINE
  5
13C
330
12C
100
AcDbEntity
  8
レイヤー 1
100
AcDbSpline
210
0.0
220
0.0
230
1.0
 70
     9
 71
     3
 72
    29
 73
    25
 74
     0
 42
0.0000000001
 43
0.0000000001
 40
0.0
 40
0.0
 40
0.0
 40
0.0
 40
1.0
 40
1.0
 40
1.0
 40
2.0
 40
2.0
 40
2.0
 40
3.0
 40
3.0
 40
3.0
 40
4.0
 40
4.0
 40
4.0
 40
5.0
 40
5.0
 40
5.0
 40
6.0
 40
6.0
 40
6.0
 40
7.0
 40
7.0
 40
7.0
 40
8.0
 40
8.0
 40
8.0
 40
8.0
 10
120.5590494490269
 20
-137.8756496508609
 30
0.0
 10
120.5590494490269
 20
-137.8756496508609
 30
0.0
 10
120.1349581947926
 20
-137.8756496508609
 30
0.0
 10
120.1349581947926
 20
-137.8756496508609
 30
0.0
 10
120.1108425263959
 20
-137.8756496508609
 30
0.0
 10
119.8328233207362
 20
-137.8756496508609
 30
0.0
 10
119.6478216931783
 20
-137.9009711026775
 30
0.0
 10
119.6478216931783
 20
-137.9009711026775
 30
0.0
 10
119.6478216931783
 20
-137.6704942147143
 30
0.0
 10
119.6478216931783
 20
-137.6704942147143
 30
0.0
 10
119.7866590412339
 20
-137.6937486092397
 30
0.0
 10
119.95340166272
 20
-137.6958156665309
 30
0.0
 10
120.1349581947926
 20
-137.6958156665309
 30
0.0
 10
120.1349581947926
 20
-137.6958156665309
 30
0.0
 10
120.5590494490269
 20
-137.6958156665309
 30
0.0
 10
120.5590494490269
 20
-137.6958156665309
 30
0.0
 10
120.7216579559307
 20
-137.6958156665309
 30
0.0
 10
120.8849554819315
 20
-137.6937486092397
 30
0.0
 10
121.0458414410927
 20
-137.6704942147143
 30
0.0
 10
121.0458414410927
 20
-137.6704942147143
 30
0.0
 10
121.0458414410927
 20
-137.9009711026775
 30
0.0
 10
121.0458414410927
 20
-137.9009711026775
 30
0.0
 10
120.8849554819315
 20
-137.8777167081521
 30
0.0
 10
120.6682589759093
 20
-137.8756496508609
 30
0.0
 10
120.5590494490269
 20
-137.8756496508609
 30
0.0
  0
HATCH
  5
13D
330
12C
100
AcDbEntity
  8
レイヤー 1
 62
   250
420
  2299925
440
 33554687
100
AcDbHatch
 10
0.0
 20
0.0
 30
0.0
210
0.0
220
0.0
230
1.0
  2
SOLID
 70
     1
 71
     1
 91
        1
 92
        1
 93
        1
 72
     4
 94
        3
 73
     0
 74
     0
 95
       29
 96
       25
 40
0.0
 40
0.0
 40
0.0
 40
0.0
 40
1.0
 40
1.0
 40
1.0
 40
2.0
 40
2.0
 40
2.0
 40
3.0
 40
3.0
 40
3.0
 40
4.0
 40
4.0
 40
4.0
 40
5.0
 40
5.0
 40
5.0
 40
6.0
 40
6.0
 40
6.0
 40
7.0
 40
7.0
 40
7.0
 40
8.0
 40
8.0
 40
8.0
 40
8.0
 10
120.5590494490269
 20
-137.8756496508609
 10
120.5590494490269
 20
-137.8756496508609
 10
120.1349581947926
 20
-137.8756496508609
 10
120.1349581947926
 20
-137.8756496508609
 10
120.1108425263959
 20
-137.8756496508609
 10
119.8328233207362
 20
-137.8756496508609
 10
119.6478216931783
 20
-137.9009711026775
 10
119.6478216931783
 20
-137.9009711026775
 10
119.6478216931783
 20
-137.6704942147143
 10
119.6478216931783
 20
-137.6704942147143
 10
119.7866590412339
 20
-137.6937486092397
 10
119.95340166272
 20
-137.6958156665309
 10
120.1349581947926
 20
-137.6958156665309
 10
120.1349581947926
 20
-137.6958156665309
 10
120.5590494490269
 20
-137.6958156665309
 10
120.5590494490269
 20
-137.6958156665309
 10
120.7216579559307
 20
-137.6958156665309
 10
120.8849554819315
 20
-137.6937486092397
 10
121.0458414410927
 20
-137.6704942147143
 10
121.0458414410927
 20
-137.6704942147143
 10
121.0458414410927
 20
-137.9009711026775
 10
121.0458414410927
 20
-137.9009711026775
 10
120.8849554819315
 20
-137.8777167081521
 10
120.6682589759093
 20
-137.8756496508609
 10
120.5590494490269
 20
-137.8756496508609
 97
        0
 97
        1
330
13C
 75
     2
 76
     1
 98
        1
 10
0.0
 20
0.0
450
        0
451
        0
460
0.0
461
0.0
452
        0
462
0.0
453
        0
470

  0
SPLINE
  5
13E
330
12C
100
AcDbEntity
  8
レイヤー 1
100
AcDbSpline
210
0.0
220
0.0
230
1.0
 70
     9
 71
     3
 72
    17
 73
    13
 74
     0
 42
0.0000000001
 43
0.0000000001
 40
0.0
 40
0.0
 40
0.0
 40
0.0
 40
1.0
 40
1.0
 40
1.0
 40
2.0
 40
2.0
 40
2.0
 40
3.0
 40
3.0
 40
3.0
 40
4.0
 40
4.0
 40
4.0
 40
4.0
 10
122.677438662907
 20
-136.9087836029255
 30
0.0
 10
122.6292073261135
 20
-136.9087836029255
 30
0.0
 10
122.5902777471302
 20
-136.9532253346853
 30
0.0
 10
122.5902777471302
 20
-137.0083468624493
 30
0.0
 10
122.5902777471302
 20
-137.0653631927302
 30
0.0
 10
122.6292073261135
 20
-137.1141112938465
 30
0.0
 10
122.6812282679408
 20
-137.1141112938465
 30
0.0
 10
122.7329047002195
 20
-137.1141112938465
 30
0.0
 10
122.7680446741691
 20
-137.063296135439
 30
0.0
 10
122.7680446741691
 20
-137.0104139197404
 30
0.0
 10
122.7680446741691
 20
-136.9532253346853
 30
0.0
 10
122.7273925474431
 20
-136.9087836029255
 30
0.0
 10
122.677438662907
 20
-136.9087836029255
 30
0.0
  0
SPLINE
  5
13F
330
12C
100
AcDbEntity
  8
レイヤー 1
100
AcDbSpline
210
0.0
220
0.0
230
1.0
 70
     9
 71
     3
 72
    17
 73
    13
 74
     0
 42
0.0000000001
 43
0.0000000001
 40
0.0
 40
0.0
 40
0.0
 40
0.0
 40
1.0
 40
1.0
 40
1.0
 40
2.0
 40
2.0
 40
2.0
 40
3.0
 40
3.0
 40
3.0
 40
4.0
 40
4.0
 40
4.0
 40
4.0
 10
122.6791612106496
 20
-137.2388237504125
 30
0.0
 10
122.5682291360246
 20
-137.2388237504125
 30
0.0
 10
122.4793456725052
 20
-137.1373656883719
 30
0.0
 10
122.4793456725052
 20
-137.0104139197404
 30
0.0
 10
122.4793456725052
 20
-136.883462151109
 30
0.0
 10
122.5682291360246
 20
-136.7797647770029
 30
0.0
 10
122.6791612106496
 20
-136.7797647770029
 30
0.0
 10
122.7904377948232
 20
-136.7797647770029
 30
0.0
 10
122.8810438060853
 20
-136.883462151109
 30
0.0
 10
122.8810438060853
 20
-137.0104139197404
 30
0.0
 10
122.8810438060853
 20
-137.1373656883719
 30
0.0
 10
122.7904377948232
 20
-137.2388237504125
 30
0.0
 10
122.6791612106496
 20
-137.2388237504125
 30
0.0
  0
SPLINE
  5
140
330
12C
100
AcDbEntity
  8
レイヤー 1
100
AcDbSpline
210
0.0
220
0.0
230
1.0
 70
     9
 71
     3
 72
    44
 73
    40
 74
     0
 42
0.0000000001
 43
0.0000000001
 40
0.0
 40
0.0
 40
0.0
 40
0.0
 40
1.0
 40
1.0
 40
1.0
 40
2.0
 40
2.0
 40
2.0
 40
3.0
 40
3.0
 40
3.0
 40
4.0
 40
4.0
 40
4.0
 40
5.0
 40
5.0
 40
5.0
 40
6.0
 40
6.0
 40
6.0
 40
7.0
 40
7.0
 40
7.0
 40
8.0
 40
8.0
 40
8.0
 40
9.0
 40
9.0
 40
9.0
 40
10.0
 40
10.0
 40
10.0
 40
11.0
 40
11.0
 40
11.0
 40
12.0
 40
12.0
 40
12.0
 40
13.0
 40
13.0
 40
13.0
 40
13.0
 10
122.4958821308343
 20
-137.4377780146857
 30
0.0
 10
122.3976969095047
 20
-137.8058864672846
 30
0.0
 10
122.353255177745
 20
-137.9645331143804
 30
0.0
 10
122.1810004034825
 20
-138.2141302822867
 30
0.0
 10
122.0201144443213
 20
-138.4447794250242
 30
0.0
 10
121.8127196961093
 20
-138.6308145812277
 30
0.0
 10
121.5681179166566
 20
-138.7240044141037
 30
0.0
 10
121.5681179166566
 20
-138.7240044141037
 30
0.0
 10
121.3996527474278
 20
-138.5441704297737
 30
0.0
 10
121.3996527474278
 20
-138.5441704297737
 30
0.0
 10
121.960858801975
 20
-138.3918972093256
 30
0.0
 10
122.249557803639
 20
-137.8355142884578
 30
0.0
 10
122.3050238409515
 20
-137.3954033402171
 30
0.0
 10
122.3050238409515
 20
-137.3954033402171
 30
0.0
 10
121.6349527690704
 20
-137.3954033402171
 30
0.0
 10
121.6349527690704
 20
-137.3954033402171
 30
0.0
 10
121.55330400607
 20
-137.3954033402171
 30
0.0
 10
121.3924180469088
 20
-137.3997097095737
 30
0.0
 10
121.2553032465959
 20
-137.4186577347425
 30
0.0
 10
121.2553032465959
 20
-137.4186577347425
 30
0.0
 10
121.2553032465959
 20
-137.1986883880093
 30
0.0
 10
121.2553032465959
 20
-137.1986883880093
 30
0.0
 10
121.3310953472714
 20
-137.2198757252436
 30
0.0
 10
121.5515814583274
 20
-137.2198757252436
 30
0.0
 10
121.6387423741042
 20
-137.2198757252436
 30
0.0
 10
121.6387423741042
 20
-137.2198757252436
 30
0.0
 10
122.0163248392876
 20
-137.2198757252436
 30
0.0
 10
122.0163248392876
 20
-137.2198757252436
 30
0.0
 10
122.0535318705283
 20
-137.2198757252436
 30
0.0
 10
122.2588595614492
 20
-137.2176364131782
 30
0.0
 10
122.2922769876561
 20
-137.2114352413048
 30
0.0
 10
122.3291395093482
 20
-137.2050618146571
 30
0.0
 10
122.3312065666394
 20
-137.2029947573659
 30
0.0
 10
122.3849500562093
 20
-137.1626871401885
 30
0.0
 10
122.3849500562093
 20
-137.1626871401885
 30
0.0
 10
122.5496256204043
 20
-137.3171996727019
 30
0.0
 10
122.5496256204043
 20
-137.3171996727019
 30
0.0
 10
122.5237874042649
 20
-137.3468274938751
 30
0.0
 10
122.5106960414209
 20
-137.3785223723394
 30
0.0
 10
122.4958821308343
 20
-137.4377780146857
 30
0.0
  0
HATCH
  5
141
330
12C
100
AcDbEntity
  8
レイヤー 1
 62
   250
420
  2299925
440
 33554687
100
AcDbHatch
 10
0.0
 20
0.0
 30
0.0
210
0.0
220
0.0
230
1.0
  2
SOLID
 70
     1
 71
     1
 91
        3
 92
        1
 93
        1
 72
     4
 94
        3
 73
     0
 74
     0
 95
       17
 96
       13
 40
0.0
 40
0.0
 40
0.0
 40
0.0
 40
1.0
 40
1.0
 40
1.0
 40
2.0
 40
2.0
 40
2.0
 40
3.0
 40
3.0
 40
3.0
 40
4.0
 40
4.0
 40
4.0
 40
4.0
 10
122.677438662907
 20
-136.9087836029255
 10
122.6292073261135
 20
-136.9087836029255
 10
122.5902777471302
 20
-136.9532253346853
 10
122.5902777471302
 20
-137.0083468624493
 10
122.5902777471302
 20
-137.0653631927302
 10
122.6292073261135
 20
-137.1141112938465
 10
122.6812282679408
 20
-137.1141112938465
 10
122.7329047002195
 20
-137.1141112938465
 10
122.7680446741691
 20
-137.063296135439
 10
122.7680446741691
 20
-137.0104139197404
 10
122.7680446741691
 20
-136.9532253346853
 10
122.7273925474431
 20
-136.9087836029255
 10
122.677438662907
 20
-136.9087836029255
 97
        0
 97
        1
330
13E
 92
        1
 93
        1
 72
     4
 94
        3
 73
     0
 74
     0
 95
       17
 96
       13
 40
0.0
 40
0.0
 40
0.0
 40
0.0
 40
1.0
 40
1.0
 40
1.0
 40
2.0
 40
2.0
 40
2.0
 40
3.0
 40
3.0
 40
3.0
 40
4.0
 40
4.0
 40
4.0
 40
4.0
 10
122.6791612106496
 20
-137.2388237504125
 10
122.5682291360246
 20
-137.2388237504125
 10
122.4793456725052
 20
-137.1373656883719
 10
122.4793456725052
 20
-137.0104139197404
 10
122.4793456725052
 20
-136.883462151109
 10
122.5682291360246
 20
-136.7797647770029
 10
122.6791612106496
 20
-136.7797647770029
 10
122.7904377948232
 20
-136.7797647770029
 10
122.8810438060853
 20
-136.883462151109
 10
122.8810438060853
 20
-137.0104139197404
 10
122.8810438060853
 20
-137.1373656883719
 10
122.7904377948232
 20
-137.2388237504125
 10
122.6791612106496
 20
-137.2388237504125
 97
        0
 97
        1
330
13F
 92
        1
 93
        1
 72
     4
 94
        3
 73
     0
 74
     0
 95
       44
 96
       40
 40
0.0
 40
0.0
 40
0.0
 40
0.0
 40
1.0
 40
1.0
 40
1.0
 40
2.0
 40
2.0
 40
2.0
 40
3.0
 40
3.0
 40
3.0
 40
4.0
 40
4.0
 40
4.0
 40
5.0
 40
5.0
 40
5.0
 40
6.0
 40
6.0
 40
6.0
 40
7.0
 40
7.0
 40
7.0
 40
8.0
 40
8.0
 40
8.0
 40
9.0
 40
9.0
 40
9.0
 40
10.0
 40
10.0
 40
10.0
 40
11.0
 40
11.0
 40
11.0
 40
12.0
 40
12.0
 40
12.0
 40
13.0
 40
13.0
 40
13.0
 40
13.0
 10
122.4958821308343
 20
-137.4377780146857
 10
122.3976969095047
 20
-137.8058864672846
 10
122.353255177745
 20
-137.9645331143804
 10
122.1810004034825
 20
-138.2141302822867
 10
122.0201144443213
 20
-138.4447794250242
 10
121.8127196961093
 20
-138.6308145812277
 10
121.5681179166566
 20
-138.7240044141037
 10
121.5681179166566
 20
-138.7240044141037
 10
121.3996527474278
 20
-138.5441704297737
 10
121.3996527474278
 20
-138.5441704297737
 10
121.960858801975
 20
-138.3918972093256
 10
122.249557803639
 20
-137.8355142884578
 10
122.3050238409515
 20
-137.3954033402171
 10
122.3050238409515
 20
-137.3954033402171
 10
121.6349527690704
 20
-137.3954033402171
 10
121.6349527690704
 20
-137.3954033402171
 10
121.55330400607
 20
-137.3954033402171
 10
121.3924180469088
 20
-137.3997097095737
 10
121.2553032465959
 20
-137.4186577347425
 10
121.2553032465959
 20
-137.4186577347425
 10
121.2553032465959
 20
-137.1986883880093
 10
121.2553032465959
 20
-137.1986883880093
 10
121.3310953472714
 20
-137.2198757252436
 10
121.5515814583274
 20
-137.2198757252436
 10
121.6387423741042
 20
-137.2198757252436
 10
121.6387423741042
 20
-137.2198757252436
 10
122.0163248392876
 20
-137.2198757252436
 10
122.0163248392876
 20
-137.2198757252436
 10
122.0535318705283
 20
-137.2198757252436
 10
122.2588595614492
 20
-137.2176364131782
 10
122.2922769876561
 20
-137.2114352413048
 10
122.3291395093482
 20
-137.2050618146571
 10
122.3312065666394
 20
-137.2029947573659
 10
122.3849500562093
 20
-137.1626871401885
 10
122.3849500562093
 20
-137.1626871401885
 10
122.5496256204043
 20
-137.3171996727019
 10
122.5496256204043
 20
-137.3171996727019
 10
122.5237874042649
 20
-137.3468274938751
 10
122.5106960414209
 20
-137.3785223723394
 10
122.4958821308343
 20
-137.4377780146857
 97
        0
 97
        1
330
140
 75
     2
 76
     1
 98
        1
 10
0.0
 20
0.0
450
        0
451
        0
460
0.0
461
0.0
452
        0
462
0.0
453
        0
470

  0
ENDBLK
  5
12F
330
12C
100
AcDbEntity
  8
0
100
AcDbBlockEnd
  0
ENDSEC
  0
SECTION
  2
ENTITIES
  0
LINE
  5
79
330
70
100
AcDbEntity
  8
レイヤー 1
 62
   250
420
  2299925
370
    25
100
AcDbLine
 10
95.00752928875948
 20
-130.4567223539071
 30
0.0
 11
95.00752928875948
 21
-159.4568541140524
 31
0.0
  0
LINE
  5
7A
330
70
100
AcDbEntity
  8
レイヤー 1
 62
   250
420
  2299925
370
    25
100
AcDbLine
 10
95.00925789987013
 20
-159.4513507808595
 30
0.0
 11
124.00938906236
 21
-159.4513507808595
 31
0.0
  0
LINE
  5
7B
330
70
100
AcDbEntity
  8
レイヤー 1
 62
   250
420
  2299925
370
    25
100
AcDbLine
 10
124.00938906236
 20
-159.4513507808595
 30
0.0
 11
124.00938906236
 21
-160.0514610433272
 31
0.0
  0
LINE
  5
7C
330
70
100
AcDbEntity
  8
レイヤー 1
 62
   250
420
  2299925
370
    25
100
AcDbLine
 10
94.40773651113126
 20
-130.4567223539071
 30
0.0
 11
95.00752928875948
 21
-130.4567223539071
 31
0.0
  0
LINE
  5
7D
330
70
100
AcDbEntity
  8
レイヤー 1
 62
   250
420
  2299925
370
    25
100
AcDbLine
 10
123.0089113101066
 20
-160.0680063206828
 30
0.0
 11
123.5022710197421
 21
-159.6594130792244
 31
0.0
  0
LINE
  5
7E
330
70
100
AcDbEntity
  8
レイヤー 1
 62
   250
420
  2299925
370
    25
100
AcDbLine
 10
123.5022710197421
 20
-159.6594130792244
 30
0.0
 11
124.00938906236
 21
-160.0514610433272
 31
0.0
  0
LINE
  5
7F
330
70
100
AcDbEntity
  8
レイヤー 1
 62
   250
420
  2299925
370
    25
100
AcDbLine
 10
122.00846883563
 20
-160.0845515980385
 30
0.0
 11
122.5017932674887
 21
-159.6759643862402
 31
0.0
  0
LINE
  5
80
330
70
100
AcDbEntity
  8
レイヤー 1
 62
   250
420
  2299925
370
    25
100
AcDbLine
 10
122.5017932674887
 20
-159.6759643862402
 30
0.0
 11
123.0089113101066
 21
-160.0680063206828
 31
0.0
  0
LINE
  5
81
330
70
100
AcDbEntity
  8
レイヤー 1
 62
   250
420
  2299925
370
    25
100
AcDbLine
 10
121.0080263611534
 20
-160.1010908568912
 30
0.0
 11
121.5013507930121
 21
-159.6925096635959
 31
0.0
  0
LINE
  5
82
330
70
100
AcDbEntity
  8
レイヤー 1
 62
   250
420
  2299925
370
    25
100
AcDbLine
 10
121.5013507930121
 20
-159.6925096635959
 30
0.0
 11
122.00846883563
 21
-160.0845515980385
 31
0.0
  0
LINE
  5
83
330
70
100
AcDbEntity
  8
レイヤー 1
 62
   250
420
  2299925
370
    25
100
AcDbLine
 10
120.0075486088999
 20
-160.117606874973
 30
0.0
 11
120.5009083185355
 21
-159.7097252187123
 31
0.0
  0
LINE
  5
84
330
70
100
AcDbEntity
  8
レイヤー 1
 62
   250
420
  2299925
370
    25
100
AcDbLine
 10
120.5009083185355
 20
-159.7097252187123
 30
0.0
 11
121.0080263611534
 21
-160.1010908568912
 31
0.0
  0
LINE
  5
85
330
70
100
AcDbEntity
  8
レイヤー 1
 62
   250
420
  2299925
370
    25
100
AcDbLine
 10
119.0071061344234
 20
-160.1341521523287
 30
0.0
 11
119.5004305662821
 21
-159.7262704960679
 31
0.0
  0
LINE
  5
86
330
70
100
AcDbEntity
  8
レイヤー 1
 62
   250
420
  2299925
370
    25
100
AcDbLine
 10
119.5004305662821
 20
-159.7262704960679
 30
0.0
 11
120.0075486088999
 21
-160.117606874973
 31
0.0
  0
LINE
  5
87
330
70
100
AcDbEntity
  8
レイヤー 1
 62
   250
420
  2299925
370
    25
100
AcDbLine
 10
118.0066648385657
 20
-160.1506974296843
 30
0.0
 11
118.4999880918055
 21
-159.7427804956467
 31
0.0
  0
LINE
  5
88
330
70
100
AcDbEntity
  8
レイヤー 1
 62
   250
420
  2299925
370
    25
100
AcDbLine
 10
118.4999880918055
 20
-159.7427804956467
 30
0.0
 11
119.0071061344234
 21
-160.1341521523287
 31
0.0
  0
LINE
  5
89
330
70
100
AcDbEntity
  8
レイヤー 1
 62
   250
420
  2299925
370
    25
100
AcDbLine
 10
117.0061870610382
 20
-160.1679129848007
 30
0.0
 11
117.4995456173289
 21
-159.7593257730024
 31
0.0
  0
LINE
  5
8A
330
70
100
AcDbEntity
  8
レイヤー 1
 62
   250
420
  2299925
370
    25
100
AcDbLine
 10
117.4995456173289
 20
-159.7593257730024
 30
0.0
 11
118.0066648385657
 21
-160.1506974296843
 31
0.0
  0
LINE
  5
8B
330
70
100
AcDbEntity
  8
レイヤー 1
 62
   250
420
  2299925
370
    25
100
AcDbLine
 10
116.0057434332167
 20
-160.1844582621564
 30
0.0
 11
116.4990678650754
 21
-159.7758710503581
 31
0.0
  0
LINE
  5
8C
330
70
100
AcDbEntity
  8
レイヤー 1
 62
   250
420
  2299925
370
    25
100
AcDbLine
 10
116.4990678650754
 20
-159.7758710503581
 30
0.0
 11
117.0061870610382
 21
-160.1679129848007
 31
0.0
  0
LINE
  5
8D
330
70
100
AcDbEntity
  8
レイヤー 1
 62
   250
420
  2299925
370
    25
100
AcDbLine
 10
115.0052656809632
 20
-160.201003539512
 30
0.0
 11
115.4986253905988
 21
-159.7924103014128
 31
0.0
  0
LINE
  5
8E
330
70
100
AcDbEntity
  8
レイヤー 1
 62
   250
420
  2299925
370
    25
100
AcDbLine
 10
115.4986253905988
 20
-159.7924103014128
 30
0.0
 11
116.0057434332167
 21
-160.1844582621564
 31
0.0
  0
LINE
  5
8F
330
70
100
AcDbEntity
  8
レイヤー 1
 62
   250
420
  2299925
370
    25
100
AcDbLine
 10
114.0048232064867
 20
-160.2175075235294
 30
0.0
 11
114.4981476383454
 21
-159.8089263272925
 31
0.0
  0
LINE
  5
90
330
70
100
AcDbEntity
  8
レイヤー 1
 62
   250
420
  2299925
370
    25
100
AcDbLine
 10
114.4981476383454
 20
-159.8089263272925
 30
0.0
 11
115.0052656809632
 21
-160.201003539512
 31
0.0
  0
LINE
  5
91
330
70
100
AcDbEntity
  8
レイヤー 1
 62
   250
420
  2299925
370
    25
100
AcDbLine
 10
113.0043807320101
 20
-160.2340588164465
 30
0.0
 11
113.4977051638688
 21
-159.8261771601858
 31
0.0
  0
LINE
  5
92
330
70
100
AcDbEntity
  8
レイヤー 1
 62
   250
420
  2299925
370
    25
100
AcDbLine
 10
113.4977051638688
 20
-159.8261771601858
 30
0.0
 11
114.0048232064867
 21
-160.2175075235294
 31
0.0
  0
LINE
  5
93
330
70
100
AcDbEntity
  8
レイヤー 1
 62
   250
420
  2299925
370
    25
100
AcDbLine
 10
112.0039029797566
 20
-160.2506040938022
 30
0.0
 11
112.4979329671529
 21
-159.8426871597645
 31
0.0
  0
LINE
  5
94
330
70
100
AcDbEntity
  8
レイヤー 1
 62
   250
420
  2299925
370
    25
100
AcDbLine
 10
112.4979329671529
 20
-159.8426871597645
 30
0.0
 11
113.0043807320101
 21
-160.2340588164465
 31
0.0
  0
LINE
  5
95
330
70
100
AcDbEntity
  8
レイヤー 1
 62
   250
420
  2299925
370
    25
100
AcDbLine
 10
111.00346050528
 20
-160.2671493711578
 30
0.0
 11
111.4974904926763
 21
-159.8592324371202
 31
0.0
  0
LINE
  5
96
330
70
100
AcDbEntity
  8
レイヤー 1
 62
   250
420
  2299925
370
    25
100
AcDbLine
 10
111.4974904926763
 20
-159.8592324371202
 30
0.0
 11
112.0039029797566
 21
-160.2506040938022
 31
0.0
  0
LINE
  5
97
330
70
100
AcDbEntity
  8
レイヤー 1
 62
   250
420
  2299925
370
    25
100
AcDbLine
 10
110.0030180308035
 20
-160.2836593707366
 30
0.0
 11
110.4970127404228
 21
-159.8757777144759
 31
0.0
  0
LINE
  5
98
330
70
100
AcDbEntity
  8
レイヤー 1
 62
   250
420
  2299925
370
    25
100
AcDbLine
 10
110.4970127404228
 20
-159.8757777144759
 30
0.0
 11
111.00346050528
 21
-160.2671493711578
 31
0.0
  0
LINE
  5
99
330
70
100
AcDbEntity
  8
レイヤー 1
 62
   250
420
  2299925
370
    25
100
AcDbLine
 10
109.00254027855
 20
-160.3009102036299
 30
0.0
 11
109.4965702659462
 21
-159.8923229918316
 31
0.0
  0
LINE
  5
9A
330
70
100
AcDbEntity
  8
レイヤー 1
 62
   250
420
  2299925
370
    25
100
AcDbLine
 10
109.4965702659462
 20
-159.8923229918316
 30
0.0
 11
110.0030180308035
 21
-160.2836593707366
 31
0.0
  0
LINE
  5
9B
330
70
100
AcDbEntity
  8
レイヤー 1
 62
   250
420
  2299925
370
    25
100
AcDbLine
 10
108.0020978040734
 20
-160.317420203208
 30
0.0
 11
108.4961287298313
 21
-159.908826968051
 31
0.0
  0
LINE
  5
9C
330
70
100
AcDbEntity
  8
レイヤー 1
 62
   250
420
  2299925
370
    25
100
AcDbLine
 10
108.4961287298313
 20
-159.908826968051
 30
0.0
 11
109.00254027855
 21
-160.3009102036299
 31
0.0
  0
LINE
  5
9D
330
70
100
AcDbEntity
  8
レイヤー 1
 62
   250
420
  2299925
370
    25
100
AcDbLine
 10
107.0016200518199
 20
-160.3339654805643
 30
0.0
 11
107.4956509523039
 21
-159.9253782687661
 31
0.0
  0
LINE
  5
9E
330
70
100
AcDbEntity
  8
レイヤー 1
 62
   250
420
  2299925
370
    25
100
AcDbLine
 10
107.4956509523039
 20
-159.9253782687661
 30
0.0
 11
108.0020978040734
 21
-160.317420203208
 31
0.0
  0
LINE
  5
9F
330
70
100
AcDbEntity
  8
レイヤー 1
 62
   250
420
  2299925
370
    25
100
AcDbLine
 10
106.0011784526773
 20
-160.3505047457185
 30
0.0
 11
106.4952084525546
 21
-159.9419235461211
 31
0.0
  0
LINE
  5
A0
330
70
100
AcDbEntity
  8
レイヤー 1
 62
   250
420
  2299925
370
    25
100
AcDbLine
 10
106.4952084525546
 20
-159.9419235461211
 30
0.0
 11
107.0016200518199
 21
-160.3339654805643
 31
0.0
  0
LINE
  5
A1
330
70
100
AcDbEntity
  8
レイヤー 1
 62
   250
420
  2299925
370
    25
100
AcDbLine
 10
105.0014062307051
 20
-160.3670560352757
 30
0.0
 11
105.4947659528041
 21
-159.9591391012381
 31
0.0
  0
LINE
  5
A2
330
70
100
AcDbEntity
  8
レイヤー 1
 62
   250
420
  2299925
370
    25
100
AcDbLine
 10
105.4947659528041
 20
-159.9591391012381
 30
0.0
 11
106.0011784526773
 21
-160.3505047457185
 31
0.0
  0
LINE
  5
A3
330
70
100
AcDbEntity
  8
レイヤー 1
 62
   250
420
  2299925
370
    25
100
AcDbLine
 10
104.0009637309552
 20
-160.3835660348545
 30
0.0
 11
104.4942881752763
 21
-159.9756843785938
 31
0.0
  0
LINE
  5
A4
330
70
100
AcDbEntity
  8
レイヤー 1
 62
   250
420
  2299925
370
    25
100
AcDbLine
 10
104.4942881752763
 20
-159.9756843785938
 30
0.0
 11
105.0014062307051
 21
-160.3670560352757
 31
0.0
  0
LINE
  5
A5
330
70
100
AcDbEntity
  8
レイヤー 1
 62
   250
420
  2299925
370
    25
100
AcDbLine
 10
103.0004859534278
 20
-160.4001113122102
 30
0.0
 11
103.4938456755264
 21
-159.9922296559494
 31
0.0
  0
LINE
  5
A6
330
70
100
AcDbEntity
  8
レイヤー 1
 62
   250
420
  2299925
370
    25
100
AcDbLine
 10
103.4938456755264
 20
-159.9922296559494
 30
0.0
 11
104.0009637309552
 21
-160.3835660348545
 31
0.0
  0
LINE
  5
A7
330
70
100
AcDbEntity
  8
レイヤー 1
 62
   250
420
  2299925
370
    25
100
AcDbLine
 10
102.0000434536779
 20
-160.4166565895658
 30
0.0
 11
102.493367897999
 21
-160.0087396555282
 31
0.0
  0
LINE
  5
A8
330
70
100
AcDbEntity
  8
レイヤー 1
 62
   250
420
  2299925
370
    25
100
AcDbLine
 10
102.493367897999
 20
-160.0087396555282
 30
0.0
 11
103.0004859534278
 21
-160.4001113122102
 31
0.0
  0
LINE
  5
A9
330
70
100
AcDbEntity
  8
レイヤー 1
 62
   250
420
  2299925
370
    25
100
AcDbLine
 10
100.999600953928
 20
-160.4338721446815
 30
0.0
 11
101.4929253982491
 21
-160.0252849328839
 31
0.0
  0
LINE
  5
AA
330
70
100
AcDbEntity
  8
レイヤー 1
 62
   250
420
  2299925
370
    25
100
AcDbLine
 10
101.4929253982491
 20
-160.0252849328839
 30
0.0
 11
102.0000434536779
 21
-160.4166565895658
 31
0.0
  0
LINE
  5
AB
330
70
100
AcDbEntity
  8
レイヤー 1
 62
   250
420
  2299925
370
    25
100
AcDbLine
 10
99.99912317640088
 20
-160.4504174220378
 30
0.0
 11
100.4924828984992
 21
-160.0418241902401
 31
0.0
  0
LINE
  5
AC
330
70
100
AcDbEntity
  8
レイヤー 1
 62
   250
420
  2299925
370
    25
100
AcDbLine
 10
100.4924828984992
 20
-160.0418241902401
 30
0.0
 11
100.999600953928
 21
-160.4338721446815
 31
0.0
  0
LINE
  5
AD
330
70
100
AcDbEntity
  8
レイヤー 1
 62
   250
420
  2299925
370
    25
100
AcDbLine
 10
94.39119123335784
 20
-131.4572001061606
 30
0.0
 11
94.79910817770051
 21
-130.9631701187643
 31
0.0
  0
LINE
  5
AE
330
70
100
AcDbEntity
  8
レイヤー 1
 62
   250
420
  2299925
370
    25
100
AcDbLine
 10
94.79910817770051
 20
-130.9631701187643
 30
0.0
 11
94.40773651113126
 21
-130.4567223539071
 31
0.0
  0
LINE
  5
AF
330
70
100
AcDbEntity
  8
レイヤー 1
 62
   250
420
  2299925
370
    25
100
AcDbLine
 10
94.37468123336193
 20
-132.4576425806372
 30
0.0
 11
94.78291567770419
 21
-131.9636125932409
 31
0.0
  0
LINE
  5
B0
330
70
100
AcDbEntity
  8
レイヤー 1
 62
   250
420
  2299925
370
    25
100
AcDbLine
 10
94.78291567770419
 20
-131.9636125932409
 30
0.0
 11
94.39119123335784
 21
-131.4572001061606
 31
0.0
  0
LINE
  5
B1
330
70
100
AcDbEntity
  8
レイヤー 1
 62
   250
420
  2299925
370
    25
100
AcDbLine
 10
94.35848873336659
 20
-133.4580850551137
 30
0.0
 11
94.76672317770853
 21
-132.9640550677175
 31
0.0
  0
LINE
  5
B2
330
70
100
AcDbEntity
  8
レイヤー 1
 62
   250
420
  2299925
370
    25
100
AcDbLine
 10
94.76672317770853
 20
-132.9640550677175
 30
0.0
 11
94.37468123336193
 21
-132.4576425806372
 31
0.0
  0
LINE
  5
B3
330
70
100
AcDbEntity
  8
レイヤー 1
 62
   250
420
  2299925
370
    25
100
AcDbLine
 10
94.3422962333703
 20
-134.4585628073675
 30
0.0
 11
94.75017789993449
 21
-133.964532819971
 31
0.0
  0
LINE
  5
B4
330
70
100
AcDbEntity
  8
レイヤー 1
 62
   250
420
  2299925
370
    25
100
AcDbLine
 10
94.75017789993449
 20
-133.964532819971
 30
0.0
 11
94.35848873336659
 21
-133.4580850551137
 31
0.0
  0
LINE
  5
B5
330
70
100
AcDbEntity
  8
レイヤー 1
 62
   250
420
  2299925
370
    25
100
AcDbLine
 10
94.32575095559656
 20
-135.4590052818438
 30
0.0
 11
94.73398539993883
 21
-134.9649686409535
 31
0.0
  0
LINE
  5
B6
330
70
100
AcDbEntity
  8
レイヤー 1
 62
   250
420
  2299925
370
    25
100
AcDbLine
 10
94.73398539993883
 20
-134.9649686409535
 30
0.0
 11
94.3422962333703
 21
-134.4585628073675
 31
0.0
  0
LINE
  5
B7
330
70
100
AcDbEntity
  8
レイヤー 1
 62
   250
420
  2299925
370
    25
100
AcDbLine
 10
94.3092056778225
 20
-136.4594477563204
 30
0.0
 11
94.71779289994252
 21
-135.9654464184813
 31
0.0
  0
LINE
  5
B8
330
70
100
AcDbEntity
  8
レイヤー 1
 62
   250
420
  2299925
370
    25
100
AcDbLine
 10
94.71779289994252
 20
-135.9654464184813
 30
0.0
 11
94.32575095559656
 21
-135.4590052818438
 31
0.0
  0
LINE
  5
B9
330
70
100
AcDbEntity
  8
レイヤー 1
 62
   250
420
  2299925
370
    25
100
AcDbLine
 10
94.29336595560462
 20
-137.4599255085735
 30
0.0
 11
94.70128289994759
 21
-136.9658955211779
 31
0.0
  0
LINE
  5
BA
330
70
100
AcDbEntity
  8
レイヤー 1
 62
   250
420
  2299925
370
    25
100
AcDbLine
 10
94.70128289994759
 20
-136.9658955211779
 30
0.0
 11
94.3092056778225
 21
-136.4594477563204
 31
0.0
  0
LINE
  5
BB
330
70
100
AcDbEntity
  8
レイヤー 1
 62
   250
420
  2299925
370
    25
100
AcDbLine
 10
94.27682067783054
 20
-138.4603679830504
 30
0.0
 11
94.68473762217319
 21
-137.9663379956542
 31
0.0
  0
LINE
  5
BC
330
70
100
AcDbEntity
  8
レイヤー 1
 62
   250
420
  2299925
370
    25
100
AcDbLine
 10
94.68473762217319
 20
-137.9663379956542
 30
0.0
 11
94.29336595560462
 21
-137.4599255085735
 31
0.0
  0
LINE
  5
BD
330
70
100
AcDbEntity
  8
レイヤー 1
 62
   250
420
  2299925
370
    25
100
AcDbLine
 10
94.2603106778356
 20
-139.4608457353039
 30
0.0
 11
94.66854512217755
 21
-138.9668157479077
 31
0.0
  0
LINE
  5
BE
330
70
100
AcDbEntity
  8
レイヤー 1
 62
   250
420
  2299925
370
    25
100
AcDbLine
 10
94.66854512217755
 20
-138.9668157479077
 30
0.0
 11
94.27682067783054
 21
-138.4603679830504
 31
0.0
  0
LINE
  5
BF
330
70
100
AcDbEntity
  8
レイヤー 1
 62
   250
420
  2299925
370
    25
100
AcDbLine
 10
94.24411817783932
 20
-140.4612882097805
 30
0.0
 11
94.65235262218126
 21
-139.9672582223842
 31
0.0
  0
LINE
  5
C0
330
70
100
AcDbEntity
  8
レイヤー 1
 62
   250
420
  2299925
370
    25
100
AcDbLine
 10
94.65235262218126
 20
-139.9672582223842
 30
0.0
 11
94.2603106778356
 21
-139.4608457353039
 31
0.0
  0
LINE
  5
C1
330
70
100
AcDbEntity
  8
レイヤー 1
 62
   250
420
  2299925
370
    25
100
AcDbLine
 10
94.22792567784332
 20
-141.4617241948849
 30
0.0
 11
94.63580734440784
 21
-140.9677006968611
 31
0.0
  0
LINE
  5
C2
330
70
100
AcDbEntity
  8
レイヤー 1
 62
   250
420
  2299925
370
    25
100
AcDbLine
 10
94.63580734440784
 20
-140.9677006968611
 30
0.0
 11
94.24411817783932
 21
-140.4612882097805
 31
0.0
  0
LINE
  5
C3
330
70
100
AcDbEntity
  8
レイヤー 1
 62
   250
420
  2299925
370
    25
100
AcDbLine
 10
94.21138040006928
 20
-142.4614964168572
 30
0.0
 11
94.61961484441152
 21
-141.9681784491143
 31
0.0
  0
LINE
  5
C4
330
70
100
AcDbEntity
  8
レイヤー 1
 62
   250
420
  2299925
370
    25
100
AcDbLine
 10
94.61961484441152
 20
-141.9681784491143
 30
0.0
 11
94.22792567784332
 21
-141.4617241948849
 31
0.0
  0
LINE
  5
C5
330
70
100
AcDbEntity
  8
レイヤー 1
 62
   250
420
  2299925
370
    25
100
AcDbLine
 10
94.19483512229586
 20
-143.4619741943849
 30
0.0
 11
94.60342234441588
 21
-142.9686209235909
 31
0.0
  0
LINE
  5
C6
330
70
100
AcDbEntity
  8
レイヤー 1
 62
   250
420
  2299925
370
    25
100
AcDbLine
 10
94.60342234441588
 20
-142.9686209235909
 30
0.0
 11
94.21138040006928
 21
-142.4614964168572
 31
0.0
  0
LINE
  5
C7
330
70
100
AcDbEntity
  8
レイヤー 1
 62
   250
420
  2299925
370
    25
100
AcDbLine
 10
94.17899540007731
 20
-144.462423107703
 30
0.0
 11
94.58687706664246
 21
-143.9690986758443
 31
0.0
  0
LINE
  5
C8
330
70
100
AcDbEntity
  8
レイヤー 1
 62
   250
420
  2299925
370
    25
100
AcDbLine
 10
94.58687706664246
 20
-143.9690986758443
 30
0.0
 11
94.19483512229586
 21
-143.4619741943849
 31
0.0
  0
LINE
  5
C9
330
70
100
AcDbEntity
  8
レイヤー 1
 62
   250
420
  2299925
370
    25
100
AcDbLine
 10
94.16245012230389
 20
-145.4628655821799
 30
0.0
 11
94.57036706664656
 21
-144.9695411503209
 31
0.0
  0
LINE
  5
CA
330
70
100
AcDbEntity
  8
レイヤー 1
 62
   250
420
  2299925
370
    25
100
AcDbLine
 10
94.57036706664656
 20
-144.9695411503209
 30
0.0
 11
94.17899540007731
 21
-144.462423107703
 31
0.0
  0
LINE
  5
CB
330
70
100
AcDbEntity
  8
レイヤー 1
 62
   250
420
  2299925
370
    25
100
AcDbLine
 10
94.14590484453048
 20
-146.4633433344331
 30
0.0
 11
94.55417456665026
 21
-145.9699836247975
 31
0.0
  0
LINE
  5
CC
330
70
100
AcDbEntity
  8
レイヤー 1
 62
   250
420
  2299925
370
    25
100
AcDbLine
 10
94.55417456665026
 20
-145.9699836247975
 30
0.0
 11
94.16245012230389
 21
-145.4628655821799
 31
0.0
  0
LINE
  5
CD
330
70
100
AcDbEntity
  8
レイヤー 1
 62
   250
420
  2299925
370
    25
100
AcDbLine
 10
94.12971234453419
 20
-147.4637858089097
 30
0.0
 11
94.5379820666546
 21
-146.970461377051
 31
0.0
  0
LINE
  5
CE
330
70
100
AcDbEntity
  8
レイヤー 1
 62
   250
420
  2299925
370
    25
100
AcDbLine
 10
94.5379820666546
 20
-146.970461377051
 30
0.0
 11
94.14590484453048
 21
-146.4633433344331
 31
0.0
  0
LINE
  5
CF
330
70
100
AcDbEntity
  8
レイヤー 1
 62
   250
420
  2299925
370
    25
100
AcDbLine
 10
94.11351984453853
 20
-148.4642282833862
 30
0.0
 11
94.52143678888054
 21
-147.9709038515276
 31
0.0
  0
LINE
  5
D0
330
70
100
AcDbEntity
  8
レイヤー 1
 62
   250
420
  2299925
370
    25
100
AcDbLine
 10
94.52143678888054
 20
-147.9709038515276
 30
0.0
 11
94.12971234453419
 21
-147.4637858089097
 31
0.0
  0
LINE
  5
D1
330
70
100
AcDbEntity
  8
レイヤー 1
 62
   250
420
  2299925
370
    25
100
AcDbLine
 10
94.09700984454262
 20
-149.46470603564
 30
0.0
 11
94.50489151110744
 21
-148.9713463260038
 31
0.0
  0
LINE
  5
D2
330
70
100
AcDbEntity
  8
レイヤー 1
 62
   250
420
  2299925
370
    25
100
AcDbLine
 10
94.50489151110744
 20
-148.9713463260038
 30
0.0
 11
94.11351984453853
 21
-148.4642282833862
 31
0.0
  0
LINE
  5
D3
330
70
100
AcDbEntity
  8
レイヤー 1
 62
   250
420
  2299925
370
    25
100
AcDbLine
 10
94.08046456676856
 20
-150.4651485101166
 30
0.0
 11
94.48905178888923
 21
-149.9718240782579
 31
0.0
  0
LINE
  5
D4
330
70
100
AcDbEntity
  8
レイヤー 1
 62
   250
420
  2299925
370
    25
100
AcDbLine
 10
94.48905178888923
 20
-149.9718240782579
 30
0.0
 11
94.09700984454262
 21
-149.46470603564
 31
0.0
  0
LINE
  5
D5
330
70
100
AcDbEntity
  8
レイヤー 1
 62
   250
420
  2299925
370
    25
100
AcDbLine
 10
94.06462484455067
 20
-151.4656262623701
 30
0.0
 11
94.47250651111517
 21
-150.9722603036184
 31
0.0
  0
LINE
  5
D6
330
70
100
AcDbEntity
  8
レイヤー 1
 62
   250
420
  2299925
370
    25
100
AcDbLine
 10
94.47250651111517
 20
-150.9722603036184
 30
0.0
 11
94.08046456676856
 21
-150.4651485101166
 31
0.0
  0
LINE
  5
D7
330
70
100
AcDbEntity
  8
レイヤー 1
 62
   250
420
  2299925
370
    25
100
AcDbLine
 10
94.04807956677725
 20
-152.4660687368467
 30
0.0
 11
94.45596123334174
 21
-151.9727380811464
 31
0.0
  0
LINE
  5
D8
330
70
100
AcDbEntity
  8
レイヤー 1
 62
   250
420
  2299925
370
    25
100
AcDbLine
 10
94.45596123334174
 20
-151.9727380811464
 30
0.0
 11
94.06462484455067
 21
-151.4656262623701
 31
0.0
  0
LINE
  5
D9
330
70
100
AcDbEntity
  8
レイヤー 1
 62
   250
420
  2299925
370
    25
100
AcDbLine
 10
94.03153428900319
 20
-153.4665112113233
 30
0.0
 11
94.43976873334545
 21
-152.9731867794646
 31
0.0
  0
LINE
  5
DA
330
70
100
AcDbEntity
  8
レイヤー 1
 62
   250
420
  2299925
370
    25
100
AcDbLine
 10
94.43976873334545
 20
-152.9731867794646
 30
0.0
 11
94.04807956677725
 21
-152.4660687368467
 31
0.0
  0
LINE
  5
DB
330
70
100
AcDbEntity
  8
レイヤー 1
 62
   250
420
  2299925
370
    25
100
AcDbLine
 10
94.99684012209536
 20
-160.5331085310393
 30
0.0
 11
94.5359006777662
 21
-160.5406932530681
 31
0.0
  0
LINE
  5
DC
330
70
100
AcDbEntity
  8
レイヤー 1
 62
   250
420
  2299925
370
    25
100
AcDbLine
 10
95.99731789962278
 20
-160.5165632536837
 30
0.0
 11
95.490199844194
 21
-160.1251915970017
 31
0.0
  0
LINE
  5
DD
330
70
100
AcDbEntity
  8
レイヤー 1
 62
   250
420
  2299925
370
    25
100
AcDbLine
 10
95.490199844194
 20
-160.1251915970017
 30
0.0
 11
94.99684012209536
 21
-160.5331085310393
 31
0.0
  0
LINE
  5
DE
330
70
100
AcDbEntity
  8
レイヤー 1
 62
   250
420
  2299925
370
    25
100
AcDbLine
 10
96.99776039937269
 20
-160.500017976328
 30
0.0
 11
96.49064234394392
 21
-160.1086815974229
 31
0.0
  0
LINE
  5
DF
330
70
100
AcDbEntity
  8
レイヤー 1
 62
   250
420
  2299925
370
    25
100
AcDbLine
 10
96.49064234394392
 20
-160.1086815974229
 30
0.0
 11
95.99731789962278
 21
-160.5165632536837
 31
0.0
  0
LINE
  5
E0
330
70
100
AcDbEntity
  8
レイヤー 1
 62
   250
420
  2299925
370
    25
100
AcDbLine
 10
97.99823817690075
 20
-160.4835019679076
 30
0.0
 11
97.49112012147199
 21
-160.0921363200673
 31
0.0
  0
LINE
  5
E1
330
70
100
AcDbEntity
  8
レイヤー 1
 62
   250
420
  2299925
370
    25
100
AcDbLine
 10
97.49112012147199
 20
-160.0921363200673
 30
0.0
 11
96.99776039937269
 21
-160.500017976328
 31
0.0
  0
LINE
  5
E2
330
70
100
AcDbEntity
  8
レイヤー 1
 62
   250
420
  2299925
370
    25
100
AcDbLine
 10
98.99868067665098
 20
-160.4669626993935
 30
0.0
 11
98.49156262122221
 21
-160.074885487174
 31
0.0
  0
LINE
  5
E3
330
70
100
AcDbEntity
  8
レイヤー 1
 62
   250
420
  2299925
370
    25
100
AcDbLine
 10
98.49156262122221
 20
-160.074885487174
 30
0.0
 11
97.99823817690075
 21
-160.4835019679076
 31
0.0
  0
LINE
  5
E4
330
70
100
AcDbEntity
  8
レイヤー 1
 62
   250
420
  2299925
370
    25
100
AcDbLine
 10
99.99912317640088
 20
-160.4504174220378
 30
0.0
 11
99.49200512097212
 21
-160.0583754875946
 31
0.0
  0
LINE
  5
E5
330
70
100
AcDbEntity
  8
レイヤー 1
 62
   250
420
  2299925
370
    25
100
AcDbLine
 10
99.49200512097212
 20
-160.0583754875946
 30
0.0
 11
98.99868067665098
 21
-160.4669626993935
 31
0.0
  0
LINE
  5
E6
330
70
100
AcDbEntity
  8
レイヤー 1
 62
   250
420
  2299925
370
    25
100
AcDbLine
 10
93.92612428902937
 20
-159.9315871574965
 30
0.0
 11
93.93370901124995
 21
-159.4692658570501
 31
0.0
  0
LINE
  5
E7
330
70
100
AcDbEntity
  8
レイヤー 1
 62
   250
420
  2299925
370
    25
100
AcDbLine
 10
93.94990151124561
 20
-158.468788079522
 30
0.0
 11
94.34159067781447
 21
-158.9752419041172
 31
0.0
  0
LINE
  5
E8
330
70
100
AcDbEntity
  8
レイヤー 1
 62
   250
420
  2299925
370
    25
100
AcDbLine
 10
94.34159067781447
 20
-158.9752419041172
 30
0.0
 11
93.93370901124995
 21
-159.4692658570501
 31
0.0
  0
LINE
  5
E9
330
70
100
AcDbEntity
  8
レイヤー 1
 62
   250
420
  2299925
370
    25
100
AcDbLine
 10
93.96609401124193
 20
-157.4683516647833
 30
0.0
 11
94.35813595558853
 21
-157.9747641518637
 31
0.0
  0
LINE
  5
EA
330
70
100
AcDbEntity
  8
レイヤー 1
 62
   250
420
  2299925
370
    25
100
AcDbLine
 10
94.35813595558853
 20
-157.9747641518637
 30
0.0
 11
93.94990151124561
 21
-158.468788079522
 31
0.0
  0
LINE
  5
EB
330
70
100
AcDbEntity
  8
レイヤー 1
 62
   250
420
  2299925
370
    25
100
AcDbLine
 10
93.98260401123781
 20
-156.4678739125299
 30
0.0
 11
94.37468123336193
 21
-156.9743216773871
 31
0.0
  0
LINE
  5
EC
330
70
100
AcDbEntity
  8
レイヤー 1
 62
   250
420
  2299925
370
    25
100
AcDbLine
 10
94.37468123336193
 20
-156.9743216773871
 30
0.0
 11
93.96609401124193
 21
-157.4683516647833
 31
0.0
  0
LINE
  5
ED
330
70
100
AcDbEntity
  8
レイヤー 1
 62
   250
420
  2299925
370
    25
100
AcDbLine
 10
93.99914928901123
 20
-155.4674314380533
 30
0.0
 11
94.3905209555808
 21
-155.9738439251337
 31
0.0
  0
LINE
  5
EE
330
70
100
AcDbEntity
  8
レイヤー 1
 62
   250
420
  2299925
370
    25
100
AcDbLine
 10
94.3905209555808
 20
-155.9738439251337
 30
0.0
 11
93.98260401123781
 21
-156.4678739125299
 31
0.0
  0
LINE
  5
EF
330
70
100
AcDbEntity
  8
レイヤー 1
 62
   250
420
  2299925
370
    25
100
AcDbLine
 10
94.01534178900753
 20
-154.4669889635767
 30
0.0
 11
94.40706623335389
 21
-154.9734014506571
 31
0.0
  0
LINE
  5
F0
330
70
100
AcDbEntity
  8
レイヤー 1
 62
   250
420
  2299925
370
    25
100
AcDbLine
 10
94.40706623335389
 20
-154.9734014506571
 30
0.0
 11
93.99914928901123
 21
-155.4674314380533
 31
0.0
  0
LINE
  5
F1
330
70
100
AcDbEntity
  8
レイヤー 1
 62
   250
420
  2299925
370
    25
100
AcDbLine
 10
94.03153428900319
 20
-153.4665112113233
 30
0.0
 11
94.42357623334979
 21
-153.9736292539411
 31
0.0
  0
LINE
  5
F2
330
70
100
AcDbEntity
  8
レイヤー 1
 62
   250
420
  2299925
370
    25
100
AcDbLine
 10
94.42357623334979
 20
-153.9736292539411
 30
0.0
 11
94.01534178900753
 21
-154.4669889635767
 31
0.0
  0
SPLINE
  5
F3
330
70
100
AcDbEntity
  8
レイヤー 1
 62
   250
420
  2299925
370
     9
100
AcDbSpline
210
0.0
220
0.0
230
1.0
 70
     9
 71
     3
 72
    17
 73
    13
 74
     0
 42
0.0000000001
 43
0.0000000001
 40
0.0
 40
0.0
 40
0.0
 40
0.0
 40
1.0
 40
1.0
 40
1.0
 40
2.0
 40
2.0
 40
2.0
 40
3.0
 40
3.0
 40
3.0
 40
4.0
 40
4.0
 40
4.0
 40
4.0
 10
124.1092957264779
 20
-164.4515464113599
 30
0.0
 10
124.1092957264779
 20
-164.3957428769398
 30
0.0
 10
124.0644929498431
 20
-164.3509401003044
 30
0.0
 10
124.00938906236
 20
-164.3509401003044
 30
0.0
 10
123.9535796193394
 20
-164.3509401003044
 30
0.0
 10
123.9094823982422
 20
-164.3957428769398
 30
0.0
 10
123.9094823982422
 20
-164.4515464113599
 30
0.0
 10
123.9094823982422
 20
-164.5066562074435
 30
0.0
 10
123.9535796193394
 20
-164.5514589840776
 30
0.0
 10
124.00938906236
 20
-164.5514589840776
 30
0.0
 10
124.0644929498431
 20
-164.5514589840776
 30
0.0
 10
124.1092957264779
 20
-164.5066562074435
 30
0.0
 10
124.1092957264779
 20
-164.4515464113599
 30
0.0
  0
CIRCLE
  5
F4
330
70
100
AcDbEntity
  8
レイヤー 1
 62
   250
420
  2299925
370
     9
100
AcDbCircle
 10
90.00768040112046
 20
-130.4567223539071
 30
0.0
 40
0.0999066653797365
  0
SPLINE
  5
F5
330
70
100
AcDbEntity
  8
レイヤー 1
 62
   250
420
  2299925
370
    25
100
AcDbSpline
210
0.0
220
0.0
230
1.0
 70
     8
 71
     3
 72
    11
 73
     7
 74
     0
 42
0.0000000001
 43
0.0000000001
 40
0.0
 40
0.0
 40
0.0
 40
0.0
 40
1.0
 40
1.0
 40
1.0
 40
2.0
 40
2.0
 40
2.0
 40
2.0
 10
93.92612428902937
 20
-159.9315871574965
 30
0.0
 10
93.92062095569782
 20
-160.2623103012961
 30
0.0
 10
94.18485151118726
 20
-160.5358601976358
 30
0.0
 10
94.51625095554859
 20
-160.5406932530681
 30
0.0
 10
94.52281262221438
 20
-160.5413575234483
 30
0.0
 10
94.52933901110137
 20
-160.5413575234483
 30
0.0
 10
94.5359006777662
 20
-160.5406932530681
 30
0.0
  0
SPLINE
  5
F6
330
70
100
AcDbEntity
  8
レイヤー 1
 62
   250
420
  2299925
370
     9
100
AcDbSpline
210
0.0
220
0.0
230
1.0
 70
     9
 71
     3
 72
    17
 73
    13
 74
     0
 42
0.0000000001
 43
0.0000000001
 40
0.0
 40
0.0
 40
0.0
 40
0.0
 40
1.0
 40
1.0
 40
1.0
 40
2.0
 40
2.0
 40
2.0
 40
3.0
 40
3.0
 40
3.0
 40
4.0
 40
4.0
 40
4.0
 40
4.0
 10
94.02603095567164
 20
-164.4515464113599
 30
0.0
 10
94.02603095567164
 20
-164.3957428769398
 30
0.0
 10
93.98122817790492
 20
-164.3509401003044
 30
0.0
 10
93.92612428902937
 20
-164.3509401003044
 30
0.0
 10
93.87098512237693
 20
-164.3509401003044
 30
0.0
 10
93.82621762238773
 20
-164.3957428769398
 30
0.0
 10
93.82621762238773
 20
-164.4515464113599
 30
0.0
 10
93.82621762238773
 20
-164.5066562074435
 30
0.0
 10
93.87098512237693
 20
-164.5514589840776
 30
0.0
 10
93.92612428902937
 20
-164.5514589840776
 30
0.0
 10
93.98122817790492
 20
-164.5514589840776
 30
0.0
 10
94.02603095567164
 20
-164.5066562074435
 30
0.0
 10
94.02603095567164
 20
-164.4515464113599
 30
0.0
  0
SPLINE
  5
F7
330
70
100
AcDbEntity
  8
レイヤー 1
 62
   250
420
  2299925
370
     9
100
AcDbSpline
210
0.0
220
0.0
230
1.0
 70
     9
 71
     3
 72
    17
 73
    13
 74
     0
 42
0.0000000001
 43
0.0000000001
 40
0.0
 40
0.0
 40
0.0
 40
0.0
 40
1.0
 40
1.0
 40
1.0
 40
2.0
 40
2.0
 40
2.0
 40
3.0
 40
3.0
 40
3.0
 40
4.0
 40
4.0
 40
4.0
 40
4.0
 10
90.1075870677621
 20
-160.5406932530681
 30
0.0
 10
90.1075870677621
 20
-160.4855540878081
 30
0.0
 10
90.06278428999538
 20
-160.4407865889502
 30
0.0
 10
90.00768040112046
 20
-160.4407865889502
 30
0.0
 10
89.95254123446738
 20
-160.4407865889502
 30
0.0
 10
89.90777373447881
 20
-160.4855540878081
 30
0.0
 10
89.90777373447881
 20
-160.5406932530681
 30
0.0
 10
89.90777373447881
 20
-160.5965026960887
 30
0.0
 10
89.95254123446738
 20
-160.6412701949466
 30
0.0
 10
90.00768040112046
 20
-160.6412701949466
 30
0.0
 10
90.06278428999538
 20
-160.6412701949466
 30
0.0
 10
90.1075870677621
 20
-160.5965026960887
 30
0.0
 10
90.1075870677621
 20
-160.5406932530681
 30
0.0
  0
LINE
  5
F8
330
70
100
AcDbEntity
  8
レイヤー 1
 62
   250
420
  2299925
370
     9
100
AcDbLine
 10
93.92612428902937
 20
-164.4515464113599
 30
0.0
 11
124.00938906236
 21
-164.4515464113599
 31
0.0
  0
LINE
  5
F9
330
70
100
AcDbEntity
  8
レイヤー 1
 62
   250
420
  2299925
370
     9
100
AcDbLine
 10
93.92612428902937
 20
-162.4713048704807
 30
0.0
 11
93.92612428902937
 21
-165.4513186333318
 31
0.0
  0
LINE
  5
FA
330
70
100
AcDbEntity
  8
レイヤー 1
 62
   250
420
  2299925
370
     9
100
AcDbLine
 10
124.00938906236
 20
-162.5912140340882
 30
0.0
 11
124.00938906236
 21
-165.4513186333318
 31
0.0
  0
INSERT
  5
FC
330
70
100
AcDbEntity
  8
レイヤー 1
100
AcDbBlockReference
  2
Block_0
 10
0.0
 20
0.0
 30
0.0
  0
SPLINE
  5
108
330
70
100
AcDbEntity
  8
レイヤー 1
 62
   250
420
  2299925
370
    25
100
AcDbSpline
210
0.0
220
0.0
230
1.0
 70
     9
 71
     3
 72
    17
 73
    13
 74
     0
 42
0.0000000001
 43
0.0000000001
 40
0.0
 40
0.0
 40
0.0
 40
0.0
 40
1.0
 40
1.0
 40
1.0
 40
2.0
 40
2.0
 40
2.0
 40
3.0
 40
3.0
 40
3.0
 40
4.0
 40
4.0
 40
4.0
 40
4.0
 10
93.96126095568773
 20
-159.9315871574965
 30
0.0
 10
93.96126095568773
 20
-159.9508841014487
 30
0.0
 10
93.94542123346951
 20
-159.9667238232668
 30
0.0
 10
93.92612428902937
 20
-159.9667238232668
 30
0.0
 10
93.90682734459018
 20
-159.9667238232668
 30
0.0
 10
93.89098762237164
 20
-159.9508841014487
 30
0.0
 10
93.89098762237164
 20
-159.9315871574965
 30
0.0
 10
93.89098762237164
 20
-159.9116199357837
 30
0.0
 10
93.90682734459018
 20
-159.8957449361887
 30
0.0
 10
93.92612428902937
 20
-159.8957449361887
 30
0.0
 10
93.94542123346951
 20
-159.8957449361887
 30
0.0
 10
93.96126095568773
 20
-159.9116199357837
 30
0.0
 10
93.96126095568773
 20
-159.9315871574965
 30
0.0
  0
SPLINE
  5
109
330
70
100
AcDbEntity
  8
レイヤー 1
 62
   250
420
  2299925
370
    25
100
AcDbSpline
210
0.0
220
0.0
230
1.0
 70
     9
 71
     3
 72
    17
 73
    13
 74
     0
 42
0.0000000001
 43
0.0000000001
 40
0.0
 40
0.0
 40
0.0
 40
0.0
 40
1.0
 40
1.0
 40
1.0
 40
2.0
 40
2.0
 40
2.0
 40
3.0
 40
3.0
 40
3.0
 40
4.0
 40
4.0
 40
4.0
 40
4.0
 10
124.0445257281303
 20
-160.0514610433272
 30
0.0
 10
124.0445257281303
 20
-160.0707519680101
 30
0.0
 10
124.0286860063122
 20
-160.0866269680068
 30
0.0
 10
124.00938906236
 20
-160.0866269680068
 30
0.0
 10
123.9893865628703
 20
-160.0866269680068
 30
0.0
 10
123.9735481704075
 20
-160.0707519680101
 30
0.0
 10
123.9735481704075
 20
-160.0514610433272
 30
0.0
 10
123.9735481704075
 20
-160.0314938216144
 30
0.0
 10
123.9893865628703
 20
-160.0156540997963
 30
0.0
 10
124.00938906236
 20
-160.0156540997963
 30
0.0
 10
124.0286860063122
 20
-160.0156540997963
 30
0.0
 10
124.0445257281303
 20
-160.0314938216144
 30
0.0
 10
124.0445257281303
 20
-160.0514610433272
 30
0.0
  0
SPLINE
  5
10A
330
70
100
AcDbEntity
  8
レイヤー 1
 62
   250
420
  2299925
370
     9
100
AcDbSpline
210
0.0
220
0.0
230
1.0
 70
     9
 71
     3
 72
    17
 73
    13
 74
     0
 42
0.0000000001
 43
0.0000000001
 40
0.0
 40
0.0
 40
0.0
 40
0.0
 40
1.0
 40
1.0
 40
1.0
 40
2.0
 40
2.0
 40
2.0
 40
3.0
 40
3.0
 40
3.0
 40
4.0
 40
4.0
 40
4.0
 40
4.0
 10
124.0445257281303
 20
-164.4515464113599
 30
0.0
 10
124.0445257281303
 20
-164.4708492639125
 30
0.0
 10
124.0286860063122
 20
-164.4866889857306
 30
0.0
 10
124.00938906236
 20
-164.4866889857306
 30
0.0
 10
123.9893865628703
 20
-164.4866889857306
 30
0.0
 10
123.9735481704075
 20
-164.4708492639125
 30
0.0
 10
123.9735481704075
 20
-164.4515464113599
 30
0.0
 10
123.9735481704075
 20
-164.4315850982476
 30
0.0
 10
123.9893865628703
 20
-164.4157100986526
 30
0.0
 10
124.00938906236
 20
-164.4157100986526
 30
0.0
 10
124.0286860063122
 20
-164.4157100986526
 30
0.0
 10
124.0445257281303
 20
-164.4315850982476
 30
0.0
 10
124.0445257281303
 20
-164.4515464113599
 30
0.0
  0
LINE
  5
10B
330
70
100
AcDbEntity
  8
レイヤー 1
 62
   250
420
  2299925
370
     9
100
AcDbLine
 10
90.00768040112046
 20
-130.4567223539071
 30
0.0
 11
90.00768040112046
 21
-160.5406932530681
 31
0.0
  0
LINE
  5
10C
330
70
100
AcDbEntity
  8
レイヤー 1
 62
   250
420
  2299925
370
     9
100
AcDbLine
 10
91.86734845621073
 20
-130.4567223539071
 30
0.0
 11
89.00755540137016
 21
-130.4567223539071
 31
0.0
  0
LINE
  5
10D
330
70
100
AcDbEntity
  8
レイヤー 1
 62
   250
420
  2299925
370
     9
100
AcDbLine
 10
91.99618290062302
 20
-160.5406932530681
 30
0.0
 11
89.00755540137016
 21
-160.5406932530681
 31
0.0
  0
INSERT
  5
10F
330
70
100
AcDbEntity
  8
レイヤー 1
100
AcDbBlockReference
  2
Block_2
 10
0.0
 20
0.0
 30
0.0
  0
SPLINE
  5
11B
330
70
100
AcDbEntity
  8
レイヤー 1
 62
   250
420
  2299925
370
    25
100
AcDbSpline
210
0.0
220
0.0
230
1.0
 70
     9
 71
     3
 72
    17
 73
    13
 74
     0
 42
0.0000000001
 43
0.0000000001
 40
0.0
 40
0.0
 40
0.0
 40
0.0
 40
1.0
 40
1.0
 40
1.0
 40
2.0
 40
2.0
 40
2.0
 40
3.0
 40
3.0
 40
3.0
 40
4.0
 40
4.0
 40
4.0
 40
4.0
 10
94.44287317778995
 20
-130.4567223539071
 30
0.0
 10
94.44287317778995
 20
-130.4760192978593
 30
0.0
 10
94.42703345557109
 20
-130.4918590196773
 30
0.0
 10
94.40773651113126
 20
-130.4918590196773
 30
0.0
 10
94.38812206669181
 20
-130.4918590196773
 30
0.0
 10
94.37224706669576
 20
-130.4760192978593
 30
0.0
 10
94.37224706669576
 20
-130.4567223539071
 30
0.0
 10
94.37224706669576
 20
-130.4374186420854
 30
0.0
 10
94.38812206669181
 20
-130.4215856881368
 30
0.0
 10
94.40773651113126
 20
-130.4215856881368
 30
0.0
 10
94.42703345557109
 20
-130.4215856881368
 30
0.0
 10
94.44287317778995
 20
-130.4374186420854
 30
0.0
 10
94.44287317778995
 20
-130.4567223539071
 30
0.0
  0
SPLINE
  5
11C
330
70
100
AcDbEntity
  8
レイヤー 1
 62
   250
420
  2299925
370
    25
100
AcDbSpline
210
0.0
220
0.0
230
1.0
 70
     9
 71
     3
 72
    17
 73
    13
 74
     0
 42
0.0000000001
 43
0.0000000001
 40
0.0
 40
0.0
 40
0.0
 40
0.0
 40
1.0
 40
1.0
 40
1.0
 40
2.0
 40
2.0
 40
2.0
 40
3.0
 40
3.0
 40
3.0
 40
4.0
 40
4.0
 40
4.0
 40
4.0
 10
94.57103734442425
 20
-160.5406932530681
 30
0.0
 10
94.57103734442425
 20
-160.5606604747809
 30
0.0
 10
94.55555039998314
 20
-160.576500196599
 30
0.0
 10
94.5359006777662
 20
-160.576500196599
 30
0.0
 10
94.51660373332636
 20
-160.576500196599
 30
0.0
 10
94.50076401110878
 20
-160.5606604747809
 30
0.0
 10
94.50076401110878
 20
-160.5406932530681
 30
0.0
 10
94.50076401110878
 20
-160.5213963091159
 30
0.0
 10
94.51660373332636
 20
-160.5055565872978
 30
0.0
 10
94.5359006777662
 20
-160.5055565872978
 30
0.0
 10
94.55555039998314
 20
-160.5055565872978
 30
0.0
 10
94.57103734442425
 20
-160.5213963091159
 30
0.0
 10
94.57103734442425
 20
-160.5406932530681
 30
0.0
  0
SPLINE
  5
11D
330
70
100
AcDbEntity
  8
レイヤー 1
 62
   250
420
  2299925
370
     9
100
AcDbSpline
210
0.0
220
0.0
230
1.0
 70
     9
 71
     3
 72
    17
 73
    13
 74
     0
 42
0.0000000001
 43
0.0000000001
 40
0.0
 40
0.0
 40
0.0
 40
0.0
 40
1.0
 40
1.0
 40
1.0
 40
2.0
 40
2.0
 40
2.0
 40
3.0
 40
3.0
 40
3.0
 40
4.0
 40
4.0
 40
4.0
 40
4.0
 10
90.04281706777851
 20
-160.5406932530681
 30
0.0
 10
90.04281706777851
 20
-160.5606604747809
 30
0.0
 10
90.02697734556061
 20
-160.576500196599
 30
0.0
 10
90.00768040112046
 20
-160.576500196599
 30
0.0
 10
89.98838345668062
 20
-160.576500196599
 30
0.0
 10
89.97254373446272
 20
-160.5606604747809
 30
0.0
 10
89.97254373446272
 20
-160.5406932530681
 30
0.0
 10
89.97254373446272
 20
-160.5213963091159
 30
0.0
 10
89.98838345668062
 20
-160.5055565872978
 30
0.0
 10
90.00768040112046
 20
-160.5055565872978
 30
0.0
 10
90.02697734556061
 20
-160.5055565872978
 30
0.0
 10
90.04281706777851
 20
-160.5213963091159
 30
0.0
 10
90.04281706777851
 20
-160.5406932530681
 30
0.0
  0
LINE
  5
11E
330
70
100
AcDbEntity
  8
レイヤー 1
  6
AI-Linetype-0
 62
   154
420
    23468
370
    25
100
AcDbLine
 10
95.50359935607531
 20
-130.4565856813231
 30
0.0
 11
95.50359935607531
 21
-140.4565856788237
 31
0.0
  0
LINE
  5
120
330
70
100
AcDbEntity
  8
レイヤー 1
  6
AI-Linetype-1
 62
   154
420
    23468
370
    25
100
AcDbLine
 10
113.9735481609305
 20
-158.9620445912791
 30
0.0
 11
123.9735481584296
 21
-158.9620445912791
 31
0.0
  0
LINE
  5
122
330
70
100
AcDbEntity
  8
レイヤー 1
 62
   250
420
  2299925
370
     9
100
AcDbLine
 10
96.00316795444136
 20
-137.2129105220291
 30
0.0
 11
113.1990027935172
 21
-137.2129105220291
 31
0.0
  0
LINE
  5
123
330
70
100
AcDbEntity
  8
レイヤー 1
 62
   250
420
  2299925
370
     9
100
AcDbLine
 10
96.00316795444136
 20
-137.2129105220291
 30
0.0
 11
96.96914625272112
 21
-136.9541833064078
 31
0.0
  0
LINE
  5
124
330
70
100
AcDbEntity
  8
レイヤー 1
 62
   250
420
  2299925
370
     9
100
AcDbLine
 10
96.00316795444136
 20
-137.2129105220291
 30
0.0
 11
96.96914625272112
 21
-137.4716377376509
 31
0.0
  0
LINE
  5
125
330
70
100
AcDbEntity
  8
レイヤー 1
 62
   250
420
  2299925
370
     9
100
AcDbLine
 10
118.7538984965238
 20
-158.4618057151518
 30
0.0
 11
119.0122756461916
 21
-157.4957943509085
 31
0.0
  0
LINE
  5
126
330
70
100
AcDbEntity
  8
レイヤー 1
 62
   250
420
  2299925
370
     9
100
AcDbLine
 10
118.7538984965238
 20
-158.4618057151518
 30
0.0
 11
118.7538984965238
 21
-139.8410614046951
 31
0.0
  0
LINE
  5
127
330
70
100
AcDbEntity
  8
レイヤー 1
 62
   250
420
  2299925
370
     9
100
AcDbLine
 10
118.7538984965238
 20
-158.4618057151518
 30
0.0
 11
118.4948185031335
 21
-157.4957943509085
 31
0.0
  0
INSERT
  5
129
330
70
100
AcDbEntity
  8
レイヤー 1
100
AcDbBlockReference
  2
Block_4
 10
0.0
 20
0.0
 30
0.0
  0
ENDSEC
  0
SECTION
  2
OBJECTS
  0
DICTIONARY
  5
C
330
0
100
AcDbDictionary
281
     1
  3
ACAD_COLOR
350
63
  3
ACAD_DETAILVIEWSTYLE
350
6A
  3
ACAD_GROUP
350
D
  3
ACAD_LAYOUT
350
62
  3
ACAD_MATERIAL
350
10
  3
ACAD_MLEADERSTYLE
350
66
  3
ACAD_MLINESTYLE
350
5F
  3
ACAD_PLOTSETTINGS
350
61
  3
ACAD_PLOTSTYLENAME
350
E
  3
ACAD_SCALELIST
350
42
  3
ACAD_SECTIONVIEWSTYLE
350
68
  3
ACAD_TABLESTYLE
350
64
  3
ACAD_VISUALSTYLE
350
29
  3
ACDB_RECOMPOSE_DATA
350
14A
  3
AcDbVariableDictionary
350
142
  0
DICTIONARY
  5
63
102
{ACAD_REACTORS
330
C
102
}
330
C
100
AcDbDictionary
281
     1
  0
DICTIONARY
  5
6A
102
{ACAD_REACTORS
330
C
102
}
330
C
100
AcDbDictionary
281
     1
  3
Imperial24
350
6B
  0
DICTIONARY
  5
D
102
{ACAD_REACTORS
330
C
102
}
330
C
100
AcDbDictionary
281
     1
  0
DICTIONARY
  5
62
102
{ACAD_REACTORS
330
C
102
}
330
C
100
AcDbDictionary
281
     1
  3
Layout1
350
6F
  3
Layout2
350
77
  3
Model
350
73
  0
DICTIONARY
  5
10
102
{ACAD_REACTORS
330
C
102
}
330
C
100
AcDbDictionary
281
     1
  3
ByBlock
350
19
  3
ByLayer
350
11
  3
Global
350
21
  0
DICTIONARY
  5
66
102
{ACAD_REACTORS
330
C
102
}
330
C
100
AcDbDictionary
281
     1
  3
Standard
350
67
  0
DICTIONARY
  5
5F
102
{ACAD_REACTORS
330
C
102
}
330
C
100
AcDbDictionary
281
     1
  3
Standard
350
60
  0
DICTIONARY
  5
61
102
{ACAD_REACTORS
330
C
102
}
330
C
100
AcDbDictionary
281
     1
  0
ACDBDICTIONARYWDFLT
  5
E
102
{ACAD_REACTORS
330
C
102
}
330
C
100
AcDbDictionary
281
     1
  3
Normal
350
F
100
AcDbDictionaryWithDefault
340
F
  0
DICTIONARY
  5
42
102
{ACAD_REACTORS
330
C
102
}
330
C
100
AcDbDictionary
281
     1
  3
A0
350
43
  3
A1
350
44
  3
A2
350
45
  3
A3
350
46
  3
A4
350
47
  3
A5
350
48
  3
A6
350
49
  3
A7
350
4A
  3
A8
350
4B
  3
A9
350
4C
  3
B0
350
4D
  3
B1
350
4E
  3
B2
350
4F
  3
B3
350
50
  3
B4
350
51
  3
B5
350
52
  3
B6
350
53
  0
DICTIONARY
  5
68
102
{ACAD_REACTORS
330
C
102
}
330
C
100
AcDbDictionary
281
     1
  3
Imperial24
350
69
  0
DICTIONARY
  5
64
102
{ACAD_REACTORS
330
C
102
}
330
C
100
AcDbDictionary
281
     1
  3
Standard
350
65
  0
DICTIONARY
  5
29
102
{ACAD_REACTORS
330
C
102
}
330
C
100
AcDbDictionary
281
     1
  3
2dWireframe
350
2F
  3
Basic
350
2E
  3
Brighten
350
35
  3
ColorChange
350
39
  3
Conceptual
350
32
  3
Dim
350
34
  3
EdgeColorOff
350
41
  3
Facepattern
350
38
  3
Flat
350
2A
  3
FlatWithEdges
350
2B
  3
Gouraud
350
2C
  3
GouraudWithEdges
350
2D
  3
Hidden
350
31
  3
JitterOff
350
3F
  3
Linepattern
350
37
  3
OverhangOff
350
40
  3
Realistic
350
33
  3
Shaded
350
3E
  3
Shaded with edges
350
3D
  3
Shades of Gray
350
3A
  3
Sketchy
350
3B
  3
Thicken
350
36
  3
Wireframe
350
30
  3
X-Ray
350
3C
  0
XRECORD
  5
14A
102
{ACAD_REACTORS
330
C
102
}
330
C
100
AcDbXrecord
280
     1
 90
        1
330
65
  0
DICTIONARY
  5
142
102
{ACAD_REACTORS
330
C
102
}
330
C
100
AcDbDictionary
281
     1
  3
CANNOSCALE
350
147
  3
CMLEADERSTYLE
350
144
  3
CTABLESTYLE
350
143
  3
CVIEWDETAILSTYLE
350
145
  3
CVIEWSECTIONSTYLE
350
146
  0
ACDBDETAILVIEWSTYLE
  5
6B
102
{ACAD_XDICTIONARY
360
17F
102
}
102
{ACAD_REACTORS
330
6A
102
}
330
6A
100
AcDbModelDocViewStyle
 70
     0
  3
Imperial24
290
     0
100
AcDbDetailViewStyle
 70
     0
 71
     0
 90
        3
 71
     1
340
55
 62
   256
 40
0.24
340
0
 62
   256
 40
0.24
300

 40
0.36
280
     3
 71
     2
340
5D
 90
       25
 62
   256
 71
     3
340
55
 62
   256
 40
0.24
 90
        1
 40
0.75
 90
        1
300
%<\AcVar ViewType \f "%tc1">% %<\AcVar ViewDetailId>%\PSCALE %<\AcVar ViewScale \f "%sn">%
 71
     4
340
5D
 90
       25
 62
   256
340
5D
 90
       25
 62
   256
280
     0
  0
LAYOUT
  5
6F
102
{ACAD_REACTORS
330
62
102
}
330
62
100
AcDbPlotSettings
  1

  2

  4

  6

 40
0.0
 41
0.0
 42
0.0
 43
0.0
 44
0.0
 45
0.0
 46
0.0
 47
0.0
 48
0.0
 49
0.0
140
0.0
141
0.0
142
1.0
143
1.0
 70
   688
 72
     0
 73
     0
 74
     5
  7

 75
    16
147
1.0
 76
     0
 77
     2
 78
   300
148
0.0
149
0.0
100
AcDbLayout
  1
Layout1
 70
     1
 71
     1
 10
0.0
 20
0.0
 11
12.0
 21
9.0
 12
0.0
 22
0.0
 32
0.0
 14
0.0
 24
0.0
 34
0.0
 15
0.0
 25
0.0
 35
0.0
146
0.0
 13
0.0
 23
0.0
 33
0.0
 16
1.0
 26
0.0
 36
0.0
 17
0.0
 27
1.0
 37
0.0
 76
     0
330
6C
  0
LAYOUT
  5
77
102
{ACAD_REACTORS
330
62
102
}
330
62
100
AcDbPlotSettings
  1

  2

  4

  6

 40
0.0
 41
0.0
 42
0.0
 43
0.0
 44
0.0
 45
0.0
 46
0.0
 47
0.0
 48
0.0
 49
0.0
140
0.0
141
0.0
142
1.0
143
1.0
 70
   688
 72
     0
 73
     0
 74
     5
  7

 75
    16
147
1.0
 76
     0
 77
     2
 78
   300
148
0.0
149
0.0
100
AcDbLayout
  1
Layout2
 70
     1
 71
     2
 10
0.0
 20
0.0
 11
12.0
 21
9.0
 12
0.0
 22
0.0
 32
0.0
 14
0.0
 24
0.0
 34
0.0
 15
0.0
 25
0.0
 35
0.0
146
0.0
 13
0.0
 23
0.0
 33
0.0
 16
1.0
 26
0.0
 36
0.0
 17
0.0
 27
1.0
 37
0.0
 76
     0
330
74
  0
LAYOUT
  5
73
102
{ACAD_REACTORS
330
62
102
}
330
62
100
AcDbPlotSettings
  1

  2

  4

  6

 40
0.0
 41
0.0
 42
0.0
 43
0.0
 44
0.0
 45
0.0
 46
0.0
 47
0.0
 48
0.0
 49
0.0
140
0.0
141
0.0
142
1.0
143
1.0
 70
  1712
 72
     0
 73
     0
 74
     0
  7

 75
     0
147
1.0
 76
     0
 77
     2
 78
   300
148
0.0
149
0.0
100
AcDbLayout
  1
Model
 70
     1
 71
     0
 10
0.0
 20
0.0
 11
12.0
 21
9.0
 12
0.0
 22
0.0
 32
0.0
 14
0.0
 24
0.0
 34
0.0
 15
0.0
 25
0.0
 35
0.0
146
0.0
 13
0.0
 23
0.0
 33
0.0
 16
1.0
 26
0.0
 36
0.0
 17
0.0
 27
1.0
 37
0.0
 76
     0
330
70
  0
MATERIAL
  5
19
102
{ACAD_XDICTIONARY
360
1A
102
}
102
{ACAD_REACTORS
330
10
102
}
330
10
100
AcDbMaterial
  1
ByBlock
 72
     0
 43
0.0208333333333333
 43
0.0
 43
0.0
 43
0.0
 43
0.0
 43
0.0208333333333333
 43
0.0
 43
0.0
 43
0.0
 43
0.0
 43
1.0
 43
0.0
 43
0.0
 43
0.0
 43
0.0
 43
1.0
 77
     0
 47
0.0208333333333333
 47
0.0
 47
0.0
 47
0.0
 47
0.0
 47
0.0208333333333333
 47
0.0
 47
0.0
 47
0.0
 47
0.0
 47
1.0
 47
0.0
 47
0.0
 47
0.0
 47
0.0
 47
1.0
171
     0
 49
0.0208333333333333
 49
0.0
 49
0.0
 49
0.0
 49
0.0
 49
0.0208333333333333
 49
0.0
 49
0.0
 49
0.0
 49
0.0
 49
1.0
 49
0.0
 49
0.0
 49
0.0
 49
0.0
 49
1.0
175
     0
142
0.0208333333333333
142
0.0
142
0.0
142
0.0
142
0.0
142
0.0208333333333333
142
0.0
142
0.0
142
0.0
142
0.0
142
1.0
142
0.0
142
0.0
142
0.0
142
0.0
142
1.0
179
     0
144
0.0208333333333333
144
0.0
144
0.0
144
0.0
144
0.0
144
0.0208333333333333
144
0.0
144
0.0
144
0.0
144
0.0
144
1.0
144
0.0
144
0.0
144
0.0
144
0.0
144
1.0
147
0.0208333333333333
147
0.0
147
0.0
147
0.0
147
0.0
147
0.0208333333333333
147
0.0
147
0.0
147
0.0
147
0.0
147
1.0
147
0.0
147
0.0
147
0.0
147
0.0
147
1.0
  0
MATERIAL
  5
11
102
{ACAD_XDICTIONARY
360
12
102
}
102
{ACAD_REACTORS
330
10
102
}
330
10
100
AcDbMaterial
  1
ByLayer
 72
     0
 43
0.0208333333333333
 43
0.0
 43
0.0
 43
0.0
 43
0.0
 43
0.0208333333333333
 43
0.0
 43
0.0
 43
0.0
 43
0.0
 43
1.0
 43
0.0
 43
0.0
 43
0.0
 43
0.0
 43
1.0
 77
     0
 47
0.0208333333333333
 47
0.0
 47
0.0
 47
0.0
 47
0.0
 47
0.0208333333333333
 47
0.0
 47
0.0
 47
0.0
 47
0.0
 47
1.0
 47
0.0
 47
0.0
 47
0.0
 47
0.0
 47
1.0
171
     0
 49
0.0208333333333333
 49
0.0
 49
0.0
 49
0.0
 49
0.0
 49
0.0208333333333333
 49
0.0
 49
0.0
 49
0.0
 49
0.0
 49
1.0
 49
0.0
 49
0.0
 49
0.0
 49
0.0
 49
1.0
175
     0
142
0.0208333333333333
142
0.0
142
0.0
142
0.0
142
0.0
142
0.0208333333333333
142
0.0
142
0.0
142
0.0
142
0.0
142
1.0
142
0.0
142
0.0
142
0.0
142
0.0
142
1.0
179
     0
144
0.0208333333333333
144
0.0
144
0.0
144
0.0
144
0.0
144
0.0208333333333333
144
0.0
144
0.0
144
0.0
144
0.0
144
1.0
144
0.0
144
0.0
144
0.0
144
0.0
144
1.0
147
0.0208333333333333
147
0.0
147
0.0
147
0.0
147
0.0
147
0.0208333333333333
147
0.0
147
0.0
147
0.0
147
0.0
147
1.0
147
0.0
147
0.0
147
0.0
147
0.0
147
1.0
  0
MATERIAL
  5
21
102
{ACAD_XDICTIONARY
360
22
102
}
102
{ACAD_REACTORS
330
10
102
}
330
10
100
AcDbMaterial
  1
Global
 72
     0
 43
0.0208333333333333
 43
0.0
 43
0.0
 43
0.0
 43
0.0
 43
0.0208333333333333
 43
0.0
 43
0.0
 43
0.0
 43
0.0
 43
1.0
 43
0.0
 43
0.0
 43
0.0
 43
0.0
 43
1.0
 77
     0
 47
0.0208333333333333
 47
0.0
 47
0.0
 47
0.0
 47
0.0
 47
0.0208333333333333
 47
0.0
 47
0.0
 47
0.0
 47
0.0
 47
1.0
 47
0.0
 47
0.0
 47
0.0
 47
0.0
 47
1.0
171
     0
 49
0.0208333333333333
 49
0.0
 49
0.0
 49
0.0
 49
0.0
 49
0.0208333333333333
 49
0.0
 49
0.0
 49
0.0
 49
0.0
 49
1.0
 49
0.0
 49
0.0
 49
0.0
 49
0.0
 49
1.0
175
     0
142
0.0208333333333333
142
0.0
142
0.0
142
0.0
142
0.0
142
0.0208333333333333
142
0.0
142
0.0
142
0.0
142
0.0
142
1.0
142
0.0
142
0.0
142
0.0
142
0.0
142
1.0
179
     0
144
0.0208333333333333
144
0.0
144
0.0
144
0.0
144
0.0
144
0.0208333333333333
144
0.0
144
0.0
144
0.0
144
0.0
144
1.0
144
0.0
144
0.0
144
0.0
144
0.0
144
1.0
147
0.0208333333333333
147
0.0
147
0.0
147
0.0
147
0.0
147
0.0208333333333333
147
0.0
147
0.0
147
0.0
147
0.0
147
1.0
147
0.0
147
0.0
147
0.0
147
0.0
147
1.0
  0
MLEADERSTYLE
  5
67
102
{ACAD_XDICTIONARY
360
17B
102
}
102
{ACAD_REACTORS
330
66
102
}
330
66
100
AcDbMLeaderStyle
179
     2
170
     2
171
     1
172
     0
 90
        2
 40
0.0
 41
0.0
173
     1
 91
-1056964608
340
5B
 92
       -2
290
     1
 42
0.09
291
     1
 43
0.36
  3
Standard
 44
0.18
300

342
55
174
     1
178
     6
175
     1
176
     0
 93
-1056964608
 45
0.18
292
     0
297
     0
 46
0.18
 94
-1056964608
 47
1.0
 49
1.0
140
1.0
293
     1
141
0.0
294
     1
177
     0
142
1.0
295
     0
296
     0
143
0.125
271
     0
272
     9
273
     9
  0
MLINESTYLE
  5
60
102
{ACAD_REACTORS
330
5F
102
}
330
5F
100
AcDbMlineStyle
  2
STANDARD
 70
     0
  3

 62
   256
 51
90.0
 52
90.0
 71
     2
 49
0.5
 62
   256
  6
BYLAYER
 49
-0.5
 62
   256
  6
BYLAYER
  0
ACDBPLACEHOLDER
  5
F
102
{ACAD_REACTORS
330
E
102
}
330
E
  0
SCALE
  5
43
102
{ACAD_REACTORS
330
42
102
}
330
42
100
AcDbScale
 70
     0
300
1:1
140
1.0
141
1.0
290
     1
  0
SCALE
  5
44
102
{ACAD_REACTORS
330
42
102
}
330
42
100
AcDbScale
 70
     0
300
1/128" = 1'-0"
140
0.0078125
141
12.0
290
     0
  0
SCALE
  5
45
102
{ACAD_REACTORS
330
42
102
}
330
42
100
AcDbScale
 70
     0
300
1/64" = 1'-0"
140
0.015625
141
12.0
290
     0
  0
SCALE
  5
46
102
{ACAD_REACTORS
330
42
102
}
330
42
100
AcDbScale
 70
     0
300
1/32" = 1'-0"
140
0.03125
141
12.0
290
     0
  0
SCALE
  5
47
102
{ACAD_REACTORS
330
42
102
}
330
42
100
AcDbScale
 70
     0
300
1/16" = 1'-0"
140
0.0625
141
12.0
290
     0
  0
SCALE
  5
48
102
{ACAD_REACTORS
330
42
102
}
330
42
100
AcDbScale
 70
     0
300
3/32" = 1'-0"
140
0.09375
141
12.0
290
     0
  0
SCALE
  5
49
102
{ACAD_REACTORS
330
42
102
}
330
42
100
AcDbScale
 70
     0
300
1/8" = 1'-0"
140
0.125
141
12.0
290
     0
  0
SCALE
  5
4A
102
{ACAD_REACTORS
330
42
102
}
330
42
100
AcDbScale
 70
     0
300
3/16" = 1'-0"
140
0.1875
141
12.0
290
     0
  0
SCALE
  5
4B
102
{ACAD_REACTORS
330
42
102
}
330
42
100
AcDbScale
 70
     0
300
1/4" = 1'-0"
140
0.25
141
12.0
290
     0
  0
SCALE
  5
4C
102
{ACAD_REACTORS
330
42
102
}
330
42
100
AcDbScale
 70
     0
300
3/8" = 1'-0"
140
0.375
141
12.0
290
     0
  0
SCALE
  5
4D
102
{ACAD_REACTORS
330
42
102
}
330
42
100
AcDbScale
 70
     0
300
1/2" = 1'-0"
140
0.5
141
12.0
290
     0
  0
SCALE
  5
4E
102
{ACAD_REACTORS
330
42
102
}
330
42
100
AcDbScale
 70
     0
300
3/4" = 1'-0"
140
0.75
141
12.0
290
     0
  0
SCALE
  5
4F
102
{ACAD_REACTORS
330
42
102
}
330
42
100
AcDbScale
 70
     0
300
1" = 1'-0"
140
1.0
141
12.0
290
     0
  0
SCALE
  5
50
102
{ACAD_REACTORS
330
42
102
}
330
42
100
AcDbScale
 70
     0
300
1-1/2" = 1'-0"
140
1.5
141
12.0
290
     0
  0
SCALE
  5
51
102
{ACAD_REACTORS
330
42
102
}
330
42
100
AcDbScale
 70
     0
300
3" = 1'-0"
140
3.0
141
12.0
290
     0
  0
SCALE
  5
52
102
{ACAD_REACTORS
330
42
102
}
330
42
100
AcDbScale
 70
     0
300
6" = 1'-0"
140
6.0
141
12.0
290
     0
  0
SCALE
  5
53
102
{ACAD_REACTORS
330
42
102
}
330
42
100
AcDbScale
 70
     0
300
1'-0" = 1'-0"
140
12.0
141
12.0
290
     0
  0
ACDBSECTIONVIEWSTYLE
  5
69
102
{ACAD_XDICTIONARY
360
17D
102
}
102
{ACAD_REACTORS
330
68
102
}
330
68
100
AcDbModelDocViewStyle
 70
     0
  3
Imperial24
290
     0
100
AcDbSectionViewStyle
 70
     0
 71
     0
 90
       78
 71
     1
340
55
 62
   256
 40
0.24
340
0
340
0
 62
   256
 40
0.24
300
I, O, Q, S, X, Z
 40
0.48
 90
        3
 40
0.18
 90
        1
 71
     2
340
5D
 90
       25
 62
   256
340
5D
 90
       50
 62
   256
 40
0.24
 40
0.0
 40
0.24
 71
     3
340
55
 62
   256
 40
0.24
 90
        1
 40
0.75
 90
        1
300
%<\AcVar ViewType \f "%tc1">% %<\AcVar ViewSectionStartId>%-%<\AcVar ViewSectionEndId>%\PSCALE %<\AcVar ViewScale \f "%sn">%
 71
     4
 62
   256
 62
   257
300
ANSI31
 40
1.0
 90
        0
290
     0
290
     0
 90
        6
 40
0.0
 40
1.570796326794896
 40
0.2617993877991494
 40
1.308996938995747
 40
-0.2617993877991494
 40
1.832595714594046
  0
TABLESTYLE
  5
65
102
{ACAD_XDICTIONARY
360
148
102
}
102
{ACAD_REACTORS
330
64
102
}
330
64
100
AcDbTableStyle
280
     0
  3
Standard
 70
     0
 71
     0
 40
0.06
 41
0.06
280
     0
281
     0
  7
Standard
140
0.18
170
     2
 62
     0
 63
     7
283
     0
 90
      512
 91
        0
  1

274
    -2
284
     1
 64
     0
275
    -2
285
     1
 65
     0
276
    -2
286
     1
 66
     0
277
    -2
287
     1
 67
     0
278
    -2
288
     1
 68
     0
279
    -2
289
     1
 69
     0
  7
Standard
140
0.25
170
     5
 62
     0
 63
     7
283
     0
 90
      512
 91
        0
  1

274
    -2
284
     1
 64
     0
275
    -2
285
     1
 65
     0
276
    -2
286
     1
 66
     0
277
    -2
287
     1
 67
     0
278
    -2
288
     1
 68
     0
279
    -2
289
     1
 69
     0
  7
Standard
140
0.18
170
     5
 62
     0
 63
     7
283
     0
 90
      512
 91
        0
  1

274
    -2
284
     1
 64
     0
275
    -2
285
     1
 65
     0
276
    -2
286
     1
 66
     0
277
    -2
287
     1
 67
     0
278
    -2
288
     1
 68
     0
279
    -2
289
     1
 69
     0
  0
VISUALSTYLE
  5
2F
102
{ACAD_XDICTIONARY
360
155
102
}
102
{ACAD_REACTORS
330
29
102
}
330
29
100
AcDbVisualStyle
  2
2dWireframe
 70
     4
177
     2
291
     0
 71
     0
176
     1
 72
     2
176
     1
 73
     0
176
     1
 90
        0
176
     1
 40
0.6
176
     1
 41
30.0
176
     1
 63
     7
421
 16777215
176
     1
 74
     1
176
     1
 91
        4
176
     1
 64
     7
176
     1
 65
   257
176
     1
 75
     1
176
     1
175
     1
176
     1
 42
1.0
176
     1
 92
        0
176
     1
 66
   257
176
     1
 43
1.0
176
     1
 76
     1
176
     1
 77
     6
176
     1
 78
     2
176
     1
 67
     7
176
     1
 79
     5
176
     1
170
     0
176
     1
171
     0
176
     1
290
     0
176
     1
 93
        1
176
     1
 44
0.0
176
     1
173
     0
176
     1
1001
ACAD
1000
AcDbSavedByObjectVersion
1070
     0
  0
VISUALSTYLE
  5
2E
102
{ACAD_XDICTIONARY
360
153
102
}
102
{ACAD_REACTORS
330
29
102
}
330
29
100
AcDbVisualStyle
  2
Basic
 70
     7
177
     2
291
     1
 71
     1
176
     1
 72
     0
176
     1
 73
     1
176
     1
 90
        0
176
     1
 40
0.6
176
     1
 41
30.0
176
     1
 63
     7
421
 16777215
176
     1
 74
     0
176
     1
 91
        4
176
     1
 64
     7
176
     1
 65
   257
176
     1
 75
     1
176
     1
175
     1
176
     1
 42
1.0
176
     1
 92
        8
176
     1
 66
     7
176
     1
 43
1.0
176
     1
 76
     1
176
     1
 77
     6
176
     1
 78
     2
176
     1
 67
     7
176
     1
 79
     5
176
     1
170
     0
176
     1
171
     0
176
     1
290
     0
176
     1
 93
        1
176
     1
 44
0.0
176
     1
173
     0
176
     1
1001
ACAD
1000
AcDbSavedByObjectVersion
1070
     0
  0
VISUALSTYLE
  5
35
102
{ACAD_XDICTIONARY
360
161
102
}
102
{ACAD_REACTORS
330
29
102
}
330
29
100
AcDbVisualStyle
  2
Brighten
 70
    12
177
     2
291
     1
 71
     2
176
     1
 72
     2
176
     1
 73
     0
176
     1
 90
        0
176
     1
 40
0.6
176
     1
 41
30.0
176
     1
 63
     7
421
 16777215
176
     1
 74
     1
176
     1
 91
        4
176
     1
 64
     7
176
     1
 65
   257
176
     1
 75
     1
176
     1
175
     1
176
     1
 42
1.0
176
     1
 92
        8
176
     1
 66
     7
176
     1
 43
1.0
176
     1
 76
     1
176
     1
 77
     6
176
     1
 78
     2
176
     1
 67
     7
176
     1
 79
     5
176
     1
170
     0
176
     1
171
     0
176
     1
290
     0
176
     1
 93
        1
176
     1
 44
50.0
176
     1
173
     0
176
     1
1001
ACAD
1000
AcDbSavedByObjectVersion
1070
     0
  0
VISUALSTYLE
  5
39
102
{ACAD_XDICTIONARY
360
169
102
}
102
{ACAD_REACTORS
330
29
102
}
330
29
100
AcDbVisualStyle
  2
ColorChange
 70
    16
177
     2
291
     1
 71
     2
176
     1
 72
     2
176
     1
 73
     3
176
     1
 90
        0
176
     1
 40
0.6
176
     1
 41
30.0
176
     1
 63
     8
421
  8421504
176
     1
 74
     1
176
     1
 91
        4
176
     1
 64
     7
176
     1
 65
   257
176
     1
 75
     1
176
     1
175
     1
176
     1
 42
1.0
176
     1
 92
        8
176
     1
 66
     8
424
  8421504
176
     1
 43
1.0
176
     1
 76
     1
176
     1
 77
     6
176
     1
 78
     2
176
     1
 67
     7
176
     1
 79
     5
176
     1
170
     0
176
     1
171
     0
176
     1
290
     0
176
     1
 93
        1
176
     1
 44
0.0
176
     1
173
     0
176
     1
1001
ACAD
1000
AcDbSavedByObjectVersion
1070
     0
  0
VISUALSTYLE
  5
32
102
{ACAD_XDICTIONARY
360
15B
102
}
102
{ACAD_REACTORS
330
29
102
}
330
29
100
AcDbVisualStyle
  2
Conceptual
 70
     9
177
     2
291
     0
 71
     3
176
     1
 72
     2
176
     1
 73
     0
176
     1
 90
        0
176
     1
 40
0.6
176
     1
 41
30.0
176
     1
 63
     7
421
 16777215
176
     1
 74
     2
176
     1
 91
        2
176
     1
 64
     7
176
     1
 65
   257
176
     1
 75
     1
176
     1
175
     1
176
     1
 42
179.0
176
     1
 92
        8
176
     1
 66
     7
176
     1
 43
1.0
176
     1
 76
     1
176
     1
 77
     6
176
     1
 78
     2
176
     1
 67
     7
176
     1
 79
     3
176
     1
170
     0
176
     1
171
     0
176
     1
290
     0
176
     1
 93
        1
176
     1
 44
0.0
176
     1
173
     0
176
     1
1001
ACAD
1000
AcDbSavedByObjectVersion
1070
     0
  0
VISUALSTYLE
  5
34
102
{ACAD_XDICTIONARY
360
15F
102
}
102
{ACAD_REACTORS
330
29
102
}
330
29
100
AcDbVisualStyle
  2
Dim
 70
    11
177
     2
291
     1
 71
     2
176
     1
 72
     2
176
     1
 73
     0
176
     1
 90
        0
176
     1
 40
0.6
176
     1
 41
30.0
176
     1
 63
     7
421
 16777215
176
     1
 74
     1
176
     1
 91
        4
176
     1
 64
     7
176
     1
 65
   257
176
     1
 75
     1
176
     1
175
     1
176
     1
 42
1.0
176
     1
 92
        8
176
     1
 66
     7
176
     1
 43
1.0
176
     1
 76
     1
176
     1
 77
     6
176
     1
 78
     2
176
     1
 67
     7
176
     1
 79
     5
176
     1
170
     0
176
     1
171
     0
176
     1
290
     0
176
     1
 93
        1
176
     1
 44
-50.0
176
     1
173
     0
176
     1
1001
ACAD
1000
AcDbSavedByObjectVersion
1070
     0
  0
VISUALSTYLE
  5
41
102
{ACAD_XDICTIONARY
360
179
102
}
102
{ACAD_REACTORS
330
29
102
}
330
29
100
AcDbVisualStyle
  2
EdgeColorOff
 70
    22
177
     2
291
     1
 71
     2
176
     0
 72
     2
176
     0
 73
     0
176
     0
 90
        0
176
     0
 40
0.6
176
     0
 41
30.0
176
     0
 63
     7
421
 16777215
176
     0
 74
     1
176
     0
 91
        4
176
     0
 64
     7
176
     0
 65
   257
176
     0
 75
     1
176
     0
175
     1
176
     0
 42
1.0
176
     0
 92
        8
176
     2
 66
     7
176
     0
 43
1.0
176
     0
 76
     1
176
     0
 77
     6
176
     0
 78
     2
176
     0
 67
     7
176
     0
 79
     5
176
     0
170
     0
176
     0
171
     0
176
     0
290
     0
176
     0
 93
        1
176
     0
 44
0.0
176
     0
173
     0
176
     0
1001
ACAD
1000
AcDbSavedByObjectVersion
1070
     0
  0
VISUALSTYLE
  5
38
102
{ACAD_XDICTIONARY
360
167
102
}
102
{ACAD_REACTORS
330
29
102
}
330
29
100
AcDbVisualStyle
  2
Facepattern
 70
    15
177
     2
291
     1
 71
     2
176
     1
 72
     2
176
     1
 73
     0
176
     1
 90
        0
176
     1
 40
0.6
176
     1
 41
30.0
176
     1
 63
     7
421
 16777215
176
     1
 74
     1
176
     1
 91
        4
176
     1
 64
     7
176
     1
 65
   257
176
     1
 75
     1
176
     1
175
     1
176
     1
 42
1.0
176
     1
 92
        8
176
     1
 66
     7
176
     1
 43
1.0
176
     1
 76
     1
176
     1
 77
     6
176
     1
 78
     2
176
     1
 67
     7
176
     1
 79
     5
176
     1
170
     0
176
     1
171
     0
176
     1
290
     0
176
     1
 93
        1
176
     1
 44
0.0
176
     1
173
     0
176
     1
1001
ACAD
1000
AcDbSavedByObjectVersion
1070
     0
  0
VISUALSTYLE
  5
2A
102
{ACAD_XDICTIONARY
360
14B
102
}
102
{ACAD_REACTORS
330
29
102
}
330
29
100
AcDbVisualStyle
  2
Flat
 70
     0
177
     2
291
     1
 71
     2
176
     1
 72
     1
176
     1
 73
     1
176
     1
 90
        2
176
     1
 40
0.6
176
     1
 41
30.0
176
     1
 63
     7
421
 16777215
176
     1
 74
     0
176
     1
 91
        0
176
     1
 64
     7
176
     1
 65
   257
176
     1
 75
     1
176
     1
175
     1
176
     1
 42
1.0
176
     1
 92
        8
176
     1
 66
     7
176
     1
 43
1.0
176
     1
 76
     1
176
     1
 77
     6
176
     1
 78
     2
176
     1
 67
     7
176
     1
 79
     5
176
     1
170
     0
176
     1
171
     0
176
     1
290
     0
176
     1
 93
       13
176
     1
 44
0.0
176
     1
173
     0
176
     1
1001
ACAD
1000
AcDbSavedByObjectVersion
1070
     0
  0
VISUALSTYLE
  5
2B
102
{ACAD_XDICTIONARY
360
14D
102
}
102
{ACAD_REACTORS
330
29
102
}
330
29
100
AcDbVisualStyle
  2
FlatWithEdges
 70
     1
177
     2
291
     1
 71
     2
176
     1
 72
     1
176
     1
 73
     1
176
     1
 90
        2
176
     1
 40
0.6
176
     1
 41
30.0
176
     1
 63
     7
421
 16777215
176
     1
 74
     1
176
     1
 91
        0
176
     1
 64
     7
176
     1
 65
   257
176
     1
 75
     1
176
     1
175
     1
176
     1
 42
1.0
176
     1
 92
        0
176
     1
 66
   257
176
     1
 43
1.0
176
     1
 76
     1
176
     1
 77
     6
176
     1
 78
     2
176
     1
 67
     7
176
     1
 79
     5
176
     1
170
     0
176
     1
171
     0
176
     1
290
     0
176
     1
 93
       13
176
     1
 44
0.0
176
     1
173
     0
176
     1
1001
ACAD
1000
AcDbSavedByObjectVersion
1070
     0
  0
VISUALSTYLE
  5
2C
102
{ACAD_XDICTIONARY
360
14F
102
}
102
{ACAD_REACTORS
330
29
102
}
330
29
100
AcDbVisualStyle
  2
Gouraud
 70
     2
177
     2
291
     1
 71
     2
176
     1
 72
     2
176
     1
 73
     1
176
     1
 90
        2
176
     1
 40
0.6
176
     1
 41
30.0
176
     1
 63
     7
421
 16777215
176
     1
 74
     0
176
     1
 91
        0
176
     1
 64
     7
176
     1
 65
   257
176
     1
 75
     1
176
     1
175
     1
176
     1
 42
1.0
176
     1
 92
        0
176
     1
 66
     7
176
     1
 43
1.0
176
     1
 76
     1
176
     1
 77
     6
176
     1
 78
     2
176
     1
 67
     7
176
     1
 79
     5
176
     1
170
     0
176
     1
171
     0
176
     1
290
     0
176
     1
 93
       13
176
     1
 44
0.0
176
     1
173
     0
176
     1
1001
ACAD
1000
AcDbSavedByObjectVersion
1070
     0
  0
VISUALSTYLE
  5
2D
102
{ACAD_XDICTIONARY
360
151
102
}
102
{ACAD_REACTORS
330
29
102
}
330
29
100
AcDbVisualStyle
  2
GouraudWithEdges
 70
     3
177
     2
291
     1
 71
     2
176
     1
 72
     2
176
     1
 73
     1
176
     1
 90
        2
176
     1
 40
0.6
176
     1
 41
30.0
176
     1
 63
     7
421
 16777215
176
     1
 74
     1
176
     1
 91
        0
176
     1
 64
     7
176
     1
 65
   257
176
     1
 75
     1
176
     1
175
     1
176
     1
 42
1.0
176
     1
 92
        0
176
     1
 66
   257
176
     1
 43
1.0
176
     1
 76
     1
176
     1
 77
     6
176
     1
 78
     2
176
     1
 67
     7
176
     1
 79
     5
176
     1
170
     0
176
     1
171
     0
176
     1
290
     0
176
     1
 93
       13
176
     1
 44
0.0
176
     1
173
     0
176
     1
1001
ACAD
1000
AcDbSavedByObjectVersion
1070
     0
  0
VISUALSTYLE
  5
31
102
{ACAD_XDICTIONARY
360
159
102
}
102
{ACAD_REACTORS
330
29
102
}
330
29
100
AcDbVisualStyle
  2
Hidden
 70
     6
177
     2
291
     0
 71
     1
176
     1
 72
     2
176
     1
 73
     2
176
     1
 90
        0
176
     1
 40
0.6
176
     1
 41
30.0
176
     1
 63
     7
421
 16777215
176
     1
 74
     2
176
     1
 91
        2
176
     1
 64
     7
176
     1
 65
   257
176
     1
 75
     2
176
     1
175
     1
176
     1
 42
40.0
176
     1
 92
        0
176
     1
 66
   257
176
     1
 43
1.0
176
     1
 76
     1
176
     1
 77
     6
176
     1
 78
     2
176
     1
 67
     7
176
     1
 79
     3
176
     1
170
     0
176
     1
171
     0
176
     1
290
     0
176
     1
 93
        1
176
     1
 44
0.0
176
     1
173
     0
176
     1
1001
ACAD
1000
AcDbSavedByObjectVersion
1070
     0
  0
VISUALSTYLE
  5
3F
102
{ACAD_XDICTIONARY
360
175
102
}
102
{ACAD_REACTORS
330
29
102
}
330
29
100
AcDbVisualStyle
  2
JitterOff
 70
    20
177
     2
291
     1
 71
     2
176
     0
 72
     2
176
     0
 73
     0
176
     0
 90
        0
176
     0
 40
0.6
176
     0
 41
30.0
176
     0
 63
     7
421
 16777215
176
     0
 74
     1
176
     0
 91
        4
176
     0
 64
     7
176
     0
 65
   257
176
     0
 75
     1
176
     0
175
     1
176
     0
 42
1.0
176
     0
 92
       10
176
     2
 66
     7
176
     0
 43
1.0
176
     0
 76
     1
176
     0
 77
     6
176
     0
 78
     2
176
     0
 67
     7
176
     0
 79
     5
176
     0
170
     0
176
     0
171
     0
176
     0
290
     0
176
     0
 93
        1
176
     0
 44
0.0
176
     0
173
     0
176
     0
1001
ACAD
1000
AcDbSavedByObjectVersion
1070
     0
  0
VISUALSTYLE
  5
37
102
{ACAD_XDICTIONARY
360
165
102
}
102
{ACAD_REACTORS
330
29
102
}
330
29
100
AcDbVisualStyle
  2
Linepattern
 70
    14
177
     2
291
     1
 71
     2
176
     1
 72
     2
176
     1
 73
     0
176
     1
 90
        0
176
     1
 40
0.6
176
     1
 41
30.0
176
     1
 63
     7
421
 16777215
176
     1
 74
     1
176
     1
 91
        4
176
     1
 64
     7
176
     1
 65
   257
176
     1
 75
     7
176
     1
175
     7
176
     1
 42
1.0
176
     1
 92
        8
176
     1
 66
     7
176
     1
 43
1.0
176
     1
 76
     1
176
     1
 77
     6
176
     1
 78
     2
176
     1
 67
     7
176
     1
 79
     5
176
     1
170
     0
176
     1
171
     0
176
     1
290
     0
176
     1
 93
        1
176
     1
 44
0.0
176
     1
173
     0
176
     1
1001
ACAD
1000
AcDbSavedByObjectVersion
1070
     0
  0
VISUALSTYLE
  5
40
102
{ACAD_XDICTIONARY
360
177
102
}
102
{ACAD_REACTORS
330
29
102
}
330
29
100
AcDbVisualStyle
  2
OverhangOff
 70
    21
177
     2
291
     1
 71
     2
176
     0
 72
     2
176
     0
 73
     0
176
     0
 90
        0
176
     0
 40
0.6
176
     0
 41
30.0
176
     0
 63
     7
421
 16777215
176
     0
 74
     1
176
     0
 91
        4
176
     0
 64
     7
176
     0
 65
   257
176
     0
 75
     1
176
     0
175
     1
176
     0
 42
1.0
176
     0
 92
        9
176
     2
 66
     7
176
     0
 43
1.0
176
     0
 76
     1
176
     0
 77
     6
176
     0
 78
     2
176
     0
 67
     7
176
     0
 79
     5
176
     0
170
     0
176
     0
171
     0
176
     0
290
     0
176
     0
 93
        1
176
     0
 44
0.0
176
     0
173
     0
176
     0
1001
ACAD
1000
AcDbSavedByObjectVersion
1070
     0
  0
VISUALSTYLE
  5
33
102
{ACAD_XDICTIONARY
360
15D
102
}
102
{ACAD_REACTORS
330
29
102
}
330
29
100
AcDbVisualStyle
  2
Realistic
 70
     8
177
     2
291
     0
 71
     2
176
     1
 72
     3
176
     1
 73
     0
176
     1
 90
        2
176
     1
 40
0.6
176
     1
 41
30.0
176
     1
 63
     7
421
 16777215
176
     1
 74
     0
176
     1
 91
        0
176
     1
 64
     7
176
     1
 65
   257
176
     1
 75
     1
176
     1
175
     1
176
     1
 42
1.0
176
     1
 92
        8
176
     1
 66
   257
176
     1
 43
1.0
176
     1
 76
     1
176
     1
 77
     6
176
     1
 78
     2
176
     1
 67
     7
176
     1
 79
     3
176
     1
170
     0
176
     1
171
     0
176
     1
290
     0
176
     1
 93
       13
176
     1
 44
0.0
176
     1
173
     0
176
     1
1001
ACAD
1000
AcDbSavedByObjectVersion
1070
     0
  0
VISUALSTYLE
  5
3E
102
{ACAD_XDICTIONARY
360
173
102
}
102
{ACAD_REACTORS
330
29
102
}
330
29
100
AcDbVisualStyle
  2
Shaded
 70
    27
177
     2
291
     0
 71
     2
176
     1
 72
     2
176
     1
 73
     1
176
     1
 90
        2
176
     1
 40
0.6
176
     1
 41
30.0
176
     1
 63
     7
421
 16777215
176
     1
 74
     0
176
     1
 91
        4
176
     1
 64
     7
176
     1
 65
   257
176
     1
 75
     1
176
     1
175
     1
176
     1
 42
1.0
176
     1
 92
        8
176
     1
 66
   257
176
     1
 43
1.0
176
     1
 76
     1
176
     1
 77
     6
176
     1
 78
     2
176
     1
 67
     8
425
  7895160
176
     1
 79
     3
176
     1
170
     0
176
     1
171
     0
176
     1
290
     0
176
     1
 93
        5
176
     1
 44
0.0
176
     1
173
     0
176
     1
1001
ACAD
1000
AcDbSavedByObjectVersion
1070
     0
  0
VISUALSTYLE
  5
3D
102
{ACAD_XDICTIONARY
360
171
102
}
102
{ACAD_REACTORS
330
29
102
}
330
29
100
AcDbVisualStyle
  2
Shaded with edges
 70
    26
177
     2
291
     0
 71
     2
176
     1
 72
     2
176
     1
 73
     1
176
     1
 90
        2
176
     1
 40
0.6
176
     1
 41
30.0
176
     1
 63
     7
421
 16777215
176
     1
 74
     1
176
     1
 91
        2
176
     1
 64
     7
176
     1
 65
   257
176
     1
 75
     2
176
     1
175
     1
176
     1
 42
1.0
176
     1
 92
        8
176
     1
 66
   257
176
     1
 43
1.0
176
     1
 76
     1
176
     1
 77
     6
176
     1
 78
     2
176
     1
 67
     7
176
     1
 79
     3
176
     1
170
     0
176
     1
171
     0
176
     1
290
     0
176
     1
 93
        5
176
     1
 44
0.0
176
     1
173
     0
176
     1
1001
ACAD
1000
AcDbSavedByObjectVersion
1070
     0
  0
VISUALSTYLE
  5
3A
102
{ACAD_XDICTIONARY
360
16B
102
}
102
{ACAD_REACTORS
330
29
102
}
330
29
100
AcDbVisualStyle
  2
Shades of Gray
 70
    23
177
     2
291
     0
 71
     2
176
     1
 72
     2
176
     1
 73
     3
176
     1
 90
        0
176
     1
 40
0.6
176
     1
 41
30.0
176
     1
 63
     7
421
 16777215
176
     1
 74
     2
176
     1
 91
        2
176
     1
 64
     7
176
     1
 65
     7
176
     1
 75
     1
176
     1
175
     1
176
     1
 42
40.0
176
     1
 92
        8
176
     1
 66
     7
176
     1
 43
1.0
176
     1
 76
     1
176
     1
 77
     6
176
     1
 78
     2
176
     1
 67
     7
176
     1
 79
     3
176
     1
170
     0
176
     1
171
     0
176
     1
290
     0
176
     1
 93
        1
176
     1
 44
0.0
176
     1
173
     0
176
     1
1001
ACAD
1000
AcDbSavedByObjectVersion
1070
     0
  0
VISUALSTYLE
  5
3B
102
{ACAD_XDICTIONARY
360
16D
102
}
102
{ACAD_REACTORS
330
29
102
}
330
29
100
AcDbVisualStyle
  2
Sketchy
 70
    24
177
     2
291
     0
 71
     1
176
     1
 72
     2
176
     1
 73
     2
176
     1
 90
        0
176
     1
 40
0.6
176
     1
 41
30.0
176
     1
 63
     7
421
 16777215
176
     1
 74
     2
176
     1
 91
        2
176
     1
 64
     7
176
     1
 65
     7
176
     1
 75
     1
176
     1
175
     1
176
     1
 42
40.0
176
     1
 92
       11
176
     1
 66
     7
176
     1
 43
1.0
176
     1
 76
     1
176
     1
 77
     6
176
     1
 78
     2
176
     1
 67
     7
176
     1
 79
     6
176
     1
170
     0
176
     1
171
     0
176
     1
290
     0
176
     1
 93
        1
176
     1
 44
0.0
176
     1
173
     0
176
     1
1001
ACAD
1000
AcDbSavedByObjectVersion
1070
     0
  0
VISUALSTYLE
  5
36
102
{ACAD_XDICTIONARY
360
163
102
}
102
{ACAD_REACTORS
330
29
102
}
330
29
100
AcDbVisualStyle
  2
Thicken
 70
    13
177
     2
291
     1
 71
     2
176
     1
 72
     2
176
     1
 73
     0
176
     1
 90
        0
176
     1
 40
0.6
176
     1
 41
30.0
176
     1
 63
     7
421
 16777215
176
     1
 74
     1
176
     1
 91
        4
176
     1
 64
     7
176
     1
 65
   257
176
     1
 75
     1
176
     1
175
     1
176
     1
 42
1.0
176
     1
 92
       12
176
     1
 66
     7
176
     1
 43
1.0
176
     1
 76
     1
176
     1
 77
     6
176
     1
 78
     2
176
     1
 67
     7
176
     1
 79
     5
176
     1
170
     0
176
     1
171
     0
176
     1
290
     0
176
     1
 93
        1
176
     1
 44
0.0
176
     1
173
     0
176
     1
1001
ACAD
1000
AcDbSavedByObjectVersion
1070
     0
  0
VISUALSTYLE
  5
30
102
{ACAD_XDICTIONARY
360
157
102
}
102
{ACAD_REACTORS
330
29
102
}
330
29
100
AcDbVisualStyle
  2
Wireframe
 70
     5
177
     2
291
     0
 71
     0
176
     1
 72
     2
176
     1
 73
     0
176
     1
 90
        0
176
     1
 40
0.6
176
     1
 41
30.0
176
     1
 63
     7
421
 16777215
176
     1
 74
     1
176
     1
 91
        4
176
     1
 64
     7
176
     1
 65
   257
176
     1
 75
     1
176
     1
175
     1
176
     1
 42
1.0
176
     1
 92
        0
176
     1
 66
   257
176
     1
 43
1.0
176
     1
 76
     1
176
     1
 77
     6
176
     1
 78
     2
176
     1
 67
     7
176
     1
 79
     3
176
     1
170
     0
176
     1
171
     0
176
     1
290
     0
176
     1
 93
        1
176
     1
 44
0.0
176
     1
173
     0
176
     1
1001
ACAD
1000
AcDbSavedByObjectVersion
1070
     0
  0
VISUALSTYLE
  5
3C
102
{ACAD_XDICTIONARY
360
16F
102
}
102
{ACAD_REACTORS
330
29
102
}
330
29
100
AcDbVisualStyle
  2
X-Ray
 70
    25
177
     2
291
     0
 71
     2
176
     1
 72
     2
176
     1
 73
     1
176
     1
 90
        1
176
     1
 40
0.5
176
     1
 41
30.0
176
     1
 63
     7
421
 16777215
176
     1
 74
     1
176
     1
 91
        0
176
     1
 64
     7
176
     1
 65
   257
176
     1
 75
     1
176
     1
175
     1
176
     1
 42
1.0
176
     1
 92
        8
176
     1
 66
     7
176
     1
 43
1.0
176
     1
 76
     1
176
     1
 77
     6
176
     1
 78
     2
176
     1
 67
     7
176
     1
 79
     3
176
     1
170
     0
176
     1
171
     0
176
     1
290
     0
176
     1
 93
       13
176
     1
 44
0.0
176
     1
173
     0
176
     1
1001
ACAD
1000
AcDbSavedByObjectVersion
1070
     0
  0
DICTIONARYVAR
  5
147
102
{ACAD_REACTORS
330
142
102
}
330
142
100
DictionaryVariables
280
     0
  1
1:1
  0
DICTIONARYVAR
  5
144
102
{ACAD_REACTORS
330
142
102
}
330
142
100
DictionaryVariables
280
     0
  1
STANDARD
  0
DICTIONARYVAR
  5
143
102
{ACAD_REACTORS
330
142
102
}
330
142
100
DictionaryVariables
280
     0
  1
STANDARD
  0
DICTIONARYVAR
  5
145
102
{ACAD_REACTORS
330
142
102
}
330
142
100
DictionaryVariables
280
     0
  1
Imperial24
  0
DICTIONARYVAR
  5
146
102
{ACAD_REACTORS
330
142
102
}
330
142
100
DictionaryVariables
280
     0
  1
Imperial24
  0
DICTIONARY
  5
17F
330
6B
100
AcDbDictionary
280
     1
281
     1
  3
ACAD_XREC_ROUNDTRIP
360
180
  0
DICTIONARY
  5
1A
330
19
100
AcDbDictionary
280
     1
281
     1
  3
BUMPTILE
360
1C
  3
DIFFUSETILE
360
1B
  3
OPACITYTILE
360
1F
  3
REFLECTIONTILE
360
1E
  3
REFRACTIONTILE
360
20
  3
SPECULARTILE
360
1D
  0
DICTIONARY
  5
12
330
11
100
AcDbDictionary
280
     1
281
     1
  3
BUMPTILE
360
14
  3
DIFFUSETILE
360
13
  3
OPACITYTILE
360
17
  3
REFLECTIONTILE
360
16
  3
REFRACTIONTILE
360
18
  3
SPECULARTILE
360
15
  0
DICTIONARY
  5
22
330
21
100
AcDbDictionary
280
     1
281
     1
  3
BUMPTILE
360
24
  3
DIFFUSETILE
360
23
  3
OPACITYTILE
360
27
  3
REFLECTIONTILE
360
26
  3
REFRACTIONTILE
360
28
  3
SPECULARTILE
360
25
  0
DICTIONARY
  5
17B
330
67
100
AcDbDictionary
280
     1
281
     1
  3
ACAD_XREC_ROUNDTRIP
360
17C
  0
DICTIONARY
  5
17D
330
69
100
AcDbDictionary
280
     1
281
     1
  3
ACAD_XREC_ROUNDTRIP
360
17E
  0
DICTIONARY
  5
148
330
65
100
AcDbDictionary
280
     1
281
     1
  3
ACAD_ROUNDTRIP_2008_TABLESTYLE_CELLSTYLEMAP
360
149
  0
DICTIONARY
  5
155
330
2F
100
AcDbDictionary
280
     1
281
     1
  3
ACAD_XREC_ROUNDTRIP
360
156
  0
DICTIONARY
  5
153
330
2E
100
AcDbDictionary
280
     1
281
     1
  3
ACAD_XREC_ROUNDTRIP
360
154
  0
DICTIONARY
  5
161
330
35
100
AcDbDictionary
280
     1
281
     1
  3
ACAD_XREC_ROUNDTRIP
360
162
  0
DICTIONARY
  5
169
330
39
100
AcDbDictionary
280
     1
281
     1
  3
ACAD_XREC_ROUNDTRIP
360
16A
  0
DICTIONARY
  5
15B
330
32
100
AcDbDictionary
280
     1
281
     1
  3
ACAD_XREC_ROUNDTRIP
360
15C
  0
DICTIONARY
  5
15F
330
34
100
AcDbDictionary
280
     1
281
     1
  3
ACAD_XREC_ROUNDTRIP
360
160
  0
DICTIONARY
  5
179
330
41
100
AcDbDictionary
280
     1
281
     1
  3
ACAD_XREC_ROUNDTRIP
360
17A
  0
DICTIONARY
  5
167
330
38
100
AcDbDictionary
280
     1
281
     1
  3
ACAD_XREC_ROUNDTRIP
360
168
  0
DICTIONARY
  5
14B
330
2A
100
AcDbDictionary
280
     1
281
     1
  3
ACAD_XREC_ROUNDTRIP
360
14C
  0
DICTIONARY
  5
14D
330
2B
100
AcDbDictionary
280
     1
281
     1
  3
ACAD_XREC_ROUNDTRIP
360
14E
  0
DICTIONARY
  5
14F
330
2C
100
AcDbDictionary
280
     1
281
     1
  3
ACAD_XREC_ROUNDTRIP
360
150
  0
DICTIONARY
  5
151
330
2D
100
AcDbDictionary
280
     1
281
     1
  3
ACAD_XREC_ROUNDTRIP
360
152
  0
DICTIONARY
  5
159
330
31
100
AcDbDictionary
280
     1
281
     1
  3
ACAD_XREC_ROUNDTRIP
360
15A
  0
DICTIONARY
  5
175
330
3F
100
AcDbDictionary
280
     1
281
     1
  3
ACAD_XREC_ROUNDTRIP
360
176
  0
DICTIONARY
  5
165
330
37
100
AcDbDictionary
280
     1
281
     1
  3
ACAD_XREC_ROUNDTRIP
360
166
  0
DICTIONARY
  5
177
330
40
100
AcDbDictionary
280
     1
281
     1
  3
ACAD_XREC_ROUNDTRIP
360
178
  0
DICTIONARY
  5
15D
330
33
100
AcDbDictionary
280
     1
281
     1
  3
ACAD_XREC_ROUNDTRIP
360
15E
  0
DICTIONARY
  5
173
330
3E
100
AcDbDictionary
280
     1
281
     1
  3
ACAD_XREC_ROUNDTRIP
360
174
  0
DICTIONARY
  5
171
330
3D
100
AcDbDictionary
280
     1
281
     1
  3
ACAD_XREC_ROUNDTRIP
360
172
  0
DICTIONARY
  5
16B
330
3A
100
AcDbDictionary
280
     1
281
     1
  3
ACAD_XREC_ROUNDTRIP
360
16C
  0
DICTIONARY
  5
16D
330
3B
100
AcDbDictionary
280
     1
281
     1
  3
ACAD_XREC_ROUNDTRIP
360
16E
  0
DICTIONARY
  5
163
330
36
100
AcDbDictionary
280
     1
281
     1
  3
ACAD_XREC_ROUNDTRIP
360
164
  0
DICTIONARY
  5
157
330
30
100
AcDbDictionary
280
     1
281
     1
  3
ACAD_XREC_ROUNDTRIP
360
158
  0
DICTIONARY
  5
16F
330
3C
100
AcDbDictionary
280
     1
281
     1
  3
ACAD_XREC_ROUNDTRIP
360
170
  0
XRECORD
  5
180
102
{ACAD_REACTORS
330
17F
102
}
330
17F
100
AcDbXrecord
280
     1
102
DISPLAYNAME
  1
Imperial24
102
FLAGS
 90
        0
  0
XRECORD
  5
1C
102
{ACAD_REACTORS
330
1A
102
}
330
1A
100
AcDbXrecord
280
     1
270
     1
271
     1
  0
XRECORD
  5
1B
102
{ACAD_REACTORS
330
1A
102
}
330
1A
100
AcDbXrecord
280
     1
270
     1
271
     1
  0
XRECORD
  5
1F
102
{ACAD_REACTORS
330
1A
102
}
330
1A
100
AcDbXrecord
280
     1
270
     1
271
     1
  0
XRECORD
  5
1E
102
{ACAD_REACTORS
330
1A
102
}
330
1A
100
AcDbXrecord
280
     1
270
     1
271
     1
  0
XRECORD
  5
20
102
{ACAD_REACTORS
330
1A
102
}
330
1A
100
AcDbXrecord
280
     1
270
     1
271
     1
  0
XRECORD
  5
1D
102
{ACAD_REACTORS
330
1A
102
}
330
1A
100
AcDbXrecord
280
     1
270
     1
271
     1
  0
XRECORD
  5
14
102
{ACAD_REACTORS
330
12
102
}
330
12
100
AcDbXrecord
280
     1
270
     1
271
     1
  0
XRECORD
  5
13
102
{ACAD_REACTORS
330
12
102
}
330
12
100
AcDbXrecord
280
     1
270
     1
271
     1
  0
XRECORD
  5
17
102
{ACAD_REACTORS
330
12
102
}
330
12
100
AcDbXrecord
280
     1
270
     1
271
     1
  0
XRECORD
  5
16
102
{ACAD_REACTORS
330
12
102
}
330
12
100
AcDbXrecord
280
     1
270
     1
271
     1
  0
XRECORD
  5
18
102
{ACAD_REACTORS
330
12
102
}
330
12
100
AcDbXrecord
280
     1
270
     1
271
     1
  0
XRECORD
  5
15
102
{ACAD_REACTORS
330
12
102
}
330
12
100
AcDbXrecord
280
     1
270
     1
271
     1
  0
XRECORD
  5
24
102
{ACAD_REACTORS
330
22
102
}
330
22
100
AcDbXrecord
280
     1
270
     1
271
     1
  0
XRECORD
  5
23
102
{ACAD_REACTORS
330
22
102
}
330
22
100
AcDbXrecord
280
     1
270
     1
271
     1
  0
XRECORD
  5
27
102
{ACAD_REACTORS
330
22
102
}
330
22
100
AcDbXrecord
280
     1
270
     1
271
     1
  0
XRECORD
  5
26
102
{ACAD_REACTORS
330
22
102
}
330
22
100
AcDbXrecord
280
     1
270
     1
271
     1
  0
XRECORD
  5
28
102
{ACAD_REACTORS
330
22
102
}
330
22
100
AcDbXrecord
280
     1
270
     1
271
     1
  0
XRECORD
  5
25
102
{ACAD_REACTORS
330
22
102
}
330
22
100
AcDbXrecord
280
     1
270
     1
271
     1
  0
XRECORD
  5
17C
102
{ACAD_REACTORS
330
17B
102
}
330
17B
100
AcDbXrecord
280
     1
102
ACAD_ROUNDTRIP_2012_MLEADER_STYLE
298
     1
  0
XRECORD
  5
17E
102
{ACAD_REACTORS
330
17D
102
}
330
17D
100
AcDbXrecord
280
     1
102
DISPLAYNAME
  1
Imperial24
102
FLAGS
 90
        0
  0
CELLSTYLEMAP
  5
149
102
{ACAD_REACTORS
330
148
102
}
330
148
100
AcDbCellStyleMap
 90
        3
300
CELLSTYLE
  1
TABLEFORMAT_BEGIN
 90
        5
170
     1
 91
        0
 92
    32768
 62
   257
 93
        1
300
CONTENTFORMAT
  1
CONTENTFORMAT_BEGIN
 90
        0
 91
        0
 92
      512
 93
        0
300

 40
0.0
140
1.0
 94
        5
 62
     0
340
55
144
0.25
309
CONTENTFORMAT_END
171
     0
 94
        0
309
TABLEFORMAT_END
  1
CELLSTYLE_BEGIN
 90
        1
 91
        1
300
_TITLE
309
CELLSTYLE_END
300
CELLSTYLE
  1
TABLEFORMAT_BEGIN
 90
        5
170
     1
 91
        0
 92
        0
 62
   257
 93
        1
300
CONTENTFORMAT
  1
CONTENTFORMAT_BEGIN
 90
        0
 91
        0
 92
      512
 93
        0
300

 40
0.0
140
1.0
 94
        5
 62
     0
340
55
144
0.18
309
CONTENTFORMAT_END
171
     0
 94
        0
309
TABLEFORMAT_END
  1
CELLSTYLE_BEGIN
 90
        2
 91
        1
300
_HEADER
309
CELLSTYLE_END
300
CELLSTYLE
  1
TABLEFORMAT_BEGIN
 90
        5
170
     1
 91
        0
 92
        0
 62
   257
 93
        1
300
CONTENTFORMAT
  1
CONTENTFORMAT_BEGIN
 90
        0
 91
        0
 92
      512
 93
        0
300

 40
0.0
140
1.0
 94
        2
 62
     0
340
55
144
0.18
309
CONTENTFORMAT_END
171
     0
 94
        0
309
TABLEFORMAT_END
  1
CELLSTYLE_BEGIN
 90
        3
 91
        2
300
_DATA
309
CELLSTYLE_END
  0
XRECORD
  5
156
102
{ACAD_REACTORS
330
155
102
}
330
155
100
AcDbXrecord
280
     1
102
RTVSPost2010Prop28
280
     1
102
RTVSPost2010PropOp28
 70
     1
102
RTVSPost2010Prop29
280
     1
102
RTVSPost2010PropOp29
 70
     1
102
RTVSPost2010Prop30
280
     0
102
RTVSPost2010PropOp30
 70
     1
102
RTVSPost2010Prop31
280
     0
102
RTVSPost2010PropOp31
 70
     1
102
RTVSPost2010Prop32
280
     0
102
RTVSPost2010PropOp32
 70
     1
102
RTVSPost2010Prop33
280
     0
102
RTVSPost2010PropOp33
 70
     1
102
RTVSPost2010Prop34
280
     0
102
RTVSPost2010PropOp34
 70
     1
102
RTVSPost2010Prop35
280
     0
102
RTVSPost2010PropOp35
 70
     1
102
RTVSPost2010Prop36
280
     0
102
RTVSPost2010PropOp36
 70
     1
102
RTVSPost2010Prop37
 90
       50
102
RTVSPost2010PropOp37
 70
     1
102
RTVSPost2010Prop38
140
0.0
102
RTVSPost2010PropOp38
 70
     1
102
RTVSPost2010Prop39
140
1.0
102
RTVSPost2010PropOp39
 70
     1
102
RTVSPost2010Prop40
 90
        0
102
RTVSPost2010PropOp40
 70
     1
102
RTVSPost2010Prop41ColorIndex
 90
       18
102
RTVSPost2010Prop41ColorRGB
 90
        0
102
RTVSPost2010PropOp41
 70
     1
102
RTVSPost2010Prop42
 90
       50
102
RTVSPost2010PropOp42
 70
     1
102
RTVSPost2010Prop43
 90
        3
102
RTVSPost2010PropOp43
 70
     1
102
RTVSPost2010Prop44ColorIndex
 90
        5
102
RTVSPost2010Prop44ColorRGB
 90
      255
102
RTVSPost2010PropOp44
 70
     1
102
RTVSPost2010Prop45
280
     0
102
RTVSPost2010PropOp45
 70
     1
102
RTVSPost2010Prop46
 90
       50
102
RTVSPost2010PropOp46
 70
     1
102
RTVSPost2010Prop47
 90
       50
102
RTVSPost2010PropOp47
 70
     1
102
RTVSPost2010Prop48
 90
       50
102
RTVSPost2010PropOp48
 70
     1
102
RTVSPost2010Prop49
280
     0
102
RTVSPost2010PropOp49
 70
     1
102
RTVSPost2010Prop50
 90
       50
102
RTVSPost2010PropOp50
 70
     1
102
RTVSPost2010Prop51ColorIndex
 90
      256
102
RTVSPost2010Prop51ColorRGB
 90
-16777216
102
RTVSPost2010PropOp51
 70
     0
102
RTVSPost2010Prop52
140
1.0
102
RTVSPost2010PropOp52
 70
     0
102
RTVSPost2010Prop53
 90
        2
102
RTVSPost2010PropOp53
 70
     1
102
RTVSPost2010Prop54
  1
strokes_ogs.tif
102
RTVSPost2010PropOp54
 70
     1
102
RTVSPost2010Prop55
280
     0
102
RTVSPost2010PropOp55
 70
     1
102
RTVSPost2010Prop56
140
1.0
102
RTVSPost2010PropOp56
 70
     1
102
RTVSPost2010Prop57
140
1.0
102
RTVSPost2010PropOp57
 70
     1
  0
XRECORD
  5
154
102
{ACAD_REACTORS
330
153
102
}
330
153
100
AcDbXrecord
280
     1
102
RTVSPost2010Prop28
280
     0
102
RTVSPost2010PropOp28
 70
     1
102
RTVSPost2010Prop29
280
     1
102
RTVSPost2010PropOp29
 70
     1
102
RTVSPost2010Prop30
280
     1
102
RTVSPost2010PropOp30
 70
     1
102
RTVSPost2010Prop31
280
     0
102
RTVSPost2010PropOp31
 70
     1
102
RTVSPost2010Prop32
280
     0
102
RTVSPost2010PropOp32
 70
     1
102
RTVSPost2010Prop33
280
     0
102
RTVSPost2010PropOp33
 70
     1
102
RTVSPost2010Prop34
280
     0
102
RTVSPost2010PropOp34
 70
     1
102
RTVSPost2010Prop35
280
     0
102
RTVSPost2010PropOp35
 70
     1
102
RTVSPost2010Prop36
280
     0
102
RTVSPost2010PropOp36
 70
     1
102
RTVSPost2010Prop37
 90
       50
102
RTVSPost2010PropOp37
 70
     1
102
RTVSPost2010Prop38
140
0.0
102
RTVSPost2010PropOp38
 70
     1
102
RTVSPost2010Prop39
140
1.0
102
RTVSPost2010PropOp39
 70
     1
102
RTVSPost2010Prop40
 90
        0
102
RTVSPost2010PropOp40
 70
     1
102
RTVSPost2010Prop41ColorIndex
 90
       18
102
RTVSPost2010Prop41ColorRGB
 90
        0
102
RTVSPost2010PropOp41
 70
     1
102
RTVSPost2010Prop42
 90
       50
102
RTVSPost2010PropOp42
 70
     1
102
RTVSPost2010Prop43
 90
        3
102
RTVSPost2010PropOp43
 70
     1
102
RTVSPost2010Prop44ColorIndex
 90
        5
102
RTVSPost2010Prop44ColorRGB
 90
      255
102
RTVSPost2010PropOp44
 70
     1
102
RTVSPost2010Prop45
280
     0
102
RTVSPost2010PropOp45
 70
     1
102
RTVSPost2010Prop46
 90
       50
102
RTVSPost2010PropOp46
 70
     1
102
RTVSPost2010Prop47
 90
       50
102
RTVSPost2010PropOp47
 70
     1
102
RTVSPost2010Prop48
 90
       50
102
RTVSPost2010PropOp48
 70
     1
102
RTVSPost2010Prop49
280
     0
102
RTVSPost2010PropOp49
 70
     1
102
RTVSPost2010Prop50
 90
       50
102
RTVSPost2010PropOp50
 70
     1
102
RTVSPost2010Prop51ColorIndex
 90
      256
102
RTVSPost2010Prop51ColorRGB
 90
-16777216
102
RTVSPost2010PropOp51
 70
     0
102
RTVSPost2010Prop52
140
1.0
102
RTVSPost2010PropOp52
 70
     0
102
RTVSPost2010Prop53
 90
        2
102
RTVSPost2010PropOp53
 70
     1
102
RTVSPost2010Prop54
  1
strokes_ogs.tif
102
RTVSPost2010PropOp54
 70
     1
102
RTVSPost2010Prop55
280
     0
102
RTVSPost2010PropOp55
 70
     1
102
RTVSPost2010Prop56
140
1.0
102
RTVSPost2010PropOp56
 70
     1
102
RTVSPost2010Prop57
140
1.0
102
RTVSPost2010PropOp57
 70
     1
  0
XRECORD
  5
162
102
{ACAD_REACTORS
330
161
102
}
330
161
100
AcDbXrecord
280
     1
102
RTVSPost2010Prop28
280
     0
102
RTVSPost2010PropOp28
 70
     1
102
RTVSPost2010Prop29
280
     1
102
RTVSPost2010PropOp29
 70
     1
102
RTVSPost2010Prop30
280
     1
102
RTVSPost2010PropOp30
 70
     1
102
RTVSPost2010Prop31
280
     0
102
RTVSPost2010PropOp31
 70
     1
102
RTVSPost2010Prop32
280
     0
102
RTVSPost2010PropOp32
 70
     1
102
RTVSPost2010Prop33
280
     0
102
RTVSPost2010PropOp33
 70
     1
102
RTVSPost2010Prop34
280
     0
102
RTVSPost2010PropOp34
 70
     1
102
RTVSPost2010Prop35
280
     0
102
RTVSPost2010PropOp35
 70
     1
102
RTVSPost2010Prop36
280
     0
102
RTVSPost2010PropOp36
 70
     1
102
RTVSPost2010Prop37
 90
       50
102
RTVSPost2010PropOp37
 70
     1
102
RTVSPost2010Prop38
140
0.0
102
RTVSPost2010PropOp38
 70
     1
102
RTVSPost2010Prop39
140
1.0
102
RTVSPost2010PropOp39
 70
     1
102
RTVSPost2010Prop40
 90
        0
102
RTVSPost2010PropOp40
 70
     1
102
RTVSPost2010Prop41ColorIndex
 90
       18
102
RTVSPost2010Prop41ColorRGB
 90
        0
102
RTVSPost2010PropOp41
 70
     1
102
RTVSPost2010Prop42
 90
       50
102
RTVSPost2010PropOp42
 70
     1
102
RTVSPost2010Prop43
 90
        3
102
RTVSPost2010PropOp43
 70
     1
102
RTVSPost2010Prop44ColorIndex
 90
        5
102
RTVSPost2010Prop44ColorRGB
 90
      255
102
RTVSPost2010PropOp44
 70
     1
102
RTVSPost2010Prop45
280
     0
102
RTVSPost2010PropOp45
 70
     1
102
RTVSPost2010Prop46
 90
       50
102
RTVSPost2010PropOp46
 70
     1
102
RTVSPost2010Prop47
 90
       50
102
RTVSPost2010PropOp47
 70
     1
102
RTVSPost2010Prop48
 90
       50
102
RTVSPost2010PropOp48
 70
     1
102
RTVSPost2010Prop49
280
     0
102
RTVSPost2010PropOp49
 70
     1
102
RTVSPost2010Prop50
 90
       50
102
RTVSPost2010PropOp50
 70
     1
102
RTVSPost2010Prop51ColorIndex
 90
      256
102
RTVSPost2010Prop51ColorRGB
 90
-16777216
102
RTVSPost2010PropOp51
 70
     0
102
RTVSPost2010Prop52
140
1.0
102
RTVSPost2010PropOp52
 70
     0
102
RTVSPost2010Prop53
 90
        2
102
RTVSPost2010PropOp53
 70
     1
102
RTVSPost2010Prop54
  1
strokes_ogs.tif
102
RTVSPost2010PropOp54
 70
     1
102
RTVSPost2010Prop55
280
     0
102
RTVSPost2010PropOp55
 70
     1
102
RTVSPost2010Prop56
140
1.0
102
RTVSPost2010PropOp56
 70
     1
102
RTVSPost2010Prop57
140
1.0
102
RTVSPost2010PropOp57
 70
     1
  0
XRECORD
  5
16A
102
{ACAD_REACTORS
330
169
102
}
330
169
100
AcDbXrecord
280
     1
102
RTVSPost2010Prop28
280
     0
102
RTVSPost2010PropOp28
 70
     1
102
RTVSPost2010Prop29
280
     1
102
RTVSPost2010PropOp29
 70
     1
102
RTVSPost2010Prop30
280
     1
102
RTVSPost2010PropOp30
 70
     1
102
RTVSPost2010Prop31
280
     0
102
RTVSPost2010PropOp31
 70
     1
102
RTVSPost2010Prop32
280
     0
102
RTVSPost2010PropOp32
 70
     1
102
RTVSPost2010Prop33
280
     0
102
RTVSPost2010PropOp33
 70
     1
102
RTVSPost2010Prop34
280
     0
102
RTVSPost2010PropOp34
 70
     1
102
RTVSPost2010Prop35
280
     0
102
RTVSPost2010PropOp35
 70
     1
102
RTVSPost2010Prop36
280
     0
102
RTVSPost2010PropOp36
 70
     1
102
RTVSPost2010Prop37
 90
       50
102
RTVSPost2010PropOp37
 70
     1
102
RTVSPost2010Prop38
140
0.0
102
RTVSPost2010PropOp38
 70
     1
102
RTVSPost2010Prop39
140
1.0
102
RTVSPost2010PropOp39
 70
     1
102
RTVSPost2010Prop40
 90
        0
102
RTVSPost2010PropOp40
 70
     1
102
RTVSPost2010Prop41ColorIndex
 90
       18
102
RTVSPost2010Prop41ColorRGB
 90
        0
102
RTVSPost2010PropOp41
 70
     1
102
RTVSPost2010Prop42
 90
       50
102
RTVSPost2010PropOp42
 70
     1
102
RTVSPost2010Prop43
 90
        3
102
RTVSPost2010PropOp43
 70
     1
102
RTVSPost2010Prop44ColorIndex
 90
        5
102
RTVSPost2010Prop44ColorRGB
 90
      255
102
RTVSPost2010PropOp44
 70
     1
102
RTVSPost2010Prop45
280
     0
102
RTVSPost2010PropOp45
 70
     1
102
RTVSPost2010Prop46
 90
       50
102
RTVSPost2010PropOp46
 70
     1
102
RTVSPost2010Prop47
 90
       50
102
RTVSPost2010PropOp47
 70
     1
102
RTVSPost2010Prop48
 90
       50
102
RTVSPost2010PropOp48
 70
     1
102
RTVSPost2010Prop49
280
     0
102
RTVSPost2010PropOp49
 70
     1
102
RTVSPost2010Prop50
 90
       50
102
RTVSPost2010PropOp50
 70
     1
102
RTVSPost2010Prop51ColorIndex
 90
      256
102
RTVSPost2010Prop51ColorRGB
 90
-16777216
102
RTVSPost2010PropOp51
 70
     0
102
RTVSPost2010Prop52
140
1.0
102
RTVSPost2010PropOp52
 70
     0
102
RTVSPost2010Prop53
 90
        2
102
RTVSPost2010PropOp53
 70
     1
102
RTVSPost2010Prop54
  1
strokes_ogs.tif
102
RTVSPost2010PropOp54
 70
     1
102
RTVSPost2010Prop55
280
     0
102
RTVSPost2010PropOp55
 70
     1
102
RTVSPost2010Prop56
140
1.0
102
RTVSPost2010PropOp56
 70
     1
102
RTVSPost2010Prop57
140
1.0
102
RTVSPost2010PropOp57
 70
     1
  0
XRECORD
  5
15C
102
{ACAD_REACTORS
330
15B
102
}
330
15B
100
AcDbXrecord
280
     1
102
RTVSPost2010Prop28
280
     0
102
RTVSPost2010PropOp28
 70
     1
102
RTVSPost2010Prop29
280
     1
102
RTVSPost2010PropOp29
 70
     1
102
RTVSPost2010Prop30
280
     1
102
RTVSPost2010PropOp30
 70
     1
102
RTVSPost2010Prop31
280
     0
102
RTVSPost2010PropOp31
 70
     1
102
RTVSPost2010Prop32
280
     0
102
RTVSPost2010PropOp32
 70
     1
102
RTVSPost2010Prop33
280
     0
102
RTVSPost2010PropOp33
 70
     1
102
RTVSPost2010Prop34
280
     0
102
RTVSPost2010PropOp34
 70
     1
102
RTVSPost2010Prop35
280
     0
102
RTVSPost2010PropOp35
 70
     1
102
RTVSPost2010Prop36
280
     0
102
RTVSPost2010PropOp36
 70
     1
102
RTVSPost2010Prop37
 90
       50
102
RTVSPost2010PropOp37
 70
     1
102
RTVSPost2010Prop38
140
0.0
102
RTVSPost2010PropOp38
 70
     1
102
RTVSPost2010Prop39
140
1.0
102
RTVSPost2010PropOp39
 70
     1
102
RTVSPost2010Prop40
 90
        0
102
RTVSPost2010PropOp40
 70
     1
102
RTVSPost2010Prop41ColorIndex
 90
       18
102
RTVSPost2010Prop41ColorRGB
 90
        0
102
RTVSPost2010PropOp41
 70
     1
102
RTVSPost2010Prop42
 90
       50
102
RTVSPost2010PropOp42
 70
     1
102
RTVSPost2010Prop43
 90
        3
102
RTVSPost2010PropOp43
 70
     1
102
RTVSPost2010Prop44ColorIndex
 90
        5
102
RTVSPost2010Prop44ColorRGB
 90
      255
102
RTVSPost2010PropOp44
 70
     1
102
RTVSPost2010Prop45
280
     0
102
RTVSPost2010PropOp45
 70
     1
102
RTVSPost2010Prop46
 90
       50
102
RTVSPost2010PropOp46
 70
     1
102
RTVSPost2010Prop47
 90
       50
102
RTVSPost2010PropOp47
 70
     1
102
RTVSPost2010Prop48
 90
       50
102
RTVSPost2010PropOp48
 70
     1
102
RTVSPost2010Prop49
280
     0
102
RTVSPost2010PropOp49
 70
     1
102
RTVSPost2010Prop50
 90
       50
102
RTVSPost2010PropOp50
 70
     1
102
RTVSPost2010Prop51ColorIndex
 90
      256
102
RTVSPost2010Prop51ColorRGB
 90
-16777216
102
RTVSPost2010PropOp51
 70
     0
102
RTVSPost2010Prop52
140
1.0
102
RTVSPost2010PropOp52
 70
     0
102
RTVSPost2010Prop53
 90
        2
102
RTVSPost2010PropOp53
 70
     1
102
RTVSPost2010Prop54
  1
strokes_ogs.tif
102
RTVSPost2010PropOp54
 70
     1
102
RTVSPost2010Prop55
280
     0
102
RTVSPost2010PropOp55
 70
     1
102
RTVSPost2010Prop56
140
1.0
102
RTVSPost2010PropOp56
 70
     1
102
RTVSPost2010Prop57
140
1.0
102
RTVSPost2010PropOp57
 70
     1
  0
XRECORD
  5
160
102
{ACAD_REACTORS
330
15F
102
}
330
15F
100
AcDbXrecord
280
     1
102
RTVSPost2010Prop28
280
     0
102
RTVSPost2010PropOp28
 70
     1
102
RTVSPost2010Prop29
280
     1
102
RTVSPost2010PropOp29
 70
     1
102
RTVSPost2010Prop30
280
     1
102
RTVSPost2010PropOp30
 70
     1
102
RTVSPost2010Prop31
280
     0
102
RTVSPost2010PropOp31
 70
     1
102
RTVSPost2010Prop32
280
     0
102
RTVSPost2010PropOp32
 70
     1
102
RTVSPost2010Prop33
280
     0
102
RTVSPost2010PropOp33
 70
     1
102
RTVSPost2010Prop34
280
     0
102
RTVSPost2010PropOp34
 70
     1
102
RTVSPost2010Prop35
280
     0
102
RTVSPost2010PropOp35
 70
     1
102
RTVSPost2010Prop36
280
     0
102
RTVSPost2010PropOp36
 70
     1
102
RTVSPost2010Prop37
 90
       50
102
RTVSPost2010PropOp37
 70
     1
102
RTVSPost2010Prop38
140
0.0
102
RTVSPost2010PropOp38
 70
     1
102
RTVSPost2010Prop39
140
1.0
102
RTVSPost2010PropOp39
 70
     1
102
RTVSPost2010Prop40
 90
        0
102
RTVSPost2010PropOp40
 70
     1
102
RTVSPost2010Prop41ColorIndex
 90
       18
102
RTVSPost2010Prop41ColorRGB
 90
        0
102
RTVSPost2010PropOp41
 70
     1
102
RTVSPost2010Prop42
 90
       50
102
RTVSPost2010PropOp42
 70
     1
102
RTVSPost2010Prop43
 90
        3
102
RTVSPost2010PropOp43
 70
     1
102
RTVSPost2010Prop44ColorIndex
 90
        5
102
RTVSPost2010Prop44ColorRGB
 90
      255
102
RTVSPost2010PropOp44
 70
     1
102
RTVSPost2010Prop45
280
     0
102
RTVSPost2010PropOp45
 70
     1
102
RTVSPost2010Prop46
 90
       50
102
RTVSPost2010PropOp46
 70
     1
102
RTVSPost2010Prop47
 90
       50
102
RTVSPost2010PropOp47
 70
     1
102
RTVSPost2010Prop48
 90
       50
102
RTVSPost2010PropOp48
 70
     1
102
RTVSPost2010Prop49
280
     0
102
RTVSPost2010PropOp49
 70
     1
102
RTVSPost2010Prop50
 90
       50
102
RTVSPost2010PropOp50
 70
     1
102
RTVSPost2010Prop51ColorIndex
 90
      256
102
RTVSPost2010Prop51ColorRGB
 90
-16777216
102
RTVSPost2010PropOp51
 70
     0
102
RTVSPost2010Prop52
140
1.0
102
RTVSPost2010PropOp52
 70
     0
102
RTVSPost2010Prop53
 90
        2
102
RTVSPost2010PropOp53
 70
     1
102
RTVSPost2010Prop54
  1
strokes_ogs.tif
102
RTVSPost2010PropOp54
 70
     1
102
RTVSPost2010Prop55
280
     0
102
RTVSPost2010PropOp55
 70
     1
102
RTVSPost2010Prop56
140
1.0
102
RTVSPost2010PropOp56
 70
     1
102
RTVSPost2010Prop57
140
1.0
102
RTVSPost2010PropOp57
 70
     1
  0
XRECORD
  5
17A
102
{ACAD_REACTORS
330
179
102
}
330
179
100
AcDbXrecord
280
     1
102
RTVSPost2010Prop28
280
     0
102
RTVSPost2010PropOp28
 70
     0
102
RTVSPost2010Prop29
280
     1
102
RTVSPost2010PropOp29
 70
     0
102
RTVSPost2010Prop30
280
     1
102
RTVSPost2010PropOp30
 70
     0
102
RTVSPost2010Prop31
280
     0
102
RTVSPost2010PropOp31
 70
     0
102
RTVSPost2010Prop32
280
     0
102
RTVSPost2010PropOp32
 70
     0
102
RTVSPost2010Prop33
280
     0
102
RTVSPost2010PropOp33
 70
     0
102
RTVSPost2010Prop34
280
     0
102
RTVSPost2010PropOp34
 70
     0
102
RTVSPost2010Prop35
280
     0
102
RTVSPost2010PropOp35
 70
     0
102
RTVSPost2010Prop36
280
     0
102
RTVSPost2010PropOp36
 70
     0
102
RTVSPost2010Prop37
 90
       50
102
RTVSPost2010PropOp37
 70
     0
102
RTVSPost2010Prop38
140
0.0
102
RTVSPost2010PropOp38
 70
     0
102
RTVSPost2010Prop39
140
1.0
102
RTVSPost2010PropOp39
 70
     0
102
RTVSPost2010Prop40
 90
        0
102
RTVSPost2010PropOp40
 70
     0
102
RTVSPost2010Prop41ColorIndex
 90
       18
102
RTVSPost2010Prop41ColorRGB
 90
        0
102
RTVSPost2010PropOp41
 70
     0
102
RTVSPost2010Prop42
 90
       50
102
RTVSPost2010PropOp42
 70
     0
102
RTVSPost2010Prop43
 90
        3
102
RTVSPost2010PropOp43
 70
     0
102
RTVSPost2010Prop44ColorIndex
 90
        5
102
RTVSPost2010Prop44ColorRGB
 90
      255
102
RTVSPost2010PropOp44
 70
     0
102
RTVSPost2010Prop45
280
     0
102
RTVSPost2010PropOp45
 70
     0
102
RTVSPost2010Prop46
 90
       50
102
RTVSPost2010PropOp46
 70
     0
102
RTVSPost2010Prop47
 90
       50
102
RTVSPost2010PropOp47
 70
     0
102
RTVSPost2010Prop48
 90
       50
102
RTVSPost2010PropOp48
 70
     0
102
RTVSPost2010Prop49
280
     0
102
RTVSPost2010PropOp49
 70
     0
102
RTVSPost2010Prop50
 90
       50
102
RTVSPost2010PropOp50
 70
     0
102
RTVSPost2010Prop51ColorIndex
 90
      256
102
RTVSPost2010Prop51ColorRGB
 90
-16777216
102
RTVSPost2010PropOp51
 70
     0
102
RTVSPost2010Prop52
140
1.0
102
RTVSPost2010PropOp52
 70
     0
102
RTVSPost2010Prop53
 90
        2
102
RTVSPost2010PropOp53
 70
     0
102
RTVSPost2010Prop54
  1
strokes_ogs.tif
102
RTVSPost2010PropOp54
 70
     0
102
RTVSPost2010Prop55
280
     0
102
RTVSPost2010PropOp55
 70
     0
102
RTVSPost2010Prop56
140
1.0
102
RTVSPost2010PropOp56
 70
     0
102
RTVSPost2010Prop57
140
1.0
102
RTVSPost2010PropOp57
 70
     0
  0
XRECORD
  5
168
102
{ACAD_REACTORS
330
167
102
}
330
167
100
AcDbXrecord
280
     1
102
RTVSPost2010Prop28
280
     0
102
RTVSPost2010PropOp28
 70
     1
102
RTVSPost2010Prop29
280
     1
102
RTVSPost2010PropOp29
 70
     1
102
RTVSPost2010Prop30
280
     1
102
RTVSPost2010PropOp30
 70
     1
102
RTVSPost2010Prop31
280
     0
102
RTVSPost2010PropOp31
 70
     1
102
RTVSPost2010Prop32
280
     0
102
RTVSPost2010PropOp32
 70
     1
102
RTVSPost2010Prop33
280
     0
102
RTVSPost2010PropOp33
 70
     1
102
RTVSPost2010Prop34
280
     0
102
RTVSPost2010PropOp34
 70
     1
102
RTVSPost2010Prop35
280
     0
102
RTVSPost2010PropOp35
 70
     1
102
RTVSPost2010Prop36
280
     0
102
RTVSPost2010PropOp36
 70
     1
102
RTVSPost2010Prop37
 90
       50
102
RTVSPost2010PropOp37
 70
     1
102
RTVSPost2010Prop38
140
0.0
102
RTVSPost2010PropOp38
 70
     1
102
RTVSPost2010Prop39
140
1.0
102
RTVSPost2010PropOp39
 70
     1
102
RTVSPost2010Prop40
 90
        0
102
RTVSPost2010PropOp40
 70
     1
102
RTVSPost2010Prop41ColorIndex
 90
       18
102
RTVSPost2010Prop41ColorRGB
 90
        0
102
RTVSPost2010PropOp41
 70
     1
102
RTVSPost2010Prop42
 90
       50
102
RTVSPost2010PropOp42
 70
     1
102
RTVSPost2010Prop43
 90
        3
102
RTVSPost2010PropOp43
 70
     1
102
RTVSPost2010Prop44ColorIndex
 90
        5
102
RTVSPost2010Prop44ColorRGB
 90
      255
102
RTVSPost2010PropOp44
 70
     1
102
RTVSPost2010Prop45
280
     0
102
RTVSPost2010PropOp45
 70
     1
102
RTVSPost2010Prop46
 90
       50
102
RTVSPost2010PropOp46
 70
     1
102
RTVSPost2010Prop47
 90
       50
102
RTVSPost2010PropOp47
 70
     1
102
RTVSPost2010Prop48
 90
       50
102
RTVSPost2010PropOp48
 70
     1
102
RTVSPost2010Prop49
280
     0
102
RTVSPost2010PropOp49
 70
     1
102
RTVSPost2010Prop50
 90
       50
102
RTVSPost2010PropOp50
 70
     1
102
RTVSPost2010Prop51ColorIndex
 90
      256
102
RTVSPost2010Prop51ColorRGB
 90
-16777216
102
RTVSPost2010PropOp51
 70
     0
102
RTVSPost2010Prop52
140
1.0
102
RTVSPost2010PropOp52
 70
     0
102
RTVSPost2010Prop53
 90
        2
102
RTVSPost2010PropOp53
 70
     1
102
RTVSPost2010Prop54
  1
strokes_ogs.tif
102
RTVSPost2010PropOp54
 70
     1
102
RTVSPost2010Prop55
280
     0
102
RTVSPost2010PropOp55
 70
     1
102
RTVSPost2010Prop56
140
1.0
102
RTVSPost2010PropOp56
 70
     1
102
RTVSPost2010Prop57
140
1.0
102
RTVSPost2010PropOp57
 70
     1
  0
XRECORD
  5
14C
102
{ACAD_REACTORS
330
14B
102
}
330
14B
100
AcDbXrecord
280
     1
102
RTVSPost2010Prop28
280
     0
102
RTVSPost2010PropOp28
 70
     1
102
RTVSPost2010Prop29
280
     1
102
RTVSPost2010PropOp29
 70
     1
102
RTVSPost2010Prop30
280
     1
102
RTVSPost2010PropOp30
 70
     1
102
RTVSPost2010Prop31
280
     0
102
RTVSPost2010PropOp31
 70
     1
102
RTVSPost2010Prop32
280
     0
102
RTVSPost2010PropOp32
 70
     1
102
RTVSPost2010Prop33
280
     0
102
RTVSPost2010PropOp33
 70
     1
102
RTVSPost2010Prop34
280
     0
102
RTVSPost2010PropOp34
 70
     1
102
RTVSPost2010Prop35
280
     0
102
RTVSPost2010PropOp35
 70
     1
102
RTVSPost2010Prop36
280
     0
102
RTVSPost2010PropOp36
 70
     1
102
RTVSPost2010Prop37
 90
       50
102
RTVSPost2010PropOp37
 70
     1
102
RTVSPost2010Prop38
140
0.0
102
RTVSPost2010PropOp38
 70
     1
102
RTVSPost2010Prop39
140
1.0
102
RTVSPost2010PropOp39
 70
     1
102
RTVSPost2010Prop40
 90
        0
102
RTVSPost2010PropOp40
 70
     1
102
RTVSPost2010Prop41ColorIndex
 90
       18
102
RTVSPost2010Prop41ColorRGB
 90
        0
102
RTVSPost2010PropOp41
 70
     1
102
RTVSPost2010Prop42
 90
       50
102
RTVSPost2010PropOp42
 70
     1
102
RTVSPost2010Prop43
 90
        3
102
RTVSPost2010PropOp43
 70
     1
102
RTVSPost2010Prop44ColorIndex
 90
        5
102
RTVSPost2010Prop44ColorRGB
 90
      255
102
RTVSPost2010PropOp44
 70
     1
102
RTVSPost2010Prop45
280
     0
102
RTVSPost2010PropOp45
 70
     1
102
RTVSPost2010Prop46
 90
       50
102
RTVSPost2010PropOp46
 70
     1
102
RTVSPost2010Prop47
 90
       50
102
RTVSPost2010PropOp47
 70
     1
102
RTVSPost2010Prop48
 90
       50
102
RTVSPost2010PropOp48
 70
     1
102
RTVSPost2010Prop49
280
     0
102
RTVSPost2010PropOp49
 70
     1
102
RTVSPost2010Prop50
 90
       50
102
RTVSPost2010PropOp50
 70
     1
102
RTVSPost2010Prop51ColorIndex
 90
      256
102
RTVSPost2010Prop51ColorRGB
 90
-16777216
102
RTVSPost2010PropOp51
 70
     0
102
RTVSPost2010Prop52
140
1.0
102
RTVSPost2010PropOp52
 70
     0
102
RTVSPost2010Prop53
 90
        2
102
RTVSPost2010PropOp53
 70
     1
102
RTVSPost2010Prop54
  1
strokes_ogs.tif
102
RTVSPost2010PropOp54
 70
     1
102
RTVSPost2010Prop55
280
     0
102
RTVSPost2010PropOp55
 70
     1
102
RTVSPost2010Prop56
140
1.0
102
RTVSPost2010PropOp56
 70
     1
102
RTVSPost2010Prop57
140
1.0
102
RTVSPost2010PropOp57
 70
     1
  0
XRECORD
  5
14E
102
{ACAD_REACTORS
330
14D
102
}
330
14D
100
AcDbXrecord
280
     1
102
RTVSPost2010Prop28
280
     0
102
RTVSPost2010PropOp28
 70
     1
102
RTVSPost2010Prop29
280
     1
102
RTVSPost2010PropOp29
 70
     1
102
RTVSPost2010Prop30
280
     1
102
RTVSPost2010PropOp30
 70
     1
102
RTVSPost2010Prop31
280
     0
102
RTVSPost2010PropOp31
 70
     1
102
RTVSPost2010Prop32
280
     0
102
RTVSPost2010PropOp32
 70
     1
102
RTVSPost2010Prop33
280
     0
102
RTVSPost2010PropOp33
 70
     1
102
RTVSPost2010Prop34
280
     0
102
RTVSPost2010PropOp34
 70
     1
102
RTVSPost2010Prop35
280
     0
102
RTVSPost2010PropOp35
 70
     1
102
RTVSPost2010Prop36
280
     0
102
RTVSPost2010PropOp36
 70
     1
102
RTVSPost2010Prop37
 90
       50
102
RTVSPost2010PropOp37
 70
     1
102
RTVSPost2010Prop38
140
0.0
102
RTVSPost2010PropOp38
 70
     1
102
RTVSPost2010Prop39
140
1.0
102
RTVSPost2010PropOp39
 70
     1
102
RTVSPost2010Prop40
 90
        0
102
RTVSPost2010PropOp40
 70
     1
102
RTVSPost2010Prop41ColorIndex
 90
       18
102
RTVSPost2010Prop41ColorRGB
 90
        0
102
RTVSPost2010PropOp41
 70
     1
102
RTVSPost2010Prop42
 90
       50
102
RTVSPost2010PropOp42
 70
     1
102
RTVSPost2010Prop43
 90
        3
102
RTVSPost2010PropOp43
 70
     1
102
RTVSPost2010Prop44ColorIndex
 90
        5
102
RTVSPost2010Prop44ColorRGB
 90
      255
102
RTVSPost2010PropOp44
 70
     1
102
RTVSPost2010Prop45
280
     0
102
RTVSPost2010PropOp45
 70
     1
102
RTVSPost2010Prop46
 90
       50
102
RTVSPost2010PropOp46
 70
     1
102
RTVSPost2010Prop47
 90
       50
102
RTVSPost2010PropOp47
 70
     1
102
RTVSPost2010Prop48
 90
       50
102
RTVSPost2010PropOp48
 70
     1
102
RTVSPost2010Prop49
280
     0
102
RTVSPost2010PropOp49
 70
     1
102
RTVSPost2010Prop50
 90
       50
102
RTVSPost2010PropOp50
 70
     1
102
RTVSPost2010Prop51ColorIndex
 90
      256
102
RTVSPost2010Prop51ColorRGB
 90
-16777216
102
RTVSPost2010PropOp51
 70
     0
102
RTVSPost2010Prop52
140
1.0
102
RTVSPost2010PropOp52
 70
     0
102
RTVSPost2010Prop53
 90
        2
102
RTVSPost2010PropOp53
 70
     1
102
RTVSPost2010Prop54
  1
strokes_ogs.tif
102
RTVSPost2010PropOp54
 70
     1
102
RTVSPost2010Prop55
280
     0
102
RTVSPost2010PropOp55
 70
     1
102
RTVSPost2010Prop56
140
1.0
102
RTVSPost2010PropOp56
 70
     1
102
RTVSPost2010Prop57
140
1.0
102
RTVSPost2010PropOp57
 70
     1
  0
XRECORD
  5
150
102
{ACAD_REACTORS
330
14F
102
}
330
14F
100
AcDbXrecord
280
     1
102
RTVSPost2010Prop28
280
     0
102
RTVSPost2010PropOp28
 70
     1
102
RTVSPost2010Prop29
280
     1
102
RTVSPost2010PropOp29
 70
     1
102
RTVSPost2010Prop30
280
     1
102
RTVSPost2010PropOp30
 70
     1
102
RTVSPost2010Prop31
280
     0
102
RTVSPost2010PropOp31
 70
     1
102
RTVSPost2010Prop32
280
     0
102
RTVSPost2010PropOp32
 70
     1
102
RTVSPost2010Prop33
280
     0
102
RTVSPost2010PropOp33
 70
     1
102
RTVSPost2010Prop34
280
     0
102
RTVSPost2010PropOp34
 70
     1
102
RTVSPost2010Prop35
280
     0
102
RTVSPost2010PropOp35
 70
     1
102
RTVSPost2010Prop36
280
     0
102
RTVSPost2010PropOp36
 70
     1
102
RTVSPost2010Prop37
 90
       50
102
RTVSPost2010PropOp37
 70
     1
102
RTVSPost2010Prop38
140
0.0
102
RTVSPost2010PropOp38
 70
     1
102
RTVSPost2010Prop39
140
1.0
102
RTVSPost2010PropOp39
 70
     1
102
RTVSPost2010Prop40
 90
        0
102
RTVSPost2010PropOp40
 70
     1
102
RTVSPost2010Prop41ColorIndex
 90
       18
102
RTVSPost2010Prop41ColorRGB
 90
        0
102
RTVSPost2010PropOp41
 70
     1
102
RTVSPost2010Prop42
 90
       50
102
RTVSPost2010PropOp42
 70
     1
102
RTVSPost2010Prop43
 90
        3
102
RTVSPost2010PropOp43
 70
     1
102
RTVSPost2010Prop44ColorIndex
 90
        5
102
RTVSPost2010Prop44ColorRGB
 90
      255
102
RTVSPost2010PropOp44
 70
     1
102
RTVSPost2010Prop45
280
     0
102
RTVSPost2010PropOp45
 70
     1
102
RTVSPost2010Prop46
 90
       50
102
RTVSPost2010PropOp46
 70
     1
102
RTVSPost2010Prop47
 90
       50
102
RTVSPost2010PropOp47
 70
     1
102
RTVSPost2010Prop48
 90
       50
102
RTVSPost2010PropOp48
 70
     1
102
RTVSPost2010Prop49
280
     0
102
RTVSPost2010PropOp49
 70
     1
102
RTVSPost2010Prop50
 90
       50
102
RTVSPost2010PropOp50
 70
     1
102
RTVSPost2010Prop51ColorIndex
 90
      256
102
RTVSPost2010Prop51ColorRGB
 90
-16777216
102
RTVSPost2010PropOp51
 70
     0
102
RTVSPost2010Prop52
140
1.0
102
RTVSPost2010PropOp52
 70
     0
102
RTVSPost2010Prop53
 90
        2
102
RTVSPost2010PropOp53
 70
     1
102
RTVSPost2010Prop54
  1
strokes_ogs.tif
102
RTVSPost2010PropOp54
 70
     1
102
RTVSPost2010Prop55
280
     0
102
RTVSPost2010PropOp55
 70
     1
102
RTVSPost2010Prop56
140
1.0
102
RTVSPost2010PropOp56
 70
     1
102
RTVSPost2010Prop57
140
1.0
102
RTVSPost2010PropOp57
 70
     1
  0
XRECORD
  5
152
102
{ACAD_REACTORS
330
151
102
}
330
151
100
AcDbXrecord
280
     1
102
RTVSPost2010Prop28
280
     0
102
RTVSPost2010PropOp28
 70
     1
102
RTVSPost2010Prop29
280
     1
102
RTVSPost2010PropOp29
 70
     1
102
RTVSPost2010Prop30
280
     1
102
RTVSPost2010PropOp30
 70
     1
102
RTVSPost2010Prop31
280
     0
102
RTVSPost2010PropOp31
 70
     1
102
RTVSPost2010Prop32
280
     0
102
RTVSPost2010PropOp32
 70
     1
102
RTVSPost2010Prop33
280
     0
102
RTVSPost2010PropOp33
 70
     1
102
RTVSPost2010Prop34
280
     0
102
RTVSPost2010PropOp34
 70
     1
102
RTVSPost2010Prop35
280
     0
102
RTVSPost2010PropOp35
 70
     1
102
RTVSPost2010Prop36
280
     0
102
RTVSPost2010PropOp36
 70
     1
102
RTVSPost2010Prop37
 90
       50
102
RTVSPost2010PropOp37
 70
     1
102
RTVSPost2010Prop38
140
0.0
102
RTVSPost2010PropOp38
 70
     1
102
RTVSPost2010Prop39
140
1.0
102
RTVSPost2010PropOp39
 70
     1
102
RTVSPost2010Prop40
 90
        0
102
RTVSPost2010PropOp40
 70
     1
102
RTVSPost2010Prop41ColorIndex
 90
       18
102
RTVSPost2010Prop41ColorRGB
 90
        0
102
RTVSPost2010PropOp41
 70
     1
102
RTVSPost2010Prop42
 90
       50
102
RTVSPost2010PropOp42
 70
     1
102
RTVSPost2010Prop43
 90
        3
102
RTVSPost2010PropOp43
 70
     1
102
RTVSPost2010Prop44ColorIndex
 90
        5
102
RTVSPost2010Prop44ColorRGB
 90
      255
102
RTVSPost2010PropOp44
 70
     1
102
RTVSPost2010Prop45
280
     0
102
RTVSPost2010PropOp45
 70
     1
102
RTVSPost2010Prop46
 90
       50
102
RTVSPost2010PropOp46
 70
     1
102
RTVSPost2010Prop47
 90
       50
102
RTVSPost2010PropOp47
 70
     1
102
RTVSPost2010Prop48
 90
       50
102
RTVSPost2010PropOp48
 70
     1
102
RTVSPost2010Prop49
280
     0
102
RTVSPost2010PropOp49
 70
     1
102
RTVSPost2010Prop50
 90
       50
102
RTVSPost2010PropOp50
 70
     1
102
RTVSPost2010Prop51ColorIndex
 90
      256
102
RTVSPost2010Prop51ColorRGB
 90
-16777216
102
RTVSPost2010PropOp51
 70
     0
102
RTVSPost2010Prop52
140
1.0
102
RTVSPost2010PropOp52
 70
     0
102
RTVSPost2010Prop53
 90
        2
102
RTVSPost2010PropOp53
 70
     1
102
RTVSPost2010Prop54
  1
strokes_ogs.tif
102
RTVSPost2010PropOp54
 70
     1
102
RTVSPost2010Prop55
280
     0
102
RTVSPost2010PropOp55
 70
     1
102
RTVSPost2010Prop56
140
1.0
102
RTVSPost2010PropOp56
 70
     1
102
RTVSPost2010Prop57
140
1.0
102
RTVSPost2010PropOp57
 70
     1
  0
XRECORD
  5
15A
102
{ACAD_REACTORS
330
159
102
}
330
159
100
AcDbXrecord
280
     1
102
RTVSPost2010Prop28
280
     0
102
RTVSPost2010PropOp28
 70
     1
102
RTVSPost2010Prop29
280
     1
102
RTVSPost2010PropOp29
 70
     1
102
RTVSPost2010Prop30
280
     1
102
RTVSPost2010PropOp30
 70
     1
102
RTVSPost2010Prop31
280
     0
102
RTVSPost2010PropOp31
 70
     1
102
RTVSPost2010Prop32
280
     0
102
RTVSPost2010PropOp32
 70
     1
102
RTVSPost2010Prop33
280
     0
102
RTVSPost2010PropOp33
 70
     1
102
RTVSPost2010Prop34
280
     0
102
RTVSPost2010PropOp34
 70
     1
102
RTVSPost2010Prop35
280
     0
102
RTVSPost2010PropOp35
 70
     1
102
RTVSPost2010Prop36
280
     0
102
RTVSPost2010PropOp36
 70
     1
102
RTVSPost2010Prop37
 90
       50
102
RTVSPost2010PropOp37
 70
     1
102
RTVSPost2010Prop38
140
0.0
102
RTVSPost2010PropOp38
 70
     1
102
RTVSPost2010Prop39
140
1.0
102
RTVSPost2010PropOp39
 70
     1
102
RTVSPost2010Prop40
 90
        0
102
RTVSPost2010PropOp40
 70
     1
102
RTVSPost2010Prop41ColorIndex
 90
       18
102
RTVSPost2010Prop41ColorRGB
 90
        0
102
RTVSPost2010PropOp41
 70
     1
102
RTVSPost2010Prop42
 90
       50
102
RTVSPost2010PropOp42
 70
     1
102
RTVSPost2010Prop43
 90
        3
102
RTVSPost2010PropOp43
 70
     1
102
RTVSPost2010Prop44ColorIndex
 90
        5
102
RTVSPost2010Prop44ColorRGB
 90
      255
102
RTVSPost2010PropOp44
 70
     1
102
RTVSPost2010Prop45
280
     0
102
RTVSPost2010PropOp45
 70
     1
102
RTVSPost2010Prop46
 90
       50
102
RTVSPost2010PropOp46
 70
     1
102
RTVSPost2010Prop47
 90
       50
102
RTVSPost2010PropOp47
 70
     1
102
RTVSPost2010Prop48
 90
       50
102
RTVSPost2010PropOp48
 70
     1
102
RTVSPost2010Prop49
280
     0
102
RTVSPost2010PropOp49
 70
     1
102
RTVSPost2010Prop50
 90
       50
102
RTVSPost2010PropOp50
 70
     1
102
RTVSPost2010Prop51ColorIndex
 90
      256
102
RTVSPost2010Prop51ColorRGB
 90
-16777216
102
RTVSPost2010PropOp51
 70
     0
102
RTVSPost2010Prop52
140
1.0
102
RTVSPost2010PropOp52
 70
     0
102
RTVSPost2010Prop53
 90
        2
102
RTVSPost2010PropOp53
 70
     1
102
RTVSPost2010Prop54
  1
strokes_ogs.tif
102
RTVSPost2010PropOp54
 70
     1
102
RTVSPost2010Prop55
280
     0
102
RTVSPost2010PropOp55
 70
     1
102
RTVSPost2010Prop56
140
1.0
102
RTVSPost2010PropOp56
 70
     1
102
RTVSPost2010Prop57
140
1.0
102
RTVSPost2010PropOp57
 70
     1
  0
XRECORD
  5
176
102
{ACAD_REACTORS
330
175
102
}
330
175
100
AcDbXrecord
280
     1
102
RTVSPost2010Prop28
280
     0
102
RTVSPost2010PropOp28
 70
     0
102
RTVSPost2010Prop29
280
     1
102
RTVSPost2010PropOp29
 70
     0
102
RTVSPost2010Prop30
280
     1
102
RTVSPost2010PropOp30
 70
     0
102
RTVSPost2010Prop31
280
     0
102
RTVSPost2010PropOp31
 70
     0
102
RTVSPost2010Prop32
280
     0
102
RTVSPost2010PropOp32
 70
     0
102
RTVSPost2010Prop33
280
     0
102
RTVSPost2010PropOp33
 70
     0
102
RTVSPost2010Prop34
280
     0
102
RTVSPost2010PropOp34
 70
     0
102
RTVSPost2010Prop35
280
     0
102
RTVSPost2010PropOp35
 70
     0
102
RTVSPost2010Prop36
280
     0
102
RTVSPost2010PropOp36
 70
     0
102
RTVSPost2010Prop37
 90
       50
102
RTVSPost2010PropOp37
 70
     0
102
RTVSPost2010Prop38
140
0.0
102
RTVSPost2010PropOp38
 70
     0
102
RTVSPost2010Prop39
140
1.0
102
RTVSPost2010PropOp39
 70
     0
102
RTVSPost2010Prop40
 90
        0
102
RTVSPost2010PropOp40
 70
     0
102
RTVSPost2010Prop41ColorIndex
 90
       18
102
RTVSPost2010Prop41ColorRGB
 90
        0
102
RTVSPost2010PropOp41
 70
     0
102
RTVSPost2010Prop42
 90
       50
102
RTVSPost2010PropOp42
 70
     0
102
RTVSPost2010Prop43
 90
        3
102
RTVSPost2010PropOp43
 70
     0
102
RTVSPost2010Prop44ColorIndex
 90
        5
102
RTVSPost2010Prop44ColorRGB
 90
      255
102
RTVSPost2010PropOp44
 70
     0
102
RTVSPost2010Prop45
280
     0
102
RTVSPost2010PropOp45
 70
     0
102
RTVSPost2010Prop46
 90
       50
102
RTVSPost2010PropOp46
 70
     0
102
RTVSPost2010Prop47
 90
       50
102
RTVSPost2010PropOp47
 70
     0
102
RTVSPost2010Prop48
 90
       50
102
RTVSPost2010PropOp48
 70
     0
102
RTVSPost2010Prop49
280
     0
102
RTVSPost2010PropOp49
 70
     0
102
RTVSPost2010Prop50
 90
       50
102
RTVSPost2010PropOp50
 70
     0
102
RTVSPost2010Prop51ColorIndex
 90
      256
102
RTVSPost2010Prop51ColorRGB
 90
-16777216
102
RTVSPost2010PropOp51
 70
     0
102
RTVSPost2010Prop52
140
1.0
102
RTVSPost2010PropOp52
 70
     0
102
RTVSPost2010Prop53
 90
        2
102
RTVSPost2010PropOp53
 70
     0
102
RTVSPost2010Prop54
  1
strokes_ogs.tif
102
RTVSPost2010PropOp54
 70
     0
102
RTVSPost2010Prop55
280
     0
102
RTVSPost2010PropOp55
 70
     0
102
RTVSPost2010Prop56
140
1.0
102
RTVSPost2010PropOp56
 70
     0
102
RTVSPost2010Prop57
140
1.0
102
RTVSPost2010PropOp57
 70
     0
  0
XRECORD
  5
166
102
{ACAD_REACTORS
330
165
102
}
330
165
100
AcDbXrecord
280
     1
102
RTVSPost2010Prop28
280
     0
102
RTVSPost2010PropOp28
 70
     1
102
RTVSPost2010Prop29
280
     1
102
RTVSPost2010PropOp29
 70
     1
102
RTVSPost2010Prop30
280
     1
102
RTVSPost2010PropOp30
 70
     1
102
RTVSPost2010Prop31
280
     0
102
RTVSPost2010PropOp31
 70
     1
102
RTVSPost2010Prop32
280
     0
102
RTVSPost2010PropOp32
 70
     1
102
RTVSPost2010Prop33
280
     0
102
RTVSPost2010PropOp33
 70
     1
102
RTVSPost2010Prop34
280
     0
102
RTVSPost2010PropOp34
 70
     1
102
RTVSPost2010Prop35
280
     0
102
RTVSPost2010PropOp35
 70
     1
102
RTVSPost2010Prop36
280
     0
102
RTVSPost2010PropOp36
 70
     1
102
RTVSPost2010Prop37
 90
       50
102
RTVSPost2010PropOp37
 70
     1
102
RTVSPost2010Prop38
140
0.0
102
RTVSPost2010PropOp38
 70
     1
102
RTVSPost2010Prop39
140
1.0
102
RTVSPost2010PropOp39
 70
     1
102
RTVSPost2010Prop40
 90
        0
102
RTVSPost2010PropOp40
 70
     1
102
RTVSPost2010Prop41ColorIndex
 90
       18
102
RTVSPost2010Prop41ColorRGB
 90
        0
102
RTVSPost2010PropOp41
 70
     1
102
RTVSPost2010Prop42
 90
       50
102
RTVSPost2010PropOp42
 70
     1
102
RTVSPost2010Prop43
 90
        3
102
RTVSPost2010PropOp43
 70
     1
102
RTVSPost2010Prop44ColorIndex
 90
        5
102
RTVSPost2010Prop44ColorRGB
 90
      255
102
RTVSPost2010PropOp44
 70
     1
102
RTVSPost2010Prop45
280
     0
102
RTVSPost2010PropOp45
 70
     1
102
RTVSPost2010Prop46
 90
       50
102
RTVSPost2010PropOp46
 70
     1
102
RTVSPost2010Prop47
 90
       50
102
RTVSPost2010PropOp47
 70
     1
102
RTVSPost2010Prop48
 90
       50
102
RTVSPost2010PropOp48
 70
     1
102
RTVSPost2010Prop49
280
     0
102
RTVSPost2010PropOp49
 70
     1
102
RTVSPost2010Prop50
 90
       50
102
RTVSPost2010PropOp50
 70
     1
102
RTVSPost2010Prop51ColorIndex
 90
      256
102
RTVSPost2010Prop51ColorRGB
 90
-16777216
102
RTVSPost2010PropOp51
 70
     0
102
RTVSPost2010Prop52
140
1.0
102
RTVSPost2010PropOp52
 70
     0
102
RTVSPost2010Prop53
 90
        2
102
RTVSPost2010PropOp53
 70
     1
102
RTVSPost2010Prop54
  1
strokes_ogs.tif
102
RTVSPost2010PropOp54
 70
     1
102
RTVSPost2010Prop55
280
     0
102
RTVSPost2010PropOp55
 70
     1
102
RTVSPost2010Prop56
140
1.0
102
RTVSPost2010PropOp56
 70
     1
102
RTVSPost2010Prop57
140
1.0
102
RTVSPost2010PropOp57
 70
     1
  0
XRECORD
  5
178
102
{ACAD_REACTORS
330
177
102
}
330
177
100
AcDbXrecord
280
     1
102
RTVSPost2010Prop28
280
     0
102
RTVSPost2010PropOp28
 70
     0
102
RTVSPost2010Prop29
280
     1
102
RTVSPost2010PropOp29
 70
     0
102
RTVSPost2010Prop30
280
     1
102
RTVSPost2010PropOp30
 70
     0
102
RTVSPost2010Prop31
280
     0
102
RTVSPost2010PropOp31
 70
     0
102
RTVSPost2010Prop32
280
     0
102
RTVSPost2010PropOp32
 70
     0
102
RTVSPost2010Prop33
280
     0
102
RTVSPost2010PropOp33
 70
     0
102
RTVSPost2010Prop34
280
     0
102
RTVSPost2010PropOp34
 70
     0
102
RTVSPost2010Prop35
280
     0
102
RTVSPost2010PropOp35
 70
     0
102
RTVSPost2010Prop36
280
     0
102
RTVSPost2010PropOp36
 70
     0
102
RTVSPost2010Prop37
 90
       50
102
RTVSPost2010PropOp37
 70
     0
102
RTVSPost2010Prop38
140
0.0
102
RTVSPost2010PropOp38
 70
     0
102
RTVSPost2010Prop39
140
1.0
102
RTVSPost2010PropOp39
 70
     0
102
RTVSPost2010Prop40
 90
        0
102
RTVSPost2010PropOp40
 70
     0
102
RTVSPost2010Prop41ColorIndex
 90
       18
102
RTVSPost2010Prop41ColorRGB
 90
        0
102
RTVSPost2010PropOp41
 70
     0
102
RTVSPost2010Prop42
 90
       50
102
RTVSPost2010PropOp42
 70
     0
102
RTVSPost2010Prop43
 90
        3
102
RTVSPost2010PropOp43
 70
     0
102
RTVSPost2010Prop44ColorIndex
 90
        5
102
RTVSPost2010Prop44ColorRGB
 90
      255
102
RTVSPost2010PropOp44
 70
     0
102
RTVSPost2010Prop45
280
     0
102
RTVSPost2010PropOp45
 70
     0
102
RTVSPost2010Prop46
 90
       50
102
RTVSPost2010PropOp46
 70
     0
102
RTVSPost2010Prop47
 90
       50
102
RTVSPost2010PropOp47
 70
     0
102
RTVSPost2010Prop48
 90
       50
102
RTVSPost2010PropOp48
 70
     0
102
RTVSPost2010Prop49
280
     0
102
RTVSPost2010PropOp49
 70
     0
102
RTVSPost2010Prop50
 90
       50
102
RTVSPost2010PropOp50
 70
     0
102
RTVSPost2010Prop51ColorIndex
 90
      256
102
RTVSPost2010Prop51ColorRGB
 90
-16777216
102
RTVSPost2010PropOp51
 70
     0
102
RTVSPost2010Prop52
140
1.0
102
RTVSPost2010PropOp52
 70
     0
102
RTVSPost2010Prop53
 90
        2
102
RTVSPost2010PropOp53
 70
     0
102
RTVSPost2010Prop54
  1
strokes_ogs.tif
102
RTVSPost2010PropOp54
 70
     0
102
RTVSPost2010Prop55
280
     0
102
RTVSPost2010PropOp55
 70
     0
102
RTVSPost2010Prop56
140
1.0
102
RTVSPost2010PropOp56
 70
     0
102
RTVSPost2010Prop57
140
1.0
102
RTVSPost2010PropOp57
 70
     0
  0
XRECORD
  5
15E
102
{ACAD_REACTORS
330
15D
102
}
330
15D
100
AcDbXrecord
280
     1
102
RTVSPost2010Prop28
280
     0
102
RTVSPost2010PropOp28
 70
     1
102
RTVSPost2010Prop29
280
     1
102
RTVSPost2010PropOp29
 70
     1
102
RTVSPost2010Prop30
280
     1
102
RTVSPost2010PropOp30
 70
     1
102
RTVSPost2010Prop31
280
     0
102
RTVSPost2010PropOp31
 70
     1
102
RTVSPost2010Prop32
280
     0
102
RTVSPost2010PropOp32
 70
     1
102
RTVSPost2010Prop33
280
     0
102
RTVSPost2010PropOp33
 70
     1
102
RTVSPost2010Prop34
280
     0
102
RTVSPost2010PropOp34
 70
     1
102
RTVSPost2010Prop35
280
     0
102
RTVSPost2010PropOp35
 70
     1
102
RTVSPost2010Prop36
280
     0
102
RTVSPost2010PropOp36
 70
     1
102
RTVSPost2010Prop37
 90
       50
102
RTVSPost2010PropOp37
 70
     1
102
RTVSPost2010Prop38
140
0.0
102
RTVSPost2010PropOp38
 70
     1
102
RTVSPost2010Prop39
140
1.0
102
RTVSPost2010PropOp39
 70
     1
102
RTVSPost2010Prop40
 90
        0
102
RTVSPost2010PropOp40
 70
     1
102
RTVSPost2010Prop41ColorIndex
 90
       18
102
RTVSPost2010Prop41ColorRGB
 90
        0
102
RTVSPost2010PropOp41
 70
     1
102
RTVSPost2010Prop42
 90
       50
102
RTVSPost2010PropOp42
 70
     1
102
RTVSPost2010Prop43
 90
        3
102
RTVSPost2010PropOp43
 70
     1
102
RTVSPost2010Prop44ColorIndex
 90
        5
102
RTVSPost2010Prop44ColorRGB
 90
      255
102
RTVSPost2010PropOp44
 70
     1
102
RTVSPost2010Prop45
280
     0
102
RTVSPost2010PropOp45
 70
     1
102
RTVSPost2010Prop46
 90
       50
102
RTVSPost2010PropOp46
 70
     1
102
RTVSPost2010Prop47
 90
       50
102
RTVSPost2010PropOp47
 70
     1
102
RTVSPost2010Prop48
 90
       50
102
RTVSPost2010PropOp48
 70
     1
102
RTVSPost2010Prop49
280
     0
102
RTVSPost2010PropOp49
 70
     1
102
RTVSPost2010Prop50
 90
       50
102
RTVSPost2010PropOp50
 70
     1
102
RTVSPost2010Prop51ColorIndex
 90
      256
102
RTVSPost2010Prop51ColorRGB
 90
-16777216
102
RTVSPost2010PropOp51
 70
     0
102
RTVSPost2010Prop52
140
1.0
102
RTVSPost2010PropOp52
 70
     0
102
RTVSPost2010Prop53
 90
        2
102
RTVSPost2010PropOp53
 70
     1
102
RTVSPost2010Prop54
  1
strokes_ogs.tif
102
RTVSPost2010PropOp54
 70
     1
102
RTVSPost2010Prop55
280
     0
102
RTVSPost2010PropOp55
 70
     1
102
RTVSPost2010Prop56
140
1.0
102
RTVSPost2010PropOp56
 70
     1
102
RTVSPost2010Prop57
140
1.0
102
RTVSPost2010PropOp57
 70
     1
  0
XRECORD
  5
174
102
{ACAD_REACTORS
330
173
102
}
330
173
100
AcDbXrecord
280
     1
102
RTVSPost2010Prop28
280
     0
102
RTVSPost2010PropOp28
 70
     1
102
RTVSPost2010Prop29
280
     1
102
RTVSPost2010PropOp29
 70
     1
102
RTVSPost2010Prop30
280
     1
102
RTVSPost2010PropOp30
 70
     1
102
RTVSPost2010Prop31
280
     0
102
RTVSPost2010PropOp31
 70
     1
102
RTVSPost2010Prop32
280
     0
102
RTVSPost2010PropOp32
 70
     1
102
RTVSPost2010Prop33
280
     0
102
RTVSPost2010PropOp33
 70
     1
102
RTVSPost2010Prop34
280
     0
102
RTVSPost2010PropOp34
 70
     1
102
RTVSPost2010Prop35
280
     0
102
RTVSPost2010PropOp35
 70
     1
102
RTVSPost2010Prop36
280
     0
102
RTVSPost2010PropOp36
 70
     1
102
RTVSPost2010Prop37
 90
       50
102
RTVSPost2010PropOp37
 70
     1
102
RTVSPost2010Prop38
140
0.0
102
RTVSPost2010PropOp38
 70
     1
102
RTVSPost2010Prop39
140
1.0
102
RTVSPost2010PropOp39
 70
     1
102
RTVSPost2010Prop40
 90
        0
102
RTVSPost2010PropOp40
 70
     1
102
RTVSPost2010Prop41ColorIndex
 90
       18
102
RTVSPost2010Prop41ColorRGB
 90
        0
102
RTVSPost2010PropOp41
 70
     1
102
RTVSPost2010Prop42
 90
       50
102
RTVSPost2010PropOp42
 70
     1
102
RTVSPost2010Prop43
 90
        3
102
RTVSPost2010PropOp43
 70
     1
102
RTVSPost2010Prop44ColorIndex
 90
        5
102
RTVSPost2010Prop44ColorRGB
 90
      255
102
RTVSPost2010PropOp44
 70
     1
102
RTVSPost2010Prop45
280
     0
102
RTVSPost2010PropOp45
 70
     1
102
RTVSPost2010Prop46
 90
       50
102
RTVSPost2010PropOp46
 70
     1
102
RTVSPost2010Prop47
 90
       50
102
RTVSPost2010PropOp47
 70
     1
102
RTVSPost2010Prop48
 90
       50
102
RTVSPost2010PropOp48
 70
     1
102
RTVSPost2010Prop49
280
     0
102
RTVSPost2010PropOp49
 70
     1
102
RTVSPost2010Prop50
 90
       50
102
RTVSPost2010PropOp50
 70
     1
102
RTVSPost2010Prop51ColorIndex
 90
      256
102
RTVSPost2010Prop51ColorRGB
 90
-16777216
102
RTVSPost2010PropOp51
 70
     0
102
RTVSPost2010Prop52
140
1.0
102
RTVSPost2010PropOp52
 70
     0
102
RTVSPost2010Prop53
 90
        2
102
RTVSPost2010PropOp53
 70
     1
102
RTVSPost2010Prop54
  1
strokes_ogs.tif
102
RTVSPost2010PropOp54
 70
     1
102
RTVSPost2010Prop55
280
     0
102
RTVSPost2010PropOp55
 70
     1
102
RTVSPost2010Prop56
140
1.0
102
RTVSPost2010PropOp56
 70
     1
102
RTVSPost2010Prop57
140
1.0
102
RTVSPost2010PropOp57
 70
     1
  0
XRECORD
  5
172
102
{ACAD_REACTORS
330
171
102
}
330
171
100
AcDbXrecord
280
     1
102
RTVSPost2010Prop28
280
     0
102
RTVSPost2010PropOp28
 70
     1
102
RTVSPost2010Prop29
280
     1
102
RTVSPost2010PropOp29
 70
     1
102
RTVSPost2010Prop30
280
     1
102
RTVSPost2010PropOp30
 70
     1
102
RTVSPost2010Prop31
280
     0
102
RTVSPost2010PropOp31
 70
     1
102
RTVSPost2010Prop32
280
     0
102
RTVSPost2010PropOp32
 70
     1
102
RTVSPost2010Prop33
280
     0
102
RTVSPost2010PropOp33
 70
     1
102
RTVSPost2010Prop34
280
     0
102
RTVSPost2010PropOp34
 70
     1
102
RTVSPost2010Prop35
280
     0
102
RTVSPost2010PropOp35
 70
     1
102
RTVSPost2010Prop36
280
     0
102
RTVSPost2010PropOp36
 70
     1
102
RTVSPost2010Prop37
 90
       50
102
RTVSPost2010PropOp37
 70
     1
102
RTVSPost2010Prop38
140
0.0
102
RTVSPost2010PropOp38
 70
     1
102
RTVSPost2010Prop39
140
1.0
102
RTVSPost2010PropOp39
 70
     1
102
RTVSPost2010Prop40
 90
        0
102
RTVSPost2010PropOp40
 70
     1
102
RTVSPost2010Prop41ColorIndex
 90
       18
102
RTVSPost2010Prop41ColorRGB
 90
        0
102
RTVSPost2010PropOp41
 70
     1
102
RTVSPost2010Prop42
 90
       50
102
RTVSPost2010PropOp42
 70
     1
102
RTVSPost2010Prop43
 90
        3
102
RTVSPost2010PropOp43
 70
     1
102
RTVSPost2010Prop44ColorIndex
 90
        5
102
RTVSPost2010Prop44ColorRGB
 90
      255
102
RTVSPost2010PropOp44
 70
     1
102
RTVSPost2010Prop45
280
     0
102
RTVSPost2010PropOp45
 70
     1
102
RTVSPost2010Prop46
 90
       50
102
RTVSPost2010PropOp46
 70
     1
102
RTVSPost2010Prop47
 90
       50
102
RTVSPost2010PropOp47
 70
     1
102
RTVSPost2010Prop48
 90
       50
102
RTVSPost2010PropOp48
 70
     1
102
RTVSPost2010Prop49
280
     0
102
RTVSPost2010PropOp49
 70
     1
102
RTVSPost2010Prop50
 90
       50
102
RTVSPost2010PropOp50
 70
     1
102
RTVSPost2010Prop51ColorIndex
 90
      256
102
RTVSPost2010Prop51ColorRGB
 90
-16777216
102
RTVSPost2010PropOp51
 70
     0
102
RTVSPost2010Prop52
140
1.0
102
RTVSPost2010PropOp52
 70
     0
102
RTVSPost2010Prop53
 90
        2
102
RTVSPost2010PropOp53
 70
     1
102
RTVSPost2010Prop54
  1
strokes_ogs.tif
102
RTVSPost2010PropOp54
 70
     1
102
RTVSPost2010Prop55
280
     0
102
RTVSPost2010PropOp55
 70
     1
102
RTVSPost2010Prop56
140
1.0
102
RTVSPost2010PropOp56
 70
     1
102
RTVSPost2010Prop57
140
1.0
102
RTVSPost2010PropOp57
 70
     1
  0
XRECORD
  5
16C
102
{ACAD_REACTORS
330
16B
102
}
330
16B
100
AcDbXrecord
280
     1
102
RTVSPost2010Prop28
280
     0
102
RTVSPost2010PropOp28
 70
     1
102
RTVSPost2010Prop29
280
     1
102
RTVSPost2010PropOp29
 70
     1
102
RTVSPost2010Prop30
280
     1
102
RTVSPost2010PropOp30
 70
     1
102
RTVSPost2010Prop31
280
     0
102
RTVSPost2010PropOp31
 70
     1
102
RTVSPost2010Prop32
280
     0
102
RTVSPost2010PropOp32
 70
     1
102
RTVSPost2010Prop33
280
     0
102
RTVSPost2010PropOp33
 70
     1
102
RTVSPost2010Prop34
280
     0
102
RTVSPost2010PropOp34
 70
     1
102
RTVSPost2010Prop35
280
     0
102
RTVSPost2010PropOp35
 70
     1
102
RTVSPost2010Prop36
280
     0
102
RTVSPost2010PropOp36
 70
     1
102
RTVSPost2010Prop37
 90
       50
102
RTVSPost2010PropOp37
 70
     1
102
RTVSPost2010Prop38
140
0.0
102
RTVSPost2010PropOp38
 70
     1
102
RTVSPost2010Prop39
140
1.0
102
RTVSPost2010PropOp39
 70
     1
102
RTVSPost2010Prop40
 90
        0
102
RTVSPost2010PropOp40
 70
     1
102
RTVSPost2010Prop41ColorIndex
 90
       18
102
RTVSPost2010Prop41ColorRGB
 90
        0
102
RTVSPost2010PropOp41
 70
     1
102
RTVSPost2010Prop42
 90
       50
102
RTVSPost2010PropOp42
 70
     1
102
RTVSPost2010Prop43
 90
        3
102
RTVSPost2010PropOp43
 70
     1
102
RTVSPost2010Prop44ColorIndex
 90
        5
102
RTVSPost2010Prop44ColorRGB
 90
      255
102
RTVSPost2010PropOp44
 70
     1
102
RTVSPost2010Prop45
280
     0
102
RTVSPost2010PropOp45
 70
     1
102
RTVSPost2010Prop46
 90
       50
102
RTVSPost2010PropOp46
 70
     1
102
RTVSPost2010Prop47
 90
       50
102
RTVSPost2010PropOp47
 70
     1
102
RTVSPost2010Prop48
 90
       50
102
RTVSPost2010PropOp48
 70
     1
102
RTVSPost2010Prop49
280
     0
102
RTVSPost2010PropOp49
 70
     1
102
RTVSPost2010Prop50
 90
       50
102
RTVSPost2010PropOp50
 70
     1
102
RTVSPost2010Prop51ColorIndex
 90
      256
102
RTVSPost2010Prop51ColorRGB
 90
-16777216
102
RTVSPost2010PropOp51
 70
     0
102
RTVSPost2010Prop52
140
1.0
102
RTVSPost2010PropOp52
 70
     0
102
RTVSPost2010Prop53
 90
        2
102
RTVSPost2010PropOp53
 70
     1
102
RTVSPost2010Prop54
  1
strokes_ogs.tif
102
RTVSPost2010PropOp54
 70
     1
102
RTVSPost2010Prop55
280
     0
102
RTVSPost2010PropOp55
 70
     1
102
RTVSPost2010Prop56
140
1.0
102
RTVSPost2010PropOp56
 70
     1
102
RTVSPost2010Prop57
140
1.0
102
RTVSPost2010PropOp57
 70
     1
  0
XRECORD
  5
16E
102
{ACAD_REACTORS
330
16D
102
}
330
16D
100
AcDbXrecord
280
     1
102
RTVSPost2010Prop28
280
     0
102
RTVSPost2010PropOp28
 70
     1
102
RTVSPost2010Prop29
280
     1
102
RTVSPost2010PropOp29
 70
     1
102
RTVSPost2010Prop30
280
     1
102
RTVSPost2010PropOp30
 70
     1
102
RTVSPost2010Prop31
280
     0
102
RTVSPost2010PropOp31
 70
     1
102
RTVSPost2010Prop32
280
     0
102
RTVSPost2010PropOp32
 70
     1
102
RTVSPost2010Prop33
280
     0
102
RTVSPost2010PropOp33
 70
     1
102
RTVSPost2010Prop34
280
     0
102
RTVSPost2010PropOp34
 70
     1
102
RTVSPost2010Prop35
280
     0
102
RTVSPost2010PropOp35
 70
     1
102
RTVSPost2010Prop36
280
     0
102
RTVSPost2010PropOp36
 70
     1
102
RTVSPost2010Prop37
 90
       50
102
RTVSPost2010PropOp37
 70
     1
102
RTVSPost2010Prop38
140
0.0
102
RTVSPost2010PropOp38
 70
     1
102
RTVSPost2010Prop39
140
1.0
102
RTVSPost2010PropOp39
 70
     1
102
RTVSPost2010Prop40
 90
        0
102
RTVSPost2010PropOp40
 70
     1
102
RTVSPost2010Prop41ColorIndex
 90
       18
102
RTVSPost2010Prop41ColorRGB
 90
        0
102
RTVSPost2010PropOp41
 70
     1
102
RTVSPost2010Prop42
 90
       50
102
RTVSPost2010PropOp42
 70
     1
102
RTVSPost2010Prop43
 90
        3
102
RTVSPost2010PropOp43
 70
     1
102
RTVSPost2010Prop44ColorIndex
 90
        5
102
RTVSPost2010Prop44ColorRGB
 90
      255
102
RTVSPost2010PropOp44
 70
     1
102
RTVSPost2010Prop45
280
     0
102
RTVSPost2010PropOp45
 70
     1
102
RTVSPost2010Prop46
 90
       50
102
RTVSPost2010PropOp46
 70
     1
102
RTVSPost2010Prop47
 90
       50
102
RTVSPost2010PropOp47
 70
     1
102
RTVSPost2010Prop48
 90
       50
102
RTVSPost2010PropOp48
 70
     1
102
RTVSPost2010Prop49
280
     0
102
RTVSPost2010PropOp49
 70
     1
102
RTVSPost2010Prop50
 90
       50
102
RTVSPost2010PropOp50
 70
     1
102
RTVSPost2010Prop51ColorIndex
 90
      256
102
RTVSPost2010Prop51ColorRGB
 90
-16777216
102
RTVSPost2010PropOp51
 70
     0
102
RTVSPost2010Prop52
140
1.0
102
RTVSPost2010PropOp52
 70
     0
102
RTVSPost2010Prop53
 90
        2
102
RTVSPost2010PropOp53
 70
     1
102
RTVSPost2010Prop54
  1
strokes_ogs.tif
102
RTVSPost2010PropOp54
 70
     1
102
RTVSPost2010Prop55
280
     0
102
RTVSPost2010PropOp55
 70
     1
102
RTVSPost2010Prop56
140
1.0
102
RTVSPost2010PropOp56
 70
     1
102
RTVSPost2010Prop57
140
1.0
102
RTVSPost2010PropOp57
 70
     1
  0
XRECORD
  5
164
102
{ACAD_REACTORS
330
163
102
}
330
163
100
AcDbXrecord
280
     1
102
RTVSPost2010Prop28
280
     0
102
RTVSPost2010PropOp28
 70
     1
102
RTVSPost2010Prop29
280
     1
102
RTVSPost2010PropOp29
 70
     1
102
RTVSPost2010Prop30
280
     1
102
RTVSPost2010PropOp30
 70
     1
102
RTVSPost2010Prop31
280
     0
102
RTVSPost2010PropOp31
 70
     1
102
RTVSPost2010Prop32
280
     0
102
RTVSPost2010PropOp32
 70
     1
102
RTVSPost2010Prop33
280
     0
102
RTVSPost2010PropOp33
 70
     1
102
RTVSPost2010Prop34
280
     0
102
RTVSPost2010PropOp34
 70
     1
102
RTVSPost2010Prop35
280
     0
102
RTVSPost2010PropOp35
 70
     1
102
RTVSPost2010Prop36
280
     0
102
RTVSPost2010PropOp36
 70
     1
102
RTVSPost2010Prop37
 90
       50
102
RTVSPost2010PropOp37
 70
     1
102
RTVSPost2010Prop38
140
0.0
102
RTVSPost2010PropOp38
 70
     1
102
RTVSPost2010Prop39
140
1.0
102
RTVSPost2010PropOp39
 70
     1
102
RTVSPost2010Prop40
 90
        0
102
RTVSPost2010PropOp40
 70
     1
102
RTVSPost2010Prop41ColorIndex
 90
       18
102
RTVSPost2010Prop41ColorRGB
 90
        0
102
RTVSPost2010PropOp41
 70
     1
102
RTVSPost2010Prop42
 90
       50
102
RTVSPost2010PropOp42
 70
     1
102
RTVSPost2010Prop43
 90
        3
102
RTVSPost2010PropOp43
 70
     1
102
RTVSPost2010Prop44ColorIndex
 90
        5
102
RTVSPost2010Prop44ColorRGB
 90
      255
102
RTVSPost2010PropOp44
 70
     1
102
RTVSPost2010Prop45
280
     0
102
RTVSPost2010PropOp45
 70
     1
102
RTVSPost2010Prop46
 90
       50
102
RTVSPost2010PropOp46
 70
     1
102
RTVSPost2010Prop47
 90
       50
102
RTVSPost2010PropOp47
 70
     1
102
RTVSPost2010Prop48
 90
       50
102
RTVSPost2010PropOp48
 70
     1
102
RTVSPost2010Prop49
280
     0
102
RTVSPost2010PropOp49
 70
     1
102
RTVSPost2010Prop50
 90
       50
102
RTVSPost2010PropOp50
 70
     1
102
RTVSPost2010Prop51ColorIndex
 90
      256
102
RTVSPost2010Prop51ColorRGB
 90
-16777216
102
RTVSPost2010PropOp51
 70
     0
102
RTVSPost2010Prop52
140
1.0
102
RTVSPost2010PropOp52
 70
     0
102
RTVSPost2010Prop53
 90
        2
102
RTVSPost2010PropOp53
 70
     1
102
RTVSPost2010Prop54
  1
strokes_ogs.tif
102
RTVSPost2010PropOp54
 70
     1
102
RTVSPost2010Prop55
280
     0
102
RTVSPost2010PropOp55
 70
     1
102
RTVSPost2010Prop56
140
1.0
102
RTVSPost2010PropOp56
 70
     1
102
RTVSPost2010Prop57
140
1.0
102
RTVSPost2010PropOp57
 70
     1
  0
XRECORD
  5
158
102
{ACAD_REACTORS
330
157
102
}
330
157
100
AcDbXrecord
280
     1
102
RTVSPost2010Prop28
280
     0
102
RTVSPost2010PropOp28
 70
     1
102
RTVSPost2010Prop29
280
     1
102
RTVSPost2010PropOp29
 70
     1
102
RTVSPost2010Prop30
280
     1
102
RTVSPost2010PropOp30
 70
     1
102
RTVSPost2010Prop31
280
     0
102
RTVSPost2010PropOp31
 70
     1
102
RTVSPost2010Prop32
280
     0
102
RTVSPost2010PropOp32
 70
     1
102
RTVSPost2010Prop33
280
     0
102
RTVSPost2010PropOp33
 70
     1
102
RTVSPost2010Prop34
280
     0
102
RTVSPost2010PropOp34
 70
     1
102
RTVSPost2010Prop35
280
     0
102
RTVSPost2010PropOp35
 70
     1
102
RTVSPost2010Prop36
280
     0
102
RTVSPost2010PropOp36
 70
     1
102
RTVSPost2010Prop37
 90
       50
102
RTVSPost2010PropOp37
 70
     1
102
RTVSPost2010Prop38
140
0.0
102
RTVSPost2010PropOp38
 70
     1
102
RTVSPost2010Prop39
140
1.0
102
RTVSPost2010PropOp39
 70
     1
102
RTVSPost2010Prop40
 90
        0
102
RTVSPost2010PropOp40
 70
     1
102
RTVSPost2010Prop41ColorIndex
 90
       18
102
RTVSPost2010Prop41ColorRGB
 90
        0
102
RTVSPost2010PropOp41
 70
     1
102
RTVSPost2010Prop42
 90
       50
102
RTVSPost2010PropOp42
 70
     1
102
RTVSPost2010Prop43
 90
        3
102
RTVSPost2010PropOp43
 70
     1
102
RTVSPost2010Prop44ColorIndex
 90
        5
102
RTVSPost2010Prop44ColorRGB
 90
      255
102
RTVSPost2010PropOp44
 70
     1
102
RTVSPost2010Prop45
280
     0
102
RTVSPost2010PropOp45
 70
     1
102
RTVSPost2010Prop46
 90
       50
102
RTVSPost2010PropOp46
 70
     1
102
RTVSPost2010Prop47
 90
       50
102
RTVSPost2010PropOp47
 70
     1
102
RTVSPost2010Prop48
 90
       50
102
RTVSPost2010PropOp48
 70
     1
102
RTVSPost2010Prop49
280
     0
102
RTVSPost2010PropOp49
 70
     1
102
RTVSPost2010Prop50
 90
       50
102
RTVSPost2010PropOp50
 70
     1
102
RTVSPost2010Prop51ColorIndex
 90
      256
102
RTVSPost2010Prop51ColorRGB
 90
-16777216
102
RTVSPost2010PropOp51
 70
     0
102
RTVSPost2010Prop52
140
1.0
102
RTVSPost2010PropOp52
 70
     0
102
RTVSPost2010Prop53
 90
        2
102
RTVSPost2010PropOp53
 70
     1
102
RTVSPost2010Prop54
  1
strokes_ogs.tif
102
RTVSPost2010PropOp54
 70
     1
102
RTVSPost2010Prop55
280
     0
102
RTVSPost2010PropOp55
 70
     1
102
RTVSPost2010Prop56
140
1.0
102
RTVSPost2010PropOp56
 70
     1
102
RTVSPost2010Prop57
140
1.0
102
RTVSPost2010PropOp57
 70
     1
  0
XRECORD
  5
170
102
{ACAD_REACTORS
330
16F
102
}
330
16F
100
AcDbXrecord
280
     1
102
RTVSPost2010Prop28
280
     0
102
RTVSPost2010PropOp28
 70
     1
102
RTVSPost2010Prop29
280
     1
102
RTVSPost2010PropOp29
 70
     1
102
RTVSPost2010Prop30
280
     1
102
RTVSPost2010PropOp30
 70
     1
102
RTVSPost2010Prop31
280
     0
102
RTVSPost2010PropOp31
 70
     1
102
RTVSPost2010Prop32
280
     0
102
RTVSPost2010PropOp32
 70
     1
102
RTVSPost2010Prop33
280
     0
102
RTVSPost2010PropOp33
 70
     1
102
RTVSPost2010Prop34
280
     0
102
RTVSPost2010PropOp34
 70
     1
102
RTVSPost2010Prop35
280
     0
102
RTVSPost2010PropOp35
 70
     1
102
RTVSPost2010Prop36
280
     0
102
RTVSPost2010PropOp36
 70
     1
102
RTVSPost2010Prop37
 90
       50
102
RTVSPost2010PropOp37
 70
     1
102
RTVSPost2010Prop38
140
0.0
102
RTVSPost2010PropOp38
 70
     1
102
RTVSPost2010Prop39
140
1.0
102
RTVSPost2010PropOp39
 70
     1
102
RTVSPost2010Prop40
 90
        0
102
RTVSPost2010PropOp40
 70
     1
102
RTVSPost2010Prop41ColorIndex
 90
       18
102
RTVSPost2010Prop41ColorRGB
 90
        0
102
RTVSPost2010PropOp41
 70
     1
102
RTVSPost2010Prop42
 90
       50
102
RTVSPost2010PropOp42
 70
     1
102
RTVSPost2010Prop43
 90
        3
102
RTVSPost2010PropOp43
 70
     1
102
RTVSPost2010Prop44ColorIndex
 90
        5
102
RTVSPost2010Prop44ColorRGB
 90
      255
102
RTVSPost2010PropOp44
 70
     1
102
RTVSPost2010Prop45
280
     0
102
RTVSPost2010PropOp45
 70
     1
102
RTVSPost2010Prop46
 90
       50
102
RTVSPost2010PropOp46
 70
     1
102
RTVSPost2010Prop47
 90
       50
102
RTVSPost2010PropOp47
 70
     1
102
RTVSPost2010Prop48
 90
       50
102
RTVSPost2010PropOp48
 70
     1
102
RTVSPost2010Prop49
280
     0
102
RTVSPost2010PropOp49
 70
     1
102
RTVSPost2010Prop50
 90
       50
102
RTVSPost2010PropOp50
 70
     1
102
RTVSPost2010Prop51ColorIndex
 90
      256
102
RTVSPost2010Prop51ColorRGB
 90
-16777216
102
RTVSPost2010PropOp51
 70
     0
102
RTVSPost2010Prop52
140
1.0
102
RTVSPost2010PropOp52
 70
     0
102
RTVSPost2010Prop53
 90
        2
102
RTVSPost2010PropOp53
 70
     1
102
RTVSPost2010Prop54
  1
strokes_ogs.tif
102
RTVSPost2010PropOp54
 70
     1
102
RTVSPost2010Prop55
280
     0
102
RTVSPost2010PropOp55
 70
     1
102
RTVSPost2010Prop56
140
1.0
102
RTVSPost2010PropOp56
 70
     1
102
RTVSPost2010Prop57
140
1.0
102
RTVSPost2010PropOp57
 70
     1
  0
ENDSEC
  0
EOF
