  0
SECTION
  2
HEADER
  9
$ACADVER
  1
AC1024
  9
$ACADMAINTVER
 70
   226
  9
$DWGCODEPAGE
  3
ANSI_932
  9
$INSBASE
 10
0.0
 20
0.0
 30
0.0
  9
$EXTMIN
 10
1.000000000000000E+20
 20
1.000000000000000E+20
 30
1.000000000000000E+20
  9
$EXTMAX
 10
-1.000000000000000E+20
 20
-1.000000000000000E+20
 30
-1.000000000000000E+20
  9
$LIMMIN
 10
0.0
 20
0.0
  9
$LIMMAX
 10
12.0
 20
9.0
  9
$ORTHOMODE
 70
     0
  9
$REGENMODE
 70
     1
  9
$FILLMODE
 70
     1
  9
$QTEXTMODE
 70
     0
  9
$MIRRTEXT
 70
     0
  9
$LTSCALE
 40
1.0
  9
$ATTMODE
 70
     1
  9
$TEXTSIZE
 40
0.2
  9
$TRACEWID
 40
0.05
  9
$TEXTSTYLE
  7
Standard
  9
$CLAYER
  8
0
  9
$CELTYPE
  6
ByLayer
  9
$CECOLOR
 62
   256
  9
$CELTSCALE
 40
1.0
  9
$DISPSILH
 70
     0
  9
$DIMSCALE
 40
1.0
  9
$DIMASZ
 40
0.18
  9
$DIMEXO
 40
0.0625
  9
$DIMDLI
 40
0.38
  9
$DIMRND
 40
0.0
  9
$DIMDLE
 40
0.0
  9
$DIMEXE
 40
0.18
  9
$DIMTP
 40
0.0
  9
$DIMTM
 40
0.0
  9
$DIMTXT
 40
0.18
  9
$DIMCEN
 40
0.09
  9
$DIMTSZ
 40
0.0
  9
$DIMTOL
 70
     0
  9
$DIMLIM
 70
     0
  9
$DIMTIH
 70
     1
  9
$DIMTOH
 70
     1
  9
$DIMSE1
 70
     0
  9
$DIMSE2
 70
     0
  9
$DIMTAD
 70
     0
  9
$DIMZIN
 70
     0
  9
$DIMBLK
  1

  9
$DIMASO
 70
     1
  9
$DIMSHO
 70
     1
  9
$DIMPOST
  1

  9
$DIMAPOST
  1

  9
$DIMALT
 70
     0
  9
$DIMALTD
 70
     2
  9
$DIMALTF
 40
25.4
  9
$DIMLFAC
 40
1.0
  9
$DIMTOFL
 70
     0
  9
$DIMTVP
 40
0.0
  9
$DIMTIX
 70
     0
  9
$DIMSOXD
 70
     0
  9
$DIMSAH
 70
     0
  9
$DIMBLK1
  1

  9
$DIMBLK2
  1

  9
$DIMSTYLE
  2
Standard
  9
$DIMCLRD
 70
     0
  9
$DIMCLRE
 70
     0
  9
$DIMCLRT
 70
     0
  9
$DIMTFAC
 40
1.0
  9
$DIMGAP
 40
0.09
  9
$DIMJUST
 70
     0
  9
$DIMSD1
 70
     0
  9
$DIMSD2
 70
     0
  9
$DIMTOLJ
 70
     1
  9
$DIMTZIN
 70
     0
  9
$DIMALTZ
 70
     0
  9
$DIMALTTZ
 70
     0
  9
$DIMUPT
 70
     0
  9
$DIMDEC
 70
     4
  9
$DIMTDEC
 70
     4
  9
$DIMALTU
 70
     2
  9
$DIMALTTD
 70
     2
  9
$DIMTXSTY
  7
Standard
  9
$DIMAUNIT
 70
     0
  9
$DIMADEC
 70
     0
  9
$DIMALTRND
 40
0.0
  9
$DIMAZIN
 70
     0
  9
$DIMDSEP
 70
    46
  9
$DIMATFIT
 70
     3
  9
$DIMFRAC
 70
     0
  9
$DIMLDRBLK
  1

  9
$DIMLUNIT
 70
     2
  9
$DIMLWD
 70
    -2
  9
$DIMLWE
 70
    -2
  9
$DIMTMOVE
 70
     0
  9
$DIMFXL
 40
1.0
  9
$DIMFXLON
 70
     0
  9
$DIMJOGANG
 40
0.7853981633974483
  9
$DIMTFILL
 70
     0
  9
$DIMTFILLCLR
 70
     0
  9
$DIMARCSYM
 70
     0
  9
$DIMLTYPE
  6

  9
$DIMLTEX1
  6

  9
$DIMLTEX2
  6

  9
$DIMTXTDIRECTION
 70
     0
  9
$LUNITS
 70
     2
  9
$LUPREC
 70
     4
  9
$SKETCHINC
 40
0.1
  9
$FILLETRAD
 40
0.0
  9
$AUNITS
 70
     0
  9
$AUPREC
 70
     0
  9
$MENU
  1
.
  9
$ELEVATION
 40
0.0
  9
$PELEVATION
 40
0.0
  9
$THICKNESS
 40
0.0
  9
$LIMCHECK
 70
     0
  9
$CHAMFERA
 40
0.0
  9
$CHAMFERB
 40
0.0
  9
$CHAMFERC
 40
0.0
  9
$CHAMFERD
 40
0.0
  9
$SKPOLY
 70
     0
  9
$TDCREATE
 40
2459569.488738426
  9
$TDUCREATE
 40
2459569.113738426
  9
$TDUPDATE
 40
2459569.488738426
  9
$TDUUPDATE
 40
2459569.113738426
  9
$TDINDWG
 40
0.0000000000
  9
$TDUSRTIMER
 40
0.0000000000
  9
$USRTIMER
 70
     1
  9
$ANGBASE
 50
0.0
  9
$ANGDIR
 70
     0
  9
$PDMODE
 70
     0
  9
$PDSIZE
 40
0.0
  9
$PLINEWID
 40
0.0
  9
$SPLFRAME
 70
     0
  9
$SPLINETYPE
 70
     6
  9
$SPLINESEGS
 70
     8
  9
$HANDSEED
  5
107
  9
$SURFTAB1
 70
     6
  9
$SURFTAB2
 70
     6
  9
$SURFTYPE
 70
     6
  9
$SURFU
 70
     6
  9
$SURFV
 70
     6
  9
$UCSBASE
  2

  9
$UCSNAME
  2

  9
$UCSORG
 10
0.0
 20
0.0
 30
0.0
  9
$UCSXDIR
 10
1.0
 20
0.0
 30
0.0
  9
$UCSYDIR
 10
0.0
 20
1.0
 30
0.0
  9
$UCSORTHOREF
  2

  9
$UCSORTHOVIEW
 70
     0
  9
$UCSORGTOP
 10
0.0
 20
0.0
 30
0.0
  9
$UCSORGBOTTOM
 10
0.0
 20
0.0
 30
0.0
  9
$UCSORGLEFT
 10
0.0
 20
0.0
 30
0.0
  9
$UCSORGRIGHT
 10
0.0
 20
0.0
 30
0.0
  9
$UCSORGFRONT
 10
0.0
 20
0.0
 30
0.0
  9
$UCSORGBACK
 10
0.0
 20
0.0
 30
0.0
  9
$PUCSBASE
  2

  9
$PUCSNAME
  2

  9
$PUCSORG
 10
0.0
 20
0.0
 30
0.0
  9
$PUCSXDIR
 10
1.0
 20
0.0
 30
0.0
  9
$PUCSYDIR
 10
0.0
 20
1.0
 30
0.0
  9
$PUCSORTHOREF
  2

  9
$PUCSORTHOVIEW
 70
     0
  9
$PUCSORGTOP
 10
0.0
 20
0.0
 30
0.0
  9
$PUCSORGBOTTOM
 10
0.0
 20
0.0
 30
0.0
  9
$PUCSORGLEFT
 10
0.0
 20
0.0
 30
0.0
  9
$PUCSORGRIGHT
 10
0.0
 20
0.0
 30
0.0
  9
$PUCSORGFRONT
 10
0.0
 20
0.0
 30
0.0
  9
$PUCSORGBACK
 10
0.0
 20
0.0
 30
0.0
  9
$USERI1
 70
     0
  9
$USERI2
 70
     0
  9
$USERI3
 70
     0
  9
$USERI4
 70
     0
  9
$USERI5
 70
     0
  9
$USERR1
 40
0.0
  9
$USERR2
 40
0.0
  9
$USERR3
 40
0.0
  9
$USERR4
 40
0.0
  9
$USERR5
 40
0.0
  9
$WORLDVIEW
 70
     1
  9
$SHADEDGE
 70
     3
  9
$SHADEDIF
 70
    70
  9
$TILEMODE
 70
     1
  9
$MAXACTVP
 70
    64
  9
$PINSBASE
 10
0.0
 20
0.0
 30
0.0
  9
$PLIMCHECK
 70
     0
  9
$PEXTMIN
 10
1.000000000000000E+20
 20
1.000000000000000E+20
 30
1.000000000000000E+20
  9
$PEXTMAX
 10
-1.000000000000000E+20
 20
-1.000000000000000E+20
 30
-1.000000000000000E+20
  9
$PLIMMIN
 10
0.0
 20
0.0
  9
$PLIMMAX
 10
12.0
 20
9.0
  9
$UNITMODE
 70
     0
  9
$VISRETAIN
 70
     1
  9
$PLINEGEN
 70
     0
  9
$PSLTSCALE
 70
     1
  9
$TREEDEPTH
 70
  3020
  9
$CMLSTYLE
  2
Standard
  9
$CMLJUST
 70
     0
  9
$CMLSCALE
 40
1.0
  9
$PROXYGRAPHICS
 70
     1
  9
$MEASUREMENT
 70
     0
  9
$CELWEIGHT
370
    -1
  9
$ENDCAPS
280
     0
  9
$JOINSTYLE
280
     0
  9
$LWDISPLAY
290
     1
  9
$INSUNITS
 70
     4
  9
$HYPERLINKBASE
  1

  9
$STYLESHEET
  1

  9
$XEDIT
290
     1
  9
$CEPSNTYPE
380
     0
  9
$PSTYLEMODE
290
     1
  9
$FINGERPRINTGUID
  2
{AFE49C34-4F57-E241-AD60-4607F42F4B9A}
  9
$VERSIONGUID
  2
{26B615D3-D7B4-224C-BCFE-8C345AE61F6A}
  9
$EXTNAMES
290
     1
  9
$PSVPSCALE
 40
0.0
  9
$OLESTARTUP
290
     0
  9
$SORTENTS
280
   127
  9
$INDEXCTL
280
     0
  9
$HIDETEXT
280
     1
  9
$XCLIPFRAME
280
     2
  9
$HALOGAP
280
     0
  9
$OBSCOLOR
 70
   257
  9
$OBSLTYPE
280
     0
  9
$INTERSECTIONDISPLAY
280
     0
  9
$INTERSECTIONCOLOR
 70
   257
  9
$DIMASSOC
280
     2
  9
$PROJECTNAME
  1

  9
$CAMERADISPLAY
290
     0
  9
$LENSLENGTH
 40
50.0
  9
$CAMERAHEIGHT
 40
0.0
  9
$STEPSPERSEC
 40
2.0
  9
$STEPSIZE
 40
6.0
  9
$3DDWFPREC
 40
2.0
  9
$PSOLWIDTH
 40
0.25
  9
$PSOLHEIGHT
 40
4.0
  9
$LOFTANG1
 40
1.570796326794896
  9
$LOFTANG2
 40
1.570796326794896
  9
$LOFTMAG1
 40
0.0
  9
$LOFTMAG2
 40
0.0
  9
$LOFTPARAM
 70
     7
  9
$LOFTNORMALS
280
     1
  9
$LATITUDE
 40
37.795
  9
$LONGITUDE
 40
-122.394
  9
$NORTHDIRECTION
 40
0.0
  9
$TIMEZONE
 70
 -8000
  9
$LIGHTGLYPHDISPLAY
280
     1
  9
$TILEMODELIGHTSYNCH
280
     1
  9
$CMATERIAL
347
11
  9
$SOLIDHIST
280
     0
  9
$SHOWHIST
280
     1
  9
$DWFFRAME
280
     2
  9
$DGNFRAME
280
     0
  9
$REALWORLDSCALE
290
     1
  9
$INTERFERECOLOR
 62
     1
  9
$INTERFEREOBJVS
345
33
  9
$INTERFEREVPVS
346
30
  9
$CSHADOW
280
     0
  9
$SHADOWPLANELOCATION
 40
0.0
  0
ENDSEC
  0
SECTION
  2
CLASSES
  0
CLASS
  1
ACDBDICTIONARYWDFLT
  2
AcDbDictionaryWithDefault
  3
ObjectDBX Classes
 90
        0
 91
        1
280
     0
281
     0
  0
CLASS
  1
MATERIAL
  2
AcDbMaterial
  3
ObjectDBX Classes
 90
     1153
 91
        3
280
     0
281
     0
  0
CLASS
  1
VISUALSTYLE
  2
AcDbVisualStyle
  3
ObjectDBX Classes
 90
     4095
 91
       24
280
     0
281
     0
  0
CLASS
  1
SCALE
  2
AcDbScale
  3
ObjectDBX Classes
 90
     1153
 91
       17
280
     0
281
     0
  0
CLASS
  1
TABLESTYLE
  2
AcDbTableStyle
  3
ObjectDBX Classes
 90
     4095
 91
        1
280
     0
281
     0
  0
CLASS
  1
MLEADERSTYLE
  2
AcDbMLeaderStyle
  3
ACDB_MLEADERSTYLE_CLASS
 90
     4095
 91
        1
280
     0
281
     0
  0
CLASS
  1
ACDBSECTIONVIEWSTYLE
  2
AcDbSectionViewStyle
  3
ObjectDBX Classes
 90
     1025
 91
        1
280
     0
281
     0
  0
CLASS
  1
ACDBDETAILVIEWSTYLE
  2
AcDbDetailViewStyle
  3
ObjectDBX Classes
 90
     1025
 91
        1
280
     0
281
     0
  0
CLASS
  1
DICTIONARYVAR
  2
AcDbDictionaryVar
  3
ObjectDBX Classes
 90
        0
 91
        5
280
     0
281
     0
  0
CLASS
  1
CELLSTYLEMAP
  2
AcDbCellStyleMap
  3
ObjectDBX Classes
 90
     1152
 91
        1
280
     0
281
     0
  0
ENDSEC
  0
SECTION
  2
TABLES
  0
TABLE
  2
VPORT
  5
8
330
0
100
AcDbSymbolTable
 70
     1
  0
VPORT
  5
57
330
8
100
AcDbSymbolTableRecord
100
AcDbViewportTableRecord
  2
*Active
 70
     0
 10
0.0
 20
0.0
 11
1.0
 21
1.0
 12
0.0
 22
0.0
 13
0.0
 23
0.0
 14
1.0
 24
1.0
 15
0.0
 25
0.0
 16
0.0
 26
0.0
 36
1.0
 17
104.9999999737534
 27
-148.4999999628701
 37
0.0
 40
302.939999924255
 41
0.7070707070707534
 42
50.0
 43
0.0
 44
0.0
 50
0.0
 51
0.0
 71
     0
 72
   100
 73
     1
 74
     0
 75
     1
 76
     0
 77
     0
 78
     0
281
     0
 65
     1
110
0.0
120
0.0
130
0.0
111
1.0
121
0.0
131
0.0
112
0.0
122
1.0
132
0.0
 79
     0
146
0.0
 60
     3
 61
     5
292
     1
282
     1
141
0.0
142
0.0
 63
   250
421
  3355443
  0
ENDTAB
  0
TABLE
  2
LTYPE
  5
5
330
0
100
AcDbSymbolTable
 70
     2
  0
LTYPE
  5
5B
330
5
100
AcDbSymbolTableRecord
100
AcDbLinetypeTableRecord
  2
ByBlock
 70
     0
  3

 72
    65
 73
     0
 40
0.0
  0
LTYPE
  5
5C
330
5
100
AcDbSymbolTableRecord
100
AcDbLinetypeTableRecord
  2
ByLayer
 70
     0
  3

 72
    65
 73
     0
 40
0.0
  0
LTYPE
  5
5D
330
5
100
AcDbSymbolTableRecord
100
AcDbLinetypeTableRecord
  2
Continuous
 70
     0
  3
Solid line
 72
    65
 73
     0
 40
0.0
  0
LTYPE
  5
82
330
5
100
AcDbSymbolTableRecord
100
AcDbLinetypeTableRecord
  2
AI-Linetype-0
 70
     0
  3
Adobe Illustrator Linetype No. 0
 72
    65
 73
     2
 40
1.411111110758333
 49
0.7055555553791667
 74
     0
 49
-0.7055555553791667
 74
     0
  0
ENDTAB
  0
TABLE
  2
LAYER
  5
2
330
0
100
AcDbSymbolTable
 70
     2
  0
LAYER
  5
54
330
2
100
AcDbSymbolTableRecord
100
AcDbLayerTableRecord
  2
0
 70
     0
 62
     7
  6
Continuous
370
    -3
390
F
347
21
  0
LAYER
  5
78
330
2
100
AcDbSymbolTableRecord
100
AcDbLayerTableRecord
  2
レイヤー 1
 70
     0
 62
     7
  6
Continuous
370
     0
390
F
347
21
  0
ENDTAB
  0
TABLE
  2
STYLE
  5
3
330
0
100
AcDbSymbolTable
 70
     2
  0
STYLE
  5
55
330
3
100
AcDbSymbolTableRecord
100
AcDbTextStyleTableRecord
  2
Standard
 70
     0
 40
0.0
 41
1.0
 50
0.0
 71
     0
 42
0.2
  3
txt
  4

  0
STYLE
  5
5A
330
3
100
AcDbSymbolTableRecord
100
AcDbTextStyleTableRecord
  2
Annotative
 70
     0
 40
0.0
 41
1.0
 50
0.0
 71
     0
 42
0.2
  3
txt
  4

1001
AcadAnnotative
1000
AnnotativeData
1002
{
1070
     1
1070
     1
1002
}
  0
ENDTAB
  0
TABLE
  2
VIEW
  5
6
330
0
100
AcDbSymbolTable
 70
     0
  0
ENDTAB
  0
TABLE
  2
UCS
  5
7
330
0
100
AcDbSymbolTable
 70
     0
  0
ENDTAB
  0
TABLE
  2
APPID
  5
9
330
0
100
AcDbSymbolTable
 70
     2
  0
APPID
  5
56
330
9
100
AcDbSymbolTableRecord
100
AcDbRegAppTableRecord
  2
ACAD
 70
     0
  0
APPID
  5
5E
330
9
100
AcDbSymbolTableRecord
100
AcDbRegAppTableRecord
  2
AcadAnnotative
 70
     0
  0
ENDTAB
  0
TABLE
  2
DIMSTYLE
  5
A
330
0
100
AcDbSymbolTable
 70
     2
100
AcDbDimStyleTable
 71
     0
  0
DIMSTYLE
105
58
330
A
100
AcDbSymbolTableRecord
100
AcDbDimStyleTableRecord
  2
Standard
 70
     0
340
55
  0
DIMSTYLE
105
59
330
A
100
AcDbSymbolTableRecord
100
AcDbDimStyleTableRecord
  2
Annotative
 70
     0
340
55
1001
AcadAnnotative
1000
AnnotativeData
1002
{
1070
     1
1070
     1
1002
}
  0
ENDTAB
  0
TABLE
  2
BLOCK_RECORD
  5
1
330
0
100
AcDbSymbolTable
 70
     8
  0
BLOCK_RECORD
  5
70
330
1
100
AcDbSymbolTableRecord
100
AcDbBlockTableRecord
  2
*Model_Space
340
73
 70
     0
280
     1
281
     0
  0
BLOCK_RECORD
  5
6C
330
1
100
AcDbSymbolTableRecord
100
AcDbBlockTableRecord
  2
*Paper_Space
340
6F
 70
     0
280
     1
281
     0
  0
BLOCK_RECORD
  5
74
330
1
100
AcDbSymbolTableRecord
100
AcDbBlockTableRecord
  2
*Paper_Space0
340
77
 70
     0
280
     1
281
     0
  0
BLOCK_RECORD
  5
79
330
1
100
AcDbSymbolTableRecord
100
AcDbBlockTableRecord
  2
Block_0
340
0
102
{BLKREFS
331
7A
102
}
 70
     0
280
     1
281
     0
  0
BLOCK_RECORD
  5
8B
330
1
100
AcDbSymbolTableRecord
100
AcDbBlockTableRecord
  2
Block_1
340
0
102
{BLKREFS
331
8C
102
}
 70
     0
280
     1
281
     0
  0
BLOCK_RECORD
  5
8F
330
1
100
AcDbSymbolTableRecord
100
AcDbBlockTableRecord
  2
Block_2
340
0
102
{BLKREFS
331
90
102
}
 70
     0
280
     1
281
     0
  0
BLOCK_RECORD
  5
A8
330
1
100
AcDbSymbolTableRecord
100
AcDbBlockTableRecord
  2
Block_3
340
0
102
{BLKREFS
331
A9
102
}
 70
     0
280
     1
281
     0
  0
BLOCK_RECORD
  5
AC
330
1
100
AcDbSymbolTableRecord
100
AcDbBlockTableRecord
  2
Block_4
340
0
102
{BLKREFS
331
AD
102
}
 70
     0
280
     1
281
     0
  0
BLOCK_RECORD
  5
B6
330
1
100
AcDbSymbolTableRecord
100
AcDbBlockTableRecord
  2
Block_5
340
0
102
{BLKREFS
331
B7
102
}
 70
     0
280
     1
281
     0
  0
BLOCK_RECORD
  5
C1
330
1
100
AcDbSymbolTableRecord
100
AcDbBlockTableRecord
  2
Block_6
340
0
102
{BLKREFS
331
C2
102
}
 70
     0
280
     1
281
     0
  0
ENDTAB
  0
ENDSEC
  0
SECTION
  2
BLOCKS
  0
BLOCK
  5
71
330
70
100
AcDbEntity
  8
0
100
AcDbBlockBegin
  2
*Model_Space
 70
     0
 10
0.0
 20
0.0
 30
0.0
  3
*Model_Space
  1

  0
ENDBLK
  5
72
330
70
100
AcDbEntity
  8
0
100
AcDbBlockEnd
  0
BLOCK
  5
6D
330
6C
100
AcDbEntity
 67
     1
  8
0
100
AcDbBlockBegin
  2
*Paper_Space
 70
     0
 10
0.0
 20
0.0
 30
0.0
  3
*Paper_Space
  1

  0
ENDBLK
  5
6E
330
6C
100
AcDbEntity
 67
     1
  8
0
100
AcDbBlockEnd
  0
BLOCK
  5
75
330
74
100
AcDbEntity
 67
     1
  8
0
100
AcDbBlockBegin
  2
*Paper_Space0
 70
     0
 10
0.0
 20
0.0
 30
0.0
  3
*Paper_Space0
  1

  0
ENDBLK
  5
76
330
74
100
AcDbEntity
 67
     1
  8
0
100
AcDbBlockEnd
  0
BLOCK
  5
7B
330
79
100
AcDbEntity
  8
0
100
AcDbBlockBegin
  2
Block_0
 70
     0
 10
0.0
 20
0.0
 30
0.0
  3
Block_0
  1

  0
LINE
  5
7D
330
79
100
AcDbEntity
  8
レイヤー 1
 62
   250
420
  2299925
370
    25
100
AcDbLine
 10
89.35536599784107
 20
-141.4500512263261
 30
0.0
 11
89.35536599784107
 21
-149.465886614183
 31
0.0
  0
LINE
  5
7E
330
79
100
AcDbEntity
  8
レイヤー 1
 62
   250
420
  2299925
370
    25
100
AcDbLine
 10
89.35536599784107
 20
-149.465886614183
 30
0.0
 11
128.3554069473115
 21
-149.465886614183
 31
0.0
  0
LINE
  5
7F
330
79
100
AcDbEntity
  8
レイヤー 1
 62
   250
420
  2299925
370
    25
100
AcDbLine
 10
128.3554069473115
 20
-149.465886614183
 30
0.0
 11
128.3554069473115
 21
-150.0660376816778
 31
0.0
  0
LINE
  5
80
330
79
100
AcDbEntity
  8
レイヤー 1
 62
   250
420
  2299925
370
    25
100
AcDbLine
 10
88.85536599796585
 20
-141.4500512035236
 30
0.0
 11
89.30318348455797
 21
-141.4500512035236
 31
0.0
  0
LINE
  5
81
330
79
100
AcDbEntity
  8
レイヤー 1
  6
AI-Linetype-0
 62
   154
420
    23468
370
    25
100
AcDbLine
 10
108.3550594020074
 20
-148.9660005031964
 30
0.0
 11
128.3554069473115
 21
-148.9660005031964
 31
0.0
  0
LINE
  5
83
330
79
100
AcDbEntity
  8
レイヤー 1
 62
   250
420
  2299925
370
     9
100
AcDbLine
 10
113.3554726077695
 20
-148.4658024447258
 30
0.0
 11
113.6138497979247
 21
-147.4997910804819
 31
0.0
  0
LINE
  5
84
330
79
100
AcDbEntity
  8
レイヤー 1
 62
   250
420
  2299925
370
     9
100
AcDbLine
 10
113.3554726077695
 20
-148.4658024390535
 30
0.0
 11
113.3554726077695
 21
-145.5594442289078
 31
0.0
  0
LINE
  5
85
330
79
100
AcDbEntity
  8
レイヤー 1
 62
   250
420
  2299925
370
     9
100
AcDbLine
 10
113.3554726077695
 20
-148.4658024447258
 30
0.0
 11
113.0963926143792
 21
-147.4997910804819
 31
0.0
  0
LINE
  5
86
330
79
100
AcDbEntity
  8
レイヤー 1
 62
   250
420
  2299925
370
    25
100
AcDbLine
 10
89.28646849959847
 20
-150.4660116139326
 30
0.0
 11
128.3554069473115
 21
-150.0660376816778
 31
0.0
  0
LINE
  5
87
330
79
100
AcDbEntity
  8
レイヤー 1
 62
   250
420
  2299925
370
    25
100
AcDbLine
 10
88.85536599796585
 20
-141.4597852993956
 30
0.0
 11
88.35492352336416
 21
-149.9599221288295
 31
0.0
  0
SPLINE
  5
88
330
79
100
AcDbEntity
  8
レイヤー 1
 62
   250
420
  2299925
370
    25
100
AcDbSpline
210
0.0
220
0.0
230
1.0
 70
     8
 71
     3
 72
    11
 73
     7
 74
     0
 42
0.0000000001
 43
0.0000000001
 40
0.0
 40
0.0
 40
0.0
 40
0.0
 40
1.0
 40
1.0
 40
1.0
 40
2.0
 40
2.0
 40
2.0
 40
2.0
 10
88.35492352336416
 20
-149.9599221288295
 30
0.0
 10
88.3521718567677
 20
-150.2913568425961
 30
0.0
 10
88.61742758195132
 20
-150.5624665579018
 30
0.0
 10
88.94886017487825
 20
-150.5659237800358
 30
0.0
 10
89.06943961624676
 20
-150.5669468355652
 30
0.0
 10
89.18656183548064
 20
-150.5321629475638
 30
0.0
 10
89.28646849959847
 20
-150.4660116139326
 30
0.0
  0
SPLINE
  5
89
330
79
100
AcDbEntity
  8
レイヤー 1
 62
   250
420
  2299925
370
     9
100
AcDbSpline
210
0.0
220
0.0
230
1.0
 70
     9
 71
     3
 72
    17
 73
    13
 74
     0
 42
0.0000000001
 43
0.0000000001
 40
0.0
 40
0.0
 40
0.0
 40
0.0
 40
1.0
 40
1.0
 40
1.0
 40
2.0
 40
2.0
 40
2.0
 40
3.0
 40
3.0
 40
3.0
 40
4.0
 40
4.0
 40
4.0
 40
4.0
 10
88.454830187482
 20
-154.4657761805423
 30
0.0
 10
88.454830187482
 20
-154.4106370152823
 30
0.0
 10
88.41002741084723
 20
-154.3658695164244
 30
0.0
 10
88.35492352336416
 20
-154.3658695164244
 30
0.0
 10
88.29978435810422
 20
-154.3658695164244
 30
0.0
 10
88.25501685924633
 20
-154.4106370152823
 30
0.0
 10
88.25501685924633
 20
-154.4657761805423
 30
0.0
 10
88.25501685924633
 20
-154.5212328457941
 30
0.0
 10
88.29978435810422
 20
-154.5659949462408
 30
0.0
 10
88.35492352336416
 20
-154.5659949462408
 30
0.0
 10
88.41002741084723
 20
-154.5659949462408
 30
0.0
 10
88.454830187482
 20
-154.5212328457941
 30
0.0
 10
88.454830187482
 20
-154.4657761805423
 30
0.0
  0
SPLINE
  5
8A
330
79
100
AcDbEntity
  8
レイヤー 1
 62
   250
420
  2299925
370
     9
100
AcDbSpline
210
0.0
220
0.0
230
1.0
 70
     9
 71
     3
 72
    17
 73
    13
 74
     0
 42
0.0000000001
 43
0.0000000001
 40
0.0
 40
0.0
 40
0.0
 40
0.0
 40
1.0
 40
1.0
 40
1.0
 40
2.0
 40
2.0
 40
2.0
 40
3.0
 40
3.0
 40
3.0
 40
4.0
 40
4.0
 40
4.0
 40
4.0
 10
128.4553136114294
 20
-154.4657761805423
 30
0.0
 10
128.4553136114294
 20
-154.4106370152823
 30
0.0
 10
128.4105108347946
 20
-154.3658695164244
 30
0.0
 10
128.3554069473115
 20
-154.3658695164244
 30
0.0
 10
128.3002677820516
 20
-154.3658695164244
 30
0.0
 10
128.2555002831937
 20
-154.4106370152823
 30
0.0
 10
128.2555002831937
 20
-154.4657761805423
 30
0.0
 10
128.2555002831937
 20
-154.5212328457941
 30
0.0
 10
128.3002677820516
 20
-154.5659949462408
 30
0.0
 10
128.3554069473115
 20
-154.5659949462408
 30
0.0
 10
128.4105108347946
 20
-154.5659949462408
 30
0.0
 10
128.4553136114294
 20
-154.5212328457941
 30
0.0
 10
128.4553136114294
 20
-154.4657761805423
 30
0.0
  0
INSERT
  5
8C
330
79
100
AcDbEntity
  8
レイヤー 1
100
AcDbBlockReference
  2
Block_1
 10
0.0
 20
0.0
 30
0.0
  0
LINE
  5
A5
330
79
100
AcDbEntity
  8
レイヤー 1
 62
   250
420
  2299925
370
     9
100
AcDbLine
 10
88.35492352336416
 20
-154.4657761805423
 30
0.0
 11
128.3554069473115
 21
-154.4657761805423
 31
0.0
  0
LINE
  5
A6
330
79
100
AcDbEntity
  8
レイヤー 1
 62
   250
420
  2299925
370
     9
100
AcDbLine
 10
88.35492352336416
 20
-152.5058487305441
 30
0.0
 11
88.35492352336416
 21
-155.4658658772501
 31
0.0
  0
LINE
  5
A7
330
79
100
AcDbEntity
  8
レイヤー 1
 62
   250
420
  2299925
370
     9
100
AcDbLine
 10
128.3554069473115
 20
-152.605755394662
 30
0.0
 11
128.3554069473115
 21
-155.4658658772501
 31
0.0
  0
INSERT
  5
A9
330
79
100
AcDbEntity
  8
レイヤー 1
100
AcDbBlockReference
  2
Block_3
 10
0.0
 20
0.0
 30
0.0
  0
INSERT
  5
B7
330
79
100
AcDbEntity
  8
レイヤー 1
100
AcDbBlockReference
  2
Block_5
 10
0.0
 20
0.0
 30
0.0
  0
ENDBLK
  5
7C
330
79
100
AcDbEntity
  8
0
100
AcDbBlockEnd
  0
BLOCK
  5
8D
330
8B
100
AcDbEntity
  8
0
100
AcDbBlockBegin
  2
Block_1
 70
     0
 10
0.0
 20
0.0
 30
0.0
  3
Block_1
  1

  0
INSERT
  5
90
330
8B
100
AcDbEntity
  8
レイヤー 1
100
AcDbBlockReference
  2
Block_2
 10
0.0
 20
0.0
 30
0.0
  0
ENDBLK
  5
8E
330
8B
100
AcDbEntity
  8
0
100
AcDbBlockEnd
  0
BLOCK
  5
91
330
8F
100
AcDbEntity
  8
0
100
AcDbBlockBegin
  2
Block_2
 70
     0
 10
0.0
 20
0.0
 30
0.0
  3
Block_2
  1

  0
SPLINE
  5
93
330
8F
100
AcDbEntity
  8
レイヤー 1
100
AcDbSpline
210
0.0
220
0.0
230
1.0
 70
     9
 71
     3
 72
    17
 73
    13
 74
     0
 42
0.0000000001
 43
0.0000000001
 40
0.0
 40
0.0
 40
0.0
 40
0.0
 40
1.0
 40
1.0
 40
1.0
 40
2.0
 40
2.0
 40
2.0
 40
3.0
 40
3.0
 40
3.0
 40
4.0
 40
4.0
 40
4.0
 40
4.0
 10
109.6084689396118
 20
-144.0654527092093
 30
0.0
 10
109.591587971734
 20
-144.0949082756082
 30
0.0
 10
109.5409450681009
 20
-144.1880981084842
 30
0.0
 10
109.5302652720966
 20
-144.2070461336531
 30
0.0
 10
109.7207790524309
 20
-144.2663017759994
 30
0.0
 10
109.7417941348909
 20
-144.2726752026471
 30
0.0
 10
109.8137966305326
 20
-144.3002359665291
 30
0.0
 10
109.8689181582966
 20
-144.2134195603008
 30
0.0
 10
109.8920002980478
 20
-144.1393500073679
 30
0.0
 10
109.9068142086344
 20
-144.0654527092093
 30
0.0
 10
109.9068142086344
 20
-144.0654527092093
 30
0.0
 10
109.6084689396118
 20
-144.0654527092093
 30
0.0
 10
109.6084689396118
 20
-144.0654527092093
 30
0.0
  0
SPLINE
  5
94
330
8F
100
AcDbEntity
  8
レイヤー 1
100
AcDbSpline
210
0.0
220
0.0
230
1.0
 70
    11
 71
     3
 72
    20
 73
    16
 74
     0
 42
0.0000000001
 43
0.0000000001
 40
0.0
 40
0.0
 40
0.0
 40
0.0
 40
1.0
 40
1.0
 40
1.0
 40
2.0
 40
2.0
 40
2.0
 40
3.0
 40
3.0
 40
3.0
 40
4.0
 40
4.0
 40
4.0
 40
5.0
 40
5.0
 40
5.0
 40
5.0
 10
109.5450791826832
 20
-143.2150308886754
 30
0.0
 10
109.5450791826832
 20
-143.2150308886754
 30
0.0
 10
109.5133843042189
 20
-143.2150308886754
 30
0.0
 10
109.5133843042189
 20
-143.2150308886754
 30
0.0
 10
109.5598930932697
 20
-143.3144218934248
 30
0.0
 10
109.591587971734
 20
-143.3946926182312
 30
0.0
 10
109.6253499074895
 20
-143.5216443868626
 30
0.0
 10
109.6253499074895
 20
-143.5216443868626
 30
0.0
 10
109.8327446557015
 20
-143.5216443868626
 30
0.0
 10
109.8327446557015
 20
-143.5216443868626
 30
0.0
 10
109.8644395341658
 20
-143.4286268087609
 30
0.0
 10
109.8878661834655
 20
-143.344049714598
 30
0.0
 10
109.9109483232167
 20
-143.2150308886754
 30
0.0
 10
109.9109483232167
 20
-143.2150308886754
 30
0.0
 10
109.5450791826832
 20
-143.2150308886754
 30
0.0
 10
109.5450791826832
 20
-143.2150308886754
 30
0.0
  0
SPLINE
  5
95
330
8F
100
AcDbEntity
  8
レイヤー 1
100
AcDbSpline
210
0.0
220
0.0
230
1.0
 70
     9
 71
     3
 72
   242
 73
   238
 74
     0
 42
0.0000000001
 43
0.0000000001
 40
0.0
 40
0.0
 40
0.0
 40
0.0
 40
1.0
 40
1.0
 40
1.0
 40
2.0
 40
2.0
 40
2.0
 40
3.0
 40
3.0
 40
3.0
 40
4.0
 40
4.0
 40
4.0
 40
5.0
 40
5.0
 40
5.0
 40
6.0
 40
6.0
 40
6.0
 40
7.0
 40
7.0
 40
7.0
 40
8.0
 40
8.0
 40
8.0
 40
9.0
 40
9.0
 40
9.0
 40
10.0
 40
10.0
 40
10.0
 40
11.0
 40
11.0
 40
11.0
 40
12.0
 40
12.0
 40
12.0
 40
13.0
 40
13.0
 40
13.0
 40
14.0
 40
14.0
 40
14.0
 40
15.0
 40
15.0
 40
15.0
 40
16.0
 40
16.0
 40
16.0
 40
17.0
 40
17.0
 40
17.0
 40
18.0
 40
18.0
 40
18.0
 40
19.0
 40
19.0
 40
19.0
 40
20.0
 40
20.0
 40
20.0
 40
21.0
 40
21.0
 40
21.0
 40
22.0
 40
22.0
 40
22.0
 40
23.0
 40
23.0
 40
23.0
 40
24.0
 40
24.0
 40
24.0
 40
25.0
 40
25.0
 40
25.0
 40
26.0
 40
26.0
 40
26.0
 40
27.0
 40
27.0
 40
27.0
 40
28.0
 40
28.0
 40
28.0
 40
29.0
 40
29.0
 40
29.0
 40
30.0
 40
30.0
 40
30.0
 40
31.0
 40
31.0
 40
31.0
 40
32.0
 40
32.0
 40
32.0
 40
33.0
 40
33.0
 40
33.0
 40
34.0
 40
34.0
 40
34.0
 40
35.0
 40
35.0
 40
35.0
 40
36.0
 40
36.0
 40
36.0
 40
37.0
 40
37.0
 40
37.0
 40
38.0
 40
38.0
 40
38.0
 40
39.0
 40
39.0
 40
39.0
 40
40.0
 40
40.0
 40
40.0
 40
41.0
 40
41.0
 40
41.0
 40
42.0
 40
42.0
 40
42.0
 40
43.0
 40
43.0
 40
43.0
 40
44.0
 40
44.0
 40
44.0
 40
45.0
 40
45.0
 40
45.0
 40
46.0
 40
46.0
 40
46.0
 40
47.0
 40
47.0
 40
47.0
 40
48.0
 40
48.0
 40
48.0
 40
49.0
 40
49.0
 40
49.0
 40
50.0
 40
50.0
 40
50.0
 40
51.0
 40
51.0
 40
51.0
 40
52.0
 40
52.0
 40
52.0
 40
53.0
 40
53.0
 40
53.0
 40
54.0
 40
54.0
 40
54.0
 40
55.0
 40
55.0
 40
55.0
 40
56.0
 40
56.0
 40
56.0
 40
57.0
 40
57.0
 40
57.0
 40
58.0
 40
58.0
 40
58.0
 40
59.0
 40
59.0
 40
59.0
 40
60.0
 40
60.0
 40
60.0
 40
61.0
 40
61.0
 40
61.0
 40
62.0
 40
62.0
 40
62.0
 40
63.0
 40
63.0
 40
63.0
 40
64.0
 40
64.0
 40
64.0
 40
65.0
 40
65.0
 40
65.0
 40
66.0
 40
66.0
 40
66.0
 40
67.0
 40
67.0
 40
67.0
 40
68.0
 40
68.0
 40
68.0
 40
69.0
 40
69.0
 40
69.0
 40
70.0
 40
70.0
 40
70.0
 40
71.0
 40
71.0
 40
71.0
 40
72.0
 40
72.0
 40
72.0
 40
73.0
 40
73.0
 40
73.0
 40
74.0
 40
74.0
 40
74.0
 40
75.0
 40
75.0
 40
75.0
 40
76.0
 40
76.0
 40
76.0
 40
77.0
 40
77.0
 40
77.0
 40
78.0
 40
78.0
 40
78.0
 40
79.0
 40
79.0
 40
79.0
 40
79.0
 10
110.1734645991927
 20
-143.6802910339584
 30
0.0
 10
110.1734645991927
 20
-143.6802910339584
 30
0.0
 10
109.9195610619298
 20
-143.6802910339584
 30
0.0
 10
109.9195610619298
 20
-143.6802910339584
 30
0.0
 10
109.9195610619298
 20
-143.6802910339584
 30
0.0
 10
109.6425753849157
 20
-143.6802910339584
 30
0.0
 10
109.6425753849157
 20
-143.6802910339584
 30
0.0
 10
109.6425753849157
 20
-143.6802910339584
 30
0.0
 10
109.7693548987729
 20
-143.7226657084269
 30
0.0
 10
109.7693548987729
 20
-143.7226657084269
 30
0.0
 10
109.7800346947772
 20
-143.7269720777835
 30
0.0
 10
109.7927815480726
 20
-143.733173249657
 30
0.0
 10
109.7927815480726
 20
-143.7459201029524
 30
0.0
 10
109.7927815480726
 20
-143.7671074401867
 30
0.0
 10
109.7607421600598
 20
-143.7734808668344
 30
0.0
 10
109.7397270775998
 20
-143.7776149814167
 30
0.0
 10
109.7290472815955
 20
-143.8008693759421
 30
0.0
 10
109.6994194604224
 20
-143.8664984449361
 30
0.0
 10
109.6804714352535
 20
-143.9109401766959
 30
0.0
 10
109.6804714352535
 20
-143.9109401766959
 30
0.0
 10
109.9512559403941
 20
-143.9109401766959
 30
0.0
 10
109.9512559403941
 20
-143.9109401766959
 30
0.0
 10
110.0422064612047
 20
-143.9109401766959
 30
0.0
 10
110.2389214134125
 20
-143.9066338073393
 30
0.0
 10
110.3808593474048
 20
-143.8981933234004
 30
0.0
 10
110.3808593474048
 20
-143.8981933234004
 30
0.0
 10
110.3808593474048
 20
-144.0759602504393
 30
0.0
 10
110.3808593474048
 20
-144.0759602504393
 30
0.0
 10
110.2981770557588
 20
-144.0716538810828
 30
0.0
 10
110.2771619732987
 20
-144.0716538810828
 30
0.0
 10
110.0973279889687
 20
-144.0675197665004
 30
0.0
 10
110.0656331105044
 20
-144.2218600442397
 30
0.0
 10
110.0211913787447
 20
-144.3023030238202
 30
0.0
 10
109.976749646985
 20
-144.3720662073966
 30
0.0
 10
110.0973279889687
 20
-144.4313218497428
 30
0.0
 10
110.2030924203659
 20
-144.499017976028
 30
0.0
 10
110.3067897944719
 20
-144.5815280128997
 30
0.0
 10
110.3067897944719
 20
-144.5815280128997
 30
0.0
 10
110.1882785097793
 20
-144.7486151439344
 30
0.0
 10
110.1882785097793
 20
-144.7486151439344
 30
0.0
 10
110.1648518604796
 20
-144.7296671187655
 30
0.0
 10
110.1521050071842
 20
-144.7212266348266
 30
0.0
 10
110.0401394039136
 20
-144.6364772858895
 30
0.0
 10
109.9915635575715
 20
-144.5984089807775
 30
0.0
 10
109.9323079152252
 20
-144.5625799877308
 30
0.0
 10
109.8516926808704
 20
-144.5181382559711
 30
0.0
 10
109.6401638180761
 20
-144.7043456669489
 30
0.0
 10
109.4351806367037
 20
-144.7276000614743
 30
0.0
 10
109.1451035968457
 20
-144.7572278826475
 30
0.0
 10
109.1451035968457
 20
-144.7572278826475
 30
0.0
 10
109.0417507322882
 20
-144.5773938983174
 30
0.0
 10
109.0417507322882
 20
-144.5773938983174
 30
0.0
 10
109.3590440264797
 20
-144.5730875289609
 30
0.0
 10
109.5343993866789
 20
-144.5477660771443
 30
0.0
 10
109.6866726071269
 20
-144.4376952763905
 30
0.0
 10
109.5685058319828
 20
-144.3868801179831
 30
0.0
 10
109.4796223684634
 20
-144.3594916088754
 30
0.0
 10
109.4434488658683
 20
-144.34674475558
 30
0.0
 10
109.4245008406994
 20
-144.3743055194619
 30
0.0
 10
109.4096869301128
 20
-144.3932535446308
 30
0.0
 10
109.3821261662308
 20
-144.4271877351605
 30
0.0
 10
109.3821261662308
 20
-144.4271877351605
 30
0.0
 10
109.1854112140231
 20
-144.3446776982888
 30
0.0
 10
109.1854112140231
 20
-144.3446776982888
 30
0.0
 10
109.2680935056691
 20
-144.2642347187082
 30
0.0
 10
109.3294162053065
 20
-144.1689778285411
 30
0.0
 10
109.3862602808131
 20
-144.0675197665004
 30
0.0
 10
109.1960910100274
 20
-144.0716538810828
 30
0.0
 10
109.1747314180188
 20
-144.0716538810828
 30
0.0
 10
109.0923936359213
 20
-144.0759602504393
 30
0.0
 10
109.0923936359213
 20
-144.0759602504393
 30
0.0
 10
109.0923936359213
 20
-143.8981933234004
 30
0.0
 10
109.0923936359213
 20
-143.8981933234004
 30
0.0
 10
109.231920003074
 20
-143.9045667500481
 30
0.0
 10
109.4413818085771
 20
-143.9088731194047
 30
0.0
 10
109.466875515168
 20
-143.9088731194047
 30
0.0
 10
109.4837564830457
 20
-143.874938928875
 30
0.0
 10
109.5388780108097
 20
-143.7543605868912
 30
0.0
 10
109.5578260359786
 20
-143.6802910339584
 30
0.0
 10
109.5388780108097
 20
-143.6802910339584
 30
0.0
 10
109.3611110837708
 20
-143.6866644606061
 30
0.0
 10
109.1664631888542
 20
-143.6994113139015
 30
0.0
 10
109.1664631888542
 20
-143.6994113139015
 30
0.0
 10
109.1664631888542
 20
-143.8327365091807
 30
0.0
 10
109.1664631888542
 20
-143.8327365091807
 30
0.0
 10
109.1178873425122
 20
-143.8580579609973
 30
0.0
 10
109.0586317001659
 20
-143.8897528394616
 30
0.0
 10
108.9253065048867
 20
-143.9553819084556
 30
0.0
 10
108.9253065048867
 20
-143.9553819084556
 30
0.0
 10
108.9253065048867
 20
-144.1012817022559
 30
0.0
 10
108.9253065048867
 20
-144.1012817022559
 30
0.0
 10
108.9253065048867
 20
-144.1012817022559
 30
0.0
 10
108.9253065048867
 20
-144.5689534143786
 30
0.0
 10
108.9253065048867
 20
-144.5689534143786
 30
0.0
 10
108.9253065048867
 20
-144.6957329282358
 30
0.0
 10
108.8891330022916
 20
-144.7549885705821
 30
0.0
 10
108.6059461534041
 20
-144.7465480866432
 30
0.0
 10
108.6059461534041
 20
-144.7465480866432
 30
0.0
 10
108.502248779298
 20
-144.5393255932054
 30
0.0
 10
108.502248779298
 20
-144.5393255932054
 30
0.0
 10
108.5656385362266
 20
-144.5519001917266
 30
0.0
 10
108.6142143825687
 20
-144.5562065610831
 30
0.0
 10
108.6545219997461
 20
-144.5562065610831
 30
0.0
 10
108.7306586099701
 20
-144.5562065610831
 30
0.0
 10
108.7413384059744
 20
-144.5329521665577
 30
0.0
 10
108.7413384059744
 20
-144.4673230975637
 30
0.0
 10
108.7413384059744
 20
-144.4673230975637
 30
0.0
 10
108.7413384059744
 20
-144.0378919453273
 30
0.0
 10
108.7413384059744
 20
-144.0378919453273
 30
0.0
 10
108.6438422037418
 20
-144.0780273077305
 30
0.0
 10
108.6269612358641
 20
-144.0844007343782
 30
0.0
 10
108.5804524468132
 20
-144.1035210143213
 30
0.0
 10
108.5763183322309
 20
-144.1245360967814
 30
0.0
 10
108.5718397081001
 20
-144.1541639179545
 30
0.0
 10
108.5528916829312
 20
-144.1541639179545
 30
0.0
 10
108.5446234537666
 20
-144.1541639179545
 30
0.0
 10
108.5339436577623
 20
-144.1500298033722
 30
0.0
 10
108.5273979763404
 20
-144.1267754088467
 30
0.0
 10
108.5273979763404
 20
-144.1267754088467
 30
0.0
 10
108.474688015416
 20
-143.9341945712213
 30
0.0
 10
108.474688015416
 20
-143.9341945712213
 30
0.0
 10
108.6207600639906
 20
-143.8876857821704
 30
0.0
 10
108.6862168782104
 20
-143.864431387645
 30
0.0
 10
108.7413384059744
 20
-143.8432440504107
 30
0.0
 10
108.7413384059744
 20
-143.8432440504107
 30
0.0
 10
108.7413384059744
 20
-143.430693866052
 30
0.0
 10
108.7413384059744
 20
-143.430693866052
 30
0.0
 10
108.7413384059744
 20
-143.430693866052
 30
0.0
 10
108.6882839355015
 20
-143.430693866052
 30
0.0
 10
108.6882839355015
 20
-143.430693866052
 30
0.0
 10
108.6882839355015
 20
-143.430693866052
 30
0.0
 10
108.6100802679863
 20
-143.430693866052
 30
0.0
 10
108.6100802679863
 20
-143.430693866052
 30
0.0
 10
108.5422118869269
 20
-143.430693866052
 30
0.0
 10
108.5339436577623
 20
-143.430693866052
 30
0.0
 10
108.4977701551672
 20
-143.4370672926997
 30
0.0
 10
108.4977701551672
 20
-143.4370672926997
 30
0.0
 10
108.4977701551672
 20
-143.2424193977831
 30
0.0
 10
108.4977701551672
 20
-143.2424193977831
 30
0.0
 10
108.5253309190492
 20
-143.2487928244308
 30
0.0
 10
108.5339436577623
 20
-143.2487928244308
 30
0.0
 10
108.6035345865644
 20
-143.2487928244308
 30
0.0
 10
108.6035345865644
 20
-143.2487928244308
 30
0.0
 10
108.7368597818435
 20
-143.2487928244308
 30
0.0
 10
108.7368597818435
 20
-143.2487928244308
 30
0.0
 10
108.7368597818435
 20
-143.1790296408545
 30
0.0
 10
108.7368597818435
 20
-143.0965196039828
 30
0.0
 10
108.7347927245524
 20
-143.0922132346262
 30
0.0
 10
108.7265244953878
 20
-142.9123792502962
 30
0.0
 10
108.7265244953878
 20
-142.8934312251273
 30
0.0
 10
108.7241129285481
 20
-142.8469224360765
 30
0.0
 10
108.7241129285481
 20
-142.8469224360765
 30
0.0
 10
108.9401204154733
 20
-142.8553629200153
 30
0.0
 10
108.9401204154733
 20
-142.8553629200153
 30
0.0
 10
108.9508002114776
 20
-142.8553629200153
 30
0.0
 10
108.9718152939376
 20
-142.8574299773065
 30
0.0
 10
108.9718152939376
 20
-142.8743109451842
 30
0.0
 10
108.9718152939376
 20
-142.8934312251273
 30
0.0
 10
108.957001383351
 20
-142.9039387663573
 30
0.0
 10
108.9315076767602
 20
-142.9230590463005
 30
0.0
 10
108.9315076767602
 20
-142.9737019499336
 30
0.0
 10
108.9253065048867
 20
-143.20228403538
 30
0.0
 10
108.9273735621778
 20
-143.2487928244308
 30
0.0
 10
109.0565646428747
 20
-143.2487928244308
 30
0.0
 10
109.0689669866216
 20
-143.2487928244308
 30
0.0
 10
109.1664631888542
 20
-143.240352340492
 30
0.0
 10
109.1664631888542
 20
-143.240352340492
 30
0.0
 10
109.1664631888542
 20
-143.4350002354086
 30
0.0
 10
109.1664631888542
 20
-143.4350002354086
 30
0.0
 10
109.1282226289679
 20
-143.4327609233432
 30
0.0
 10
109.060698757457
 20
-143.4286268087609
 30
0.0
 10
108.9253065048867
 20
-143.430693866052
 30
0.0
 10
108.9253065048867
 20
-143.430693866052
 30
0.0
 10
108.9253065048867
 20
-143.7691744974778
 30
0.0
 10
108.9253065048867
 20
-143.7691744974778
 30
0.0
 10
108.9804280326507
 20
-143.7459201029524
 30
0.0
 10
109.0458848468704
 20
-143.7183593390704
 30
0.0
 10
109.0944606932125
 20
-143.695104944545
 30
0.0
 10
109.0944606932125
 20
-143.695104944545
 30
0.0
 10
109.0944606932125
 20
-143.5175102722803
 30
0.0
 10
109.0944606932125
 20
-143.5175102722803
 30
0.0
 10
109.2088378633228
 20
-143.5300848708015
 30
0.0
 10
109.3273491480154
 20
-143.5300848708015
 30
0.0
 10
109.4434488658683
 20
-143.5300848708015
 30
0.0
 10
109.4203667261171
 20
-143.4350002354086
 30
0.0
 10
109.3928059622351
 20
-143.3524901985369
 30
0.0
 10
109.3294162053065
 20
-143.2191650032577
 30
0.0
 10
109.2849744735468
 20
-143.2212320605488
 30
0.0
 10
109.2022921819008
 20
-143.2255384299054
 30
0.0
 10
109.1643961315631
 20
-143.2276054871965
 30
0.0
 10
109.1643961315631
 20
-143.2276054871965
 30
0.0
 10
109.1643961315631
 20
-143.0477715028665
 30
0.0
 10
109.1643961315631
 20
-143.0477715028665
 30
0.0
 10
109.2891085881291
 20
-143.0562119868054
 30
0.0
 10
109.4627414005857
 20
-143.0605183561619
 30
0.0
 10
109.5450791826832
 20
-143.0605183561619
 30
0.0
 10
109.5450791826832
 20
-143.0605183561619
 30
0.0
 10
109.6277614743291
 20
-143.0605183561619
 30
0.0
 10
109.6277614743291
 20
-143.0605183561619
 30
0.0
 10
109.6277614743291
 20
-142.8975653397096
 30
0.0
 10
109.6277614743291
 20
-142.8870577984796
 30
0.0
 10
109.6253499074895
 20
-142.8321085254899
 30
0.0
 10
109.6253499074895
 20
-142.8321085254899
 30
0.0
 10
109.8496256235792
 20
-142.8574299773065
 30
0.0
 10
109.8496256235792
 20
-142.8574299773065
 30
0.0
 10
109.8541042477101
 20
-142.8574299773065
 30
0.0
 10
109.8751193301701
 20
-142.8594970345976
 30
0.0
 10
109.8751193301701
 20
-142.8763780024753
 30
0.0
 10
109.8751193301701
 20
-142.8911919130619
 30
0.0
 10
109.8644395341658
 20
-142.899804651775
 30
0.0
 10
109.8368787702838
 20
-142.9146185623616
 30
0.0
 10
109.8306775984104
 20
-142.9800753765813
 30
0.0
 10
109.8286105411192
 20
-143.0012627138156
 30
0.0
 10
109.8286105411192
 20
-143.0605183561619
 30
0.0
 10
109.8286105411192
 20
-143.0605183561619
 30
0.0
 10
109.9236951765121
 20
-143.0605183561619
 30
0.0
 10
109.9236951765121
 20
-143.0605183561619
 30
0.0
 10
110.0063774681581
 20
-143.0605183561619
 30
0.0
 10
110.1796657710662
 20
-143.0562119868054
 30
0.0
 10
110.3047227371807
 20
-143.0477715028665
 30
0.0
 10
110.3047227371807
 20
-143.0477715028665
 30
0.0
 10
110.3047227371807
 20
-143.2276054871965
 30
0.0
 10
110.3047227371807
 20
-143.2276054871965
 30
0.0
 10
110.2750949160076
 20
-143.2255384299054
 30
0.0
 10
110.156583631315
 20
-143.2212320605488
 30
0.0
 10
110.1162760141376
 20
-143.2191650032577
 30
0.0
 10
110.101462103551
 20
-143.2699801616651
 30
0.0
 10
110.0677001677956
 20
-143.38211801971
 30
0.0
 10
110.0018988440273
 20
-143.5216443868626
 30
0.0
 10
110.0442735184959
 20
-143.5216443868626
 30
0.0
 10
110.3216037050585
 20
-143.5026963616937
 30
0.0
 10
110.3829264046959
 20
-143.5004570496283
 30
0.0
 10
110.3829264046959
 20
-143.5004570496283
 30
0.0
 10
110.3829264046959
 20
-143.6845974033149
 30
0.0
 10
110.3829264046959
 20
-143.6845974033149
 30
0.0
 10
110.3532985835228
 20
-143.6845974033149
 30
0.0
 10
110.336417615645
 20
-143.6802910339584
 30
0.0
 10
110.1734645991927
 20
-143.6802910339584
 30
0.0
  0
HATCH
  5
96
330
8F
100
AcDbEntity
  8
レイヤー 1
 62
   250
420
  2299925
440
 33554687
100
AcDbHatch
 10
0.0
 20
0.0
 30
0.0
210
0.0
220
0.0
230
1.0
  2
SOLID
 70
     1
 71
     1
 91
        3
 92
        1
 93
        1
 72
     4
 94
        3
 73
     0
 74
     0
 95
       17
 96
       13
 40
0.0
 40
0.0
 40
0.0
 40
0.0
 40
1.0
 40
1.0
 40
1.0
 40
2.0
 40
2.0
 40
2.0
 40
3.0
 40
3.0
 40
3.0
 40
4.0
 40
4.0
 40
4.0
 40
4.0
 10
109.6084689396118
 20
-144.0654527092093
 10
109.591587971734
 20
-144.0949082756082
 10
109.5409450681009
 20
-144.1880981084842
 10
109.5302652720966
 20
-144.2070461336531
 10
109.7207790524309
 20
-144.2663017759994
 10
109.7417941348909
 20
-144.2726752026471
 10
109.8137966305326
 20
-144.3002359665291
 10
109.8689181582966
 20
-144.2134195603008
 10
109.8920002980478
 20
-144.1393500073679
 10
109.9068142086344
 20
-144.0654527092093
 10
109.9068142086344
 20
-144.0654527092093
 10
109.6084689396118
 20
-144.0654527092093
 10
109.6084689396118
 20
-144.0654527092093
 97
        0
 97
        1
330
93
 92
        1
 93
        1
 72
     4
 94
        3
 73
     0
 74
     0
 95
       20
 96
       16
 40
0.0
 40
0.0
 40
0.0
 40
0.0
 40
1.0
 40
1.0
 40
1.0
 40
2.0
 40
2.0
 40
2.0
 40
3.0
 40
3.0
 40
3.0
 40
4.0
 40
4.0
 40
4.0
 40
5.0
 40
5.0
 40
5.0
 40
5.0
 10
109.5450791826832
 20
-143.2150308886754
 10
109.5450791826832
 20
-143.2150308886754
 10
109.5133843042189
 20
-143.2150308886754
 10
109.5133843042189
 20
-143.2150308886754
 10
109.5598930932697
 20
-143.3144218934248
 10
109.591587971734
 20
-143.3946926182312
 10
109.6253499074895
 20
-143.5216443868626
 10
109.6253499074895
 20
-143.5216443868626
 10
109.8327446557015
 20
-143.5216443868626
 10
109.8327446557015
 20
-143.5216443868626
 10
109.8644395341658
 20
-143.4286268087609
 10
109.8878661834655
 20
-143.344049714598
 10
109.9109483232167
 20
-143.2150308886754
 10
109.9109483232167
 20
-143.2150308886754
 10
109.5450791826832
 20
-143.2150308886754
 10
109.5450791826832
 20
-143.2150308886754
 97
        0
 97
        1
330
94
 92
        1
 93
        1
 72
     4
 94
        3
 73
     0
 74
     0
 95
      242
 96
      238
 40
0.0
 40
0.0
 40
0.0
 40
0.0
 40
1.0
 40
1.0
 40
1.0
 40
2.0
 40
2.0
 40
2.0
 40
3.0
 40
3.0
 40
3.0
 40
4.0
 40
4.0
 40
4.0
 40
5.0
 40
5.0
 40
5.0
 40
6.0
 40
6.0
 40
6.0
 40
7.0
 40
7.0
 40
7.0
 40
8.0
 40
8.0
 40
8.0
 40
9.0
 40
9.0
 40
9.0
 40
10.0
 40
10.0
 40
10.0
 40
11.0
 40
11.0
 40
11.0
 40
12.0
 40
12.0
 40
12.0
 40
13.0
 40
13.0
 40
13.0
 40
14.0
 40
14.0
 40
14.0
 40
15.0
 40
15.0
 40
15.0
 40
16.0
 40
16.0
 40
16.0
 40
17.0
 40
17.0
 40
17.0
 40
18.0
 40
18.0
 40
18.0
 40
19.0
 40
19.0
 40
19.0
 40
20.0
 40
20.0
 40
20.0
 40
21.0
 40
21.0
 40
21.0
 40
22.0
 40
22.0
 40
22.0
 40
23.0
 40
23.0
 40
23.0
 40
24.0
 40
24.0
 40
24.0
 40
25.0
 40
25.0
 40
25.0
 40
26.0
 40
26.0
 40
26.0
 40
27.0
 40
27.0
 40
27.0
 40
28.0
 40
28.0
 40
28.0
 40
29.0
 40
29.0
 40
29.0
 40
30.0
 40
30.0
 40
30.0
 40
31.0
 40
31.0
 40
31.0
 40
32.0
 40
32.0
 40
32.0
 40
33.0
 40
33.0
 40
33.0
 40
34.0
 40
34.0
 40
34.0
 40
35.0
 40
35.0
 40
35.0
 40
36.0
 40
36.0
 40
36.0
 40
37.0
 40
37.0
 40
37.0
 40
38.0
 40
38.0
 40
38.0
 40
39.0
 40
39.0
 40
39.0
 40
40.0
 40
40.0
 40
40.0
 40
41.0
 40
41.0
 40
41.0
 40
42.0
 40
42.0
 40
42.0
 40
43.0
 40
43.0
 40
43.0
 40
44.0
 40
44.0
 40
44.0
 40
45.0
 40
45.0
 40
45.0
 40
46.0
 40
46.0
 40
46.0
 40
47.0
 40
47.0
 40
47.0
 40
48.0
 40
48.0
 40
48.0
 40
49.0
 40
49.0
 40
49.0
 40
50.0
 40
50.0
 40
50.0
 40
51.0
 40
51.0
 40
51.0
 40
52.0
 40
52.0
 40
52.0
 40
53.0
 40
53.0
 40
53.0
 40
54.0
 40
54.0
 40
54.0
 40
55.0
 40
55.0
 40
55.0
 40
56.0
 40
56.0
 40
56.0
 40
57.0
 40
57.0
 40
57.0
 40
58.0
 40
58.0
 40
58.0
 40
59.0
 40
59.0
 40
59.0
 40
60.0
 40
60.0
 40
60.0
 40
61.0
 40
61.0
 40
61.0
 40
62.0
 40
62.0
 40
62.0
 40
63.0
 40
63.0
 40
63.0
 40
64.0
 40
64.0
 40
64.0
 40
65.0
 40
65.0
 40
65.0
 40
66.0
 40
66.0
 40
66.0
 40
67.0
 40
67.0
 40
67.0
 40
68.0
 40
68.0
 40
68.0
 40
69.0
 40
69.0
 40
69.0
 40
70.0
 40
70.0
 40
70.0
 40
71.0
 40
71.0
 40
71.0
 40
72.0
 40
72.0
 40
72.0
 40
73.0
 40
73.0
 40
73.0
 40
74.0
 40
74.0
 40
74.0
 40
75.0
 40
75.0
 40
75.0
 40
76.0
 40
76.0
 40
76.0
 40
77.0
 40
77.0
 40
77.0
 40
78.0
 40
78.0
 40
78.0
 40
79.0
 40
79.0
 40
79.0
 40
79.0
 10
110.1734645991927
 20
-143.6802910339584
 10
110.1734645991927
 20
-143.6802910339584
 10
109.9195610619298
 20
-143.6802910339584
 10
109.9195610619298
 20
-143.6802910339584
 10
109.9195610619298
 20
-143.6802910339584
 10
109.6425753849157
 20
-143.6802910339584
 10
109.6425753849157
 20
-143.6802910339584
 10
109.6425753849157
 20
-143.6802910339584
 10
109.7693548987729
 20
-143.7226657084269
 10
109.7693548987729
 20
-143.7226657084269
 10
109.7800346947772
 20
-143.7269720777835
 10
109.7927815480726
 20
-143.733173249657
 10
109.7927815480726
 20
-143.7459201029524
 10
109.7927815480726
 20
-143.7671074401867
 10
109.7607421600598
 20
-143.7734808668344
 10
109.7397270775998
 20
-143.7776149814167
 10
109.7290472815955
 20
-143.8008693759421
 10
109.6994194604224
 20
-143.8664984449361
 10
109.6804714352535
 20
-143.9109401766959
 10
109.6804714352535
 20
-143.9109401766959
 10
109.9512559403941
 20
-143.9109401766959
 10
109.9512559403941
 20
-143.9109401766959
 10
110.0422064612047
 20
-143.9109401766959
 10
110.2389214134125
 20
-143.9066338073393
 10
110.3808593474048
 20
-143.8981933234004
 10
110.3808593474048
 20
-143.8981933234004
 10
110.3808593474048
 20
-144.0759602504393
 10
110.3808593474048
 20
-144.0759602504393
 10
110.2981770557588
 20
-144.0716538810828
 10
110.2771619732987
 20
-144.0716538810828
 10
110.0973279889687
 20
-144.0675197665004
 10
110.0656331105044
 20
-144.2218600442397
 10
110.0211913787447
 20
-144.3023030238202
 10
109.976749646985
 20
-144.3720662073966
 10
110.0973279889687
 20
-144.4313218497428
 10
110.2030924203659
 20
-144.499017976028
 10
110.3067897944719
 20
-144.5815280128997
 10
110.3067897944719
 20
-144.5815280128997
 10
110.1882785097793
 20
-144.7486151439344
 10
110.1882785097793
 20
-144.7486151439344
 10
110.1648518604796
 20
-144.7296671187655
 10
110.1521050071842
 20
-144.7212266348266
 10
110.0401394039136
 20
-144.6364772858895
 10
109.9915635575715
 20
-144.5984089807775
 10
109.9323079152252
 20
-144.5625799877308
 10
109.8516926808704
 20
-144.5181382559711
 10
109.6401638180761
 20
-144.7043456669489
 10
109.4351806367037
 20
-144.7276000614743
 10
109.1451035968457
 20
-144.7572278826475
 10
109.1451035968457
 20
-144.7572278826475
 10
109.0417507322882
 20
-144.5773938983174
 10
109.0417507322882
 20
-144.5773938983174
 10
109.3590440264797
 20
-144.5730875289609
 10
109.5343993866789
 20
-144.5477660771443
 10
109.6866726071269
 20
-144.4376952763905
 10
109.5685058319828
 20
-144.3868801179831
 10
109.4796223684634
 20
-144.3594916088754
 10
109.4434488658683
 20
-144.34674475558
 10
109.4245008406994
 20
-144.3743055194619
 10
109.4096869301128
 20
-144.3932535446308
 10
109.3821261662308
 20
-144.4271877351605
 10
109.3821261662308
 20
-144.4271877351605
 10
109.1854112140231
 20
-144.3446776982888
 10
109.1854112140231
 20
-144.3446776982888
 10
109.2680935056691
 20
-144.2642347187082
 10
109.3294162053065
 20
-144.1689778285411
 10
109.3862602808131
 20
-144.0675197665004
 10
109.1960910100274
 20
-144.0716538810828
 10
109.1747314180188
 20
-144.0716538810828
 10
109.0923936359213
 20
-144.0759602504393
 10
109.0923936359213
 20
-144.0759602504393
 10
109.0923936359213
 20
-143.8981933234004
 10
109.0923936359213
 20
-143.8981933234004
 10
109.231920003074
 20
-143.9045667500481
 10
109.4413818085771
 20
-143.9088731194047
 10
109.466875515168
 20
-143.9088731194047
 10
109.4837564830457
 20
-143.874938928875
 10
109.5388780108097
 20
-143.7543605868912
 10
109.5578260359786
 20
-143.6802910339584
 10
109.5388780108097
 20
-143.6802910339584
 10
109.3611110837708
 20
-143.6866644606061
 10
109.1664631888542
 20
-143.6994113139015
 10
109.1664631888542
 20
-143.6994113139015
 10
109.1664631888542
 20
-143.8327365091807
 10
109.1664631888542
 20
-143.8327365091807
 10
109.1178873425122
 20
-143.8580579609973
 10
109.0586317001659
 20
-143.8897528394616
 10
108.9253065048867
 20
-143.9553819084556
 10
108.9253065048867
 20
-143.9553819084556
 10
108.9253065048867
 20
-144.1012817022559
 10
108.9253065048867
 20
-144.1012817022559
 10
108.9253065048867
 20
-144.1012817022559
 10
108.9253065048867
 20
-144.5689534143786
 10
108.9253065048867
 20
-144.5689534143786
 10
108.9253065048867
 20
-144.6957329282358
 10
108.8891330022916
 20
-144.7549885705821
 10
108.6059461534041
 20
-144.7465480866432
 10
108.6059461534041
 20
-144.7465480866432
 10
108.502248779298
 20
-144.5393255932054
 10
108.502248779298
 20
-144.5393255932054
 10
108.5656385362266
 20
-144.5519001917266
 10
108.6142143825687
 20
-144.5562065610831
 10
108.6545219997461
 20
-144.5562065610831
 10
108.7306586099701
 20
-144.5562065610831
 10
108.7413384059744
 20
-144.5329521665577
 10
108.7413384059744
 20
-144.4673230975637
 10
108.7413384059744
 20
-144.4673230975637
 10
108.7413384059744
 20
-144.0378919453273
 10
108.7413384059744
 20
-144.0378919453273
 10
108.6438422037418
 20
-144.0780273077305
 10
108.6269612358641
 20
-144.0844007343782
 10
108.5804524468132
 20
-144.1035210143213
 10
108.5763183322309
 20
-144.1245360967814
 10
108.5718397081001
 20
-144.1541639179545
 10
108.5528916829312
 20
-144.1541639179545
 10
108.5446234537666
 20
-144.1541639179545
 10
108.5339436577623
 20
-144.1500298033722
 10
108.5273979763404
 20
-144.1267754088467
 10
108.5273979763404
 20
-144.1267754088467
 10
108.474688015416
 20
-143.9341945712213
 10
108.474688015416
 20
-143.9341945712213
 10
108.6207600639906
 20
-143.8876857821704
 10
108.6862168782104
 20
-143.864431387645
 10
108.7413384059744
 20
-143.8432440504107
 10
108.7413384059744
 20
-143.8432440504107
 10
108.7413384059744
 20
-143.430693866052
 10
108.7413384059744
 20
-143.430693866052
 10
108.7413384059744
 20
-143.430693866052
 10
108.6882839355015
 20
-143.430693866052
 10
108.6882839355015
 20
-143.430693866052
 10
108.6882839355015
 20
-143.430693866052
 10
108.6100802679863
 20
-143.430693866052
 10
108.6100802679863
 20
-143.430693866052
 10
108.5422118869269
 20
-143.430693866052
 10
108.5339436577623
 20
-143.430693866052
 10
108.4977701551672
 20
-143.4370672926997
 10
108.4977701551672
 20
-143.4370672926997
 10
108.4977701551672
 20
-143.2424193977831
 10
108.4977701551672
 20
-143.2424193977831
 10
108.5253309190492
 20
-143.2487928244308
 10
108.5339436577623
 20
-143.2487928244308
 10
108.6035345865644
 20
-143.2487928244308
 10
108.6035345865644
 20
-143.2487928244308
 10
108.7368597818435
 20
-143.2487928244308
 10
108.7368597818435
 20
-143.2487928244308
 10
108.7368597818435
 20
-143.1790296408545
 10
108.7368597818435
 20
-143.0965196039828
 10
108.7347927245524
 20
-143.0922132346262
 10
108.7265244953878
 20
-142.9123792502962
 10
108.7265244953878
 20
-142.8934312251273
 10
108.7241129285481
 20
-142.8469224360765
 10
108.7241129285481
 20
-142.8469224360765
 10
108.9401204154733
 20
-142.8553629200153
 10
108.9401204154733
 20
-142.8553629200153
 10
108.9508002114776
 20
-142.8553629200153
 10
108.9718152939376
 20
-142.8574299773065
 10
108.9718152939376
 20
-142.8743109451842
 10
108.9718152939376
 20
-142.8934312251273
 10
108.957001383351
 20
-142.9039387663573
 10
108.9315076767602
 20
-142.9230590463005
 10
108.9315076767602
 20
-142.9737019499336
 10
108.9253065048867
 20
-143.20228403538
 10
108.9273735621778
 20
-143.2487928244308
 10
109.0565646428747
 20
-143.2487928244308
 10
109.0689669866216
 20
-143.2487928244308
 10
109.1664631888542
 20
-143.240352340492
 10
109.1664631888542
 20
-143.240352340492
 10
109.1664631888542
 20
-143.4350002354086
 10
109.1664631888542
 20
-143.4350002354086
 10
109.1282226289679
 20
-143.4327609233432
 10
109.060698757457
 20
-143.4286268087609
 10
108.9253065048867
 20
-143.430693866052
 10
108.9253065048867
 20
-143.430693866052
 10
108.9253065048867
 20
-143.7691744974778
 10
108.9253065048867
 20
-143.7691744974778
 10
108.9804280326507
 20
-143.7459201029524
 10
109.0458848468704
 20
-143.7183593390704
 10
109.0944606932125
 20
-143.695104944545
 10
109.0944606932125
 20
-143.695104944545
 10
109.0944606932125
 20
-143.5175102722803
 10
109.0944606932125
 20
-143.5175102722803
 10
109.2088378633228
 20
-143.5300848708015
 10
109.3273491480154
 20
-143.5300848708015
 10
109.4434488658683
 20
-143.5300848708015
 10
109.4203667261171
 20
-143.4350002354086
 10
109.3928059622351
 20
-143.3524901985369
 10
109.3294162053065
 20
-143.2191650032577
 10
109.2849744735468
 20
-143.2212320605488
 10
109.2022921819008
 20
-143.2255384299054
 10
109.1643961315631
 20
-143.2276054871965
 10
109.1643961315631
 20
-143.2276054871965
 10
109.1643961315631
 20
-143.0477715028665
 10
109.1643961315631
 20
-143.0477715028665
 10
109.2891085881291
 20
-143.0562119868054
 10
109.4627414005857
 20
-143.0605183561619
 10
109.5450791826832
 20
-143.0605183561619
 10
109.5450791826832
 20
-143.0605183561619
 10
109.6277614743291
 20
-143.0605183561619
 10
109.6277614743291
 20
-143.0605183561619
 10
109.6277614743291
 20
-142.8975653397096
 10
109.6277614743291
 20
-142.8870577984796
 10
109.6253499074895
 20
-142.8321085254899
 10
109.6253499074895
 20
-142.8321085254899
 10
109.8496256235792
 20
-142.8574299773065
 10
109.8496256235792
 20
-142.8574299773065
 10
109.8541042477101
 20
-142.8574299773065
 10
109.8751193301701
 20
-142.8594970345976
 10
109.8751193301701
 20
-142.8763780024753
 10
109.8751193301701
 20
-142.8911919130619
 10
109.8644395341658
 20
-142.899804651775
 10
109.8368787702838
 20
-142.9146185623616
 10
109.8306775984104
 20
-142.9800753765813
 10
109.8286105411192
 20
-143.0012627138156
 10
109.8286105411192
 20
-143.0605183561619
 10
109.8286105411192
 20
-143.0605183561619
 10
109.9236951765121
 20
-143.0605183561619
 10
109.9236951765121
 20
-143.0605183561619
 10
110.0063774681581
 20
-143.0605183561619
 10
110.1796657710662
 20
-143.0562119868054
 10
110.3047227371807
 20
-143.0477715028665
 10
110.3047227371807
 20
-143.0477715028665
 10
110.3047227371807
 20
-143.2276054871965
 10
110.3047227371807
 20
-143.2276054871965
 10
110.2750949160076
 20
-143.2255384299054
 10
110.156583631315
 20
-143.2212320605488
 10
110.1162760141376
 20
-143.2191650032577
 10
110.101462103551
 20
-143.2699801616651
 10
110.0677001677956
 20
-143.38211801971
 10
110.0018988440273
 20
-143.5216443868626
 10
110.0442735184959
 20
-143.5216443868626
 10
110.3216037050585
 20
-143.5026963616937
 10
110.3829264046959
 20
-143.5004570496283
 10
110.3829264046959
 20
-143.5004570496283
 10
110.3829264046959
 20
-143.6845974033149
 10
110.3829264046959
 20
-143.6845974033149
 10
110.3532985835228
 20
-143.6845974033149
 10
110.336417615645
 20
-143.6802910339584
 10
110.1734645991927
 20
-143.6802910339584
 97
        0
 97
        1
330
95
 75
     2
 76
     1
 98
        1
 10
0.0
 20
0.0
450
        0
451
        0
460
0.0
461
0.0
452
        0
462
0.0
453
        0
470

  0
SPLINE
  5
97
330
8F
100
AcDbEntity
  8
レイヤー 1
100
AcDbSpline
210
0.0
220
0.0
230
1.0
 70
    11
 71
     3
 72
    17
 73
    13
 74
     0
 42
0.0000000001
 43
0.0000000001
 40
0.0
 40
0.0
 40
0.0
 40
0.0
 40
1.0
 40
1.0
 40
1.0
 40
2.0
 40
2.0
 40
2.0
 40
3.0
 40
3.0
 40
3.0
 40
4.0
 40
4.0
 40
4.0
 40
4.0
 10
112.0300265561939
 20
-144.4800699508591
 30
0.0
 10
112.0300265561939
 20
-144.4800699508591
 30
0.0
 10
111.3234374721691
 20
-144.4800699508591
 30
0.0
 10
111.3234374721691
 20
-144.4800699508591
 30
0.0
 10
111.3234374721691
 20
-144.4800699508591
 30
0.0
 10
111.3234374721691
 20
-144.5942748661952
 30
0.0
 10
111.3234374721691
 20
-144.5942748661952
 30
0.0
 10
111.3234374721691
 20
-144.5942748661952
 30
0.0
 10
112.0300265561939
 20
-144.5942748661952
 30
0.0
 10
112.0300265561939
 20
-144.5942748661952
 30
0.0
 10
112.0300265561939
 20
-144.5942748661952
 30
0.0
 10
112.0300265561939
 20
-144.4800699508591
 30
0.0
 10
112.0300265561939
 20
-144.4800699508591
 30
0.0
  0
SPLINE
  5
98
330
8F
100
AcDbEntity
  8
レイヤー 1
100
AcDbSpline
210
0.0
220
0.0
230
1.0
 70
    11
 71
     3
 72
    17
 73
    13
 74
     0
 42
0.0000000001
 43
0.0000000001
 40
0.0
 40
0.0
 40
0.0
 40
0.0
 40
1.0
 40
1.0
 40
1.0
 40
2.0
 40
2.0
 40
2.0
 40
3.0
 40
3.0
 40
3.0
 40
4.0
 40
4.0
 40
4.0
 40
4.0
 10
112.0300265561939
 20
-144.2366739548262
 30
0.0
 10
112.0300265561939
 20
-144.2366739548262
 30
0.0
 10
111.3234374721691
 20
-144.2366739548262
 30
0.0
 10
111.3234374721691
 20
-144.2366739548262
 30
0.0
 10
111.3234374721691
 20
-144.2366739548262
 30
0.0
 10
111.3234374721691
 20
-144.3510511249365
 30
0.0
 10
111.3234374721691
 20
-144.3510511249365
 30
0.0
 10
111.3234374721691
 20
-144.3510511249365
 30
0.0
 10
112.0300265561939
 20
-144.3510511249365
 30
0.0
 10
112.0300265561939
 20
-144.3510511249365
 30
0.0
 10
112.0300265561939
 20
-144.3510511249365
 30
0.0
 10
112.0300265561939
 20
-144.2366739548262
 30
0.0
 10
112.0300265561939
 20
-144.2366739548262
 30
0.0
  0
SPLINE
  5
99
330
8F
100
AcDbEntity
  8
レイヤー 1
100
AcDbSpline
210
0.0
220
0.0
230
1.0
 70
    11
 71
     3
 72
    17
 73
    13
 74
     0
 42
0.0000000001
 43
0.0000000001
 40
0.0
 40
0.0
 40
0.0
 40
0.0
 40
1.0
 40
1.0
 40
1.0
 40
2.0
 40
2.0
 40
2.0
 40
3.0
 40
3.0
 40
3.0
 40
4.0
 40
4.0
 40
4.0
 40
4.0
 10
112.0300265561939
 20
-144.0039577547976
 30
0.0
 10
112.0300265561939
 20
-144.0039577547976
 30
0.0
 10
111.3234374721691
 20
-144.0039577547976
 30
0.0
 10
111.3234374721691
 20
-144.0039577547976
 30
0.0
 10
111.3234374721691
 20
-144.0039577547976
 30
0.0
 10
111.3234374721691
 20
-144.1119614982602
 30
0.0
 10
111.3234374721691
 20
-144.1119614982602
 30
0.0
 10
111.3234374721691
 20
-144.1119614982602
 30
0.0
 10
112.0300265561939
 20
-144.1119614982602
 30
0.0
 10
112.0300265561939
 20
-144.1119614982602
 30
0.0
 10
112.0300265561939
 20
-144.1119614982602
 30
0.0
 10
112.0300265561939
 20
-144.0039577547976
 30
0.0
 10
112.0300265561939
 20
-144.0039577547976
 30
0.0
  0
SPLINE
  5
9A
330
8F
100
AcDbEntity
  8
レイヤー 1
100
AcDbSpline
210
0.0
220
0.0
230
1.0
 70
     9
 71
     3
 72
   203
 73
   199
 74
     0
 42
0.0000000001
 43
0.0000000001
 40
0.0
 40
0.0
 40
0.0
 40
0.0
 40
1.0
 40
1.0
 40
1.0
 40
2.0
 40
2.0
 40
2.0
 40
3.0
 40
3.0
 40
3.0
 40
4.0
 40
4.0
 40
4.0
 40
5.0
 40
5.0
 40
5.0
 40
6.0
 40
6.0
 40
6.0
 40
7.0
 40
7.0
 40
7.0
 40
8.0
 40
8.0
 40
8.0
 40
9.0
 40
9.0
 40
9.0
 40
10.0
 40
10.0
 40
10.0
 40
11.0
 40
11.0
 40
11.0
 40
12.0
 40
12.0
 40
12.0
 40
13.0
 40
13.0
 40
13.0
 40
14.0
 40
14.0
 40
14.0
 40
15.0
 40
15.0
 40
15.0
 40
16.0
 40
16.0
 40
16.0
 40
17.0
 40
17.0
 40
17.0
 40
18.0
 40
18.0
 40
18.0
 40
19.0
 40
19.0
 40
19.0
 40
20.0
 40
20.0
 40
20.0
 40
21.0
 40
21.0
 40
21.0
 40
22.0
 40
22.0
 40
22.0
 40
23.0
 40
23.0
 40
23.0
 40
24.0
 40
24.0
 40
24.0
 40
25.0
 40
25.0
 40
25.0
 40
26.0
 40
26.0
 40
26.0
 40
27.0
 40
27.0
 40
27.0
 40
28.0
 40
28.0
 40
28.0
 40
29.0
 40
29.0
 40
29.0
 40
30.0
 40
30.0
 40
30.0
 40
31.0
 40
31.0
 40
31.0
 40
32.0
 40
32.0
 40
32.0
 40
33.0
 40
33.0
 40
33.0
 40
34.0
 40
34.0
 40
34.0
 40
35.0
 40
35.0
 40
35.0
 40
36.0
 40
36.0
 40
36.0
 40
37.0
 40
37.0
 40
37.0
 40
38.0
 40
38.0
 40
38.0
 40
39.0
 40
39.0
 40
39.0
 40
40.0
 40
40.0
 40
40.0
 40
41.0
 40
41.0
 40
41.0
 40
42.0
 40
42.0
 40
42.0
 40
43.0
 40
43.0
 40
43.0
 40
44.0
 40
44.0
 40
44.0
 40
45.0
 40
45.0
 40
45.0
 40
46.0
 40
46.0
 40
46.0
 40
47.0
 40
47.0
 40
47.0
 40
48.0
 40
48.0
 40
48.0
 40
49.0
 40
49.0
 40
49.0
 40
50.0
 40
50.0
 40
50.0
 40
51.0
 40
51.0
 40
51.0
 40
52.0
 40
52.0
 40
52.0
 40
53.0
 40
53.0
 40
53.0
 40
54.0
 40
54.0
 40
54.0
 40
55.0
 40
55.0
 40
55.0
 40
56.0
 40
56.0
 40
56.0
 40
57.0
 40
57.0
 40
57.0
 40
58.0
 40
58.0
 40
58.0
 40
59.0
 40
59.0
 40
59.0
 40
60.0
 40
60.0
 40
60.0
 40
61.0
 40
61.0
 40
61.0
 40
62.0
 40
62.0
 40
62.0
 40
63.0
 40
63.0
 40
63.0
 40
64.0
 40
64.0
 40
64.0
 40
65.0
 40
65.0
 40
65.0
 40
66.0
 40
66.0
 40
66.0
 40
66.0
 10
111.8650064824504
 20
-143.7479871602435
 30
0.0
 10
111.8650064824504
 20
-143.7479871602435
 30
0.0
 10
111.3062119947429
 20
-143.7479871602435
 30
0.0
 10
111.3062119947429
 20
-143.7479871602435
 30
0.0
 10
111.2958767082871
 20
-143.7924288920033
 30
0.0
 10
111.287263969574
 20
-143.8241237704676
 30
0.0
 10
111.2745171162786
 20
-143.8623643303538
 30
0.0
 10
111.3000108228694
 20
-143.8623643303538
 30
0.0
 10
111.314824733456
 20
-143.864431387645
 30
0.0
 10
111.3210259053295
 20
-143.864431387645
 30
0.0
 10
111.3210259053295
 20
-143.864431387645
 30
0.0
 10
111.5094726283726
 20
-143.864431387645
 30
0.0
 10
111.5094726283726
 20
-143.864431387645
 30
0.0
 10
111.5094726283726
 20
-143.864431387645
 30
0.0
 10
111.8839545076193
 20
-143.864431387645
 30
0.0
 10
111.8839545076193
 20
-143.864431387645
 30
0.0
 10
111.9345974112524
 20
-143.864431387645
 30
0.0
 10
112.2181287696885
 20
-143.8516845343495
 30
0.0
 10
112.2498236481528
 20
-143.8516845343495
 30
0.0
 10
112.2477565908617
 20
-143.8792452982315
 30
0.0
 10
112.2456895335705
 20
-143.8981933234004
 30
0.0
 10
112.2456895335705
 20
-143.9278211445736
 30
0.0
 10
112.2436224762794
 20
-143.9595160230379
 30
0.0
 10
112.2436224762794
 20
-144.0949082756082
 30
0.0
 10
112.2436224762794
 20
-144.1224690394902
 30
0.0
 10
112.2436224762794
 20
-144.1224690394902
 30
0.0
 10
112.2436224762794
 20
-144.3679320928142
 30
0.0
 10
112.2436224762794
 20
-144.3679320928142
 30
0.0
 10
112.2436224762794
 20
-144.412373824574
 30
0.0
 10
112.2477565908617
 20
-144.6090887767817
 30
0.0
 10
112.251890705444
 20
-144.7613619972298
 30
0.0
 10
112.251890705444
 20
-144.7613619972298
 30
0.0
 10
112.025547932063
 20
-144.7613619972298
 30
0.0
 10
112.025547932063
 20
-144.7613619972298
 30
0.0
 10
112.025547932063
 20
-144.7613619972298
 30
0.0
 10
112.0276149893542
 20
-144.7276000614743
 30
0.0
 10
112.0276149893542
 20
-144.7276000614743
 30
0.0
 10
112.0276149893542
 20
-144.7276000614743
 30
0.0
 10
111.3255045294603
 20
-144.7276000614743
 30
0.0
 10
111.3255045294603
 20
-144.7276000614743
 30
0.0
 10
111.3255045294603
 20
-144.7276000614743
 30
0.0
 10
111.3275715867514
 20
-144.7613619972298
 30
0.0
 10
111.3275715867514
 20
-144.7613619972298
 30
0.0
 10
111.3275715867514
 20
-144.7613619972298
 30
0.0
 10
111.1094970425351
 20
-144.7613619972298
 30
0.0
 10
111.1094970425351
 20
-144.7613619972298
 30
0.0
 10
111.1139756666659
 20
-144.70641272424
 30
0.0
 10
111.1139756666659
 20
-144.6936658709446
 30
0.0
 10
111.1201768385394
 20
-144.5794609556086
 30
0.0
 10
111.1222438958305
 20
-144.5519001917266
 30
0.0
 10
111.1243109531217
 20
-144.4187472512217
 30
0.0
 10
111.1243109531217
 20
-144.3996269712785
 30
0.0
 10
111.1243109531217
 20
-144.3996269712785
 30
0.0
 10
111.1243109531217
 20
-144.196538592423
 30
0.0
 10
111.1243109531217
 20
-144.196538592423
 30
0.0
 10
110.984784585969
 20
-144.4461357603294
 30
0.0
 10
110.8156303976433
 20
-144.5773938983174
 30
0.0
 10
110.7098659662461
 20
-144.6428507125372
 30
0.0
 10
110.7098659662461
 20
-144.6428507125372
 30
0.0
 10
110.5362331537895
 20
-144.5033243453845
 30
0.0
 10
110.5362331537895
 20
-144.5033243453845
 30
0.0
 10
110.625116617309
 20
-144.4525091869771
 30
0.0
 10
110.7691216085924
 20
-144.3656927807488
 30
0.0
 10
110.9065809184539
 20
-144.1712171406065
 30
0.0
 10
110.9975314392645
 20
-144.044265371975
 30
0.0
 10
111.0629882534842
 20
-143.9004326354659
 30
0.0
 10
111.0970946987882
 20
-143.7479871602435
 30
0.0
 10
110.8683403585676
 20
-143.7502264723089
 30
0.0
 10
110.6885063742376
 20
-143.7565998989567
 30
0.0
 10
110.5934217388447
 20
-143.7586669562478
 30
0.0
 10
110.5934217388447
 20
-143.7586669562478
 30
0.0
 10
110.5934217388447
 20
-143.5809000292089
 30
0.0
 10
110.5934217388447
 20
-143.5809000292089
 30
0.0
 10
110.7901366910524
 20
-143.5872734558566
 30
0.0
 10
111.0736680494885
 20
-143.5915798252132
 30
0.0
 10
111.2238742126454
 20
-143.5915798252132
 30
0.0
 10
111.2238742126454
 20
-143.5915798252132
 30
0.0
 10
111.4374701327309
 20
-143.5915798252132
 30
0.0
 10
111.4374701327309
 20
-143.5915798252132
 30
0.0
 10
111.4374701327309
 20
-143.5915798252132
 30
0.0
 10
111.4374701327309
 20
-143.4835760817506
 30
0.0
 10
111.4374701327309
 20
-143.4835760817506
 30
0.0
 10
111.4374701327309
 20
-143.4835760817506
 30
0.0
 10
111.2913980841563
 20
-143.4835760817506
 30
0.0
 10
111.2913980841563
 20
-143.4835760817506
 30
0.0
 10
111.1222438958305
 20
-143.4835760817506
 30
0.0
 10
110.9530897075048
 20
-143.4878824511072
 30
0.0
 10
110.7860025764701
 20
-143.4942558777549
 30
0.0
 10
110.7860025764701
 20
-143.4942558777549
 30
0.0
 10
110.7860025764701
 20
-143.3228623773637
 30
0.0
 10
110.7860025764701
 20
-143.3228623773637
 30
0.0
 10
110.9403428542093
 20
-143.3333699185937
 30
0.0
 10
111.1263780104128
 20
-143.3333699185937
 30
0.0
 10
111.2913980841563
 20
-143.3333699185937
 30
0.0
 10
111.2913980841563
 20
-143.3333699185937
 30
0.0
 10
111.4374701327309
 20
-143.3333699185937
 30
0.0
 10
111.4374701327309
 20
-143.3333699185937
 30
0.0
 10
111.4374701327309
 20
-143.3333699185937
 30
0.0
 10
111.4374701327309
 20
-143.2150308886754
 30
0.0
 10
111.4374701327309
 20
-143.2150308886754
 30
0.0
 10
111.4374701327309
 20
-143.2150308886754
 30
0.0
 10
111.3062119947429
 20
-143.2150308886754
 30
0.0
 10
111.3062119947429
 20
-143.2150308886754
 30
0.0
 10
111.259703205692
 20
-143.2150308886754
 30
0.0
 10
111.0567870816108
 20
-143.2234713726143
 30
0.0
 10
111.0144124071422
 20
-143.2234713726143
 30
0.0
 10
110.811496283061
 20
-143.2276054871965
 30
0.0
 10
110.7350151632884
 20
-143.2296725444877
 30
0.0
 10
110.6568114957733
 20
-143.2319118565531
 30
0.0
 10
110.6568114957733
 20
-143.2319118565531
 30
0.0
 10
110.6568114957733
 20
-143.0477715028665
 30
0.0
 10
110.6568114957733
 20
-143.0477715028665
 30
0.0
 10
110.7711886658836
 20
-143.0562119868054
 30
0.0
 10
110.8156303976433
 20
-143.0562119868054
 30
0.0
 10
111.1983805060545
 20
-143.0648247255185
 30
0.0
 10
111.134990749126
 20
-142.9695678353513
 30
0.0
 10
111.107429985244
 20
-142.9420070714693
 30
0.0
 10
111.0716009921974
 20
-142.9060058236485
 30
0.0
 10
111.0716009921974
 20
-142.9060058236485
 30
0.0
 10
111.2469563523966
 20
-142.8234957867767
 30
0.0
 10
111.2469563523966
 20
-142.8234957867767
 30
0.0
 10
111.287263969574
 20
-142.8594970345976
 30
0.0
 10
111.3317057013337
 20
-142.9018717090662
 30
0.0
 10
111.4057752542666
 20
-143.0117702550456
 30
0.0
 10
111.4057752542666
 20
-143.0117702550456
 30
0.0
 10
111.2913980841563
 20
-143.0668917828096
 30
0.0
 10
111.2913980841563
 20
-143.0668917828096
 30
0.0
 10
111.2913980841563
 20
-143.0668917828096
 30
0.0
 10
111.3020778801606
 20
-143.0668917828096
 30
0.0
 10
111.3020778801606
 20
-143.0668917828096
 30
0.0
 10
111.3020778801606
 20
-143.0668917828096
 30
0.0
 10
111.824698865273
 20
-143.0668917828096
 30
0.0
 10
111.824698865273
 20
-143.0668917828096
 30
0.0
 10
111.824698865273
 20
-143.0668917828096
 30
0.0
 10
111.7296142298801
 20
-143.0224500510499
 30
0.0
 10
111.7296142298801
 20
-143.0224500510499
 30
0.0
 10
111.7568304842136
 20
-142.9843817459379
 30
0.0
 10
111.8140190692687
 20
-142.9039387663573
 30
0.0
 10
111.8288329798553
 20
-142.8298692134244
 30
0.0
 10
111.8288329798553
 20
-142.8298692134244
 30
0.0
 10
112.0424288999408
 20
-142.8934312251273
 30
0.0
 10
112.0424288999408
 20
-142.8934312251273
 30
0.0
 10
112.0510416386539
 20
-142.8954982824185
 30
0.0
 10
112.0720567211139
 20
-142.9060058236485
 30
0.0
 10
112.0720567211139
 20
-142.9271931608828
 30
0.0
 10
112.0720567211139
 20
-142.9652614659948
 30
0.0
 10
112.0065999068942
 20
-142.9652614659948
 30
0.0
 10
111.9876518817253
 20
-142.9652614659948
 30
0.0
 10
111.976972085721
 20
-142.9843817459379
 30
0.0
 10
111.9535454364213
 20
-143.0245171083411
 30
0.0
 10
111.9239176152482
 20
-143.0648247255185
 30
0.0
 10
112.3238932010857
 20
-143.0584512988708
 30
0.0
 10
112.3535210222588
 20
-143.0562119868054
 30
0.0
 10
112.4296576324828
 20
-143.0500108149319
 30
0.0
 10
112.4296576324828
 20
-143.0500108149319
 30
0.0
 10
112.4296576324828
 20
-143.2319118565531
 30
0.0
 10
112.4296576324828
 20
-143.2319118565531
 30
0.0
 10
112.410709607314
 20
-143.2319118565531
 30
0.0
 10
112.3852159007231
 20
-143.2296725444877
 30
0.0
 10
112.1654188087642
 20
-143.2212320605488
 30
0.0
 10
112.1144313955825
 20
-143.2191650032577
 30
0.0
 10
111.8946343036235
 20
-143.2150308886754
 30
0.0
 10
111.8501925718638
 20
-143.2150308886754
 30
0.0
 10
111.8501925718638
 20
-143.2150308886754
 30
0.0
 10
111.6341850849386
 20
-143.2150308886754
 30
0.0
 10
111.6341850849386
 20
-143.2150308886754
 30
0.0
 10
111.6341850849386
 20
-143.2150308886754
 30
0.0
 10
111.6341850849386
 20
-143.3333699185937
 30
0.0
 10
111.6341850849386
 20
-143.3333699185937
 30
0.0
 10
111.6341850849386
 20
-143.3333699185937
 30
0.0
 10
111.8078178973952
 20
-143.3333699185937
 30
0.0
 10
111.8078178973952
 20
-143.3333699185937
 30
0.0
 10
111.9707709138476
 20
-143.3333699185937
 30
0.0
 10
112.1609401846334
 20
-143.3333699185937
 30
0.0
 10
112.3176920292122
 20
-143.3228623773637
 30
0.0
 10
112.3176920292122
 20
-143.3228623773637
 30
0.0
 10
112.3176920292122
 20
-143.4942558777549
 30
0.0
 10
112.3176920292122
 20
-143.4942558777549
 30
0.0
 10
112.108230223709
 20
-143.485815393816
 30
0.0
 10
111.9115152715013
 20
-143.4835760817506
 30
0.0
 10
111.8078178973952
 20
-143.4835760817506
 30
0.0
 10
111.8078178973952
 20
-143.4835760817506
 30
0.0
 10
111.6341850849386
 20
-143.4835760817506
 30
0.0
 10
111.6341850849386
 20
-143.4835760817506
 30
0.0
 10
111.6341850849386
 20
-143.4835760817506
 30
0.0
 10
111.6341850849386
 20
-143.5915798252132
 30
0.0
 10
111.6341850849386
 20
-143.5915798252132
 30
0.0
 10
111.6341850849386
 20
-143.5915798252132
 30
0.0
 10
111.8650064824504
 20
-143.5915798252132
 30
0.0
 10
111.8650064824504
 20
-143.5915798252132
 30
0.0
 10
111.9979871681811
 20
-143.5915798252132
 30
0.0
 10
112.2859971507479
 20
-143.5872734558566
 30
0.0
 10
112.4951144467026
 20
-143.5809000292089
 30
0.0
 10
112.4951144467026
 20
-143.5809000292089
 30
0.0
 10
112.4951144467026
 20
-143.7586669562478
 30
0.0
 10
112.4951144467026
 20
-143.7586669562478
 30
0.0
 10
112.3028781186256
 20
-143.7522935296001
 30
0.0
 10
111.9897189390165
 20
-143.7479871602435
 30
0.0
 10
111.8650064824504
 20
-143.7479871602435
 30
0.0
  0
HATCH
  5
9B
330
8F
100
AcDbEntity
  8
レイヤー 1
 62
   250
420
  2299925
440
 33554687
100
AcDbHatch
 10
0.0
 20
0.0
 30
0.0
210
0.0
220
0.0
230
1.0
  2
SOLID
 70
     1
 71
     1
 91
        4
 92
        1
 93
        1
 72
     4
 94
        3
 73
     0
 74
     0
 95
       17
 96
       13
 40
0.0
 40
0.0
 40
0.0
 40
0.0
 40
1.0
 40
1.0
 40
1.0
 40
2.0
 40
2.0
 40
2.0
 40
3.0
 40
3.0
 40
3.0
 40
4.0
 40
4.0
 40
4.0
 40
4.0
 10
112.0300265561939
 20
-144.4800699508591
 10
112.0300265561939
 20
-144.4800699508591
 10
111.3234374721691
 20
-144.4800699508591
 10
111.3234374721691
 20
-144.4800699508591
 10
111.3234374721691
 20
-144.4800699508591
 10
111.3234374721691
 20
-144.5942748661952
 10
111.3234374721691
 20
-144.5942748661952
 10
111.3234374721691
 20
-144.5942748661952
 10
112.0300265561939
 20
-144.5942748661952
 10
112.0300265561939
 20
-144.5942748661952
 10
112.0300265561939
 20
-144.5942748661952
 10
112.0300265561939
 20
-144.4800699508591
 10
112.0300265561939
 20
-144.4800699508591
 97
        0
 97
        1
330
97
 92
        1
 93
        1
 72
     4
 94
        3
 73
     0
 74
     0
 95
       17
 96
       13
 40
0.0
 40
0.0
 40
0.0
 40
0.0
 40
1.0
 40
1.0
 40
1.0
 40
2.0
 40
2.0
 40
2.0
 40
3.0
 40
3.0
 40
3.0
 40
4.0
 40
4.0
 40
4.0
 40
4.0
 10
112.0300265561939
 20
-144.2366739548262
 10
112.0300265561939
 20
-144.2366739548262
 10
111.3234374721691
 20
-144.2366739548262
 10
111.3234374721691
 20
-144.2366739548262
 10
111.3234374721691
 20
-144.2366739548262
 10
111.3234374721691
 20
-144.3510511249365
 10
111.3234374721691
 20
-144.3510511249365
 10
111.3234374721691
 20
-144.3510511249365
 10
112.0300265561939
 20
-144.3510511249365
 10
112.0300265561939
 20
-144.3510511249365
 10
112.0300265561939
 20
-144.3510511249365
 10
112.0300265561939
 20
-144.2366739548262
 10
112.0300265561939
 20
-144.2366739548262
 97
        0
 97
        1
330
98
 92
        1
 93
        1
 72
     4
 94
        3
 73
     0
 74
     0
 95
       17
 96
       13
 40
0.0
 40
0.0
 40
0.0
 40
0.0
 40
1.0
 40
1.0
 40
1.0
 40
2.0
 40
2.0
 40
2.0
 40
3.0
 40
3.0
 40
3.0
 40
4.0
 40
4.0
 40
4.0
 40
4.0
 10
112.0300265561939
 20
-144.0039577547976
 10
112.0300265561939
 20
-144.0039577547976
 10
111.3234374721691
 20
-144.0039577547976
 10
111.3234374721691
 20
-144.0039577547976
 10
111.3234374721691
 20
-144.0039577547976
 10
111.3234374721691
 20
-144.1119614982602
 10
111.3234374721691
 20
-144.1119614982602
 10
111.3234374721691
 20
-144.1119614982602
 10
112.0300265561939
 20
-144.1119614982602
 10
112.0300265561939
 20
-144.1119614982602
 10
112.0300265561939
 20
-144.1119614982602
 10
112.0300265561939
 20
-144.0039577547976
 10
112.0300265561939
 20
-144.0039577547976
 97
        0
 97
        1
330
99
 92
        1
 93
        1
 72
     4
 94
        3
 73
     0
 74
     0
 95
      203
 96
      199
 40
0.0
 40
0.0
 40
0.0
 40
0.0
 40
1.0
 40
1.0
 40
1.0
 40
2.0
 40
2.0
 40
2.0
 40
3.0
 40
3.0
 40
3.0
 40
4.0
 40
4.0
 40
4.0
 40
5.0
 40
5.0
 40
5.0
 40
6.0
 40
6.0
 40
6.0
 40
7.0
 40
7.0
 40
7.0
 40
8.0
 40
8.0
 40
8.0
 40
9.0
 40
9.0
 40
9.0
 40
10.0
 40
10.0
 40
10.0
 40
11.0
 40
11.0
 40
11.0
 40
12.0
 40
12.0
 40
12.0
 40
13.0
 40
13.0
 40
13.0
 40
14.0
 40
14.0
 40
14.0
 40
15.0
 40
15.0
 40
15.0
 40
16.0
 40
16.0
 40
16.0
 40
17.0
 40
17.0
 40
17.0
 40
18.0
 40
18.0
 40
18.0
 40
19.0
 40
19.0
 40
19.0
 40
20.0
 40
20.0
 40
20.0
 40
21.0
 40
21.0
 40
21.0
 40
22.0
 40
22.0
 40
22.0
 40
23.0
 40
23.0
 40
23.0
 40
24.0
 40
24.0
 40
24.0
 40
25.0
 40
25.0
 40
25.0
 40
26.0
 40
26.0
 40
26.0
 40
27.0
 40
27.0
 40
27.0
 40
28.0
 40
28.0
 40
28.0
 40
29.0
 40
29.0
 40
29.0
 40
30.0
 40
30.0
 40
30.0
 40
31.0
 40
31.0
 40
31.0
 40
32.0
 40
32.0
 40
32.0
 40
33.0
 40
33.0
 40
33.0
 40
34.0
 40
34.0
 40
34.0
 40
35.0
 40
35.0
 40
35.0
 40
36.0
 40
36.0
 40
36.0
 40
37.0
 40
37.0
 40
37.0
 40
38.0
 40
38.0
 40
38.0
 40
39.0
 40
39.0
 40
39.0
 40
40.0
 40
40.0
 40
40.0
 40
41.0
 40
41.0
 40
41.0
 40
42.0
 40
42.0
 40
42.0
 40
43.0
 40
43.0
 40
43.0
 40
44.0
 40
44.0
 40
44.0
 40
45.0
 40
45.0
 40
45.0
 40
46.0
 40
46.0
 40
46.0
 40
47.0
 40
47.0
 40
47.0
 40
48.0
 40
48.0
 40
48.0
 40
49.0
 40
49.0
 40
49.0
 40
50.0
 40
50.0
 40
50.0
 40
51.0
 40
51.0
 40
51.0
 40
52.0
 40
52.0
 40
52.0
 40
53.0
 40
53.0
 40
53.0
 40
54.0
 40
54.0
 40
54.0
 40
55.0
 40
55.0
 40
55.0
 40
56.0
 40
56.0
 40
56.0
 40
57.0
 40
57.0
 40
57.0
 40
58.0
 40
58.0
 40
58.0
 40
59.0
 40
59.0
 40
59.0
 40
60.0
 40
60.0
 40
60.0
 40
61.0
 40
61.0
 40
61.0
 40
62.0
 40
62.0
 40
62.0
 40
63.0
 40
63.0
 40
63.0
 40
64.0
 40
64.0
 40
64.0
 40
65.0
 40
65.0
 40
65.0
 40
66.0
 40
66.0
 40
66.0
 40
66.0
 10
111.8650064824504
 20
-143.7479871602435
 10
111.8650064824504
 20
-143.7479871602435
 10
111.3062119947429
 20
-143.7479871602435
 10
111.3062119947429
 20
-143.7479871602435
 10
111.2958767082871
 20
-143.7924288920033
 10
111.287263969574
 20
-143.8241237704676
 10
111.2745171162786
 20
-143.8623643303538
 10
111.3000108228694
 20
-143.8623643303538
 10
111.314824733456
 20
-143.864431387645
 10
111.3210259053295
 20
-143.864431387645
 10
111.3210259053295
 20
-143.864431387645
 10
111.5094726283726
 20
-143.864431387645
 10
111.5094726283726
 20
-143.864431387645
 10
111.5094726283726
 20
-143.864431387645
 10
111.8839545076193
 20
-143.864431387645
 10
111.8839545076193
 20
-143.864431387645
 10
111.9345974112524
 20
-143.864431387645
 10
112.2181287696885
 20
-143.8516845343495
 10
112.2498236481528
 20
-143.8516845343495
 10
112.2477565908617
 20
-143.8792452982315
 10
112.2456895335705
 20
-143.8981933234004
 10
112.2456895335705
 20
-143.9278211445736
 10
112.2436224762794
 20
-143.9595160230379
 10
112.2436224762794
 20
-144.0949082756082
 10
112.2436224762794
 20
-144.1224690394902
 10
112.2436224762794
 20
-144.1224690394902
 10
112.2436224762794
 20
-144.3679320928142
 10
112.2436224762794
 20
-144.3679320928142
 10
112.2436224762794
 20
-144.412373824574
 10
112.2477565908617
 20
-144.6090887767817
 10
112.251890705444
 20
-144.7613619972298
 10
112.251890705444
 20
-144.7613619972298
 10
112.025547932063
 20
-144.7613619972298
 10
112.025547932063
 20
-144.7613619972298
 10
112.025547932063
 20
-144.7613619972298
 10
112.0276149893542
 20
-144.7276000614743
 10
112.0276149893542
 20
-144.7276000614743
 10
112.0276149893542
 20
-144.7276000614743
 10
111.3255045294603
 20
-144.7276000614743
 10
111.3255045294603
 20
-144.7276000614743
 10
111.3255045294603
 20
-144.7276000614743
 10
111.3275715867514
 20
-144.7613619972298
 10
111.3275715867514
 20
-144.7613619972298
 10
111.3275715867514
 20
-144.7613619972298
 10
111.1094970425351
 20
-144.7613619972298
 10
111.1094970425351
 20
-144.7613619972298
 10
111.1139756666659
 20
-144.70641272424
 10
111.1139756666659
 20
-144.6936658709446
 10
111.1201768385394
 20
-144.5794609556086
 10
111.1222438958305
 20
-144.5519001917266
 10
111.1243109531217
 20
-144.4187472512217
 10
111.1243109531217
 20
-144.3996269712785
 10
111.1243109531217
 20
-144.3996269712785
 10
111.1243109531217
 20
-144.196538592423
 10
111.1243109531217
 20
-144.196538592423
 10
110.984784585969
 20
-144.4461357603294
 10
110.8156303976433
 20
-144.5773938983174
 10
110.7098659662461
 20
-144.6428507125372
 10
110.7098659662461
 20
-144.6428507125372
 10
110.5362331537895
 20
-144.5033243453845
 10
110.5362331537895
 20
-144.5033243453845
 10
110.625116617309
 20
-144.4525091869771
 10
110.7691216085924
 20
-144.3656927807488
 10
110.9065809184539
 20
-144.1712171406065
 10
110.9975314392645
 20
-144.044265371975
 10
111.0629882534842
 20
-143.9004326354659
 10
111.0970946987882
 20
-143.7479871602435
 10
110.8683403585676
 20
-143.7502264723089
 10
110.6885063742376
 20
-143.7565998989567
 10
110.5934217388447
 20
-143.7586669562478
 10
110.5934217388447
 20
-143.7586669562478
 10
110.5934217388447
 20
-143.5809000292089
 10
110.5934217388447
 20
-143.5809000292089
 10
110.7901366910524
 20
-143.5872734558566
 10
111.0736680494885
 20
-143.5915798252132
 10
111.2238742126454
 20
-143.5915798252132
 10
111.2238742126454
 20
-143.5915798252132
 10
111.4374701327309
 20
-143.5915798252132
 10
111.4374701327309
 20
-143.5915798252132
 10
111.4374701327309
 20
-143.5915798252132
 10
111.4374701327309
 20
-143.4835760817506
 10
111.4374701327309
 20
-143.4835760817506
 10
111.4374701327309
 20
-143.4835760817506
 10
111.2913980841563
 20
-143.4835760817506
 10
111.2913980841563
 20
-143.4835760817506
 10
111.1222438958305
 20
-143.4835760817506
 10
110.9530897075048
 20
-143.4878824511072
 10
110.7860025764701
 20
-143.4942558777549
 10
110.7860025764701
 20
-143.4942558777549
 10
110.7860025764701
 20
-143.3228623773637
 10
110.7860025764701
 20
-143.3228623773637
 10
110.9403428542093
 20
-143.3333699185937
 10
111.1263780104128
 20
-143.3333699185937
 10
111.2913980841563
 20
-143.3333699185937
 10
111.2913980841563
 20
-143.3333699185937
 10
111.4374701327309
 20
-143.3333699185937
 10
111.4374701327309
 20
-143.3333699185937
 10
111.4374701327309
 20
-143.3333699185937
 10
111.4374701327309
 20
-143.2150308886754
 10
111.4374701327309
 20
-143.2150308886754
 10
111.4374701327309
 20
-143.2150308886754
 10
111.3062119947429
 20
-143.2150308886754
 10
111.3062119947429
 20
-143.2150308886754
 10
111.259703205692
 20
-143.2150308886754
 10
111.0567870816108
 20
-143.2234713726143
 10
111.0144124071422
 20
-143.2234713726143
 10
110.811496283061
 20
-143.2276054871965
 10
110.7350151632884
 20
-143.2296725444877
 10
110.6568114957733
 20
-143.2319118565531
 10
110.6568114957733
 20
-143.2319118565531
 10
110.6568114957733
 20
-143.0477715028665
 10
110.6568114957733
 20
-143.0477715028665
 10
110.7711886658836
 20
-143.0562119868054
 10
110.8156303976433
 20
-143.0562119868054
 10
111.1983805060545
 20
-143.0648247255185
 10
111.134990749126
 20
-142.9695678353513
 10
111.107429985244
 20
-142.9420070714693
 10
111.0716009921974
 20
-142.9060058236485
 10
111.0716009921974
 20
-142.9060058236485
 10
111.2469563523966
 20
-142.8234957867767
 10
111.2469563523966
 20
-142.8234957867767
 10
111.287263969574
 20
-142.8594970345976
 10
111.3317057013337
 20
-142.9018717090662
 10
111.4057752542666
 20
-143.0117702550456
 10
111.4057752542666
 20
-143.0117702550456
 10
111.2913980841563
 20
-143.0668917828096
 10
111.2913980841563
 20
-143.0668917828096
 10
111.2913980841563
 20
-143.0668917828096
 10
111.3020778801606
 20
-143.0668917828096
 10
111.3020778801606
 20
-143.0668917828096
 10
111.3020778801606
 20
-143.0668917828096
 10
111.824698865273
 20
-143.0668917828096
 10
111.824698865273
 20
-143.0668917828096
 10
111.824698865273
 20
-143.0668917828096
 10
111.7296142298801
 20
-143.0224500510499
 10
111.7296142298801
 20
-143.0224500510499
 10
111.7568304842136
 20
-142.9843817459379
 10
111.8140190692687
 20
-142.9039387663573
 10
111.8288329798553
 20
-142.8298692134244
 10
111.8288329798553
 20
-142.8298692134244
 10
112.0424288999408
 20
-142.8934312251273
 10
112.0424288999408
 20
-142.8934312251273
 10
112.0510416386539
 20
-142.8954982824185
 10
112.0720567211139
 20
-142.9060058236485
 10
112.0720567211139
 20
-142.9271931608828
 10
112.0720567211139
 20
-142.9652614659948
 10
112.0065999068942
 20
-142.9652614659948
 10
111.9876518817253
 20
-142.9652614659948
 10
111.976972085721
 20
-142.9843817459379
 10
111.9535454364213
 20
-143.0245171083411
 10
111.9239176152482
 20
-143.0648247255185
 10
112.3238932010857
 20
-143.0584512988708
 10
112.3535210222588
 20
-143.0562119868054
 10
112.4296576324828
 20
-143.0500108149319
 10
112.4296576324828
 20
-143.0500108149319
 10
112.4296576324828
 20
-143.2319118565531
 10
112.4296576324828
 20
-143.2319118565531
 10
112.410709607314
 20
-143.2319118565531
 10
112.3852159007231
 20
-143.2296725444877
 10
112.1654188087642
 20
-143.2212320605488
 10
112.1144313955825
 20
-143.2191650032577
 10
111.8946343036235
 20
-143.2150308886754
 10
111.8501925718638
 20
-143.2150308886754
 10
111.8501925718638
 20
-143.2150308886754
 10
111.6341850849386
 20
-143.2150308886754
 10
111.6341850849386
 20
-143.2150308886754
 10
111.6341850849386
 20
-143.2150308886754
 10
111.6341850849386
 20
-143.3333699185937
 10
111.6341850849386
 20
-143.3333699185937
 10
111.6341850849386
 20
-143.3333699185937
 10
111.8078178973952
 20
-143.3333699185937
 10
111.8078178973952
 20
-143.3333699185937
 10
111.9707709138476
 20
-143.3333699185937
 10
112.1609401846334
 20
-143.3333699185937
 10
112.3176920292122
 20
-143.3228623773637
 10
112.3176920292122
 20
-143.3228623773637
 10
112.3176920292122
 20
-143.4942558777549
 10
112.3176920292122
 20
-143.4942558777549
 10
112.108230223709
 20
-143.485815393816
 10
111.9115152715013
 20
-143.4835760817506
 10
111.8078178973952
 20
-143.4835760817506
 10
111.8078178973952
 20
-143.4835760817506
 10
111.6341850849386
 20
-143.4835760817506
 10
111.6341850849386
 20
-143.4835760817506
 10
111.6341850849386
 20
-143.4835760817506
 10
111.6341850849386
 20
-143.5915798252132
 10
111.6341850849386
 20
-143.5915798252132
 10
111.6341850849386
 20
-143.5915798252132
 10
111.8650064824504
 20
-143.5915798252132
 10
111.8650064824504
 20
-143.5915798252132
 10
111.9979871681811
 20
-143.5915798252132
 10
112.2859971507479
 20
-143.5872734558566
 10
112.4951144467026
 20
-143.5809000292089
 10
112.4951144467026
 20
-143.5809000292089
 10
112.4951144467026
 20
-143.7586669562478
 10
112.4951144467026
 20
-143.7586669562478
 10
112.3028781186256
 20
-143.7522935296001
 10
111.9897189390165
 20
-143.7479871602435
 10
111.8650064824504
 20
-143.7479871602435
 97
        0
 97
        1
330
9A
 75
     2
 76
     1
 98
        1
 10
0.0
 20
0.0
450
        0
451
        0
460
0.0
461
0.0
452
        0
462
0.0
453
        0
470

  0
SPLINE
  5
9C
330
8F
100
AcDbEntity
  8
レイヤー 1
100
AcDbSpline
210
0.0
220
0.0
230
1.0
 70
     9
 71
     3
 72
    29
 73
    25
 74
     0
 42
0.0000000001
 43
0.0000000001
 40
0.0
 40
0.0
 40
0.0
 40
0.0
 40
1.0
 40
1.0
 40
1.0
 40
2.0
 40
2.0
 40
2.0
 40
3.0
 40
3.0
 40
3.0
 40
4.0
 40
4.0
 40
4.0
 40
5.0
 40
5.0
 40
5.0
 40
6.0
 40
6.0
 40
6.0
 40
7.0
 40
7.0
 40
7.0
 40
8.0
 40
8.0
 40
8.0
 40
8.0
 10
113.7401719550719
 20
-143.1959106087322
 30
0.0
 10
113.7401719550719
 20
-143.1959106087322
 30
0.0
 10
113.3867051582852
 20
-143.1959106087322
 30
0.0
 10
113.3867051582852
 20
-143.1959106087322
 30
0.0
 10
113.2747395550146
 20
-143.1959106087322
 30
0.0
 10
113.135213187862
 20
-143.20228403538
 30
0.0
 10
113.0273816991737
 20
-143.2150308886754
 30
0.0
 10
113.0273816991737
 20
-143.2150308886754
 30
0.0
 10
113.0273816991737
 20
-142.9800753765813
 30
0.0
 10
113.0273816991737
 20
-142.9800753765813
 30
0.0
 10
113.1455484743177
 20
-142.9948892871679
 30
0.0
 10
113.3298610827786
 20
-142.9991956565245
 30
0.0
 10
113.3867051582852
 20
-142.9991956565245
 30
0.0
 10
113.3867051582852
 20
-142.9991956565245
 30
0.0
 10
113.7401719550719
 20
-142.9991956565245
 30
0.0
 10
113.7401719550719
 20
-142.9991956565245
 30
0.0
 10
113.7591199802407
 20
-142.9991956565245
 30
0.0
 10
113.9623806138705
 20
-142.9991956565245
 30
0.0
 10
114.1039740383143
 20
-142.9800753765813
 30
0.0
 10
114.1039740383143
 20
-142.9800753765813
 30
0.0
 10
114.1039740383143
 20
-143.2150308886754
 30
0.0
 10
114.1039740383143
 20
-143.2150308886754
 30
0.0
 10
113.9475667032839
 20
-143.1959106087322
 30
0.0
 10
113.7570529229496
 20
-143.1959106087322
 30
0.0
 10
113.7401719550719
 20
-143.1959106087322
 30
0.0
  0
SPLINE
  5
9D
330
8F
100
AcDbEntity
  8
レイヤー 1
100
AcDbSpline
210
0.0
220
0.0
230
1.0
 70
     9
 71
     3
 72
    47
 73
    43
 74
     0
 42
0.0000000001
 43
0.0000000001
 40
0.0
 40
0.0
 40
0.0
 40
0.0
 40
1.0
 40
1.0
 40
1.0
 40
2.0
 40
2.0
 40
2.0
 40
3.0
 40
3.0
 40
3.0
 40
4.0
 40
4.0
 40
4.0
 40
5.0
 40
5.0
 40
5.0
 40
6.0
 40
6.0
 40
6.0
 40
7.0
 40
7.0
 40
7.0
 40
8.0
 40
8.0
 40
8.0
 40
9.0
 40
9.0
 40
9.0
 40
10.0
 40
10.0
 40
10.0
 40
11.0
 40
11.0
 40
11.0
 40
12.0
 40
12.0
 40
12.0
 40
13.0
 40
13.0
 40
13.0
 40
14.0
 40
14.0
 40
14.0
 40
14.0
 10
113.8418022718868
 20
-143.7247327657181
 30
0.0
 10
113.8418022718868
 20
-143.7247327657181
 30
0.0
 10
113.7401719550719
 20
-143.7247327657181
 30
0.0
 10
113.7401719550719
 20
-143.7247327657181
 30
0.0
 10
113.7401719550719
 20
-143.8115491719464
 30
0.0
 10
113.7191568726118
 20
-144.2008449617796
 30
0.0
 10
113.5224419204041
 20
-144.4208143085128
 30
0.0
 10
113.3698241904075
 20
-144.5899684968386
 30
0.0
 10
113.162773951744
 20
-144.6599039351892
 30
0.0
 10
113.0780246028069
 20
-144.6872924442969
 30
0.0
 10
113.0780246028069
 20
-144.6872924442969
 30
0.0
 10
112.8833767078903
 20
-144.5202053132623
 30
0.0
 10
112.8833767078903
 20
-144.5202053132623
 30
0.0
 10
112.9808729101228
 20
-144.5074584599669
 30
0.0
 10
113.156228270322
 20
-144.4842040654414
 30
0.0
 10
113.3446749933652
 20
-144.2959295971725
 30
0.0
 10
113.4187445462981
 20
-144.2240993563051
 30
0.0
 10
113.5224419204041
 20
-144.0844007343782
 30
0.0
 10
113.5224419204041
 20
-143.7247327657181
 30
0.0
 10
113.5224419204041
 20
-143.7247327657181
 30
0.0
 10
113.2916205228923
 20
-143.7247327657181
 30
0.0
 10
113.2916205228923
 20
-143.7247327657181
 30
0.0
 10
113.1055853666889
 20
-143.7247327657181
 30
0.0
 10
112.9192057009368
 20
-143.7290391350747
 30
0.0
 10
112.7331705447334
 20
-143.7438530456612
 30
0.0
 10
112.7331705447334
 20
-143.7438530456612
 30
0.0
 10
112.7331705447334
 20
-143.5238836989281
 30
0.0
 10
112.7331705447334
 20
-143.5238836989281
 30
0.0
 10
112.9216172677765
 20
-143.5386976095146
 30
0.0
 10
113.2072156835037
 20
-143.5428317240969
 30
0.0
 10
113.2916205228923
 20
-143.5428317240969
 30
0.0
 10
113.2916205228923
 20
-143.5428317240969
 30
0.0
 10
113.8418022718868
 20
-143.5428317240969
 30
0.0
 10
113.8418022718868
 20
-143.5428317240969
 30
0.0
 10
113.8607502970556
 20
-143.5428317240969
 30
0.0
 10
114.1780435912471
 20
-143.5428317240969
 30
0.0
 10
114.4064534219192
 20
-143.5238836989281
 30
0.0
 10
114.4064534219192
 20
-143.5238836989281
 30
0.0
 10
114.4064534219192
 20
-143.7438530456612
 30
0.0
 10
114.4064534219192
 20
-143.7438530456612
 30
0.0
 10
114.2183512084246
 20
-143.7290391350747
 30
0.0
 10
114.0299044853814
 20
-143.7247327657181
 30
0.0
 10
113.8418022718868
 20
-143.7247327657181
 30
0.0
  0
HATCH
  5
9E
330
8F
100
AcDbEntity
  8
レイヤー 1
 62
   250
420
  2299925
440
 33554687
100
AcDbHatch
 10
0.0
 20
0.0
 30
0.0
210
0.0
220
0.0
230
1.0
  2
SOLID
 70
     1
 71
     1
 91
        2
 92
        1
 93
        1
 72
     4
 94
        3
 73
     0
 74
     0
 95
       29
 96
       25
 40
0.0
 40
0.0
 40
0.0
 40
0.0
 40
1.0
 40
1.0
 40
1.0
 40
2.0
 40
2.0
 40
2.0
 40
3.0
 40
3.0
 40
3.0
 40
4.0
 40
4.0
 40
4.0
 40
5.0
 40
5.0
 40
5.0
 40
6.0
 40
6.0
 40
6.0
 40
7.0
 40
7.0
 40
7.0
 40
8.0
 40
8.0
 40
8.0
 40
8.0
 10
113.7401719550719
 20
-143.1959106087322
 10
113.7401719550719
 20
-143.1959106087322
 10
113.3867051582852
 20
-143.1959106087322
 10
113.3867051582852
 20
-143.1959106087322
 10
113.2747395550146
 20
-143.1959106087322
 10
113.135213187862
 20
-143.20228403538
 10
113.0273816991737
 20
-143.2150308886754
 10
113.0273816991737
 20
-143.2150308886754
 10
113.0273816991737
 20
-142.9800753765813
 10
113.0273816991737
 20
-142.9800753765813
 10
113.1455484743177
 20
-142.9948892871679
 10
113.3298610827786
 20
-142.9991956565245
 10
113.3867051582852
 20
-142.9991956565245
 10
113.3867051582852
 20
-142.9991956565245
 10
113.7401719550719
 20
-142.9991956565245
 10
113.7401719550719
 20
-142.9991956565245
 10
113.7591199802407
 20
-142.9991956565245
 10
113.9623806138705
 20
-142.9991956565245
 10
114.1039740383143
 20
-142.9800753765813
 10
114.1039740383143
 20
-142.9800753765813
 10
114.1039740383143
 20
-143.2150308886754
 10
114.1039740383143
 20
-143.2150308886754
 10
113.9475667032839
 20
-143.1959106087322
 10
113.7570529229496
 20
-143.1959106087322
 10
113.7401719550719
 20
-143.1959106087322
 97
        0
 97
        1
330
9C
 92
        1
 93
        1
 72
     4
 94
        3
 73
     0
 74
     0
 95
       47
 96
       43
 40
0.0
 40
0.0
 40
0.0
 40
0.0
 40
1.0
 40
1.0
 40
1.0
 40
2.0
 40
2.0
 40
2.0
 40
3.0
 40
3.0
 40
3.0
 40
4.0
 40
4.0
 40
4.0
 40
5.0
 40
5.0
 40
5.0
 40
6.0
 40
6.0
 40
6.0
 40
7.0
 40
7.0
 40
7.0
 40
8.0
 40
8.0
 40
8.0
 40
9.0
 40
9.0
 40
9.0
 40
10.0
 40
10.0
 40
10.0
 40
11.0
 40
11.0
 40
11.0
 40
12.0
 40
12.0
 40
12.0
 40
13.0
 40
13.0
 40
13.0
 40
14.0
 40
14.0
 40
14.0
 40
14.0
 10
113.8418022718868
 20
-143.7247327657181
 10
113.8418022718868
 20
-143.7247327657181
 10
113.7401719550719
 20
-143.7247327657181
 10
113.7401719550719
 20
-143.7247327657181
 10
113.7401719550719
 20
-143.8115491719464
 10
113.7191568726118
 20
-144.2008449617796
 10
113.5224419204041
 20
-144.4208143085128
 10
113.3698241904075
 20
-144.5899684968386
 10
113.162773951744
 20
-144.6599039351892
 10
113.0780246028069
 20
-144.6872924442969
 10
113.0780246028069
 20
-144.6872924442969
 10
112.8833767078903
 20
-144.5202053132623
 10
112.8833767078903
 20
-144.5202053132623
 10
112.9808729101228
 20
-144.5074584599669
 10
113.156228270322
 20
-144.4842040654414
 10
113.3446749933652
 20
-144.2959295971725
 10
113.4187445462981
 20
-144.2240993563051
 10
113.5224419204041
 20
-144.0844007343782
 10
113.5224419204041
 20
-143.7247327657181
 10
113.5224419204041
 20
-143.7247327657181
 10
113.2916205228923
 20
-143.7247327657181
 10
113.2916205228923
 20
-143.7247327657181
 10
113.1055853666889
 20
-143.7247327657181
 10
112.9192057009368
 20
-143.7290391350747
 10
112.7331705447334
 20
-143.7438530456612
 10
112.7331705447334
 20
-143.7438530456612
 10
112.7331705447334
 20
-143.5238836989281
 10
112.7331705447334
 20
-143.5238836989281
 10
112.9216172677765
 20
-143.5386976095146
 10
113.2072156835037
 20
-143.5428317240969
 10
113.2916205228923
 20
-143.5428317240969
 10
113.2916205228923
 20
-143.5428317240969
 10
113.8418022718868
 20
-143.5428317240969
 10
113.8418022718868
 20
-143.5428317240969
 10
113.8607502970556
 20
-143.5428317240969
 10
114.1780435912471
 20
-143.5428317240969
 10
114.4064534219192
 20
-143.5238836989281
 10
114.4064534219192
 20
-143.5238836989281
 10
114.4064534219192
 20
-143.7438530456612
 10
114.4064534219192
 20
-143.7438530456612
 10
114.2183512084246
 20
-143.7290391350747
 10
114.0299044853814
 20
-143.7247327657181
 10
113.8418022718868
 20
-143.7247327657181
 97
        0
 97
        1
330
9D
 75
     2
 76
     1
 98
        1
 10
0.0
 20
0.0
450
        0
451
        0
460
0.0
461
0.0
452
        0
462
0.0
453
        0
470

  0
SPLINE
  5
9F
330
8F
100
AcDbEntity
  8
レイヤー 1
100
AcDbSpline
210
0.0
220
0.0
230
1.0
 70
     9
 71
     3
 72
    29
 73
    25
 74
     0
 42
0.0000000001
 43
0.0000000001
 40
0.0
 40
0.0
 40
0.0
 40
0.0
 40
1.0
 40
1.0
 40
1.0
 40
2.0
 40
2.0
 40
2.0
 40
3.0
 40
3.0
 40
3.0
 40
4.0
 40
4.0
 40
4.0
 40
5.0
 40
5.0
 40
5.0
 40
6.0
 40
6.0
 40
6.0
 40
7.0
 40
7.0
 40
7.0
 40
8.0
 40
8.0
 40
8.0
 40
8.0
 10
115.6876844328836
 20
-143.8876857821704
 30
0.0
 10
115.6876844328836
 20
-143.8876857821704
 30
0.0
 10
115.2033040076575
 20
-143.8876857821704
 30
0.0
 10
115.2033040076575
 20
-143.8876857821704
 30
0.0
 10
115.1757432437755
 20
-143.8876857821704
 30
0.0
 10
114.858449949584
 20
-143.8876857821704
 30
0.0
 10
114.6469210867896
 20
-143.913007233987
 30
0.0
 10
114.6469210867896
 20
-143.913007233987
 30
0.0
 10
114.6469210867896
 20
-143.6825303460238
 30
0.0
 10
114.6469210867896
 20
-143.6825303460238
 30
0.0
 10
114.8053954791111
 20
-143.7057847405492
 30
0.0
 10
114.9959092594454
 20
-143.7078517978404
 30
0.0
 10
115.2033040076575
 20
-143.7078517978404
 30
0.0
 10
115.2033040076575
 20
-143.7078517978404
 30
0.0
 10
115.6876844328836
 20
-143.7078517978404
 30
0.0
 10
115.6876844328836
 20
-143.7078517978404
 30
0.0
 10
115.8737195890871
 20
-143.7078517978404
 30
0.0
 10
116.0600992548391
 20
-143.7057847405492
 30
0.0
 10
116.2440673537515
 20
-143.6825303460238
 30
0.0
 10
116.2440673537515
 20
-143.6825303460238
 30
0.0
 10
116.2440673537515
 20
-143.913007233987
 30
0.0
 10
116.2440673537515
 20
-143.913007233987
 30
0.0
 10
116.0600992548391
 20
-143.8897528394616
 30
0.0
 10
115.8123968894497
 20
-143.8876857821704
 30
0.0
 10
115.6876844328836
 20
-143.8876857821704
 30
0.0
  0
HATCH
  5
A0
330
8F
100
AcDbEntity
  8
レイヤー 1
 62
   250
420
  2299925
440
 33554687
100
AcDbHatch
 10
0.0
 20
0.0
 30
0.0
210
0.0
220
0.0
230
1.0
  2
SOLID
 70
     1
 71
     1
 91
        1
 92
        1
 93
        1
 72
     4
 94
        3
 73
     0
 74
     0
 95
       29
 96
       25
 40
0.0
 40
0.0
 40
0.0
 40
0.0
 40
1.0
 40
1.0
 40
1.0
 40
2.0
 40
2.0
 40
2.0
 40
3.0
 40
3.0
 40
3.0
 40
4.0
 40
4.0
 40
4.0
 40
5.0
 40
5.0
 40
5.0
 40
6.0
 40
6.0
 40
6.0
 40
7.0
 40
7.0
 40
7.0
 40
8.0
 40
8.0
 40
8.0
 40
8.0
 10
115.6876844328836
 20
-143.8876857821704
 10
115.6876844328836
 20
-143.8876857821704
 10
115.2033040076575
 20
-143.8876857821704
 10
115.2033040076575
 20
-143.8876857821704
 10
115.1757432437755
 20
-143.8876857821704
 10
114.858449949584
 20
-143.8876857821704
 10
114.6469210867896
 20
-143.913007233987
 10
114.6469210867896
 20
-143.913007233987
 10
114.6469210867896
 20
-143.6825303460238
 10
114.6469210867896
 20
-143.6825303460238
 10
114.8053954791111
 20
-143.7057847405492
 10
114.9959092594454
 20
-143.7078517978404
 10
115.2033040076575
 20
-143.7078517978404
 10
115.2033040076575
 20
-143.7078517978404
 10
115.6876844328836
 20
-143.7078517978404
 10
115.6876844328836
 20
-143.7078517978404
 10
115.8737195890871
 20
-143.7078517978404
 10
116.0600992548391
 20
-143.7057847405492
 10
116.2440673537515
 20
-143.6825303460238
 10
116.2440673537515
 20
-143.6825303460238
 10
116.2440673537515
 20
-143.913007233987
 10
116.2440673537515
 20
-143.913007233987
 10
116.0600992548391
 20
-143.8897528394616
 10
115.8123968894497
 20
-143.8876857821704
 10
115.6876844328836
 20
-143.8876857821704
 97
        0
 97
        1
330
9F
 75
     2
 76
     1
 98
        1
 10
0.0
 20
0.0
450
        0
451
        0
460
0.0
461
0.0
452
        0
462
0.0
453
        0
470

  0
SPLINE
  5
A1
330
8F
100
AcDbEntity
  8
レイヤー 1
100
AcDbSpline
210
0.0
220
0.0
230
1.0
 70
     9
 71
     3
 72
    17
 73
    13
 74
     0
 42
0.0000000001
 43
0.0000000001
 40
0.0
 40
0.0
 40
0.0
 40
0.0
 40
1.0
 40
1.0
 40
1.0
 40
2.0
 40
2.0
 40
2.0
 40
3.0
 40
3.0
 40
3.0
 40
4.0
 40
4.0
 40
4.0
 40
4.0
 10
118.1064859730775
 20
-142.920819734235
 30
0.0
 10
118.0517089548621
 20
-142.920819734235
 30
0.0
 10
118.0072672231023
 20
-142.9652614659948
 30
0.0
 10
118.0072672231023
 20
-143.0203829937588
 30
0.0
 10
118.0072672231023
 20
-143.0773993240396
 30
0.0
 10
118.0517089548621
 20
-143.1261474251559
 30
0.0
 10
118.1106200876598
 20
-143.1261474251559
 30
0.0
 10
118.1698757300061
 20
-143.1261474251559
 30
0.0
 10
118.2101833471836
 20
-143.0753322667485
 30
0.0
 10
118.2101833471836
 20
-143.0224500510499
 30
0.0
 10
118.2101833471836
 20
-142.9652614659948
 30
0.0
 10
118.1636745581327
 20
-142.920819734235
 30
0.0
 10
118.1064859730775
 20
-142.920819734235
 30
0.0
  0
SPLINE
  5
A2
330
8F
100
AcDbEntity
  8
レイヤー 1
100
AcDbSpline
210
0.0
220
0.0
230
1.0
 70
     9
 71
     3
 72
    17
 73
    13
 74
     0
 42
0.0000000001
 43
0.0000000001
 40
0.0
 40
0.0
 40
0.0
 40
0.0
 40
1.0
 40
1.0
 40
1.0
 40
2.0
 40
2.0
 40
2.0
 40
3.0
 40
3.0
 40
3.0
 40
4.0
 40
4.0
 40
4.0
 40
4.0
 10
118.1085530303687
 20
-143.250859881722
 30
0.0
 10
117.9817735165115
 20
-143.250859881722
 30
0.0
 10
117.8801431996966
 20
-143.1494018196814
 30
0.0
 10
117.8801431996966
 20
-143.0224500510499
 30
0.0
 10
117.8801431996966
 20
-142.8954982824185
 30
0.0
 10
117.9817735165115
 20
-142.7918009083124
 30
0.0
 10
118.1085530303687
 20
-142.7918009083124
 30
0.0
 10
118.2356770537744
 20
-142.7918009083124
 30
0.0
 10
118.3393744278804
 20
-142.8954982824185
 30
0.0
 10
118.3393744278804
 20
-143.0224500510499
 30
0.0
 10
118.3393744278804
 20
-143.1494018196814
 30
0.0
 10
118.2356770537744
 20
-143.250859881722
 30
0.0
 10
118.1085530303687
 20
-143.250859881722
 30
0.0
  0
SPLINE
  5
A3
330
8F
100
AcDbEntity
  8
レイヤー 1
100
AcDbSpline
210
0.0
220
0.0
230
1.0
 70
     9
 71
     3
 72
    44
 73
    40
 74
     0
 42
0.0000000001
 43
0.0000000001
 40
0.0
 40
0.0
 40
0.0
 40
0.0
 40
1.0
 40
1.0
 40
1.0
 40
2.0
 40
2.0
 40
2.0
 40
3.0
 40
3.0
 40
3.0
 40
4.0
 40
4.0
 40
4.0
 40
5.0
 40
5.0
 40
5.0
 40
6.0
 40
6.0
 40
6.0
 40
7.0
 40
7.0
 40
7.0
 40
8.0
 40
8.0
 40
8.0
 40
9.0
 40
9.0
 40
9.0
 40
10.0
 40
10.0
 40
10.0
 40
11.0
 40
11.0
 40
11.0
 40
12.0
 40
12.0
 40
12.0
 40
13.0
 40
13.0
 40
13.0
 40
13.0
 10
117.8990912248655
 20
-143.4498141459952
 30
0.0
 10
117.7871256215949
 20
-143.8179225985941
 30
0.0
 10
117.7364827179617
 20
-143.9765692456899
 30
0.0
 10
117.5397677657539
 20
-144.2261664135962
 30
0.0
 10
117.3554551572931
 20
-144.4568155563337
 30
0.0
 10
117.1187770974564
 20
-144.6428507125372
 30
0.0
 10
116.8393798536026
 20
-144.7360405454132
 30
0.0
 10
116.8393798536026
 20
-144.7360405454132
 30
0.0
 10
116.6467990159772
 20
-144.5562065610831
 30
0.0
 10
116.6467990159772
 20
-144.5562065610831
 30
0.0
 10
117.2879312857822
 20
-144.4039333406351
 30
0.0
 10
117.6179714332691
 20
-143.8475504197673
 30
0.0
 10
117.6813611901977
 20
-143.4074394715266
 30
0.0
 10
117.6813611901977
 20
-143.4074394715266
 30
0.0
 10
116.9155164638266
 20
-143.4074394715266
 30
0.0
 10
116.9155164638266
 20
-143.4074394715266
 30
0.0
 10
116.8224988857249
 20
-143.4074394715266
 30
0.0
 10
116.6385307868126
 20
-143.4117458408832
 30
0.0
 10
116.4817789422337
 20
-143.430693866052
 30
0.0
 10
116.4817789422337
 20
-143.430693866052
 30
0.0
 10
116.4817789422337
 20
-143.2107245193188
 30
0.0
 10
116.4817789422337
 20
-143.2107245193188
 30
0.0
 10
116.568595348462
 20
-143.2319118565531
 30
0.0
 10
116.8204318284338
 20
-143.2319118565531
 30
0.0
 10
116.919650578409
 20
-143.2319118565531
 30
0.0
 10
116.919650578409
 20
-143.2319118565531
 30
0.0
 10
117.3513210427107
 20
-143.2319118565531
 30
0.0
 10
117.3513210427107
 20
-143.2319118565531
 30
0.0
 10
117.3936957171793
 20
-143.2319118565531
 30
0.0
 10
117.6283067197249
 20
-143.2296725444877
 30
0.0
 10
117.6665472796111
 20
-143.2234713726143
 30
0.0
 10
117.7089219540797
 20
-143.2170979459665
 30
0.0
 10
117.7109890113708
 20
-143.2150308886754
 30
0.0
 10
117.7723117110083
 20
-143.174723271498
 30
0.0
 10
117.7723117110083
 20
-143.174723271498
 30
0.0
 10
117.9604139245029
 20
-143.3292358040114
 30
0.0
 10
117.9604139245029
 20
-143.3292358040114
 30
0.0
 10
117.9311306128783
 20
-143.3588636251846
 30
0.0
 10
117.9163167022917
 20
-143.3905585036489
 30
0.0
 10
117.8990912248655
 20
-143.4498141459952
 30
0.0
  0
HATCH
  5
A4
330
8F
100
AcDbEntity
  8
レイヤー 1
 62
   250
420
  2299925
440
 33554687
100
AcDbHatch
 10
0.0
 20
0.0
 30
0.0
210
0.0
220
0.0
230
1.0
  2
SOLID
 70
     1
 71
     1
 91
        3
 92
        1
 93
        1
 72
     4
 94
        3
 73
     0
 74
     0
 95
       17
 96
       13
 40
0.0
 40
0.0
 40
0.0
 40
0.0
 40
1.0
 40
1.0
 40
1.0
 40
2.0
 40
2.0
 40
2.0
 40
3.0
 40
3.0
 40
3.0
 40
4.0
 40
4.0
 40
4.0
 40
4.0
 10
118.1064859730775
 20
-142.920819734235
 10
118.0517089548621
 20
-142.920819734235
 10
118.0072672231023
 20
-142.9652614659948
 10
118.0072672231023
 20
-143.0203829937588
 10
118.0072672231023
 20
-143.0773993240396
 10
118.0517089548621
 20
-143.1261474251559
 10
118.1106200876598
 20
-143.1261474251559
 10
118.1698757300061
 20
-143.1261474251559
 10
118.2101833471836
 20
-143.0753322667485
 10
118.2101833471836
 20
-143.0224500510499
 10
118.2101833471836
 20
-142.9652614659948
 10
118.1636745581327
 20
-142.920819734235
 10
118.1064859730775
 20
-142.920819734235
 97
        0
 97
        1
330
A1
 92
        1
 93
        1
 72
     4
 94
        3
 73
     0
 74
     0
 95
       17
 96
       13
 40
0.0
 40
0.0
 40
0.0
 40
0.0
 40
1.0
 40
1.0
 40
1.0
 40
2.0
 40
2.0
 40
2.0
 40
3.0
 40
3.0
 40
3.0
 40
4.0
 40
4.0
 40
4.0
 40
4.0
 10
118.1085530303687
 20
-143.250859881722
 10
117.9817735165115
 20
-143.250859881722
 10
117.8801431996966
 20
-143.1494018196814
 10
117.8801431996966
 20
-143.0224500510499
 10
117.8801431996966
 20
-142.8954982824185
 10
117.9817735165115
 20
-142.7918009083124
 10
118.1085530303687
 20
-142.7918009083124
 10
118.2356770537744
 20
-142.7918009083124
 10
118.3393744278804
 20
-142.8954982824185
 10
118.3393744278804
 20
-143.0224500510499
 10
118.3393744278804
 20
-143.1494018196814
 10
118.2356770537744
 20
-143.250859881722
 10
118.1085530303687
 20
-143.250859881722
 97
        0
 97
        1
330
A2
 92
        1
 93
        1
 72
     4
 94
        3
 73
     0
 74
     0
 95
       44
 96
       40
 40
0.0
 40
0.0
 40
0.0
 40
0.0
 40
1.0
 40
1.0
 40
1.0
 40
2.0
 40
2.0
 40
2.0
 40
3.0
 40
3.0
 40
3.0
 40
4.0
 40
4.0
 40
4.0
 40
5.0
 40
5.0
 40
5.0
 40
6.0
 40
6.0
 40
6.0
 40
7.0
 40
7.0
 40
7.0
 40
8.0
 40
8.0
 40
8.0
 40
9.0
 40
9.0
 40
9.0
 40
10.0
 40
10.0
 40
10.0
 40
11.0
 40
11.0
 40
11.0
 40
12.0
 40
12.0
 40
12.0
 40
13.0
 40
13.0
 40
13.0
 40
13.0
 10
117.8990912248655
 20
-143.4498141459952
 10
117.7871256215949
 20
-143.8179225985941
 10
117.7364827179617
 20
-143.9765692456899
 10
117.5397677657539
 20
-144.2261664135962
 10
117.3554551572931
 20
-144.4568155563337
 10
117.1187770974564
 20
-144.6428507125372
 10
116.8393798536026
 20
-144.7360405454132
 10
116.8393798536026
 20
-144.7360405454132
 10
116.6467990159772
 20
-144.5562065610831
 10
116.6467990159772
 20
-144.5562065610831
 10
117.2879312857822
 20
-144.4039333406351
 10
117.6179714332691
 20
-143.8475504197673
 10
117.6813611901977
 20
-143.4074394715266
 10
117.6813611901977
 20
-143.4074394715266
 10
116.9155164638266
 20
-143.4074394715266
 10
116.9155164638266
 20
-143.4074394715266
 10
116.8224988857249
 20
-143.4074394715266
 10
116.6385307868126
 20
-143.4117458408832
 10
116.4817789422337
 20
-143.430693866052
 10
116.4817789422337
 20
-143.430693866052
 10
116.4817789422337
 20
-143.2107245193188
 10
116.4817789422337
 20
-143.2107245193188
 10
116.568595348462
 20
-143.2319118565531
 10
116.8204318284338
 20
-143.2319118565531
 10
116.919650578409
 20
-143.2319118565531
 10
116.919650578409
 20
-143.2319118565531
 10
117.3513210427107
 20
-143.2319118565531
 10
117.3513210427107
 20
-143.2319118565531
 10
117.3936957171793
 20
-143.2319118565531
 10
117.6283067197249
 20
-143.2296725444877
 10
117.6665472796111
 20
-143.2234713726143
 10
117.7089219540797
 20
-143.2170979459665
 10
117.7109890113708
 20
-143.2150308886754
 10
117.7723117110083
 20
-143.174723271498
 10
117.7723117110083
 20
-143.174723271498
 10
117.9604139245029
 20
-143.3292358040114
 10
117.9604139245029
 20
-143.3292358040114
 10
117.9311306128783
 20
-143.3588636251846
 10
117.9163167022917
 20
-143.3905585036489
 10
117.8990912248655
 20
-143.4498141459952
 97
        0
 97
        1
330
A3
 75
     2
 76
     1
 98
        1
 10
0.0
 20
0.0
450
        0
451
        0
460
0.0
461
0.0
452
        0
462
0.0
453
        0
470

  0
ENDBLK
  5
92
330
8F
100
AcDbEntity
  8
0
100
AcDbBlockEnd
  0
BLOCK
  5
AA
330
A8
100
AcDbEntity
  8
0
100
AcDbBlockBegin
  2
Block_3
 70
     0
 10
0.0
 20
0.0
 30
0.0
  3
Block_3
  1

  0
INSERT
  5
AD
330
A8
100
AcDbEntity
  8
レイヤー 1
100
AcDbBlockReference
  2
Block_4
 10
0.0
 20
0.0
 30
0.0
  0
ENDBLK
  5
AB
330
A8
100
AcDbEntity
  8
0
100
AcDbBlockEnd
  0
BLOCK
  5
AE
330
AC
100
AcDbEntity
  8
0
100
AcDbBlockBegin
  2
Block_4
 70
     0
 10
0.0
 20
0.0
 30
0.0
  3
Block_4
  1

  0
SPLINE
  5
B0
330
AC
100
AcDbEntity
  8
レイヤー 1
100
AcDbSpline
210
0.0
220
0.0
230
1.0
 70
    11
 71
     3
 72
    14
 73
    10
 74
     0
 42
0.0000000001
 43
0.0000000001
 40
0.0
 40
0.0
 40
0.0
 40
0.0
 40
1.0
 40
1.0
 40
1.0
 40
2.0
 40
2.0
 40
2.0
 40
3.0
 40
3.0
 40
3.0
 40
3.0
 10
107.880753553759
 20
-152.5512396537024
 30
0.0
 10
107.880753553759
 20
-152.5512396537024
 30
0.0
 10
107.4235893828663
 20
-153.207185834094
 30
0.0
 10
107.4235893828663
 20
-153.207185834094
 30
0.0
 10
107.4235893828663
 20
-153.207185834094
 30
0.0
 10
107.880753553759
 20
-153.207185834094
 30
0.0
 10
107.880753553759
 20
-153.207185834094
 30
0.0
 10
107.880753553759
 20
-153.207185834094
 30
0.0
 10
107.880753553759
 20
-152.5512396537024
 30
0.0
 10
107.880753553759
 20
-152.5512396537024
 30
0.0
  0
SPLINE
  5
B1
330
AC
100
AcDbEntity
  8
レイヤー 1
100
AcDbSpline
210
0.0
220
0.0
230
1.0
 70
    11
 71
     3
 72
    38
 73
    34
 74
     0
 42
0.0000000001
 43
0.0000000001
 40
0.0
 40
0.0
 40
0.0
 40
0.0
 40
1.0
 40
1.0
 40
1.0
 40
2.0
 40
2.0
 40
2.0
 40
3.0
 40
3.0
 40
3.0
 40
4.0
 40
4.0
 40
4.0
 40
5.0
 40
5.0
 40
5.0
 40
6.0
 40
6.0
 40
6.0
 40
7.0
 40
7.0
 40
7.0
 40
8.0
 40
8.0
 40
8.0
 40
9.0
 40
9.0
 40
9.0
 40
10.0
 40
10.0
 40
10.0
 40
11.0
 40
11.0
 40
11.0
 40
11.0
 10
108.0984835884267
 20
-153.4059678435929
 30
0.0
 10
108.0984835884267
 20
-153.4059678435929
 30
0.0
 10
108.0984835884267
 20
-153.7528889589576
 30
0.0
 10
108.0984835884267
 20
-153.7528889589576
 30
0.0
 10
108.0984835884267
 20
-153.7528889589576
 30
0.0
 10
107.880753553759
 20
-153.7528889589576
 30
0.0
 10
107.880753553759
 20
-153.7528889589576
 30
0.0
 10
107.880753553759
 20
-153.7528889589576
 30
0.0
 10
107.880753553759
 20
-153.4059678435929
 30
0.0
 10
107.880753553759
 20
-153.4059678435929
 30
0.0
 10
107.880753553759
 20
-153.4059678435929
 30
0.0
 10
107.2248073733674
 20
-153.4059678435929
 30
0.0
 10
107.2248073733674
 20
-153.4059678435929
 30
0.0
 10
107.2248073733674
 20
-153.4059678435929
 30
0.0
 10
107.2248073733674
 20
-153.1816921275032
 30
0.0
 10
107.2248073733674
 20
-153.1816921275032
 30
0.0
 10
107.2248073733674
 20
-153.1816921275032
 30
0.0
 10
107.9038356935101
 20
-152.2084526529201
 30
0.0
 10
107.9038356935101
 20
-152.2084526529201
 30
0.0
 10
107.9038356935101
 20
-152.2084526529201
 30
0.0
 10
108.0984835884267
 20
-152.2084526529201
 30
0.0
 10
108.0984835884267
 20
-152.2084526529201
 30
0.0
 10
108.0984835884267
 20
-152.2084526529201
 30
0.0
 10
108.0984835884267
 20
-153.207185834094
 30
0.0
 10
108.0984835884267
 20
-153.207185834094
 30
0.0
 10
108.0984835884267
 20
-153.207185834094
 30
0.0
 10
108.3058783366388
 20
-153.207185834094
 30
0.0
 10
108.3058783366388
 20
-153.207185834094
 30
0.0
 10
108.3058783366388
 20
-153.207185834094
 30
0.0
 10
108.3058783366388
 20
-153.4059678435929
 30
0.0
 10
108.3058783366388
 20
-153.4059678435929
 30
0.0
 10
108.3058783366388
 20
-153.4059678435929
 30
0.0
 10
108.0984835884267
 20
-153.4059678435929
 30
0.0
 10
108.0984835884267
 20
-153.4059678435929
 30
0.0
  0
HATCH
  5
B2
330
AC
100
AcDbEntity
  8
レイヤー 1
 62
   250
420
  2299925
440
 33554687
100
AcDbHatch
 10
0.0
 20
0.0
 30
0.0
210
0.0
220
0.0
230
1.0
  2
SOLID
 70
     1
 71
     1
 91
        2
 92
        1
 93
        1
 72
     4
 94
        3
 73
     0
 74
     0
 95
       14
 96
       10
 40
0.0
 40
0.0
 40
0.0
 40
0.0
 40
1.0
 40
1.0
 40
1.0
 40
2.0
 40
2.0
 40
2.0
 40
3.0
 40
3.0
 40
3.0
 40
3.0
 10
107.880753553759
 20
-152.5512396537024
 10
107.880753553759
 20
-152.5512396537024
 10
107.4235893828663
 20
-153.207185834094
 10
107.4235893828663
 20
-153.207185834094
 10
107.4235893828663
 20
-153.207185834094
 10
107.880753553759
 20
-153.207185834094
 10
107.880753553759
 20
-153.207185834094
 10
107.880753553759
 20
-153.207185834094
 10
107.880753553759
 20
-152.5512396537024
 10
107.880753553759
 20
-152.5512396537024
 97
        0
 97
        1
330
B0
 92
        1
 93
        1
 72
     4
 94
        3
 73
     0
 74
     0
 95
       38
 96
       34
 40
0.0
 40
0.0
 40
0.0
 40
0.0
 40
1.0
 40
1.0
 40
1.0
 40
2.0
 40
2.0
 40
2.0
 40
3.0
 40
3.0
 40
3.0
 40
4.0
 40
4.0
 40
4.0
 40
5.0
 40
5.0
 40
5.0
 40
6.0
 40
6.0
 40
6.0
 40
7.0
 40
7.0
 40
7.0
 40
8.0
 40
8.0
 40
8.0
 40
9.0
 40
9.0
 40
9.0
 40
10.0
 40
10.0
 40
10.0
 40
11.0
 40
11.0
 40
11.0
 40
11.0
 10
108.0984835884267
 20
-153.4059678435929
 10
108.0984835884267
 20
-153.4059678435929
 10
108.0984835884267
 20
-153.7528889589576
 10
108.0984835884267
 20
-153.7528889589576
 10
108.0984835884267
 20
-153.7528889589576
 10
107.880753553759
 20
-153.7528889589576
 10
107.880753553759
 20
-153.7528889589576
 10
107.880753553759
 20
-153.7528889589576
 10
107.880753553759
 20
-153.4059678435929
 10
107.880753553759
 20
-153.4059678435929
 10
107.880753553759
 20
-153.4059678435929
 10
107.2248073733674
 20
-153.4059678435929
 10
107.2248073733674
 20
-153.4059678435929
 10
107.2248073733674
 20
-153.4059678435929
 10
107.2248073733674
 20
-153.1816921275032
 10
107.2248073733674
 20
-153.1816921275032
 10
107.2248073733674
 20
-153.1816921275032
 10
107.9038356935101
 20
-152.2084526529201
 10
107.9038356935101
 20
-152.2084526529201
 10
107.9038356935101
 20
-152.2084526529201
 10
108.0984835884267
 20
-152.2084526529201
 10
108.0984835884267
 20
-152.2084526529201
 10
108.0984835884267
 20
-152.2084526529201
 10
108.0984835884267
 20
-153.207185834094
 10
108.0984835884267
 20
-153.207185834094
 10
108.0984835884267
 20
-153.207185834094
 10
108.3058783366388
 20
-153.207185834094
 10
108.3058783366388
 20
-153.207185834094
 10
108.3058783366388
 20
-153.207185834094
 10
108.3058783366388
 20
-153.4059678435929
 10
108.3058783366388
 20
-153.4059678435929
 10
108.3058783366388
 20
-153.4059678435929
 10
108.0984835884267
 20
-153.4059678435929
 10
108.0984835884267
 20
-153.4059678435929
 97
        0
 97
        1
330
B1
 75
     2
 76
     1
 98
        1
 10
0.0
 20
0.0
450
        0
451
        0
460
0.0
461
0.0
452
        0
462
0.0
453
        0
470

  0
SPLINE
  5
B3
330
AC
100
AcDbEntity
  8
レイヤー 1
100
AcDbSpline
210
0.0
220
0.0
230
1.0
 70
     9
 71
     3
 72
    17
 73
    13
 74
     0
 42
0.0000000001
 43
0.0000000001
 40
0.0
 40
0.0
 40
0.0
 40
0.0
 40
1.0
 40
1.0
 40
1.0
 40
2.0
 40
2.0
 40
2.0
 40
3.0
 40
3.0
 40
3.0
 40
4.0
 40
4.0
 40
4.0
 40
4.0
 10
108.94322100141
 20
-152.3524576442035
 30
0.0
 10
108.6937960882779
 20
-152.3524576442035
 30
0.0
 10
108.6469427896785
 20
-152.6359890026396
 30
0.0
 10
108.6469427896785
 20
-152.9808430607131
 30
0.0
 10
108.6469427896785
 20
-153.3002034121958
 30
0.0
 10
108.6831162922736
 20
-153.6088839676741
 30
0.0
 10
108.94322100141
 20
-153.6088839676741
 30
0.0
 10
109.1909233667995
 20
-153.6088839676741
 30
0.0
 10
109.2394992131415
 20
-153.3277641760778
 30
0.0
 10
109.2394992131415
 20
-152.9808430607131
 30
0.0
 10
109.2394992131415
 20
-152.6611381996819
 30
0.0
 10
109.2012586532552
 20
-152.3524576442035
 30
0.0
 10
108.94322100141
 20
-152.3524576442035
 30
0.0
  0
SPLINE
  5
B4
330
AC
100
AcDbEntity
  8
レイヤー 1
100
AcDbSpline
210
0.0
220
0.0
230
1.0
 70
     9
 71
     3
 72
    29
 73
    25
 74
     0
 42
0.0000000001
 43
0.0000000001
 40
0.0
 40
0.0
 40
0.0
 40
0.0
 40
1.0
 40
1.0
 40
1.0
 40
2.0
 40
2.0
 40
2.0
 40
3.0
 40
3.0
 40
3.0
 40
4.0
 40
4.0
 40
4.0
 40
5.0
 40
5.0
 40
5.0
 40
6.0
 40
6.0
 40
6.0
 40
7.0
 40
7.0
 40
7.0
 40
8.0
 40
8.0
 40
8.0
 40
8.0
 10
109.3411295299564
 20
-153.5751220319187
 30
0.0
 10
109.2329535317195
 20
-153.7845838374219
 30
0.0
 10
109.0596652288114
 20
-153.8035318625908
 30
0.0
 10
108.94322100141
 20
-153.8035318625908
 30
0.0
 10
108.7823350422488
 20
-153.8035318625908
 30
0.0
 10
108.6407416178051
 20
-153.7570230735399
 30
0.0
 10
108.5456569824122
 20
-153.5751220319187
 30
0.0
 10
108.4419596083062
 20
-153.3804741370021
 30
0.0
 10
108.4230115831373
 20
-153.1434515676169
 30
0.0
 10
108.4230115831373
 20
-152.9808430607131
 30
0.0
 10
108.4230115831373
 20
-152.8368380694297
 30
0.0
 10
108.439892551015
 20
-152.5850015894579
 30
0.0
 10
108.5456569824122
 20
-152.386219579959
 30
0.0
 10
108.6534884711005
 20
-152.1833034558778
 30
0.0
 10
108.8143744302617
 20
-152.1598768065781
 30
0.0
 10
108.94322100141
 20
-152.1598768065781
 30
0.0
 10
109.10203990328
 20
-152.1598768065781
 30
0.0
 10
109.2457003850149
 20
-152.2043185383378
 30
0.0
 10
109.3411295299564
 20
-152.386219579959
 30
0.0
 10
109.4403482799316
 20
-152.5788004175844
 30
0.0
 10
109.4637749292312
 20
-152.8072102482565
 30
0.0
 10
109.4637749292312
 20
-152.9808430607131
 30
0.0
 10
109.4637749292312
 20
-153.15206430633
 30
0.0
 10
109.4424153372227
 20
-153.3825411942932
 30
0.0
 10
109.3411295299564
 20
-153.5751220319187
 30
0.0
  0
HATCH
  5
B5
330
AC
100
AcDbEntity
  8
レイヤー 1
 62
   250
420
  2299925
440
 33554687
100
AcDbHatch
 10
0.0
 20
0.0
 30
0.0
210
0.0
220
0.0
230
1.0
  2
SOLID
 70
     1
 71
     1
 91
        2
 92
        1
 93
        1
 72
     4
 94
        3
 73
     0
 74
     0
 95
       17
 96
       13
 40
0.0
 40
0.0
 40
0.0
 40
0.0
 40
1.0
 40
1.0
 40
1.0
 40
2.0
 40
2.0
 40
2.0
 40
3.0
 40
3.0
 40
3.0
 40
4.0
 40
4.0
 40
4.0
 40
4.0
 10
108.94322100141
 20
-152.3524576442035
 10
108.6937960882779
 20
-152.3524576442035
 10
108.6469427896785
 20
-152.6359890026396
 10
108.6469427896785
 20
-152.9808430607131
 10
108.6469427896785
 20
-153.3002034121958
 10
108.6831162922736
 20
-153.6088839676741
 10
108.94322100141
 20
-153.6088839676741
 10
109.1909233667995
 20
-153.6088839676741
 10
109.2394992131415
 20
-153.3277641760778
 10
109.2394992131415
 20
-152.9808430607131
 10
109.2394992131415
 20
-152.6611381996819
 10
109.2012586532552
 20
-152.3524576442035
 10
108.94322100141
 20
-152.3524576442035
 97
        0
 97
        1
330
B3
 92
        1
 93
        1
 72
     4
 94
        3
 73
     0
 74
     0
 95
       29
 96
       25
 40
0.0
 40
0.0
 40
0.0
 40
0.0
 40
1.0
 40
1.0
 40
1.0
 40
2.0
 40
2.0
 40
2.0
 40
3.0
 40
3.0
 40
3.0
 40
4.0
 40
4.0
 40
4.0
 40
5.0
 40
5.0
 40
5.0
 40
6.0
 40
6.0
 40
6.0
 40
7.0
 40
7.0
 40
7.0
 40
8.0
 40
8.0
 40
8.0
 40
8.0
 10
109.3411295299564
 20
-153.5751220319187
 10
109.2329535317195
 20
-153.7845838374219
 10
109.0596652288114
 20
-153.8035318625908
 10
108.94322100141
 20
-153.8035318625908
 10
108.7823350422488
 20
-153.8035318625908
 10
108.6407416178051
 20
-153.7570230735399
 10
108.5456569824122
 20
-153.5751220319187
 10
108.4419596083062
 20
-153.3804741370021
 10
108.4230115831373
 20
-153.1434515676169
 10
108.4230115831373
 20
-152.9808430607131
 10
108.4230115831373
 20
-152.8368380694297
 10
108.439892551015
 20
-152.5850015894579
 10
108.5456569824122
 20
-152.386219579959
 10
108.6534884711005
 20
-152.1833034558778
 10
108.8143744302617
 20
-152.1598768065781
 10
108.94322100141
 20
-152.1598768065781
 10
109.10203990328
 20
-152.1598768065781
 10
109.2457003850149
 20
-152.2043185383378
 10
109.3411295299564
 20
-152.386219579959
 10
109.4403482799316
 20
-152.5788004175844
 10
109.4637749292312
 20
-152.8072102482565
 10
109.4637749292312
 20
-152.9808430607131
 10
109.4637749292312
 20
-153.15206430633
 10
109.4424153372227
 20
-153.3825411942932
 10
109.3411295299564
 20
-153.5751220319187
 97
        0
 97
        1
330
B4
 75
     2
 76
     1
 98
        1
 10
0.0
 20
0.0
450
        0
451
        0
460
0.0
461
0.0
452
        0
462
0.0
453
        0
470

  0
ENDBLK
  5
AF
330
AC
100
AcDbEntity
  8
0
100
AcDbBlockEnd
  0
BLOCK
  5
B8
330
B6
100
AcDbEntity
  8
0
100
AcDbBlockBegin
  2
Block_5
 70
     0
 10
0.0
 20
0.0
 30
0.0
  3
Block_5
  1

  0
SPLINE
  5
BA
330
B6
100
AcDbEntity
  8
レイヤー 1
 62
   250
420
  2299925
370
     9
100
AcDbSpline
210
0.0
220
0.0
230
1.0
 70
     9
 71
     3
 72
    17
 73
    13
 74
     0
 42
0.0000000001
 43
0.0000000001
 40
0.0
 40
0.0
 40
0.0
 40
0.0
 40
1.0
 40
1.0
 40
1.0
 40
2.0
 40
2.0
 40
2.0
 40
3.0
 40
3.0
 40
3.0
 40
4.0
 40
4.0
 40
4.0
 40
4.0
 10
84.45620033710859
 20
-150.4660170016185
 30
0.0
 10
84.45620033710859
 20
-150.4105603363667
 30
0.0
 10
84.41143283711939
 20
-150.3657575597319
 30
0.0
 10
84.35594089268921
 20
-150.3657575597319
 30
0.0
 10
84.30083700381365
 20
-150.3657575597319
 30
0.0
 10
84.25603422604725
 20
-150.4105603363667
 30
0.0
 10
84.25603422604725
 20
-150.4660170016185
 30
0.0
 10
84.25603422604725
 20
-150.5211208891016
 30
0.0
 10
84.30083700381365
 20
-150.5659236657363
 30
0.0
 10
84.35594089268921
 20
-150.5659236657363
 30
0.0
 10
84.41143283711939
 20
-150.5659236657363
 30
0.0
 10
84.45620033710859
 20
-150.5211208891016
 30
0.0
 10
84.45620033710859
 20
-150.4660170016185
 30
0.0
  0
LINE
  5
BB
330
B6
100
AcDbEntity
  8
レイヤー 1
 62
   250
420
  2299925
370
     9
100
AcDbLine
 10
86.61629394767929
 20
-150.4660170016185
 30
0.0
 11
83.35585117071673
 21
-150.4660170016185
 31
0.0
  0
SPLINE
  5
BC
330
B6
100
AcDbEntity
  8
レイヤー 1
 62
    18
420
        0
370
     9
100
AcDbSpline
210
0.0
220
0.0
230
1.0
 70
     9
 71
     3
 72
    17
 73
    13
 74
     0
 42
0.0000000001
 43
0.0000000001
 40
0.0
 40
0.0
 40
0.0
 40
0.0
 40
1.0
 40
1.0
 40
1.0
 40
2.0
 40
2.0
 40
2.0
 40
3.0
 40
3.0
 40
3.0
 40
4.0
 40
4.0
 40
4.0
 40
4.0
 10
84.45602379426617
 20
-150.4660171057072
 30
0.0
 10
84.45602379426617
 20
-150.4105604390539
 30
0.0
 10
84.41160907205569
 20
-150.366110439065
 30
0.0
 10
84.35611712762485
 20
-150.366110439065
 30
0.0
 10
84.30066046097218
 20
-150.366110439065
 30
0.0
 10
84.25585768320546
 20
-150.4105604390539
 30
0.0
 10
84.25585768320546
 20
-150.4660171057072
 30
0.0
 10
84.25585768320546
 20
-150.5211209945828
 30
0.0
 10
84.30066046097218
 20
-150.5659237723495
 30
0.0
 10
84.35611712762485
 20
-150.5659237723495
 30
0.0
 10
84.41160907205569
 20
-150.5659237723495
 30
0.0
 10
84.45602379426617
 20
-150.5211209945828
 30
0.0
 10
84.45602379426617
 20
-150.4660171057072
 30
0.0
  0
SPLINE
  5
BD
330
B6
100
AcDbEntity
  8
レイヤー 1
 62
    18
420
        0
370
     9
100
AcDbSpline
210
0.0
220
0.0
230
1.0
 70
     9
 71
     3
 72
    17
 73
    13
 74
     0
 42
0.0000000001
 43
0.0000000001
 40
0.0
 40
0.0
 40
0.0
 40
0.0
 40
1.0
 40
1.0
 40
1.0
 40
2.0
 40
2.0
 40
2.0
 40
3.0
 40
3.0
 40
3.0
 40
4.0
 40
4.0
 40
4.0
 40
4.0
 10
84.45602379426617
 20
-141.4660562746245
 30
0.0
 10
84.45602379426617
 20
-141.4105996079712
 30
0.0
 10
84.41160907205569
 20
-141.3657968302045
 30
0.0
 10
84.35611712762485
 20
-141.3657968302045
 30
0.0
 10
84.30066046097218
 20
-141.3657968302045
 30
0.0
 10
84.25585768320546
 20
-141.4105996079712
 30
0.0
 10
84.25585768320546
 20
-141.4660562746245
 30
0.0
 10
84.25585768320546
 20
-141.5211601634988
 30
0.0
 10
84.30066046097218
 20
-141.5659629412655
 30
0.0
 10
84.35611712762485
 20
-141.5659629412655
 30
0.0
 10
84.41160907205569
 20
-141.5659629412655
 30
0.0
 10
84.45602379426617
 20
-141.5211601634988
 30
0.0
 10
84.45602379426617
 20
-141.4660562746245
 30
0.0
  0
LINE
  5
BE
330
B6
100
AcDbEntity
  8
レイヤー 1
 62
    18
420
        0
370
     9
100
AcDbLine
 10
84.35611712762485
 20
-150.4660171057072
 30
0.0
 11
84.35611712762485
 21
-141.4660562746245
 31
0.0
  0
LINE
  5
BF
330
B6
100
AcDbEntity
  8
レイヤー 1
 62
    18
420
        0
370
     9
100
AcDbLine
 10
86.61611740483783
 20
-150.4660171057072
 30
0.0
 11
83.35602740565271
 21
-150.4660171057072
 31
0.0
  0
LINE
  5
C0
330
B6
100
AcDbEntity
  8
レイヤー 1
 62
    18
420
        0
370
     9
100
AcDbLine
 10
86.31604462713516
 20
-141.4660562746245
 30
0.0
 11
83.35602740565271
 21
-141.4660562746245
 31
0.0
  0
INSERT
  5
C2
330
B6
100
AcDbEntity
  8
レイヤー 1
100
AcDbBlockReference
  2
Block_6
 10
0.0
 20
0.0
 30
0.0
  0
ENDBLK
  5
B9
330
B6
100
AcDbEntity
  8
0
100
AcDbBlockEnd
  0
BLOCK
  5
C3
330
C1
100
AcDbEntity
  8
0
100
AcDbBlockBegin
  2
Block_6
 70
     0
 10
0.0
 20
0.0
 30
0.0
  3
Block_6
  1

  0
SPLINE
  5
C5
330
C1
100
AcDbEntity
  8
レイヤー 1
100
AcDbSpline
210
0.0
220
0.0
230
1.0
 70
     9
 71
     3
 72
    17
 73
    13
 74
     0
 42
0.0000000001
 43
0.0000000001
 40
0.0
 40
0.0
 40
0.0
 40
0.0
 40
1.0
 40
1.0
 40
1.0
 40
2.0
 40
2.0
 40
2.0
 40
3.0
 40
3.0
 40
3.0
 40
4.0
 40
4.0
 40
4.0
 40
4.0
 10
82.24166393343265
 20
-145.9612887547423
 30
0.0
 10
82.24166393343265
 20
-146.0798000394349
 30
0.0
 10
82.29868026371352
 20
-146.2553276544084
 30
0.0
 10
82.58427867944075
 20
-146.2553276544084
 30
0.0
 10
82.81062145282165
 20
-146.2553276544084
 30
0.0
 10
82.90587834298881
 20
-146.1158012872558
 30
0.0
 10
82.90587834298881
 20
-145.9804090346854
 30
0.0
 10
82.90587834298881
 20
-145.7180650134836
 30
0.0
 10
82.69641653748562
 20
-145.6799967083717
 30
0.0
 10
82.58014456485843
 20
-145.6799967083717
 30
0.0
 10
82.4044446951107
 20
-145.6799967083717
 30
0.0
 10
82.24166393343265
 20
-145.7750813437646
 30
0.0
 10
82.24166393343265
 20
-145.9612887547423
 30
0.0
  0
SPLINE
  5
C6
330
C1
100
AcDbEntity
  8
レイヤー 1
100
AcDbSpline
210
0.0
220
0.0
230
1.0
 70
     9
 71
     3
 72
    32
 73
    28
 74
     0
 42
0.0000000001
 43
0.0000000001
 40
0.0
 40
0.0
 40
0.0
 40
0.0
 40
1.0
 40
1.0
 40
1.0
 40
2.0
 40
2.0
 40
2.0
 40
3.0
 40
3.0
 40
3.0
 40
4.0
 40
4.0
 40
4.0
 40
5.0
 40
5.0
 40
5.0
 40
6.0
 40
6.0
 40
6.0
 40
7.0
 40
7.0
 40
7.0
 40
8.0
 40
8.0
 40
8.0
 40
9.0
 40
9.0
 40
9.0
 40
9.0
 10
83.69291040659414
 20
-146.0014241171455
 30
0.0
 10
83.69291040659414
 20
-146.1750569296021
 30
0.0
 10
83.62297496824357
 20
-146.4203477281518
 30
0.0
 10
83.29086776346548
 20
-146.4584160332639
 30
0.0
 10
83.29086776346548
 20
-146.4584160332639
 30
0.0
 10
83.29086776346548
 20
-146.2448201131784
 30
0.0
 10
83.29086776346548
 20
-146.2448201131784
 30
0.0
 10
83.35012340581178
 20
-146.2341403171741
 30
0.0
 10
83.49826251167753
 20
-146.2024454387098
 30
0.0
 10
83.49826251167753
 20
-145.9993570598543
 30
0.0
 10
83.49826251167753
 20
-145.7073852174794
 30
0.0
 10
83.16822236419058
 20
-145.6693169123674
 30
0.0
 10
82.96306692804396
 20
-145.6567423138462
 30
0.0
 10
83.04333765285027
 20
-145.7476928346568
 30
0.0
 10
83.10052623790543
 20
-145.815388960942
 30
0.0
 10
83.10052623790543
 20
-145.9972900025632
 30
0.0
 10
83.10052623790543
 20
-146.1771239868932
 30
0.0
 10
82.99476180650826
 20
-146.4796033704981
 30
0.0
 10
82.5885850487973
 20
-146.4796033704981
 30
0.0
 10
82.26905244254039
 20
-146.4796033704981
 30
0.0
 10
82.04908309580718
 20
-146.2808213609992
 30
0.0
 10
82.04908309580718
 20
-145.9633558120335
 30
0.0
 10
82.04908309580718
 20
-145.4493475656342
 30
0.0
 10
82.60339895938388
 20
-145.4388400244042
 30
0.0
 10
82.81699487946935
 20
-145.4388400244042
 30
0.0
 10
83.04764402220683
 20
-145.4388400244042
 30
0.0
 10
83.69291040659414
 20
-145.457788049573
 30
0.0
 10
83.69291040659414
 20
-146.0014241171455
 30
0.0
  0
HATCH
  5
C7
330
C1
100
AcDbEntity
  8
レイヤー 1
 62
    18
420
        0
440
 33554687
100
AcDbHatch
 10
0.0
 20
0.0
 30
0.0
210
0.0
220
0.0
230
1.0
  2
SOLID
 70
     1
 71
     1
 91
        2
 92
        1
 93
        1
 72
     4
 94
        3
 73
     0
 74
     0
 95
       17
 96
       13
 40
0.0
 40
0.0
 40
0.0
 40
0.0
 40
1.0
 40
1.0
 40
1.0
 40
2.0
 40
2.0
 40
2.0
 40
3.0
 40
3.0
 40
3.0
 40
4.0
 40
4.0
 40
4.0
 40
4.0
 10
82.24166393343265
 20
-145.9612887547423
 10
82.24166393343265
 20
-146.0798000394349
 10
82.29868026371352
 20
-146.2553276544084
 10
82.58427867944075
 20
-146.2553276544084
 10
82.81062145282165
 20
-146.2553276544084
 10
82.90587834298881
 20
-146.1158012872558
 10
82.90587834298881
 20
-145.9804090346854
 10
82.90587834298881
 20
-145.7180650134836
 10
82.69641653748562
 20
-145.6799967083717
 10
82.58014456485843
 20
-145.6799967083717
 10
82.4044446951107
 20
-145.6799967083717
 10
82.24166393343265
 20
-145.7750813437646
 10
82.24166393343265
 20
-145.9612887547423
 97
        0
 97
        1
330
C5
 92
        1
 93
        1
 72
     4
 94
        3
 73
     0
 74
     0
 95
       32
 96
       28
 40
0.0
 40
0.0
 40
0.0
 40
0.0
 40
1.0
 40
1.0
 40
1.0
 40
2.0
 40
2.0
 40
2.0
 40
3.0
 40
3.0
 40
3.0
 40
4.0
 40
4.0
 40
4.0
 40
5.0
 40
5.0
 40
5.0
 40
6.0
 40
6.0
 40
6.0
 40
7.0
 40
7.0
 40
7.0
 40
8.0
 40
8.0
 40
8.0
 40
9.0
 40
9.0
 40
9.0
 40
9.0
 10
83.69291040659414
 20
-146.0014241171455
 10
83.69291040659414
 20
-146.1750569296021
 10
83.62297496824357
 20
-146.4203477281518
 10
83.29086776346548
 20
-146.4584160332639
 10
83.29086776346548
 20
-146.4584160332639
 10
83.29086776346548
 20
-146.2448201131784
 10
83.29086776346548
 20
-146.2448201131784
 10
83.35012340581178
 20
-146.2341403171741
 10
83.49826251167753
 20
-146.2024454387098
 10
83.49826251167753
 20
-145.9993570598543
 10
83.49826251167753
 20
-145.7073852174794
 10
83.16822236419058
 20
-145.6693169123674
 10
82.96306692804396
 20
-145.6567423138462
 10
83.04333765285027
 20
-145.7476928346568
 10
83.10052623790543
 20
-145.815388960942
 10
83.10052623790543
 20
-145.9972900025632
 10
83.10052623790543
 20
-146.1771239868932
 10
82.99476180650826
 20
-146.4796033704981
 10
82.5885850487973
 20
-146.4796033704981
 10
82.26905244254039
 20
-146.4796033704981
 10
82.04908309580718
 20
-146.2808213609992
 10
82.04908309580718
 20
-145.9633558120335
 10
82.04908309580718
 20
-145.4493475656342
 10
82.60339895938388
 20
-145.4388400244042
 10
82.81699487946935
 20
-145.4388400244042
 10
83.04764402220683
 20
-145.4388400244042
 10
83.69291040659414
 20
-145.457788049573
 10
83.69291040659414
 20
-146.0014241171455
 97
        0
 97
        1
330
C6
 75
     2
 76
     1
 98
        1
 10
0.0
 20
0.0
450
        0
451
        0
460
0.0
461
0.0
452
        0
462
0.0
453
        0
470

  0
ENDBLK
  5
C4
330
C1
100
AcDbEntity
  8
0
100
AcDbBlockEnd
  0
ENDSEC
  0
SECTION
  2
ENTITIES
  0
INSERT
  5
7A
330
70
100
AcDbEntity
  8
レイヤー 1
100
AcDbBlockReference
  2
Block_0
 10
0.0
 20
0.0
 30
0.0
  0
ENDSEC
  0
SECTION
  2
OBJECTS
  0
DICTIONARY
  5
C
330
0
100
AcDbDictionary
281
     1
  3
ACAD_COLOR
350
63
  3
ACAD_DETAILVIEWSTYLE
350
6A
  3
ACAD_GROUP
350
D
  3
ACAD_LAYOUT
350
62
  3
ACAD_MATERIAL
350
10
  3
ACAD_MLEADERSTYLE
350
66
  3
ACAD_MLINESTYLE
350
5F
  3
ACAD_PLOTSETTINGS
350
61
  3
ACAD_PLOTSTYLENAME
350
E
  3
ACAD_SCALELIST
350
42
  3
ACAD_SECTIONVIEWSTYLE
350
68
  3
ACAD_TABLESTYLE
350
64
  3
ACAD_VISUALSTYLE
350
29
  3
ACDB_RECOMPOSE_DATA
350
D0
  3
AcDbVariableDictionary
350
C8
  0
DICTIONARY
  5
63
102
{ACAD_REACTORS
330
C
102
}
330
C
100
AcDbDictionary
281
     1
  0
DICTIONARY
  5
6A
102
{ACAD_REACTORS
330
C
102
}
330
C
100
AcDbDictionary
281
     1
  3
Imperial24
350
6B
  0
DICTIONARY
  5
D
102
{ACAD_REACTORS
330
C
102
}
330
C
100
AcDbDictionary
281
     1
  0
DICTIONARY
  5
62
102
{ACAD_REACTORS
330
C
102
}
330
C
100
AcDbDictionary
281
     1
  3
Layout1
350
6F
  3
Layout2
350
77
  3
Model
350
73
  0
DICTIONARY
  5
10
102
{ACAD_REACTORS
330
C
102
}
330
C
100
AcDbDictionary
281
     1
  3
ByBlock
350
19
  3
ByLayer
350
11
  3
Global
350
21
  0
DICTIONARY
  5
66
102
{ACAD_REACTORS
330
C
102
}
330
C
100
AcDbDictionary
281
     1
  3
Standard
350
67
  0
DICTIONARY
  5
5F
102
{ACAD_REACTORS
330
C
102
}
330
C
100
AcDbDictionary
281
     1
  3
Standard
350
60
  0
DICTIONARY
  5
61
102
{ACAD_REACTORS
330
C
102
}
330
C
100
AcDbDictionary
281
     1
  0
ACDBDICTIONARYWDFLT
  5
E
102
{ACAD_REACTORS
330
C
102
}
330
C
100
AcDbDictionary
281
     1
  3
Normal
350
F
100
AcDbDictionaryWithDefault
340
F
  0
DICTIONARY
  5
42
102
{ACAD_REACTORS
330
C
102
}
330
C
100
AcDbDictionary
281
     1
  3
A0
350
43
  3
A1
350
44
  3
A2
350
45
  3
A3
350
46
  3
A4
350
47
  3
A5
350
48
  3
A6
350
49
  3
A7
350
4A
  3
A8
350
4B
  3
A9
350
4C
  3
B0
350
4D
  3
B1
350
4E
  3
B2
350
4F
  3
B3
350
50
  3
B4
350
51
  3
B5
350
52
  3
B6
350
53
  0
DICTIONARY
  5
68
102
{ACAD_REACTORS
330
C
102
}
330
C
100
AcDbDictionary
281
     1
  3
Imperial24
350
69
  0
DICTIONARY
  5
64
102
{ACAD_REACTORS
330
C
102
}
330
C
100
AcDbDictionary
281
     1
  3
Standard
350
65
  0
DICTIONARY
  5
29
102
{ACAD_REACTORS
330
C
102
}
330
C
100
AcDbDictionary
281
     1
  3
2dWireframe
350
2F
  3
Basic
350
2E
  3
Brighten
350
35
  3
ColorChange
350
39
  3
Conceptual
350
32
  3
Dim
350
34
  3
EdgeColorOff
350
41
  3
Facepattern
350
38
  3
Flat
350
2A
  3
FlatWithEdges
350
2B
  3
Gouraud
350
2C
  3
GouraudWithEdges
350
2D
  3
Hidden
350
31
  3
JitterOff
350
3F
  3
Linepattern
350
37
  3
OverhangOff
350
40
  3
Realistic
350
33
  3
Shaded
350
3E
  3
Shaded with edges
350
3D
  3
Shades of Gray
350
3A
  3
Sketchy
350
3B
  3
Thicken
350
36
  3
Wireframe
350
30
  3
X-Ray
350
3C
  0
XRECORD
  5
D0
102
{ACAD_REACTORS
330
C
102
}
330
C
100
AcDbXrecord
280
     1
 90
        1
330
65
  0
DICTIONARY
  5
C8
102
{ACAD_REACTORS
330
C
102
}
330
C
100
AcDbDictionary
281
     1
  3
CANNOSCALE
350
CD
  3
CMLEADERSTYLE
350
CA
  3
CTABLESTYLE
350
C9
  3
CVIEWDETAILSTYLE
350
CB
  3
CVIEWSECTIONSTYLE
350
CC
  0
ACDBDETAILVIEWSTYLE
  5
6B
102
{ACAD_XDICTIONARY
360
105
102
}
102
{ACAD_REACTORS
330
6A
102
}
330
6A
100
AcDbModelDocViewStyle
 70
     0
  3
Imperial24
290
     0
100
AcDbDetailViewStyle
 70
     0
 71
     0
 90
        3
 71
     1
340
55
 62
   256
 40
0.24
340
0
 62
   256
 40
0.24
300

 40
0.36
280
     3
 71
     2
340
5D
 90
       25
 62
   256
 71
     3
340
55
 62
   256
 40
0.24
 90
        1
 40
0.75
 90
        1
300
%<\AcVar ViewType \f "%tc1">% %<\AcVar ViewDetailId>%\PSCALE %<\AcVar ViewScale \f "%sn">%
 71
     4
340
5D
 90
       25
 62
   256
340
5D
 90
       25
 62
   256
280
     0
  0
LAYOUT
  5
6F
102
{ACAD_REACTORS
330
62
102
}
330
62
100
AcDbPlotSettings
  1

  2

  4

  6

 40
0.0
 41
0.0
 42
0.0
 43
0.0
 44
0.0
 45
0.0
 46
0.0
 47
0.0
 48
0.0
 49
0.0
140
0.0
141
0.0
142
1.0
143
1.0
 70
   688
 72
     0
 73
     0
 74
     5
  7

 75
    16
147
1.0
 76
     0
 77
     2
 78
   300
148
0.0
149
0.0
100
AcDbLayout
  1
Layout1
 70
     1
 71
     1
 10
0.0
 20
0.0
 11
12.0
 21
9.0
 12
0.0
 22
0.0
 32
0.0
 14
0.0
 24
0.0
 34
0.0
 15
0.0
 25
0.0
 35
0.0
146
0.0
 13
0.0
 23
0.0
 33
0.0
 16
1.0
 26
0.0
 36
0.0
 17
0.0
 27
1.0
 37
0.0
 76
     0
330
6C
  0
LAYOUT
  5
77
102
{ACAD_REACTORS
330
62
102
}
330
62
100
AcDbPlotSettings
  1

  2

  4

  6

 40
0.0
 41
0.0
 42
0.0
 43
0.0
 44
0.0
 45
0.0
 46
0.0
 47
0.0
 48
0.0
 49
0.0
140
0.0
141
0.0
142
1.0
143
1.0
 70
   688
 72
     0
 73
     0
 74
     5
  7

 75
    16
147
1.0
 76
     0
 77
     2
 78
   300
148
0.0
149
0.0
100
AcDbLayout
  1
Layout2
 70
     1
 71
     2
 10
0.0
 20
0.0
 11
12.0
 21
9.0
 12
0.0
 22
0.0
 32
0.0
 14
0.0
 24
0.0
 34
0.0
 15
0.0
 25
0.0
 35
0.0
146
0.0
 13
0.0
 23
0.0
 33
0.0
 16
1.0
 26
0.0
 36
0.0
 17
0.0
 27
1.0
 37
0.0
 76
     0
330
74
  0
LAYOUT
  5
73
102
{ACAD_REACTORS
330
62
102
}
330
62
100
AcDbPlotSettings
  1

  2

  4

  6

 40
0.0
 41
0.0
 42
0.0
 43
0.0
 44
0.0
 45
0.0
 46
0.0
 47
0.0
 48
0.0
 49
0.0
140
0.0
141
0.0
142
1.0
143
1.0
 70
  1712
 72
     0
 73
     0
 74
     0
  7

 75
     0
147
1.0
 76
     0
 77
     2
 78
   300
148
0.0
149
0.0
100
AcDbLayout
  1
Model
 70
     1
 71
     0
 10
0.0
 20
0.0
 11
12.0
 21
9.0
 12
0.0
 22
0.0
 32
0.0
 14
0.0
 24
0.0
 34
0.0
 15
0.0
 25
0.0
 35
0.0
146
0.0
 13
0.0
 23
0.0
 33
0.0
 16
1.0
 26
0.0
 36
0.0
 17
0.0
 27
1.0
 37
0.0
 76
     0
330
70
  0
MATERIAL
  5
19
102
{ACAD_XDICTIONARY
360
1A
102
}
102
{ACAD_REACTORS
330
10
102
}
330
10
100
AcDbMaterial
  1
ByBlock
 72
     0
 43
0.0208333333333333
 43
0.0
 43
0.0
 43
0.0
 43
0.0
 43
0.0208333333333333
 43
0.0
 43
0.0
 43
0.0
 43
0.0
 43
1.0
 43
0.0
 43
0.0
 43
0.0
 43
0.0
 43
1.0
 77
     0
 47
0.0208333333333333
 47
0.0
 47
0.0
 47
0.0
 47
0.0
 47
0.0208333333333333
 47
0.0
 47
0.0
 47
0.0
 47
0.0
 47
1.0
 47
0.0
 47
0.0
 47
0.0
 47
0.0
 47
1.0
171
     0
 49
0.0208333333333333
 49
0.0
 49
0.0
 49
0.0
 49
0.0
 49
0.0208333333333333
 49
0.0
 49
0.0
 49
0.0
 49
0.0
 49
1.0
 49
0.0
 49
0.0
 49
0.0
 49
0.0
 49
1.0
175
     0
142
0.0208333333333333
142
0.0
142
0.0
142
0.0
142
0.0
142
0.0208333333333333
142
0.0
142
0.0
142
0.0
142
0.0
142
1.0
142
0.0
142
0.0
142
0.0
142
0.0
142
1.0
179
     0
144
0.0208333333333333
144
0.0
144
0.0
144
0.0
144
0.0
144
0.0208333333333333
144
0.0
144
0.0
144
0.0
144
0.0
144
1.0
144
0.0
144
0.0
144
0.0
144
0.0
144
1.0
147
0.0208333333333333
147
0.0
147
0.0
147
0.0
147
0.0
147
0.0208333333333333
147
0.0
147
0.0
147
0.0
147
0.0
147
1.0
147
0.0
147
0.0
147
0.0
147
0.0
147
1.0
  0
MATERIAL
  5
11
102
{ACAD_XDICTIONARY
360
12
102
}
102
{ACAD_REACTORS
330
10
102
}
330
10
100
AcDbMaterial
  1
ByLayer
 72
     0
 43
0.0208333333333333
 43
0.0
 43
0.0
 43
0.0
 43
0.0
 43
0.0208333333333333
 43
0.0
 43
0.0
 43
0.0
 43
0.0
 43
1.0
 43
0.0
 43
0.0
 43
0.0
 43
0.0
 43
1.0
 77
     0
 47
0.0208333333333333
 47
0.0
 47
0.0
 47
0.0
 47
0.0
 47
0.0208333333333333
 47
0.0
 47
0.0
 47
0.0
 47
0.0
 47
1.0
 47
0.0
 47
0.0
 47
0.0
 47
0.0
 47
1.0
171
     0
 49
0.0208333333333333
 49
0.0
 49
0.0
 49
0.0
 49
0.0
 49
0.0208333333333333
 49
0.0
 49
0.0
 49
0.0
 49
0.0
 49
1.0
 49
0.0
 49
0.0
 49
0.0
 49
0.0
 49
1.0
175
     0
142
0.0208333333333333
142
0.0
142
0.0
142
0.0
142
0.0
142
0.0208333333333333
142
0.0
142
0.0
142
0.0
142
0.0
142
1.0
142
0.0
142
0.0
142
0.0
142
0.0
142
1.0
179
     0
144
0.0208333333333333
144
0.0
144
0.0
144
0.0
144
0.0
144
0.0208333333333333
144
0.0
144
0.0
144
0.0
144
0.0
144
1.0
144
0.0
144
0.0
144
0.0
144
0.0
144
1.0
147
0.0208333333333333
147
0.0
147
0.0
147
0.0
147
0.0
147
0.0208333333333333
147
0.0
147
0.0
147
0.0
147
0.0
147
1.0
147
0.0
147
0.0
147
0.0
147
0.0
147
1.0
  0
MATERIAL
  5
21
102
{ACAD_XDICTIONARY
360
22
102
}
102
{ACAD_REACTORS
330
10
102
}
330
10
100
AcDbMaterial
  1
Global
 72
     0
 43
0.0208333333333333
 43
0.0
 43
0.0
 43
0.0
 43
0.0
 43
0.0208333333333333
 43
0.0
 43
0.0
 43
0.0
 43
0.0
 43
1.0
 43
0.0
 43
0.0
 43
0.0
 43
0.0
 43
1.0
 77
     0
 47
0.0208333333333333
 47
0.0
 47
0.0
 47
0.0
 47
0.0
 47
0.0208333333333333
 47
0.0
 47
0.0
 47
0.0
 47
0.0
 47
1.0
 47
0.0
 47
0.0
 47
0.0
 47
0.0
 47
1.0
171
     0
 49
0.0208333333333333
 49
0.0
 49
0.0
 49
0.0
 49
0.0
 49
0.0208333333333333
 49
0.0
 49
0.0
 49
0.0
 49
0.0
 49
1.0
 49
0.0
 49
0.0
 49
0.0
 49
0.0
 49
1.0
175
     0
142
0.0208333333333333
142
0.0
142
0.0
142
0.0
142
0.0
142
0.0208333333333333
142
0.0
142
0.0
142
0.0
142
0.0
142
1.0
142
0.0
142
0.0
142
0.0
142
0.0
142
1.0
179
     0
144
0.0208333333333333
144
0.0
144
0.0
144
0.0
144
0.0
144
0.0208333333333333
144
0.0
144
0.0
144
0.0
144
0.0
144
1.0
144
0.0
144
0.0
144
0.0
144
0.0
144
1.0
147
0.0208333333333333
147
0.0
147
0.0
147
0.0
147
0.0
147
0.0208333333333333
147
0.0
147
0.0
147
0.0
147
0.0
147
1.0
147
0.0
147
0.0
147
0.0
147
0.0
147
1.0
  0
MLEADERSTYLE
  5
67
102
{ACAD_XDICTIONARY
360
101
102
}
102
{ACAD_REACTORS
330
66
102
}
330
66
100
AcDbMLeaderStyle
179
     2
170
     2
171
     1
172
     0
 90
        2
 40
0.0
 41
0.0
173
     1
 91
-1056964608
340
5B
 92
       -2
290
     1
 42
0.09
291
     1
 43
0.36
  3
Standard
 44
0.18
300

342
55
174
     1
178
     6
175
     1
176
     0
 93
-1056964608
 45
0.18
292
     0
297
     0
 46
0.18
 94
-1056964608
 47
1.0
 49
1.0
140
1.0
293
     1
141
0.0
294
     1
177
     0
142
1.0
295
     0
296
     0
143
0.125
271
     0
272
     9
273
     9
  0
MLINESTYLE
  5
60
102
{ACAD_REACTORS
330
5F
102
}
330
5F
100
AcDbMlineStyle
  2
STANDARD
 70
     0
  3

 62
   256
 51
90.0
 52
90.0
 71
     2
 49
0.5
 62
   256
  6
BYLAYER
 49
-0.5
 62
   256
  6
BYLAYER
  0
ACDBPLACEHOLDER
  5
F
102
{ACAD_REACTORS
330
E
102
}
330
E
  0
SCALE
  5
43
102
{ACAD_REACTORS
330
42
102
}
330
42
100
AcDbScale
 70
     0
300
1:1
140
1.0
141
1.0
290
     1
  0
SCALE
  5
44
102
{ACAD_REACTORS
330
42
102
}
330
42
100
AcDbScale
 70
     0
300
1/128" = 1'-0"
140
0.0078125
141
12.0
290
     0
  0
SCALE
  5
45
102
{ACAD_REACTORS
330
42
102
}
330
42
100
AcDbScale
 70
     0
300
1/64" = 1'-0"
140
0.015625
141
12.0
290
     0
  0
SCALE
  5
46
102
{ACAD_REACTORS
330
42
102
}
330
42
100
AcDbScale
 70
     0
300
1/32" = 1'-0"
140
0.03125
141
12.0
290
     0
  0
SCALE
  5
47
102
{ACAD_REACTORS
330
42
102
}
330
42
100
AcDbScale
 70
     0
300
1/16" = 1'-0"
140
0.0625
141
12.0
290
     0
  0
SCALE
  5
48
102
{ACAD_REACTORS
330
42
102
}
330
42
100
AcDbScale
 70
     0
300
3/32" = 1'-0"
140
0.09375
141
12.0
290
     0
  0
SCALE
  5
49
102
{ACAD_REACTORS
330
42
102
}
330
42
100
AcDbScale
 70
     0
300
1/8" = 1'-0"
140
0.125
141
12.0
290
     0
  0
SCALE
  5
4A
102
{ACAD_REACTORS
330
42
102
}
330
42
100
AcDbScale
 70
     0
300
3/16" = 1'-0"
140
0.1875
141
12.0
290
     0
  0
SCALE
  5
4B
102
{ACAD_REACTORS
330
42
102
}
330
42
100
AcDbScale
 70
     0
300
1/4" = 1'-0"
140
0.25
141
12.0
290
     0
  0
SCALE
  5
4C
102
{ACAD_REACTORS
330
42
102
}
330
42
100
AcDbScale
 70
     0
300
3/8" = 1'-0"
140
0.375
141
12.0
290
     0
  0
SCALE
  5
4D
102
{ACAD_REACTORS
330
42
102
}
330
42
100
AcDbScale
 70
     0
300
1/2" = 1'-0"
140
0.5
141
12.0
290
     0
  0
SCALE
  5
4E
102
{ACAD_REACTORS
330
42
102
}
330
42
100
AcDbScale
 70
     0
300
3/4" = 1'-0"
140
0.75
141
12.0
290
     0
  0
SCALE
  5
4F
102
{ACAD_REACTORS
330
42
102
}
330
42
100
AcDbScale
 70
     0
300
1" = 1'-0"
140
1.0
141
12.0
290
     0
  0
SCALE
  5
50
102
{ACAD_REACTORS
330
42
102
}
330
42
100
AcDbScale
 70
     0
300
1-1/2" = 1'-0"
140
1.5
141
12.0
290
     0
  0
SCALE
  5
51
102
{ACAD_REACTORS
330
42
102
}
330
42
100
AcDbScale
 70
     0
300
3" = 1'-0"
140
3.0
141
12.0
290
     0
  0
SCALE
  5
52
102
{ACAD_REACTORS
330
42
102
}
330
42
100
AcDbScale
 70
     0
300
6" = 1'-0"
140
6.0
141
12.0
290
     0
  0
SCALE
  5
53
102
{ACAD_REACTORS
330
42
102
}
330
42
100
AcDbScale
 70
     0
300
1'-0" = 1'-0"
140
12.0
141
12.0
290
     0
  0
ACDBSECTIONVIEWSTYLE
  5
69
102
{ACAD_XDICTIONARY
360
103
102
}
102
{ACAD_REACTORS
330
68
102
}
330
68
100
AcDbModelDocViewStyle
 70
     0
  3
Imperial24
290
     0
100
AcDbSectionViewStyle
 70
     0
 71
     0
 90
       78
 71
     1
340
55
 62
   256
 40
0.24
340
0
340
0
 62
   256
 40
0.24
300
I, O, Q, S, X, Z
 40
0.48
 90
        3
 40
0.18
 90
        1
 71
     2
340
5D
 90
       25
 62
   256
340
5D
 90
       50
 62
   256
 40
0.24
 40
0.0
 40
0.24
 71
     3
340
55
 62
   256
 40
0.24
 90
        1
 40
0.75
 90
        1
300
%<\AcVar ViewType \f "%tc1">% %<\AcVar ViewSectionStartId>%-%<\AcVar ViewSectionEndId>%\PSCALE %<\AcVar ViewScale \f "%sn">%
 71
     4
 62
   256
 62
   257
300
ANSI31
 40
1.0
 90
        0
290
     0
290
     0
 90
        6
 40
0.0
 40
1.570796326794896
 40
0.2617993877991494
 40
1.308996938995747
 40
-0.2617993877991494
 40
1.832595714594046
  0
TABLESTYLE
  5
65
102
{ACAD_XDICTIONARY
360
CE
102
}
102
{ACAD_REACTORS
330
64
102
}
330
64
100
AcDbTableStyle
280
     0
  3
Standard
 70
     0
 71
     0
 40
0.06
 41
0.06
280
     0
281
     0
  7
Standard
140
0.18
170
     2
 62
     0
 63
     7
283
     0
 90
      512
 91
        0
  1

274
    -2
284
     1
 64
     0
275
    -2
285
     1
 65
     0
276
    -2
286
     1
 66
     0
277
    -2
287
     1
 67
     0
278
    -2
288
     1
 68
     0
279
    -2
289
     1
 69
     0
  7
Standard
140
0.25
170
     5
 62
     0
 63
     7
283
     0
 90
      512
 91
        0
  1

274
    -2
284
     1
 64
     0
275
    -2
285
     1
 65
     0
276
    -2
286
     1
 66
     0
277
    -2
287
     1
 67
     0
278
    -2
288
     1
 68
     0
279
    -2
289
     1
 69
     0
  7
Standard
140
0.18
170
     5
 62
     0
 63
     7
283
     0
 90
      512
 91
        0
  1

274
    -2
284
     1
 64
     0
275
    -2
285
     1
 65
     0
276
    -2
286
     1
 66
     0
277
    -2
287
     1
 67
     0
278
    -2
288
     1
 68
     0
279
    -2
289
     1
 69
     0
  0
VISUALSTYLE
  5
2F
102
{ACAD_XDICTIONARY
360
DB
102
}
102
{ACAD_REACTORS
330
29
102
}
330
29
100
AcDbVisualStyle
  2
2dWireframe
 70
     4
177
     2
291
     0
 71
     0
176
     1
 72
     2
176
     1
 73
     0
176
     1
 90
        0
176
     1
 40
0.6
176
     1
 41
30.0
176
     1
 63
     7
421
 16777215
176
     1
 74
     1
176
     1
 91
        4
176
     1
 64
     7
176
     1
 65
   257
176
     1
 75
     1
176
     1
175
     1
176
     1
 42
1.0
176
     1
 92
        0
176
     1
 66
   257
176
     1
 43
1.0
176
     1
 76
     1
176
     1
 77
     6
176
     1
 78
     2
176
     1
 67
     7
176
     1
 79
     5
176
     1
170
     0
176
     1
171
     0
176
     1
290
     0
176
     1
 93
        1
176
     1
 44
0.0
176
     1
173
     0
176
     1
1001
ACAD
1000
AcDbSavedByObjectVersion
1070
     0
  0
VISUALSTYLE
  5
2E
102
{ACAD_XDICTIONARY
360
D9
102
}
102
{ACAD_REACTORS
330
29
102
}
330
29
100
AcDbVisualStyle
  2
Basic
 70
     7
177
     2
291
     1
 71
     1
176
     1
 72
     0
176
     1
 73
     1
176
     1
 90
        0
176
     1
 40
0.6
176
     1
 41
30.0
176
     1
 63
     7
421
 16777215
176
     1
 74
     0
176
     1
 91
        4
176
     1
 64
     7
176
     1
 65
   257
176
     1
 75
     1
176
     1
175
     1
176
     1
 42
1.0
176
     1
 92
        8
176
     1
 66
     7
176
     1
 43
1.0
176
     1
 76
     1
176
     1
 77
     6
176
     1
 78
     2
176
     1
 67
     7
176
     1
 79
     5
176
     1
170
     0
176
     1
171
     0
176
     1
290
     0
176
     1
 93
        1
176
     1
 44
0.0
176
     1
173
     0
176
     1
1001
ACAD
1000
AcDbSavedByObjectVersion
1070
     0
  0
VISUALSTYLE
  5
35
102
{ACAD_XDICTIONARY
360
E7
102
}
102
{ACAD_REACTORS
330
29
102
}
330
29
100
AcDbVisualStyle
  2
Brighten
 70
    12
177
     2
291
     1
 71
     2
176
     1
 72
     2
176
     1
 73
     0
176
     1
 90
        0
176
     1
 40
0.6
176
     1
 41
30.0
176
     1
 63
     7
421
 16777215
176
     1
 74
     1
176
     1
 91
        4
176
     1
 64
     7
176
     1
 65
   257
176
     1
 75
     1
176
     1
175
     1
176
     1
 42
1.0
176
     1
 92
        8
176
     1
 66
     7
176
     1
 43
1.0
176
     1
 76
     1
176
     1
 77
     6
176
     1
 78
     2
176
     1
 67
     7
176
     1
 79
     5
176
     1
170
     0
176
     1
171
     0
176
     1
290
     0
176
     1
 93
        1
176
     1
 44
50.0
176
     1
173
     0
176
     1
1001
ACAD
1000
AcDbSavedByObjectVersion
1070
     0
  0
VISUALSTYLE
  5
39
102
{ACAD_XDICTIONARY
360
EF
102
}
102
{ACAD_REACTORS
330
29
102
}
330
29
100
AcDbVisualStyle
  2
ColorChange
 70
    16
177
     2
291
     1
 71
     2
176
     1
 72
     2
176
     1
 73
     3
176
     1
 90
        0
176
     1
 40
0.6
176
     1
 41
30.0
176
     1
 63
     8
421
  8421504
176
     1
 74
     1
176
     1
 91
        4
176
     1
 64
     7
176
     1
 65
   257
176
     1
 75
     1
176
     1
175
     1
176
     1
 42
1.0
176
     1
 92
        8
176
     1
 66
     8
424
  8421504
176
     1
 43
1.0
176
     1
 76
     1
176
     1
 77
     6
176
     1
 78
     2
176
     1
 67
     7
176
     1
 79
     5
176
     1
170
     0
176
     1
171
     0
176
     1
290
     0
176
     1
 93
        1
176
     1
 44
0.0
176
     1
173
     0
176
     1
1001
ACAD
1000
AcDbSavedByObjectVersion
1070
     0
  0
VISUALSTYLE
  5
32
102
{ACAD_XDICTIONARY
360
E1
102
}
102
{ACAD_REACTORS
330
29
102
}
330
29
100
AcDbVisualStyle
  2
Conceptual
 70
     9
177
     2
291
     0
 71
     3
176
     1
 72
     2
176
     1
 73
     0
176
     1
 90
        0
176
     1
 40
0.6
176
     1
 41
30.0
176
     1
 63
     7
421
 16777215
176
     1
 74
     2
176
     1
 91
        2
176
     1
 64
     7
176
     1
 65
   257
176
     1
 75
     1
176
     1
175
     1
176
     1
 42
179.0
176
     1
 92
        8
176
     1
 66
     7
176
     1
 43
1.0
176
     1
 76
     1
176
     1
 77
     6
176
     1
 78
     2
176
     1
 67
     7
176
     1
 79
     3
176
     1
170
     0
176
     1
171
     0
176
     1
290
     0
176
     1
 93
        1
176
     1
 44
0.0
176
     1
173
     0
176
     1
1001
ACAD
1000
AcDbSavedByObjectVersion
1070
     0
  0
VISUALSTYLE
  5
34
102
{ACAD_XDICTIONARY
360
E5
102
}
102
{ACAD_REACTORS
330
29
102
}
330
29
100
AcDbVisualStyle
  2
Dim
 70
    11
177
     2
291
     1
 71
     2
176
     1
 72
     2
176
     1
 73
     0
176
     1
 90
        0
176
     1
 40
0.6
176
     1
 41
30.0
176
     1
 63
     7
421
 16777215
176
     1
 74
     1
176
     1
 91
        4
176
     1
 64
     7
176
     1
 65
   257
176
     1
 75
     1
176
     1
175
     1
176
     1
 42
1.0
176
     1
 92
        8
176
     1
 66
     7
176
     1
 43
1.0
176
     1
 76
     1
176
     1
 77
     6
176
     1
 78
     2
176
     1
 67
     7
176
     1
 79
     5
176
     1
170
     0
176
     1
171
     0
176
     1
290
     0
176
     1
 93
        1
176
     1
 44
-50.0
176
     1
173
     0
176
     1
1001
ACAD
1000
AcDbSavedByObjectVersion
1070
     0
  0
VISUALSTYLE
  5
41
102
{ACAD_XDICTIONARY
360
FF
102
}
102
{ACAD_REACTORS
330
29
102
}
330
29
100
AcDbVisualStyle
  2
EdgeColorOff
 70
    22
177
     2
291
     1
 71
     2
176
     0
 72
     2
176
     0
 73
     0
176
     0
 90
        0
176
     0
 40
0.6
176
     0
 41
30.0
176
     0
 63
     7
421
 16777215
176
     0
 74
     1
176
     0
 91
        4
176
     0
 64
     7
176
     0
 65
   257
176
     0
 75
     1
176
     0
175
     1
176
     0
 42
1.0
176
     0
 92
        8
176
     2
 66
     7
176
     0
 43
1.0
176
     0
 76
     1
176
     0
 77
     6
176
     0
 78
     2
176
     0
 67
     7
176
     0
 79
     5
176
     0
170
     0
176
     0
171
     0
176
     0
290
     0
176
     0
 93
        1
176
     0
 44
0.0
176
     0
173
     0
176
     0
1001
ACAD
1000
AcDbSavedByObjectVersion
1070
     0
  0
VISUALSTYLE
  5
38
102
{ACAD_XDICTIONARY
360
ED
102
}
102
{ACAD_REACTORS
330
29
102
}
330
29
100
AcDbVisualStyle
  2
Facepattern
 70
    15
177
     2
291
     1
 71
     2
176
     1
 72
     2
176
     1
 73
     0
176
     1
 90
        0
176
     1
 40
0.6
176
     1
 41
30.0
176
     1
 63
     7
421
 16777215
176
     1
 74
     1
176
     1
 91
        4
176
     1
 64
     7
176
     1
 65
   257
176
     1
 75
     1
176
     1
175
     1
176
     1
 42
1.0
176
     1
 92
        8
176
     1
 66
     7
176
     1
 43
1.0
176
     1
 76
     1
176
     1
 77
     6
176
     1
 78
     2
176
     1
 67
     7
176
     1
 79
     5
176
     1
170
     0
176
     1
171
     0
176
     1
290
     0
176
     1
 93
        1
176
     1
 44
0.0
176
     1
173
     0
176
     1
1001
ACAD
1000
AcDbSavedByObjectVersion
1070
     0
  0
VISUALSTYLE
  5
2A
102
{ACAD_XDICTIONARY
360
D1
102
}
102
{ACAD_REACTORS
330
29
102
}
330
29
100
AcDbVisualStyle
  2
Flat
 70
     0
177
     2
291
     1
 71
     2
176
     1
 72
     1
176
     1
 73
     1
176
     1
 90
        2
176
     1
 40
0.6
176
     1
 41
30.0
176
     1
 63
     7
421
 16777215
176
     1
 74
     0
176
     1
 91
        0
176
     1
 64
     7
176
     1
 65
   257
176
     1
 75
     1
176
     1
175
     1
176
     1
 42
1.0
176
     1
 92
        8
176
     1
 66
     7
176
     1
 43
1.0
176
     1
 76
     1
176
     1
 77
     6
176
     1
 78
     2
176
     1
 67
     7
176
     1
 79
     5
176
     1
170
     0
176
     1
171
     0
176
     1
290
     0
176
     1
 93
       13
176
     1
 44
0.0
176
     1
173
     0
176
     1
1001
ACAD
1000
AcDbSavedByObjectVersion
1070
     0
  0
VISUALSTYLE
  5
2B
102
{ACAD_XDICTIONARY
360
D3
102
}
102
{ACAD_REACTORS
330
29
102
}
330
29
100
AcDbVisualStyle
  2
FlatWithEdges
 70
     1
177
     2
291
     1
 71
     2
176
     1
 72
     1
176
     1
 73
     1
176
     1
 90
        2
176
     1
 40
0.6
176
     1
 41
30.0
176
     1
 63
     7
421
 16777215
176
     1
 74
     1
176
     1
 91
        0
176
     1
 64
     7
176
     1
 65
   257
176
     1
 75
     1
176
     1
175
     1
176
     1
 42
1.0
176
     1
 92
        0
176
     1
 66
   257
176
     1
 43
1.0
176
     1
 76
     1
176
     1
 77
     6
176
     1
 78
     2
176
     1
 67
     7
176
     1
 79
     5
176
     1
170
     0
176
     1
171
     0
176
     1
290
     0
176
     1
 93
       13
176
     1
 44
0.0
176
     1
173
     0
176
     1
1001
ACAD
1000
AcDbSavedByObjectVersion
1070
     0
  0
VISUALSTYLE
  5
2C
102
{ACAD_XDICTIONARY
360
D5
102
}
102
{ACAD_REACTORS
330
29
102
}
330
29
100
AcDbVisualStyle
  2
Gouraud
 70
     2
177
     2
291
     1
 71
     2
176
     1
 72
     2
176
     1
 73
     1
176
     1
 90
        2
176
     1
 40
0.6
176
     1
 41
30.0
176
     1
 63
     7
421
 16777215
176
     1
 74
     0
176
     1
 91
        0
176
     1
 64
     7
176
     1
 65
   257
176
     1
 75
     1
176
     1
175
     1
176
     1
 42
1.0
176
     1
 92
        0
176
     1
 66
     7
176
     1
 43
1.0
176
     1
 76
     1
176
     1
 77
     6
176
     1
 78
     2
176
     1
 67
     7
176
     1
 79
     5
176
     1
170
     0
176
     1
171
     0
176
     1
290
     0
176
     1
 93
       13
176
     1
 44
0.0
176
     1
173
     0
176
     1
1001
ACAD
1000
AcDbSavedByObjectVersion
1070
     0
  0
VISUALSTYLE
  5
2D
102
{ACAD_XDICTIONARY
360
D7
102
}
102
{ACAD_REACTORS
330
29
102
}
330
29
100
AcDbVisualStyle
  2
GouraudWithEdges
 70
     3
177
     2
291
     1
 71
     2
176
     1
 72
     2
176
     1
 73
     1
176
     1
 90
        2
176
     1
 40
0.6
176
     1
 41
30.0
176
     1
 63
     7
421
 16777215
176
     1
 74
     1
176
     1
 91
        0
176
     1
 64
     7
176
     1
 65
   257
176
     1
 75
     1
176
     1
175
     1
176
     1
 42
1.0
176
     1
 92
        0
176
     1
 66
   257
176
     1
 43
1.0
176
     1
 76
     1
176
     1
 77
     6
176
     1
 78
     2
176
     1
 67
     7
176
     1
 79
     5
176
     1
170
     0
176
     1
171
     0
176
     1
290
     0
176
     1
 93
       13
176
     1
 44
0.0
176
     1
173
     0
176
     1
1001
ACAD
1000
AcDbSavedByObjectVersion
1070
     0
  0
VISUALSTYLE
  5
31
102
{ACAD_XDICTIONARY
360
DF
102
}
102
{ACAD_REACTORS
330
29
102
}
330
29
100
AcDbVisualStyle
  2
Hidden
 70
     6
177
     2
291
     0
 71
     1
176
     1
 72
     2
176
     1
 73
     2
176
     1
 90
        0
176
     1
 40
0.6
176
     1
 41
30.0
176
     1
 63
     7
421
 16777215
176
     1
 74
     2
176
     1
 91
        2
176
     1
 64
     7
176
     1
 65
   257
176
     1
 75
     2
176
     1
175
     1
176
     1
 42
40.0
176
     1
 92
        0
176
     1
 66
   257
176
     1
 43
1.0
176
     1
 76
     1
176
     1
 77
     6
176
     1
 78
     2
176
     1
 67
     7
176
     1
 79
     3
176
     1
170
     0
176
     1
171
     0
176
     1
290
     0
176
     1
 93
        1
176
     1
 44
0.0
176
     1
173
     0
176
     1
1001
ACAD
1000
AcDbSavedByObjectVersion
1070
     0
  0
VISUALSTYLE
  5
3F
102
{ACAD_XDICTIONARY
360
FB
102
}
102
{ACAD_REACTORS
330
29
102
}
330
29
100
AcDbVisualStyle
  2
JitterOff
 70
    20
177
     2
291
     1
 71
     2
176
     0
 72
     2
176
     0
 73
     0
176
     0
 90
        0
176
     0
 40
0.6
176
     0
 41
30.0
176
     0
 63
     7
421
 16777215
176
     0
 74
     1
176
     0
 91
        4
176
     0
 64
     7
176
     0
 65
   257
176
     0
 75
     1
176
     0
175
     1
176
     0
 42
1.0
176
     0
 92
       10
176
     2
 66
     7
176
     0
 43
1.0
176
     0
 76
     1
176
     0
 77
     6
176
     0
 78
     2
176
     0
 67
     7
176
     0
 79
     5
176
     0
170
     0
176
     0
171
     0
176
     0
290
     0
176
     0
 93
        1
176
     0
 44
0.0
176
     0
173
     0
176
     0
1001
ACAD
1000
AcDbSavedByObjectVersion
1070
     0
  0
VISUALSTYLE
  5
37
102
{ACAD_XDICTIONARY
360
EB
102
}
102
{ACAD_REACTORS
330
29
102
}
330
29
100
AcDbVisualStyle
  2
Linepattern
 70
    14
177
     2
291
     1
 71
     2
176
     1
 72
     2
176
     1
 73
     0
176
     1
 90
        0
176
     1
 40
0.6
176
     1
 41
30.0
176
     1
 63
     7
421
 16777215
176
     1
 74
     1
176
     1
 91
        4
176
     1
 64
     7
176
     1
 65
   257
176
     1
 75
     7
176
     1
175
     7
176
     1
 42
1.0
176
     1
 92
        8
176
     1
 66
     7
176
     1
 43
1.0
176
     1
 76
     1
176
     1
 77
     6
176
     1
 78
     2
176
     1
 67
     7
176
     1
 79
     5
176
     1
170
     0
176
     1
171
     0
176
     1
290
     0
176
     1
 93
        1
176
     1
 44
0.0
176
     1
173
     0
176
     1
1001
ACAD
1000
AcDbSavedByObjectVersion
1070
     0
  0
VISUALSTYLE
  5
40
102
{ACAD_XDICTIONARY
360
FD
102
}
102
{ACAD_REACTORS
330
29
102
}
330
29
100
AcDbVisualStyle
  2
OverhangOff
 70
    21
177
     2
291
     1
 71
     2
176
     0
 72
     2
176
     0
 73
     0
176
     0
 90
        0
176
     0
 40
0.6
176
     0
 41
30.0
176
     0
 63
     7
421
 16777215
176
     0
 74
     1
176
     0
 91
        4
176
     0
 64
     7
176
     0
 65
   257
176
     0
 75
     1
176
     0
175
     1
176
     0
 42
1.0
176
     0
 92
        9
176
     2
 66
     7
176
     0
 43
1.0
176
     0
 76
     1
176
     0
 77
     6
176
     0
 78
     2
176
     0
 67
     7
176
     0
 79
     5
176
     0
170
     0
176
     0
171
     0
176
     0
290
     0
176
     0
 93
        1
176
     0
 44
0.0
176
     0
173
     0
176
     0
1001
ACAD
1000
AcDbSavedByObjectVersion
1070
     0
  0
VISUALSTYLE
  5
33
102
{ACAD_XDICTIONARY
360
E3
102
}
102
{ACAD_REACTORS
330
29
102
}
330
29
100
AcDbVisualStyle
  2
Realistic
 70
     8
177
     2
291
     0
 71
     2
176
     1
 72
     3
176
     1
 73
     0
176
     1
 90
        2
176
     1
 40
0.6
176
     1
 41
30.0
176
     1
 63
     7
421
 16777215
176
     1
 74
     0
176
     1
 91
        0
176
     1
 64
     7
176
     1
 65
   257
176
     1
 75
     1
176
     1
175
     1
176
     1
 42
1.0
176
     1
 92
        8
176
     1
 66
   257
176
     1
 43
1.0
176
     1
 76
     1
176
     1
 77
     6
176
     1
 78
     2
176
     1
 67
     7
176
     1
 79
     3
176
     1
170
     0
176
     1
171
     0
176
     1
290
     0
176
     1
 93
       13
176
     1
 44
0.0
176
     1
173
     0
176
     1
1001
ACAD
1000
AcDbSavedByObjectVersion
1070
     0
  0
VISUALSTYLE
  5
3E
102
{ACAD_XDICTIONARY
360
F9
102
}
102
{ACAD_REACTORS
330
29
102
}
330
29
100
AcDbVisualStyle
  2
Shaded
 70
    27
177
     2
291
     0
 71
     2
176
     1
 72
     2
176
     1
 73
     1
176
     1
 90
        2
176
     1
 40
0.6
176
     1
 41
30.0
176
     1
 63
     7
421
 16777215
176
     1
 74
     0
176
     1
 91
        4
176
     1
 64
     7
176
     1
 65
   257
176
     1
 75
     1
176
     1
175
     1
176
     1
 42
1.0
176
     1
 92
        8
176
     1
 66
   257
176
     1
 43
1.0
176
     1
 76
     1
176
     1
 77
     6
176
     1
 78
     2
176
     1
 67
     8
425
  7895160
176
     1
 79
     3
176
     1
170
     0
176
     1
171
     0
176
     1
290
     0
176
     1
 93
        5
176
     1
 44
0.0
176
     1
173
     0
176
     1
1001
ACAD
1000
AcDbSavedByObjectVersion
1070
     0
  0
VISUALSTYLE
  5
3D
102
{ACAD_XDICTIONARY
360
F7
102
}
102
{ACAD_REACTORS
330
29
102
}
330
29
100
AcDbVisualStyle
  2
Shaded with edges
 70
    26
177
     2
291
     0
 71
     2
176
     1
 72
     2
176
     1
 73
     1
176
     1
 90
        2
176
     1
 40
0.6
176
     1
 41
30.0
176
     1
 63
     7
421
 16777215
176
     1
 74
     1
176
     1
 91
        2
176
     1
 64
     7
176
     1
 65
   257
176
     1
 75
     2
176
     1
175
     1
176
     1
 42
1.0
176
     1
 92
        8
176
     1
 66
   257
176
     1
 43
1.0
176
     1
 76
     1
176
     1
 77
     6
176
     1
 78
     2
176
     1
 67
     7
176
     1
 79
     3
176
     1
170
     0
176
     1
171
     0
176
     1
290
     0
176
     1
 93
        5
176
     1
 44
0.0
176
     1
173
     0
176
     1
1001
ACAD
1000
AcDbSavedByObjectVersion
1070
     0
  0
VISUALSTYLE
  5
3A
102
{ACAD_XDICTIONARY
360
F1
102
}
102
{ACAD_REACTORS
330
29
102
}
330
29
100
AcDbVisualStyle
  2
Shades of Gray
 70
    23
177
     2
291
     0
 71
     2
176
     1
 72
     2
176
     1
 73
     3
176
     1
 90
        0
176
     1
 40
0.6
176
     1
 41
30.0
176
     1
 63
     7
421
 16777215
176
     1
 74
     2
176
     1
 91
        2
176
     1
 64
     7
176
     1
 65
     7
176
     1
 75
     1
176
     1
175
     1
176
     1
 42
40.0
176
     1
 92
        8
176
     1
 66
     7
176
     1
 43
1.0
176
     1
 76
     1
176
     1
 77
     6
176
     1
 78
     2
176
     1
 67
     7
176
     1
 79
     3
176
     1
170
     0
176
     1
171
     0
176
     1
290
     0
176
     1
 93
        1
176
     1
 44
0.0
176
     1
173
     0
176
     1
1001
ACAD
1000
AcDbSavedByObjectVersion
1070
     0
  0
VISUALSTYLE
  5
3B
102
{ACAD_XDICTIONARY
360
F3
102
}
102
{ACAD_REACTORS
330
29
102
}
330
29
100
AcDbVisualStyle
  2
Sketchy
 70
    24
177
     2
291
     0
 71
     1
176
     1
 72
     2
176
     1
 73
     2
176
     1
 90
        0
176
     1
 40
0.6
176
     1
 41
30.0
176
     1
 63
     7
421
 16777215
176
     1
 74
     2
176
     1
 91
        2
176
     1
 64
     7
176
     1
 65
     7
176
     1
 75
     1
176
     1
175
     1
176
     1
 42
40.0
176
     1
 92
       11
176
     1
 66
     7
176
     1
 43
1.0
176
     1
 76
     1
176
     1
 77
     6
176
     1
 78
     2
176
     1
 67
     7
176
     1
 79
     6
176
     1
170
     0
176
     1
171
     0
176
     1
290
     0
176
     1
 93
        1
176
     1
 44
0.0
176
     1
173
     0
176
     1
1001
ACAD
1000
AcDbSavedByObjectVersion
1070
     0
  0
VISUALSTYLE
  5
36
102
{ACAD_XDICTIONARY
360
E9
102
}
102
{ACAD_REACTORS
330
29
102
}
330
29
100
AcDbVisualStyle
  2
Thicken
 70
    13
177
     2
291
     1
 71
     2
176
     1
 72
     2
176
     1
 73
     0
176
     1
 90
        0
176
     1
 40
0.6
176
     1
 41
30.0
176
     1
 63
     7
421
 16777215
176
     1
 74
     1
176
     1
 91
        4
176
     1
 64
     7
176
     1
 65
   257
176
     1
 75
     1
176
     1
175
     1
176
     1
 42
1.0
176
     1
 92
       12
176
     1
 66
     7
176
     1
 43
1.0
176
     1
 76
     1
176
     1
 77
     6
176
     1
 78
     2
176
     1
 67
     7
176
     1
 79
     5
176
     1
170
     0
176
     1
171
     0
176
     1
290
     0
176
     1
 93
        1
176
     1
 44
0.0
176
     1
173
     0
176
     1
1001
ACAD
1000
AcDbSavedByObjectVersion
1070
     0
  0
VISUALSTYLE
  5
30
102
{ACAD_XDICTIONARY
360
DD
102
}
102
{ACAD_REACTORS
330
29
102
}
330
29
100
AcDbVisualStyle
  2
Wireframe
 70
     5
177
     2
291
     0
 71
     0
176
     1
 72
     2
176
     1
 73
     0
176
     1
 90
        0
176
     1
 40
0.6
176
     1
 41
30.0
176
     1
 63
     7
421
 16777215
176
     1
 74
     1
176
     1
 91
        4
176
     1
 64
     7
176
     1
 65
   257
176
     1
 75
     1
176
     1
175
     1
176
     1
 42
1.0
176
     1
 92
        0
176
     1
 66
   257
176
     1
 43
1.0
176
     1
 76
     1
176
     1
 77
     6
176
     1
 78
     2
176
     1
 67
     7
176
     1
 79
     3
176
     1
170
     0
176
     1
171
     0
176
     1
290
     0
176
     1
 93
        1
176
     1
 44
0.0
176
     1
173
     0
176
     1
1001
ACAD
1000
AcDbSavedByObjectVersion
1070
     0
  0
VISUALSTYLE
  5
3C
102
{ACAD_XDICTIONARY
360
F5
102
}
102
{ACAD_REACTORS
330
29
102
}
330
29
100
AcDbVisualStyle
  2
X-Ray
 70
    25
177
     2
291
     0
 71
     2
176
     1
 72
     2
176
     1
 73
     1
176
     1
 90
        1
176
     1
 40
0.5
176
     1
 41
30.0
176
     1
 63
     7
421
 16777215
176
     1
 74
     1
176
     1
 91
        0
176
     1
 64
     7
176
     1
 65
   257
176
     1
 75
     1
176
     1
175
     1
176
     1
 42
1.0
176
     1
 92
        8
176
     1
 66
     7
176
     1
 43
1.0
176
     1
 76
     1
176
     1
 77
     6
176
     1
 78
     2
176
     1
 67
     7
176
     1
 79
     3
176
     1
170
     0
176
     1
171
     0
176
     1
290
     0
176
     1
 93
       13
176
     1
 44
0.0
176
     1
173
     0
176
     1
1001
ACAD
1000
AcDbSavedByObjectVersion
1070
     0
  0
DICTIONARYVAR
  5
CD
102
{ACAD_REACTORS
330
C8
102
}
330
C8
100
DictionaryVariables
280
     0
  1
1:1
  0
DICTIONARYVAR
  5
CA
102
{ACAD_REACTORS
330
C8
102
}
330
C8
100
DictionaryVariables
280
     0
  1
STANDARD
  0
DICTIONARYVAR
  5
C9
102
{ACAD_REACTORS
330
C8
102
}
330
C8
100
DictionaryVariables
280
     0
  1
STANDARD
  0
DICTIONARYVAR
  5
CB
102
{ACAD_REACTORS
330
C8
102
}
330
C8
100
DictionaryVariables
280
     0
  1
Imperial24
  0
DICTIONARYVAR
  5
CC
102
{ACAD_REACTORS
330
C8
102
}
330
C8
100
DictionaryVariables
280
     0
  1
Imperial24
  0
DICTIONARY
  5
105
330
6B
100
AcDbDictionary
280
     1
281
     1
  3
ACAD_XREC_ROUNDTRIP
360
106
  0
DICTIONARY
  5
1A
330
19
100
AcDbDictionary
280
     1
281
     1
  3
BUMPTILE
360
1C
  3
DIFFUSETILE
360
1B
  3
OPACITYTILE
360
1F
  3
REFLECTIONTILE
360
1E
  3
REFRACTIONTILE
360
20
  3
SPECULARTILE
360
1D
  0
DICTIONARY
  5
12
330
11
100
AcDbDictionary
280
     1
281
     1
  3
BUMPTILE
360
14
  3
DIFFUSETILE
360
13
  3
OPACITYTILE
360
17
  3
REFLECTIONTILE
360
16
  3
REFRACTIONTILE
360
18
  3
SPECULARTILE
360
15
  0
DICTIONARY
  5
22
330
21
100
AcDbDictionary
280
     1
281
     1
  3
BUMPTILE
360
24
  3
DIFFUSETILE
360
23
  3
OPACITYTILE
360
27
  3
REFLECTIONTILE
360
26
  3
REFRACTIONTILE
360
28
  3
SPECULARTILE
360
25
  0
DICTIONARY
  5
101
330
67
100
AcDbDictionary
280
     1
281
     1
  3
ACAD_XREC_ROUNDTRIP
360
102
  0
DICTIONARY
  5
103
330
69
100
AcDbDictionary
280
     1
281
     1
  3
ACAD_XREC_ROUNDTRIP
360
104
  0
DICTIONARY
  5
CE
330
65
100
AcDbDictionary
280
     1
281
     1
  3
ACAD_ROUNDTRIP_2008_TABLESTYLE_CELLSTYLEMAP
360
CF
  0
DICTIONARY
  5
DB
330
2F
100
AcDbDictionary
280
     1
281
     1
  3
ACAD_XREC_ROUNDTRIP
360
DC
  0
DICTIONARY
  5
D9
330
2E
100
AcDbDictionary
280
     1
281
     1
  3
ACAD_XREC_ROUNDTRIP
360
DA
  0
DICTIONARY
  5
E7
330
35
100
AcDbDictionary
280
     1
281
     1
  3
ACAD_XREC_ROUNDTRIP
360
E8
  0
DICTIONARY
  5
EF
330
39
100
AcDbDictionary
280
     1
281
     1
  3
ACAD_XREC_ROUNDTRIP
360
F0
  0
DICTIONARY
  5
E1
330
32
100
AcDbDictionary
280
     1
281
     1
  3
ACAD_XREC_ROUNDTRIP
360
E2
  0
DICTIONARY
  5
E5
330
34
100
AcDbDictionary
280
     1
281
     1
  3
ACAD_XREC_ROUNDTRIP
360
E6
  0
DICTIONARY
  5
FF
330
41
100
AcDbDictionary
280
     1
281
     1
  3
ACAD_XREC_ROUNDTRIP
360
100
  0
DICTIONARY
  5
ED
330
38
100
AcDbDictionary
280
     1
281
     1
  3
ACAD_XREC_ROUNDTRIP
360
EE
  0
DICTIONARY
  5
D1
330
2A
100
AcDbDictionary
280
     1
281
     1
  3
ACAD_XREC_ROUNDTRIP
360
D2
  0
DICTIONARY
  5
D3
330
2B
100
AcDbDictionary
280
     1
281
     1
  3
ACAD_XREC_ROUNDTRIP
360
D4
  0
DICTIONARY
  5
D5
330
2C
100
AcDbDictionary
280
     1
281
     1
  3
ACAD_XREC_ROUNDTRIP
360
D6
  0
DICTIONARY
  5
D7
330
2D
100
AcDbDictionary
280
     1
281
     1
  3
ACAD_XREC_ROUNDTRIP
360
D8
  0
DICTIONARY
  5
DF
330
31
100
AcDbDictionary
280
     1
281
     1
  3
ACAD_XREC_ROUNDTRIP
360
E0
  0
DICTIONARY
  5
FB
330
3F
100
AcDbDictionary
280
     1
281
     1
  3
ACAD_XREC_ROUNDTRIP
360
FC
  0
DICTIONARY
  5
EB
330
37
100
AcDbDictionary
280
     1
281
     1
  3
ACAD_XREC_ROUNDTRIP
360
EC
  0
DICTIONARY
  5
FD
330
40
100
AcDbDictionary
280
     1
281
     1
  3
ACAD_XREC_ROUNDTRIP
360
FE
  0
DICTIONARY
  5
E3
330
33
100
AcDbDictionary
280
     1
281
     1
  3
ACAD_XREC_ROUNDTRIP
360
E4
  0
DICTIONARY
  5
F9
330
3E
100
AcDbDictionary
280
     1
281
     1
  3
ACAD_XREC_ROUNDTRIP
360
FA
  0
DICTIONARY
  5
F7
330
3D
100
AcDbDictionary
280
     1
281
     1
  3
ACAD_XREC_ROUNDTRIP
360
F8
  0
DICTIONARY
  5
F1
330
3A
100
AcDbDictionary
280
     1
281
     1
  3
ACAD_XREC_ROUNDTRIP
360
F2
  0
DICTIONARY
  5
F3
330
3B
100
AcDbDictionary
280
     1
281
     1
  3
ACAD_XREC_ROUNDTRIP
360
F4
  0
DICTIONARY
  5
E9
330
36
100
AcDbDictionary
280
     1
281
     1
  3
ACAD_XREC_ROUNDTRIP
360
EA
  0
DICTIONARY
  5
DD
330
30
100
AcDbDictionary
280
     1
281
     1
  3
ACAD_XREC_ROUNDTRIP
360
DE
  0
DICTIONARY
  5
F5
330
3C
100
AcDbDictionary
280
     1
281
     1
  3
ACAD_XREC_ROUNDTRIP
360
F6
  0
XRECORD
  5
106
102
{ACAD_REACTORS
330
105
102
}
330
105
100
AcDbXrecord
280
     1
102
DISPLAYNAME
  1
Imperial24
102
FLAGS
 90
        0
  0
XRECORD
  5
1C
102
{ACAD_REACTORS
330
1A
102
}
330
1A
100
AcDbXrecord
280
     1
270
     1
271
     1
  0
XRECORD
  5
1B
102
{ACAD_REACTORS
330
1A
102
}
330
1A
100
AcDbXrecord
280
     1
270
     1
271
     1
  0
XRECORD
  5
1F
102
{ACAD_REACTORS
330
1A
102
}
330
1A
100
AcDbXrecord
280
     1
270
     1
271
     1
  0
XRECORD
  5
1E
102
{ACAD_REACTORS
330
1A
102
}
330
1A
100
AcDbXrecord
280
     1
270
     1
271
     1
  0
XRECORD
  5
20
102
{ACAD_REACTORS
330
1A
102
}
330
1A
100
AcDbXrecord
280
     1
270
     1
271
     1
  0
XRECORD
  5
1D
102
{ACAD_REACTORS
330
1A
102
}
330
1A
100
AcDbXrecord
280
     1
270
     1
271
     1
  0
XRECORD
  5
14
102
{ACAD_REACTORS
330
12
102
}
330
12
100
AcDbXrecord
280
     1
270
     1
271
     1
  0
XRECORD
  5
13
102
{ACAD_REACTORS
330
12
102
}
330
12
100
AcDbXrecord
280
     1
270
     1
271
     1
  0
XRECORD
  5
17
102
{ACAD_REACTORS
330
12
102
}
330
12
100
AcDbXrecord
280
     1
270
     1
271
     1
  0
XRECORD
  5
16
102
{ACAD_REACTORS
330
12
102
}
330
12
100
AcDbXrecord
280
     1
270
     1
271
     1
  0
XRECORD
  5
18
102
{ACAD_REACTORS
330
12
102
}
330
12
100
AcDbXrecord
280
     1
270
     1
271
     1
  0
XRECORD
  5
15
102
{ACAD_REACTORS
330
12
102
}
330
12
100
AcDbXrecord
280
     1
270
     1
271
     1
  0
XRECORD
  5
24
102
{ACAD_REACTORS
330
22
102
}
330
22
100
AcDbXrecord
280
     1
270
     1
271
     1
  0
XRECORD
  5
23
102
{ACAD_REACTORS
330
22
102
}
330
22
100
AcDbXrecord
280
     1
270
     1
271
     1
  0
XRECORD
  5
27
102
{ACAD_REACTORS
330
22
102
}
330
22
100
AcDbXrecord
280
     1
270
     1
271
     1
  0
XRECORD
  5
26
102
{ACAD_REACTORS
330
22
102
}
330
22
100
AcDbXrecord
280
     1
270
     1
271
     1
  0
XRECORD
  5
28
102
{ACAD_REACTORS
330
22
102
}
330
22
100
AcDbXrecord
280
     1
270
     1
271
     1
  0
XRECORD
  5
25
102
{ACAD_REACTORS
330
22
102
}
330
22
100
AcDbXrecord
280
     1
270
     1
271
     1
  0
XRECORD
  5
102
102
{ACAD_REACTORS
330
101
102
}
330
101
100
AcDbXrecord
280
     1
102
ACAD_ROUNDTRIP_2012_MLEADER_STYLE
298
     1
  0
XRECORD
  5
104
102
{ACAD_REACTORS
330
103
102
}
330
103
100
AcDbXrecord
280
     1
102
DISPLAYNAME
  1
Imperial24
102
FLAGS
 90
        0
  0
CELLSTYLEMAP
  5
CF
102
{ACAD_REACTORS
330
CE
102
}
330
CE
100
AcDbCellStyleMap
 90
        3
300
CELLSTYLE
  1
TABLEFORMAT_BEGIN
 90
        5
170
     1
 91
        0
 92
    32768
 62
   257
 93
        1
300
CONTENTFORMAT
  1
CONTENTFORMAT_BEGIN
 90
        0
 91
        0
 92
      512
 93
        0
300

 40
0.0
140
1.0
 94
        5
 62
     0
340
55
144
0.25
309
CONTENTFORMAT_END
171
     0
 94
        0
309
TABLEFORMAT_END
  1
CELLSTYLE_BEGIN
 90
        1
 91
        1
300
_TITLE
309
CELLSTYLE_END
300
CELLSTYLE
  1
TABLEFORMAT_BEGIN
 90
        5
170
     1
 91
        0
 92
        0
 62
   257
 93
        1
300
CONTENTFORMAT
  1
CONTENTFORMAT_BEGIN
 90
        0
 91
        0
 92
      512
 93
        0
300

 40
0.0
140
1.0
 94
        5
 62
     0
340
55
144
0.18
309
CONTENTFORMAT_END
171
     0
 94
        0
309
TABLEFORMAT_END
  1
CELLSTYLE_BEGIN
 90
        2
 91
        1
300
_HEADER
309
CELLSTYLE_END
300
CELLSTYLE
  1
TABLEFORMAT_BEGIN
 90
        5
170
     1
 91
        0
 92
        0
 62
   257
 93
        1
300
CONTENTFORMAT
  1
CONTENTFORMAT_BEGIN
 90
        0
 91
        0
 92
      512
 93
        0
300

 40
0.0
140
1.0
 94
        2
 62
     0
340
55
144
0.18
309
CONTENTFORMAT_END
171
     0
 94
        0
309
TABLEFORMAT_END
  1
CELLSTYLE_BEGIN
 90
        3
 91
        2
300
_DATA
309
CELLSTYLE_END
  0
XRECORD
  5
DC
102
{ACAD_REACTORS
330
DB
102
}
330
DB
100
AcDbXrecord
280
     1
102
RTVSPost2010Prop28
280
     1
102
RTVSPost2010PropOp28
 70
     1
102
RTVSPost2010Prop29
280
     1
102
RTVSPost2010PropOp29
 70
     1
102
RTVSPost2010Prop30
280
     0
102
RTVSPost2010PropOp30
 70
     1
102
RTVSPost2010Prop31
280
     0
102
RTVSPost2010PropOp31
 70
     1
102
RTVSPost2010Prop32
280
     0
102
RTVSPost2010PropOp32
 70
     1
102
RTVSPost2010Prop33
280
     0
102
RTVSPost2010PropOp33
 70
     1
102
RTVSPost2010Prop34
280
     0
102
RTVSPost2010PropOp34
 70
     1
102
RTVSPost2010Prop35
280
     0
102
RTVSPost2010PropOp35
 70
     1
102
RTVSPost2010Prop36
280
     0
102
RTVSPost2010PropOp36
 70
     1
102
RTVSPost2010Prop37
 90
       50
102
RTVSPost2010PropOp37
 70
     1
102
RTVSPost2010Prop38
140
0.0
102
RTVSPost2010PropOp38
 70
     1
102
RTVSPost2010Prop39
140
1.0
102
RTVSPost2010PropOp39
 70
     1
102
RTVSPost2010Prop40
 90
        0
102
RTVSPost2010PropOp40
 70
     1
102
RTVSPost2010Prop41ColorIndex
 90
       18
102
RTVSPost2010Prop41ColorRGB
 90
        0
102
RTVSPost2010PropOp41
 70
     1
102
RTVSPost2010Prop42
 90
       50
102
RTVSPost2010PropOp42
 70
     1
102
RTVSPost2010Prop43
 90
        3
102
RTVSPost2010PropOp43
 70
     1
102
RTVSPost2010Prop44ColorIndex
 90
        5
102
RTVSPost2010Prop44ColorRGB
 90
      255
102
RTVSPost2010PropOp44
 70
     1
102
RTVSPost2010Prop45
280
     0
102
RTVSPost2010PropOp45
 70
     1
102
RTVSPost2010Prop46
 90
       50
102
RTVSPost2010PropOp46
 70
     1
102
RTVSPost2010Prop47
 90
       50
102
RTVSPost2010PropOp47
 70
     1
102
RTVSPost2010Prop48
 90
       50
102
RTVSPost2010PropOp48
 70
     1
102
RTVSPost2010Prop49
280
     0
102
RTVSPost2010PropOp49
 70
     1
102
RTVSPost2010Prop50
 90
       50
102
RTVSPost2010PropOp50
 70
     1
102
RTVSPost2010Prop51ColorIndex
 90
      256
102
RTVSPost2010Prop51ColorRGB
 90
-16777216
102
RTVSPost2010PropOp51
 70
     0
102
RTVSPost2010Prop52
140
1.0
102
RTVSPost2010PropOp52
 70
     0
102
RTVSPost2010Prop53
 90
        2
102
RTVSPost2010PropOp53
 70
     1
102
RTVSPost2010Prop54
  1
strokes_ogs.tif
102
RTVSPost2010PropOp54
 70
     1
102
RTVSPost2010Prop55
280
     0
102
RTVSPost2010PropOp55
 70
     1
102
RTVSPost2010Prop56
140
1.0
102
RTVSPost2010PropOp56
 70
     1
102
RTVSPost2010Prop57
140
1.0
102
RTVSPost2010PropOp57
 70
     1
  0
XRECORD
  5
DA
102
{ACAD_REACTORS
330
D9
102
}
330
D9
100
AcDbXrecord
280
     1
102
RTVSPost2010Prop28
280
     0
102
RTVSPost2010PropOp28
 70
     1
102
RTVSPost2010Prop29
280
     1
102
RTVSPost2010PropOp29
 70
     1
102
RTVSPost2010Prop30
280
     1
102
RTVSPost2010PropOp30
 70
     1
102
RTVSPost2010Prop31
280
     0
102
RTVSPost2010PropOp31
 70
     1
102
RTVSPost2010Prop32
280
     0
102
RTVSPost2010PropOp32
 70
     1
102
RTVSPost2010Prop33
280
     0
102
RTVSPost2010PropOp33
 70
     1
102
RTVSPost2010Prop34
280
     0
102
RTVSPost2010PropOp34
 70
     1
102
RTVSPost2010Prop35
280
     0
102
RTVSPost2010PropOp35
 70
     1
102
RTVSPost2010Prop36
280
     0
102
RTVSPost2010PropOp36
 70
     1
102
RTVSPost2010Prop37
 90
       50
102
RTVSPost2010PropOp37
 70
     1
102
RTVSPost2010Prop38
140
0.0
102
RTVSPost2010PropOp38
 70
     1
102
RTVSPost2010Prop39
140
1.0
102
RTVSPost2010PropOp39
 70
     1
102
RTVSPost2010Prop40
 90
        0
102
RTVSPost2010PropOp40
 70
     1
102
RTVSPost2010Prop41ColorIndex
 90
       18
102
RTVSPost2010Prop41ColorRGB
 90
        0
102
RTVSPost2010PropOp41
 70
     1
102
RTVSPost2010Prop42
 90
       50
102
RTVSPost2010PropOp42
 70
     1
102
RTVSPost2010Prop43
 90
        3
102
RTVSPost2010PropOp43
 70
     1
102
RTVSPost2010Prop44ColorIndex
 90
        5
102
RTVSPost2010Prop44ColorRGB
 90
      255
102
RTVSPost2010PropOp44
 70
     1
102
RTVSPost2010Prop45
280
     0
102
RTVSPost2010PropOp45
 70
     1
102
RTVSPost2010Prop46
 90
       50
102
RTVSPost2010PropOp46
 70
     1
102
RTVSPost2010Prop47
 90
       50
102
RTVSPost2010PropOp47
 70
     1
102
RTVSPost2010Prop48
 90
       50
102
RTVSPost2010PropOp48
 70
     1
102
RTVSPost2010Prop49
280
     0
102
RTVSPost2010PropOp49
 70
     1
102
RTVSPost2010Prop50
 90
       50
102
RTVSPost2010PropOp50
 70
     1
102
RTVSPost2010Prop51ColorIndex
 90
      256
102
RTVSPost2010Prop51ColorRGB
 90
-16777216
102
RTVSPost2010PropOp51
 70
     0
102
RTVSPost2010Prop52
140
1.0
102
RTVSPost2010PropOp52
 70
     0
102
RTVSPost2010Prop53
 90
        2
102
RTVSPost2010PropOp53
 70
     1
102
RTVSPost2010Prop54
  1
strokes_ogs.tif
102
RTVSPost2010PropOp54
 70
     1
102
RTVSPost2010Prop55
280
     0
102
RTVSPost2010PropOp55
 70
     1
102
RTVSPost2010Prop56
140
1.0
102
RTVSPost2010PropOp56
 70
     1
102
RTVSPost2010Prop57
140
1.0
102
RTVSPost2010PropOp57
 70
     1
  0
XRECORD
  5
E8
102
{ACAD_REACTORS
330
E7
102
}
330
E7
100
AcDbXrecord
280
     1
102
RTVSPost2010Prop28
280
     0
102
RTVSPost2010PropOp28
 70
     1
102
RTVSPost2010Prop29
280
     1
102
RTVSPost2010PropOp29
 70
     1
102
RTVSPost2010Prop30
280
     1
102
RTVSPost2010PropOp30
 70
     1
102
RTVSPost2010Prop31
280
     0
102
RTVSPost2010PropOp31
 70
     1
102
RTVSPost2010Prop32
280
     0
102
RTVSPost2010PropOp32
 70
     1
102
RTVSPost2010Prop33
280
     0
102
RTVSPost2010PropOp33
 70
     1
102
RTVSPost2010Prop34
280
     0
102
RTVSPost2010PropOp34
 70
     1
102
RTVSPost2010Prop35
280
     0
102
RTVSPost2010PropOp35
 70
     1
102
RTVSPost2010Prop36
280
     0
102
RTVSPost2010PropOp36
 70
     1
102
RTVSPost2010Prop37
 90
       50
102
RTVSPost2010PropOp37
 70
     1
102
RTVSPost2010Prop38
140
0.0
102
RTVSPost2010PropOp38
 70
     1
102
RTVSPost2010Prop39
140
1.0
102
RTVSPost2010PropOp39
 70
     1
102
RTVSPost2010Prop40
 90
        0
102
RTVSPost2010PropOp40
 70
     1
102
RTVSPost2010Prop41ColorIndex
 90
       18
102
RTVSPost2010Prop41ColorRGB
 90
        0
102
RTVSPost2010PropOp41
 70
     1
102
RTVSPost2010Prop42
 90
       50
102
RTVSPost2010PropOp42
 70
     1
102
RTVSPost2010Prop43
 90
        3
102
RTVSPost2010PropOp43
 70
     1
102
RTVSPost2010Prop44ColorIndex
 90
        5
102
RTVSPost2010Prop44ColorRGB
 90
      255
102
RTVSPost2010PropOp44
 70
     1
102
RTVSPost2010Prop45
280
     0
102
RTVSPost2010PropOp45
 70
     1
102
RTVSPost2010Prop46
 90
       50
102
RTVSPost2010PropOp46
 70
     1
102
RTVSPost2010Prop47
 90
       50
102
RTVSPost2010PropOp47
 70
     1
102
RTVSPost2010Prop48
 90
       50
102
RTVSPost2010PropOp48
 70
     1
102
RTVSPost2010Prop49
280
     0
102
RTVSPost2010PropOp49
 70
     1
102
RTVSPost2010Prop50
 90
       50
102
RTVSPost2010PropOp50
 70
     1
102
RTVSPost2010Prop51ColorIndex
 90
      256
102
RTVSPost2010Prop51ColorRGB
 90
-16777216
102
RTVSPost2010PropOp51
 70
     0
102
RTVSPost2010Prop52
140
1.0
102
RTVSPost2010PropOp52
 70
     0
102
RTVSPost2010Prop53
 90
        2
102
RTVSPost2010PropOp53
 70
     1
102
RTVSPost2010Prop54
  1
strokes_ogs.tif
102
RTVSPost2010PropOp54
 70
     1
102
RTVSPost2010Prop55
280
     0
102
RTVSPost2010PropOp55
 70
     1
102
RTVSPost2010Prop56
140
1.0
102
RTVSPost2010PropOp56
 70
     1
102
RTVSPost2010Prop57
140
1.0
102
RTVSPost2010PropOp57
 70
     1
  0
XRECORD
  5
F0
102
{ACAD_REACTORS
330
EF
102
}
330
EF
100
AcDbXrecord
280
     1
102
RTVSPost2010Prop28
280
     0
102
RTVSPost2010PropOp28
 70
     1
102
RTVSPost2010Prop29
280
     1
102
RTVSPost2010PropOp29
 70
     1
102
RTVSPost2010Prop30
280
     1
102
RTVSPost2010PropOp30
 70
     1
102
RTVSPost2010Prop31
280
     0
102
RTVSPost2010PropOp31
 70
     1
102
RTVSPost2010Prop32
280
     0
102
RTVSPost2010PropOp32
 70
     1
102
RTVSPost2010Prop33
280
     0
102
RTVSPost2010PropOp33
 70
     1
102
RTVSPost2010Prop34
280
     0
102
RTVSPost2010PropOp34
 70
     1
102
RTVSPost2010Prop35
280
     0
102
RTVSPost2010PropOp35
 70
     1
102
RTVSPost2010Prop36
280
     0
102
RTVSPost2010PropOp36
 70
     1
102
RTVSPost2010Prop37
 90
       50
102
RTVSPost2010PropOp37
 70
     1
102
RTVSPost2010Prop38
140
0.0
102
RTVSPost2010PropOp38
 70
     1
102
RTVSPost2010Prop39
140
1.0
102
RTVSPost2010PropOp39
 70
     1
102
RTVSPost2010Prop40
 90
        0
102
RTVSPost2010PropOp40
 70
     1
102
RTVSPost2010Prop41ColorIndex
 90
       18
102
RTVSPost2010Prop41ColorRGB
 90
        0
102
RTVSPost2010PropOp41
 70
     1
102
RTVSPost2010Prop42
 90
       50
102
RTVSPost2010PropOp42
 70
     1
102
RTVSPost2010Prop43
 90
        3
102
RTVSPost2010PropOp43
 70
     1
102
RTVSPost2010Prop44ColorIndex
 90
        5
102
RTVSPost2010Prop44ColorRGB
 90
      255
102
RTVSPost2010PropOp44
 70
     1
102
RTVSPost2010Prop45
280
     0
102
RTVSPost2010PropOp45
 70
     1
102
RTVSPost2010Prop46
 90
       50
102
RTVSPost2010PropOp46
 70
     1
102
RTVSPost2010Prop47
 90
       50
102
RTVSPost2010PropOp47
 70
     1
102
RTVSPost2010Prop48
 90
       50
102
RTVSPost2010PropOp48
 70
     1
102
RTVSPost2010Prop49
280
     0
102
RTVSPost2010PropOp49
 70
     1
102
RTVSPost2010Prop50
 90
       50
102
RTVSPost2010PropOp50
 70
     1
102
RTVSPost2010Prop51ColorIndex
 90
      256
102
RTVSPost2010Prop51ColorRGB
 90
-16777216
102
RTVSPost2010PropOp51
 70
     0
102
RTVSPost2010Prop52
140
1.0
102
RTVSPost2010PropOp52
 70
     0
102
RTVSPost2010Prop53
 90
        2
102
RTVSPost2010PropOp53
 70
     1
102
RTVSPost2010Prop54
  1
strokes_ogs.tif
102
RTVSPost2010PropOp54
 70
     1
102
RTVSPost2010Prop55
280
     0
102
RTVSPost2010PropOp55
 70
     1
102
RTVSPost2010Prop56
140
1.0
102
RTVSPost2010PropOp56
 70
     1
102
RTVSPost2010Prop57
140
1.0
102
RTVSPost2010PropOp57
 70
     1
  0
XRECORD
  5
E2
102
{ACAD_REACTORS
330
E1
102
}
330
E1
100
AcDbXrecord
280
     1
102
RTVSPost2010Prop28
280
     0
102
RTVSPost2010PropOp28
 70
     1
102
RTVSPost2010Prop29
280
     1
102
RTVSPost2010PropOp29
 70
     1
102
RTVSPost2010Prop30
280
     1
102
RTVSPost2010PropOp30
 70
     1
102
RTVSPost2010Prop31
280
     0
102
RTVSPost2010PropOp31
 70
     1
102
RTVSPost2010Prop32
280
     0
102
RTVSPost2010PropOp32
 70
     1
102
RTVSPost2010Prop33
280
     0
102
RTVSPost2010PropOp33
 70
     1
102
RTVSPost2010Prop34
280
     0
102
RTVSPost2010PropOp34
 70
     1
102
RTVSPost2010Prop35
280
     0
102
RTVSPost2010PropOp35
 70
     1
102
RTVSPost2010Prop36
280
     0
102
RTVSPost2010PropOp36
 70
     1
102
RTVSPost2010Prop37
 90
       50
102
RTVSPost2010PropOp37
 70
     1
102
RTVSPost2010Prop38
140
0.0
102
RTVSPost2010PropOp38
 70
     1
102
RTVSPost2010Prop39
140
1.0
102
RTVSPost2010PropOp39
 70
     1
102
RTVSPost2010Prop40
 90
        0
102
RTVSPost2010PropOp40
 70
     1
102
RTVSPost2010Prop41ColorIndex
 90
       18
102
RTVSPost2010Prop41ColorRGB
 90
        0
102
RTVSPost2010PropOp41
 70
     1
102
RTVSPost2010Prop42
 90
       50
102
RTVSPost2010PropOp42
 70
     1
102
RTVSPost2010Prop43
 90
        3
102
RTVSPost2010PropOp43
 70
     1
102
RTVSPost2010Prop44ColorIndex
 90
        5
102
RTVSPost2010Prop44ColorRGB
 90
      255
102
RTVSPost2010PropOp44
 70
     1
102
RTVSPost2010Prop45
280
     0
102
RTVSPost2010PropOp45
 70
     1
102
RTVSPost2010Prop46
 90
       50
102
RTVSPost2010PropOp46
 70
     1
102
RTVSPost2010Prop47
 90
       50
102
RTVSPost2010PropOp47
 70
     1
102
RTVSPost2010Prop48
 90
       50
102
RTVSPost2010PropOp48
 70
     1
102
RTVSPost2010Prop49
280
     0
102
RTVSPost2010PropOp49
 70
     1
102
RTVSPost2010Prop50
 90
       50
102
RTVSPost2010PropOp50
 70
     1
102
RTVSPost2010Prop51ColorIndex
 90
      256
102
RTVSPost2010Prop51ColorRGB
 90
-16777216
102
RTVSPost2010PropOp51
 70
     0
102
RTVSPost2010Prop52
140
1.0
102
RTVSPost2010PropOp52
 70
     0
102
RTVSPost2010Prop53
 90
        2
102
RTVSPost2010PropOp53
 70
     1
102
RTVSPost2010Prop54
  1
strokes_ogs.tif
102
RTVSPost2010PropOp54
 70
     1
102
RTVSPost2010Prop55
280
     0
102
RTVSPost2010PropOp55
 70
     1
102
RTVSPost2010Prop56
140
1.0
102
RTVSPost2010PropOp56
 70
     1
102
RTVSPost2010Prop57
140
1.0
102
RTVSPost2010PropOp57
 70
     1
  0
XRECORD
  5
E6
102
{ACAD_REACTORS
330
E5
102
}
330
E5
100
AcDbXrecord
280
     1
102
RTVSPost2010Prop28
280
     0
102
RTVSPost2010PropOp28
 70
     1
102
RTVSPost2010Prop29
280
     1
102
RTVSPost2010PropOp29
 70
     1
102
RTVSPost2010Prop30
280
     1
102
RTVSPost2010PropOp30
 70
     1
102
RTVSPost2010Prop31
280
     0
102
RTVSPost2010PropOp31
 70
     1
102
RTVSPost2010Prop32
280
     0
102
RTVSPost2010PropOp32
 70
     1
102
RTVSPost2010Prop33
280
     0
102
RTVSPost2010PropOp33
 70
     1
102
RTVSPost2010Prop34
280
     0
102
RTVSPost2010PropOp34
 70
     1
102
RTVSPost2010Prop35
280
     0
102
RTVSPost2010PropOp35
 70
     1
102
RTVSPost2010Prop36
280
     0
102
RTVSPost2010PropOp36
 70
     1
102
RTVSPost2010Prop37
 90
       50
102
RTVSPost2010PropOp37
 70
     1
102
RTVSPost2010Prop38
140
0.0
102
RTVSPost2010PropOp38
 70
     1
102
RTVSPost2010Prop39
140
1.0
102
RTVSPost2010PropOp39
 70
     1
102
RTVSPost2010Prop40
 90
        0
102
RTVSPost2010PropOp40
 70
     1
102
RTVSPost2010Prop41ColorIndex
 90
       18
102
RTVSPost2010Prop41ColorRGB
 90
        0
102
RTVSPost2010PropOp41
 70
     1
102
RTVSPost2010Prop42
 90
       50
102
RTVSPost2010PropOp42
 70
     1
102
RTVSPost2010Prop43
 90
        3
102
RTVSPost2010PropOp43
 70
     1
102
RTVSPost2010Prop44ColorIndex
 90
        5
102
RTVSPost2010Prop44ColorRGB
 90
      255
102
RTVSPost2010PropOp44
 70
     1
102
RTVSPost2010Prop45
280
     0
102
RTVSPost2010PropOp45
 70
     1
102
RTVSPost2010Prop46
 90
       50
102
RTVSPost2010PropOp46
 70
     1
102
RTVSPost2010Prop47
 90
       50
102
RTVSPost2010PropOp47
 70
     1
102
RTVSPost2010Prop48
 90
       50
102
RTVSPost2010PropOp48
 70
     1
102
RTVSPost2010Prop49
280
     0
102
RTVSPost2010PropOp49
 70
     1
102
RTVSPost2010Prop50
 90
       50
102
RTVSPost2010PropOp50
 70
     1
102
RTVSPost2010Prop51ColorIndex
 90
      256
102
RTVSPost2010Prop51ColorRGB
 90
-16777216
102
RTVSPost2010PropOp51
 70
     0
102
RTVSPost2010Prop52
140
1.0
102
RTVSPost2010PropOp52
 70
     0
102
RTVSPost2010Prop53
 90
        2
102
RTVSPost2010PropOp53
 70
     1
102
RTVSPost2010Prop54
  1
strokes_ogs.tif
102
RTVSPost2010PropOp54
 70
     1
102
RTVSPost2010Prop55
280
     0
102
RTVSPost2010PropOp55
 70
     1
102
RTVSPost2010Prop56
140
1.0
102
RTVSPost2010PropOp56
 70
     1
102
RTVSPost2010Prop57
140
1.0
102
RTVSPost2010PropOp57
 70
     1
  0
XRECORD
  5
100
102
{ACAD_REACTORS
330
FF
102
}
330
FF
100
AcDbXrecord
280
     1
102
RTVSPost2010Prop28
280
     0
102
RTVSPost2010PropOp28
 70
     0
102
RTVSPost2010Prop29
280
     1
102
RTVSPost2010PropOp29
 70
     0
102
RTVSPost2010Prop30
280
     1
102
RTVSPost2010PropOp30
 70
     0
102
RTVSPost2010Prop31
280
     0
102
RTVSPost2010PropOp31
 70
     0
102
RTVSPost2010Prop32
280
     0
102
RTVSPost2010PropOp32
 70
     0
102
RTVSPost2010Prop33
280
     0
102
RTVSPost2010PropOp33
 70
     0
102
RTVSPost2010Prop34
280
     0
102
RTVSPost2010PropOp34
 70
     0
102
RTVSPost2010Prop35
280
     0
102
RTVSPost2010PropOp35
 70
     0
102
RTVSPost2010Prop36
280
     0
102
RTVSPost2010PropOp36
 70
     0
102
RTVSPost2010Prop37
 90
       50
102
RTVSPost2010PropOp37
 70
     0
102
RTVSPost2010Prop38
140
0.0
102
RTVSPost2010PropOp38
 70
     0
102
RTVSPost2010Prop39
140
1.0
102
RTVSPost2010PropOp39
 70
     0
102
RTVSPost2010Prop40
 90
        0
102
RTVSPost2010PropOp40
 70
     0
102
RTVSPost2010Prop41ColorIndex
 90
       18
102
RTVSPost2010Prop41ColorRGB
 90
        0
102
RTVSPost2010PropOp41
 70
     0
102
RTVSPost2010Prop42
 90
       50
102
RTVSPost2010PropOp42
 70
     0
102
RTVSPost2010Prop43
 90
        3
102
RTVSPost2010PropOp43
 70
     0
102
RTVSPost2010Prop44ColorIndex
 90
        5
102
RTVSPost2010Prop44ColorRGB
 90
      255
102
RTVSPost2010PropOp44
 70
     0
102
RTVSPost2010Prop45
280
     0
102
RTVSPost2010PropOp45
 70
     0
102
RTVSPost2010Prop46
 90
       50
102
RTVSPost2010PropOp46
 70
     0
102
RTVSPost2010Prop47
 90
       50
102
RTVSPost2010PropOp47
 70
     0
102
RTVSPost2010Prop48
 90
       50
102
RTVSPost2010PropOp48
 70
     0
102
RTVSPost2010Prop49
280
     0
102
RTVSPost2010PropOp49
 70
     0
102
RTVSPost2010Prop50
 90
       50
102
RTVSPost2010PropOp50
 70
     0
102
RTVSPost2010Prop51ColorIndex
 90
      256
102
RTVSPost2010Prop51ColorRGB
 90
-16777216
102
RTVSPost2010PropOp51
 70
     0
102
RTVSPost2010Prop52
140
1.0
102
RTVSPost2010PropOp52
 70
     0
102
RTVSPost2010Prop53
 90
        2
102
RTVSPost2010PropOp53
 70
     0
102
RTVSPost2010Prop54
  1
strokes_ogs.tif
102
RTVSPost2010PropOp54
 70
     0
102
RTVSPost2010Prop55
280
     0
102
RTVSPost2010PropOp55
 70
     0
102
RTVSPost2010Prop56
140
1.0
102
RTVSPost2010PropOp56
 70
     0
102
RTVSPost2010Prop57
140
1.0
102
RTVSPost2010PropOp57
 70
     0
  0
XRECORD
  5
EE
102
{ACAD_REACTORS
330
ED
102
}
330
ED
100
AcDbXrecord
280
     1
102
RTVSPost2010Prop28
280
     0
102
RTVSPost2010PropOp28
 70
     1
102
RTVSPost2010Prop29
280
     1
102
RTVSPost2010PropOp29
 70
     1
102
RTVSPost2010Prop30
280
     1
102
RTVSPost2010PropOp30
 70
     1
102
RTVSPost2010Prop31
280
     0
102
RTVSPost2010PropOp31
 70
     1
102
RTVSPost2010Prop32
280
     0
102
RTVSPost2010PropOp32
 70
     1
102
RTVSPost2010Prop33
280
     0
102
RTVSPost2010PropOp33
 70
     1
102
RTVSPost2010Prop34
280
     0
102
RTVSPost2010PropOp34
 70
     1
102
RTVSPost2010Prop35
280
     0
102
RTVSPost2010PropOp35
 70
     1
102
RTVSPost2010Prop36
280
     0
102
RTVSPost2010PropOp36
 70
     1
102
RTVSPost2010Prop37
 90
       50
102
RTVSPost2010PropOp37
 70
     1
102
RTVSPost2010Prop38
140
0.0
102
RTVSPost2010PropOp38
 70
     1
102
RTVSPost2010Prop39
140
1.0
102
RTVSPost2010PropOp39
 70
     1
102
RTVSPost2010Prop40
 90
        0
102
RTVSPost2010PropOp40
 70
     1
102
RTVSPost2010Prop41ColorIndex
 90
       18
102
RTVSPost2010Prop41ColorRGB
 90
        0
102
RTVSPost2010PropOp41
 70
     1
102
RTVSPost2010Prop42
 90
       50
102
RTVSPost2010PropOp42
 70
     1
102
RTVSPost2010Prop43
 90
        3
102
RTVSPost2010PropOp43
 70
     1
102
RTVSPost2010Prop44ColorIndex
 90
        5
102
RTVSPost2010Prop44ColorRGB
 90
      255
102
RTVSPost2010PropOp44
 70
     1
102
RTVSPost2010Prop45
280
     0
102
RTVSPost2010PropOp45
 70
     1
102
RTVSPost2010Prop46
 90
       50
102
RTVSPost2010PropOp46
 70
     1
102
RTVSPost2010Prop47
 90
       50
102
RTVSPost2010PropOp47
 70
     1
102
RTVSPost2010Prop48
 90
       50
102
RTVSPost2010PropOp48
 70
     1
102
RTVSPost2010Prop49
280
     0
102
RTVSPost2010PropOp49
 70
     1
102
RTVSPost2010Prop50
 90
       50
102
RTVSPost2010PropOp50
 70
     1
102
RTVSPost2010Prop51ColorIndex
 90
      256
102
RTVSPost2010Prop51ColorRGB
 90
-16777216
102
RTVSPost2010PropOp51
 70
     0
102
RTVSPost2010Prop52
140
1.0
102
RTVSPost2010PropOp52
 70
     0
102
RTVSPost2010Prop53
 90
        2
102
RTVSPost2010PropOp53
 70
     1
102
RTVSPost2010Prop54
  1
strokes_ogs.tif
102
RTVSPost2010PropOp54
 70
     1
102
RTVSPost2010Prop55
280
     0
102
RTVSPost2010PropOp55
 70
     1
102
RTVSPost2010Prop56
140
1.0
102
RTVSPost2010PropOp56
 70
     1
102
RTVSPost2010Prop57
140
1.0
102
RTVSPost2010PropOp57
 70
     1
  0
XRECORD
  5
D2
102
{ACAD_REACTORS
330
D1
102
}
330
D1
100
AcDbXrecord
280
     1
102
RTVSPost2010Prop28
280
     0
102
RTVSPost2010PropOp28
 70
     1
102
RTVSPost2010Prop29
280
     1
102
RTVSPost2010PropOp29
 70
     1
102
RTVSPost2010Prop30
280
     1
102
RTVSPost2010PropOp30
 70
     1
102
RTVSPost2010Prop31
280
     0
102
RTVSPost2010PropOp31
 70
     1
102
RTVSPost2010Prop32
280
     0
102
RTVSPost2010PropOp32
 70
     1
102
RTVSPost2010Prop33
280
     0
102
RTVSPost2010PropOp33
 70
     1
102
RTVSPost2010Prop34
280
     0
102
RTVSPost2010PropOp34
 70
     1
102
RTVSPost2010Prop35
280
     0
102
RTVSPost2010PropOp35
 70
     1
102
RTVSPost2010Prop36
280
     0
102
RTVSPost2010PropOp36
 70
     1
102
RTVSPost2010Prop37
 90
       50
102
RTVSPost2010PropOp37
 70
     1
102
RTVSPost2010Prop38
140
0.0
102
RTVSPost2010PropOp38
 70
     1
102
RTVSPost2010Prop39
140
1.0
102
RTVSPost2010PropOp39
 70
     1
102
RTVSPost2010Prop40
 90
        0
102
RTVSPost2010PropOp40
 70
     1
102
RTVSPost2010Prop41ColorIndex
 90
       18
102
RTVSPost2010Prop41ColorRGB
 90
        0
102
RTVSPost2010PropOp41
 70
     1
102
RTVSPost2010Prop42
 90
       50
102
RTVSPost2010PropOp42
 70
     1
102
RTVSPost2010Prop43
 90
        3
102
RTVSPost2010PropOp43
 70
     1
102
RTVSPost2010Prop44ColorIndex
 90
        5
102
RTVSPost2010Prop44ColorRGB
 90
      255
102
RTVSPost2010PropOp44
 70
     1
102
RTVSPost2010Prop45
280
     0
102
RTVSPost2010PropOp45
 70
     1
102
RTVSPost2010Prop46
 90
       50
102
RTVSPost2010PropOp46
 70
     1
102
RTVSPost2010Prop47
 90
       50
102
RTVSPost2010PropOp47
 70
     1
102
RTVSPost2010Prop48
 90
       50
102
RTVSPost2010PropOp48
 70
     1
102
RTVSPost2010Prop49
280
     0
102
RTVSPost2010PropOp49
 70
     1
102
RTVSPost2010Prop50
 90
       50
102
RTVSPost2010PropOp50
 70
     1
102
RTVSPost2010Prop51ColorIndex
 90
      256
102
RTVSPost2010Prop51ColorRGB
 90
-16777216
102
RTVSPost2010PropOp51
 70
     0
102
RTVSPost2010Prop52
140
1.0
102
RTVSPost2010PropOp52
 70
     0
102
RTVSPost2010Prop53
 90
        2
102
RTVSPost2010PropOp53
 70
     1
102
RTVSPost2010Prop54
  1
strokes_ogs.tif
102
RTVSPost2010PropOp54
 70
     1
102
RTVSPost2010Prop55
280
     0
102
RTVSPost2010PropOp55
 70
     1
102
RTVSPost2010Prop56
140
1.0
102
RTVSPost2010PropOp56
 70
     1
102
RTVSPost2010Prop57
140
1.0
102
RTVSPost2010PropOp57
 70
     1
  0
XRECORD
  5
D4
102
{ACAD_REACTORS
330
D3
102
}
330
D3
100
AcDbXrecord
280
     1
102
RTVSPost2010Prop28
280
     0
102
RTVSPost2010PropOp28
 70
     1
102
RTVSPost2010Prop29
280
     1
102
RTVSPost2010PropOp29
 70
     1
102
RTVSPost2010Prop30
280
     1
102
RTVSPost2010PropOp30
 70
     1
102
RTVSPost2010Prop31
280
     0
102
RTVSPost2010PropOp31
 70
     1
102
RTVSPost2010Prop32
280
     0
102
RTVSPost2010PropOp32
 70
     1
102
RTVSPost2010Prop33
280
     0
102
RTVSPost2010PropOp33
 70
     1
102
RTVSPost2010Prop34
280
     0
102
RTVSPost2010PropOp34
 70
     1
102
RTVSPost2010Prop35
280
     0
102
RTVSPost2010PropOp35
 70
     1
102
RTVSPost2010Prop36
280
     0
102
RTVSPost2010PropOp36
 70
     1
102
RTVSPost2010Prop37
 90
       50
102
RTVSPost2010PropOp37
 70
     1
102
RTVSPost2010Prop38
140
0.0
102
RTVSPost2010PropOp38
 70
     1
102
RTVSPost2010Prop39
140
1.0
102
RTVSPost2010PropOp39
 70
     1
102
RTVSPost2010Prop40
 90
        0
102
RTVSPost2010PropOp40
 70
     1
102
RTVSPost2010Prop41ColorIndex
 90
       18
102
RTVSPost2010Prop41ColorRGB
 90
        0
102
RTVSPost2010PropOp41
 70
     1
102
RTVSPost2010Prop42
 90
       50
102
RTVSPost2010PropOp42
 70
     1
102
RTVSPost2010Prop43
 90
        3
102
RTVSPost2010PropOp43
 70
     1
102
RTVSPost2010Prop44ColorIndex
 90
        5
102
RTVSPost2010Prop44ColorRGB
 90
      255
102
RTVSPost2010PropOp44
 70
     1
102
RTVSPost2010Prop45
280
     0
102
RTVSPost2010PropOp45
 70
     1
102
RTVSPost2010Prop46
 90
       50
102
RTVSPost2010PropOp46
 70
     1
102
RTVSPost2010Prop47
 90
       50
102
RTVSPost2010PropOp47
 70
     1
102
RTVSPost2010Prop48
 90
       50
102
RTVSPost2010PropOp48
 70
     1
102
RTVSPost2010Prop49
280
     0
102
RTVSPost2010PropOp49
 70
     1
102
RTVSPost2010Prop50
 90
       50
102
RTVSPost2010PropOp50
 70
     1
102
RTVSPost2010Prop51ColorIndex
 90
      256
102
RTVSPost2010Prop51ColorRGB
 90
-16777216
102
RTVSPost2010PropOp51
 70
     0
102
RTVSPost2010Prop52
140
1.0
102
RTVSPost2010PropOp52
 70
     0
102
RTVSPost2010Prop53
 90
        2
102
RTVSPost2010PropOp53
 70
     1
102
RTVSPost2010Prop54
  1
strokes_ogs.tif
102
RTVSPost2010PropOp54
 70
     1
102
RTVSPost2010Prop55
280
     0
102
RTVSPost2010PropOp55
 70
     1
102
RTVSPost2010Prop56
140
1.0
102
RTVSPost2010PropOp56
 70
     1
102
RTVSPost2010Prop57
140
1.0
102
RTVSPost2010PropOp57
 70
     1
  0
XRECORD
  5
D6
102
{ACAD_REACTORS
330
D5
102
}
330
D5
100
AcDbXrecord
280
     1
102
RTVSPost2010Prop28
280
     0
102
RTVSPost2010PropOp28
 70
     1
102
RTVSPost2010Prop29
280
     1
102
RTVSPost2010PropOp29
 70
     1
102
RTVSPost2010Prop30
280
     1
102
RTVSPost2010PropOp30
 70
     1
102
RTVSPost2010Prop31
280
     0
102
RTVSPost2010PropOp31
 70
     1
102
RTVSPost2010Prop32
280
     0
102
RTVSPost2010PropOp32
 70
     1
102
RTVSPost2010Prop33
280
     0
102
RTVSPost2010PropOp33
 70
     1
102
RTVSPost2010Prop34
280
     0
102
RTVSPost2010PropOp34
 70
     1
102
RTVSPost2010Prop35
280
     0
102
RTVSPost2010PropOp35
 70
     1
102
RTVSPost2010Prop36
280
     0
102
RTVSPost2010PropOp36
 70
     1
102
RTVSPost2010Prop37
 90
       50
102
RTVSPost2010PropOp37
 70
     1
102
RTVSPost2010Prop38
140
0.0
102
RTVSPost2010PropOp38
 70
     1
102
RTVSPost2010Prop39
140
1.0
102
RTVSPost2010PropOp39
 70
     1
102
RTVSPost2010Prop40
 90
        0
102
RTVSPost2010PropOp40
 70
     1
102
RTVSPost2010Prop41ColorIndex
 90
       18
102
RTVSPost2010Prop41ColorRGB
 90
        0
102
RTVSPost2010PropOp41
 70
     1
102
RTVSPost2010Prop42
 90
       50
102
RTVSPost2010PropOp42
 70
     1
102
RTVSPost2010Prop43
 90
        3
102
RTVSPost2010PropOp43
 70
     1
102
RTVSPost2010Prop44ColorIndex
 90
        5
102
RTVSPost2010Prop44ColorRGB
 90
      255
102
RTVSPost2010PropOp44
 70
     1
102
RTVSPost2010Prop45
280
     0
102
RTVSPost2010PropOp45
 70
     1
102
RTVSPost2010Prop46
 90
       50
102
RTVSPost2010PropOp46
 70
     1
102
RTVSPost2010Prop47
 90
       50
102
RTVSPost2010PropOp47
 70
     1
102
RTVSPost2010Prop48
 90
       50
102
RTVSPost2010PropOp48
 70
     1
102
RTVSPost2010Prop49
280
     0
102
RTVSPost2010PropOp49
 70
     1
102
RTVSPost2010Prop50
 90
       50
102
RTVSPost2010PropOp50
 70
     1
102
RTVSPost2010Prop51ColorIndex
 90
      256
102
RTVSPost2010Prop51ColorRGB
 90
-16777216
102
RTVSPost2010PropOp51
 70
     0
102
RTVSPost2010Prop52
140
1.0
102
RTVSPost2010PropOp52
 70
     0
102
RTVSPost2010Prop53
 90
        2
102
RTVSPost2010PropOp53
 70
     1
102
RTVSPost2010Prop54
  1
strokes_ogs.tif
102
RTVSPost2010PropOp54
 70
     1
102
RTVSPost2010Prop55
280
     0
102
RTVSPost2010PropOp55
 70
     1
102
RTVSPost2010Prop56
140
1.0
102
RTVSPost2010PropOp56
 70
     1
102
RTVSPost2010Prop57
140
1.0
102
RTVSPost2010PropOp57
 70
     1
  0
XRECORD
  5
D8
102
{ACAD_REACTORS
330
D7
102
}
330
D7
100
AcDbXrecord
280
     1
102
RTVSPost2010Prop28
280
     0
102
RTVSPost2010PropOp28
 70
     1
102
RTVSPost2010Prop29
280
     1
102
RTVSPost2010PropOp29
 70
     1
102
RTVSPost2010Prop30
280
     1
102
RTVSPost2010PropOp30
 70
     1
102
RTVSPost2010Prop31
280
     0
102
RTVSPost2010PropOp31
 70
     1
102
RTVSPost2010Prop32
280
     0
102
RTVSPost2010PropOp32
 70
     1
102
RTVSPost2010Prop33
280
     0
102
RTVSPost2010PropOp33
 70
     1
102
RTVSPost2010Prop34
280
     0
102
RTVSPost2010PropOp34
 70
     1
102
RTVSPost2010Prop35
280
     0
102
RTVSPost2010PropOp35
 70
     1
102
RTVSPost2010Prop36
280
     0
102
RTVSPost2010PropOp36
 70
     1
102
RTVSPost2010Prop37
 90
       50
102
RTVSPost2010PropOp37
 70
     1
102
RTVSPost2010Prop38
140
0.0
102
RTVSPost2010PropOp38
 70
     1
102
RTVSPost2010Prop39
140
1.0
102
RTVSPost2010PropOp39
 70
     1
102
RTVSPost2010Prop40
 90
        0
102
RTVSPost2010PropOp40
 70
     1
102
RTVSPost2010Prop41ColorIndex
 90
       18
102
RTVSPost2010Prop41ColorRGB
 90
        0
102
RTVSPost2010PropOp41
 70
     1
102
RTVSPost2010Prop42
 90
       50
102
RTVSPost2010PropOp42
 70
     1
102
RTVSPost2010Prop43
 90
        3
102
RTVSPost2010PropOp43
 70
     1
102
RTVSPost2010Prop44ColorIndex
 90
        5
102
RTVSPost2010Prop44ColorRGB
 90
      255
102
RTVSPost2010PropOp44
 70
     1
102
RTVSPost2010Prop45
280
     0
102
RTVSPost2010PropOp45
 70
     1
102
RTVSPost2010Prop46
 90
       50
102
RTVSPost2010PropOp46
 70
     1
102
RTVSPost2010Prop47
 90
       50
102
RTVSPost2010PropOp47
 70
     1
102
RTVSPost2010Prop48
 90
       50
102
RTVSPost2010PropOp48
 70
     1
102
RTVSPost2010Prop49
280
     0
102
RTVSPost2010PropOp49
 70
     1
102
RTVSPost2010Prop50
 90
       50
102
RTVSPost2010PropOp50
 70
     1
102
RTVSPost2010Prop51ColorIndex
 90
      256
102
RTVSPost2010Prop51ColorRGB
 90
-16777216
102
RTVSPost2010PropOp51
 70
     0
102
RTVSPost2010Prop52
140
1.0
102
RTVSPost2010PropOp52
 70
     0
102
RTVSPost2010Prop53
 90
        2
102
RTVSPost2010PropOp53
 70
     1
102
RTVSPost2010Prop54
  1
strokes_ogs.tif
102
RTVSPost2010PropOp54
 70
     1
102
RTVSPost2010Prop55
280
     0
102
RTVSPost2010PropOp55
 70
     1
102
RTVSPost2010Prop56
140
1.0
102
RTVSPost2010PropOp56
 70
     1
102
RTVSPost2010Prop57
140
1.0
102
RTVSPost2010PropOp57
 70
     1
  0
XRECORD
  5
E0
102
{ACAD_REACTORS
330
DF
102
}
330
DF
100
AcDbXrecord
280
     1
102
RTVSPost2010Prop28
280
     0
102
RTVSPost2010PropOp28
 70
     1
102
RTVSPost2010Prop29
280
     1
102
RTVSPost2010PropOp29
 70
     1
102
RTVSPost2010Prop30
280
     1
102
RTVSPost2010PropOp30
 70
     1
102
RTVSPost2010Prop31
280
     0
102
RTVSPost2010PropOp31
 70
     1
102
RTVSPost2010Prop32
280
     0
102
RTVSPost2010PropOp32
 70
     1
102
RTVSPost2010Prop33
280
     0
102
RTVSPost2010PropOp33
 70
     1
102
RTVSPost2010Prop34
280
     0
102
RTVSPost2010PropOp34
 70
     1
102
RTVSPost2010Prop35
280
     0
102
RTVSPost2010PropOp35
 70
     1
102
RTVSPost2010Prop36
280
     0
102
RTVSPost2010PropOp36
 70
     1
102
RTVSPost2010Prop37
 90
       50
102
RTVSPost2010PropOp37
 70
     1
102
RTVSPost2010Prop38
140
0.0
102
RTVSPost2010PropOp38
 70
     1
102
RTVSPost2010Prop39
140
1.0
102
RTVSPost2010PropOp39
 70
     1
102
RTVSPost2010Prop40
 90
        0
102
RTVSPost2010PropOp40
 70
     1
102
RTVSPost2010Prop41ColorIndex
 90
       18
102
RTVSPost2010Prop41ColorRGB
 90
        0
102
RTVSPost2010PropOp41
 70
     1
102
RTVSPost2010Prop42
 90
       50
102
RTVSPost2010PropOp42
 70
     1
102
RTVSPost2010Prop43
 90
        3
102
RTVSPost2010PropOp43
 70
     1
102
RTVSPost2010Prop44ColorIndex
 90
        5
102
RTVSPost2010Prop44ColorRGB
 90
      255
102
RTVSPost2010PropOp44
 70
     1
102
RTVSPost2010Prop45
280
     0
102
RTVSPost2010PropOp45
 70
     1
102
RTVSPost2010Prop46
 90
       50
102
RTVSPost2010PropOp46
 70
     1
102
RTVSPost2010Prop47
 90
       50
102
RTVSPost2010PropOp47
 70
     1
102
RTVSPost2010Prop48
 90
       50
102
RTVSPost2010PropOp48
 70
     1
102
RTVSPost2010Prop49
280
     0
102
RTVSPost2010PropOp49
 70
     1
102
RTVSPost2010Prop50
 90
       50
102
RTVSPost2010PropOp50
 70
     1
102
RTVSPost2010Prop51ColorIndex
 90
      256
102
RTVSPost2010Prop51ColorRGB
 90
-16777216
102
RTVSPost2010PropOp51
 70
     0
102
RTVSPost2010Prop52
140
1.0
102
RTVSPost2010PropOp52
 70
     0
102
RTVSPost2010Prop53
 90
        2
102
RTVSPost2010PropOp53
 70
     1
102
RTVSPost2010Prop54
  1
strokes_ogs.tif
102
RTVSPost2010PropOp54
 70
     1
102
RTVSPost2010Prop55
280
     0
102
RTVSPost2010PropOp55
 70
     1
102
RTVSPost2010Prop56
140
1.0
102
RTVSPost2010PropOp56
 70
     1
102
RTVSPost2010Prop57
140
1.0
102
RTVSPost2010PropOp57
 70
     1
  0
XRECORD
  5
FC
102
{ACAD_REACTORS
330
FB
102
}
330
FB
100
AcDbXrecord
280
     1
102
RTVSPost2010Prop28
280
     0
102
RTVSPost2010PropOp28
 70
     0
102
RTVSPost2010Prop29
280
     1
102
RTVSPost2010PropOp29
 70
     0
102
RTVSPost2010Prop30
280
     1
102
RTVSPost2010PropOp30
 70
     0
102
RTVSPost2010Prop31
280
     0
102
RTVSPost2010PropOp31
 70
     0
102
RTVSPost2010Prop32
280
     0
102
RTVSPost2010PropOp32
 70
     0
102
RTVSPost2010Prop33
280
     0
102
RTVSPost2010PropOp33
 70
     0
102
RTVSPost2010Prop34
280
     0
102
RTVSPost2010PropOp34
 70
     0
102
RTVSPost2010Prop35
280
     0
102
RTVSPost2010PropOp35
 70
     0
102
RTVSPost2010Prop36
280
     0
102
RTVSPost2010PropOp36
 70
     0
102
RTVSPost2010Prop37
 90
       50
102
RTVSPost2010PropOp37
 70
     0
102
RTVSPost2010Prop38
140
0.0
102
RTVSPost2010PropOp38
 70
     0
102
RTVSPost2010Prop39
140
1.0
102
RTVSPost2010PropOp39
 70
     0
102
RTVSPost2010Prop40
 90
        0
102
RTVSPost2010PropOp40
 70
     0
102
RTVSPost2010Prop41ColorIndex
 90
       18
102
RTVSPost2010Prop41ColorRGB
 90
        0
102
RTVSPost2010PropOp41
 70
     0
102
RTVSPost2010Prop42
 90
       50
102
RTVSPost2010PropOp42
 70
     0
102
RTVSPost2010Prop43
 90
        3
102
RTVSPost2010PropOp43
 70
     0
102
RTVSPost2010Prop44ColorIndex
 90
        5
102
RTVSPost2010Prop44ColorRGB
 90
      255
102
RTVSPost2010PropOp44
 70
     0
102
RTVSPost2010Prop45
280
     0
102
RTVSPost2010PropOp45
 70
     0
102
RTVSPost2010Prop46
 90
       50
102
RTVSPost2010PropOp46
 70
     0
102
RTVSPost2010Prop47
 90
       50
102
RTVSPost2010PropOp47
 70
     0
102
RTVSPost2010Prop48
 90
       50
102
RTVSPost2010PropOp48
 70
     0
102
RTVSPost2010Prop49
280
     0
102
RTVSPost2010PropOp49
 70
     0
102
RTVSPost2010Prop50
 90
       50
102
RTVSPost2010PropOp50
 70
     0
102
RTVSPost2010Prop51ColorIndex
 90
      256
102
RTVSPost2010Prop51ColorRGB
 90
-16777216
102
RTVSPost2010PropOp51
 70
     0
102
RTVSPost2010Prop52
140
1.0
102
RTVSPost2010PropOp52
 70
     0
102
RTVSPost2010Prop53
 90
        2
102
RTVSPost2010PropOp53
 70
     0
102
RTVSPost2010Prop54
  1
strokes_ogs.tif
102
RTVSPost2010PropOp54
 70
     0
102
RTVSPost2010Prop55
280
     0
102
RTVSPost2010PropOp55
 70
     0
102
RTVSPost2010Prop56
140
1.0
102
RTVSPost2010PropOp56
 70
     0
102
RTVSPost2010Prop57
140
1.0
102
RTVSPost2010PropOp57
 70
     0
  0
XRECORD
  5
EC
102
{ACAD_REACTORS
330
EB
102
}
330
EB
100
AcDbXrecord
280
     1
102
RTVSPost2010Prop28
280
     0
102
RTVSPost2010PropOp28
 70
     1
102
RTVSPost2010Prop29
280
     1
102
RTVSPost2010PropOp29
 70
     1
102
RTVSPost2010Prop30
280
     1
102
RTVSPost2010PropOp30
 70
     1
102
RTVSPost2010Prop31
280
     0
102
RTVSPost2010PropOp31
 70
     1
102
RTVSPost2010Prop32
280
     0
102
RTVSPost2010PropOp32
 70
     1
102
RTVSPost2010Prop33
280
     0
102
RTVSPost2010PropOp33
 70
     1
102
RTVSPost2010Prop34
280
     0
102
RTVSPost2010PropOp34
 70
     1
102
RTVSPost2010Prop35
280
     0
102
RTVSPost2010PropOp35
 70
     1
102
RTVSPost2010Prop36
280
     0
102
RTVSPost2010PropOp36
 70
     1
102
RTVSPost2010Prop37
 90
       50
102
RTVSPost2010PropOp37
 70
     1
102
RTVSPost2010Prop38
140
0.0
102
RTVSPost2010PropOp38
 70
     1
102
RTVSPost2010Prop39
140
1.0
102
RTVSPost2010PropOp39
 70
     1
102
RTVSPost2010Prop40
 90
        0
102
RTVSPost2010PropOp40
 70
     1
102
RTVSPost2010Prop41ColorIndex
 90
       18
102
RTVSPost2010Prop41ColorRGB
 90
        0
102
RTVSPost2010PropOp41
 70
     1
102
RTVSPost2010Prop42
 90
       50
102
RTVSPost2010PropOp42
 70
     1
102
RTVSPost2010Prop43
 90
        3
102
RTVSPost2010PropOp43
 70
     1
102
RTVSPost2010Prop44ColorIndex
 90
        5
102
RTVSPost2010Prop44ColorRGB
 90
      255
102
RTVSPost2010PropOp44
 70
     1
102
RTVSPost2010Prop45
280
     0
102
RTVSPost2010PropOp45
 70
     1
102
RTVSPost2010Prop46
 90
       50
102
RTVSPost2010PropOp46
 70
     1
102
RTVSPost2010Prop47
 90
       50
102
RTVSPost2010PropOp47
 70
     1
102
RTVSPost2010Prop48
 90
       50
102
RTVSPost2010PropOp48
 70
     1
102
RTVSPost2010Prop49
280
     0
102
RTVSPost2010PropOp49
 70
     1
102
RTVSPost2010Prop50
 90
       50
102
RTVSPost2010PropOp50
 70
     1
102
RTVSPost2010Prop51ColorIndex
 90
      256
102
RTVSPost2010Prop51ColorRGB
 90
-16777216
102
RTVSPost2010PropOp51
 70
     0
102
RTVSPost2010Prop52
140
1.0
102
RTVSPost2010PropOp52
 70
     0
102
RTVSPost2010Prop53
 90
        2
102
RTVSPost2010PropOp53
 70
     1
102
RTVSPost2010Prop54
  1
strokes_ogs.tif
102
RTVSPost2010PropOp54
 70
     1
102
RTVSPost2010Prop55
280
     0
102
RTVSPost2010PropOp55
 70
     1
102
RTVSPost2010Prop56
140
1.0
102
RTVSPost2010PropOp56
 70
     1
102
RTVSPost2010Prop57
140
1.0
102
RTVSPost2010PropOp57
 70
     1
  0
XRECORD
  5
FE
102
{ACAD_REACTORS
330
FD
102
}
330
FD
100
AcDbXrecord
280
     1
102
RTVSPost2010Prop28
280
     0
102
RTVSPost2010PropOp28
 70
     0
102
RTVSPost2010Prop29
280
     1
102
RTVSPost2010PropOp29
 70
     0
102
RTVSPost2010Prop30
280
     1
102
RTVSPost2010PropOp30
 70
     0
102
RTVSPost2010Prop31
280
     0
102
RTVSPost2010PropOp31
 70
     0
102
RTVSPost2010Prop32
280
     0
102
RTVSPost2010PropOp32
 70
     0
102
RTVSPost2010Prop33
280
     0
102
RTVSPost2010PropOp33
 70
     0
102
RTVSPost2010Prop34
280
     0
102
RTVSPost2010PropOp34
 70
     0
102
RTVSPost2010Prop35
280
     0
102
RTVSPost2010PropOp35
 70
     0
102
RTVSPost2010Prop36
280
     0
102
RTVSPost2010PropOp36
 70
     0
102
RTVSPost2010Prop37
 90
       50
102
RTVSPost2010PropOp37
 70
     0
102
RTVSPost2010Prop38
140
0.0
102
RTVSPost2010PropOp38
 70
     0
102
RTVSPost2010Prop39
140
1.0
102
RTVSPost2010PropOp39
 70
     0
102
RTVSPost2010Prop40
 90
        0
102
RTVSPost2010PropOp40
 70
     0
102
RTVSPost2010Prop41ColorIndex
 90
       18
102
RTVSPost2010Prop41ColorRGB
 90
        0
102
RTVSPost2010PropOp41
 70
     0
102
RTVSPost2010Prop42
 90
       50
102
RTVSPost2010PropOp42
 70
     0
102
RTVSPost2010Prop43
 90
        3
102
RTVSPost2010PropOp43
 70
     0
102
RTVSPost2010Prop44ColorIndex
 90
        5
102
RTVSPost2010Prop44ColorRGB
 90
      255
102
RTVSPost2010PropOp44
 70
     0
102
RTVSPost2010Prop45
280
     0
102
RTVSPost2010PropOp45
 70
     0
102
RTVSPost2010Prop46
 90
       50
102
RTVSPost2010PropOp46
 70
     0
102
RTVSPost2010Prop47
 90
       50
102
RTVSPost2010PropOp47
 70
     0
102
RTVSPost2010Prop48
 90
       50
102
RTVSPost2010PropOp48
 70
     0
102
RTVSPost2010Prop49
280
     0
102
RTVSPost2010PropOp49
 70
     0
102
RTVSPost2010Prop50
 90
       50
102
RTVSPost2010PropOp50
 70
     0
102
RTVSPost2010Prop51ColorIndex
 90
      256
102
RTVSPost2010Prop51ColorRGB
 90
-16777216
102
RTVSPost2010PropOp51
 70
     0
102
RTVSPost2010Prop52
140
1.0
102
RTVSPost2010PropOp52
 70
     0
102
RTVSPost2010Prop53
 90
        2
102
RTVSPost2010PropOp53
 70
     0
102
RTVSPost2010Prop54
  1
strokes_ogs.tif
102
RTVSPost2010PropOp54
 70
     0
102
RTVSPost2010Prop55
280
     0
102
RTVSPost2010PropOp55
 70
     0
102
RTVSPost2010Prop56
140
1.0
102
RTVSPost2010PropOp56
 70
     0
102
RTVSPost2010Prop57
140
1.0
102
RTVSPost2010PropOp57
 70
     0
  0
XRECORD
  5
E4
102
{ACAD_REACTORS
330
E3
102
}
330
E3
100
AcDbXrecord
280
     1
102
RTVSPost2010Prop28
280
     0
102
RTVSPost2010PropOp28
 70
     1
102
RTVSPost2010Prop29
280
     1
102
RTVSPost2010PropOp29
 70
     1
102
RTVSPost2010Prop30
280
     1
102
RTVSPost2010PropOp30
 70
     1
102
RTVSPost2010Prop31
280
     0
102
RTVSPost2010PropOp31
 70
     1
102
RTVSPost2010Prop32
280
     0
102
RTVSPost2010PropOp32
 70
     1
102
RTVSPost2010Prop33
280
     0
102
RTVSPost2010PropOp33
 70
     1
102
RTVSPost2010Prop34
280
     0
102
RTVSPost2010PropOp34
 70
     1
102
RTVSPost2010Prop35
280
     0
102
RTVSPost2010PropOp35
 70
     1
102
RTVSPost2010Prop36
280
     0
102
RTVSPost2010PropOp36
 70
     1
102
RTVSPost2010Prop37
 90
       50
102
RTVSPost2010PropOp37
 70
     1
102
RTVSPost2010Prop38
140
0.0
102
RTVSPost2010PropOp38
 70
     1
102
RTVSPost2010Prop39
140
1.0
102
RTVSPost2010PropOp39
 70
     1
102
RTVSPost2010Prop40
 90
        0
102
RTVSPost2010PropOp40
 70
     1
102
RTVSPost2010Prop41ColorIndex
 90
       18
102
RTVSPost2010Prop41ColorRGB
 90
        0
102
RTVSPost2010PropOp41
 70
     1
102
RTVSPost2010Prop42
 90
       50
102
RTVSPost2010PropOp42
 70
     1
102
RTVSPost2010Prop43
 90
        3
102
RTVSPost2010PropOp43
 70
     1
102
RTVSPost2010Prop44ColorIndex
 90
        5
102
RTVSPost2010Prop44ColorRGB
 90
      255
102
RTVSPost2010PropOp44
 70
     1
102
RTVSPost2010Prop45
280
     0
102
RTVSPost2010PropOp45
 70
     1
102
RTVSPost2010Prop46
 90
       50
102
RTVSPost2010PropOp46
 70
     1
102
RTVSPost2010Prop47
 90
       50
102
RTVSPost2010PropOp47
 70
     1
102
RTVSPost2010Prop48
 90
       50
102
RTVSPost2010PropOp48
 70
     1
102
RTVSPost2010Prop49
280
     0
102
RTVSPost2010PropOp49
 70
     1
102
RTVSPost2010Prop50
 90
       50
102
RTVSPost2010PropOp50
 70
     1
102
RTVSPost2010Prop51ColorIndex
 90
      256
102
RTVSPost2010Prop51ColorRGB
 90
-16777216
102
RTVSPost2010PropOp51
 70
     0
102
RTVSPost2010Prop52
140
1.0
102
RTVSPost2010PropOp52
 70
     0
102
RTVSPost2010Prop53
 90
        2
102
RTVSPost2010PropOp53
 70
     1
102
RTVSPost2010Prop54
  1
strokes_ogs.tif
102
RTVSPost2010PropOp54
 70
     1
102
RTVSPost2010Prop55
280
     0
102
RTVSPost2010PropOp55
 70
     1
102
RTVSPost2010Prop56
140
1.0
102
RTVSPost2010PropOp56
 70
     1
102
RTVSPost2010Prop57
140
1.0
102
RTVSPost2010PropOp57
 70
     1
  0
XRECORD
  5
FA
102
{ACAD_REACTORS
330
F9
102
}
330
F9
100
AcDbXrecord
280
     1
102
RTVSPost2010Prop28
280
     0
102
RTVSPost2010PropOp28
 70
     1
102
RTVSPost2010Prop29
280
     1
102
RTVSPost2010PropOp29
 70
     1
102
RTVSPost2010Prop30
280
     1
102
RTVSPost2010PropOp30
 70
     1
102
RTVSPost2010Prop31
280
     0
102
RTVSPost2010PropOp31
 70
     1
102
RTVSPost2010Prop32
280
     0
102
RTVSPost2010PropOp32
 70
     1
102
RTVSPost2010Prop33
280
     0
102
RTVSPost2010PropOp33
 70
     1
102
RTVSPost2010Prop34
280
     0
102
RTVSPost2010PropOp34
 70
     1
102
RTVSPost2010Prop35
280
     0
102
RTVSPost2010PropOp35
 70
     1
102
RTVSPost2010Prop36
280
     0
102
RTVSPost2010PropOp36
 70
     1
102
RTVSPost2010Prop37
 90
       50
102
RTVSPost2010PropOp37
 70
     1
102
RTVSPost2010Prop38
140
0.0
102
RTVSPost2010PropOp38
 70
     1
102
RTVSPost2010Prop39
140
1.0
102
RTVSPost2010PropOp39
 70
     1
102
RTVSPost2010Prop40
 90
        0
102
RTVSPost2010PropOp40
 70
     1
102
RTVSPost2010Prop41ColorIndex
 90
       18
102
RTVSPost2010Prop41ColorRGB
 90
        0
102
RTVSPost2010PropOp41
 70
     1
102
RTVSPost2010Prop42
 90
       50
102
RTVSPost2010PropOp42
 70
     1
102
RTVSPost2010Prop43
 90
        3
102
RTVSPost2010PropOp43
 70
     1
102
RTVSPost2010Prop44ColorIndex
 90
        5
102
RTVSPost2010Prop44ColorRGB
 90
      255
102
RTVSPost2010PropOp44
 70
     1
102
RTVSPost2010Prop45
280
     0
102
RTVSPost2010PropOp45
 70
     1
102
RTVSPost2010Prop46
 90
       50
102
RTVSPost2010PropOp46
 70
     1
102
RTVSPost2010Prop47
 90
       50
102
RTVSPost2010PropOp47
 70
     1
102
RTVSPost2010Prop48
 90
       50
102
RTVSPost2010PropOp48
 70
     1
102
RTVSPost2010Prop49
280
     0
102
RTVSPost2010PropOp49
 70
     1
102
RTVSPost2010Prop50
 90
       50
102
RTVSPost2010PropOp50
 70
     1
102
RTVSPost2010Prop51ColorIndex
 90
      256
102
RTVSPost2010Prop51ColorRGB
 90
-16777216
102
RTVSPost2010PropOp51
 70
     0
102
RTVSPost2010Prop52
140
1.0
102
RTVSPost2010PropOp52
 70
     0
102
RTVSPost2010Prop53
 90
        2
102
RTVSPost2010PropOp53
 70
     1
102
RTVSPost2010Prop54
  1
strokes_ogs.tif
102
RTVSPost2010PropOp54
 70
     1
102
RTVSPost2010Prop55
280
     0
102
RTVSPost2010PropOp55
 70
     1
102
RTVSPost2010Prop56
140
1.0
102
RTVSPost2010PropOp56
 70
     1
102
RTVSPost2010Prop57
140
1.0
102
RTVSPost2010PropOp57
 70
     1
  0
XRECORD
  5
F8
102
{ACAD_REACTORS
330
F7
102
}
330
F7
100
AcDbXrecord
280
     1
102
RTVSPost2010Prop28
280
     0
102
RTVSPost2010PropOp28
 70
     1
102
RTVSPost2010Prop29
280
     1
102
RTVSPost2010PropOp29
 70
     1
102
RTVSPost2010Prop30
280
     1
102
RTVSPost2010PropOp30
 70
     1
102
RTVSPost2010Prop31
280
     0
102
RTVSPost2010PropOp31
 70
     1
102
RTVSPost2010Prop32
280
     0
102
RTVSPost2010PropOp32
 70
     1
102
RTVSPost2010Prop33
280
     0
102
RTVSPost2010PropOp33
 70
     1
102
RTVSPost2010Prop34
280
     0
102
RTVSPost2010PropOp34
 70
     1
102
RTVSPost2010Prop35
280
     0
102
RTVSPost2010PropOp35
 70
     1
102
RTVSPost2010Prop36
280
     0
102
RTVSPost2010PropOp36
 70
     1
102
RTVSPost2010Prop37
 90
       50
102
RTVSPost2010PropOp37
 70
     1
102
RTVSPost2010Prop38
140
0.0
102
RTVSPost2010PropOp38
 70
     1
102
RTVSPost2010Prop39
140
1.0
102
RTVSPost2010PropOp39
 70
     1
102
RTVSPost2010Prop40
 90
        0
102
RTVSPost2010PropOp40
 70
     1
102
RTVSPost2010Prop41ColorIndex
 90
       18
102
RTVSPost2010Prop41ColorRGB
 90
        0
102
RTVSPost2010PropOp41
 70
     1
102
RTVSPost2010Prop42
 90
       50
102
RTVSPost2010PropOp42
 70
     1
102
RTVSPost2010Prop43
 90
        3
102
RTVSPost2010PropOp43
 70
     1
102
RTVSPost2010Prop44ColorIndex
 90
        5
102
RTVSPost2010Prop44ColorRGB
 90
      255
102
RTVSPost2010PropOp44
 70
     1
102
RTVSPost2010Prop45
280
     0
102
RTVSPost2010PropOp45
 70
     1
102
RTVSPost2010Prop46
 90
       50
102
RTVSPost2010PropOp46
 70
     1
102
RTVSPost2010Prop47
 90
       50
102
RTVSPost2010PropOp47
 70
     1
102
RTVSPost2010Prop48
 90
       50
102
RTVSPost2010PropOp48
 70
     1
102
RTVSPost2010Prop49
280
     0
102
RTVSPost2010PropOp49
 70
     1
102
RTVSPost2010Prop50
 90
       50
102
RTVSPost2010PropOp50
 70
     1
102
RTVSPost2010Prop51ColorIndex
 90
      256
102
RTVSPost2010Prop51ColorRGB
 90
-16777216
102
RTVSPost2010PropOp51
 70
     0
102
RTVSPost2010Prop52
140
1.0
102
RTVSPost2010PropOp52
 70
     0
102
RTVSPost2010Prop53
 90
        2
102
RTVSPost2010PropOp53
 70
     1
102
RTVSPost2010Prop54
  1
strokes_ogs.tif
102
RTVSPost2010PropOp54
 70
     1
102
RTVSPost2010Prop55
280
     0
102
RTVSPost2010PropOp55
 70
     1
102
RTVSPost2010Prop56
140
1.0
102
RTVSPost2010PropOp56
 70
     1
102
RTVSPost2010Prop57
140
1.0
102
RTVSPost2010PropOp57
 70
     1
  0
XRECORD
  5
F2
102
{ACAD_REACTORS
330
F1
102
}
330
F1
100
AcDbXrecord
280
     1
102
RTVSPost2010Prop28
280
     0
102
RTVSPost2010PropOp28
 70
     1
102
RTVSPost2010Prop29
280
     1
102
RTVSPost2010PropOp29
 70
     1
102
RTVSPost2010Prop30
280
     1
102
RTVSPost2010PropOp30
 70
     1
102
RTVSPost2010Prop31
280
     0
102
RTVSPost2010PropOp31
 70
     1
102
RTVSPost2010Prop32
280
     0
102
RTVSPost2010PropOp32
 70
     1
102
RTVSPost2010Prop33
280
     0
102
RTVSPost2010PropOp33
 70
     1
102
RTVSPost2010Prop34
280
     0
102
RTVSPost2010PropOp34
 70
     1
102
RTVSPost2010Prop35
280
     0
102
RTVSPost2010PropOp35
 70
     1
102
RTVSPost2010Prop36
280
     0
102
RTVSPost2010PropOp36
 70
     1
102
RTVSPost2010Prop37
 90
       50
102
RTVSPost2010PropOp37
 70
     1
102
RTVSPost2010Prop38
140
0.0
102
RTVSPost2010PropOp38
 70
     1
102
RTVSPost2010Prop39
140
1.0
102
RTVSPost2010PropOp39
 70
     1
102
RTVSPost2010Prop40
 90
        0
102
RTVSPost2010PropOp40
 70
     1
102
RTVSPost2010Prop41ColorIndex
 90
       18
102
RTVSPost2010Prop41ColorRGB
 90
        0
102
RTVSPost2010PropOp41
 70
     1
102
RTVSPost2010Prop42
 90
       50
102
RTVSPost2010PropOp42
 70
     1
102
RTVSPost2010Prop43
 90
        3
102
RTVSPost2010PropOp43
 70
     1
102
RTVSPost2010Prop44ColorIndex
 90
        5
102
RTVSPost2010Prop44ColorRGB
 90
      255
102
RTVSPost2010PropOp44
 70
     1
102
RTVSPost2010Prop45
280
     0
102
RTVSPost2010PropOp45
 70
     1
102
RTVSPost2010Prop46
 90
       50
102
RTVSPost2010PropOp46
 70
     1
102
RTVSPost2010Prop47
 90
       50
102
RTVSPost2010PropOp47
 70
     1
102
RTVSPost2010Prop48
 90
       50
102
RTVSPost2010PropOp48
 70
     1
102
RTVSPost2010Prop49
280
     0
102
RTVSPost2010PropOp49
 70
     1
102
RTVSPost2010Prop50
 90
       50
102
RTVSPost2010PropOp50
 70
     1
102
RTVSPost2010Prop51ColorIndex
 90
      256
102
RTVSPost2010Prop51ColorRGB
 90
-16777216
102
RTVSPost2010PropOp51
 70
     0
102
RTVSPost2010Prop52
140
1.0
102
RTVSPost2010PropOp52
 70
     0
102
RTVSPost2010Prop53
 90
        2
102
RTVSPost2010PropOp53
 70
     1
102
RTVSPost2010Prop54
  1
strokes_ogs.tif
102
RTVSPost2010PropOp54
 70
     1
102
RTVSPost2010Prop55
280
     0
102
RTVSPost2010PropOp55
 70
     1
102
RTVSPost2010Prop56
140
1.0
102
RTVSPost2010PropOp56
 70
     1
102
RTVSPost2010Prop57
140
1.0
102
RTVSPost2010PropOp57
 70
     1
  0
XRECORD
  5
F4
102
{ACAD_REACTORS
330
F3
102
}
330
F3
100
AcDbXrecord
280
     1
102
RTVSPost2010Prop28
280
     0
102
RTVSPost2010PropOp28
 70
     1
102
RTVSPost2010Prop29
280
     1
102
RTVSPost2010PropOp29
 70
     1
102
RTVSPost2010Prop30
280
     1
102
RTVSPost2010PropOp30
 70
     1
102
RTVSPost2010Prop31
280
     0
102
RTVSPost2010PropOp31
 70
     1
102
RTVSPost2010Prop32
280
     0
102
RTVSPost2010PropOp32
 70
     1
102
RTVSPost2010Prop33
280
     0
102
RTVSPost2010PropOp33
 70
     1
102
RTVSPost2010Prop34
280
     0
102
RTVSPost2010PropOp34
 70
     1
102
RTVSPost2010Prop35
280
     0
102
RTVSPost2010PropOp35
 70
     1
102
RTVSPost2010Prop36
280
     0
102
RTVSPost2010PropOp36
 70
     1
102
RTVSPost2010Prop37
 90
       50
102
RTVSPost2010PropOp37
 70
     1
102
RTVSPost2010Prop38
140
0.0
102
RTVSPost2010PropOp38
 70
     1
102
RTVSPost2010Prop39
140
1.0
102
RTVSPost2010PropOp39
 70
     1
102
RTVSPost2010Prop40
 90
        0
102
RTVSPost2010PropOp40
 70
     1
102
RTVSPost2010Prop41ColorIndex
 90
       18
102
RTVSPost2010Prop41ColorRGB
 90
        0
102
RTVSPost2010PropOp41
 70
     1
102
RTVSPost2010Prop42
 90
       50
102
RTVSPost2010PropOp42
 70
     1
102
RTVSPost2010Prop43
 90
        3
102
RTVSPost2010PropOp43
 70
     1
102
RTVSPost2010Prop44ColorIndex
 90
        5
102
RTVSPost2010Prop44ColorRGB
 90
      255
102
RTVSPost2010PropOp44
 70
     1
102
RTVSPost2010Prop45
280
     0
102
RTVSPost2010PropOp45
 70
     1
102
RTVSPost2010Prop46
 90
       50
102
RTVSPost2010PropOp46
 70
     1
102
RTVSPost2010Prop47
 90
       50
102
RTVSPost2010PropOp47
 70
     1
102
RTVSPost2010Prop48
 90
       50
102
RTVSPost2010PropOp48
 70
     1
102
RTVSPost2010Prop49
280
     0
102
RTVSPost2010PropOp49
 70
     1
102
RTVSPost2010Prop50
 90
       50
102
RTVSPost2010PropOp50
 70
     1
102
RTVSPost2010Prop51ColorIndex
 90
      256
102
RTVSPost2010Prop51ColorRGB
 90
-16777216
102
RTVSPost2010PropOp51
 70
     0
102
RTVSPost2010Prop52
140
1.0
102
RTVSPost2010PropOp52
 70
     0
102
RTVSPost2010Prop53
 90
        2
102
RTVSPost2010PropOp53
 70
     1
102
RTVSPost2010Prop54
  1
strokes_ogs.tif
102
RTVSPost2010PropOp54
 70
     1
102
RTVSPost2010Prop55
280
     0
102
RTVSPost2010PropOp55
 70
     1
102
RTVSPost2010Prop56
140
1.0
102
RTVSPost2010PropOp56
 70
     1
102
RTVSPost2010Prop57
140
1.0
102
RTVSPost2010PropOp57
 70
     1
  0
XRECORD
  5
EA
102
{ACAD_REACTORS
330
E9
102
}
330
E9
100
AcDbXrecord
280
     1
102
RTVSPost2010Prop28
280
     0
102
RTVSPost2010PropOp28
 70
     1
102
RTVSPost2010Prop29
280
     1
102
RTVSPost2010PropOp29
 70
     1
102
RTVSPost2010Prop30
280
     1
102
RTVSPost2010PropOp30
 70
     1
102
RTVSPost2010Prop31
280
     0
102
RTVSPost2010PropOp31
 70
     1
102
RTVSPost2010Prop32
280
     0
102
RTVSPost2010PropOp32
 70
     1
102
RTVSPost2010Prop33
280
     0
102
RTVSPost2010PropOp33
 70
     1
102
RTVSPost2010Prop34
280
     0
102
RTVSPost2010PropOp34
 70
     1
102
RTVSPost2010Prop35
280
     0
102
RTVSPost2010PropOp35
 70
     1
102
RTVSPost2010Prop36
280
     0
102
RTVSPost2010PropOp36
 70
     1
102
RTVSPost2010Prop37
 90
       50
102
RTVSPost2010PropOp37
 70
     1
102
RTVSPost2010Prop38
140
0.0
102
RTVSPost2010PropOp38
 70
     1
102
RTVSPost2010Prop39
140
1.0
102
RTVSPost2010PropOp39
 70
     1
102
RTVSPost2010Prop40
 90
        0
102
RTVSPost2010PropOp40
 70
     1
102
RTVSPost2010Prop41ColorIndex
 90
       18
102
RTVSPost2010Prop41ColorRGB
 90
        0
102
RTVSPost2010PropOp41
 70
     1
102
RTVSPost2010Prop42
 90
       50
102
RTVSPost2010PropOp42
 70
     1
102
RTVSPost2010Prop43
 90
        3
102
RTVSPost2010PropOp43
 70
     1
102
RTVSPost2010Prop44ColorIndex
 90
        5
102
RTVSPost2010Prop44ColorRGB
 90
      255
102
RTVSPost2010PropOp44
 70
     1
102
RTVSPost2010Prop45
280
     0
102
RTVSPost2010PropOp45
 70
     1
102
RTVSPost2010Prop46
 90
       50
102
RTVSPost2010PropOp46
 70
     1
102
RTVSPost2010Prop47
 90
       50
102
RTVSPost2010PropOp47
 70
     1
102
RTVSPost2010Prop48
 90
       50
102
RTVSPost2010PropOp48
 70
     1
102
RTVSPost2010Prop49
280
     0
102
RTVSPost2010PropOp49
 70
     1
102
RTVSPost2010Prop50
 90
       50
102
RTVSPost2010PropOp50
 70
     1
102
RTVSPost2010Prop51ColorIndex
 90
      256
102
RTVSPost2010Prop51ColorRGB
 90
-16777216
102
RTVSPost2010PropOp51
 70
     0
102
RTVSPost2010Prop52
140
1.0
102
RTVSPost2010PropOp52
 70
     0
102
RTVSPost2010Prop53
 90
        2
102
RTVSPost2010PropOp53
 70
     1
102
RTVSPost2010Prop54
  1
strokes_ogs.tif
102
RTVSPost2010PropOp54
 70
     1
102
RTVSPost2010Prop55
280
     0
102
RTVSPost2010PropOp55
 70
     1
102
RTVSPost2010Prop56
140
1.0
102
RTVSPost2010PropOp56
 70
     1
102
RTVSPost2010Prop57
140
1.0
102
RTVSPost2010PropOp57
 70
     1
  0
XRECORD
  5
DE
102
{ACAD_REACTORS
330
DD
102
}
330
DD
100
AcDbXrecord
280
     1
102
RTVSPost2010Prop28
280
     0
102
RTVSPost2010PropOp28
 70
     1
102
RTVSPost2010Prop29
280
     1
102
RTVSPost2010PropOp29
 70
     1
102
RTVSPost2010Prop30
280
     1
102
RTVSPost2010PropOp30
 70
     1
102
RTVSPost2010Prop31
280
     0
102
RTVSPost2010PropOp31
 70
     1
102
RTVSPost2010Prop32
280
     0
102
RTVSPost2010PropOp32
 70
     1
102
RTVSPost2010Prop33
280
     0
102
RTVSPost2010PropOp33
 70
     1
102
RTVSPost2010Prop34
280
     0
102
RTVSPost2010PropOp34
 70
     1
102
RTVSPost2010Prop35
280
     0
102
RTVSPost2010PropOp35
 70
     1
102
RTVSPost2010Prop36
280
     0
102
RTVSPost2010PropOp36
 70
     1
102
RTVSPost2010Prop37
 90
       50
102
RTVSPost2010PropOp37
 70
     1
102
RTVSPost2010Prop38
140
0.0
102
RTVSPost2010PropOp38
 70
     1
102
RTVSPost2010Prop39
140
1.0
102
RTVSPost2010PropOp39
 70
     1
102
RTVSPost2010Prop40
 90
        0
102
RTVSPost2010PropOp40
 70
     1
102
RTVSPost2010Prop41ColorIndex
 90
       18
102
RTVSPost2010Prop41ColorRGB
 90
        0
102
RTVSPost2010PropOp41
 70
     1
102
RTVSPost2010Prop42
 90
       50
102
RTVSPost2010PropOp42
 70
     1
102
RTVSPost2010Prop43
 90
        3
102
RTVSPost2010PropOp43
 70
     1
102
RTVSPost2010Prop44ColorIndex
 90
        5
102
RTVSPost2010Prop44ColorRGB
 90
      255
102
RTVSPost2010PropOp44
 70
     1
102
RTVSPost2010Prop45
280
     0
102
RTVSPost2010PropOp45
 70
     1
102
RTVSPost2010Prop46
 90
       50
102
RTVSPost2010PropOp46
 70
     1
102
RTVSPost2010Prop47
 90
       50
102
RTVSPost2010PropOp47
 70
     1
102
RTVSPost2010Prop48
 90
       50
102
RTVSPost2010PropOp48
 70
     1
102
RTVSPost2010Prop49
280
     0
102
RTVSPost2010PropOp49
 70
     1
102
RTVSPost2010Prop50
 90
       50
102
RTVSPost2010PropOp50
 70
     1
102
RTVSPost2010Prop51ColorIndex
 90
      256
102
RTVSPost2010Prop51ColorRGB
 90
-16777216
102
RTVSPost2010PropOp51
 70
     0
102
RTVSPost2010Prop52
140
1.0
102
RTVSPost2010PropOp52
 70
     0
102
RTVSPost2010Prop53
 90
        2
102
RTVSPost2010PropOp53
 70
     1
102
RTVSPost2010Prop54
  1
strokes_ogs.tif
102
RTVSPost2010PropOp54
 70
     1
102
RTVSPost2010Prop55
280
     0
102
RTVSPost2010PropOp55
 70
     1
102
RTVSPost2010Prop56
140
1.0
102
RTVSPost2010PropOp56
 70
     1
102
RTVSPost2010Prop57
140
1.0
102
RTVSPost2010PropOp57
 70
     1
  0
XRECORD
  5
F6
102
{ACAD_REACTORS
330
F5
102
}
330
F5
100
AcDbXrecord
280
     1
102
RTVSPost2010Prop28
280
     0
102
RTVSPost2010PropOp28
 70
     1
102
RTVSPost2010Prop29
280
     1
102
RTVSPost2010PropOp29
 70
     1
102
RTVSPost2010Prop30
280
     1
102
RTVSPost2010PropOp30
 70
     1
102
RTVSPost2010Prop31
280
     0
102
RTVSPost2010PropOp31
 70
     1
102
RTVSPost2010Prop32
280
     0
102
RTVSPost2010PropOp32
 70
     1
102
RTVSPost2010Prop33
280
     0
102
RTVSPost2010PropOp33
 70
     1
102
RTVSPost2010Prop34
280
     0
102
RTVSPost2010PropOp34
 70
     1
102
RTVSPost2010Prop35
280
     0
102
RTVSPost2010PropOp35
 70
     1
102
RTVSPost2010Prop36
280
     0
102
RTVSPost2010PropOp36
 70
     1
102
RTVSPost2010Prop37
 90
       50
102
RTVSPost2010PropOp37
 70
     1
102
RTVSPost2010Prop38
140
0.0
102
RTVSPost2010PropOp38
 70
     1
102
RTVSPost2010Prop39
140
1.0
102
RTVSPost2010PropOp39
 70
     1
102
RTVSPost2010Prop40
 90
        0
102
RTVSPost2010PropOp40
 70
     1
102
RTVSPost2010Prop41ColorIndex
 90
       18
102
RTVSPost2010Prop41ColorRGB
 90
        0
102
RTVSPost2010PropOp41
 70
     1
102
RTVSPost2010Prop42
 90
       50
102
RTVSPost2010PropOp42
 70
     1
102
RTVSPost2010Prop43
 90
        3
102
RTVSPost2010PropOp43
 70
     1
102
RTVSPost2010Prop44ColorIndex
 90
        5
102
RTVSPost2010Prop44ColorRGB
 90
      255
102
RTVSPost2010PropOp44
 70
     1
102
RTVSPost2010Prop45
280
     0
102
RTVSPost2010PropOp45
 70
     1
102
RTVSPost2010Prop46
 90
       50
102
RTVSPost2010PropOp46
 70
     1
102
RTVSPost2010Prop47
 90
       50
102
RTVSPost2010PropOp47
 70
     1
102
RTVSPost2010Prop48
 90
       50
102
RTVSPost2010PropOp48
 70
     1
102
RTVSPost2010Prop49
280
     0
102
RTVSPost2010PropOp49
 70
     1
102
RTVSPost2010Prop50
 90
       50
102
RTVSPost2010PropOp50
 70
     1
102
RTVSPost2010Prop51ColorIndex
 90
      256
102
RTVSPost2010Prop51ColorRGB
 90
-16777216
102
RTVSPost2010PropOp51
 70
     0
102
RTVSPost2010Prop52
140
1.0
102
RTVSPost2010PropOp52
 70
     0
102
RTVSPost2010Prop53
 90
        2
102
RTVSPost2010PropOp53
 70
     1
102
RTVSPost2010Prop54
  1
strokes_ogs.tif
102
RTVSPost2010PropOp54
 70
     1
102
RTVSPost2010Prop55
280
     0
102
RTVSPost2010PropOp55
 70
     1
102
RTVSPost2010Prop56
140
1.0
102
RTVSPost2010PropOp56
 70
     1
102
RTVSPost2010Prop57
140
1.0
102
RTVSPost2010PropOp57
 70
     1
  0
ENDSEC
  0
EOF
