  0
SECTION
  2
HEADER
  9
$ACADVER
  1
AC1024
  9
$ACADMAINTVER
 70
     6
  9
$DWGCODEPAGE
  3
UNDEFINED
  9
$INSBASE
 10
0.0
 20
0.0
 30
0.0
  9
$EXTMIN
 10
1.000000000000000E+20
 20
1.000000000000000E+20
 30
1.000000000000000E+20
  9
$EXTMAX
 10
-1.000000000000000E+20
 20
-1.000000000000000E+20
 30
-1.000000000000000E+20
  9
$LIMMIN
 10
0.0
 20
0.0
  9
$LIMMAX
 10
12.0
 20
9.0
  9
$ORTHOMODE
 70
     0
  9
$REGENMODE
 70
     1
  9
$FILLMODE
 70
     1
  9
$QTEXTMODE
 70
     0
  9
$MIRRTEXT
 70
     1
  9
$LTSCALE
 40
1.0
  9
$ATTMODE
 70
     1
  9
$TEXTSIZE
 40
0.2
  9
$TRACEWID
 40
0.05
  9
$TEXTSTYLE
  7
Standard
  9
$CLAYER
  8
0
  9
$CELTYPE
  6
ByLayer
  9
$CECOLOR
 62
   256
  9
$CELTSCALE
 40
1.0
  9
$DISPSILH
 70
     0
  9
$DIMSCALE
 40
1.0
  9
$DIMASZ
 40
0.18
  9
$DIMEXO
 40
0.0625
  9
$DIMDLI
 40
0.38
  9
$DIMRND
 40
0.0
  9
$DIMDLE
 40
0.0
  9
$DIMEXE
 40
0.18
  9
$DIMTP
 40
0.0
  9
$DIMTM
 40
0.0
  9
$DIMTXT
 40
0.18
  9
$DIMCEN
 40
0.09
  9
$DIMTSZ
 40
0.0
  9
$DIMTOL
 70
     0
  9
$DIMLIM
 70
     0
  9
$DIMTIH
 70
     1
  9
$DIMTOH
 70
     1
  9
$DIMSE1
 70
     0
  9
$DIMSE2
 70
     0
  9
$DIMTAD
 70
     0
  9
$DIMZIN
 70
     0
  9
$DIMBLK
  1

  9
$DIMASO
 70
     1
  9
$DIMSHO
 70
     1
  9
$DIMPOST
  1

  9
$DIMAPOST
  1

  9
$DIMALT
 70
     0
  9
$DIMALTD
 70
     2
  9
$DIMALTF
 40
25.4
  9
$DIMLFAC
 40
1.0
  9
$DIMTOFL
 70
     0
  9
$DIMTVP
 40
0.0
  9
$DIMTIX
 70
     0
  9
$DIMSOXD
 70
     0
  9
$DIMSAH
 70
     0
  9
$DIMBLK1
  1

  9
$DIMBLK2
  1

  9
$DIMSTYLE
  2
Standard
  9
$DIMCLRD
 70
     0
  9
$DIMCLRE
 70
     0
  9
$DIMCLRT
 70
     0
  9
$DIMTFAC
 40
1.0
  9
$DIMGAP
 40
0.09
  9
$DIMJUST
 70
     0
  9
$DIMSD1
 70
     0
  9
$DIMSD2
 70
     0
  9
$DIMTOLJ
 70
     1
  9
$DIMTZIN
 70
     0
  9
$DIMALTZ
 70
     0
  9
$DIMALTTZ
 70
     0
  9
$DIMUPT
 70
     0
  9
$DIMDEC
 70
     4
  9
$DIMTDEC
 70
     4
  9
$DIMALTU
 70
     2
  9
$DIMALTTD
 70
     2
  9
$DIMTXSTY
  7
Standard
  9
$DIMAUNIT
 70
     0
  9
$DIMADEC
 70
     0
  9
$DIMALTRND
 40
0.0
  9
$DIMAZIN
 70
     0
  9
$DIMDSEP
 70
    46
  9
$DIMATFIT
 70
     3
  9
$DIMFRAC
 70
     0
  9
$DIMLDRBLK
  1

  9
$DIMLUNIT
 70
     2
  9
$DIMLWD
 70
    -2
  9
$DIMLWE
 70
    -2
  9
$DIMTMOVE
 70
     0
  9
$DIMFXL
 40
1.0
  9
$DIMFXLON
 70
     0
  9
$DIMJOGANG
 40
0.7853981633974483
  9
$DIMTFILL
 70
     0
  9
$DIMTFILLCLR
 70
     0
  9
$DIMARCSYM
 70
     0
  9
$DIMLTYPE
  6

  9
$DIMLTEX1
  6

  9
$DIMLTEX2
  6

  9
$DIMTXTDIRECTION
 70
     0
  9
$LUNITS
 70
     2
  9
$LUPREC
 70
     4
  9
$SKETCHINC
 40
0.1
  9
$FILLETRAD
 40
0.5
  9
$AUNITS
 70
     0
  9
$AUPREC
 70
     0
  9
$MENU
  1
.
  9
$ELEVATION
 40
0.0
  9
$PELEVATION
 40
0.0
  9
$THICKNESS
 40
0.0
  9
$LIMCHECK
 70
     0
  9
$CHAMFERA
 40
0.5
  9
$CHAMFERB
 40
0.5
  9
$CHAMFERC
 40
1.0
  9
$CHAMFERD
 40
0.0
  9
$SKPOLY
 70
     0
  9
$TDCREATE
 40
2457917.585949062
  9
$TDUCREATE
 40
2457917.210949074
  9
$TDUPDATE
 40
2457917.585949062
  9
$TDUUPDATE
 40
2457917.210949074
  9
$TDINDWG
 40
0.0000000116
  9
$TDUSRTIMER
 40
0.0000000116
  9
$USRTIMER
 70
     1
  9
$ANGBASE
 50
0.0
  9
$ANGDIR
 70
     0
  9
$PDMODE
 70
     0
  9
$PDSIZE
 40
0.0
  9
$PLINEWID
 40
0.0
  9
$SPLFRAME
 70
     0
  9
$SPLINETYPE
 70
     6
  9
$SPLINESEGS
 70
     8
  9
$HANDSEED
  5
181
  9
$SURFTAB1
 70
     6
  9
$SURFTAB2
 70
     6
  9
$SURFTYPE
 70
     6
  9
$SURFU
 70
     6
  9
$SURFV
 70
     6
  9
$UCSBASE
  2

  9
$UCSNAME
  2

  9
$UCSORG
 10
0.0
 20
0.0
 30
0.0
  9
$UCSXDIR
 10
1.0
 20
0.0
 30
0.0
  9
$UCSYDIR
 10
0.0
 20
1.0
 30
0.0
  9
$UCSORTHOREF
  2

  9
$UCSORTHOVIEW
 70
     0
  9
$UCSORGTOP
 10
0.0
 20
0.0
 30
0.0
  9
$UCSORGBOTTOM
 10
0.0
 20
0.0
 30
0.0
  9
$UCSORGLEFT
 10
0.0
 20
0.0
 30
0.0
  9
$UCSORGRIGHT
 10
0.0
 20
0.0
 30
0.0
  9
$UCSORGFRONT
 10
0.0
 20
0.0
 30
0.0
  9
$UCSORGBACK
 10
0.0
 20
0.0
 30
0.0
  9
$PUCSBASE
  2

  9
$PUCSNAME
  2

  9
$PUCSORG
 10
0.0
 20
0.0
 30
0.0
  9
$PUCSXDIR
 10
1.0
 20
0.0
 30
0.0
  9
$PUCSYDIR
 10
0.0
 20
1.0
 30
0.0
  9
$PUCSORTHOREF
  2

  9
$PUCSORTHOVIEW
 70
     0
  9
$PUCSORGTOP
 10
0.0
 20
0.0
 30
0.0
  9
$PUCSORGBOTTOM
 10
0.0
 20
0.0
 30
0.0
  9
$PUCSORGLEFT
 10
0.0
 20
0.0
 30
0.0
  9
$PUCSORGRIGHT
 10
0.0
 20
0.0
 30
0.0
  9
$PUCSORGFRONT
 10
0.0
 20
0.0
 30
0.0
  9
$PUCSORGBACK
 10
0.0
 20
0.0
 30
0.0
  9
$USERI1
 70
     0
  9
$USERI2
 70
     0
  9
$USERI3
 70
     0
  9
$USERI4
 70
     0
  9
$USERI5
 70
     0
  9
$USERR1
 40
0.0
  9
$USERR2
 40
0.0
  9
$USERR3
 40
0.0
  9
$USERR4
 40
0.0
  9
$USERR5
 40
0.0
  9
$WORLDVIEW
 70
     1
  9
$SHADEDGE
 70
     3
  9
$SHADEDIF
 70
    70
  9
$TILEMODE
 70
     1
  9
$MAXACTVP
 70
    64
  9
$PINSBASE
 10
0.0
 20
0.0
 30
0.0
  9
$PLIMCHECK
 70
     0
  9
$PEXTMIN
 10
1.000000000000000E+20
 20
1.000000000000000E+20
 30
1.000000000000000E+20
  9
$PEXTMAX
 10
-1.000000000000000E+20
 20
-1.000000000000000E+20
 30
-1.000000000000000E+20
  9
$PLIMMIN
 10
0.0
 20
0.0
  9
$PLIMMAX
 10
12.0
 20
9.0
  9
$UNITMODE
 70
     0
  9
$VISRETAIN
 70
     1
  9
$PLINEGEN
 70
     0
  9
$PSLTSCALE
 70
     1
  9
$TREEDEPTH
 70
  3020
  9
$CMLSTYLE
  2
Standard
  9
$CMLJUST
 70
     0
  9
$CMLSCALE
 40
1.0
  9
$PROXYGRAPHICS
 70
     1
  9
$MEASUREMENT
 70
     0
  9
$CELWEIGHT
370
    -1
  9
$ENDCAPS
280
     0
  9
$JOINSTYLE
280
     0
  9
$LWDISPLAY
290
     1
  9
$INSUNITS
 70
     1
  9
$HYPERLINKBASE
  1

  9
$STYLESHEET
  1

  9
$XEDIT
290
     1
  9
$CEPSNTYPE
380
     0
  9
$PSTYLEMODE
290
     1
  9
$FINGERPRINTGUID
  2
{DE4AD1D3-D00B-0747-730B-CF2B940443AA}
  9
$VERSIONGUID
  2
{FAEB1C32-E019-11D5-929B-00C0DF256EC4}
  9
$EXTNAMES
290
     1
  9
$PSVPSCALE
 40
0.0
  9
$OLESTARTUP
290
     0
  9
$SORTENTS
280
   127
  9
$INDEXCTL
280
     0
  9
$HIDETEXT
280
     1
  9
$XCLIPFRAME
280
     2
  9
$HALOGAP
280
     0
  9
$OBSCOLOR
 70
   257
  9
$OBSLTYPE
280
     0
  9
$INTERSECTIONDISPLAY
280
     0
  9
$INTERSECTIONCOLOR
 70
   257
  9
$DIMASSOC
280
     2
  9
$PROJECTNAME
  1

  9
$CAMERADISPLAY
290
     0
  9
$LENSLENGTH
 40
50.0
  9
$CAMERAHEIGHT
 40
0.0
  9
$STEPSPERSEC
 40
2.0
  9
$STEPSIZE
 40
6.0
  9
$3DDWFPREC
 40
2.0
  9
$PSOLWIDTH
 40
0.25
  9
$PSOLHEIGHT
 40
4.0
  9
$LOFTANG1
 40
1.570796326794897
  9
$LOFTANG2
 40
1.570796326794897
  9
$LOFTMAG1
 40
0.0
  9
$LOFTMAG2
 40
0.0
  9
$LOFTPARAM
 70
     7
  9
$LOFTNORMALS
280
     1
  9
$LATITUDE
 40
37.795
  9
$LONGITUDE
 40
-122.394
  9
$NORTHDIRECTION
 40
0.0
  9
$TIMEZONE
 70
 -8000
  9
$LIGHTGLYPHDISPLAY
280
     1
  9
$TILEMODELIGHTSYNCH
280
     1
  9
$CMATERIAL
347
3C
  9
$SOLIDHIST
280
     1
  9
$SHOWHIST
280
     1
  9
$DWFFRAME
280
     2
  9
$DGNFRAME
280
     2
  9
$REALWORLDSCALE
290
     1
  9
$INTERFERECOLOR
 62
   256
  9
$CSHADOW
280
     0
  9
$SHADOWPLANELOCATION
 40
0.0
  0
ENDSEC
  0
SECTION
  2
CLASSES
  0
CLASS
  1
ACDBDICTIONARYWDFLT
  2
AcDbDictionaryWithDefault
  3
ObjectDBX Classes
 90
        0
 91
        4
280
     0
281
     0
  0
CLASS
  1
VISUALSTYLE
  2
AcDbVisualStyle
  3
ObjectDBX Classes
 90
     4095
 91
        4
280
     0
281
     0
  0
CLASS
  1
MATERIAL
  2
AcDbMaterial
  3
ObjectDBX Classes
 90
     1153
 91
        4
280
     0
281
     0
  0
CLASS
  1
SUN
  2
AcDbSun
  3
SCENEOE
 90
     1024
 91
        4
280
     0
281
     0
  0
ENDSEC
  0
SECTION
  2
TABLES
  0
TABLE
  2
VPORT
  5
8
330
0
100
AcDbSymbolTable
 70
     1
  0
VPORT
  5
29
330
8
100
AcDbSymbolTableRecord
100
AcDbViewportTableRecord
  2
*Active
 70
     0
 10
0.0
 20
0.0
 11
1.0
 21
1.0
 12
0.0
 22
0.0
 13
0.0
 23
0.0
 14
0.5
 24
0.5
 15
0.5
 25
0.5
 16
0.0
 26
0.0
 36
1.0
 17
91.00082462281999
 27
-128.4993055234307
 37
0.0
 40
256.9986110468615
 41
0.7081814508812795
 42
50.0
 43
0.0
 44
0.0
 50
0.0
 51
0.0
 71
     0
 72
   100
 73
     1
 74
     3
 75
     0
 76
     0
 77
     0
 78
     0
281
     0
 65
     1
110
0.0
120
0.0
130
0.0
111
1.0
121
0.0
131
0.0
112
0.0
122
1.0
132
0.0
 79
     0
146
0.0
 60
     3
 61
     5
292
     1
282
     1
141
0.0
142
0.0
 63
   250
361
3F
  0
ENDTAB
  0
TABLE
  2
LTYPE
  5
5
330
0
100
AcDbSymbolTable
 70
     3
  0
LTYPE
  5
14
330
5
100
AcDbSymbolTableRecord
100
AcDbLinetypeTableRecord
  2
ByBlock
 70
     0
  3

 72
    65
 73
     0
 40
0.0
  0
LTYPE
  5
15
330
5
100
AcDbSymbolTableRecord
100
AcDbLinetypeTableRecord
  2
ByLayer
 70
     0
  3

 72
    65
 73
     0
 40
0.0
  0
LTYPE
  5
16
330
5
100
AcDbSymbolTableRecord
100
AcDbLinetypeTableRecord
  2
Continuous
 70
     0
  3
Solid line
 72
    65
 73
     0
 40
0.0
  0
LTYPE
  5
129
330
5
100
AcDbSymbolTableRecord
100
AcDbLinetypeTableRecord
  2
AI-Linetype-1
 70
     0
  3
Adobe Illustrator Linetype No. 1
 72
    65
 73
     2
 40
1.411111110758333
 49
0.7055555553791667
 74
     0
 49
-0.7055555553791667
 74
     0
  0
LTYPE
  5
12E
330
5
100
AcDbSymbolTableRecord
100
AcDbLinetypeTableRecord
  2
AI-Linetype-2
 70
     0
  3
Adobe Illustrator Linetype No. 2
 72
    65
 73
     2
 40
1.411111110758333
 49
0.7055555553791667
 74
     0
 49
-0.7055555553791667
 74
     0
  0
ENDTAB
  0
TABLE
  2
LAYER
  5
2
330
0
100
AcDbSymbolTable
 70
     2
  0
LAYER
  5
10
330
2
100
AcDbSymbolTableRecord
100
AcDbLayerTableRecord
  2
0
 70
     0
 62
     7
  6
Continuous
370
    -3
390
F
347
3E
  0
LAYER
  5
40
330
2
100
AcDbSymbolTableRecord
100
AcDbLayerTableRecord
  2
_U+30EC_U+30A4_U+30E4_U+30FC 1
 70
     0
 62
     7
  6
Continuous
370
    -3
390
F
347
3E
  0
ENDTAB
  0
TABLE
  2
STYLE
  5
3
330
0
100
AcDbSymbolTable
 70
     1
  0
STYLE
  5
11
330
3
100
AcDbSymbolTableRecord
100
AcDbTextStyleTableRecord
  2
Standard
 70
     0
 40
0.0
 41
1.0
 50
0.0
 71
     0
 42
0.2
  3
txt
  4

  0
ENDTAB
  0
TABLE
  2
VIEW
  5
6
330
0
100
AcDbSymbolTable
 70
     0
  0
ENDTAB
  0
TABLE
  2
UCS
  5
7
330
0
100
AcDbSymbolTable
 70
     0
  0
ENDTAB
  0
TABLE
  2
APPID
  5
9
330
0
100
AcDbSymbolTable
 70
     1
  0
APPID
  5
12
330
9
100
AcDbSymbolTableRecord
100
AcDbRegAppTableRecord
  2
ACAD
 70
     0
  0
ENDTAB
  0
TABLE
  2
DIMSTYLE
  5
A
330
0
100
AcDbSymbolTable
 70
     1
100
AcDbDimStyleTable
  0
DIMSTYLE
105
27
330
A
100
AcDbSymbolTableRecord
100
AcDbDimStyleTableRecord
  2
Standard
 70
     0
178
     0
340
11
  0
ENDTAB
  0
TABLE
  2
BLOCK_RECORD
  5
1
330
0
100
AcDbSymbolTable
 70
     7
  0
BLOCK_RECORD
  5
1F
330
1
100
AcDbSymbolTableRecord
100
AcDbBlockTableRecord
  2
*Model_Space
340
22
 70
     0
280
     1
281
     0
  0
BLOCK_RECORD
  5
1B
330
1
100
AcDbSymbolTableRecord
100
AcDbBlockTableRecord
  2
*Paper_Space
340
1E
 70
     0
280
     1
281
     0
  0
BLOCK_RECORD
  5
23
330
1
100
AcDbSymbolTableRecord
100
AcDbBlockTableRecord
  2
*Paper_Space0
340
26
 70
     0
280
     1
281
     0
  0
BLOCK_RECORD
  5
41
330
1
100
AcDbSymbolTableRecord
100
AcDbBlockTableRecord
  2
block 2
340
0
102
{BLKREFS
331
42
102
}
 70
     0
280
     1
281
     0
  0
BLOCK_RECORD
  5
59
330
1
100
AcDbSymbolTableRecord
100
AcDbBlockTableRecord
  2
block 3
340
0
102
{BLKREFS
331
5A
102
}
 70
     0
280
     1
281
     0
  0
BLOCK_RECORD
  5
B3
330
1
100
AcDbSymbolTableRecord
100
AcDbBlockTableRecord
  2
block 4
340
0
102
{BLKREFS
331
B4
102
}
 70
     0
280
     1
281
     0
  0
BLOCK_RECORD
  5
CD
330
1
100
AcDbSymbolTableRecord
100
AcDbBlockTableRecord
  2
block 5
340
0
102
{BLKREFS
331
CE
102
}
 70
     0
280
     1
281
     0
  0
BLOCK_RECORD
  5
FE
330
1
100
AcDbSymbolTableRecord
100
AcDbBlockTableRecord
  2
block 6
340
0
102
{BLKREFS
331
FF
102
}
 70
     0
280
     1
281
     0
  0
BLOCK_RECORD
  5
130
330
1
100
AcDbSymbolTableRecord
100
AcDbBlockTableRecord
  2
block 7
340
0
102
{BLKREFS
331
131
102
}
 70
     0
280
     1
281
     0
  0
ENDTAB
  0
ENDSEC
  0
SECTION
  2
BLOCKS
  0
BLOCK
  5
20
330
1F
100
AcDbEntity
  8
0
100
AcDbBlockBegin
  2
*Model_Space
 70
     0
 10
0.0
 20
0.0
 30
0.0
  3
*Model_Space
  1

  0
ENDBLK
  5
21
330
1F
100
AcDbEntity
  8
0
100
AcDbBlockEnd
  0
BLOCK
  5
1C
330
1B
100
AcDbEntity
 67
     1
  8
0
100
AcDbBlockBegin
  2
*Paper_Space
 70
     0
 10
0.0
 20
0.0
 30
0.0
  3
*Paper_Space
  1

  0
ENDBLK
  5
1D
330
1B
100
AcDbEntity
 67
     1
  8
0
100
AcDbBlockEnd
  0
BLOCK
  5
24
330
23
100
AcDbEntity
  8
0
100
AcDbBlockBegin
  2
*Paper_Space0
 70
     0
 10
0.0
 20
0.0
 30
0.0
  3
*Paper_Space0
  1

  0
ENDBLK
  5
25
330
23
100
AcDbEntity
  8
0
100
AcDbBlockEnd
  0
BLOCK
  5
43
330
41
100
AcDbEntity
  8
0
100
AcDbBlockBegin
  2
block 2
 70
     0
 10
0.0
 20
0.0
 30
0.0
  3
block 2
  1

  0
POLYLINE
  5
45
330
41
100
AcDbEntity
  8
_U+30EC_U+30A4_U+30E4_U+30FC 1
 62
   179
420
  2234388
370
     9
100
AcDb2dPolyline
 66
     1
 10
0.0
 20
0.0
 30
0.0
  0
VERTEX
  5
46
330
45
100
AcDbEntity
  8
_U+30EC_U+30A4_U+30E4_U+30FC 1
 62
   179
420
  2234388
370
     9
100
AcDbVertex
100
AcDb2dVertex
 10
78.37797744485566
 20
-120.2824055254848
 30
0.0
  0
VERTEX
  5
47
330
45
100
AcDbEntity
  8
_U+30EC_U+30A4_U+30E4_U+30FC 1
 62
   179
420
  2234388
370
     9
100
AcDbVertex
100
AcDb2dVertex
 10
78.37797744485566
 20
-126.1645516351256
 30
0.0
  0
SEQEND
  5
48
330
45
100
AcDbEntity
  8
_U+30EC_U+30A4_U+30E4_U+30FC 1
 62
   179
420
  2234388
370
     9
  0
POLYLINE
  5
49
330
41
100
AcDbEntity
  8
_U+30EC_U+30A4_U+30E4_U+30FC 1
 62
   179
420
  2234388
370
    25
100
AcDb2dPolyline
 66
     1
 10
0.0
 20
0.0
 30
0.0
  0
VERTEX
  5
4A
330
49
100
AcDbEntity
  8
_U+30EC_U+30A4_U+30E4_U+30FC 1
 62
   179
420
  2234388
370
    25
100
AcDbVertex
100
AcDb2dVertex
 10
74.20253505138007
 20
-129.3674563565471
 30
0.0
  0
VERTEX
  5
4B
330
49
100
AcDbEntity
  8
_U+30EC_U+30A4_U+30E4_U+30FC 1
 62
   179
420
  2234388
370
    25
100
AcDbVertex
100
AcDb2dVertex
 10
74.57323393081164
 20
-130.5091863562615
 30
0.0
  0
SEQEND
  5
4C
330
49
100
AcDbEntity
  8
_U+30EC_U+30A4_U+30E4_U+30FC 1
 62
   179
420
  2234388
370
    25
  0
POLYLINE
  5
4D
330
41
100
AcDbEntity
  8
_U+30EC_U+30A4_U+30E4_U+30FC 1
 62
   179
420
  2234388
370
     9
100
AcDb2dPolyline
 66
     1
 10
0.0
 20
0.0
 30
0.0
  0
VERTEX
  5
4E
330
4D
100
AcDbEntity
  8
_U+30EC_U+30A4_U+30E4_U+30FC 1
 62
   179
420
  2234388
370
     9
100
AcDbVertex
100
AcDb2dVertex
 10
78.04724828662658
 20
-124.9296530243232
 30
0.0
  0
VERTEX
  5
4F
330
4D
100
AcDbEntity
  8
_U+30EC_U+30A4_U+30E4_U+30FC 1
 62
   179
420
  2234388
370
     9
100
AcDbVertex
100
AcDb2dVertex
 10
78.37797744485566
 20
-126.1645516351256
 30
0.0
  0
SEQEND
  5
50
330
4D
100
AcDbEntity
  8
_U+30EC_U+30A4_U+30E4_U+30FC 1
 62
   179
420
  2234388
370
     9
  0
POLYLINE
  5
51
330
41
100
AcDbEntity
  8
_U+30EC_U+30A4_U+30E4_U+30FC 1
 62
   179
420
  2234388
370
     9
100
AcDb2dPolyline
 66
     1
 10
0.0
 20
0.0
 30
0.0
  0
VERTEX
  5
52
330
51
100
AcDbEntity
  8
_U+30EC_U+30A4_U+30E4_U+30FC 1
 62
   179
420
  2234388
370
     9
100
AcDbVertex
100
AcDb2dVertex
 10
78.70870660308472
 20
-124.9296530243232
 30
0.0
  0
VERTEX
  5
53
330
51
100
AcDbEntity
  8
_U+30EC_U+30A4_U+30E4_U+30FC 1
 62
   179
420
  2234388
370
     9
100
AcDbVertex
100
AcDb2dVertex
 10
78.37797744485566
 20
-126.1645516351256
 30
0.0
  0
SEQEND
  5
54
330
51
100
AcDbEntity
  8
_U+30EC_U+30A4_U+30E4_U+30FC 1
 62
   179
420
  2234388
370
     9
  0
SPLINE
  5
55
330
41
100
AcDbEntity
  8
_U+30EC_U+30A4_U+30E4_U+30FC 1
 62
   179
420
  2234388
370
     9
100
AcDbSpline
210
0.0
220
0.0
230
1.0
 70
    11
 71
     3
 72
    17
 73
    13
 74
     0
 42
0.0000000001
 43
0.0000000001
 12
1.0
 22
0.0
 32
0.0
 13
1.0
 23
0.0
 33
0.0
 40
0.0
 40
0.0
 40
0.0
 40
0.0
 40
1.0
 40
1.0
 40
1.0
 40
2.0
 40
2.0
 40
2.0
 40
3.0
 40
3.0
 40
3.0
 40
4.0
 40
4.0
 40
4.0
 40
4.0
 10
76.3729297182309
 20
-123.1134119136661
 30
0.0
 10
76.3729297182309
 20
-123.0421155247952
 30
0.0
 10
76.31574444191205
 20
-122.9849302470315
 30
0.0
 10
76.24547111037154
 20
-122.9849302470315
 30
0.0
 10
76.17519777883102
 20
-122.9849302470315
 30
0.0
 10
76.11730694697461
 20
-123.0421155247952
 30
0.0
 10
76.11730694697461
 20
-123.1134119136661
 30
0.0
 10
76.11730694697461
 20
-123.1838616358707
 30
0.0
 10
76.17519777883102
 20
-123.2410469136341
 30
0.0
 10
76.24547111037154
 20
-123.2410469136341
 30
0.0
 10
76.31574444191205
 20
-123.2410469136341
 30
0.0
 10
76.3729297182309
 20
-123.1838616358707
 30
0.0
 10
76.3729297182309
 20
-123.1134119136661
 30
0.0
  0
HATCH
  5
56
330
41
100
AcDbEntity
  8
_U+30EC_U+30A4_U+30E4_U+30FC 1
 62
   179
420
  2234388
100
AcDbHatch
 10
0.0
 20
0.0
 30
0.0
210
0.0
220
0.0
230
1.0
  2
SOLID
 70
     1
 71
     0
 91
        1
 92
        1
 93
        1
 72
     4
 94
        3
 73
     0
 74
     1
 95
       17
 96
       13
 40
0.0
 40
0.0
 40
0.0
 40
0.0
 40
1.0
 40
1.0
 40
1.0
 40
2.0
 40
2.0
 40
2.0
 40
3.0
 40
3.0
 40
3.0
 40
4.0
 40
4.0
 40
4.0
 40
4.0
 10
76.3729297182309
 20
-123.1134119136661
 10
76.3729297182309
 20
-123.0421155247952
 10
76.31574444191205
 20
-122.9849302470315
 10
76.24547111037154
 20
-122.9849302470315
 10
76.17519777883102
 20
-122.9849302470315
 10
76.11730694697461
 20
-123.0421155247952
 10
76.11730694697461
 20
-123.1134119136661
 10
76.11730694697461
 20
-123.1838616358707
 10
76.17519777883102
 20
-123.2410469136341
 10
76.24547111037154
 20
-123.2410469136341
 10
76.31574444191205
 20
-123.2410469136341
 10
76.3729297182309
 20
-123.1838616358707
 10
76.3729297182309
 20
-123.1134119136661
 97
        0
 97
        0
 75
     2
 76
     1
 98
        0
  0
SPLINE
  5
57
330
41
100
AcDbEntity
  8
_U+30EC_U+30A4_U+30E4_U+30FC 1
 62
   179
420
  2234388
370
     9
100
AcDbSpline
210
0.0
220
0.0
230
1.0
 70
    11
 71
     3
 72
    17
 73
    13
 74
     0
 42
0.0000000001
 43
0.0000000001
 12
1.0
 22
0.0
 32
0.0
 13
1.0
 23
0.0
 33
0.0
 40
0.0
 40
0.0
 40
0.0
 40
0.0
 40
1.0
 40
1.0
 40
1.0
 40
2.0
 40
2.0
 40
2.0
 40
3.0
 40
3.0
 40
3.0
 40
4.0
 40
4.0
 40
4.0
 40
4.0
 10
52.50860727150494
 20
-130.6996863562142
 30
0.0
 10
52.50860727150494
 20
-130.6290602451204
 30
0.0
 10
52.45071643964852
 20
-130.571874967357
 30
0.0
 10
52.38044443134918
 20
-130.571874967357
 30
0.0
 10
52.3101697765675
 20
-130.571874967357
 30
0.0
 10
52.25298450024864
 20
-130.6290602451204
 30
0.0
 10
52.25298450024864
 20
-130.6996863562142
 30
0.0
 10
52.25298450024864
 20
-130.7703124673074
 30
0.0
 10
52.3101697765675
 20
-130.8274977450708
 30
0.0
 10
52.38044443134918
 20
-130.8274977450708
 30
0.0
 10
52.45071643964852
 20
-130.8274977450708
 30
0.0
 10
52.50860727150494
 20
-130.7703124673074
 30
0.0
 10
52.50860727150494
 20
-130.6996863562142
 30
0.0
  0
HATCH
  5
58
330
41
100
AcDbEntity
  8
_U+30EC_U+30A4_U+30E4_U+30FC 1
 62
   179
420
  2234388
100
AcDbHatch
 10
0.0
 20
0.0
 30
0.0
210
0.0
220
0.0
230
1.0
  2
SOLID
 70
     1
 71
     0
 91
        1
 92
        1
 93
        1
 72
     4
 94
        3
 73
     0
 74
     1
 95
       17
 96
       13
 40
0.0
 40
0.0
 40
0.0
 40
0.0
 40
1.0
 40
1.0
 40
1.0
 40
2.0
 40
2.0
 40
2.0
 40
3.0
 40
3.0
 40
3.0
 40
4.0
 40
4.0
 40
4.0
 40
4.0
 10
52.50860727150494
 20
-130.6996863562142
 10
52.50860727150494
 20
-130.6290602451204
 10
52.45071643964852
 20
-130.571874967357
 10
52.38044443134918
 20
-130.571874967357
 10
52.3101697765675
 20
-130.571874967357
 10
52.25298450024864
 20
-130.6290602451204
 10
52.25298450024864
 20
-130.6996863562142
 10
52.25298450024864
 20
-130.7703124673074
 10
52.3101697765675
 20
-130.8274977450708
 10
52.38044443134918
 20
-130.8274977450708
 10
52.45071643964852
 20
-130.8274977450708
 10
52.50860727150494
 20
-130.7703124673074
 10
52.50860727150494
 20
-130.6996863562142
 97
        0
 97
        0
 75
     2
 76
     1
 98
        0
  0
INSERT
  5
5A
330
41
100
AcDbEntity
  8
_U+30EC_U+30A4_U+30E4_U+30FC 1
100
AcDbBlockReference
  2
block 3
 10
0.0
 20
0.0
 30
0.0
  0
INSERT
  5
B4
330
41
100
AcDbEntity
  8
_U+30EC_U+30A4_U+30E4_U+30FC 1
100
AcDbBlockReference
  2
block 4
 10
0.0
 20
0.0
 30
0.0
  0
POLYLINE
  5
BB
330
41
100
AcDbEntity
  8
_U+30EC_U+30A4_U+30E4_U+30FC 1
 62
   179
420
  2234388
370
     9
100
AcDb2dPolyline
 66
     1
 10
0.0
 20
0.0
 30
0.0
  0
VERTEX
  5
BC
330
BB
100
AcDbEntity
  8
_U+30EC_U+30A4_U+30E4_U+30FC 1
 62
   179
420
  2234388
370
     9
100
AcDbVertex
100
AcDb2dVertex
 10
76.24547111037154
 20
-123.1134119136661
 30
0.0
  0
VERTEX
  5
BD
330
BB
100
AcDbEntity
  8
_U+30EC_U+30A4_U+30E4_U+30FC 1
 62
   179
420
  2234388
370
     9
100
AcDbVertex
100
AcDb2dVertex
 10
52.38044443134918
 20
-130.6807421895521
 30
0.0
  0
SEQEND
  5
BE
330
BB
100
AcDbEntity
  8
_U+30EC_U+30A4_U+30E4_U+30FC 1
 62
   179
420
  2234388
370
     9
  0
POLYLINE
  5
BF
330
41
100
AcDbEntity
  8
_U+30EC_U+30A4_U+30E4_U+30FC 1
 62
   179
420
  2234388
370
     9
100
AcDb2dPolyline
 66
     1
 10
0.0
 20
0.0
 30
0.0
  0
VERTEX
  5
C0
330
BF
100
AcDbEntity
  8
_U+30EC_U+30A4_U+30E4_U+30FC 1
 62
   179
420
  2234388
370
     9
100
AcDbVertex
100
AcDb2dVertex
 10
77.39337469219718
 20
-126.7185185794316
 30
0.0
  0
VERTEX
  5
C1
330
BF
100
AcDbEntity
  8
_U+30EC_U+30A4_U+30E4_U+30FC 1
 62
   179
420
  2234388
370
     9
100
AcDbVertex
100
AcDb2dVertex
 10
75.85755667582362
 20
-121.8952349695263
 30
0.0
  0
SEQEND
  5
C2
330
BF
100
AcDbEntity
  8
_U+30EC_U+30A4_U+30E4_U+30FC 1
 62
   179
420
  2234388
370
     9
  0
SPLINE
  5
C3
330
41
100
AcDbEntity
  8
_U+30EC_U+30A4_U+30E4_U+30FC 1
 62
   179
420
  2234388
370
     9
100
AcDbSpline
210
0.0
220
0.0
230
1.0
 70
    11
 71
     3
 72
    17
 73
    13
 74
     0
 42
0.0000000001
 43
0.0000000001
 12
1.0
 22
0.0
 32
0.0
 13
1.0
 23
0.0
 33
0.0
 40
0.0
 40
0.0
 40
0.0
 40
0.0
 40
1.0
 40
1.0
 40
1.0
 40
2.0
 40
2.0
 40
2.0
 40
3.0
 40
3.0
 40
3.0
 40
4.0
 40
4.0
 40
4.0
 40
4.0
 10
80.38373072701796
 20
-123.1134119136661
 30
0.0
 10
80.38373072701796
 20
-123.0421155247952
 30
0.0
 10
80.44091600333681
 20
-122.9849302470315
 30
0.0
 10
80.51118933487733
 20
-122.9849302470315
 30
0.0
 10
80.58146266641783
 20
-122.9849302470315
 30
0.0
 10
80.63935553539567
 20
-123.0421155247952
 30
0.0
 10
80.63935553539567
 20
-123.1134119136661
 30
0.0
 10
80.63935553539567
 20
-123.1838616358707
 30
0.0
 10
80.58146266641783
 20
-123.2410469136341
 30
0.0
 10
80.51118933487733
 20
-123.2410469136341
 30
0.0
 10
80.44091600333681
 20
-123.2410469136341
 30
0.0
 10
80.38373072701796
 20
-123.1838616358707
 30
0.0
 10
80.38373072701796
 20
-123.1134119136661
 30
0.0
  0
HATCH
  5
C4
330
41
100
AcDbEntity
  8
_U+30EC_U+30A4_U+30E4_U+30FC 1
 62
   179
420
  2234388
100
AcDbHatch
 10
0.0
 20
0.0
 30
0.0
210
0.0
220
0.0
230
1.0
  2
SOLID
 70
     1
 71
     0
 91
        1
 92
        1
 93
        1
 72
     4
 94
        3
 73
     0
 74
     1
 95
       17
 96
       13
 40
0.0
 40
0.0
 40
0.0
 40
0.0
 40
1.0
 40
1.0
 40
1.0
 40
2.0
 40
2.0
 40
2.0
 40
3.0
 40
3.0
 40
3.0
 40
4.0
 40
4.0
 40
4.0
 40
4.0
 10
80.38373072701796
 20
-123.1134119136661
 10
80.38373072701796
 20
-123.0421155247952
 10
80.44091600333681
 20
-122.9849302470315
 10
80.51118933487733
 20
-122.9849302470315
 10
80.58146266641783
 20
-122.9849302470315
 10
80.63935553539567
 20
-123.0421155247952
 10
80.63935553539567
 20
-123.1134119136661
 10
80.63935553539567
 20
-123.1838616358707
 10
80.58146266641783
 20
-123.2410469136341
 10
80.51118933487733
 20
-123.2410469136341
 10
80.44091600333681
 20
-123.2410469136341
 10
80.38373072701796
 20
-123.1838616358707
 10
80.38373072701796
 20
-123.1134119136661
 97
        0
 97
        0
 75
     2
 76
     1
 98
        0
  0
POLYLINE
  5
C5
330
41
100
AcDbEntity
  8
_U+30EC_U+30A4_U+30E4_U+30FC 1
 62
   179
420
  2234388
370
     9
100
AcDb2dPolyline
 66
     1
 10
0.0
 20
0.0
 30
0.0
  0
VERTEX
  5
C6
330
C5
100
AcDbEntity
  8
_U+30EC_U+30A4_U+30E4_U+30FC 1
 62
   179
420
  2234388
370
     9
100
AcDbVertex
100
AcDb2dVertex
 10
79.36328575305167
 20
-126.7185185794316
 30
0.0
  0
VERTEX
  5
C7
330
C5
100
AcDbEntity
  8
_U+30EC_U+30A4_U+30E4_U+30FC 1
 62
   179
420
  2234388
370
     9
100
AcDbVertex
100
AcDb2dVertex
 10
80.89910376942525
 20
-121.8952349695263
 30
0.0
  0
SEQEND
  5
C8
330
C5
100
AcDbEntity
  8
_U+30EC_U+30A4_U+30E4_U+30FC 1
 62
   179
420
  2234388
370
     9
  0
POLYLINE
  5
C9
330
41
100
AcDbEntity
  8
_U+30EC_U+30A4_U+30E4_U+30FC 1
 62
   179
420
  2234388
370
     9
100
AcDb2dPolyline
 66
     1
 10
0.0
 20
0.0
 30
0.0
  0
VERTEX
  5
CA
330
C9
100
AcDbEntity
  8
_U+30EC_U+30A4_U+30E4_U+30FC 1
 62
   179
420
  2234388
370
     9
100
AcDbVertex
100
AcDb2dVertex
 10
52.94820364917879
 20
-132.3970766335676
 30
0.0
  0
VERTEX
  5
CB
330
C9
100
AcDbEntity
  8
_U+30EC_U+30A4_U+30E4_U+30FC 1
 62
   179
420
  2234388
370
     9
100
AcDbVertex
100
AcDb2dVertex
 10
51.994574784619
 20
-129.4005469120945
 30
0.0
  0
SEQEND
  5
CC
330
C9
100
AcDbEntity
  8
_U+30EC_U+30A4_U+30E4_U+30FC 1
 62
   179
420
  2234388
370
     9
  0
INSERT
  5
CE
330
41
100
AcDbEntity
  8
_U+30EC_U+30A4_U+30E4_U+30FC 1
100
AcDbBlockReference
  2
block 5
 10
0.0
 20
0.0
 30
0.0
  0
POLYLINE
  5
D5
330
41
100
AcDbEntity
  8
_U+30EC_U+30A4_U+30E4_U+30FC 1
 62
   179
420
  2234388
370
    25
100
AcDb2dPolyline
 66
     1
 10
0.0
 20
0.0
 30
0.0
  0
VERTEX
  5
D6
330
D5
100
AcDbEntity
  8
_U+30EC_U+30A4_U+30E4_U+30FC 1
 62
   179
420
  2234388
370
    25
100
AcDbVertex
100
AcDb2dVertex
 10
82.54654067184008
 20
-129.407426078759
 30
0.0
  0
VERTEX
  5
D7
330
D5
100
AcDbEntity
  8
_U+30EC_U+30A4_U+30E4_U+30FC 1
 62
   179
420
  2234388
370
    25
100
AcDbVertex
100
AcDb2dVertex
 10
82.18621345881057
 20
-130.4991674673754
 30
0.0
  0
SEQEND
  5
D8
330
D5
100
AcDbEntity
  8
_U+30EC_U+30A4_U+30E4_U+30FC 1
 62
   179
420
  2234388
370
    25
  0
SPLINE
  5
D9
330
41
100
AcDbEntity
  8
_U+30EC_U+30A4_U+30E4_U+30FC 1
 62
   179
420
  2234388
370
     9
100
AcDbSpline
210
0.0
220
0.0
230
1.0
 70
    11
 71
     3
 72
    17
 73
    13
 74
     0
 42
0.0000000001
 43
0.0000000001
 12
1.0
 22
0.0
 32
0.0
 13
1.0
 23
0.0
 33
0.0
 40
0.0
 40
0.0
 40
0.0
 40
0.0
 40
1.0
 40
1.0
 40
1.0
 40
2.0
 40
2.0
 40
2.0
 40
3.0
 40
3.0
 40
3.0
 40
4.0
 40
4.0
 40
4.0
 40
4.0
 10
104.2137984523956
 20
-130.714503022877
 30
0.0
 10
104.2137984523956
 20
-130.6438769117838
 30
0.0
 10
104.2716540064751
 20
-130.5866916340198
 30
0.0
 10
104.3419626157925
 20
-130.5866916340198
 30
0.0
 10
104.412235947333
 20
-130.5866916340198
 30
0.0
 10
104.4694212236519
 20
-130.6438769117838
 30
0.0
 10
104.4694212236519
 20
-130.714503022877
 30
0.0
 10
104.4694212236519
 20
-130.7851291339702
 30
0.0
 10
104.412235947333
 20
-130.8423144117342
 30
0.0
 10
104.3419626157925
 20
-130.8423144117342
 30
0.0
 10
104.2716540064751
 20
-130.8423144117342
 30
0.0
 10
104.2137984523956
 20
-130.7851291339702
 30
0.0
 10
104.2137984523956
 20
-130.714503022877
 30
0.0
  0
HATCH
  5
DA
330
41
100
AcDbEntity
  8
_U+30EC_U+30A4_U+30E4_U+30FC 1
 62
   179
420
  2234388
100
AcDbHatch
 10
0.0
 20
0.0
 30
0.0
210
0.0
220
0.0
230
1.0
  2
SOLID
 70
     1
 71
     0
 91
        1
 92
        1
 93
        1
 72
     4
 94
        3
 73
     0
 74
     1
 95
       17
 96
       13
 40
0.0
 40
0.0
 40
0.0
 40
0.0
 40
1.0
 40
1.0
 40
1.0
 40
2.0
 40
2.0
 40
2.0
 40
3.0
 40
3.0
 40
3.0
 40
4.0
 40
4.0
 40
4.0
 40
4.0
 10
104.2137984523956
 20
-130.714503022877
 10
104.2137984523956
 20
-130.6438769117838
 10
104.2716540064751
 20
-130.5866916340198
 10
104.3419626157925
 20
-130.5866916340198
 10
104.412235947333
 20
-130.5866916340198
 10
104.4694212236519
 20
-130.6438769117838
 10
104.4694212236519
 20
-130.714503022877
 10
104.4694212236519
 20
-130.7851291339702
 10
104.412235947333
 20
-130.8423144117342
 10
104.3419626157925
 20
-130.8423144117342
 10
104.2716540064751
 20
-130.8423144117342
 10
104.2137984523956
 20
-130.7851291339702
 10
104.2137984523956
 20
-130.714503022877
 97
        0
 97
        0
 75
     2
 76
     1
 98
        0
  0
POLYLINE
  5
DB
330
41
100
AcDbEntity
  8
_U+30EC_U+30A4_U+30E4_U+30FC 1
 62
   179
420
  2234388
370
     9
100
AcDb2dPolyline
 66
     1
 10
0.0
 20
0.0
 30
0.0
  0
VERTEX
  5
DC
330
DB
100
AcDbEntity
  8
_U+30EC_U+30A4_U+30E4_U+30FC 1
 62
   179
420
  2234388
370
     9
100
AcDbVertex
100
AcDb2dVertex
 10
80.51118933487733
 20
-123.1134119136661
 30
0.0
  0
VERTEX
  5
DD
330
DB
100
AcDbEntity
  8
_U+30EC_U+30A4_U+30E4_U+30FC 1
 62
   179
420
  2234388
370
     9
100
AcDbVertex
100
AcDb2dVertex
 10
104.371560670593
 20
-130.6952060784372
 30
0.0
  0
SEQEND
  5
DE
330
DB
100
AcDbEntity
  8
_U+30EC_U+30A4_U+30E4_U+30FC 1
 62
   179
420
  2234388
370
     9
  0
POLYLINE
  5
DF
330
41
100
AcDbEntity
  8
_U+30EC_U+30A4_U+30E4_U+30FC 1
 62
   179
420
  2234388
370
     9
100
AcDb2dPolyline
 66
     1
 10
0.0
 20
0.0
 30
0.0
  0
VERTEX
  5
E0
330
DF
100
AcDbEntity
  8
_U+30EC_U+30A4_U+30E4_U+30FC 1
 62
   179
420
  2234388
370
     9
100
AcDbVertex
100
AcDb2dVertex
 10
103.8003781851651
 20
-132.3970766335676
 30
0.0
  0
VERTEX
  5
E1
330
DF
100
AcDbEntity
  8
_U+30EC_U+30A4_U+30E4_U+30FC 1
 62
   179
420
  2234388
370
     9
100
AcDbVertex
100
AcDb2dVertex
 10
104.753971771948
 20
-129.4005469120945
 30
0.0
  0
SEQEND
  5
E2
330
DF
100
AcDbEntity
  8
_U+30EC_U+30A4_U+30E4_U+30FC 1
 62
   179
420
  2234388
370
     9
  0
SPLINE
  5
E3
330
41
100
AcDbEntity
  8
_U+30EC_U+30A4_U+30E4_U+30FC 1
 62
   179
420
  2234388
370
    25
100
AcDbSpline
210
0.0
220
0.0
230
1.0
 70
    11
 71
     3
 72
    35
 73
    31
 74
     0
 42
0.0000000001
 43
0.0000000001
 12
1.0
 22
0.0
 32
0.0
 13
1.0
 23
0.0
 33
0.0
 40
0.0
 40
0.0
 40
0.0
 40
0.0
 40
1.0
 40
1.0
 40
1.0
 40
2.0
 40
2.0
 40
2.0
 40
3.0
 40
3.0
 40
3.0
 40
4.0
 40
4.0
 40
4.0
 40
5.0
 40
5.0
 40
5.0
 40
6.0
 40
6.0
 40
6.0
 40
7.0
 40
7.0
 40
7.0
 40
8.0
 40
8.0
 40
8.0
 40
9.0
 40
9.0
 40
9.0
 40
10.0
 40
10.0
 40
10.0
 40
10.0
 10
78.37868300039321
 20
-128.3360046901381
 30
0.0
 10
78.9361071528388
 20
-128.3360046901381
 30
0.0
 10
79.49420158304507
 20
-128.4193660790063
 30
0.0
 10
80.03197601376975
 20
-128.5861241345202
 30
0.0
 10
80.03197601376975
 20
-128.5861241345202
 30
0.0
 10
102.7237709904094
 20
-135.7002407994081
 30
0.0
 10
102.7237709904094
 20
-135.7002407994081
 30
0.0
 10
102.7237709904094
 20
-135.7002407994081
 30
0.0
 10
102.5663615499808
 20
-136.1956466326177
 30
0.0
 10
102.5663615499808
 20
-136.1956466326177
 30
0.0
 10
102.5663615499808
 20
-136.1956466326177
 30
0.0
 10
79.32366880961794
 20
-129.7512433008957
 30
0.0
 10
79.32366880961794
 20
-129.7512433008957
 30
0.0
 10
79.01396520640803
 20
-129.670986356471
 30
0.0
 10
78.69632410340061
 20
-129.6306638564813
 30
0.0
 10
78.37868300039321
 20
-129.6306638564813
 30
0.0
 10
78.06104189738579
 20
-129.6306638564813
 30
0.0
 10
77.74304998056417
 20
-129.670986356471
 30
0.0
 10
77.4333444133997
 20
-129.7512433008957
 30
0.0
 10
77.4333444133997
 20
-129.7512433008957
 30
0.0
 10
54.17135472908471
 20
-136.1625913548483
 30
0.0
 10
54.17135472908471
 20
-136.1625913548483
 30
0.0
 10
54.17135472908471
 20
-136.1625913548483
 30
0.0
 10
54.01394528865612
 20
-135.6671855216388
 30
0.0
 10
54.01394528865612
 20
-135.6671855216388
 30
0.0
 10
54.01394528865612
 20
-135.6671855216388
 30
0.0
 10
76.72503720924789
 20
-128.5861241345202
 30
0.0
 10
76.72503720924789
 20
-128.5861241345202
 30
0.0
 10
77.26316441774135
 20
-128.4193660790063
 30
0.0
 10
77.82058857018694
 20
-128.3360046901381
 30
0.0
 10
78.37868300039321
 20
-128.3360046901381
 30
0.0
  0
POLYLINE
  5
E4
330
41
100
AcDbEntity
  8
_U+30EC_U+30A4_U+30E4_U+30FC 1
 62
   179
420
  2234388
370
     9
100
AcDb2dPolyline
 66
     1
 10
0.0
 20
0.0
 30
0.0
  0
VERTEX
  5
E5
330
E4
100
AcDbEntity
  8
_U+30EC_U+30A4_U+30E4_U+30FC 1
 62
   179
420
  2234388
370
     9
100
AcDbVertex
100
AcDb2dVertex
 10
59.83922498504005
 20
-135.6658096883059
 30
0.0
  0
VERTEX
  5
E6
330
E4
100
AcDbEntity
  8
_U+30EC_U+30A4_U+30E4_U+30FC 1
 62
   179
420
  2234388
370
     9
100
AcDbVertex
100
AcDb2dVertex
 10
67.19037134138637
 20
-139.1508660763234
 30
0.0
  0
VERTEX
  5
E7
330
E4
100
AcDbEntity
  8
_U+30EC_U+30A4_U+30E4_U+30FC 1
 62
   179
420
  2234388
370
     9
100
AcDbVertex
100
AcDb2dVertex
 10
72.34837220413525
 20
-139.1508660763234
 30
0.0
  0
SEQEND
  5
E8
330
E4
100
AcDbEntity
  8
_U+30EC_U+30A4_U+30E4_U+30FC 1
 62
   179
420
  2234388
370
     9
  0
POLYLINE
  5
E9
330
41
100
AcDbEntity
  8
_U+30EC_U+30A4_U+30E4_U+30FC 1
 62
   179
420
  2234388
370
     9
100
AcDb2dPolyline
 66
     1
 10
0.0
 20
0.0
 30
0.0
  0
VERTEX
  5
EA
330
E9
100
AcDbEntity
  8
_U+30EC_U+30A4_U+30E4_U+30FC 1
 62
   179
420
  2234388
370
     9
100
AcDbVertex
100
AcDb2dVertex
 10
59.83922498504005
 20
-135.6658096883059
 30
0.0
  0
VERTEX
  5
EB
330
E9
100
AcDbEntity
  8
_U+30EC_U+30A4_U+30E4_U+30FC 1
 62
   179
420
  2234388
370
     9
100
AcDbVertex
100
AcDb2dVertex
 10
60.82248567051134
 20
-135.8456205215938
 30
0.0
  0
SEQEND
  5
EC
330
E9
100
AcDbEntity
  8
_U+30EC_U+30A4_U+30E4_U+30FC 1
 62
   179
420
  2234388
370
     9
  0
POLYLINE
  5
ED
330
41
100
AcDbEntity
  8
_U+30EC_U+30A4_U+30E4_U+30FC 1
 62
   179
420
  2234388
370
     9
100
AcDb2dPolyline
 66
     1
 10
0.0
 20
0.0
 30
0.0
  0
VERTEX
  5
EE
330
ED
100
AcDbEntity
  8
_U+30EC_U+30A4_U+30E4_U+30FC 1
 62
   179
420
  2234388
370
     9
100
AcDbVertex
100
AcDb2dVertex
 10
59.83922498504005
 20
-135.6658096883059
 30
0.0
  0
VERTEX
  5
EF
330
ED
100
AcDbEntity
  8
_U+30EC_U+30A4_U+30E4_U+30FC 1
 62
   179
420
  2234388
370
     9
100
AcDbVertex
100
AcDb2dVertex
 10
60.60129400948774
 20
-136.3134744103662
 30
0.0
  0
SEQEND
  5
F0
330
ED
100
AcDbEntity
  8
_U+30EC_U+30A4_U+30E4_U+30FC 1
 62
   179
420
  2234388
370
     9
  0
POLYLINE
  5
F1
330
41
100
AcDbEntity
  8
_U+30EC_U+30A4_U+30E4_U+30FC 1
 62
   179
420
  2234388
370
     9
100
AcDb2dPolyline
 66
     1
 10
0.0
 20
0.0
 30
0.0
  0
VERTEX
  5
F2
330
F1
100
AcDbEntity
  8
_U+30EC_U+30A4_U+30E4_U+30FC 1
 62
   179
420
  2234388
370
     9
100
AcDbVertex
100
AcDb2dVertex
 10
96.2301200449651
 20
-135.6658096883059
 30
0.0
  0
VERTEX
  5
F3
330
F1
100
AcDbEntity
  8
_U+30EC_U+30A4_U+30E4_U+30FC 1
 62
   179
420
  2234388
370
     9
100
AcDbVertex
100
AcDb2dVertex
 10
89.13805217034327
 20
-139.0275349652433
 30
0.0
  0
VERTEX
  5
F4
330
F1
100
AcDbEntity
  8
_U+30EC_U+30A4_U+30E4_U+30FC 1
 62
   179
420
  2234388
370
     9
100
AcDbVertex
100
AcDb2dVertex
 10
84.27289396113046
 20
-139.0275349652433
 30
0.0
  0
SEQEND
  5
F5
330
F1
100
AcDbEntity
  8
_U+30EC_U+30A4_U+30E4_U+30FC 1
 62
   179
420
  2234388
370
     9
  0
POLYLINE
  5
F6
330
41
100
AcDbEntity
  8
_U+30EC_U+30A4_U+30E4_U+30FC 1
 62
   179
420
  2234388
370
     9
100
AcDb2dPolyline
 66
     1
 10
0.0
 20
0.0
 30
0.0
  0
VERTEX
  5
F7
330
F6
100
AcDbEntity
  8
_U+30EC_U+30A4_U+30E4_U+30FC 1
 62
   179
420
  2234388
370
     9
100
AcDbVertex
100
AcDb2dVertex
 10
96.2301200449651
 20
-135.6658096883059
 30
0.0
  0
VERTEX
  5
F8
330
F6
100
AcDbEntity
  8
_U+30EC_U+30A4_U+30E4_U+30FC 1
 62
   179
420
  2234388
370
     9
100
AcDbVertex
100
AcDb2dVertex
 10
95.24689312560487
 20
-135.8456205215938
 30
0.0
  0
SEQEND
  5
F9
330
F6
100
AcDbEntity
  8
_U+30EC_U+30A4_U+30E4_U+30FC 1
 62
   179
420
  2234388
370
     9
  0
POLYLINE
  5
FA
330
41
100
AcDbEntity
  8
_U+30EC_U+30A4_U+30E4_U+30FC 1
 62
   179
420
  2234388
370
     9
100
AcDb2dPolyline
 66
     1
 10
0.0
 20
0.0
 30
0.0
  0
VERTEX
  5
FB
330
FA
100
AcDbEntity
  8
_U+30EC_U+30A4_U+30E4_U+30FC 1
 62
   179
420
  2234388
370
     9
100
AcDbVertex
100
AcDb2dVertex
 10
96.2301200449651
 20
-135.6658096883059
 30
0.0
  0
VERTEX
  5
FC
330
FA
100
AcDbEntity
  8
_U+30EC_U+30A4_U+30E4_U+30FC 1
 62
   179
420
  2234388
370
     9
100
AcDbVertex
100
AcDb2dVertex
 10
95.46808478662847
 20
-136.3134744103662
 30
0.0
  0
SEQEND
  5
FD
330
FA
100
AcDbEntity
  8
_U+30EC_U+30A4_U+30E4_U+30FC 1
 62
   179
420
  2234388
370
     9
  0
INSERT
  5
FF
330
41
100
AcDbEntity
  8
_U+30EC_U+30A4_U+30E4_U+30FC 1
100
AcDbBlockReference
  2
block 6
 10
0.0
 20
0.0
 30
0.0
  0
POLYLINE
  5
126
330
41
100
AcDbEntity
  8
_U+30EC_U+30A4_U+30E4_U+30FC 1
  6
AI-Linetype-1
 62
   154
420
    23468
370
    25
100
AcDb2dPolyline
 66
     1
 10
0.0
 20
0.0
 30
0.0
  0
VERTEX
  5
127
330
126
100
AcDbEntity
  8
_U+30EC_U+30A4_U+30E4_U+30FC 1
  6
AI-Linetype-1
 62
   154
420
    23468
370
    25
100
AcDbVertex
100
AcDb2dVertex
 10
54.35945583539696
 20
-136.7726852435848
 30
0.0
  0
VERTEX
  5
128
330
126
100
AcDbEntity
  8
_U+30EC_U+30A4_U+30E4_U+30FC 1
  6
AI-Linetype-1
 62
   154
420
    23468
370
    25
100
AcDbVertex
100
AcDb2dVertex
 10
65.92672137362477
 20
-133.5790938554942
 30
0.0
  0
SEQEND
  5
12A
330
126
100
AcDbEntity
  8
_U+30EC_U+30A4_U+30E4_U+30FC 1
  6
AI-Linetype-1
 62
   154
420
    23468
370
    25
  0
POLYLINE
  5
12B
330
41
100
AcDbEntity
  8
_U+30EC_U+30A4_U+30E4_U+30FC 1
  6
AI-Linetype-2
 62
   154
420
    23468
370
    25
100
AcDb2dPolyline
 66
     1
 10
0.0
 20
0.0
 30
0.0
  0
VERTEX
  5
12C
330
12B
100
AcDbEntity
  8
_U+30EC_U+30A4_U+30E4_U+30FC 1
  6
AI-Linetype-2
 62
   154
420
    23468
370
    25
100
AcDbVertex
100
AcDb2dVertex
 10
102.3916659988821
 20
-136.7320452435949
 30
0.0
  0
VERTEX
  5
12D
330
12B
100
AcDbEntity
  8
_U+30EC_U+30A4_U+30E4_U+30FC 1
  6
AI-Linetype-2
 62
   154
420
    23468
370
    25
100
AcDbVertex
100
AcDb2dVertex
 10
90.82443573843116
 20
-133.5384538555043
 30
0.0
  0
SEQEND
  5
12F
330
12B
100
AcDbEntity
  8
_U+30EC_U+30A4_U+30E4_U+30FC 1
  6
AI-Linetype-2
 62
   154
420
    23468
370
    25
  0
INSERT
  5
131
330
41
100
AcDbEntity
  8
_U+30EC_U+30A4_U+30E4_U+30FC 1
100
AcDbBlockReference
  2
block 7
 10
0.0
 20
0.0
 30
0.0
  0
ENDBLK
  5
44
330
41
100
AcDbEntity
  8
0
100
AcDbBlockEnd
  0
BLOCK
  5
5B
330
59
100
AcDbEntity
  8
0
100
AcDbBlockBegin
  2
block 3
 70
     0
 10
0.0
 20
0.0
 30
0.0
  3
block 3
  1

  0
SPLINE
  5
5D
330
59
100
AcDbEntity
  8
_U+30EC_U+30A4_U+30E4_U+30FC 1
370
     0
100
AcDbSpline
210
0.0
220
0.0
230
1.0
 70
    11
 71
     3
 72
   197
 73
   193
 74
     0
 42
0.0000000001
 43
0.0000000001
 12
1.0
 22
0.0
 32
0.0
 13
1.0
 23
0.0
 33
0.0
 40
0.0
 40
0.0
 40
0.0
 40
0.0
 40
1.0
 40
1.0
 40
1.0
 40
2.0
 40
2.0
 40
2.0
 40
3.0
 40
3.0
 40
3.0
 40
4.0
 40
4.0
 40
4.0
 40
5.0
 40
5.0
 40
5.0
 40
6.0
 40
6.0
 40
6.0
 40
7.0
 40
7.0
 40
7.0
 40
8.0
 40
8.0
 40
8.0
 40
9.0
 40
9.0
 40
9.0
 40
10.0
 40
10.0
 40
10.0
 40
11.0
 40
11.0
 40
11.0
 40
12.0
 40
12.0
 40
12.0
 40
13.0
 40
13.0
 40
13.0
 40
14.0
 40
14.0
 40
14.0
 40
15.0
 40
15.0
 40
15.0
 40
16.0
 40
16.0
 40
16.0
 40
17.0
 40
17.0
 40
17.0
 40
18.0
 40
18.0
 40
18.0
 40
19.0
 40
19.0
 40
19.0
 40
20.0
 40
20.0
 40
20.0
 40
21.0
 40
21.0
 40
21.0
 40
22.0
 40
22.0
 40
22.0
 40
23.0
 40
23.0
 40
23.0
 40
24.0
 40
24.0
 40
24.0
 40
25.0
 40
25.0
 40
25.0
 40
26.0
 40
26.0
 40
26.0
 40
27.0
 40
27.0
 40
27.0
 40
28.0
 40
28.0
 40
28.0
 40
29.0
 40
29.0
 40
29.0
 40
30.0
 40
30.0
 40
30.0
 40
31.0
 40
31.0
 40
31.0
 40
32.0
 40
32.0
 40
32.0
 40
33.0
 40
33.0
 40
33.0
 40
34.0
 40
34.0
 40
34.0
 40
35.0
 40
35.0
 40
35.0
 40
36.0
 40
36.0
 40
36.0
 40
37.0
 40
37.0
 40
37.0
 40
38.0
 40
38.0
 40
38.0
 40
39.0
 40
39.0
 40
39.0
 40
40.0
 40
40.0
 40
40.0
 40
41.0
 40
41.0
 40
41.0
 40
42.0
 40
42.0
 40
42.0
 40
43.0
 40
43.0
 40
43.0
 40
44.0
 40
44.0
 40
44.0
 40
45.0
 40
45.0
 40
45.0
 40
46.0
 40
46.0
 40
46.0
 40
47.0
 40
47.0
 40
47.0
 40
48.0
 40
48.0
 40
48.0
 40
49.0
 40
49.0
 40
49.0
 40
50.0
 40
50.0
 40
50.0
 40
51.0
 40
51.0
 40
51.0
 40
52.0
 40
52.0
 40
52.0
 40
53.0
 40
53.0
 40
53.0
 40
54.0
 40
54.0
 40
54.0
 40
55.0
 40
55.0
 40
55.0
 40
56.0
 40
56.0
 40
56.0
 40
57.0
 40
57.0
 40
57.0
 40
58.0
 40
58.0
 40
58.0
 40
59.0
 40
59.0
 40
59.0
 40
60.0
 40
60.0
 40
60.0
 40
61.0
 40
61.0
 40
61.0
 40
62.0
 40
62.0
 40
62.0
 40
63.0
 40
63.0
 40
63.0
 40
64.0
 40
64.0
 40
64.0
 40
64.0
 10
76.0558227348923
 20
-117.1199828808763
 30
0.0
 10
76.04514293888802
 20
-117.1496107020494
 30
0.0
 10
76.02171628958833
 20
-117.1961194911003
 30
0.0
 10
76.01138100313257
 20
-117.223508000208
 30
0.0
 10
76.01138100313257
 20
-117.223508000208
 30
0.0
 10
75.95005830349513
 20
-117.3759534754303
 30
0.0
 10
75.95005830349513
 20
-117.3759534754303
 30
0.0
 10
75.93937850749086
 20
-117.4012749272469
 30
0.0
 10
75.89080266114883
 20
-117.5134127852918
 30
0.0
 10
75.8780558078534
 20
-117.5366671798172
 30
0.0
 10
75.87598875056226
 20
-117.5430406064649
 30
0.0
 10
75.87151012643143
 20
-117.5514810904038
 30
0.0
 10
75.86944306914029
 20
-117.5578545170515
 30
0.0
 10
75.86944306914029
 20
-117.5578545170515
 30
0.0
 10
75.65998126363709
 20
-117.5049723013529
 30
0.0
 10
75.65998126363709
 20
-117.5049723013529
 30
0.0
 10
75.73852944070079
 20
-117.3949015005992
 30
0.0
 10
75.79985214033823
 20
-117.2595092480289
 30
0.0
 10
75.83154701880254
 20
-117.1496107020494
 30
0.0
 10
75.83154701880254
 20
-117.1496107020494
 30
0.0
 10
75.36611461874529
 20
-117.1496107020494
 30
0.0
 10
75.36611461874529
 20
-117.1496107020494
 30
0.0
 10
75.28549938439043
 20
-117.3144585210186
 30
0.0
 10
75.21797551287953
 20
-117.392834443308
 30
0.0
 10
75.18421357712408
 20
-117.4329698057112
 30
0.0
 10
75.18421357712408
 20
-117.4329698057112
 30
0.0
 10
75.0615681778492
 20
-117.3673407367172
 30
0.0
 10
75.0615681778492
 20
-117.3673407367172
 30
0.0
 10
75.0615681778492
 20
-117.3673407367172
 30
0.0
 10
75.0615681778492
 20
-117.5387342371084
 30
0.0
 10
75.0615681778492
 20
-117.5387342371084
 30
0.0
 10
75.0615681778492
 20
-117.646737980571
 30
0.0
 10
75.06363523514034
 20
-117.695313826913
 30
0.0
 10
75.0739705215961
 20
-117.8010782583102
 30
0.0
 10
75.0023125355029
 20
-117.799011201019
 30
0.0
 10
74.98095294349434
 20
-117.799011201019
 30
0.0
 10
74.77596976212199
 20
-117.799011201019
 30
0.0
 10
74.77596976212199
 20
-117.799011201019
 30
0.0
 10
74.72084823435799
 20
-117.799011201019
 30
0.0
 10
74.72084823435799
 20
-117.799011201019
 30
0.0
 10
74.72084823435799
 20
-117.799011201019
 30
0.0
 10
74.72084823435799
 20
-117.9344034535893
 30
0.0
 10
74.72084823435799
 20
-117.9344034535893
 30
0.0
 10
74.72084823435799
 20
-117.9344034535893
 30
0.0
 10
74.79285072999971
 20
-117.9344034535893
 30
0.0
 10
74.79285072999971
 20
-117.9344034535893
 30
0.0
 10
74.85830754421946
 20
-117.9344034535893
 30
0.0
 10
75.00437959279405
 20
-117.9300970842328
 30
0.0
 10
75.11014402419121
 20
-117.9216566002939
 30
0.0
 10
75.11014402419121
 20
-117.9216566002939
 30
0.0
 10
75.11014402419121
 20
-118.0994235273328
 30
0.0
 10
75.11014402419121
 20
-118.0994235273328
 30
0.0
 10
75.01264782195865
 20
-118.0930501006851
 30
0.0
 10
74.85417342963716
 20
-118.0887437313285
 30
0.0
 10
74.79285072999971
 20
-118.0887437313285
 30
0.0
 10
74.79285072999971
 20
-118.0887437313285
 30
0.0
 10
74.72084823435799
 20
-118.0887437313285
 30
0.0
 10
74.72084823435799
 20
-118.0887437313285
 30
0.0
 10
74.72291529164913
 20
-118.177627194848
 30
0.0
 10
74.72704940623143
 20
-118.4167168215243
 30
0.0
 10
74.72911646352259
 20
-118.4907863744572
 30
0.0
 10
74.72911646352259
 20
-118.4907863744572
 30
0.0
 10
74.52826739673252
 20
-118.4907863744572
 30
0.0
 10
74.52826739673252
 20
-118.4907863744572
 30
0.0
 10
74.54101425002794
 20
-118.2770181995974
 30
0.0
 10
74.54101425002794
 20
-118.2473903784243
 30
0.0
 10
74.54514836461024
 20
-118.0887437313285
 30
0.0
 10
74.54514836461024
 20
-118.0887437313285
 30
0.0
 10
74.4755574358082
 20
-118.0887437313285
 30
0.0
 10
74.4755574358082
 20
-118.0887437313285
 30
0.0
 10
74.41836885075305
 20
-118.0887437313285
 30
0.0
 10
74.266095630305
 20
-118.0930501006851
 30
0.0
 10
74.15585257477701
 20
-118.0994235273328
 30
0.0
 10
74.15585257477701
 20
-118.0994235273328
 30
0.0
 10
74.15585257477701
 20
-117.9216566002939
 30
0.0
 10
74.15585257477701
 20
-117.9216566002939
 30
0.0
 10
74.26161700617418
 20
-117.9300970842328
 30
0.0
 10
74.40562199745763
 20
-117.9344034535893
 30
0.0
 10
74.4755574358082
 20
-117.9344034535893
 30
0.0
 10
74.4755574358082
 20
-117.9344034535893
 30
0.0
 10
74.54928247919254
 20
-117.9344034535893
 30
0.0
 10
74.54928247919254
 20
-117.9344034535893
 30
0.0
 10
74.54928247919254
 20
-117.9344034535893
 30
0.0
 10
74.54928247919254
 20
-117.799011201019
 30
0.0
 10
74.54928247919254
 20
-117.799011201019
 30
0.0
 10
74.54928247919254
 20
-117.799011201019
 30
0.0
 10
74.50518525698135
 20
-117.799011201019
 30
0.0
 10
74.50518525698135
 20
-117.799011201019
 30
0.0
 10
74.4287041372088
 20
-117.799011201019
 30
0.0
 10
74.23646780913185
 20
-117.8010782583102
 30
0.0
 10
74.20236136382789
 20
-117.8010782583102
 30
0.0
 10
74.20890704524986
 20
-117.7292480174427
 30
0.0
 10
74.21717527441446
 20
-117.6488050378621
 30
0.0
 10
74.21717527441446
 20
-117.5282266958784
 30
0.0
 10
74.21717527441446
 20
-117.5282266958784
 30
0.0
 10
74.21717527441446
 20
-117.354766138196
 30
0.0
 10
74.21717527441446
 20
-117.354766138196
 30
0.0
 10
74.21717527441446
 20
-117.2827636425543
 30
0.0
 10
74.20890704524986
 20
-117.1621853005706
 30
0.0
 10
74.20236136382789
 20
-117.08174232099
 30
0.0
 10
74.28090954089159
 20
-117.0860486903465
 30
0.0
 10
74.31880559122934
 20
-117.0881157476377
 30
0.0
 10
74.44592961463505
 20
-117.0881157476377
 30
0.0
 10
74.44592961463505
 20
-117.0881157476377
 30
0.0
 10
74.54928247919254
 20
-117.0881157476377
 30
0.0
 10
74.54928247919254
 20
-117.0881157476377
 30
0.0
 10
74.54928247919254
 20
-117.0881157476377
 30
0.0
 10
74.54928247919254
 20
-116.9422159538374
 30
0.0
 10
74.54928247919254
 20
-116.9422159538374
 30
0.0
 10
74.54928247919254
 20
-116.9422159538374
 30
0.0
 10
74.47107881167737
 20
-116.9422159538374
 30
0.0
 10
74.47107881167737
 20
-116.9422159538374
 30
0.0
 10
74.4163017934619
 20
-116.9422159538374
 30
0.0
 10
74.24473603829645
 20
-116.9463500684197
 30
0.0
 10
74.16033119890784
 20
-116.9527234950674
 30
0.0
 10
74.16033119890784
 20
-116.9527234950674
 30
0.0
 10
74.16033119890784
 20
-116.7751288228028
 30
0.0
 10
74.16033119890784
 20
-116.7751288228028
 30
0.0
 10
74.24266898100531
 20
-116.7815022494505
 30
0.0
 10
74.40562199745763
 20
-116.7856363640328
 30
0.0
 10
74.47107881167737
 20
-116.7856363640328
 30
0.0
 10
74.47107881167737
 20
-116.7856363640328
 30
0.0
 10
74.54928247919254
 20
-116.7856363640328
 30
0.0
 10
74.54928247919254
 20
-116.7856363640328
 30
0.0
 10
74.54928247919254
 20
-116.7518744282773
 30
0.0
 10
74.54514836461024
 20
-116.5973618957639
 30
0.0
 10
74.54514836461024
 20
-116.5656670172996
 30
0.0
 10
74.54514836461024
 20
-116.5656670172996
 30
0.0
 10
74.74186331681801
 20
-116.5825479851773
 30
0.0
 10
74.74186331681801
 20
-116.5825479851773
 30
0.0
 10
74.75874428469574
 20
-116.5846150424684
 30
0.0
 10
74.78010387670429
 20
-116.5868543545338
 30
0.0
 10
74.78010387670429
 20
-116.6080416917681
 30
0.0
 10
74.78010387670429
 20
-116.6312960862936
 30
0.0
 10
74.75874428469574
 20
-116.6397365702324
 30
0.0
 10
74.73152803036226
 20
-116.6523111687536
 30
0.0
 10
74.73152803036226
 20
-116.6734985059879
 30
0.0
 10
74.72911646352259
 20
-116.768755396155
 30
0.0
 10
74.72911646352259
 20
-116.7856363640328
 30
0.0
 10
74.72911646352259
 20
-116.7856363640328
 30
0.0
 10
74.78837210586889
 20
-116.7856363640328
 30
0.0
 10
74.78837210586889
 20
-116.7856363640328
 30
0.0
 10
74.8562404869283
 20
-116.7856363640328
 30
0.0
 10
74.99990096866323
 20
-116.7815022494505
 30
0.0
 10
75.10566540006039
 20
-116.7751288228028
 30
0.0
 10
75.10566540006039
 20
-116.7751288228028
 30
0.0
 10
75.10566540006039
 20
-116.9527234950674
 30
0.0
 10
75.10566540006039
 20
-116.9527234950674
 30
0.0
 10
75.00851370737635
 20
-116.9463500684197
 30
0.0
 10
74.852106372346
 20
-116.9422159538374
 30
0.0
 10
74.78837210586889
 20
-116.9422159538374
 30
0.0
 10
74.78837210586889
 20
-116.9422159538374
 30
0.0
 10
74.72084823435799
 20
-116.9422159538374
 30
0.0
 10
74.72084823435799
 20
-116.9422159538374
 30
0.0
 10
74.72084823435799
 20
-116.9422159538374
 30
0.0
 10
74.72084823435799
 20
-117.0881157476377
 30
0.0
 10
74.72084823435799
 20
-117.0881157476377
 30
0.0
 10
74.72084823435799
 20
-117.0881157476377
 30
0.0
 10
74.79078367270856
 20
-117.0881157476377
 30
0.0
 10
74.79078367270856
 20
-117.0881157476377
 30
0.0
 10
74.94064532631693
 20
-117.0881157476377
 30
0.0
 10
75.01264782195865
 20
-117.0839816330554
 30
0.0
 10
75.0739705215961
 20
-117.08174232099
 30
0.0
 10
75.0657022924315
 20
-117.1769992111571
 30
0.0
 10
75.06363523514034
 20
-117.2553751334466
 30
0.0
 10
75.0615681778492
 20
-117.2934434385586
 30
0.0
 10
75.21590845558839
 20
-117.08174232099
 30
0.0
 10
75.32167288698555
 20
-116.834384465149
 30
0.0
 10
75.33855385486328
 20
-116.5720404439473
 30
0.0
 10
75.33855385486328
 20
-116.5720404439473
 30
0.0
 10
75.55421683223992
 20
-116.6226833475804
 30
0.0
 10
75.55421683223992
 20
-116.6226833475804
 30
0.0
 10
75.5690307428265
 20
-116.626989716937
 30
0.0
 10
75.58384465341307
 20
-116.6333631435847
 30
0.0
 10
75.58384465341307
 20
-116.6502441114624
 30
0.0
 10
75.58384465341307
 20
-116.6671250793402
 30
0.0
 10
75.57971053883077
 20
-116.6693643914056
 30
0.0
 10
75.52906763519759
 20
-116.6903794738656
 30
0.0
 10
75.51184215777135
 20
-116.7666883388639
 30
0.0
 10
75.48669296072903
 20
-116.8576388596745
 30
0.0
 10
75.438117114387
 20
-116.9845906283059
 30
0.0
 10
75.438117114387
 20
-116.9845906283059
 30
0.0
 10
75.77642549103854
 20
-116.9845906283059
 30
0.0
 10
75.77642549103854
 20
-116.9845906283059
 30
0.0
 10
75.81466605092481
 20
-116.9845906283059
 30
0.0
 10
75.94351262207316
 20
-116.9802842589494
 30
0.0
 10
75.99208846841518
 20
-116.9739108323017
 30
0.0
 10
75.99208846841518
 20
-116.9739108323017
 30
0.0
 10
76.08545055606545
 20
-117.043674015878
 30
0.0
 10
76.08545055606545
 20
-117.043674015878
 30
0.0
 10
76.07683781735233
 20
-117.0648613531123
 30
0.0
 10
76.07063664547887
 20
-117.0839816330554
 30
0.0
 10
76.0558227348923
 20
-117.1199828808763
 30
0.0
  0
POLYLINE
  5
5E
330
59
100
AcDbEntity
  8
_U+30EC_U+30A4_U+30E4_U+30FC 1
370
     0
100
AcDb2dPolyline
 66
     1
 10
0.0
 20
0.0
 30
0.0
  0
VERTEX
  5
5F
330
5E
100
AcDbEntity
  8
_U+30EC_U+30A4_U+30E4_U+30FC 1
370
     0
100
AcDbVertex
100
AcDb2dVertex
 10
74.54928247919254
 20
-117.2446953374423
 30
0.0
  0
VERTEX
  5
60
330
5E
100
AcDbEntity
  8
_U+30EC_U+30A4_U+30E4_U+30FC 1
370
     0
100
AcDbVertex
100
AcDb2dVertex
 10
74.39080808687105
 20
-117.2446953374423
 30
0.0
  0
VERTEX
  5
61
330
5E
100
AcDbEntity
  8
_U+30EC_U+30A4_U+30E4_U+30FC 1
370
     0
100
AcDbVertex
100
AcDb2dVertex
 10
74.39080808687105
 20
-117.3737141633649
 30
0.0
  0
VERTEX
  5
62
330
5E
100
AcDbEntity
  8
_U+30EC_U+30A4_U+30E4_U+30FC 1
370
     0
100
AcDbVertex
100
AcDb2dVertex
 10
74.54928247919254
 20
-117.3737141633649
 30
0.0
  0
VERTEX
  5
63
330
5E
100
AcDbEntity
  8
_U+30EC_U+30A4_U+30E4_U+30FC 1
370
     0
100
AcDbVertex
100
AcDb2dVertex
 10
74.54928247919254
 20
-117.2446953374423
 30
0.0
  0
SEQEND
  5
64
330
5E
100
AcDbEntity
  8
_U+30EC_U+30A4_U+30E4_U+30FC 1
370
     0
  0
POLYLINE
  5
65
330
59
100
AcDbEntity
  8
_U+30EC_U+30A4_U+30E4_U+30FC 1
370
     0
100
AcDb2dPolyline
 66
     1
 10
0.0
 20
0.0
 30
0.0
  0
VERTEX
  5
66
330
65
100
AcDbEntity
  8
_U+30EC_U+30A4_U+30E4_U+30FC 1
370
     0
100
AcDbVertex
100
AcDb2dVertex
 10
74.54928247919254
 20
-117.5175468998741
 30
0.0
  0
VERTEX
  5
67
330
65
100
AcDbEntity
  8
_U+30EC_U+30A4_U+30E4_U+30FC 1
370
     0
100
AcDbVertex
100
AcDb2dVertex
 10
74.39080808687105
 20
-117.5175468998741
 30
0.0
  0
VERTEX
  5
68
330
65
100
AcDbEntity
  8
_U+30EC_U+30A4_U+30E4_U+30FC 1
370
     0
100
AcDbVertex
100
AcDb2dVertex
 10
74.39080808687105
 20
-117.646737980571
 30
0.0
  0
VERTEX
  5
69
330
65
100
AcDbEntity
  8
_U+30EC_U+30A4_U+30E4_U+30FC 1
370
     0
100
AcDbVertex
100
AcDb2dVertex
 10
74.54928247919254
 20
-117.646737980571
 30
0.0
  0
VERTEX
  5
6A
330
65
100
AcDbEntity
  8
_U+30EC_U+30A4_U+30E4_U+30FC 1
370
     0
100
AcDbVertex
100
AcDb2dVertex
 10
74.54928247919254
 20
-117.5175468998741
 30
0.0
  0
SEQEND
  5
6B
330
65
100
AcDbEntity
  8
_U+30EC_U+30A4_U+30E4_U+30FC 1
370
     0
  0
POLYLINE
  5
6C
330
59
100
AcDbEntity
  8
_U+30EC_U+30A4_U+30E4_U+30FC 1
370
     0
100
AcDb2dPolyline
 66
     1
 10
0.0
 20
0.0
 30
0.0
  0
VERTEX
  5
6D
330
6C
100
AcDbEntity
  8
_U+30EC_U+30A4_U+30E4_U+30FC 1
370
     0
100
AcDbVertex
100
AcDb2dVertex
 10
74.88173419351915
 20
-117.2446953374423
 30
0.0
  0
VERTEX
  5
6E
330
6C
100
AcDbEntity
  8
_U+30EC_U+30A4_U+30E4_U+30FC 1
370
     0
100
AcDbVertex
100
AcDb2dVertex
 10
74.72084823435799
 20
-117.2446953374423
 30
0.0
  0
VERTEX
  5
6F
330
6C
100
AcDbEntity
  8
_U+30EC_U+30A4_U+30E4_U+30FC 1
370
     0
100
AcDbVertex
100
AcDb2dVertex
 10
74.72084823435799
 20
-117.3737141633649
 30
0.0
  0
VERTEX
  5
70
330
6C
100
AcDbEntity
  8
_U+30EC_U+30A4_U+30E4_U+30FC 1
370
     0
100
AcDbVertex
100
AcDb2dVertex
 10
74.88173419351915
 20
-117.3737141633649
 30
0.0
  0
VERTEX
  5
71
330
6C
100
AcDbEntity
  8
_U+30EC_U+30A4_U+30E4_U+30FC 1
370
     0
100
AcDbVertex
100
AcDb2dVertex
 10
74.88173419351915
 20
-117.2446953374423
 30
0.0
  0
SEQEND
  5
72
330
6C
100
AcDbEntity
  8
_U+30EC_U+30A4_U+30E4_U+30FC 1
370
     0
  0
POLYLINE
  5
73
330
59
100
AcDbEntity
  8
_U+30EC_U+30A4_U+30E4_U+30FC 1
370
     0
100
AcDb2dPolyline
 66
     1
 10
0.0
 20
0.0
 30
0.0
  0
VERTEX
  5
74
330
73
100
AcDbEntity
  8
_U+30EC_U+30A4_U+30E4_U+30FC 1
370
     0
100
AcDbVertex
100
AcDb2dVertex
 10
74.88173419351915
 20
-117.5175468998741
 30
0.0
  0
VERTEX
  5
75
330
73
100
AcDbEntity
  8
_U+30EC_U+30A4_U+30E4_U+30FC 1
370
     0
100
AcDbVertex
100
AcDb2dVertex
 10
74.72084823435799
 20
-117.5175468998741
 30
0.0
  0
VERTEX
  5
76
330
73
100
AcDbEntity
  8
_U+30EC_U+30A4_U+30E4_U+30FC 1
370
     0
100
AcDbVertex
100
AcDb2dVertex
 10
74.72084823435799
 20
-117.646737980571
 30
0.0
  0
VERTEX
  5
77
330
73
100
AcDbEntity
  8
_U+30EC_U+30A4_U+30E4_U+30FC 1
370
     0
100
AcDbVertex
100
AcDb2dVertex
 10
74.88173419351915
 20
-117.646737980571
 30
0.0
  0
VERTEX
  5
78
330
73
100
AcDbEntity
  8
_U+30EC_U+30A4_U+30E4_U+30FC 1
370
     0
100
AcDbVertex
100
AcDb2dVertex
 10
74.88173419351915
 20
-117.5175468998741
 30
0.0
  0
SEQEND
  5
79
330
73
100
AcDbEntity
  8
_U+30EC_U+30A4_U+30E4_U+30FC 1
370
     0
  0
SPLINE
  5
7A
330
59
100
AcDbEntity
  8
_U+30EC_U+30A4_U+30E4_U+30FC 1
370
     0
100
AcDbSpline
210
0.0
220
0.0
230
1.0
 70
    11
 71
     3
 72
    41
 73
    37
 74
     0
 42
0.0000000001
 43
0.0000000001
 12
1.0
 22
0.0
 32
0.0
 13
1.0
 23
0.0
 33
0.0
 40
0.0
 40
0.0
 40
0.0
 40
0.0
 40
1.0
 40
1.0
 40
1.0
 40
2.0
 40
2.0
 40
2.0
 40
3.0
 40
3.0
 40
3.0
 40
4.0
 40
4.0
 40
4.0
 40
5.0
 40
5.0
 40
5.0
 40
6.0
 40
6.0
 40
6.0
 40
7.0
 40
7.0
 40
7.0
 40
8.0
 40
8.0
 40
8.0
 40
9.0
 40
9.0
 40
9.0
 40
10.0
 40
10.0
 40
10.0
 40
11.0
 40
11.0
 40
11.0
 40
12.0
 40
12.0
 40
12.0
 40
12.0
 10
75.97107338595515
 20
-118.4759724638706
 30
0.0
 10
75.72991670198766
 20
-118.3405802113003
 30
0.0
 10
75.55214977494877
 20
-118.0443019995688
 30
0.0
 10
75.51184215777135
 20
-117.9152831736462
 30
0.0
 10
75.39126381578761
 20
-118.1796942521391
 30
0.0
 10
75.22865530888382
 20
-118.357461179178
 30
0.0
 10
75.04675426726261
 20
-118.471666094514
 30
0.0
 10
75.04675426726261
 20
-118.471666094514
 30
0.0
 10
74.84969480550633
 20
-118.3342067846526
 30
0.0
 10
74.84969480550633
 20
-118.3342067846526
 30
0.0
 10
74.9196302438569
 20
-118.308885332836
 30
0.0
 10
75.0657022924315
 20
-118.2473903784243
 30
0.0
 10
75.18834769170638
 20
-118.0930501006851
 30
0.0
 10
75.31306014827243
 20
-117.9364705108805
 30
0.0
 10
75.40194361179188
 20
-117.7037543108518
 30
0.0
 10
75.40194361179188
 20
-117.4436496017155
 30
0.0
 10
75.40194361179188
 20
-117.3420192849006
 30
0.0
 10
75.38919675849645
 20
-117.2701890440332
 30
0.0
 10
75.37886147204071
 20
-117.223508000208
 30
0.0
 10
75.37886147204071
 20
-117.223508000208
 30
0.0
 10
75.58384465341307
 20
-117.2446953374423
 30
0.0
 10
75.58384465341307
 20
-117.2446953374423
 30
0.0
 10
75.60520424542162
 20
-117.2467623947335
 30
0.0
 10
75.62621932788164
 20
-117.2490017067989
 30
0.0
 10
75.62621932788164
 20
-117.2701890440332
 30
0.0
 10
75.62621932788164
 20
-117.289137069202
 30
0.0
 10
75.61553953187737
 20
-117.2975775531409
 30
0.0
 10
75.58177759612192
 20
-117.3187648903752
 30
0.0
 10
75.57350936695732
 20
-117.5197862119395
 30
0.0
 10
75.63035344246394
 20
-117.7630099531981
 30
0.0
 10
75.69167614210139
 20
-117.8835882951819
 30
0.0
 10
75.78262666291198
 20
-118.0591159101554
 30
0.0
 10
75.97727455782861
 20
-118.2389498944854
 30
0.0
 10
76.11266681039892
 20
-118.2961384795406
 30
0.0
 10
76.11266681039892
 20
-118.2961384795406
 30
0.0
 10
75.97107338595515
 20
-118.4759724638706
 30
0.0
 10
75.97107338595515
 20
-118.4759724638706
 30
0.0
  0
HATCH
  5
7B
330
59
100
AcDbEntity
  8
_U+30EC_U+30A4_U+30E4_U+30FC 1
 62
   179
420
  2234388
100
AcDbHatch
 10
0.0
 20
0.0
 30
0.0
210
0.0
220
0.0
230
1.0
  2
SOLID
 70
     1
 71
     0
 91
        6
 92
        1
 93
        1
 72
     4
 94
        3
 73
     0
 74
     1
 95
      197
 96
      193
 40
0.0
 40
0.0
 40
0.0
 40
0.0
 40
1.0
 40
1.0
 40
1.0
 40
2.0
 40
2.0
 40
2.0
 40
3.0
 40
3.0
 40
3.0
 40
4.0
 40
4.0
 40
4.0
 40
5.0
 40
5.0
 40
5.0
 40
6.0
 40
6.0
 40
6.0
 40
7.0
 40
7.0
 40
7.0
 40
8.0
 40
8.0
 40
8.0
 40
9.0
 40
9.0
 40
9.0
 40
10.0
 40
10.0
 40
10.0
 40
11.0
 40
11.0
 40
11.0
 40
12.0
 40
12.0
 40
12.0
 40
13.0
 40
13.0
 40
13.0
 40
14.0
 40
14.0
 40
14.0
 40
15.0
 40
15.0
 40
15.0
 40
16.0
 40
16.0
 40
16.0
 40
17.0
 40
17.0
 40
17.0
 40
18.0
 40
18.0
 40
18.0
 40
19.0
 40
19.0
 40
19.0
 40
20.0
 40
20.0
 40
20.0
 40
21.0
 40
21.0
 40
21.0
 40
22.0
 40
22.0
 40
22.0
 40
23.0
 40
23.0
 40
23.0
 40
24.0
 40
24.0
 40
24.0
 40
25.0
 40
25.0
 40
25.0
 40
26.0
 40
26.0
 40
26.0
 40
27.0
 40
27.0
 40
27.0
 40
28.0
 40
28.0
 40
28.0
 40
29.0
 40
29.0
 40
29.0
 40
30.0
 40
30.0
 40
30.0
 40
31.0
 40
31.0
 40
31.0
 40
32.0
 40
32.0
 40
32.0
 40
33.0
 40
33.0
 40
33.0
 40
34.0
 40
34.0
 40
34.0
 40
35.0
 40
35.0
 40
35.0
 40
36.0
 40
36.0
 40
36.0
 40
37.0
 40
37.0
 40
37.0
 40
38.0
 40
38.0
 40
38.0
 40
39.0
 40
39.0
 40
39.0
 40
40.0
 40
40.0
 40
40.0
 40
41.0
 40
41.0
 40
41.0
 40
42.0
 40
42.0
 40
42.0
 40
43.0
 40
43.0
 40
43.0
 40
44.0
 40
44.0
 40
44.0
 40
45.0
 40
45.0
 40
45.0
 40
46.0
 40
46.0
 40
46.0
 40
47.0
 40
47.0
 40
47.0
 40
48.0
 40
48.0
 40
48.0
 40
49.0
 40
49.0
 40
49.0
 40
50.0
 40
50.0
 40
50.0
 40
51.0
 40
51.0
 40
51.0
 40
52.0
 40
52.0
 40
52.0
 40
53.0
 40
53.0
 40
53.0
 40
54.0
 40
54.0
 40
54.0
 40
55.0
 40
55.0
 40
55.0
 40
56.0
 40
56.0
 40
56.0
 40
57.0
 40
57.0
 40
57.0
 40
58.0
 40
58.0
 40
58.0
 40
59.0
 40
59.0
 40
59.0
 40
60.0
 40
60.0
 40
60.0
 40
61.0
 40
61.0
 40
61.0
 40
62.0
 40
62.0
 40
62.0
 40
63.0
 40
63.0
 40
63.0
 40
64.0
 40
64.0
 40
64.0
 40
64.0
 10
76.0558227348923
 20
-117.1199828808763
 10
76.04514293888802
 20
-117.1496107020494
 10
76.02171628958833
 20
-117.1961194911003
 10
76.01138100313257
 20
-117.223508000208
 10
76.01138100313257
 20
-117.223508000208
 10
75.95005830349513
 20
-117.3759534754303
 10
75.95005830349513
 20
-117.3759534754303
 10
75.93937850749086
 20
-117.4012749272469
 10
75.89080266114883
 20
-117.5134127852918
 10
75.8780558078534
 20
-117.5366671798172
 10
75.87598875056226
 20
-117.5430406064649
 10
75.87151012643143
 20
-117.5514810904038
 10
75.86944306914029
 20
-117.5578545170515
 10
75.86944306914029
 20
-117.5578545170515
 10
75.65998126363709
 20
-117.5049723013529
 10
75.65998126363709
 20
-117.5049723013529
 10
75.73852944070079
 20
-117.3949015005992
 10
75.79985214033823
 20
-117.2595092480289
 10
75.83154701880254
 20
-117.1496107020494
 10
75.83154701880254
 20
-117.1496107020494
 10
75.36611461874529
 20
-117.1496107020494
 10
75.36611461874529
 20
-117.1496107020494
 10
75.28549938439043
 20
-117.3144585210186
 10
75.21797551287953
 20
-117.392834443308
 10
75.18421357712408
 20
-117.4329698057112
 10
75.18421357712408
 20
-117.4329698057112
 10
75.0615681778492
 20
-117.3673407367172
 10
75.0615681778492
 20
-117.3673407367172
 10
75.0615681778492
 20
-117.3673407367172
 10
75.0615681778492
 20
-117.5387342371084
 10
75.0615681778492
 20
-117.5387342371084
 10
75.0615681778492
 20
-117.646737980571
 10
75.06363523514034
 20
-117.695313826913
 10
75.0739705215961
 20
-117.8010782583102
 10
75.0023125355029
 20
-117.799011201019
 10
74.98095294349434
 20
-117.799011201019
 10
74.77596976212199
 20
-117.799011201019
 10
74.77596976212199
 20
-117.799011201019
 10
74.72084823435799
 20
-117.799011201019
 10
74.72084823435799
 20
-117.799011201019
 10
74.72084823435799
 20
-117.799011201019
 10
74.72084823435799
 20
-117.9344034535893
 10
74.72084823435799
 20
-117.9344034535893
 10
74.72084823435799
 20
-117.9344034535893
 10
74.79285072999971
 20
-117.9344034535893
 10
74.79285072999971
 20
-117.9344034535893
 10
74.85830754421946
 20
-117.9344034535893
 10
75.00437959279405
 20
-117.9300970842328
 10
75.11014402419121
 20
-117.9216566002939
 10
75.11014402419121
 20
-117.9216566002939
 10
75.11014402419121
 20
-118.0994235273328
 10
75.11014402419121
 20
-118.0994235273328
 10
75.01264782195865
 20
-118.0930501006851
 10
74.85417342963716
 20
-118.0887437313285
 10
74.79285072999971
 20
-118.0887437313285
 10
74.79285072999971
 20
-118.0887437313285
 10
74.72084823435799
 20
-118.0887437313285
 10
74.72084823435799
 20
-118.0887437313285
 10
74.72291529164913
 20
-118.177627194848
 10
74.72704940623143
 20
-118.4167168215243
 10
74.72911646352259
 20
-118.4907863744572
 10
74.72911646352259
 20
-118.4907863744572
 10
74.52826739673252
 20
-118.4907863744572
 10
74.52826739673252
 20
-118.4907863744572
 10
74.54101425002794
 20
-118.2770181995974
 10
74.54101425002794
 20
-118.2473903784243
 10
74.54514836461024
 20
-118.0887437313285
 10
74.54514836461024
 20
-118.0887437313285
 10
74.4755574358082
 20
-118.0887437313285
 10
74.4755574358082
 20
-118.0887437313285
 10
74.41836885075305
 20
-118.0887437313285
 10
74.266095630305
 20
-118.0930501006851
 10
74.15585257477701
 20
-118.0994235273328
 10
74.15585257477701
 20
-118.0994235273328
 10
74.15585257477701
 20
-117.9216566002939
 10
74.15585257477701
 20
-117.9216566002939
 10
74.26161700617418
 20
-117.9300970842328
 10
74.40562199745763
 20
-117.9344034535893
 10
74.4755574358082
 20
-117.9344034535893
 10
74.4755574358082
 20
-117.9344034535893
 10
74.54928247919254
 20
-117.9344034535893
 10
74.54928247919254
 20
-117.9344034535893
 10
74.54928247919254
 20
-117.9344034535893
 10
74.54928247919254
 20
-117.799011201019
 10
74.54928247919254
 20
-117.799011201019
 10
74.54928247919254
 20
-117.799011201019
 10
74.50518525698135
 20
-117.799011201019
 10
74.50518525698135
 20
-117.799011201019
 10
74.4287041372088
 20
-117.799011201019
 10
74.23646780913185
 20
-117.8010782583102
 10
74.20236136382789
 20
-117.8010782583102
 10
74.20890704524986
 20
-117.7292480174427
 10
74.21717527441446
 20
-117.6488050378621
 10
74.21717527441446
 20
-117.5282266958784
 10
74.21717527441446
 20
-117.5282266958784
 10
74.21717527441446
 20
-117.354766138196
 10
74.21717527441446
 20
-117.354766138196
 10
74.21717527441446
 20
-117.2827636425543
 10
74.20890704524986
 20
-117.1621853005706
 10
74.20236136382789
 20
-117.08174232099
 10
74.28090954089159
 20
-117.0860486903465
 10
74.31880559122934
 20
-117.0881157476377
 10
74.44592961463505
 20
-117.0881157476377
 10
74.44592961463505
 20
-117.0881157476377
 10
74.54928247919254
 20
-117.0881157476377
 10
74.54928247919254
 20
-117.0881157476377
 10
74.54928247919254
 20
-117.0881157476377
 10
74.54928247919254
 20
-116.9422159538374
 10
74.54928247919254
 20
-116.9422159538374
 10
74.54928247919254
 20
-116.9422159538374
 10
74.47107881167737
 20
-116.9422159538374
 10
74.47107881167737
 20
-116.9422159538374
 10
74.4163017934619
 20
-116.9422159538374
 10
74.24473603829645
 20
-116.9463500684197
 10
74.16033119890784
 20
-116.9527234950674
 10
74.16033119890784
 20
-116.9527234950674
 10
74.16033119890784
 20
-116.7751288228028
 10
74.16033119890784
 20
-116.7751288228028
 10
74.24266898100531
 20
-116.7815022494505
 10
74.40562199745763
 20
-116.7856363640328
 10
74.47107881167737
 20
-116.7856363640328
 10
74.47107881167737
 20
-116.7856363640328
 10
74.54928247919254
 20
-116.7856363640328
 10
74.54928247919254
 20
-116.7856363640328
 10
74.54928247919254
 20
-116.7518744282773
 10
74.54514836461024
 20
-116.5973618957639
 10
74.54514836461024
 20
-116.5656670172996
 10
74.54514836461024
 20
-116.5656670172996
 10
74.74186331681801
 20
-116.5825479851773
 10
74.74186331681801
 20
-116.5825479851773
 10
74.75874428469574
 20
-116.5846150424684
 10
74.78010387670429
 20
-116.5868543545338
 10
74.78010387670429
 20
-116.6080416917681
 10
74.78010387670429
 20
-116.6312960862936
 10
74.75874428469574
 20
-116.6397365702324
 10
74.73152803036226
 20
-116.6523111687536
 10
74.73152803036226
 20
-116.6734985059879
 10
74.72911646352259
 20
-116.768755396155
 10
74.72911646352259
 20
-116.7856363640328
 10
74.72911646352259
 20
-116.7856363640328
 10
74.78837210586889
 20
-116.7856363640328
 10
74.78837210586889
 20
-116.7856363640328
 10
74.8562404869283
 20
-116.7856363640328
 10
74.99990096866323
 20
-116.7815022494505
 10
75.10566540006039
 20
-116.7751288228028
 10
75.10566540006039
 20
-116.7751288228028
 10
75.10566540006039
 20
-116.9527234950674
 10
75.10566540006039
 20
-116.9527234950674
 10
75.00851370737635
 20
-116.9463500684197
 10
74.852106372346
 20
-116.9422159538374
 10
74.78837210586889
 20
-116.9422159538374
 10
74.78837210586889
 20
-116.9422159538374
 10
74.72084823435799
 20
-116.9422159538374
 10
74.72084823435799
 20
-116.9422159538374
 10
74.72084823435799
 20
-116.9422159538374
 10
74.72084823435799
 20
-117.0881157476377
 10
74.72084823435799
 20
-117.0881157476377
 10
74.72084823435799
 20
-117.0881157476377
 10
74.79078367270856
 20
-117.0881157476377
 10
74.79078367270856
 20
-117.0881157476377
 10
74.94064532631693
 20
-117.0881157476377
 10
75.01264782195865
 20
-117.0839816330554
 10
75.0739705215961
 20
-117.08174232099
 10
75.0657022924315
 20
-117.1769992111571
 10
75.06363523514034
 20
-117.2553751334466
 10
75.0615681778492
 20
-117.2934434385586
 10
75.21590845558839
 20
-117.08174232099
 10
75.32167288698555
 20
-116.834384465149
 10
75.33855385486328
 20
-116.5720404439473
 10
75.33855385486328
 20
-116.5720404439473
 10
75.55421683223992
 20
-116.6226833475804
 10
75.55421683223992
 20
-116.6226833475804
 10
75.5690307428265
 20
-116.626989716937
 10
75.58384465341307
 20
-116.6333631435847
 10
75.58384465341307
 20
-116.6502441114624
 10
75.58384465341307
 20
-116.6671250793402
 10
75.57971053883077
 20
-116.6693643914056
 10
75.52906763519759
 20
-116.6903794738656
 10
75.51184215777135
 20
-116.7666883388639
 10
75.48669296072903
 20
-116.8576388596745
 10
75.438117114387
 20
-116.9845906283059
 10
75.438117114387
 20
-116.9845906283059
 10
75.77642549103854
 20
-116.9845906283059
 10
75.77642549103854
 20
-116.9845906283059
 10
75.81466605092481
 20
-116.9845906283059
 10
75.94351262207316
 20
-116.9802842589494
 10
75.99208846841518
 20
-116.9739108323017
 10
75.99208846841518
 20
-116.9739108323017
 10
76.08545055606545
 20
-117.043674015878
 10
76.08545055606545
 20
-117.043674015878
 10
76.07683781735233
 20
-117.0648613531123
 10
76.07063664547887
 20
-117.0839816330554
 10
76.0558227348923
 20
-117.1199828808763
 97
        0
 97
        0
 92
        1
 93
        4
 72
     1
 10
74.54928247919254
 20
-117.2446953374423
 11
74.39080808687105
 21
-117.2446953374423
 72
     1
 10
74.39080808687105
 20
-117.2446953374423
 11
74.39080808687105
 21
-117.3737141633649
 72
     1
 10
74.39080808687105
 20
-117.3737141633649
 11
74.54928247919254
 21
-117.3737141633649
 72
     1
 10
74.54928247919254
 20
-117.3737141633649
 11
74.54928247919254
 21
-117.2446953374423
 97
        0
 92
        1
 93
        4
 72
     1
 10
74.54928247919254
 20
-117.5175468998741
 11
74.39080808687105
 21
-117.5175468998741
 72
     1
 10
74.39080808687105
 20
-117.5175468998741
 11
74.39080808687105
 21
-117.646737980571
 72
     1
 10
74.39080808687105
 20
-117.646737980571
 11
74.54928247919254
 21
-117.646737980571
 72
     1
 10
74.54928247919254
 20
-117.646737980571
 11
74.54928247919254
 21
-117.5175468998741
 97
        0
 92
        1
 93
        4
 72
     1
 10
74.88173419351915
 20
-117.2446953374423
 11
74.72084823435799
 21
-117.2446953374423
 72
     1
 10
74.72084823435799
 20
-117.2446953374423
 11
74.72084823435799
 21
-117.3737141633649
 72
     1
 10
74.72084823435799
 20
-117.3737141633649
 11
74.88173419351915
 21
-117.3737141633649
 72
     1
 10
74.88173419351915
 20
-117.3737141633649
 11
74.88173419351915
 21
-117.2446953374423
 97
        0
 92
        1
 93
        4
 72
     1
 10
74.88173419351915
 20
-117.5175468998741
 11
74.72084823435799
 21
-117.5175468998741
 72
     1
 10
74.72084823435799
 20
-117.5175468998741
 11
74.72084823435799
 21
-117.646737980571
 72
     1
 10
74.72084823435799
 20
-117.646737980571
 11
74.88173419351915
 21
-117.646737980571
 72
     1
 10
74.88173419351915
 20
-117.646737980571
 11
74.88173419351915
 21
-117.5175468998741
 97
        0
 92
        1
 93
        1
 72
     4
 94
        3
 73
     0
 74
     1
 95
       41
 96
       37
 40
0.0
 40
0.0
 40
0.0
 40
0.0
 40
1.0
 40
1.0
 40
1.0
 40
2.0
 40
2.0
 40
2.0
 40
3.0
 40
3.0
 40
3.0
 40
4.0
 40
4.0
 40
4.0
 40
5.0
 40
5.0
 40
5.0
 40
6.0
 40
6.0
 40
6.0
 40
7.0
 40
7.0
 40
7.0
 40
8.0
 40
8.0
 40
8.0
 40
9.0
 40
9.0
 40
9.0
 40
10.0
 40
10.0
 40
10.0
 40
11.0
 40
11.0
 40
11.0
 40
12.0
 40
12.0
 40
12.0
 40
12.0
 10
75.97107338595515
 20
-118.4759724638706
 10
75.72991670198766
 20
-118.3405802113003
 10
75.55214977494877
 20
-118.0443019995688
 10
75.51184215777135
 20
-117.9152831736462
 10
75.39126381578761
 20
-118.1796942521391
 10
75.22865530888382
 20
-118.357461179178
 10
75.04675426726261
 20
-118.471666094514
 10
75.04675426726261
 20
-118.471666094514
 10
74.84969480550633
 20
-118.3342067846526
 10
74.84969480550633
 20
-118.3342067846526
 10
74.9196302438569
 20
-118.308885332836
 10
75.0657022924315
 20
-118.2473903784243
 10
75.18834769170638
 20
-118.0930501006851
 10
75.31306014827243
 20
-117.9364705108805
 10
75.40194361179188
 20
-117.7037543108518
 10
75.40194361179188
 20
-117.4436496017155
 10
75.40194361179188
 20
-117.3420192849006
 10
75.38919675849645
 20
-117.2701890440332
 10
75.37886147204071
 20
-117.223508000208
 10
75.37886147204071
 20
-117.223508000208
 10
75.58384465341307
 20
-117.2446953374423
 10
75.58384465341307
 20
-117.2446953374423
 10
75.60520424542162
 20
-117.2467623947335
 10
75.62621932788164
 20
-117.2490017067989
 10
75.62621932788164
 20
-117.2701890440332
 10
75.62621932788164
 20
-117.289137069202
 10
75.61553953187737
 20
-117.2975775531409
 10
75.58177759612192
 20
-117.3187648903752
 10
75.57350936695732
 20
-117.5197862119395
 10
75.63035344246394
 20
-117.7630099531981
 10
75.69167614210139
 20
-117.8835882951819
 10
75.78262666291198
 20
-118.0591159101554
 10
75.97727455782861
 20
-118.2389498944854
 10
76.11266681039892
 20
-118.2961384795406
 10
76.11266681039892
 20
-118.2961384795406
 10
75.97107338595515
 20
-118.4759724638706
 10
75.97107338595515
 20
-118.4759724638706
 97
        0
 97
        0
 75
     2
 76
     1
 98
        0
  0
SPLINE
  5
7C
330
59
100
AcDbEntity
  8
_U+30EC_U+30A4_U+30E4_U+30FC 1
370
     0
100
AcDbSpline
210
0.0
220
0.0
230
1.0
 70
    11
 71
     3
 72
    71
 73
    67
 74
     0
 42
0.0000000001
 43
0.0000000001
 12
1.0
 22
0.0
 32
0.0
 13
1.0
 23
0.0
 33
0.0
 40
0.0
 40
0.0
 40
0.0
 40
0.0
 40
1.0
 40
1.0
 40
1.0
 40
2.0
 40
2.0
 40
2.0
 40
3.0
 40
3.0
 40
3.0
 40
4.0
 40
4.0
 40
4.0
 40
5.0
 40
5.0
 40
5.0
 40
6.0
 40
6.0
 40
6.0
 40
7.0
 40
7.0
 40
7.0
 40
8.0
 40
8.0
 40
8.0
 40
9.0
 40
9.0
 40
9.0
 40
10.0
 40
10.0
 40
10.0
 40
11.0
 40
11.0
 40
11.0
 40
12.0
 40
12.0
 40
12.0
 40
13.0
 40
13.0
 40
13.0
 40
14.0
 40
14.0
 40
14.0
 40
15.0
 40
15.0
 40
15.0
 40
16.0
 40
16.0
 40
16.0
 40
17.0
 40
17.0
 40
17.0
 40
18.0
 40
18.0
 40
18.0
 40
19.0
 40
19.0
 40
19.0
 40
20.0
 40
20.0
 40
20.0
 40
21.0
 40
21.0
 40
21.0
 40
22.0
 40
22.0
 40
22.0
 40
22.0
 10
77.16548799069128
 20
-116.7434339443384
 30
0.0
 10
77.1506740801047
 20
-116.7434339443384
 30
0.0
 10
77.13792722680927
 20
-116.7391275749819
 30
0.0
 10
77.11243352021842
 20
-116.730687091043
 30
0.0
 10
76.97084009577465
 20
-116.7771958800939
 30
0.0
 10
76.79720728331806
 20
-116.7940768479716
 30
0.0
 10
76.65768091616545
 20
-116.7983832173282
 30
0.0
 10
76.65768091616545
 20
-116.7983832173282
 30
0.0
 10
76.65561385887429
 20
-116.8872666808476
 30
0.0
 10
76.65561385887429
 20
-116.8872666808476
 30
0.0
 10
76.65561385887429
 20
-116.8872666808476
 30
0.0
 10
76.91571856801066
 20
-116.8872666808476
 30
0.0
 10
76.91571856801066
 20
-116.8872666808476
 30
0.0
 10
76.9687730384835
 20
-116.8872666808476
 30
0.0
 10
77.1506740801047
 20
-116.8788261969088
 30
0.0
 10
77.19511581186443
 20
-116.8724527702611
 30
0.0
 10
77.19511581186443
 20
-116.8724527702611
 30
0.0
 10
77.19511581186443
 20
-117.033166474648
 30
0.0
 10
77.19511581186443
 20
-117.033166474648
 30
0.0
 10
77.13999428410042
 20
-117.0267930480003
 30
0.0
 10
77.01528182753438
 20
-117.0247259907091
 30
0.0
 10
76.9770412676481
 20
-117.0267930480003
 30
0.0
 10
76.9770412676481
 20
-117.0267930480003
 30
0.0
 10
76.9770412676481
 20
-117.136863848754
 30
0.0
 10
76.9770412676481
 20
-117.136863848754
 30
0.0
 10
76.9770412676481
 20
-117.1833726378049
 30
0.0
 10
76.97910832493925
 20
-117.2467623947335
 30
0.0
 10
76.98565400636123
 20
-117.2850029546197
 30
0.0
 10
76.98565400636123
 20
-117.2850029546197
 30
0.0
 10
76.79307316873576
 20
-117.2850029546197
 30
0.0
 10
76.79307316873576
 20
-117.2850029546197
 30
0.0
 10
76.79927434060922
 20
-117.2446953374423
 30
0.0
 10
76.80582002203118
 20
-117.1621853005706
 30
0.0
 10
76.80582002203118
 20
-117.147371389984
 30
0.0
 10
76.80582002203118
 20
-117.147371389984
 30
0.0
 10
76.80582002203118
 20
-117.0267930480003
 30
0.0
 10
76.80582002203118
 20
-117.0267930480003
 30
0.0
 10
76.80582002203118
 20
-117.0267930480003
 30
0.0
 10
76.64079994828772
 20
-117.0267930480003
 30
0.0
 10
76.64079994828772
 20
-117.0267930480003
 30
0.0
 10
76.59842527381915
 20
-117.2467623947335
 30
0.0
 10
76.54330374605514
 20
-117.327205374314
 30
0.0
 10
76.43753931465798
 20
-117.4265963790635
 30
0.0
 10
76.43753931465798
 20
-117.4265963790635
 30
0.0
 10
76.27045218362336
 20
-117.3123914637275
 30
0.0
 10
76.27045218362336
 20
-117.3123914637275
 30
0.0
 10
76.33384194055196
 20
-117.2638156173854
 30
0.0
 10
76.48404810370886
 20
-117.1516777593406
 30
0.0
 10
76.48404810370886
 20
-116.8025173319105
 30
0.0
 10
76.48404810370886
 20
-116.7200072950388
 30
0.0
 10
76.47577987454426
 20
-116.6734985059879
 30
0.0
 10
76.46716713583113
 20
-116.6249226596459
 30
0.0
 10
76.61323918440573
 20
-116.6397365702324
 30
0.0
 10
76.6280530949923
 20
-116.6397365702324
 30
0.0
 10
76.66388208803889
 20
-116.6397365702324
 30
0.0
 10
76.77205808627573
 20
-116.6397365702324
 30
0.0
 10
76.9136515107195
 20
-116.6226833475804
 30
0.0
 10
77.07453746988068
 20
-116.561360647943
 30
0.0
 10
77.07453746988068
 20
-116.561360647943
 30
0.0
 10
77.18857013044244
 20
-116.692618785931
 30
0.0
 10
77.18857013044244
 20
-116.692618785931
 30
0.0
 10
77.19511581186443
 20
-116.6989922125787
 30
0.0
 10
77.19924992644673
 20
-116.7074326965176
 30
0.0
 10
77.19924992644673
 20
-116.7158731804565
 30
0.0
 10
77.19924992644673
 20
-116.7391275749819
 30
0.0
 10
77.18030190127784
 20
-116.7434339443384
 30
0.0
 10
77.16548799069128
 20
-116.7434339443384
 30
0.0
  0
SPLINE
  5
7D
330
59
100
AcDbEntity
  8
_U+30EC_U+30A4_U+30E4_U+30FC 1
370
     0
100
AcDbSpline
210
0.0
220
0.0
230
1.0
 70
    11
 71
     3
 72
    74
 73
    70
 74
     0
 42
0.0000000001
 43
0.0000000001
 12
1.0
 22
0.0
 32
0.0
 13
1.0
 23
0.0
 33
0.0
 40
0.0
 40
0.0
 40
0.0
 40
0.0
 40
1.0
 40
1.0
 40
1.0
 40
2.0
 40
2.0
 40
2.0
 40
3.0
 40
3.0
 40
3.0
 40
4.0
 40
4.0
 40
4.0
 40
5.0
 40
5.0
 40
5.0
 40
6.0
 40
6.0
 40
6.0
 40
7.0
 40
7.0
 40
7.0
 40
8.0
 40
8.0
 40
8.0
 40
9.0
 40
9.0
 40
9.0
 40
10.0
 40
10.0
 40
10.0
 40
11.0
 40
11.0
 40
11.0
 40
12.0
 40
12.0
 40
12.0
 40
13.0
 40
13.0
 40
13.0
 40
14.0
 40
14.0
 40
14.0
 40
15.0
 40
15.0
 40
15.0
 40
16.0
 40
16.0
 40
16.0
 40
17.0
 40
17.0
 40
17.0
 40
18.0
 40
18.0
 40
18.0
 40
19.0
 40
19.0
 40
19.0
 40
20.0
 40
20.0
 40
20.0
 40
21.0
 40
21.0
 40
21.0
 40
22.0
 40
22.0
 40
22.0
 40
23.0
 40
23.0
 40
23.0
 40
23.0
 10
78.0029907031555
 20
-118.509734399626
 30
0.0
 10
77.78939478307002
 20
-118.499226858396
 30
0.0
 10
77.58854571627995
 20
-118.4124104521677
 30
0.0
 10
77.4128458465322
 20
-118.291832110184
 30
0.0
 10
77.4128458465322
 20
-118.291832110184
 30
0.0
 10
77.51034204876478
 20
-118.20518795873
 30
0.0
 10
77.51034204876478
 20
-118.20518795873
 30
0.0
 10
77.51034204876478
 20
-118.20518795873
 30
0.0
 10
76.95809324247924
 20
-118.20518795873
 30
0.0
 10
76.95809324247924
 20
-118.20518795873
 30
0.0
 10
76.95809324247924
 20
-118.20518795873
 30
0.0
 10
77.03836396728555
 20
-118.2685777156586
 30
0.0
 10
77.03836396728555
 20
-118.2685777156586
 30
0.0
 10
77.04490964870753
 20
-118.2728840850151
 30
0.0
 10
77.05524493516327
 20
-118.2833916262451
 30
0.0
 10
77.05524493516327
 20
-118.2982055368317
 30
0.0
 10
77.05524493516327
 20
-118.3385131540091
 30
0.0
 10
76.9811753822304
 20
-118.3321397273614
 30
0.0
 10
76.96636147164384
 20
-118.329900415296
 30
0.0
 10
76.73588458368062
 20
-118.4695990372229
 30
0.0
 10
76.5922241019457
 20
-118.5012939156872
 30
0.0
 10
76.48852672783968
 20
-118.5181748835649
 30
0.0
 10
76.48852672783968
 20
-118.5181748835649
 30
0.0
 10
76.35933564714281
 20
-118.3405802113003
 30
0.0
 10
76.35933564714281
 20
-118.3405802113003
 30
0.0
 10
76.60703801253227
 20
-118.308885332836
 30
0.0
 10
76.70832381979862
 20
-118.2622042890108
 30
0.0
 10
76.79720728331806
 20
-118.2093220733123
 30
0.0
 10
76.72313773038519
 20
-118.2115613853777
 30
0.0
 10
76.60910506982343
 20
-118.2136284426688
 30
0.0
 10
76.57741019135912
 20
-118.21569549996
 30
0.0
 10
76.5922241019457
 20
-118.1268120364405
 30
0.0
 10
76.59429115923685
 20
-117.9977932105179
 30
0.0
 10
76.59429115923685
 20
-117.923723657585
 30
0.0
 10
76.59429115923685
 20
-117.923723657585
 30
0.0
 10
76.59429115923685
 20
-117.6233113312713
 30
0.0
 10
76.59429115923685
 20
-117.6233113312713
 30
0.0
 10
76.59429115923685
 20
-117.5239203265218
 30
0.0
 10
76.58774547781488
 20
-117.4245293217723
 30
0.0
 10
76.57741019135912
 20
-117.327205374314
 30
0.0
 10
76.67869599862547
 20
-117.3335788009617
 30
0.0
 10
76.9095173961372
 20
-117.3399522276095
 30
0.0
 10
77.01734888482552
 20
-117.3399522276095
 30
0.0
 10
77.01734888482552
 20
-117.3399522276095
 30
0.0
 10
77.4404066104142
 20
-117.3399522276095
 30
0.0
 10
77.4404066104142
 20
-117.3399522276095
 30
0.0
 10
77.5589178951068
 20
-117.3399522276095
 30
0.0
 10
77.60129256957538
 20
-117.3399522276095
 30
0.0
 10
77.68363035167285
 20
-117.3356458582529
 30
0.0
 10
77.83176945753858
 20
-117.3292724316052
 30
0.0
 10
77.84865042541631
 20
-117.3292724316052
 30
0.0
 10
77.89515921446718
 20
-117.327205374314
 30
0.0
 10
77.88689098530259
 20
-117.4076483538946
 30
0.0
 10
77.88241236117176
 20
-117.5662950009904
 30
0.0
 10
77.88241236117176
 20
-117.6488050378621
 30
0.0
 10
77.88241236117176
 20
-117.6488050378621
 30
0.0
 10
77.88241236117176
 20
-117.9344034535893
 30
0.0
 10
77.88241236117176
 20
-117.9344034535893
 30
0.0
 10
77.88241236117176
 20
-118.0062336944568
 30
0.0
 10
77.88447941846292
 20
-118.1374918324448
 30
0.0
 10
77.89515921446718
 20
-118.21569549996
 30
0.0
 10
77.82315671882546
 20
-118.2115613853777
 30
0.0
 10
77.70051131955057
 20
-118.2093220733123
 30
0.0
 10
77.6223076520354
 20
-118.2072550160211
 30
0.0
 10
77.73220619801486
 20
-118.2749511423063
 30
0.0
 10
77.88447941846292
 20
-118.3257663007137
 30
0.0
 10
78.09635279080578
 20
-118.329900415296
 30
0.0
 10
78.09635279080578
 20
-118.329900415296
 30
0.0
 10
78.0029907031555
 20
-118.509734399626
 30
0.0
 10
78.0029907031555
 20
-118.509734399626
 30
0.0
  0
POLYLINE
  5
7E
330
59
100
AcDbEntity
  8
_U+30EC_U+30A4_U+30E4_U+30FC 1
370
     0
100
AcDb2dPolyline
 66
     1
 10
0.0
 20
0.0
 30
0.0
  0
VERTEX
  5
7F
330
7E
100
AcDbEntity
  8
_U+30EC_U+30A4_U+30E4_U+30FC 1
370
     0
100
AcDbVertex
100
AcDb2dVertex
 10
77.69844426225941
 20
-117.4753444801798
 30
0.0
  0
VERTEX
  5
80
330
7E
100
AcDbEntity
  8
_U+30EC_U+30A4_U+30E4_U+30FC 1
370
     0
100
AcDbVertex
100
AcDb2dVertex
 10
76.78652748731379
 20
-117.4753444801798
 30
0.0
  0
VERTEX
  5
81
330
7E
100
AcDbEntity
  8
_U+30EC_U+30A4_U+30E4_U+30FC 1
370
     0
100
AcDbVertex
100
AcDb2dVertex
 10
76.78652748731379
 20
-117.5874823382247
 30
0.0
  0
VERTEX
  5
82
330
7E
100
AcDbEntity
  8
_U+30EC_U+30A4_U+30E4_U+30FC 1
370
     0
100
AcDbVertex
100
AcDb2dVertex
 10
77.69844426225941
 20
-117.5874823382247
 30
0.0
  0
VERTEX
  5
83
330
7E
100
AcDbEntity
  8
_U+30EC_U+30A4_U+30E4_U+30FC 1
370
     0
100
AcDbVertex
100
AcDb2dVertex
 10
77.69844426225941
 20
-117.4753444801798
 30
0.0
  0
SEQEND
  5
84
330
7E
100
AcDbEntity
  8
_U+30EC_U+30A4_U+30E4_U+30FC 1
370
     0
  0
POLYLINE
  5
85
330
59
100
AcDbEntity
  8
_U+30EC_U+30A4_U+30E4_U+30FC 1
370
     0
100
AcDb2dPolyline
 66
     1
 10
0.0
 20
0.0
 30
0.0
  0
VERTEX
  5
86
330
85
100
AcDbEntity
  8
_U+30EC_U+30A4_U+30E4_U+30FC 1
370
     0
100
AcDbVertex
100
AcDb2dVertex
 10
77.69844426225941
 20
-117.7206352787296
 30
0.0
  0
VERTEX
  5
87
330
85
100
AcDbEntity
  8
_U+30EC_U+30A4_U+30E4_U+30FC 1
370
     0
100
AcDbVertex
100
AcDb2dVertex
 10
76.78652748731379
 20
-117.7206352787296
 30
0.0
  0
VERTEX
  5
88
330
85
100
AcDbEntity
  8
_U+30EC_U+30A4_U+30E4_U+30FC 1
370
     0
100
AcDbVertex
100
AcDb2dVertex
 10
76.78652748731379
 20
-117.8307060794833
 30
0.0
  0
VERTEX
  5
89
330
85
100
AcDbEntity
  8
_U+30EC_U+30A4_U+30E4_U+30FC 1
370
     0
100
AcDbVertex
100
AcDb2dVertex
 10
77.69844426225941
 20
-117.8307060794833
 30
0.0
  0
VERTEX
  5
8A
330
85
100
AcDbEntity
  8
_U+30EC_U+30A4_U+30E4_U+30FC 1
370
     0
100
AcDbVertex
100
AcDb2dVertex
 10
77.69844426225941
 20
-117.7206352787296
 30
0.0
  0
SEQEND
  5
8B
330
85
100
AcDbEntity
  8
_U+30EC_U+30A4_U+30E4_U+30FC 1
370
     0
  0
POLYLINE
  5
8C
330
59
100
AcDbEntity
  8
_U+30EC_U+30A4_U+30E4_U+30FC 1
370
     0
100
AcDb2dPolyline
 66
     1
 10
0.0
 20
0.0
 30
0.0
  0
VERTEX
  5
8D
330
8C
100
AcDbEntity
  8
_U+30EC_U+30A4_U+30E4_U+30FC 1
370
     0
100
AcDbVertex
100
AcDb2dVertex
 10
77.69844426225941
 20
-117.9660983320536
 30
0.0
  0
VERTEX
  5
8E
330
8C
100
AcDbEntity
  8
_U+30EC_U+30A4_U+30E4_U+30FC 1
370
     0
100
AcDbVertex
100
AcDb2dVertex
 10
76.78652748731379
 20
-117.9660983320536
 30
0.0
  0
VERTEX
  5
8F
330
8C
100
AcDbEntity
  8
_U+30EC_U+30A4_U+30E4_U+30FC 1
370
     0
100
AcDbVertex
100
AcDb2dVertex
 10
76.78652748731379
 20
-118.0739298207419
 30
0.0
  0
VERTEX
  5
90
330
8C
100
AcDbEntity
  8
_U+30EC_U+30A4_U+30E4_U+30FC 1
370
     0
100
AcDbVertex
100
AcDb2dVertex
 10
77.69844426225941
 20
-118.0739298207419
 30
0.0
  0
VERTEX
  5
91
330
8C
100
AcDbEntity
  8
_U+30EC_U+30A4_U+30E4_U+30FC 1
370
     0
100
AcDbVertex
100
AcDb2dVertex
 10
77.69844426225941
 20
-117.9660983320536
 30
0.0
  0
SEQEND
  5
92
330
8C
100
AcDbEntity
  8
_U+30EC_U+30A4_U+30E4_U+30FC 1
370
     0
  0
SPLINE
  5
93
330
59
100
AcDbEntity
  8
_U+30EC_U+30A4_U+30E4_U+30FC 1
370
     0
100
AcDbSpline
210
0.0
220
0.0
230
1.0
 70
    11
 71
     3
 72
    74
 73
    70
 74
     0
 42
0.0000000001
 43
0.0000000001
 12
1.0
 22
0.0
 32
0.0
 13
1.0
 23
0.0
 33
0.0
 40
0.0
 40
0.0
 40
0.0
 40
0.0
 40
1.0
 40
1.0
 40
1.0
 40
2.0
 40
2.0
 40
2.0
 40
3.0
 40
3.0
 40
3.0
 40
4.0
 40
4.0
 40
4.0
 40
5.0
 40
5.0
 40
5.0
 40
6.0
 40
6.0
 40
6.0
 40
7.0
 40
7.0
 40
7.0
 40
8.0
 40
8.0
 40
8.0
 40
9.0
 40
9.0
 40
9.0
 40
10.0
 40
10.0
 40
10.0
 40
11.0
 40
11.0
 40
11.0
 40
12.0
 40
12.0
 40
12.0
 40
13.0
 40
13.0
 40
13.0
 40
14.0
 40
14.0
 40
14.0
 40
15.0
 40
15.0
 40
15.0
 40
16.0
 40
16.0
 40
16.0
 40
17.0
 40
17.0
 40
17.0
 40
18.0
 40
18.0
 40
18.0
 40
19.0
 40
19.0
 40
19.0
 40
20.0
 40
20.0
 40
20.0
 40
21.0
 40
21.0
 40
21.0
 40
22.0
 40
22.0
 40
22.0
 40
23.0
 40
23.0
 40
23.0
 40
23.0
 10
78.01573755645093
 20
-117.022658933418
 30
0.0
 10
78.01573755645093
 20
-117.022658933418
 30
0.0
 10
77.85519610683829
 20
-117.022658933418
 30
0.0
 10
77.85519610683829
 20
-117.022658933418
 30
0.0
 10
77.85519610683829
 20
-117.022658933418
 30
0.0
 10
77.85519610683829
 20
-117.136863848754
 30
0.0
 10
77.85519610683829
 20
-117.136863848754
 30
0.0
 10
77.85519610683829
 20
-117.1769992111571
 30
0.0
 10
77.86139727871173
 20
-117.25106876409
 30
0.0
 10
77.86553139329403
 20
-117.2763902159066
 30
0.0
 10
77.86553139329403
 20
-117.2763902159066
 30
0.0
 10
77.6540025304997
 20
-117.2763902159066
 30
0.0
 10
77.6540025304997
 20
-117.2763902159066
 30
0.0
 10
77.66468232650398
 20
-117.2109334016869
 30
0.0
 10
77.66674938379512
 20
-117.1516777593406
 30
0.0
 10
77.66674938379512
 20
-117.1496107020494
 30
0.0
 10
77.66674938379512
 20
-117.1496107020494
 30
0.0
 10
77.66674938379512
 20
-117.0267930480003
 30
0.0
 10
77.66674938379512
 20
-117.0267930480003
 30
0.0
 10
77.66674938379512
 20
-117.0267930480003
 30
0.0
 10
77.48691539946508
 20
-117.0267930480003
 30
0.0
 10
77.48691539946508
 20
-117.0267930480003
 30
0.0
 10
77.46796737429621
 20
-117.0860486903465
 30
0.0
 10
77.42145858524533
 20
-117.2319484841469
 30
0.0
 10
77.30708141513504
 20
-117.3144585210186
 30
0.0
 10
77.30708141513504
 20
-117.3144585210186
 30
0.0
 10
77.1506740801047
 20
-117.2086940896214
 30
0.0
 10
77.1506740801047
 20
-117.2086940896214
 30
0.0
 10
77.22474363303756
 20
-117.1621853005706
 30
0.0
 10
77.34084335089048
 20
-117.0881157476377
 30
0.0
 10
77.34084335089048
 20
-116.7666883388639
 30
0.0
 10
77.34084335089048
 20
-116.7115668110999
 30
0.0
 10
77.33670923630818
 20
-116.6671250793402
 30
0.0
 10
77.33464217901704
 20
-116.6290567742282
 30
0.0
 10
77.41077878924106
 20
-116.637497258167
 30
0.0
 10
77.48484834217393
 20
-116.6438706848147
 30
0.0
 10
77.54823809910253
 20
-116.6438706848147
 30
0.0
 10
77.72600502614142
 20
-116.6438706848147
 30
0.0
 10
77.92478703564034
 20
-116.5846150424684
 30
0.0
 10
77.98610973527778
 20
-116.5549872212953
 30
0.0
 10
77.98610973527778
 20
-116.5549872212953
 30
0.0
 10
78.1132337586835
 20
-116.6903794738656
 30
0.0
 10
78.1132337586835
 20
-116.6903794738656
 30
0.0
 10
78.1173678732658
 20
-116.6946858432222
 30
0.0
 10
78.11943493055695
 20
-116.703126327161
 30
0.0
 10
78.11943493055695
 20
-116.7094997538087
 30
0.0
 10
78.11943493055695
 20
-116.730687091043
 30
0.0
 10
78.10462101997038
 20
-116.7370605176907
 30
0.0
 10
78.08774005209266
 20
-116.7370605176907
 30
0.0
 10
78.06672496963263
 20
-116.7370605176907
 30
0.0
 10
78.05191105904605
 20
-116.7286200337519
 30
0.0
 10
78.03261852432865
 20
-116.7179402377476
 30
0.0
 10
77.85933022142059
 20
-116.7751288228028
 30
0.0
 10
77.64125567720427
 20
-116.8004502746193
 30
0.0
 10
77.5079304819251
 20
-116.8025173319105
 30
0.0
 10
77.5079304819251
 20
-116.8025173319105
 30
0.0
 10
77.5037963673428
 20
-116.8850273687822
 30
0.0
 10
77.5037963673428
 20
-116.8850273687822
 30
0.0
 10
77.5037963673428
 20
-116.8850273687822
 30
0.0
 10
77.7766479297746
 20
-116.8850273687822
 30
0.0
 10
77.7766479297746
 20
-116.8850273687822
 30
0.0
 10
77.83383651482974
 20
-116.8850273687822
 30
0.0
 10
78.09635279080578
 20
-116.8660793436134
 30
0.0
 10
78.14045001301697
 20
-116.8597059169656
 30
0.0
 10
78.14045001301697
 20
-116.8597059169656
 30
0.0
 10
78.14045001301697
 20
-117.0288601052914
 30
0.0
 10
78.14045001301697
 20
-117.0288601052914
 30
0.0
 10
78.10668807726152
 20
-117.0247259907091
 30
0.0
 10
78.0939412239661
 20
-117.022658933418
 30
0.0
 10
78.01573755645093
 20
-117.022658933418
 30
0.0
  0
HATCH
  5
94
330
59
100
AcDbEntity
  8
_U+30EC_U+30A4_U+30E4_U+30FC 1
 62
   179
420
  2234388
100
AcDbHatch
 10
0.0
 20
0.0
 30
0.0
210
0.0
220
0.0
230
1.0
  2
SOLID
 70
     1
 71
     0
 91
        6
 92
        1
 93
        1
 72
     4
 94
        3
 73
     0
 74
     1
 95
       71
 96
       67
 40
0.0
 40
0.0
 40
0.0
 40
0.0
 40
1.0
 40
1.0
 40
1.0
 40
2.0
 40
2.0
 40
2.0
 40
3.0
 40
3.0
 40
3.0
 40
4.0
 40
4.0
 40
4.0
 40
5.0
 40
5.0
 40
5.0
 40
6.0
 40
6.0
 40
6.0
 40
7.0
 40
7.0
 40
7.0
 40
8.0
 40
8.0
 40
8.0
 40
9.0
 40
9.0
 40
9.0
 40
10.0
 40
10.0
 40
10.0
 40
11.0
 40
11.0
 40
11.0
 40
12.0
 40
12.0
 40
12.0
 40
13.0
 40
13.0
 40
13.0
 40
14.0
 40
14.0
 40
14.0
 40
15.0
 40
15.0
 40
15.0
 40
16.0
 40
16.0
 40
16.0
 40
17.0
 40
17.0
 40
17.0
 40
18.0
 40
18.0
 40
18.0
 40
19.0
 40
19.0
 40
19.0
 40
20.0
 40
20.0
 40
20.0
 40
21.0
 40
21.0
 40
21.0
 40
22.0
 40
22.0
 40
22.0
 40
22.0
 10
77.16548799069128
 20
-116.7434339443384
 10
77.1506740801047
 20
-116.7434339443384
 10
77.13792722680927
 20
-116.7391275749819
 10
77.11243352021842
 20
-116.730687091043
 10
76.97084009577465
 20
-116.7771958800939
 10
76.79720728331806
 20
-116.7940768479716
 10
76.65768091616545
 20
-116.7983832173282
 10
76.65768091616545
 20
-116.7983832173282
 10
76.65561385887429
 20
-116.8872666808476
 10
76.65561385887429
 20
-116.8872666808476
 10
76.65561385887429
 20
-116.8872666808476
 10
76.91571856801066
 20
-116.8872666808476
 10
76.91571856801066
 20
-116.8872666808476
 10
76.9687730384835
 20
-116.8872666808476
 10
77.1506740801047
 20
-116.8788261969088
 10
77.19511581186443
 20
-116.8724527702611
 10
77.19511581186443
 20
-116.8724527702611
 10
77.19511581186443
 20
-117.033166474648
 10
77.19511581186443
 20
-117.033166474648
 10
77.13999428410042
 20
-117.0267930480003
 10
77.01528182753438
 20
-117.0247259907091
 10
76.9770412676481
 20
-117.0267930480003
 10
76.9770412676481
 20
-117.0267930480003
 10
76.9770412676481
 20
-117.136863848754
 10
76.9770412676481
 20
-117.136863848754
 10
76.9770412676481
 20
-117.1833726378049
 10
76.97910832493925
 20
-117.2467623947335
 10
76.98565400636123
 20
-117.2850029546197
 10
76.98565400636123
 20
-117.2850029546197
 10
76.79307316873576
 20
-117.2850029546197
 10
76.79307316873576
 20
-117.2850029546197
 10
76.79927434060922
 20
-117.2446953374423
 10
76.80582002203118
 20
-117.1621853005706
 10
76.80582002203118
 20
-117.147371389984
 10
76.80582002203118
 20
-117.147371389984
 10
76.80582002203118
 20
-117.0267930480003
 10
76.80582002203118
 20
-117.0267930480003
 10
76.80582002203118
 20
-117.0267930480003
 10
76.64079994828772
 20
-117.0267930480003
 10
76.64079994828772
 20
-117.0267930480003
 10
76.59842527381915
 20
-117.2467623947335
 10
76.54330374605514
 20
-117.327205374314
 10
76.43753931465798
 20
-117.4265963790635
 10
76.43753931465798
 20
-117.4265963790635
 10
76.27045218362336
 20
-117.3123914637275
 10
76.27045218362336
 20
-117.3123914637275
 10
76.33384194055196
 20
-117.2638156173854
 10
76.48404810370886
 20
-117.1516777593406
 10
76.48404810370886
 20
-116.8025173319105
 10
76.48404810370886
 20
-116.7200072950388
 10
76.47577987454426
 20
-116.6734985059879
 10
76.46716713583113
 20
-116.6249226596459
 10
76.61323918440573
 20
-116.6397365702324
 10
76.6280530949923
 20
-116.6397365702324
 10
76.66388208803889
 20
-116.6397365702324
 10
76.77205808627573
 20
-116.6397365702324
 10
76.9136515107195
 20
-116.6226833475804
 10
77.07453746988068
 20
-116.561360647943
 10
77.07453746988068
 20
-116.561360647943
 10
77.18857013044244
 20
-116.692618785931
 10
77.18857013044244
 20
-116.692618785931
 10
77.19511581186443
 20
-116.6989922125787
 10
77.19924992644673
 20
-116.7074326965176
 10
77.19924992644673
 20
-116.7158731804565
 10
77.19924992644673
 20
-116.7391275749819
 10
77.18030190127784
 20
-116.7434339443384
 10
77.16548799069128
 20
-116.7434339443384
 97
        0
 97
        0
 92
        1
 93
        1
 72
     4
 94
        3
 73
     0
 74
     1
 95
       74
 96
       70
 40
0.0
 40
0.0
 40
0.0
 40
0.0
 40
1.0
 40
1.0
 40
1.0
 40
2.0
 40
2.0
 40
2.0
 40
3.0
 40
3.0
 40
3.0
 40
4.0
 40
4.0
 40
4.0
 40
5.0
 40
5.0
 40
5.0
 40
6.0
 40
6.0
 40
6.0
 40
7.0
 40
7.0
 40
7.0
 40
8.0
 40
8.0
 40
8.0
 40
9.0
 40
9.0
 40
9.0
 40
10.0
 40
10.0
 40
10.0
 40
11.0
 40
11.0
 40
11.0
 40
12.0
 40
12.0
 40
12.0
 40
13.0
 40
13.0
 40
13.0
 40
14.0
 40
14.0
 40
14.0
 40
15.0
 40
15.0
 40
15.0
 40
16.0
 40
16.0
 40
16.0
 40
17.0
 40
17.0
 40
17.0
 40
18.0
 40
18.0
 40
18.0
 40
19.0
 40
19.0
 40
19.0
 40
20.0
 40
20.0
 40
20.0
 40
21.0
 40
21.0
 40
21.0
 40
22.0
 40
22.0
 40
22.0
 40
23.0
 40
23.0
 40
23.0
 40
23.0
 10
78.0029907031555
 20
-118.509734399626
 10
77.78939478307002
 20
-118.499226858396
 10
77.58854571627995
 20
-118.4124104521677
 10
77.4128458465322
 20
-118.291832110184
 10
77.4128458465322
 20
-118.291832110184
 10
77.51034204876478
 20
-118.20518795873
 10
77.51034204876478
 20
-118.20518795873
 10
77.51034204876478
 20
-118.20518795873
 10
76.95809324247924
 20
-118.20518795873
 10
76.95809324247924
 20
-118.20518795873
 10
76.95809324247924
 20
-118.20518795873
 10
77.03836396728555
 20
-118.2685777156586
 10
77.03836396728555
 20
-118.2685777156586
 10
77.04490964870753
 20
-118.2728840850151
 10
77.05524493516327
 20
-118.2833916262451
 10
77.05524493516327
 20
-118.2982055368317
 10
77.05524493516327
 20
-118.3385131540091
 10
76.9811753822304
 20
-118.3321397273614
 10
76.96636147164384
 20
-118.329900415296
 10
76.73588458368062
 20
-118.4695990372229
 10
76.5922241019457
 20
-118.5012939156872
 10
76.48852672783968
 20
-118.5181748835649
 10
76.48852672783968
 20
-118.5181748835649
 10
76.35933564714281
 20
-118.3405802113003
 10
76.35933564714281
 20
-118.3405802113003
 10
76.60703801253227
 20
-118.308885332836
 10
76.70832381979862
 20
-118.2622042890108
 10
76.79720728331806
 20
-118.2093220733123
 10
76.72313773038519
 20
-118.2115613853777
 10
76.60910506982343
 20
-118.2136284426688
 10
76.57741019135912
 20
-118.21569549996
 10
76.5922241019457
 20
-118.1268120364405
 10
76.59429115923685
 20
-117.9977932105179
 10
76.59429115923685
 20
-117.923723657585
 10
76.59429115923685
 20
-117.923723657585
 10
76.59429115923685
 20
-117.6233113312713
 10
76.59429115923685
 20
-117.6233113312713
 10
76.59429115923685
 20
-117.5239203265218
 10
76.58774547781488
 20
-117.4245293217723
 10
76.57741019135912
 20
-117.327205374314
 10
76.67869599862547
 20
-117.3335788009617
 10
76.9095173961372
 20
-117.3399522276095
 10
77.01734888482552
 20
-117.3399522276095
 10
77.01734888482552
 20
-117.3399522276095
 10
77.4404066104142
 20
-117.3399522276095
 10
77.4404066104142
 20
-117.3399522276095
 10
77.5589178951068
 20
-117.3399522276095
 10
77.60129256957538
 20
-117.3399522276095
 10
77.68363035167285
 20
-117.3356458582529
 10
77.83176945753858
 20
-117.3292724316052
 10
77.84865042541631
 20
-117.3292724316052
 10
77.89515921446718
 20
-117.327205374314
 10
77.88689098530259
 20
-117.4076483538946
 10
77.88241236117176
 20
-117.5662950009904
 10
77.88241236117176
 20
-117.6488050378621
 10
77.88241236117176
 20
-117.6488050378621
 10
77.88241236117176
 20
-117.9344034535893
 10
77.88241236117176
 20
-117.9344034535893
 10
77.88241236117176
 20
-118.0062336944568
 10
77.88447941846292
 20
-118.1374918324448
 10
77.89515921446718
 20
-118.21569549996
 10
77.82315671882546
 20
-118.2115613853777
 10
77.70051131955057
 20
-118.2093220733123
 10
77.6223076520354
 20
-118.2072550160211
 10
77.73220619801486
 20
-118.2749511423063
 10
77.88447941846292
 20
-118.3257663007137
 10
78.09635279080578
 20
-118.329900415296
 10
78.09635279080578
 20
-118.329900415296
 10
78.0029907031555
 20
-118.509734399626
 10
78.0029907031555
 20
-118.509734399626
 97
        0
 97
        0
 92
        1
 93
        4
 72
     1
 10
77.69844426225941
 20
-117.4753444801798
 11
76.78652748731379
 21
-117.4753444801798
 72
     1
 10
76.78652748731379
 20
-117.4753444801798
 11
76.78652748731379
 21
-117.5874823382247
 72
     1
 10
76.78652748731379
 20
-117.5874823382247
 11
77.69844426225941
 21
-117.5874823382247
 72
     1
 10
77.69844426225941
 20
-117.5874823382247
 11
77.69844426225941
 21
-117.4753444801798
 97
        0
 92
        1
 93
        4
 72
     1
 10
77.69844426225941
 20
-117.7206352787296
 11
76.78652748731379
 21
-117.7206352787296
 72
     1
 10
76.78652748731379
 20
-117.7206352787296
 11
76.78652748731379
 21
-117.8307060794833
 72
     1
 10
76.78652748731379
 20
-117.8307060794833
 11
77.69844426225941
 21
-117.8307060794833
 72
     1
 10
77.69844426225941
 20
-117.8307060794833
 11
77.69844426225941
 21
-117.7206352787296
 97
        0
 92
        1
 93
        4
 72
     1
 10
77.69844426225941
 20
-117.9660983320536
 11
76.78652748731379
 21
-117.9660983320536
 72
     1
 10
76.78652748731379
 20
-117.9660983320536
 11
76.78652748731379
 21
-118.0739298207419
 72
     1
 10
76.78652748731379
 20
-118.0739298207419
 11
77.69844426225941
 21
-118.0739298207419
 72
     1
 10
77.69844426225941
 20
-118.0739298207419
 11
77.69844426225941
 21
-117.9660983320536
 97
        0
 92
        1
 93
        1
 72
     4
 94
        3
 73
     0
 74
     1
 95
       74
 96
       70
 40
0.0
 40
0.0
 40
0.0
 40
0.0
 40
1.0
 40
1.0
 40
1.0
 40
2.0
 40
2.0
 40
2.0
 40
3.0
 40
3.0
 40
3.0
 40
4.0
 40
4.0
 40
4.0
 40
5.0
 40
5.0
 40
5.0
 40
6.0
 40
6.0
 40
6.0
 40
7.0
 40
7.0
 40
7.0
 40
8.0
 40
8.0
 40
8.0
 40
9.0
 40
9.0
 40
9.0
 40
10.0
 40
10.0
 40
10.0
 40
11.0
 40
11.0
 40
11.0
 40
12.0
 40
12.0
 40
12.0
 40
13.0
 40
13.0
 40
13.0
 40
14.0
 40
14.0
 40
14.0
 40
15.0
 40
15.0
 40
15.0
 40
16.0
 40
16.0
 40
16.0
 40
17.0
 40
17.0
 40
17.0
 40
18.0
 40
18.0
 40
18.0
 40
19.0
 40
19.0
 40
19.0
 40
20.0
 40
20.0
 40
20.0
 40
21.0
 40
21.0
 40
21.0
 40
22.0
 40
22.0
 40
22.0
 40
23.0
 40
23.0
 40
23.0
 40
23.0
 10
78.01573755645093
 20
-117.022658933418
 10
78.01573755645093
 20
-117.022658933418
 10
77.85519610683829
 20
-117.022658933418
 10
77.85519610683829
 20
-117.022658933418
 10
77.85519610683829
 20
-117.022658933418
 10
77.85519610683829
 20
-117.136863848754
 10
77.85519610683829
 20
-117.136863848754
 10
77.85519610683829
 20
-117.1769992111571
 10
77.86139727871173
 20
-117.25106876409
 10
77.86553139329403
 20
-117.2763902159066
 10
77.86553139329403
 20
-117.2763902159066
 10
77.6540025304997
 20
-117.2763902159066
 10
77.6540025304997
 20
-117.2763902159066
 10
77.66468232650398
 20
-117.2109334016869
 10
77.66674938379512
 20
-117.1516777593406
 10
77.66674938379512
 20
-117.1496107020494
 10
77.66674938379512
 20
-117.1496107020494
 10
77.66674938379512
 20
-117.0267930480003
 10
77.66674938379512
 20
-117.0267930480003
 10
77.66674938379512
 20
-117.0267930480003
 10
77.48691539946508
 20
-117.0267930480003
 10
77.48691539946508
 20
-117.0267930480003
 10
77.46796737429621
 20
-117.0860486903465
 10
77.42145858524533
 20
-117.2319484841469
 10
77.30708141513504
 20
-117.3144585210186
 10
77.30708141513504
 20
-117.3144585210186
 10
77.1506740801047
 20
-117.2086940896214
 10
77.1506740801047
 20
-117.2086940896214
 10
77.22474363303756
 20
-117.1621853005706
 10
77.34084335089048
 20
-117.0881157476377
 10
77.34084335089048
 20
-116.7666883388639
 10
77.34084335089048
 20
-116.7115668110999
 10
77.33670923630818
 20
-116.6671250793402
 10
77.33464217901704
 20
-116.6290567742282
 10
77.41077878924106
 20
-116.637497258167
 10
77.48484834217393
 20
-116.6438706848147
 10
77.54823809910253
 20
-116.6438706848147
 10
77.72600502614142
 20
-116.6438706848147
 10
77.92478703564034
 20
-116.5846150424684
 10
77.98610973527778
 20
-116.5549872212953
 10
77.98610973527778
 20
-116.5549872212953
 10
78.1132337586835
 20
-116.6903794738656
 10
78.1132337586835
 20
-116.6903794738656
 10
78.1173678732658
 20
-116.6946858432222
 10
78.11943493055695
 20
-116.703126327161
 10
78.11943493055695
 20
-116.7094997538087
 10
78.11943493055695
 20
-116.730687091043
 10
78.10462101997038
 20
-116.7370605176907
 10
78.08774005209266
 20
-116.7370605176907
 10
78.06672496963263
 20
-116.7370605176907
 10
78.05191105904605
 20
-116.7286200337519
 10
78.03261852432865
 20
-116.7179402377476
 10
77.85933022142059
 20
-116.7751288228028
 10
77.64125567720427
 20
-116.8004502746193
 10
77.5079304819251
 20
-116.8025173319105
 10
77.5079304819251
 20
-116.8025173319105
 10
77.5037963673428
 20
-116.8850273687822
 10
77.5037963673428
 20
-116.8850273687822
 10
77.5037963673428
 20
-116.8850273687822
 10
77.7766479297746
 20
-116.8850273687822
 10
77.7766479297746
 20
-116.8850273687822
 10
77.83383651482974
 20
-116.8850273687822
 10
78.09635279080578
 20
-116.8660793436134
 10
78.14045001301697
 20
-116.8597059169656
 10
78.14045001301697
 20
-116.8597059169656
 10
78.14045001301697
 20
-117.0288601052914
 10
78.14045001301697
 20
-117.0288601052914
 10
78.10668807726152
 20
-117.0247259907091
 10
78.0939412239661
 20
-117.022658933418
 10
78.01573755645093
 20
-117.022658933418
 97
        0
 97
        0
 75
     2
 76
     1
 98
        0
  0
SPLINE
  5
95
330
59
100
AcDbEntity
  8
_U+30EC_U+30A4_U+30E4_U+30FC 1
370
     0
100
AcDbSpline
210
0.0
220
0.0
230
1.0
 70
    11
 71
     3
 72
    53
 73
    49
 74
     0
 42
0.0000000001
 43
0.0000000001
 12
1.0
 22
0.0
 32
0.0
 13
1.0
 23
0.0
 33
0.0
 40
0.0
 40
0.0
 40
0.0
 40
0.0
 40
1.0
 40
1.0
 40
1.0
 40
2.0
 40
2.0
 40
2.0
 40
3.0
 40
3.0
 40
3.0
 40
4.0
 40
4.0
 40
4.0
 40
5.0
 40
5.0
 40
5.0
 40
6.0
 40
6.0
 40
6.0
 40
7.0
 40
7.0
 40
7.0
 40
8.0
 40
8.0
 40
8.0
 40
9.0
 40
9.0
 40
9.0
 40
10.0
 40
10.0
 40
10.0
 40
11.0
 40
11.0
 40
11.0
 40
12.0
 40
12.0
 40
12.0
 40
13.0
 40
13.0
 40
13.0
 40
14.0
 40
14.0
 40
14.0
 40
15.0
 40
15.0
 40
15.0
 40
16.0
 40
16.0
 40
16.0
 40
16.0
 10
79.46922334167783
 20
-118.38502194306
 30
0.0
 10
79.27905407089204
 20
-118.38502194306
 30
0.0
 10
79.21979842854574
 20
-118.2601372317197
 30
0.0
 10
79.21979842854574
 20
-118.1119981258539
 30
0.0
 10
79.21979842854574
 20
-118.1119981258539
 30
0.0
 10
79.21979842854574
 20
-117.4181558951246
 30
0.0
 10
79.21979842854574
 20
-117.4181558951246
 30
0.0
 10
79.21979842854574
 20
-117.4181558951246
 30
0.0
 10
79.03789738692456
 20
-117.4181558951246
 30
0.0
 10
79.03789738692456
 20
-117.4181558951246
 30
0.0
 10
79.03789738692456
 20
-117.4181558951246
 30
0.0
 10
79.03789738692456
 20
-117.2257473122734
 30
0.0
 10
79.03789738692456
 20
-117.2257473122734
 30
0.0
 10
79.03789738692456
 20
-117.2257473122734
 30
0.0
 10
79.21979842854574
 20
-117.2257473122734
 30
0.0
 10
79.21979842854574
 20
-117.2257473122734
 30
0.0
 10
79.21979842854574
 20
-117.2257473122734
 30
0.0
 10
79.21979842854574
 20
-116.9105210753731
 30
0.0
 10
79.21979842854574
 20
-116.9105210753731
 30
0.0
 10
79.21979842854574
 20
-116.9105210753731
 30
0.0
 10
79.43752846321354
 20
-116.9105210753731
 30
0.0
 10
79.43752846321354
 20
-116.9105210753731
 30
0.0
 10
79.43752846321354
 20
-116.9105210753731
 30
0.0
 10
79.43752846321354
 20
-117.2257473122734
 30
0.0
 10
79.43752846321354
 20
-117.2257473122734
 30
0.0
 10
79.43752846321354
 20
-117.2257473122734
 30
0.0
 10
79.62804224354785
 20
-117.2257473122734
 30
0.0
 10
79.62804224354785
 20
-117.2257473122734
 30
0.0
 10
79.62804224354785
 20
-117.2257473122734
 30
0.0
 10
79.62804224354785
 20
-117.4181558951246
 30
0.0
 10
79.62804224354785
 20
-117.4181558951246
 30
0.0
 10
79.62804224354785
 20
-117.4181558951246
 30
0.0
 10
79.43752846321354
 20
-117.4181558951246
 30
0.0
 10
79.43752846321354
 20
-117.4181558951246
 30
0.0
 10
79.43752846321354
 20
-117.4181558951246
 30
0.0
 10
79.43752846321354
 20
-118.0866766740374
 30
0.0
 10
79.43752846321354
 20
-118.0866766740374
 30
0.0
 10
79.43752846321354
 20
-118.1712537682002
 30
0.0
 10
79.49058293368638
 20
-118.1945081627257
 30
0.0
 10
79.56224091977958
 20
-118.1945081627257
 30
0.0
 10
79.57292071578385
 20
-118.1945081627257
 30
0.0
 10
79.59634736508356
 20
-118.1945081627257
 30
0.0
 10
79.62804224354785
 20
-118.1903740481434
 30
0.0
 10
79.62804224354785
 20
-118.1903740481434
 30
0.0
 10
79.62804224354785
 20
-118.3617675485346
 30
0.0
 10
79.62804224354785
 20
-118.3617675485346
 30
0.0
 10
79.5942803077924
 20
-118.3743421470557
 30
0.0
 10
79.52021075485953
 20
-118.38502194306
 30
0.0
 10
79.46922334167783
 20
-118.38502194306
 30
0.0
  0
HATCH
  5
96
330
59
100
AcDbEntity
  8
_U+30EC_U+30A4_U+30E4_U+30FC 1
 62
   179
420
  2234388
100
AcDbHatch
 10
0.0
 20
0.0
 30
0.0
210
0.0
220
0.0
230
1.0
  2
SOLID
 70
     1
 71
     0
 91
        1
 92
        1
 93
        1
 72
     4
 94
        3
 73
     0
 74
     1
 95
       53
 96
       49
 40
0.0
 40
0.0
 40
0.0
 40
0.0
 40
1.0
 40
1.0
 40
1.0
 40
2.0
 40
2.0
 40
2.0
 40
3.0
 40
3.0
 40
3.0
 40
4.0
 40
4.0
 40
4.0
 40
5.0
 40
5.0
 40
5.0
 40
6.0
 40
6.0
 40
6.0
 40
7.0
 40
7.0
 40
7.0
 40
8.0
 40
8.0
 40
8.0
 40
9.0
 40
9.0
 40
9.0
 40
10.0
 40
10.0
 40
10.0
 40
11.0
 40
11.0
 40
11.0
 40
12.0
 40
12.0
 40
12.0
 40
13.0
 40
13.0
 40
13.0
 40
14.0
 40
14.0
 40
14.0
 40
15.0
 40
15.0
 40
15.0
 40
16.0
 40
16.0
 40
16.0
 40
16.0
 10
79.46922334167783
 20
-118.38502194306
 10
79.27905407089204
 20
-118.38502194306
 10
79.21979842854574
 20
-118.2601372317197
 10
79.21979842854574
 20
-118.1119981258539
 10
79.21979842854574
 20
-118.1119981258539
 10
79.21979842854574
 20
-117.4181558951246
 10
79.21979842854574
 20
-117.4181558951246
 10
79.21979842854574
 20
-117.4181558951246
 10
79.03789738692456
 20
-117.4181558951246
 10
79.03789738692456
 20
-117.4181558951246
 10
79.03789738692456
 20
-117.4181558951246
 10
79.03789738692456
 20
-117.2257473122734
 10
79.03789738692456
 20
-117.2257473122734
 10
79.03789738692456
 20
-117.2257473122734
 10
79.21979842854574
 20
-117.2257473122734
 10
79.21979842854574
 20
-117.2257473122734
 10
79.21979842854574
 20
-117.2257473122734
 10
79.21979842854574
 20
-116.9105210753731
 10
79.21979842854574
 20
-116.9105210753731
 10
79.21979842854574
 20
-116.9105210753731
 10
79.43752846321354
 20
-116.9105210753731
 10
79.43752846321354
 20
-116.9105210753731
 10
79.43752846321354
 20
-116.9105210753731
 10
79.43752846321354
 20
-117.2257473122734
 10
79.43752846321354
 20
-117.2257473122734
 10
79.43752846321354
 20
-117.2257473122734
 10
79.62804224354785
 20
-117.2257473122734
 10
79.62804224354785
 20
-117.2257473122734
 10
79.62804224354785
 20
-117.2257473122734
 10
79.62804224354785
 20
-117.4181558951246
 10
79.62804224354785
 20
-117.4181558951246
 10
79.62804224354785
 20
-117.4181558951246
 10
79.43752846321354
 20
-117.4181558951246
 10
79.43752846321354
 20
-117.4181558951246
 10
79.43752846321354
 20
-117.4181558951246
 10
79.43752846321354
 20
-118.0866766740374
 10
79.43752846321354
 20
-118.0866766740374
 10
79.43752846321354
 20
-118.1712537682002
 10
79.49058293368638
 20
-118.1945081627257
 10
79.56224091977958
 20
-118.1945081627257
 10
79.57292071578385
 20
-118.1945081627257
 10
79.59634736508356
 20
-118.1945081627257
 10
79.62804224354785
 20
-118.1903740481434
 10
79.62804224354785
 20
-118.1903740481434
 10
79.62804224354785
 20
-118.3617675485346
 10
79.62804224354785
 20
-118.3617675485346
 10
79.5942803077924
 20
-118.3743421470557
 10
79.52021075485953
 20
-118.38502194306
 10
79.46922334167783
 20
-118.38502194306
 97
        0
 97
        0
 75
     2
 76
     1
 98
        0
  0
POLYLINE
  5
97
330
59
100
AcDbEntity
  8
_U+30EC_U+30A4_U+30E4_U+30FC 1
370
     0
100
AcDb2dPolyline
 66
     1
 10
0.0
 20
0.0
 30
0.0
  0
VERTEX
  5
98
330
97
100
AcDbEntity
  8
_U+30EC_U+30A4_U+30E4_U+30FC 1
370
     0
100
AcDbVertex
100
AcDb2dVertex
 10
79.84060463498777
 20
-117.4477837162978
 30
0.0
  0
VERTEX
  5
99
330
97
100
AcDbEntity
  8
_U+30EC_U+30A4_U+30E4_U+30FC 1
370
     0
100
AcDbVertex
100
AcDb2dVertex
 10
79.84060463498777
 20
-117.2426282801512
 30
0.0
  0
VERTEX
  5
9A
330
97
100
AcDbEntity
  8
_U+30EC_U+30A4_U+30E4_U+30FC 1
370
     0
100
AcDbVertex
100
AcDb2dVertex
 10
81.01882729094321
 20
-117.2426282801512
 30
0.0
  0
VERTEX
  5
9B
330
97
100
AcDbEntity
  8
_U+30EC_U+30A4_U+30E4_U+30FC 1
370
     0
100
AcDbVertex
100
AcDb2dVertex
 10
81.01882729094321
 20
-117.4477837162978
 30
0.0
  0
VERTEX
  5
9C
330
97
100
AcDbEntity
  8
_U+30EC_U+30A4_U+30E4_U+30FC 1
370
     0
100
AcDbVertex
100
AcDb2dVertex
 10
79.84060463498777
 20
-117.4477837162978
 30
0.0
  0
SEQEND
  5
9D
330
97
100
AcDbEntity
  8
_U+30EC_U+30A4_U+30E4_U+30FC 1
370
     0
  0
POLYLINE
  5
9E
330
59
100
AcDbEntity
  8
_U+30EC_U+30A4_U+30E4_U+30FC 1
370
     0
100
AcDb2dPolyline
 66
     1
 10
0.0
 20
0.0
 30
0.0
  0
VERTEX
  5
9F
330
9E
100
AcDbEntity
  8
_U+30EC_U+30A4_U+30E4_U+30FC 1
370
     0
100
AcDbVertex
100
AcDb2dVertex
 10
79.84060463498777
 20
-117.8815212378907
 30
0.0
  0
VERTEX
  5
A0
330
9E
100
AcDbEntity
  8
_U+30EC_U+30A4_U+30E4_U+30FC 1
370
     0
100
AcDbVertex
100
AcDb2dVertex
 10
79.84060463498777
 20
-117.6763658017441
 30
0.0
  0
VERTEX
  5
A1
330
9E
100
AcDbEntity
  8
_U+30EC_U+30A4_U+30E4_U+30FC 1
370
     0
100
AcDbVertex
100
AcDb2dVertex
 10
81.01882729094321
 20
-117.6763658017441
 30
0.0
  0
VERTEX
  5
A2
330
9E
100
AcDbEntity
  8
_U+30EC_U+30A4_U+30E4_U+30FC 1
370
     0
100
AcDbVertex
100
AcDb2dVertex
 10
81.01882729094321
 20
-117.8815212378907
 30
0.0
  0
VERTEX
  5
A3
330
9E
100
AcDbEntity
  8
_U+30EC_U+30A4_U+30E4_U+30FC 1
370
     0
100
AcDbVertex
100
AcDb2dVertex
 10
79.84060463498777
 20
-117.8815212378907
 30
0.0
  0
SEQEND
  5
A4
330
9E
100
AcDbEntity
  8
_U+30EC_U+30A4_U+30E4_U+30FC 1
370
     0
  0
HATCH
  5
A5
330
59
100
AcDbEntity
  8
_U+30EC_U+30A4_U+30E4_U+30FC 1
 62
   179
420
  2234388
100
AcDbHatch
 10
0.0
 20
0.0
 30
0.0
210
0.0
220
0.0
230
1.0
  2
SOLID
 70
     1
 71
     0
 91
        2
 92
        1
 93
        4
 72
     1
 10
79.84060463498777
 20
-117.4477837162978
 11
79.84060463498777
 21
-117.2426282801512
 72
     1
 10
79.84060463498777
 20
-117.2426282801512
 11
81.01882729094321
 21
-117.2426282801512
 72
     1
 10
81.01882729094321
 20
-117.2426282801512
 11
81.01882729094321
 21
-117.4477837162978
 72
     1
 10
81.01882729094321
 20
-117.4477837162978
 11
79.84060463498777
 21
-117.4477837162978
 97
        0
 92
        1
 93
        4
 72
     1
 10
79.84060463498777
 20
-117.8815212378907
 11
79.84060463498777
 21
-117.6763658017441
 72
     1
 10
79.84060463498777
 20
-117.6763658017441
 11
81.01882729094321
 21
-117.6763658017441
 72
     1
 10
81.01882729094321
 20
-117.6763658017441
 11
81.01882729094321
 21
-117.8815212378907
 72
     1
 10
81.01882729094321
 20
-117.8815212378907
 11
79.84060463498777
 21
-117.8815212378907
 97
        0
 75
     2
 76
     1
 98
        0
  0
SPLINE
  5
A6
330
59
100
AcDbEntity
  8
_U+30EC_U+30A4_U+30E4_U+30FC 1
370
     0
100
AcDbSpline
210
0.0
220
0.0
230
1.0
 70
    11
 71
     3
 72
    26
 73
    22
 74
     0
 42
0.0000000001
 43
0.0000000001
 12
1.0
 22
0.0
 32
0.0
 13
1.0
 23
0.0
 33
0.0
 40
0.0
 40
0.0
 40
0.0
 40
0.0
 40
1.0
 40
1.0
 40
1.0
 40
2.0
 40
2.0
 40
2.0
 40
3.0
 40
3.0
 40
3.0
 40
4.0
 40
4.0
 40
4.0
 40
5.0
 40
5.0
 40
5.0
 40
6.0
 40
6.0
 40
6.0
 40
7.0
 40
7.0
 40
7.0
 40
7.0
 10
81.6558254461659
 20
-118.3342067846526
 30
0.0
 10
81.6558254461659
 20
-118.3342067846526
 30
0.0
 10
81.6558254461659
 20
-117.2298814268557
 30
0.0
 10
81.6558254461659
 20
-117.2298814268557
 30
0.0
 10
81.6558254461659
 20
-117.2298814268557
 30
0.0
 10
81.32578529867898
 20
-117.2298814268557
 30
0.0
 10
81.32578529867898
 20
-117.2298814268557
 30
0.0
 10
81.32578529867898
 20
-117.2298814268557
 30
0.0
 10
81.32578529867898
 20
-117.08174232099
 30
0.0
 10
81.32578529867898
 20
-117.08174232099
 30
0.0
 10
81.65789250345706
 20
-117.0671006651777
 30
0.0
 10
81.70440129250792
 20
-116.9041476487254
 30
0.0
 10
81.73402911368107
 20
-116.7899427333893
 30
0.0
 10
81.73402911368107
 20
-116.7899427333893
 30
0.0
 10
81.88010116225567
 20
-116.7899427333893
 30
0.0
 10
81.88010116225567
 20
-116.7899427333893
 30
0.0
 10
81.88010116225567
 20
-116.7899427333893
 30
0.0
 10
81.88010116225567
 20
-118.3342067846526
 30
0.0
 10
81.88010116225567
 20
-118.3342067846526
 30
0.0
 10
81.88010116225567
 20
-118.3342067846526
 30
0.0
 10
81.6558254461659
 20
-118.3342067846526
 30
0.0
 10
81.6558254461659
 20
-118.3342067846526
 30
0.0
  0
HATCH
  5
A7
330
59
100
AcDbEntity
  8
_U+30EC_U+30A4_U+30E4_U+30FC 1
 62
   179
420
  2234388
100
AcDbHatch
 10
0.0
 20
0.0
 30
0.0
210
0.0
220
0.0
230
1.0
  2
SOLID
 70
     1
 71
     0
 91
        1
 92
        1
 93
        1
 72
     4
 94
        3
 73
     0
 74
     1
 95
       26
 96
       22
 40
0.0
 40
0.0
 40
0.0
 40
0.0
 40
1.0
 40
1.0
 40
1.0
 40
2.0
 40
2.0
 40
2.0
 40
3.0
 40
3.0
 40
3.0
 40
4.0
 40
4.0
 40
4.0
 40
5.0
 40
5.0
 40
5.0
 40
6.0
 40
6.0
 40
6.0
 40
7.0
 40
7.0
 40
7.0
 40
7.0
 10
81.6558254461659
 20
-118.3342067846526
 10
81.6558254461659
 20
-118.3342067846526
 10
81.6558254461659
 20
-117.2298814268557
 10
81.6558254461659
 20
-117.2298814268557
 10
81.6558254461659
 20
-117.2298814268557
 10
81.32578529867898
 20
-117.2298814268557
 10
81.32578529867898
 20
-117.2298814268557
 10
81.32578529867898
 20
-117.2298814268557
 10
81.32578529867898
 20
-117.08174232099
 10
81.32578529867898
 20
-117.08174232099
 10
81.65789250345706
 20
-117.0671006651777
 10
81.70440129250792
 20
-116.9041476487254
 10
81.73402911368107
 20
-116.7899427333893
 10
81.73402911368107
 20
-116.7899427333893
 10
81.88010116225567
 20
-116.7899427333893
 10
81.88010116225567
 20
-116.7899427333893
 10
81.88010116225567
 20
-116.7899427333893
 10
81.88010116225567
 20
-118.3342067846526
 10
81.88010116225567
 20
-118.3342067846526
 10
81.88010116225567
 20
-118.3342067846526
 10
81.6558254461659
 20
-118.3342067846526
 10
81.6558254461659
 20
-118.3342067846526
 97
        0
 97
        0
 75
     2
 76
     1
 98
        0
  0
POLYLINE
  5
A8
330
59
100
AcDbEntity
  8
_U+30EC_U+30A4_U+30E4_U+30FC 1
370
     0
100
AcDb2dPolyline
 66
     1
 10
0.0
 20
0.0
 30
0.0
  0
VERTEX
  5
A9
330
A8
100
AcDbEntity
  8
_U+30EC_U+30A4_U+30E4_U+30FC 1
370
     0
100
AcDbVertex
100
AcDb2dVertex
 10
82.32279593211028
 20
-118.3342067846526
 30
0.0
  0
VERTEX
  5
AA
330
A8
100
AcDbEntity
  8
_U+30EC_U+30A4_U+30E4_U+30FC 1
370
     0
100
AcDbVertex
100
AcDb2dVertex
 10
82.32279593211028
 20
-118.0825425594551
 30
0.0
  0
VERTEX
  5
AB
330
A8
100
AcDbEntity
  8
_U+30EC_U+30A4_U+30E4_U+30FC 1
370
     0
100
AcDbVertex
100
AcDb2dVertex
 10
82.57463241208204
 20
-118.0825425594551
 30
0.0
  0
VERTEX
  5
AC
330
A8
100
AcDbEntity
  8
_U+30EC_U+30A4_U+30E4_U+30FC 1
370
     0
100
AcDbVertex
100
AcDb2dVertex
 10
82.57463241208204
 20
-118.3342067846526
 30
0.0
  0
VERTEX
  5
AD
330
A8
100
AcDbEntity
  8
_U+30EC_U+30A4_U+30E4_U+30FC 1
370
     0
100
AcDbVertex
100
AcDb2dVertex
 10
82.32279593211028
 20
-118.3342067846526
 30
0.0
  0
SEQEND
  5
AE
330
A8
100
AcDbEntity
  8
_U+30EC_U+30A4_U+30E4_U+30FC 1
370
     0
  0
HATCH
  5
AF
330
59
100
AcDbEntity
  8
_U+30EC_U+30A4_U+30E4_U+30FC 1
 62
   179
420
  2234388
100
AcDbHatch
 10
0.0
 20
0.0
 30
0.0
210
0.0
220
0.0
230
1.0
  2
SOLID
 70
     1
 71
     0
 91
        1
 92
        1
 93
        4
 72
     1
 10
82.32279593211028
 20
-118.3342067846526
 11
82.32279593211028
 21
-118.0825425594551
 72
     1
 10
82.32279593211028
 20
-118.0825425594551
 11
82.57463241208204
 21
-118.0825425594551
 72
     1
 10
82.57463241208204
 20
-118.0825425594551
 11
82.57463241208204
 21
-118.3342067846526
 72
     1
 10
82.57463241208204
 20
-118.3342067846526
 11
82.32279593211028
 21
-118.3342067846526
 97
        0
 75
     2
 76
     1
 98
        0
  0
SPLINE
  5
B0
330
59
100
AcDbEntity
  8
_U+30EC_U+30A4_U+30E4_U+30FC 1
370
     0
100
AcDbSpline
210
0.0
220
0.0
230
1.0
 70
    11
 71
     3
 72
    29
 73
    25
 74
     0
 42
0.0000000001
 43
0.0000000001
 12
1.0
 22
0.0
 32
0.0
 13
1.0
 23
0.0
 33
0.0
 40
0.0
 40
0.0
 40
0.0
 40
0.0
 40
1.0
 40
1.0
 40
1.0
 40
2.0
 40
2.0
 40
2.0
 40
3.0
 40
3.0
 40
3.0
 40
4.0
 40
4.0
 40
4.0
 40
5.0
 40
5.0
 40
5.0
 40
6.0
 40
6.0
 40
6.0
 40
7.0
 40
7.0
 40
7.0
 40
8.0
 40
8.0
 40
8.0
 40
8.0
 10
83.8661987095022
 20
-118.1564398576137
 30
0.0
 10
83.75802271126535
 20
-118.3659016631169
 30
0.0
 10
83.58473440835729
 20
-118.38502194306
 30
0.0
 10
83.46829018095585
 20
-118.38502194306
 30
0.0
 10
83.30740422179468
 20
-118.38502194306
 30
0.0
 10
83.16581079735091
 20
-118.3385131540091
 30
0.0
 10
83.07072616195802
 20
-118.1564398576137
 30
0.0
 10
82.967028787852
 20
-117.9619642174713
 30
0.0
 10
82.9477362531346
 20
-117.7249416480861
 30
0.0
 10
82.9477362531346
 20
-117.5619886316338
 30
0.0
 10
82.9477362531346
 20
-117.4181558951246
 30
0.0
 10
82.96496173056084
 20
-117.1664916699271
 30
0.0
 10
83.07072616195802
 20
-116.967537405654
 30
0.0
 10
83.17855765064634
 20
-116.7644490267985
 30
0.0
 10
83.3394436098075
 20
-116.741194632273
 30
0.0
 10
83.46829018095585
 20
-116.741194632273
 30
0.0
 10
83.62710908282587
 20
-116.741194632273
 30
0.0
 10
83.77076956456078
 20
-116.7856363640328
 30
0.0
 10
83.8661987095022
 20
-116.967537405654
 30
0.0
 10
83.9654174594774
 20
-117.1601182432794
 30
0.0
 10
83.9888441087771
 20
-117.3885280739515
 30
0.0
 10
83.9888441087771
 20
-117.5619886316338
 30
0.0
 10
83.9888441087771
 20
-117.733382132025
 30
0.0
 10
83.96748451676855
 20
-117.9640312747625
 30
0.0
 10
83.8661987095022
 20
-118.1564398576137
 30
0.0
  0
SPLINE
  5
B1
330
59
100
AcDbEntity
  8
_U+30EC_U+30A4_U+30E4_U+30FC 1
370
     0
100
AcDbSpline
210
0.0
220
0.0
230
1.0
 70
    11
 71
     3
 72
    17
 73
    13
 74
     0
 42
0.0000000001
 43
0.0000000001
 12
1.0
 22
0.0
 32
0.0
 13
1.0
 23
0.0
 33
0.0
 40
0.0
 40
0.0
 40
0.0
 40
0.0
 40
1.0
 40
1.0
 40
1.0
 40
2.0
 40
2.0
 40
2.0
 40
3.0
 40
3.0
 40
3.0
 40
4.0
 40
4.0
 40
4.0
 40
4.0
 10
83.46829018095585
 20
-116.9337754698985
 30
0.0
 10
83.21852075827523
 20
-116.9337754698985
 30
0.0
 10
83.17201196922436
 20
-117.2171345735603
 30
0.0
 10
83.17201196922436
 20
-117.5619886316338
 30
0.0
 10
83.17201196922436
 20
-117.8815212378907
 30
0.0
 10
83.20818547181949
 20
-118.1903740481434
 30
0.0
 10
83.46829018095585
 20
-118.1903740481434
 30
0.0
 10
83.7159925463453
 20
-118.1903740481434
 30
0.0
 10
83.76456839268734
 20
-117.9089097469985
 30
0.0
 10
83.76456839268734
 20
-117.5619886316338
 30
0.0
 10
83.76456839268734
 20
-117.2426282801512
 30
0.0
 10
83.72632783280106
 20
-116.9337754698985
 30
0.0
 10
83.46829018095585
 20
-116.9337754698985
 30
0.0
  0
HATCH
  5
B2
330
59
100
AcDbEntity
  8
_U+30EC_U+30A4_U+30E4_U+30FC 1
 62
   179
420
  2234388
100
AcDbHatch
 10
0.0
 20
0.0
 30
0.0
210
0.0
220
0.0
230
1.0
  2
SOLID
 70
     1
 71
     0
 91
        2
 92
        1
 93
        1
 72
     4
 94
        3
 73
     0
 74
     1
 95
       29
 96
       25
 40
0.0
 40
0.0
 40
0.0
 40
0.0
 40
1.0
 40
1.0
 40
1.0
 40
2.0
 40
2.0
 40
2.0
 40
3.0
 40
3.0
 40
3.0
 40
4.0
 40
4.0
 40
4.0
 40
5.0
 40
5.0
 40
5.0
 40
6.0
 40
6.0
 40
6.0
 40
7.0
 40
7.0
 40
7.0
 40
8.0
 40
8.0
 40
8.0
 40
8.0
 10
83.8661987095022
 20
-118.1564398576137
 10
83.75802271126535
 20
-118.3659016631169
 10
83.58473440835729
 20
-118.38502194306
 10
83.46829018095585
 20
-118.38502194306
 10
83.30740422179468
 20
-118.38502194306
 10
83.16581079735091
 20
-118.3385131540091
 10
83.07072616195802
 20
-118.1564398576137
 10
82.967028787852
 20
-117.9619642174713
 10
82.9477362531346
 20
-117.7249416480861
 10
82.9477362531346
 20
-117.5619886316338
 10
82.9477362531346
 20
-117.4181558951246
 10
82.96496173056084
 20
-117.1664916699271
 10
83.07072616195802
 20
-116.967537405654
 10
83.17855765064634
 20
-116.7644490267985
 10
83.3394436098075
 20
-116.741194632273
 10
83.46829018095585
 20
-116.741194632273
 10
83.62710908282587
 20
-116.741194632273
 10
83.77076956456078
 20
-116.7856363640328
 10
83.8661987095022
 20
-116.967537405654
 10
83.9654174594774
 20
-117.1601182432794
 10
83.9888441087771
 20
-117.3885280739515
 10
83.9888441087771
 20
-117.5619886316338
 10
83.9888441087771
 20
-117.733382132025
 10
83.96748451676855
 20
-117.9640312747625
 10
83.8661987095022
 20
-118.1564398576137
 97
        0
 97
        0
 92
        1
 93
        1
 72
     4
 94
        3
 73
     0
 74
     1
 95
       17
 96
       13
 40
0.0
 40
0.0
 40
0.0
 40
0.0
 40
1.0
 40
1.0
 40
1.0
 40
2.0
 40
2.0
 40
2.0
 40
3.0
 40
3.0
 40
3.0
 40
4.0
 40
4.0
 40
4.0
 40
4.0
 10
83.46829018095585
 20
-116.9337754698985
 10
83.21852075827523
 20
-116.9337754698985
 10
83.17201196922436
 20
-117.2171345735603
 10
83.17201196922436
 20
-117.5619886316338
 10
83.17201196922436
 20
-117.8815212378907
 10
83.20818547181949
 20
-118.1903740481434
 10
83.46829018095585
 20
-118.1903740481434
 10
83.7159925463453
 20
-118.1903740481434
 10
83.76456839268734
 20
-117.9089097469985
 10
83.76456839268734
 20
-117.5619886316338
 10
83.76456839268734
 20
-117.2426282801512
 10
83.72632783280106
 20
-116.9337754698985
 10
83.46829018095585
 20
-116.9337754698985
 97
        0
 97
        0
 75
     2
 76
     1
 98
        0
  0
ENDBLK
  5
5C
330
59
100
AcDbEntity
  8
0
100
AcDbBlockEnd
  0
BLOCK
  5
B5
330
B3
100
AcDbEntity
  8
0
100
AcDbBlockBegin
  2
block 4
 70
     0
 10
0.0
 20
0.0
 30
0.0
  3
block 4
  1

  0
SPLINE
  5
B7
330
B3
100
AcDbEntity
  8
_U+30EC_U+30A4_U+30E4_U+30FC 1
370
     0
100
AcDbSpline
210
0.0
220
0.0
230
1.0
 70
    11
 71
     3
 72
    44
 73
    40
 74
     0
 42
0.0000000001
 43
0.0000000001
 12
1.0
 22
0.0
 32
0.0
 13
1.0
 23
0.0
 33
0.0
 40
0.0
 40
0.0
 40
0.0
 40
0.0
 40
1.0
 40
1.0
 40
1.0
 40
2.0
 40
2.0
 40
2.0
 40
3.0
 40
3.0
 40
3.0
 40
4.0
 40
4.0
 40
4.0
 40
5.0
 40
5.0
 40
5.0
 40
6.0
 40
6.0
 40
6.0
 40
7.0
 40
7.0
 40
7.0
 40
8.0
 40
8.0
 40
8.0
 40
9.0
 40
9.0
 40
9.0
 40
10.0
 40
10.0
 40
10.0
 40
11.0
 40
11.0
 40
11.0
 40
12.0
 40
12.0
 40
12.0
 40
13.0
 40
13.0
 40
13.0
 40
13.0
 10
91.93237302389191
 20
-125.176338673133
 30
0.0
 10
91.67674693888637
 20
-125.2612602768444
 30
0.0
 10
91.56581486426133
 20
-125.303634951313
 30
0.0
 10
91.47555336254779
 20
-125.4257635862651
 30
0.0
 10
91.47555336254779
 20
-125.4257635862651
 30
0.0
 10
92.2176269300706
 20
-125.6624416461018
 30
0.0
 10
92.2176269300706
 20
-125.6624416461018
 30
0.0
 10
92.2176269300706
 20
-125.6624416461018
 30
0.0
 10
92.15492619223905
 20
-125.8577785601154
 30
0.0
 10
92.15492619223905
 20
-125.8577785601154
 30
0.0
 10
92.15492619223905
 20
-125.8577785601154
 30
0.0
 10
91.17565780055678
 20
-125.5453083996033
 30
0.0
 10
91.17565780055678
 20
-125.5453083996033
 30
0.0
 10
91.31483965816088
 20
-125.2142347234708
 30
0.0
 10
91.40113930006639
 20
-125.1598022148038
 30
0.0
 10
91.85864798050757
 20
-124.9927150837692
 30
0.0
 10
92.1625054023066
 20
-124.8810939900471
 30
0.0
 10
92.24587671304964
 20
-124.8364800035131
 30
0.0
 10
92.28721785887265
 20
-124.7055663750736
 30
0.0
 10
92.3237358710163
 20
-124.5925672431574
 30
0.0
 10
92.2947970689402
 20
-124.4458061754858
 30
0.0
 10
92.1073838745426
 20
-124.3860337688167
 30
0.0
 10
91.85933699960461
 20
-124.3067965726559
 30
0.0
 10
91.78147784163797
 20
-124.524009843001
 30
0.0
 10
91.74151473400907
 20
-124.6335638794319
 30
0.0
 10
91.74151473400907
 20
-124.6335638794319
 30
0.0
 10
91.52791881392358
 20
-124.5655232435982
 30
0.0
 10
91.52791881392358
 20
-124.5655232435982
 30
0.0
 10
91.57477211252298
 20
-124.4470119589056
 30
0.0
 10
91.61886933473417
 20
-124.3436590943481
 30
0.0
 10
91.73186846665037
 20
-124.2549478856029
 30
0.0
 10
91.88551972529251
 20
-124.1352308174905
 30
0.0
 10
92.07362193878716
 20
-124.1596909954358
 30
0.0
 10
92.18386499431514
 20
-124.1950032241596
 30
0.0
 10
92.44775930848529
 20
-124.2792358087739
 30
0.0
 10
92.58969724247758
 20
-124.5176364163532
 30
0.0
 10
92.50632593173454
 20
-124.7775688707153
 30
0.0
 10
92.43742402202953
 20
-124.9951266506089
 30
0.0
 10
92.29617510713429
 20
-125.0547268025037
 30
0.0
 10
91.93237302389191
 20
-125.176338673133
 30
0.0
  0
HATCH
  5
B8
330
B3
100
AcDbEntity
  8
_U+30EC_U+30A4_U+30E4_U+30FC 1
 62
   179
420
  2234388
100
AcDbHatch
 10
0.0
 20
0.0
 30
0.0
210
0.0
220
0.0
230
1.0
  2
SOLID
 70
     1
 71
     0
 91
        1
 92
        1
 93
        1
 72
     4
 94
        3
 73
     0
 74
     1
 95
       44
 96
       40
 40
0.0
 40
0.0
 40
0.0
 40
0.0
 40
1.0
 40
1.0
 40
1.0
 40
2.0
 40
2.0
 40
2.0
 40
3.0
 40
3.0
 40
3.0
 40
4.0
 40
4.0
 40
4.0
 40
5.0
 40
5.0
 40
5.0
 40
6.0
 40
6.0
 40
6.0
 40
7.0
 40
7.0
 40
7.0
 40
8.0
 40
8.0
 40
8.0
 40
9.0
 40
9.0
 40
9.0
 40
10.0
 40
10.0
 40
10.0
 40
11.0
 40
11.0
 40
11.0
 40
12.0
 40
12.0
 40
12.0
 40
13.0
 40
13.0
 40
13.0
 40
13.0
 10
91.93237302389191
 20
-125.176338673133
 10
91.67674693888637
 20
-125.2612602768444
 10
91.56581486426133
 20
-125.303634951313
 10
91.47555336254779
 20
-125.4257635862651
 10
91.47555336254779
 20
-125.4257635862651
 10
92.2176269300706
 20
-125.6624416461018
 10
92.2176269300706
 20
-125.6624416461018
 10
92.2176269300706
 20
-125.6624416461018
 10
92.15492619223905
 20
-125.8577785601154
 10
92.15492619223905
 20
-125.8577785601154
 10
92.15492619223905
 20
-125.8577785601154
 10
91.17565780055678
 20
-125.5453083996033
 10
91.17565780055678
 20
-125.5453083996033
 10
91.31483965816088
 20
-125.2142347234708
 10
91.40113930006639
 20
-125.1598022148038
 10
91.85864798050757
 20
-124.9927150837692
 10
92.1625054023066
 20
-124.8810939900471
 10
92.24587671304964
 20
-124.8364800035131
 10
92.28721785887265
 20
-124.7055663750736
 10
92.3237358710163
 20
-124.5925672431574
 10
92.2947970689402
 20
-124.4458061754858
 10
92.1073838745426
 20
-124.3860337688167
 10
91.85933699960461
 20
-124.3067965726559
 10
91.78147784163797
 20
-124.524009843001
 10
91.74151473400907
 20
-124.6335638794319
 10
91.74151473400907
 20
-124.6335638794319
 10
91.52791881392358
 20
-124.5655232435982
 10
91.52791881392358
 20
-124.5655232435982
 10
91.57477211252298
 20
-124.4470119589056
 10
91.61886933473417
 20
-124.3436590943481
 10
91.73186846665037
 20
-124.2549478856029
 10
91.88551972529251
 20
-124.1352308174905
 10
92.07362193878716
 20
-124.1596909954358
 10
92.18386499431514
 20
-124.1950032241596
 10
92.44775930848529
 20
-124.2792358087739
 10
92.58969724247758
 20
-124.5176364163532
 10
92.50632593173454
 20
-124.7775688707153
 10
92.43742402202953
 20
-124.9951266506089
 10
92.29617510713429
 20
-125.0547268025037
 10
91.93237302389191
 20
-125.176338673133
 97
        0
 97
        0
 75
     2
 76
     1
 98
        0
  0
SPLINE
  5
B9
330
B3
100
AcDbEntity
  8
_U+30EC_U+30A4_U+30E4_U+30FC 1
370
     0
100
AcDbSpline
210
0.0
220
0.0
230
1.0
 70
    11
 71
     3
 72
    53
 73
    49
 74
     0
 42
0.0000000001
 43
0.0000000001
 12
1.0
 22
0.0
 32
0.0
 13
1.0
 23
0.0
 33
0.0
 40
0.0
 40
0.0
 40
0.0
 40
0.0
 40
1.0
 40
1.0
 40
1.0
 40
2.0
 40
2.0
 40
2.0
 40
3.0
 40
3.0
 40
3.0
 40
4.0
 40
4.0
 40
4.0
 40
5.0
 40
5.0
 40
5.0
 40
6.0
 40
6.0
 40
6.0
 40
7.0
 40
7.0
 40
7.0
 40
8.0
 40
8.0
 40
8.0
 40
9.0
 40
9.0
 40
9.0
 40
10.0
 40
10.0
 40
10.0
 40
11.0
 40
11.0
 40
11.0
 40
12.0
 40
12.0
 40
12.0
 40
13.0
 40
13.0
 40
13.0
 40
14.0
 40
14.0
 40
14.0
 40
15.0
 40
15.0
 40
15.0
 40
16.0
 40
16.0
 40
16.0
 40
16.0
 10
92.75506182576957
 20
-126.1027248491167
 30
0.0
 10
92.68064776328818
 20
-126.0789536902685
 30
0.0
 10
92.58900822338053
 20
-126.0317558821205
 30
0.0
 10
92.51114906541389
 20
-125.9404608517614
 30
0.0
 10
92.37954641787734
 20
-125.7828477333112
 30
0.0
 10
92.39952797169178
 20
-125.651417340549
 30
0.0
 10
92.41399737272984
 20
-125.5430690875378
 30
0.0
 10
92.41399737272984
 20
-125.5430690875378
 30
0.0
 10
92.62552623552418
 20
-125.6105929590487
 30
0.0
 10
92.62552623552418
 20
-125.6105929590487
 30
0.0
 10
92.61725800635958
 20
-125.8164374142924
 30
0.0
 10
92.72956811917872
 20
-125.8834445214805
 30
0.0
 10
92.81845158269817
 20
-125.9116943044596
 30
0.0
 10
92.95143226842882
 20
-125.9542412337024
 30
0.0
 10
93.12644311907951
 20
-125.9056653873604
 30
0.0
 10
93.19741208607564
 20
-125.6839734928846
 30
0.0
 10
93.27458222494525
 20
-125.4402329873031
 30
0.0
 10
93.12437606178835
 20
-125.3191378809966
 30
0.0
 10
93.00999889167807
 20
-125.2824476140787
 30
0.0
 10
92.97968205140786
 20
-125.27280134672
 30
0.0
 10
92.84463430838606
 20
-125.2297376531544
 30
0.0
 10
92.72061087091707
 20
-125.3255113076443
 30
0.0
 10
92.72061087091707
 20
-125.3255113076443
 30
0.0
 10
92.55938040220738
 20
-125.2541978310996
 30
0.0
 10
92.55938040220738
 20
-125.2541978310996
 30
0.0
 10
92.55938040220738
 20
-125.2541978310996
 30
0.0
 10
92.93145071461436
 20
-124.4845634996948
 30
0.0
 10
92.93145071461436
 20
-124.4845634996948
 30
0.0
 10
92.93145071461436
 20
-124.4845634996948
 30
0.0
 10
93.67352428213718
 20
-124.7212415595315
 30
0.0
 10
93.67352428213718
 20
-124.7212415595315
 30
0.0
 10
93.67352428213718
 20
-124.7212415595315
 30
0.0
 10
93.61426863979088
 20
-124.9067599514122
 30
0.0
 10
93.61426863979088
 20
-124.9067599514122
 30
0.0
 10
93.61426863979088
 20
-124.9067599514122
 30
0.0
 10
93.0272243691043
 20
-124.7195190117889
 30
0.0
 10
93.0272243691043
 20
-124.7195190117889
 30
0.0
 10
93.0272243691043
 20
-124.7195190117889
 30
0.0
 10
92.83636607922146
 20
-125.1026136297487
 30
0.0
 10
92.83636607922146
 20
-125.1026136297487
 30
0.0
 10
92.90526798892647
 20
-125.0891777573562
 30
0.0
 10
92.99552949064001
 20
-125.0757418849637
 30
0.0
 10
93.10852862255621
 20
-125.1119153875588
 30
0.0
 10
93.35037432562075
 20
-125.1890855264284
 30
0.0
 10
93.51987302349504
 20
-125.4385104395605
 30
0.0
 10
93.42478838810214
 20
-125.7366834538089
 30
0.0
 10
93.32832571451515
 20
-126.0389905826396
 30
0.0
 10
93.04307180833646
 20
-126.1947088985729
 30
0.0
 10
92.75506182576957
 20
-126.1027248491167
 30
0.0
  0
HATCH
  5
BA
330
B3
100
AcDbEntity
  8
_U+30EC_U+30A4_U+30E4_U+30FC 1
 62
   179
420
  2234388
100
AcDbHatch
 10
0.0
 20
0.0
 30
0.0
210
0.0
220
0.0
230
1.0
  2
SOLID
 70
     1
 71
     0
 91
        1
 92
        1
 93
        1
 72
     4
 94
        3
 73
     0
 74
     1
 95
       53
 96
       49
 40
0.0
 40
0.0
 40
0.0
 40
0.0
 40
1.0
 40
1.0
 40
1.0
 40
2.0
 40
2.0
 40
2.0
 40
3.0
 40
3.0
 40
3.0
 40
4.0
 40
4.0
 40
4.0
 40
5.0
 40
5.0
 40
5.0
 40
6.0
 40
6.0
 40
6.0
 40
7.0
 40
7.0
 40
7.0
 40
8.0
 40
8.0
 40
8.0
 40
9.0
 40
9.0
 40
9.0
 40
10.0
 40
10.0
 40
10.0
 40
11.0
 40
11.0
 40
11.0
 40
12.0
 40
12.0
 40
12.0
 40
13.0
 40
13.0
 40
13.0
 40
14.0
 40
14.0
 40
14.0
 40
15.0
 40
15.0
 40
15.0
 40
16.0
 40
16.0
 40
16.0
 40
16.0
 10
92.75506182576957
 20
-126.1027248491167
 10
92.68064776328818
 20
-126.0789536902685
 10
92.58900822338053
 20
-126.0317558821205
 10
92.51114906541389
 20
-125.9404608517614
 10
92.37954641787734
 20
-125.7828477333112
 10
92.39952797169178
 20
-125.651417340549
 10
92.41399737272984
 20
-125.5430690875378
 10
92.41399737272984
 20
-125.5430690875378
 10
92.62552623552418
 20
-125.6105929590487
 10
92.62552623552418
 20
-125.6105929590487
 10
92.61725800635958
 20
-125.8164374142924
 10
92.72956811917872
 20
-125.8834445214805
 10
92.81845158269817
 20
-125.9116943044596
 10
92.95143226842882
 20
-125.9542412337024
 10
93.12644311907951
 20
-125.9056653873604
 10
93.19741208607564
 20
-125.6839734928846
 10
93.27458222494525
 20
-125.4402329873031
 10
93.12437606178835
 20
-125.3191378809966
 10
93.00999889167807
 20
-125.2824476140787
 10
92.97968205140786
 20
-125.27280134672
 10
92.84463430838606
 20
-125.2297376531544
 10
92.72061087091707
 20
-125.3255113076443
 10
92.72061087091707
 20
-125.3255113076443
 10
92.55938040220738
 20
-125.2541978310996
 10
92.55938040220738
 20
-125.2541978310996
 10
92.55938040220738
 20
-125.2541978310996
 10
92.93145071461436
 20
-124.4845634996948
 10
92.93145071461436
 20
-124.4845634996948
 10
92.93145071461436
 20
-124.4845634996948
 10
93.67352428213718
 20
-124.7212415595315
 10
93.67352428213718
 20
-124.7212415595315
 10
93.67352428213718
 20
-124.7212415595315
 10
93.61426863979088
 20
-124.9067599514122
 10
93.61426863979088
 20
-124.9067599514122
 10
93.61426863979088
 20
-124.9067599514122
 10
93.0272243691043
 20
-124.7195190117889
 10
93.0272243691043
 20
-124.7195190117889
 10
93.0272243691043
 20
-124.7195190117889
 10
92.83636607922146
 20
-125.1026136297487
 10
92.83636607922146
 20
-125.1026136297487
 10
92.90526798892647
 20
-125.0891777573562
 10
92.99552949064001
 20
-125.0757418849637
 10
93.10852862255621
 20
-125.1119153875588
 10
93.35037432562075
 20
-125.1890855264284
 10
93.51987302349504
 20
-125.4385104395605
 10
93.42478838810214
 20
-125.7366834538089
 10
93.32832571451515
 20
-126.0389905826396
 10
93.04307180833646
 20
-126.1947088985729
 10
92.75506182576957
 20
-126.1027248491167
 97
        0
 97
        0
 75
     2
 76
     1
 98
        0
  0
ENDBLK
  5
B6
330
B3
100
AcDbEntity
  8
0
100
AcDbBlockEnd
  0
BLOCK
  5
CF
330
CD
100
AcDbEntity
  8
0
100
AcDbBlockBegin
  2
block 5
 70
     0
 10
0.0
 20
0.0
 30
0.0
  3
block 5
  1

  0
SPLINE
  5
D1
330
CD
100
AcDbEntity
  8
_U+30EC_U+30A4_U+30E4_U+30FC 1
370
     0
100
AcDbSpline
210
0.0
220
0.0
230
1.0
 70
    11
 71
     3
 72
    44
 73
    40
 74
     0
 42
0.0000000001
 43
0.0000000001
 12
1.0
 22
0.0
 32
0.0
 13
1.0
 23
0.0
 33
0.0
 40
0.0
 40
0.0
 40
0.0
 40
0.0
 40
1.0
 40
1.0
 40
1.0
 40
2.0
 40
2.0
 40
2.0
 40
3.0
 40
3.0
 40
3.0
 40
4.0
 40
4.0
 40
4.0
 40
5.0
 40
5.0
 40
5.0
 40
6.0
 40
6.0
 40
6.0
 40
7.0
 40
7.0
 40
7.0
 40
8.0
 40
8.0
 40
8.0
 40
9.0
 40
9.0
 40
9.0
 40
10.0
 40
10.0
 40
10.0
 40
11.0
 40
11.0
 40
11.0
 40
12.0
 40
12.0
 40
12.0
 40
13.0
 40
13.0
 40
13.0
 40
13.0
 10
62.86937525555002
 20
-125.9423556542783
 30
0.0
 10
62.71021184413148
 20
-126.1599134341718
 30
0.0
 10
62.64406601081468
 20
-126.2587876745985
 30
0.0
 10
62.64130993442648
 20
-126.410716385498
 30
0.0
 10
62.64130993442648
 20
-126.410716385498
 30
0.0
 10
63.38269448285224
 20
-126.1740383256614
 30
0.0
 10
63.38269448285224
 20
-126.1740383256614
 30
0.0
 10
63.38269448285224
 20
-126.1740383256614
 30
0.0
 10
63.44539522068379
 20
-126.369375239675
 30
0.0
 10
63.44539522068379
 20
-126.369375239675
 30
0.0
 10
63.44539522068379
 20
-126.369375239675
 30
0.0
 10
62.46595457422726
 20
-126.6818454001872
 30
0.0
 10
62.46595457422726
 20
-126.6818454001872
 30
0.0
 10
62.38740639716357
 20
-126.3314791893373
 30
0.0
 10
62.42599146659837
 20
-126.2372558278157
 30
0.0
 10
62.70228812451541
 20
-125.8359022037841
 30
0.0
 10
62.88556720433069
 20
-125.5690795584515
 30
0.0
 10
62.92725285970221
 20
-125.4843302095143
 30
0.0
 10
62.88556720433069
 20
-125.3534165810748
 30
0.0
 10
62.84939370173557
 20
-125.2404174491587
 30
0.0
 10
62.74121770349873
 20
-125.1375813489239
 30
0.0
 10
62.55380450910113
 20
-125.197353755593
 30
0.0
 10
62.30575763416315
 20
-125.2764186969795
 30
0.0
 10
62.36776935289765
 20
-125.4984551010039
 30
0.0
 10
62.39946423136194
 20
-125.610765213823
 30
0.0
 10
62.39946423136194
 20
-125.610765213823
 30
0.0
 10
62.18586831127645
 20
-125.6788058496567
 30
0.0
 10
62.18586831127645
 20
-125.6788058496567
 30
0.0
 10
62.15520696145773
 20
-125.5552991765105
 30
0.0
 10
62.13109129306098
 20
-125.445400630531
 30
0.0
 10
62.17174341978693
 20
-125.3079413206695
 30
0.0
 10
62.22755396664797
 20
-125.1215616549175
 30
0.0
 10
62.39464109768259
 20
-125.0325059366238
 30
0.0
 10
62.50557317230763
 20
-124.9971937079
 30
0.0
 10
62.76946748647777
 20
-124.9127888685114
 30
0.0
 10
63.02302651419216
 20
-125.0252712361048
 30
0.0
 10
63.10570880583816
 20
-125.2850314356926
 30
0.0
 10
63.17529973464021
 20
-125.503105979909
 30
0.0
 10
63.09468450028536
 20
-125.6328138249286
 30
0.0
 10
62.86937525555002
 20
-125.9423556542783
 30
0.0
  0
HATCH
  5
D2
330
CD
100
AcDbEntity
  8
_U+30EC_U+30A4_U+30E4_U+30FC 1
 62
   179
420
  2234388
100
AcDbHatch
 10
0.0
 20
0.0
 30
0.0
210
0.0
220
0.0
230
1.0
  2
SOLID
 70
     1
 71
     0
 91
        1
 92
        1
 93
        1
 72
     4
 94
        3
 73
     0
 74
     1
 95
       44
 96
       40
 40
0.0
 40
0.0
 40
0.0
 40
0.0
 40
1.0
 40
1.0
 40
1.0
 40
2.0
 40
2.0
 40
2.0
 40
3.0
 40
3.0
 40
3.0
 40
4.0
 40
4.0
 40
4.0
 40
5.0
 40
5.0
 40
5.0
 40
6.0
 40
6.0
 40
6.0
 40
7.0
 40
7.0
 40
7.0
 40
8.0
 40
8.0
 40
8.0
 40
9.0
 40
9.0
 40
9.0
 40
10.0
 40
10.0
 40
10.0
 40
11.0
 40
11.0
 40
11.0
 40
12.0
 40
12.0
 40
12.0
 40
13.0
 40
13.0
 40
13.0
 40
13.0
 10
62.86937525555002
 20
-125.9423556542783
 10
62.71021184413148
 20
-126.1599134341718
 10
62.64406601081468
 20
-126.2587876745985
 10
62.64130993442648
 20
-126.410716385498
 10
62.64130993442648
 20
-126.410716385498
 10
63.38269448285224
 20
-126.1740383256614
 10
63.38269448285224
 20
-126.1740383256614
 10
63.38269448285224
 20
-126.1740383256614
 10
63.44539522068379
 20
-126.369375239675
 10
63.44539522068379
 20
-126.369375239675
 10
63.44539522068379
 20
-126.369375239675
 10
62.46595457422726
 20
-126.6818454001872
 10
62.46595457422726
 20
-126.6818454001872
 10
62.38740639716357
 20
-126.3314791893373
 10
62.42599146659837
 20
-126.2372558278157
 10
62.70228812451541
 20
-125.8359022037841
 10
62.88556720433069
 20
-125.5690795584515
 10
62.92725285970221
 20
-125.4843302095143
 10
62.88556720433069
 20
-125.3534165810748
 10
62.84939370173557
 20
-125.2404174491587
 10
62.74121770349873
 20
-125.1375813489239
 10
62.55380450910113
 20
-125.197353755593
 10
62.30575763416315
 20
-125.2764186969795
 10
62.36776935289765
 20
-125.4984551010039
 10
62.39946423136194
 20
-125.610765213823
 10
62.39946423136194
 20
-125.610765213823
 10
62.18586831127645
 20
-125.6788058496567
 10
62.18586831127645
 20
-125.6788058496567
 10
62.15520696145773
 20
-125.5552991765105
 10
62.13109129306098
 20
-125.445400630531
 10
62.17174341978693
 20
-125.3079413206695
 10
62.22755396664797
 20
-125.1215616549175
 10
62.39464109768259
 20
-125.0325059366238
 10
62.50557317230763
 20
-124.9971937079
 10
62.76946748647777
 20
-124.9127888685114
 10
63.02302651419216
 20
-125.0252712361048
 10
63.10570880583816
 20
-125.2850314356926
 10
63.17529973464021
 20
-125.503105979909
 10
63.09468450028536
 20
-125.6328138249286
 10
62.86937525555002
 20
-125.9423556542783
 97
        0
 97
        0
 75
     2
 76
     1
 98
        0
  0
SPLINE
  5
D3
330
CD
100
AcDbEntity
  8
_U+30EC_U+30A4_U+30E4_U+30FC 1
370
     0
100
AcDbSpline
210
0.0
220
0.0
230
1.0
 70
    11
 71
     3
 72
    53
 73
    49
 74
     0
 42
0.0000000001
 43
0.0000000001
 12
1.0
 22
0.0
 32
0.0
 13
1.0
 23
0.0
 33
0.0
 40
0.0
 40
0.0
 40
0.0
 40
0.0
 40
1.0
 40
1.0
 40
1.0
 40
2.0
 40
2.0
 40
2.0
 40
3.0
 40
3.0
 40
3.0
 40
4.0
 40
4.0
 40
4.0
 40
5.0
 40
5.0
 40
5.0
 40
6.0
 40
6.0
 40
6.0
 40
7.0
 40
7.0
 40
7.0
 40
8.0
 40
8.0
 40
8.0
 40
9.0
 40
9.0
 40
9.0
 40
10.0
 40
10.0
 40
10.0
 40
11.0
 40
11.0
 40
11.0
 40
12.0
 40
12.0
 40
12.0
 40
13.0
 40
13.0
 40
13.0
 40
14.0
 40
14.0
 40
14.0
 40
15.0
 40
15.0
 40
15.0
 40
16.0
 40
16.0
 40
16.0
 40
16.0
 10
64.07584769448451
 20
-126.2212361338093
 30
0.0
 10
64.00143363200311
 20
-126.2450072926575
 30
0.0
 10
63.89945880563972
 20
-126.2601657127926
 30
0.0
 10
63.7833590877868
 20
-126.2303656368452
 30
0.0
 10
63.58492158783641
 20
-126.1786892045664
 30
0.0
 10
63.52463241684454
 20
-126.0600056650996
 30
0.0
 10
63.47398951321136
 20
-125.9628539724155
 30
0.0
 10
63.47398951321136
 20
-125.9628539724155
 30
0.0
 10
63.68551837600571
 20
-125.8953301009046
 30
0.0
 10
63.68551837600571
 20
-125.8953301009046
 30
0.0
 10
63.79817299837337
 20
-126.0681016394899
 30
0.0
 10
63.92839760771582
 20
-126.0577663530342
 30
0.0
 10
64.01693656168675
 20
-126.0293443152809
 30
0.0
 10
64.14991724741739
 20
-125.9869696408123
 30
0.0
 10
64.2646389270762
 20
-125.8458929806913
 30
0.0
 10
64.19401446962858
 20
-125.6243733409897
 30
0.0
 10
64.11649982121047
 20
-125.3804605806341
 30
0.0
 10
63.92357447403647
 20
-125.3682304916614
 30
0.0
 10
63.80885279437765
 20
-125.4050930133536
 30
0.0
 10
63.77853595410745
 20
-125.414567025938
 30
0.0
 10
63.64348821108566
 20
-125.4578029742779
 30
0.0
 10
63.59801295068036
 20
-125.6080091374348
 30
0.0
 10
63.59801295068036
 20
-125.6080091374348
 30
0.0
 10
63.42541366686935
 20
-125.6431491113844
 30
0.0
 10
63.42541366686935
 20
-125.6431491113844
 30
0.0
 10
63.42541366686935
 20
-125.6431491113844
 30
0.0
 10
63.28278671378
 20
-124.800306500918
 30
0.0
 10
63.28278671378
 20
-124.800306500918
 30
0.0
 10
63.28278671378
 20
-124.800306500918
 30
0.0
 10
64.0245157717543
 20
-124.5638006958556
 30
0.0
 10
64.0245157717543
 20
-124.5638006958556
 30
0.0
 10
64.0245157717543
 20
-124.5638006958556
 30
0.0
 10
64.08342690455207
 20
-124.749146832962
 30
0.0
 10
64.08342690455207
 20
-124.749146832962
 30
0.0
 10
64.08342690455207
 20
-124.749146832962
 30
0.0
 10
63.49707165296254
 20
-124.9362155178111
 30
0.0
 10
63.49707165296254
 20
-124.9362155178111
 30
0.0
 10
63.49707165296254
 20
-124.9362155178111
 30
0.0
 10
63.56321748627933
 20
-125.3592732433998
 30
0.0
 10
63.56321748627933
 20
-125.3592732433998
 30
0.0
 10
63.61144882307283
 20
-125.3081135754438
 30
0.0
 10
63.67759465638963
 20
-125.2448960732895
 30
0.0
 10
63.79059378830583
 20
-125.2088948254686
 30
0.0
 10
64.03243949137037
 20
-125.131724686599
 30
0.0
 10
64.31493732116085
 20
-125.2369723536734
 30
0.0
 10
64.41002195655375
 20
-125.535317622696
 30
0.0
 10
64.50648463014075
 20
-125.837797006301
 30
0.0
 10
64.3638576770514
 20
-126.1292520843531
 30
0.0
 10
64.07584769448451
 20
-126.2212361338093
 30
0.0
  0
HATCH
  5
D4
330
CD
100
AcDbEntity
  8
_U+30EC_U+30A4_U+30E4_U+30FC 1
 62
   179
420
  2234388
100
AcDbHatch
 10
0.0
 20
0.0
 30
0.0
210
0.0
220
0.0
230
1.0
  2
SOLID
 70
     1
 71
     0
 91
        1
 92
        1
 93
        1
 72
     4
 94
        3
 73
     0
 74
     1
 95
       53
 96
       49
 40
0.0
 40
0.0
 40
0.0
 40
0.0
 40
1.0
 40
1.0
 40
1.0
 40
2.0
 40
2.0
 40
2.0
 40
3.0
 40
3.0
 40
3.0
 40
4.0
 40
4.0
 40
4.0
 40
5.0
 40
5.0
 40
5.0
 40
6.0
 40
6.0
 40
6.0
 40
7.0
 40
7.0
 40
7.0
 40
8.0
 40
8.0
 40
8.0
 40
9.0
 40
9.0
 40
9.0
 40
10.0
 40
10.0
 40
10.0
 40
11.0
 40
11.0
 40
11.0
 40
12.0
 40
12.0
 40
12.0
 40
13.0
 40
13.0
 40
13.0
 40
14.0
 40
14.0
 40
14.0
 40
15.0
 40
15.0
 40
15.0
 40
16.0
 40
16.0
 40
16.0
 40
16.0
 10
64.07584769448451
 20
-126.2212361338093
 10
64.00143363200311
 20
-126.2450072926575
 10
63.89945880563972
 20
-126.2601657127926
 10
63.7833590877868
 20
-126.2303656368452
 10
63.58492158783641
 20
-126.1786892045664
 10
63.52463241684454
 20
-126.0600056650996
 10
63.47398951321136
 20
-125.9628539724155
 10
63.47398951321136
 20
-125.9628539724155
 10
63.68551837600571
 20
-125.8953301009046
 10
63.68551837600571
 20
-125.8953301009046
 10
63.79817299837337
 20
-126.0681016394899
 10
63.92839760771582
 20
-126.0577663530342
 10
64.01693656168675
 20
-126.0293443152809
 10
64.14991724741739
 20
-125.9869696408123
 10
64.2646389270762
 20
-125.8458929806913
 10
64.19401446962858
 20
-125.6243733409897
 10
64.11649982121047
 20
-125.3804605806341
 10
63.92357447403647
 20
-125.3682304916614
 10
63.80885279437765
 20
-125.4050930133536
 10
63.77853595410745
 20
-125.414567025938
 10
63.64348821108566
 20
-125.4578029742779
 10
63.59801295068036
 20
-125.6080091374348
 10
63.59801295068036
 20
-125.6080091374348
 10
63.42541366686935
 20
-125.6431491113844
 10
63.42541366686935
 20
-125.6431491113844
 10
63.42541366686935
 20
-125.6431491113844
 10
63.28278671378
 20
-124.800306500918
 10
63.28278671378
 20
-124.800306500918
 10
63.28278671378
 20
-124.800306500918
 10
64.0245157717543
 20
-124.5638006958556
 10
64.0245157717543
 20
-124.5638006958556
 10
64.0245157717543
 20
-124.5638006958556
 10
64.08342690455207
 20
-124.749146832962
 10
64.08342690455207
 20
-124.749146832962
 10
64.08342690455207
 20
-124.749146832962
 10
63.49707165296254
 20
-124.9362155178111
 10
63.49707165296254
 20
-124.9362155178111
 10
63.49707165296254
 20
-124.9362155178111
 10
63.56321748627933
 20
-125.3592732433998
 10
63.56321748627933
 20
-125.3592732433998
 10
63.61144882307283
 20
-125.3081135754438
 10
63.67759465638963
 20
-125.2448960732895
 10
63.79059378830583
 20
-125.2088948254686
 10
64.03243949137037
 20
-125.131724686599
 10
64.31493732116085
 20
-125.2369723536734
 10
64.41002195655375
 20
-125.535317622696
 10
64.50648463014075
 20
-125.837797006301
 10
64.3638576770514
 20
-126.1292520843531
 10
64.07584769448451
 20
-126.2212361338093
 97
        0
 97
        0
 75
     2
 76
     1
 98
        0
  0
ENDBLK
  5
D0
330
CD
100
AcDbEntity
  8
0
100
AcDbBlockEnd
  0
BLOCK
  5
100
330
FE
100
AcDbEntity
  8
0
100
AcDbBlockBegin
  2
block 6
 70
     0
 10
0.0
 20
0.0
 30
0.0
  3
block 6
  1

  0
SPLINE
  5
102
330
FE
100
AcDbEntity
  8
_U+30EC_U+30A4_U+30E4_U+30FC 1
370
     0
100
AcDbSpline
210
0.0
220
0.0
230
1.0
 70
    11
 71
     3
 72
   242
 73
   238
 74
     0
 42
0.0000000001
 43
0.0000000001
 12
1.0
 22
0.0
 32
0.0
 13
1.0
 23
0.0
 33
0.0
 40
0.0
 40
0.0
 40
0.0
 40
0.0
 40
1.0
 40
1.0
 40
1.0
 40
2.0
 40
2.0
 40
2.0
 40
3.0
 40
3.0
 40
3.0
 40
4.0
 40
4.0
 40
4.0
 40
5.0
 40
5.0
 40
5.0
 40
6.0
 40
6.0
 40
6.0
 40
7.0
 40
7.0
 40
7.0
 40
8.0
 40
8.0
 40
8.0
 40
9.0
 40
9.0
 40
9.0
 40
10.0
 40
10.0
 40
10.0
 40
11.0
 40
11.0
 40
11.0
 40
12.0
 40
12.0
 40
12.0
 40
13.0
 40
13.0
 40
13.0
 40
14.0
 40
14.0
 40
14.0
 40
15.0
 40
15.0
 40
15.0
 40
16.0
 40
16.0
 40
16.0
 40
17.0
 40
17.0
 40
17.0
 40
18.0
 40
18.0
 40
18.0
 40
19.0
 40
19.0
 40
19.0
 40
20.0
 40
20.0
 40
20.0
 40
21.0
 40
21.0
 40
21.0
 40
22.0
 40
22.0
 40
22.0
 40
23.0
 40
23.0
 40
23.0
 40
24.0
 40
24.0
 40
24.0
 40
25.0
 40
25.0
 40
25.0
 40
26.0
 40
26.0
 40
26.0
 40
27.0
 40
27.0
 40
27.0
 40
28.0
 40
28.0
 40
28.0
 40
29.0
 40
29.0
 40
29.0
 40
30.0
 40
30.0
 40
30.0
 40
31.0
 40
31.0
 40
31.0
 40
32.0
 40
32.0
 40
32.0
 40
33.0
 40
33.0
 40
33.0
 40
34.0
 40
34.0
 40
34.0
 40
35.0
 40
35.0
 40
35.0
 40
36.0
 40
36.0
 40
36.0
 40
37.0
 40
37.0
 40
37.0
 40
38.0
 40
38.0
 40
38.0
 40
39.0
 40
39.0
 40
39.0
 40
40.0
 40
40.0
 40
40.0
 40
41.0
 40
41.0
 40
41.0
 40
42.0
 40
42.0
 40
42.0
 40
43.0
 40
43.0
 40
43.0
 40
44.0
 40
44.0
 40
44.0
 40
45.0
 40
45.0
 40
45.0
 40
46.0
 40
46.0
 40
46.0
 40
47.0
 40
47.0
 40
47.0
 40
48.0
 40
48.0
 40
48.0
 40
49.0
 40
49.0
 40
49.0
 40
50.0
 40
50.0
 40
50.0
 40
51.0
 40
51.0
 40
51.0
 40
52.0
 40
52.0
 40
52.0
 40
53.0
 40
53.0
 40
53.0
 40
54.0
 40
54.0
 40
54.0
 40
55.0
 40
55.0
 40
55.0
 40
56.0
 40
56.0
 40
56.0
 40
57.0
 40
57.0
 40
57.0
 40
58.0
 40
58.0
 40
58.0
 40
59.0
 40
59.0
 40
59.0
 40
60.0
 40
60.0
 40
60.0
 40
61.0
 40
61.0
 40
61.0
 40
62.0
 40
62.0
 40
62.0
 40
63.0
 40
63.0
 40
63.0
 40
64.0
 40
64.0
 40
64.0
 40
65.0
 40
65.0
 40
65.0
 40
66.0
 40
66.0
 40
66.0
 40
67.0
 40
67.0
 40
67.0
 40
68.0
 40
68.0
 40
68.0
 40
69.0
 40
69.0
 40
69.0
 40
70.0
 40
70.0
 40
70.0
 40
71.0
 40
71.0
 40
71.0
 40
72.0
 40
72.0
 40
72.0
 40
73.0
 40
73.0
 40
73.0
 40
74.0
 40
74.0
 40
74.0
 40
75.0
 40
75.0
 40
75.0
 40
76.0
 40
76.0
 40
76.0
 40
77.0
 40
77.0
 40
77.0
 40
78.0
 40
78.0
 40
78.0
 40
79.0
 40
79.0
 40
79.0
 40
79.0
 10
75.1506238961429
 20
-139.1918483810007
 30
0.0
 10
75.1506238961429
 20
-139.1918483810007
 30
0.0
 10
74.89672035887999
 20
-139.1918483810007
 30
0.0
 10
74.89672035887999
 20
-139.1918483810007
 30
0.0
 10
74.89672035887999
 20
-139.1918483810007
 30
0.0
 10
74.61956242709164
 20
-139.1918483810007
 30
0.0
 10
74.61956242709164
 20
-139.1918483810007
 30
0.0
 10
74.61956242709164
 20
-139.1918483810007
 30
0.0
 10
74.7465141957231
 20
-139.2342230554692
 30
0.0
 10
74.7465141957231
 20
-139.2342230554692
 30
0.0
 10
74.7570217369531
 20
-139.2383571700515
 30
0.0
 10
74.76976859024853
 20
-139.244558341925
 30
0.0
 10
74.76976859024853
 20
-139.2573051952204
 30
0.0
 10
74.76976859024853
 20
-139.2783202776804
 30
0.0
 10
74.73807371178424
 20
-139.2848659591024
 30
0.0
 10
74.71688637454994
 20
-139.2890000736847
 30
0.0
 10
74.70637883331993
 20
-139.3124267229844
 30
0.0
 10
74.67675101214678
 20
-139.3778835372042
 30
0.0
 10
74.65763073220366
 20
-139.4223252689639
 30
0.0
 10
74.65763073220366
 20
-139.4223252689639
 30
0.0
 10
74.92841523734428
 20
-139.4223252689639
 30
0.0
 10
74.92841523734428
 20
-139.4223252689639
 30
0.0
 10
75.01936575815489
 20
-139.4223252689639
 30
0.0
 10
75.21608071036265
 20
-139.4181911543816
 30
0.0
 10
75.35784638958069
 20
-139.4095784156684
 30
0.0
 10
75.35784638958069
 20
-139.4095784156684
 30
0.0
 10
75.35784638958069
 20
-139.5873453427073
 30
0.0
 10
75.35784638958069
 20
-139.5873453427073
 30
0.0
 10
75.27533635270895
 20
-139.583211228125
 30
0.0
 10
75.25414901547467
 20
-139.583211228125
 30
0.0
 10
75.07448728591888
 20
-139.5787326039942
 30
0.0
 10
75.04262015268031
 20
-139.7334173912819
 30
0.0
 10
74.9981784209206
 20
-139.8136881160883
 30
0.0
 10
74.95373668916088
 20
-139.8836235544388
 30
0.0
 10
75.07448728591888
 20
-139.9428791967851
 30
0.0
 10
75.18025171731605
 20
-140.010403068296
 30
0.0
 10
75.2837768366478
 20
-140.093085359942
 30
0.0
 10
75.2837768366478
 20
-140.093085359942
 30
0.0
 10
75.16543780672947
 20
-140.2601724909766
 30
0.0
 10
75.16543780672947
 20
-140.2601724909766
 30
0.0
 10
75.14201115742978
 20
-140.2408799562592
 30
0.0
 10
75.12943655890862
 20
-140.2326117270946
 30
0.0
 10
75.01729870086373
 20
-140.1478623781575
 30
0.0
 10
74.96855059974745
 20
-140.1099663278197
 30
0.0
 10
74.90946721217541
 20
-140.0737928252246
 30
0.0
 10
74.82902423259483
 20
-140.0293510934649
 30
0.0
 10
74.6174953698005
 20
-140.2157307592169
 30
0.0
 10
74.4121676788796
 20
-140.2388128989681
 30
0.0
 10
74.12243514857009
 20
-140.2684407201412
 30
0.0
 10
74.12243514857009
 20
-140.2684407201412
 30
0.0
 10
74.01873777446407
 20
-140.0886067358112
 30
0.0
 10
74.01873777446407
 20
-140.0886067358112
 30
0.0
 10
74.33603106865557
 20
-140.0844726212289
 30
0.0
 10
74.51173093840332
 20
-140.058978914638
 30
0.0
 10
74.66400415885137
 20
-139.9490803686586
 30
0.0
 10
74.54549287415877
 20
-139.8984374650254
 30
0.0
 10
74.45660941063932
 20
-139.8708767011434
 30
0.0
 10
74.42078041759272
 20
-139.858129847848
 30
0.0
 10
74.40166013764959
 20
-139.88569061173
 30
0.0
 10
74.38684622706302
 20
-139.9046386368989
 30
0.0
 10
74.35928546318101
 20
-139.9384005726543
 30
0.0
 10
74.35928546318101
 20
-139.9384005726543
 30
0.0
 10
74.16257051097325
 20
-139.8560627905568
 30
0.0
 10
74.16257051097325
 20
-139.8560627905568
 30
0.0
 10
74.24508054784498
 20
-139.7757920657505
 30
0.0
 10
74.30640324748244
 20
-139.6803629208091
 30
0.0
 10
74.36359183253758
 20
-139.5787326039942
 30
0.0
 10
74.17325030697752
 20
-139.583211228125
 30
0.0
 10
74.15206296974324
 20
-139.583211228125
 30
0.0
 10
74.0695529328715
 20
-139.5873453427073
 30
0.0
 10
74.0695529328715
 20
-139.5873453427073
 30
0.0
 10
74.0695529328715
 20
-139.4095784156684
 30
0.0
 10
74.0695529328715
 20
-139.4095784156684
 30
0.0
 10
74.20907930002413
 20
-139.4161240970904
 30
0.0
 10
74.41854110552731
 20
-139.4202582116727
 30
0.0
 10
74.44403481211816
 20
-139.4202582116727
 30
0.0
 10
74.46091577999589
 20
-139.3864962759173
 30
0.0
 10
74.51586505298562
 20
-139.2659179339335
 30
0.0
 10
74.53498533292876
 20
-139.1918483810007
 30
0.0
 10
74.51586505298562
 20
-139.1918483810007
 30
0.0
 10
74.33827038072099
 20
-139.1980495528741
 30
0.0
 10
74.14362248580437
 20
-139.2107964061695
 30
0.0
 10
74.14362248580437
 20
-139.2107964061695
 30
0.0
 10
74.14362248580437
 20
-139.3441216014487
 30
0.0
 10
74.14362248580437
 20
-139.3441216014487
 30
0.0
 10
74.0948743846881
 20
-139.369270798491
 30
0.0
 10
74.0356187423418
 20
-139.4013101865038
 30
0.0
 10
73.90246580183688
 20
-139.4667670007236
 30
0.0
 10
73.90246580183688
 20
-139.4667670007236
 30
0.0
 10
73.90246580183688
 20
-139.6128390492982
 30
0.0
 10
73.90246580183688
 20
-139.6128390492982
 30
0.0
 10
73.90246580183688
 20
-139.6128390492982
 30
0.0
 10
73.90246580183688
 20
-140.0803385066466
 30
0.0
 10
73.90246580183688
 20
-140.0803385066466
 30
0.0
 10
73.90246580183688
 20
-140.2071180205038
 30
0.0
 10
73.86646455401602
 20
-140.2663736628501
 30
0.0
 10
73.58293319557997
 20
-140.2581054336855
 30
0.0
 10
73.58293319557997
 20
-140.2581054336855
 30
0.0
 10
73.47923582147395
 20
-140.0507106854734
 30
0.0
 10
73.47923582147395
 20
-140.0507106854734
 30
0.0
 10
73.5427978331768
 20
-140.0634575387689
 30
0.0
 10
73.59137367951882
 20
-140.0675916533512
 30
0.0
 10
73.63168129669624
 20
-140.0675916533512
 30
0.0
 10
73.70781790692027
 20
-140.0675916533512
 30
0.0
 10
73.71832544815028
 20
-140.0441650040515
 30
0.0
 10
73.71832544815028
 20
-139.9787081898317
 30
0.0
 10
73.71832544815028
 20
-139.9787081898317
 30
0.0
 10
73.71832544815028
 20
-139.5491047828211
 30
0.0
 10
73.71832544815028
 20
-139.5491047828211
 30
0.0
 10
73.62100150069197
 20
-139.5894123999985
 30
0.0
 10
73.60412053281425
 20
-139.5959580814205
 30
0.0
 10
73.55761174376337
 20
-139.6149061065893
 30
0.0
 10
73.55330537440682
 20
-139.6359211890494
 30
0.0
 10
73.54917125982452
 20
-139.6655490102225
 30
0.0
 10
73.53005097988138
 20
-139.6655490102225
 30
0.0
 10
73.52161049594251
 20
-139.6655490102225
 30
0.0
 10
73.5111029547125
 20
-139.6614148956402
 30
0.0
 10
73.5047295280648
 20
-139.6379882463405
 30
0.0
 10
73.5047295280648
 20
-139.6379882463405
 30
0.0
 10
73.45184731236621
 20
-139.4457519182636
 30
0.0
 10
73.45184731236621
 20
-139.4457519182636
 30
0.0
 10
73.59774710616654
 20
-139.3988986196642
 30
0.0
 10
73.66337617516055
 20
-139.375816479913
 30
0.0
 10
73.71832544815028
 20
-139.354801397453
 30
0.0
 10
73.71832544815028
 20
-139.354801397453
 30
0.0
 10
73.71832544815028
 20
-138.9420789583201
 30
0.0
 10
73.71832544815028
 20
-138.9420789583201
 30
0.0
 10
73.71832544815028
 20
-138.9420789583201
 30
0.0
 10
73.6654432324517
 20
-138.9420789583201
 30
0.0
 10
73.6654432324517
 20
-138.9420789583201
 30
0.0
 10
73.6654432324517
 20
-138.9420789583201
 30
0.0
 10
73.58723956493652
 20
-138.9420789583201
 30
0.0
 10
73.58723956493652
 20
-138.9420789583201
 30
0.0
 10
73.51954343865137
 20
-138.9420789583201
 30
0.0
 10
73.5111029547125
 20
-138.9420789583201
 30
0.0
 10
73.47510170689165
 20
-138.948624639742
 30
0.0
 10
73.47510170689165
 20
-138.948624639742
 30
0.0
 10
73.47510170689165
 20
-138.7539767448254
 30
0.0
 10
73.47510170689165
 20
-138.7539767448254
 30
0.0
 10
73.50266247077364
 20
-138.7601779166989
 30
0.0
 10
73.5111029547125
 20
-138.7601779166989
 30
0.0
 10
73.58086613828881
 20
-138.7601779166989
 30
0.0
 10
73.58086613828881
 20
-138.7601779166989
 30
0.0
 10
73.71419133356798
 20
-138.7601779166989
 30
0.0
 10
73.71419133356798
 20
-138.7601779166989
 30
0.0
 10
73.71419133356798
 20
-138.6902424783483
 30
0.0
 10
73.71419133356798
 20
-138.6079046962508
 30
0.0
 10
73.71195202150257
 20
-138.6037705816685
 30
0.0
 10
73.70351153756371
 20
-138.4239365973385
 30
0.0
 10
73.70351153756371
 20
-138.4046440626211
 30
0.0
 10
73.70144448027256
 20
-138.3581352735702
 30
0.0
 10
73.70144448027256
 20
-138.3581352735702
 30
0.0
 10
73.91727971242346
 20
-138.3667480122833
 30
0.0
 10
73.91727971242346
 20
-138.3667480122833
 30
0.0
 10
73.92778725365348
 20
-138.3667480122833
 30
0.0
 10
73.94897459088776
 20
-138.3688150695745
 30
0.0
 10
73.94897459088776
 20
-138.3856960374522
 30
0.0
 10
73.94897459088776
 20
-138.4046440626211
 30
0.0
 10
73.93416068030119
 20
-138.4153238586253
 30
0.0
 10
73.9088392284846
 20
-138.4342718837942
 30
0.0
 10
73.9088392284846
 20
-138.4852592969759
 30
0.0
 10
73.90246580183688
 20
-138.713669127648
 30
0.0
 10
73.90453285912804
 20
-138.7601779166989
 30
0.0
 10
74.03355168505064
 20
-138.7601779166989
 30
0.0
 10
74.04629853834606
 20
-138.7601779166989
 30
0.0
 10
74.14362248580437
 20
-138.7515651779857
 30
0.0
 10
74.14362248580437
 20
-138.7515651779857
 30
0.0
 10
74.14362248580437
 20
-138.9462130729023
 30
0.0
 10
74.14362248580437
 20
-138.9462130729023
 30
0.0
 10
74.10555418069237
 20
-138.9441460156112
 30
0.0
 10
74.03785805440721
 20
-138.9400119010289
 30
0.0
 10
73.90246580183688
 20
-138.9420789583201
 30
0.0
 10
73.90246580183688
 20
-138.9420789583201
 30
0.0
 10
73.90246580183688
 20
-139.2807318445201
 30
0.0
 10
73.90246580183688
 20
-139.2807318445201
 30
0.0
 10
73.95741507482663
 20
-139.2573051952204
 30
0.0
 10
74.02304414382063
 20
-139.2297444313384
 30
0.0
 10
74.07161999016266
 20
-139.2066622915872
 30
0.0
 10
74.07161999016266
 20
-139.2066622915872
 30
0.0
 10
74.07161999016266
 20
-139.0288953645483
 30
0.0
 10
74.07161999016266
 20
-139.0288953645483
 30
0.0
 10
74.18582490549869
 20
-139.0416422178438
 30
0.0
 10
74.30433619019128
 20
-139.0416422178438
 30
0.0
 10
74.42078041759272
 20
-139.0416422178438
 30
0.0
 10
74.39752602306729
 20
-138.9462130729023
 30
0.0
 10
74.36996525918529
 20
-138.8638752908049
 30
0.0
 10
74.30640324748244
 20
-138.7305500955257
 30
0.0
 10
74.26213377049697
 20
-138.7326171528169
 30
0.0
 10
74.17962373362523
 20
-138.7367512673991
 30
0.0
 10
74.14138317373896
 20
-138.7391628342388
 30
0.0
 10
74.14138317373896
 20
-138.7391628342388
 30
0.0
 10
74.14138317373896
 20
-138.5593288499088
 30
0.0
 10
74.14138317373896
 20
-138.5593288499088
 30
0.0
 10
74.26626788507927
 20
-138.5675970790734
 30
0.0
 10
74.4397284427616
 20
-138.5717311936557
 30
0.0
 10
74.52223847963333
 20
-138.5717311936557
 30
0.0
 10
74.52223847963333
 20
-138.5717311936557
 30
0.0
 10
74.60474851650507
 20
-138.5717311936557
 30
0.0
 10
74.60474851650507
 20
-138.5717311936557
 30
0.0
 10
74.60474851650507
 20
-138.4091226867519
 30
0.0
 10
74.60474851650507
 20
-138.3984428907476
 30
0.0
 10
74.60268145921391
 20
-138.3433213629836
 30
0.0
 10
74.60268145921391
 20
-138.3433213629836
 30
0.0
 10
74.82695717530368
 20
-138.3688150695745
 30
0.0
 10
74.82695717530368
 20
-138.3688150695745
 30
0.0
 10
74.83109128988598
 20
-138.3688150695745
 30
0.0
 10
74.85227862712027
 20
-138.3708821268656
 30
0.0
 10
74.85227862712027
 20
-138.3877630947433
 30
0.0
 10
74.85227862712027
 20
-138.4025770053299
 30
0.0
 10
74.84177108589026
 20
-138.411189744043
 30
0.0
 10
74.81421032200825
 20
-138.4260036546296
 30
0.0
 10
74.80783689536054
 20
-138.4914604688494
 30
0.0
 10
74.8057698380694
 20
-138.5128200608579
 30
0.0
 10
74.8057698380694
 20
-138.5717311936557
 30
0.0
 10
74.8057698380694
 20
-138.5717311936557
 30
0.0
 10
74.90085447346229
 20
-138.5717311936557
 30
0.0
 10
74.90085447346229
 20
-138.5717311936557
 30
0.0
 10
74.98336451033403
 20
-138.5717311936557
 30
0.0
 10
75.15682506801635
 20
-138.5675970790734
 30
0.0
 10
75.28170977935666
 20
-138.5593288499088
 30
0.0
 10
75.28170977935666
 20
-138.5593288499088
 30
0.0
 10
75.28170977935666
 20
-138.7391628342388
 30
0.0
 10
75.28170977935666
 20
-138.7391628342388
 30
0.0
 10
75.25208195818351
 20
-138.7367512673991
 30
0.0
 10
75.13357067349092
 20
-138.7326171528169
 30
0.0
 10
75.09343531108776
 20
-138.7305500955257
 30
0.0
 10
75.07862140050118
 20
-138.7811929991589
 30
0.0
 10
75.04485946474573
 20
-138.893503111978
 30
0.0
 10
74.97923039575173
 20
-139.0330294791306
 30
0.0
 10
75.02143281544603
 20
-139.0330294791306
 30
0.0
 10
75.29859074723439
 20
-139.0140814539618
 30
0.0
 10
75.35991344687183
 20
-139.0120143966706
 30
0.0
 10
75.35991344687183
 20
-139.0120143966706
 30
0.0
 10
75.35991344687183
 20
-139.195982495583
 30
0.0
 10
75.35991344687183
 20
-139.195982495583
 30
0.0
 10
75.33045788047295
 20
-139.195982495583
 30
0.0
 10
75.31340465782095
 20
-139.1918483810007
 30
0.0
 10
75.1506238961429
 20
-139.1918483810007
 30
0.0
  0
SPLINE
  5
103
330
FE
100
AcDbEntity
  8
_U+30EC_U+30A4_U+30E4_U+30FC 1
370
     0
100
AcDbSpline
210
0.0
220
0.0
230
1.0
 70
    11
 71
     3
 72
    20
 73
    16
 74
     0
 42
0.0000000001
 43
0.0000000001
 12
1.0
 22
0.0
 32
0.0
 13
1.0
 23
0.0
 33
0.0
 40
0.0
 40
0.0
 40
0.0
 40
0.0
 40
1.0
 40
1.0
 40
1.0
 40
2.0
 40
2.0
 40
2.0
 40
3.0
 40
3.0
 40
3.0
 40
4.0
 40
4.0
 40
4.0
 40
5.0
 40
5.0
 40
5.0
 40
5.0
 10
74.52223847963333
 20
-138.7264159809434
 30
0.0
 10
74.52223847963333
 20
-138.7264159809434
 30
0.0
 10
74.49054360116904
 20
-138.7264159809434
 30
0.0
 10
74.49054360116904
 20
-138.7264159809434
 30
0.0
 10
74.53705239021991
 20
-138.8256347309186
 30
0.0
 10
74.5687472686842
 20
-138.9062499652734
 30
0.0
 10
74.60268145921391
 20
-139.0330294791306
 30
0.0
 10
74.60268145921391
 20
-139.0330294791306
 30
0.0
 10
74.8099039526517
 20
-139.0330294791306
 30
0.0
 10
74.8099039526517
 20
-139.0330294791306
 30
0.0
 10
74.84177108589026
 20
-138.9400119010289
 30
0.0
 10
74.8650254804157
 20
-138.8552625520917
 30
0.0
 10
74.88827987494113
 20
-138.7264159809434
 30
0.0
 10
74.88827987494113
 20
-138.7264159809434
 30
0.0
 10
74.52223847963333
 20
-138.7264159809434
 30
0.0
 10
74.52223847963333
 20
-138.7264159809434
 30
0.0
  0
SPLINE
  5
104
330
FE
100
AcDbEntity
  8
_U+30EC_U+30A4_U+30E4_U+30FC 1
370
     0
100
AcDbSpline
210
0.0
220
0.0
230
1.0
 70
    11
 71
     3
 72
    17
 73
    13
 74
     0
 42
0.0000000001
 43
0.0000000001
 12
1.0
 22
0.0
 32
0.0
 13
1.0
 23
0.0
 33
0.0
 40
0.0
 40
0.0
 40
0.0
 40
0.0
 40
1.0
 40
1.0
 40
1.0
 40
2.0
 40
2.0
 40
2.0
 40
3.0
 40
3.0
 40
3.0
 40
4.0
 40
4.0
 40
4.0
 40
4.0
 10
74.58580049133619
 20
-139.5766655467031
 30
0.0
 10
74.5687472686842
 20
-139.6062933678762
 30
0.0
 10
74.51810436505103
 20
-139.699310945978
 30
0.0
 10
74.50742456904676
 20
-139.7186034806954
 30
0.0
 10
74.6977660946068
 20
-139.7778591230417
 30
0.0
 10
74.7189534318411
 20
-139.7840602949151
 30
0.0
 10
74.79095592748283
 20
-139.8116210587971
 30
0.0
 10
74.84590520047256
 20
-139.7248046525688
 30
0.0
 10
74.869159594998
 20
-139.6507350996359
 30
0.0
 10
74.88397350558456
 20
-139.5766655467031
 30
0.0
 10
74.88397350558456
 20
-139.5766655467031
 30
0.0
 10
74.58580049133619
 20
-139.5766655467031
 30
0.0
 10
74.58580049133619
 20
-139.5766655467031
 30
0.0
  0
HATCH
  5
105
330
FE
100
AcDbEntity
  8
_U+30EC_U+30A4_U+30E4_U+30FC 1
 62
   179
420
  2234388
100
AcDbHatch
 10
0.0
 20
0.0
 30
0.0
210
0.0
220
0.0
230
1.0
  2
SOLID
 70
     1
 71
     0
 91
        3
 92
        1
 93
        1
 72
     4
 94
        3
 73
     0
 74
     1
 95
      242
 96
      238
 40
0.0
 40
0.0
 40
0.0
 40
0.0
 40
1.0
 40
1.0
 40
1.0
 40
2.0
 40
2.0
 40
2.0
 40
3.0
 40
3.0
 40
3.0
 40
4.0
 40
4.0
 40
4.0
 40
5.0
 40
5.0
 40
5.0
 40
6.0
 40
6.0
 40
6.0
 40
7.0
 40
7.0
 40
7.0
 40
8.0
 40
8.0
 40
8.0
 40
9.0
 40
9.0
 40
9.0
 40
10.0
 40
10.0
 40
10.0
 40
11.0
 40
11.0
 40
11.0
 40
12.0
 40
12.0
 40
12.0
 40
13.0
 40
13.0
 40
13.0
 40
14.0
 40
14.0
 40
14.0
 40
15.0
 40
15.0
 40
15.0
 40
16.0
 40
16.0
 40
16.0
 40
17.0
 40
17.0
 40
17.0
 40
18.0
 40
18.0
 40
18.0
 40
19.0
 40
19.0
 40
19.0
 40
20.0
 40
20.0
 40
20.0
 40
21.0
 40
21.0
 40
21.0
 40
22.0
 40
22.0
 40
22.0
 40
23.0
 40
23.0
 40
23.0
 40
24.0
 40
24.0
 40
24.0
 40
25.0
 40
25.0
 40
25.0
 40
26.0
 40
26.0
 40
26.0
 40
27.0
 40
27.0
 40
27.0
 40
28.0
 40
28.0
 40
28.0
 40
29.0
 40
29.0
 40
29.0
 40
30.0
 40
30.0
 40
30.0
 40
31.0
 40
31.0
 40
31.0
 40
32.0
 40
32.0
 40
32.0
 40
33.0
 40
33.0
 40
33.0
 40
34.0
 40
34.0
 40
34.0
 40
35.0
 40
35.0
 40
35.0
 40
36.0
 40
36.0
 40
36.0
 40
37.0
 40
37.0
 40
37.0
 40
38.0
 40
38.0
 40
38.0
 40
39.0
 40
39.0
 40
39.0
 40
40.0
 40
40.0
 40
40.0
 40
41.0
 40
41.0
 40
41.0
 40
42.0
 40
42.0
 40
42.0
 40
43.0
 40
43.0
 40
43.0
 40
44.0
 40
44.0
 40
44.0
 40
45.0
 40
45.0
 40
45.0
 40
46.0
 40
46.0
 40
46.0
 40
47.0
 40
47.0
 40
47.0
 40
48.0
 40
48.0
 40
48.0
 40
49.0
 40
49.0
 40
49.0
 40
50.0
 40
50.0
 40
50.0
 40
51.0
 40
51.0
 40
51.0
 40
52.0
 40
52.0
 40
52.0
 40
53.0
 40
53.0
 40
53.0
 40
54.0
 40
54.0
 40
54.0
 40
55.0
 40
55.0
 40
55.0
 40
56.0
 40
56.0
 40
56.0
 40
57.0
 40
57.0
 40
57.0
 40
58.0
 40
58.0
 40
58.0
 40
59.0
 40
59.0
 40
59.0
 40
60.0
 40
60.0
 40
60.0
 40
61.0
 40
61.0
 40
61.0
 40
62.0
 40
62.0
 40
62.0
 40
63.0
 40
63.0
 40
63.0
 40
64.0
 40
64.0
 40
64.0
 40
65.0
 40
65.0
 40
65.0
 40
66.0
 40
66.0
 40
66.0
 40
67.0
 40
67.0
 40
67.0
 40
68.0
 40
68.0
 40
68.0
 40
69.0
 40
69.0
 40
69.0
 40
70.0
 40
70.0
 40
70.0
 40
71.0
 40
71.0
 40
71.0
 40
72.0
 40
72.0
 40
72.0
 40
73.0
 40
73.0
 40
73.0
 40
74.0
 40
74.0
 40
74.0
 40
75.0
 40
75.0
 40
75.0
 40
76.0
 40
76.0
 40
76.0
 40
77.0
 40
77.0
 40
77.0
 40
78.0
 40
78.0
 40
78.0
 40
79.0
 40
79.0
 40
79.0
 40
79.0
 10
75.1506238961429
 20
-139.1918483810007
 10
75.1506238961429
 20
-139.1918483810007
 10
74.89672035887999
 20
-139.1918483810007
 10
74.89672035887999
 20
-139.1918483810007
 10
74.89672035887999
 20
-139.1918483810007
 10
74.61956242709164
 20
-139.1918483810007
 10
74.61956242709164
 20
-139.1918483810007
 10
74.61956242709164
 20
-139.1918483810007
 10
74.7465141957231
 20
-139.2342230554692
 10
74.7465141957231
 20
-139.2342230554692
 10
74.7570217369531
 20
-139.2383571700515
 10
74.76976859024853
 20
-139.244558341925
 10
74.76976859024853
 20
-139.2573051952204
 10
74.76976859024853
 20
-139.2783202776804
 10
74.73807371178424
 20
-139.2848659591024
 10
74.71688637454994
 20
-139.2890000736847
 10
74.70637883331993
 20
-139.3124267229844
 10
74.67675101214678
 20
-139.3778835372042
 10
74.65763073220366
 20
-139.4223252689639
 10
74.65763073220366
 20
-139.4223252689639
 10
74.92841523734428
 20
-139.4223252689639
 10
74.92841523734428
 20
-139.4223252689639
 10
75.01936575815489
 20
-139.4223252689639
 10
75.21608071036265
 20
-139.4181911543816
 10
75.35784638958069
 20
-139.4095784156684
 10
75.35784638958069
 20
-139.4095784156684
 10
75.35784638958069
 20
-139.5873453427073
 10
75.35784638958069
 20
-139.5873453427073
 10
75.27533635270895
 20
-139.583211228125
 10
75.25414901547467
 20
-139.583211228125
 10
75.07448728591888
 20
-139.5787326039942
 10
75.04262015268031
 20
-139.7334173912819
 10
74.9981784209206
 20
-139.8136881160883
 10
74.95373668916088
 20
-139.8836235544388
 10
75.07448728591888
 20
-139.9428791967851
 10
75.18025171731605
 20
-140.010403068296
 10
75.2837768366478
 20
-140.093085359942
 10
75.2837768366478
 20
-140.093085359942
 10
75.16543780672947
 20
-140.2601724909766
 10
75.16543780672947
 20
-140.2601724909766
 10
75.14201115742978
 20
-140.2408799562592
 10
75.12943655890862
 20
-140.2326117270946
 10
75.01729870086373
 20
-140.1478623781575
 10
74.96855059974745
 20
-140.1099663278197
 10
74.90946721217541
 20
-140.0737928252246
 10
74.82902423259483
 20
-140.0293510934649
 10
74.6174953698005
 20
-140.2157307592169
 10
74.4121676788796
 20
-140.2388128989681
 10
74.12243514857009
 20
-140.2684407201412
 10
74.12243514857009
 20
-140.2684407201412
 10
74.01873777446407
 20
-140.0886067358112
 10
74.01873777446407
 20
-140.0886067358112
 10
74.33603106865557
 20
-140.0844726212289
 10
74.51173093840332
 20
-140.058978914638
 10
74.66400415885137
 20
-139.9490803686586
 10
74.54549287415877
 20
-139.8984374650254
 10
74.45660941063932
 20
-139.8708767011434
 10
74.42078041759272
 20
-139.858129847848
 10
74.40166013764959
 20
-139.88569061173
 10
74.38684622706302
 20
-139.9046386368989
 10
74.35928546318101
 20
-139.9384005726543
 10
74.35928546318101
 20
-139.9384005726543
 10
74.16257051097325
 20
-139.8560627905568
 10
74.16257051097325
 20
-139.8560627905568
 10
74.24508054784498
 20
-139.7757920657505
 10
74.30640324748244
 20
-139.6803629208091
 10
74.36359183253758
 20
-139.5787326039942
 10
74.17325030697752
 20
-139.583211228125
 10
74.15206296974324
 20
-139.583211228125
 10
74.0695529328715
 20
-139.5873453427073
 10
74.0695529328715
 20
-139.5873453427073
 10
74.0695529328715
 20
-139.4095784156684
 10
74.0695529328715
 20
-139.4095784156684
 10
74.20907930002413
 20
-139.4161240970904
 10
74.41854110552731
 20
-139.4202582116727
 10
74.44403481211816
 20
-139.4202582116727
 10
74.46091577999589
 20
-139.3864962759173
 10
74.51586505298562
 20
-139.2659179339335
 10
74.53498533292876
 20
-139.1918483810007
 10
74.51586505298562
 20
-139.1918483810007
 10
74.33827038072099
 20
-139.1980495528741
 10
74.14362248580437
 20
-139.2107964061695
 10
74.14362248580437
 20
-139.2107964061695
 10
74.14362248580437
 20
-139.3441216014487
 10
74.14362248580437
 20
-139.3441216014487
 10
74.0948743846881
 20
-139.369270798491
 10
74.0356187423418
 20
-139.4013101865038
 10
73.90246580183688
 20
-139.4667670007236
 10
73.90246580183688
 20
-139.4667670007236
 10
73.90246580183688
 20
-139.6128390492982
 10
73.90246580183688
 20
-139.6128390492982
 10
73.90246580183688
 20
-139.6128390492982
 10
73.90246580183688
 20
-140.0803385066466
 10
73.90246580183688
 20
-140.0803385066466
 10
73.90246580183688
 20
-140.2071180205038
 10
73.86646455401602
 20
-140.2663736628501
 10
73.58293319557997
 20
-140.2581054336855
 10
73.58293319557997
 20
-140.2581054336855
 10
73.47923582147395
 20
-140.0507106854734
 10
73.47923582147395
 20
-140.0507106854734
 10
73.5427978331768
 20
-140.0634575387689
 10
73.59137367951882
 20
-140.0675916533512
 10
73.63168129669624
 20
-140.0675916533512
 10
73.70781790692027
 20
-140.0675916533512
 10
73.71832544815028
 20
-140.0441650040515
 10
73.71832544815028
 20
-139.9787081898317
 10
73.71832544815028
 20
-139.9787081898317
 10
73.71832544815028
 20
-139.5491047828211
 10
73.71832544815028
 20
-139.5491047828211
 10
73.62100150069197
 20
-139.5894123999985
 10
73.60412053281425
 20
-139.5959580814205
 10
73.55761174376337
 20
-139.6149061065893
 10
73.55330537440682
 20
-139.6359211890494
 10
73.54917125982452
 20
-139.6655490102225
 10
73.53005097988138
 20
-139.6655490102225
 10
73.52161049594251
 20
-139.6655490102225
 10
73.5111029547125
 20
-139.6614148956402
 10
73.5047295280648
 20
-139.6379882463405
 10
73.5047295280648
 20
-139.6379882463405
 10
73.45184731236621
 20
-139.4457519182636
 10
73.45184731236621
 20
-139.4457519182636
 10
73.59774710616654
 20
-139.3988986196642
 10
73.66337617516055
 20
-139.375816479913
 10
73.71832544815028
 20
-139.354801397453
 10
73.71832544815028
 20
-139.354801397453
 10
73.71832544815028
 20
-138.9420789583201
 10
73.71832544815028
 20
-138.9420789583201
 10
73.71832544815028
 20
-138.9420789583201
 10
73.6654432324517
 20
-138.9420789583201
 10
73.6654432324517
 20
-138.9420789583201
 10
73.6654432324517
 20
-138.9420789583201
 10
73.58723956493652
 20
-138.9420789583201
 10
73.58723956493652
 20
-138.9420789583201
 10
73.51954343865137
 20
-138.9420789583201
 10
73.5111029547125
 20
-138.9420789583201
 10
73.47510170689165
 20
-138.948624639742
 10
73.47510170689165
 20
-138.948624639742
 10
73.47510170689165
 20
-138.7539767448254
 10
73.47510170689165
 20
-138.7539767448254
 10
73.50266247077364
 20
-138.7601779166989
 10
73.5111029547125
 20
-138.7601779166989
 10
73.58086613828881
 20
-138.7601779166989
 10
73.58086613828881
 20
-138.7601779166989
 10
73.71419133356798
 20
-138.7601779166989
 10
73.71419133356798
 20
-138.7601779166989
 10
73.71419133356798
 20
-138.6902424783483
 10
73.71419133356798
 20
-138.6079046962508
 10
73.71195202150257
 20
-138.6037705816685
 10
73.70351153756371
 20
-138.4239365973385
 10
73.70351153756371
 20
-138.4046440626211
 10
73.70144448027256
 20
-138.3581352735702
 10
73.70144448027256
 20
-138.3581352735702
 10
73.91727971242346
 20
-138.3667480122833
 10
73.91727971242346
 20
-138.3667480122833
 10
73.92778725365348
 20
-138.3667480122833
 10
73.94897459088776
 20
-138.3688150695745
 10
73.94897459088776
 20
-138.3856960374522
 10
73.94897459088776
 20
-138.4046440626211
 10
73.93416068030119
 20
-138.4153238586253
 10
73.9088392284846
 20
-138.4342718837942
 10
73.9088392284846
 20
-138.4852592969759
 10
73.90246580183688
 20
-138.713669127648
 10
73.90453285912804
 20
-138.7601779166989
 10
74.03355168505064
 20
-138.7601779166989
 10
74.04629853834606
 20
-138.7601779166989
 10
74.14362248580437
 20
-138.7515651779857
 10
74.14362248580437
 20
-138.7515651779857
 10
74.14362248580437
 20
-138.9462130729023
 10
74.14362248580437
 20
-138.9462130729023
 10
74.10555418069237
 20
-138.9441460156112
 10
74.03785805440721
 20
-138.9400119010289
 10
73.90246580183688
 20
-138.9420789583201
 10
73.90246580183688
 20
-138.9420789583201
 10
73.90246580183688
 20
-139.2807318445201
 10
73.90246580183688
 20
-139.2807318445201
 10
73.95741507482663
 20
-139.2573051952204
 10
74.02304414382063
 20
-139.2297444313384
 10
74.07161999016266
 20
-139.2066622915872
 10
74.07161999016266
 20
-139.2066622915872
 10
74.07161999016266
 20
-139.0288953645483
 10
74.07161999016266
 20
-139.0288953645483
 10
74.18582490549869
 20
-139.0416422178438
 10
74.30433619019128
 20
-139.0416422178438
 10
74.42078041759272
 20
-139.0416422178438
 10
74.39752602306729
 20
-138.9462130729023
 10
74.36996525918529
 20
-138.8638752908049
 10
74.30640324748244
 20
-138.7305500955257
 10
74.26213377049697
 20
-138.7326171528169
 10
74.17962373362523
 20
-138.7367512673991
 10
74.14138317373896
 20
-138.7391628342388
 10
74.14138317373896
 20
-138.7391628342388
 10
74.14138317373896
 20
-138.5593288499088
 10
74.14138317373896
 20
-138.5593288499088
 10
74.26626788507927
 20
-138.5675970790734
 10
74.4397284427616
 20
-138.5717311936557
 10
74.52223847963333
 20
-138.5717311936557
 10
74.52223847963333
 20
-138.5717311936557
 10
74.60474851650507
 20
-138.5717311936557
 10
74.60474851650507
 20
-138.5717311936557
 10
74.60474851650507
 20
-138.4091226867519
 10
74.60474851650507
 20
-138.3984428907476
 10
74.60268145921391
 20
-138.3433213629836
 10
74.60268145921391
 20
-138.3433213629836
 10
74.82695717530368
 20
-138.3688150695745
 10
74.82695717530368
 20
-138.3688150695745
 10
74.83109128988598
 20
-138.3688150695745
 10
74.85227862712027
 20
-138.3708821268656
 10
74.85227862712027
 20
-138.3877630947433
 10
74.85227862712027
 20
-138.4025770053299
 10
74.84177108589026
 20
-138.411189744043
 10
74.81421032200825
 20
-138.4260036546296
 10
74.80783689536054
 20
-138.4914604688494
 10
74.8057698380694
 20
-138.5128200608579
 10
74.8057698380694
 20
-138.5717311936557
 10
74.8057698380694
 20
-138.5717311936557
 10
74.90085447346229
 20
-138.5717311936557
 10
74.90085447346229
 20
-138.5717311936557
 10
74.98336451033403
 20
-138.5717311936557
 10
75.15682506801635
 20
-138.5675970790734
 10
75.28170977935666
 20
-138.5593288499088
 10
75.28170977935666
 20
-138.5593288499088
 10
75.28170977935666
 20
-138.7391628342388
 10
75.28170977935666
 20
-138.7391628342388
 10
75.25208195818351
 20
-138.7367512673991
 10
75.13357067349092
 20
-138.7326171528169
 10
75.09343531108776
 20
-138.7305500955257
 10
75.07862140050118
 20
-138.7811929991589
 10
75.04485946474573
 20
-138.893503111978
 10
74.97923039575173
 20
-139.0330294791306
 10
75.02143281544603
 20
-139.0330294791306
 10
75.29859074723439
 20
-139.0140814539618
 10
75.35991344687183
 20
-139.0120143966706
 10
75.35991344687183
 20
-139.0120143966706
 10
75.35991344687183
 20
-139.195982495583
 10
75.35991344687183
 20
-139.195982495583
 10
75.33045788047295
 20
-139.195982495583
 10
75.31340465782095
 20
-139.1918483810007
 10
75.1506238961429
 20
-139.1918483810007
 97
        0
 97
        0
 92
        1
 93
        1
 72
     4
 94
        3
 73
     0
 74
     1
 95
       20
 96
       16
 40
0.0
 40
0.0
 40
0.0
 40
0.0
 40
1.0
 40
1.0
 40
1.0
 40
2.0
 40
2.0
 40
2.0
 40
3.0
 40
3.0
 40
3.0
 40
4.0
 40
4.0
 40
4.0
 40
5.0
 40
5.0
 40
5.0
 40
5.0
 10
74.52223847963333
 20
-138.7264159809434
 10
74.52223847963333
 20
-138.7264159809434
 10
74.49054360116904
 20
-138.7264159809434
 10
74.49054360116904
 20
-138.7264159809434
 10
74.53705239021991
 20
-138.8256347309186
 10
74.5687472686842
 20
-138.9062499652734
 10
74.60268145921391
 20
-139.0330294791306
 10
74.60268145921391
 20
-139.0330294791306
 10
74.8099039526517
 20
-139.0330294791306
 10
74.8099039526517
 20
-139.0330294791306
 10
74.84177108589026
 20
-138.9400119010289
 10
74.8650254804157
 20
-138.8552625520917
 10
74.88827987494113
 20
-138.7264159809434
 10
74.88827987494113
 20
-138.7264159809434
 10
74.52223847963333
 20
-138.7264159809434
 10
74.52223847963333
 20
-138.7264159809434
 97
        0
 97
        0
 92
        1
 93
        1
 72
     4
 94
        3
 73
     0
 74
     1
 95
       17
 96
       13
 40
0.0
 40
0.0
 40
0.0
 40
0.0
 40
1.0
 40
1.0
 40
1.0
 40
2.0
 40
2.0
 40
2.0
 40
3.0
 40
3.0
 40
3.0
 40
4.0
 40
4.0
 40
4.0
 40
4.0
 10
74.58580049133619
 20
-139.5766655467031
 10
74.5687472686842
 20
-139.6062933678762
 10
74.51810436505103
 20
-139.699310945978
 10
74.50742456904676
 20
-139.7186034806954
 10
74.6977660946068
 20
-139.7778591230417
 10
74.7189534318411
 20
-139.7840602949151
 10
74.79095592748283
 20
-139.8116210587971
 10
74.84590520047256
 20
-139.7248046525688
 10
74.869159594998
 20
-139.6507350996359
 10
74.88397350558456
 20
-139.5766655467031
 10
74.88397350558456
 20
-139.5766655467031
 10
74.58580049133619
 20
-139.5766655467031
 10
74.58580049133619
 20
-139.5766655467031
 97
        0
 97
        0
 75
     2
 76
     1
 98
        0
  0
SPLINE
  5
106
330
FE
100
AcDbEntity
  8
_U+30EC_U+30A4_U+30E4_U+30FC 1
370
     0
100
AcDbSpline
210
0.0
220
0.0
230
1.0
 70
    11
 71
     3
 72
   203
 73
   199
 74
     0
 42
0.0000000001
 43
0.0000000001
 12
1.0
 22
0.0
 32
0.0
 13
1.0
 23
0.0
 33
0.0
 40
0.0
 40
0.0
 40
0.0
 40
0.0
 40
1.0
 40
1.0
 40
1.0
 40
2.0
 40
2.0
 40
2.0
 40
3.0
 40
3.0
 40
3.0
 40
4.0
 40
4.0
 40
4.0
 40
5.0
 40
5.0
 40
5.0
 40
6.0
 40
6.0
 40
6.0
 40
7.0
 40
7.0
 40
7.0
 40
8.0
 40
8.0
 40
8.0
 40
9.0
 40
9.0
 40
9.0
 40
10.0
 40
10.0
 40
10.0
 40
11.0
 40
11.0
 40
11.0
 40
12.0
 40
12.0
 40
12.0
 40
13.0
 40
13.0
 40
13.0
 40
14.0
 40
14.0
 40
14.0
 40
15.0
 40
15.0
 40
15.0
 40
16.0
 40
16.0
 40
16.0
 40
17.0
 40
17.0
 40
17.0
 40
18.0
 40
18.0
 40
18.0
 40
19.0
 40
19.0
 40
19.0
 40
20.0
 40
20.0
 40
20.0
 40
21.0
 40
21.0
 40
21.0
 40
22.0
 40
22.0
 40
22.0
 40
23.0
 40
23.0
 40
23.0
 40
24.0
 40
24.0
 40
24.0
 40
25.0
 40
25.0
 40
25.0
 40
26.0
 40
26.0
 40
26.0
 40
27.0
 40
27.0
 40
27.0
 40
28.0
 40
28.0
 40
28.0
 40
29.0
 40
29.0
 40
29.0
 40
30.0
 40
30.0
 40
30.0
 40
31.0
 40
31.0
 40
31.0
 40
32.0
 40
32.0
 40
32.0
 40
33.0
 40
33.0
 40
33.0
 40
34.0
 40
34.0
 40
34.0
 40
35.0
 40
35.0
 40
35.0
 40
36.0
 40
36.0
 40
36.0
 40
37.0
 40
37.0
 40
37.0
 40
38.0
 40
38.0
 40
38.0
 40
39.0
 40
39.0
 40
39.0
 40
40.0
 40
40.0
 40
40.0
 40
41.0
 40
41.0
 40
41.0
 40
42.0
 40
42.0
 40
42.0
 40
43.0
 40
43.0
 40
43.0
 40
44.0
 40
44.0
 40
44.0
 40
45.0
 40
45.0
 40
45.0
 40
46.0
 40
46.0
 40
46.0
 40
47.0
 40
47.0
 40
47.0
 40
48.0
 40
48.0
 40
48.0
 40
49.0
 40
49.0
 40
49.0
 40
50.0
 40
50.0
 40
50.0
 40
51.0
 40
51.0
 40
51.0
 40
52.0
 40
52.0
 40
52.0
 40
53.0
 40
53.0
 40
53.0
 40
54.0
 40
54.0
 40
54.0
 40
55.0
 40
55.0
 40
55.0
 40
56.0
 40
56.0
 40
56.0
 40
57.0
 40
57.0
 40
57.0
 40
58.0
 40
58.0
 40
58.0
 40
59.0
 40
59.0
 40
59.0
 40
60.0
 40
60.0
 40
60.0
 40
61.0
 40
61.0
 40
61.0
 40
62.0
 40
62.0
 40
62.0
 40
63.0
 40
63.0
 40
63.0
 40
64.0
 40
64.0
 40
64.0
 40
65.0
 40
65.0
 40
65.0
 40
66.0
 40
66.0
 40
66.0
 40
66.0
 10
76.8419935246263
 20
-139.2593722525116
 30
0.0
 10
76.8419935246263
 20
-139.2593722525116
 30
0.0
 10
76.28354354646731
 20
-139.2593722525116
 30
0.0
 10
76.28354354646731
 20
-139.2593722525116
 30
0.0
 10
76.27286375046303
 20
-139.3038139842713
 30
0.0
 10
76.26442326652418
 20
-139.3355088627356
 30
0.0
 10
76.251848668003
 20
-139.3737494226218
 30
0.0
 10
76.2771701198196
 20
-139.3737494226218
 30
0.0
 10
76.29198403040617
 20
-139.375816479913
 30
0.0
 10
76.29835745705388
 20
-139.375816479913
 30
0.0
 10
76.29835745705388
 20
-139.375816479913
 30
0.0
 10
76.48663192532278
 20
-139.375816479913
 30
0.0
 10
76.48663192532278
 20
-139.375816479913
 30
0.0
 10
76.48663192532278
 20
-139.375816479913
 30
0.0
 10
76.86111380456944
 20
-139.375816479913
 30
0.0
 10
76.86111380456944
 20
-139.375816479913
 30
0.0
 10
76.91175670820262
 20
-139.375816479913
 30
0.0
 10
77.19528806663868
 20
-139.3630696266176
 30
0.0
 10
77.22698294510298
 20
-139.3630696266176
 30
0.0
 10
77.22491588781183
 20
-139.3906303904996
 30
0.0
 10
77.22284883052068
 20
-139.4095784156684
 30
0.0
 10
77.22284883052068
 20
-139.4392062368416
 30
0.0
 10
77.22060951845526
 20
-139.4709011153059
 30
0.0
 10
77.22060951845526
 20
-139.6062933678762
 30
0.0
 10
77.22060951845526
 20
-139.6338541317582
 30
0.0
 10
77.22060951845526
 20
-139.6338541317582
 30
0.0
 10
77.22060951845526
 20
-139.879144930308
 30
0.0
 10
77.22060951845526
 20
-139.879144930308
 30
0.0
 10
77.22060951845526
 20
-139.9235866620677
 30
0.0
 10
77.22491588781183
 20
-140.1203016142755
 30
0.0
 10
77.22922225716839
 20
-140.2729193442721
 30
0.0
 10
77.22922225716839
 20
-140.2729193442721
 30
0.0
 10
77.00270722901321
 20
-140.2729193442721
 30
0.0
 10
77.00270722901321
 20
-140.2729193442721
 30
0.0
 10
77.00270722901321
 20
-140.2729193442721
 30
0.0
 10
77.00494654107862
 20
-140.2388128989681
 30
0.0
 10
77.00494654107862
 20
-140.2388128989681
 30
0.0
 10
77.00494654107862
 20
-140.2388128989681
 30
0.0
 10
76.30249157163618
 20
-140.2388128989681
 30
0.0
 10
76.30249157163618
 20
-140.2388128989681
 30
0.0
 10
76.30249157163618
 20
-140.2388128989681
 30
0.0
 10
76.3047308837016
 20
-140.2729193442721
 30
0.0
 10
76.3047308837016
 20
-140.2729193442721
 30
0.0
 10
76.3047308837016
 20
-140.2729193442721
 30
0.0
 10
76.08682859425954
 20
-140.2729193442721
 30
0.0
 10
76.08682859425954
 20
-140.2729193442721
 30
0.0
 10
76.09096270884184
 20
-140.2177978165081
 30
0.0
 10
76.09096270884184
 20
-140.2050509632126
 30
0.0
 10
76.09733613548956
 20
-140.0906737931023
 30
0.0
 10
76.09940319278071
 20
-140.0634575387689
 30
0.0
 10
76.10164250484613
 20
-139.9301323434897
 30
0.0
 10
76.10164250484613
 20
-139.9108398087723
 30
0.0
 10
76.10164250484613
 20
-139.9108398087723
 30
0.0
 10
76.10164250484613
 20
-139.7079236846911
 30
0.0
 10
76.10164250484613
 20
-139.7079236846911
 30
0.0
 10
75.96194388291924
 20
-139.9576931073717
 30
0.0
 10
75.79278969459347
 20
-140.0886067358112
 30
0.0
 10
75.6870252631963
 20
-140.1544080595795
 30
0.0
 10
75.6870252631963
 20
-140.1544080595795
 30
0.0
 10
75.51339245073972
 20
-140.0145371828783
 30
0.0
 10
75.51339245073972
 20
-140.0145371828783
 30
0.0
 10
75.60227591425915
 20
-139.9638942792452
 30
0.0
 10
75.74610865076833
 20
-139.8770778730168
 30
0.0
 10
75.88374021540407
 20
-139.6824299781002
 30
0.0
 10
75.97469073621467
 20
-139.555650464243
 30
0.0
 10
76.04014755043441
 20
-139.4116454729596
 30
0.0
 10
76.07408174096412
 20
-139.2593722525116
 30
0.0
 10
75.84567191029205
 20
-139.2614393098027
 30
0.0
 10
75.66583792596202
 20
-139.2679849912247
 30
0.0
 10
75.57058103579486
 20
-139.2700520485158
 30
0.0
 10
75.57058103579486
 20
-139.2700520485158
 30
0.0
 10
75.57058103579486
 20
-139.0922851214769
 30
0.0
 10
75.57058103579486
 20
-139.0922851214769
 30
0.0
 10
75.76729598800263
 20
-139.0984862933504
 30
0.0
 10
76.05082734643868
 20
-139.1029649174812
 30
0.0
 10
76.20103350959558
 20
-139.1029649174812
 30
0.0
 10
76.20103350959558
 20
-139.1029649174812
 30
0.0
 10
76.41462942968107
 20
-139.1029649174812
 30
0.0
 10
76.41462942968107
 20
-139.1029649174812
 30
0.0
 10
76.41462942968107
 20
-139.1029649174812
 30
0.0
 10
76.41462942968107
 20
-138.9951334287929
 30
0.0
 10
76.41462942968107
 20
-138.9951334287929
 30
0.0
 10
76.41462942968107
 20
-138.9951334287929
 30
0.0
 10
76.26872963588073
 20
-138.9951334287929
 30
0.0
 10
76.26872963588073
 20
-138.9951334287929
 30
0.0
 10
76.09940319278071
 20
-138.9951334287929
 30
0.0
 10
75.93024900445494
 20
-138.9992675433752
 30
0.0
 10
75.76316187342033
 20
-139.0054687152486
 30
0.0
 10
75.76316187342033
 20
-139.0054687152486
 30
0.0
 10
75.76316187342033
 20
-138.8342474696317
 30
0.0
 10
75.76316187342033
 20
-138.8342474696317
 30
0.0
 10
75.91750215115951
 20
-138.844927265636
 30
0.0
 10
76.10370956213727
 20
-138.844927265636
 30
0.0
 10
76.26872963588073
 20
-138.844927265636
 30
0.0
 10
76.26872963588073
 20
-138.844927265636
 30
0.0
 10
76.41462942968107
 20
-138.844927265636
 30
0.0
 10
76.41462942968107
 20
-138.844927265636
 30
0.0
 10
76.41462942968107
 20
-138.844927265636
 30
0.0
 10
76.41462942968107
 20
-138.7264159809434
 30
0.0
 10
76.41462942968107
 20
-138.7264159809434
 30
0.0
 10
76.41462942968107
 20
-138.7264159809434
 30
0.0
 10
76.28354354646731
 20
-138.7264159809434
 30
0.0
 10
76.28354354646731
 20
-138.7264159809434
 30
0.0
 10
76.23703475741644
 20
-138.7264159809434
 30
0.0
 10
76.03394637856096
 20
-138.734684210108
 30
0.0
 10
75.9915717040924
 20
-138.734684210108
 30
0.0
 10
75.78848332523691
 20
-138.7391628342388
 30
0.0
 10
75.71234671501288
 20
-138.74122989153
 30
0.0
 10
75.63397079272346
 20
-138.7432969488211
 30
0.0
 10
75.63397079272346
 20
-138.7432969488211
 30
0.0
 10
75.63397079272346
 20
-138.5593288499088
 30
0.0
 10
75.63397079272346
 20
-138.5593288499088
 30
0.0
 10
75.74834796283375
 20
-138.5675970790734
 30
0.0
 10
75.79278969459347
 20
-138.5675970790734
 30
0.0
 10
76.17553980300472
 20
-138.5762098177865
 30
0.0
 10
76.11215004607614
 20
-138.4807806728451
 30
0.0
 10
76.08458928219413
 20
-138.4535644185116
 30
0.0
 10
76.04876028914754
 20
-138.4173909159165
 30
0.0
 10
76.04876028914754
 20
-138.4173909159165
 30
0.0
 10
76.22428790412101
 20
-138.335053133819
 30
0.0
 10
76.22428790412101
 20
-138.335053133819
 30
0.0
 10
76.26442326652418
 20
-138.3708821268656
 30
0.0
 10
76.3088649982839
 20
-138.4132568013342
 30
0.0
 10
76.38293455121676
 20
-138.5231553473137
 30
0.0
 10
76.38293455121676
 20
-138.5231553473137
 30
0.0
 10
76.26872963588073
 20
-138.5782768750776
 30
0.0
 10
76.26872963588073
 20
-138.5782768750776
 30
0.0
 10
76.26872963588073
 20
-138.5782768750776
 30
0.0
 10
76.27923717711074
 20
-138.5782768750776
 30
0.0
 10
76.27923717711074
 20
-138.5782768750776
 30
0.0
 10
76.27923717711074
 20
-138.5782768750776
 30
0.0
 10
76.80185816222316
 20
-138.5782768750776
 30
0.0
 10
76.80185816222316
 20
-138.5782768750776
 30
0.0
 10
76.80185816222316
 20
-138.5782768750776
 30
0.0
 10
76.70660127205599
 20
-138.5338351433179
 30
0.0
 10
76.70660127205599
 20
-138.5338351433179
 30
0.0
 10
76.73416203593798
 20
-138.4955945834317
 30
0.0
 10
76.79117836621887
 20
-138.4153238586253
 30
0.0
 10
76.80599227680545
 20
-138.3412543056925
 30
0.0
 10
76.80599227680545
 20
-138.3412543056925
 30
0.0
 10
77.0197604516652
 20
-138.4046440626211
 30
0.0
 10
77.0197604516652
 20
-138.4046440626211
 30
0.0
 10
77.02820093560406
 20
-138.4070556294607
 30
0.0
 10
77.04938827283836
 20
-138.4173909159165
 30
0.0
 10
77.04938827283836
 20
-138.4387505079251
 30
0.0
 10
77.04938827283836
 20
-138.4766465582628
 30
0.0
 10
76.98375920384434
 20
-138.4766465582628
 30
0.0
 10
76.9646389239012
 20
-138.4766465582628
 30
0.0
 10
76.95413138267119
 20
-138.4955945834317
 30
0.0
 10
76.93087698814576
 20
-138.5359022006091
 30
0.0
 10
76.9012491669726
 20
-138.5762098177865
 30
0.0
 10
77.30105249803586
 20
-138.5696641363645
 30
0.0
 10
77.330680319209
 20
-138.5675970790734
 30
0.0
 10
77.40681692943302
 20
-138.5613959071999
 30
0.0
 10
77.40681692943302
 20
-138.5613959071999
 30
0.0
 10
77.40681692943302
 20
-138.7432969488211
 30
0.0
 10
77.40681692943302
 20
-138.7432969488211
 30
0.0
 10
77.38786890426415
 20
-138.7432969488211
 30
0.0
 10
77.3623751976733
 20
-138.74122989153
 30
0.0
 10
77.1424058509401
 20
-138.7326171528169
 30
0.0
 10
77.09159069253266
 20
-138.7305500955257
 30
0.0
 10
76.87162134579945
 20
-138.7264159809434
 30
0.0
 10
76.82717961403974
 20
-138.7264159809434
 30
0.0
 10
76.82717961403974
 20
-138.7264159809434
 30
0.0
 10
76.61134438188883
 20
-138.7264159809434
 30
0.0
 10
76.61134438188883
 20
-138.7264159809434
 30
0.0
 10
76.61134438188883
 20
-138.7264159809434
 30
0.0
 10
76.61134438188883
 20
-138.844927265636
 30
0.0
 10
76.61134438188883
 20
-138.844927265636
 30
0.0
 10
76.61134438188883
 20
-138.844927265636
 30
0.0
 10
76.78497719434543
 20
-138.844927265636
 30
0.0
 10
76.78497719434543
 20
-138.844927265636
 30
0.0
 10
76.94775795602348
 20
-138.844927265636
 30
0.0
 10
77.13809948158354
 20
-138.844927265636
 30
0.0
 10
77.29467907138815
 20
-138.8342474696317
 30
0.0
 10
77.29467907138815
 20
-138.8342474696317
 30
0.0
 10
77.29467907138815
 20
-139.0054687152486
 30
0.0
 10
77.29467907138815
 20
-139.0054687152486
 30
0.0
 10
77.08521726588495
 20
-138.997200486084
 30
0.0
 10
76.88850231367718
 20
-138.9951334287929
 30
0.0
 10
76.78497719434543
 20
-138.9951334287929
 30
0.0
 10
76.78497719434543
 20
-138.9951334287929
 30
0.0
 10
76.61134438188883
 20
-138.9951334287929
 30
0.0
 10
76.61134438188883
 20
-138.9951334287929
 30
0.0
 10
76.61134438188883
 20
-138.9951334287929
 30
0.0
 10
76.61134438188883
 20
-139.1029649174812
 30
0.0
 10
76.61134438188883
 20
-139.1029649174812
 30
0.0
 10
76.61134438188883
 20
-139.1029649174812
 30
0.0
 10
76.8419935246263
 20
-139.1029649174812
 30
0.0
 10
76.8419935246263
 20
-139.1029649174812
 30
0.0
 10
76.97531871990547
 20
-139.1029649174812
 30
0.0
 10
77.26298419292384
 20
-139.0984862933504
 30
0.0
 10
77.47244599842703
 20
-139.0922851214769
 30
0.0
 10
77.47244599842703
 20
-139.0922851214769
 30
0.0
 10
77.47244599842703
 20
-139.2700520485158
 30
0.0
 10
77.47244599842703
 20
-139.2700520485158
 30
0.0
 10
77.27986516080156
 20
-139.2635063670938
 30
0.0
 10
76.96687823596662
 20
-139.2593722525116
 30
0.0
 10
76.8419935246263
 20
-139.2593722525116
 30
0.0
  0
POLYLINE
  5
107
330
FE
100
AcDbEntity
  8
_U+30EC_U+30A4_U+30E4_U+30FC 1
370
     0
100
AcDb2dPolyline
 66
     1
 10
0.0
 20
0.0
 30
0.0
  0
VERTEX
  5
108
330
107
100
AcDbEntity
  8
_U+30EC_U+30A4_U+30E4_U+30FC 1
370
     0
100
AcDbVertex
100
AcDb2dVertex
 10
77.00701359836978
 20
-139.5153428470656
 30
0.0
  0
VERTEX
  5
109
330
107
100
AcDbEntity
  8
_U+30EC_U+30A4_U+30E4_U+30FC 1
370
     0
100
AcDbVertex
100
AcDb2dVertex
 10
76.30042451434504
 20
-139.5153428470656
 30
0.0
  0
VERTEX
  5
10A
330
107
100
AcDbEntity
  8
_U+30EC_U+30A4_U+30E4_U+30FC 1
370
     0
100
AcDbVertex
100
AcDb2dVertex
 10
76.30042451434504
 20
-139.6231743357539
 30
0.0
  0
VERTEX
  5
10B
330
107
100
AcDbEntity
  8
_U+30EC_U+30A4_U+30E4_U+30FC 1
370
     0
100
AcDbVertex
100
AcDb2dVertex
 10
77.00701359836978
 20
-139.6231743357539
 30
0.0
  0
VERTEX
  5
10C
330
107
100
AcDbEntity
  8
_U+30EC_U+30A4_U+30E4_U+30FC 1
370
     0
100
AcDbVertex
100
AcDb2dVertex
 10
77.00701359836978
 20
-139.5153428470656
 30
0.0
  0
SEQEND
  5
10D
330
107
100
AcDbEntity
  8
_U+30EC_U+30A4_U+30E4_U+30FC 1
370
     0
  0
POLYLINE
  5
10E
330
FE
100
AcDbEntity
  8
_U+30EC_U+30A4_U+30E4_U+30FC 1
370
     0
100
AcDb2dPolyline
 66
     1
 10
0.0
 20
0.0
 30
0.0
  0
VERTEX
  5
10F
330
10E
100
AcDbEntity
  8
_U+30EC_U+30A4_U+30E4_U+30FC 1
370
     0
100
AcDbVertex
100
AcDb2dVertex
 10
77.00701359836978
 20
-139.7482313018685
 30
0.0
  0
VERTEX
  5
110
330
10E
100
AcDbEntity
  8
_U+30EC_U+30A4_U+30E4_U+30FC 1
370
     0
100
AcDbVertex
100
AcDb2dVertex
 10
76.30042451434504
 20
-139.7482313018685
 30
0.0
  0
VERTEX
  5
111
330
10E
100
AcDbEntity
  8
_U+30EC_U+30A4_U+30E4_U+30FC 1
370
     0
100
AcDbVertex
100
AcDb2dVertex
 10
76.30042451434504
 20
-139.8622639624303
 30
0.0
  0
VERTEX
  5
112
330
10E
100
AcDbEntity
  8
_U+30EC_U+30A4_U+30E4_U+30FC 1
370
     0
100
AcDbVertex
100
AcDb2dVertex
 10
77.00701359836978
 20
-139.8622639624303
 30
0.0
  0
VERTEX
  5
113
330
10E
100
AcDbEntity
  8
_U+30EC_U+30A4_U+30E4_U+30FC 1
370
     0
100
AcDbVertex
100
AcDb2dVertex
 10
77.00701359836978
 20
-139.7482313018685
 30
0.0
  0
SEQEND
  5
114
330
10E
100
AcDbEntity
  8
_U+30EC_U+30A4_U+30E4_U+30FC 1
370
     0
  0
POLYLINE
  5
115
330
FE
100
AcDbEntity
  8
_U+30EC_U+30A4_U+30E4_U+30FC 1
370
     0
100
AcDb2dPolyline
 66
     1
 10
0.0
 20
0.0
 30
0.0
  0
VERTEX
  5
116
330
115
100
AcDbEntity
  8
_U+30EC_U+30A4_U+30E4_U+30FC 1
370
     0
100
AcDbVertex
100
AcDb2dVertex
 10
77.00701359836978
 20
-139.9914550431271
 30
0.0
  0
VERTEX
  5
117
330
115
100
AcDbEntity
  8
_U+30EC_U+30A4_U+30E4_U+30FC 1
370
     0
100
AcDbVertex
100
AcDb2dVertex
 10
76.30042451434504
 20
-139.9914550431271
 30
0.0
  0
VERTEX
  5
118
330
115
100
AcDbEntity
  8
_U+30EC_U+30A4_U+30E4_U+30FC 1
370
     0
100
AcDbVertex
100
AcDb2dVertex
 10
76.30042451434504
 20
-140.1054877036889
 30
0.0
  0
VERTEX
  5
119
330
115
100
AcDbEntity
  8
_U+30EC_U+30A4_U+30E4_U+30FC 1
370
     0
100
AcDbVertex
100
AcDb2dVertex
 10
77.00701359836978
 20
-140.1054877036889
 30
0.0
  0
VERTEX
  5
11A
330
115
100
AcDbEntity
  8
_U+30EC_U+30A4_U+30E4_U+30FC 1
370
     0
100
AcDbVertex
100
AcDb2dVertex
 10
77.00701359836978
 20
-139.9914550431271
 30
0.0
  0
SEQEND
  5
11B
330
115
100
AcDbEntity
  8
_U+30EC_U+30A4_U+30E4_U+30FC 1
370
     0
  0
HATCH
  5
11C
330
FE
100
AcDbEntity
  8
_U+30EC_U+30A4_U+30E4_U+30FC 1
 62
   179
420
  2234388
100
AcDbHatch
 10
0.0
 20
0.0
 30
0.0
210
0.0
220
0.0
230
1.0
  2
SOLID
 70
     1
 71
     0
 91
        4
 92
        1
 93
        1
 72
     4
 94
        3
 73
     0
 74
     1
 95
      203
 96
      199
 40
0.0
 40
0.0
 40
0.0
 40
0.0
 40
1.0
 40
1.0
 40
1.0
 40
2.0
 40
2.0
 40
2.0
 40
3.0
 40
3.0
 40
3.0
 40
4.0
 40
4.0
 40
4.0
 40
5.0
 40
5.0
 40
5.0
 40
6.0
 40
6.0
 40
6.0
 40
7.0
 40
7.0
 40
7.0
 40
8.0
 40
8.0
 40
8.0
 40
9.0
 40
9.0
 40
9.0
 40
10.0
 40
10.0
 40
10.0
 40
11.0
 40
11.0
 40
11.0
 40
12.0
 40
12.0
 40
12.0
 40
13.0
 40
13.0
 40
13.0
 40
14.0
 40
14.0
 40
14.0
 40
15.0
 40
15.0
 40
15.0
 40
16.0
 40
16.0
 40
16.0
 40
17.0
 40
17.0
 40
17.0
 40
18.0
 40
18.0
 40
18.0
 40
19.0
 40
19.0
 40
19.0
 40
20.0
 40
20.0
 40
20.0
 40
21.0
 40
21.0
 40
21.0
 40
22.0
 40
22.0
 40
22.0
 40
23.0
 40
23.0
 40
23.0
 40
24.0
 40
24.0
 40
24.0
 40
25.0
 40
25.0
 40
25.0
 40
26.0
 40
26.0
 40
26.0
 40
27.0
 40
27.0
 40
27.0
 40
28.0
 40
28.0
 40
28.0
 40
29.0
 40
29.0
 40
29.0
 40
30.0
 40
30.0
 40
30.0
 40
31.0
 40
31.0
 40
31.0
 40
32.0
 40
32.0
 40
32.0
 40
33.0
 40
33.0
 40
33.0
 40
34.0
 40
34.0
 40
34.0
 40
35.0
 40
35.0
 40
35.0
 40
36.0
 40
36.0
 40
36.0
 40
37.0
 40
37.0
 40
37.0
 40
38.0
 40
38.0
 40
38.0
 40
39.0
 40
39.0
 40
39.0
 40
40.0
 40
40.0
 40
40.0
 40
41.0
 40
41.0
 40
41.0
 40
42.0
 40
42.0
 40
42.0
 40
43.0
 40
43.0
 40
43.0
 40
44.0
 40
44.0
 40
44.0
 40
45.0
 40
45.0
 40
45.0
 40
46.0
 40
46.0
 40
46.0
 40
47.0
 40
47.0
 40
47.0
 40
48.0
 40
48.0
 40
48.0
 40
49.0
 40
49.0
 40
49.0
 40
50.0
 40
50.0
 40
50.0
 40
51.0
 40
51.0
 40
51.0
 40
52.0
 40
52.0
 40
52.0
 40
53.0
 40
53.0
 40
53.0
 40
54.0
 40
54.0
 40
54.0
 40
55.0
 40
55.0
 40
55.0
 40
56.0
 40
56.0
 40
56.0
 40
57.0
 40
57.0
 40
57.0
 40
58.0
 40
58.0
 40
58.0
 40
59.0
 40
59.0
 40
59.0
 40
60.0
 40
60.0
 40
60.0
 40
61.0
 40
61.0
 40
61.0
 40
62.0
 40
62.0
 40
62.0
 40
63.0
 40
63.0
 40
63.0
 40
64.0
 40
64.0
 40
64.0
 40
65.0
 40
65.0
 40
65.0
 40
66.0
 40
66.0
 40
66.0
 40
66.0
 10
76.8419935246263
 20
-139.2593722525116
 10
76.8419935246263
 20
-139.2593722525116
 10
76.28354354646731
 20
-139.2593722525116
 10
76.28354354646731
 20
-139.2593722525116
 10
76.27286375046303
 20
-139.3038139842713
 10
76.26442326652418
 20
-139.3355088627356
 10
76.251848668003
 20
-139.3737494226218
 10
76.2771701198196
 20
-139.3737494226218
 10
76.29198403040617
 20
-139.375816479913
 10
76.29835745705388
 20
-139.375816479913
 10
76.29835745705388
 20
-139.375816479913
 10
76.48663192532278
 20
-139.375816479913
 10
76.48663192532278
 20
-139.375816479913
 10
76.48663192532278
 20
-139.375816479913
 10
76.86111380456944
 20
-139.375816479913
 10
76.86111380456944
 20
-139.375816479913
 10
76.91175670820262
 20
-139.375816479913
 10
77.19528806663868
 20
-139.3630696266176
 10
77.22698294510298
 20
-139.3630696266176
 10
77.22491588781183
 20
-139.3906303904996
 10
77.22284883052068
 20
-139.4095784156684
 10
77.22284883052068
 20
-139.4392062368416
 10
77.22060951845526
 20
-139.4709011153059
 10
77.22060951845526
 20
-139.6062933678762
 10
77.22060951845526
 20
-139.6338541317582
 10
77.22060951845526
 20
-139.6338541317582
 10
77.22060951845526
 20
-139.879144930308
 10
77.22060951845526
 20
-139.879144930308
 10
77.22060951845526
 20
-139.9235866620677
 10
77.22491588781183
 20
-140.1203016142755
 10
77.22922225716839
 20
-140.2729193442721
 10
77.22922225716839
 20
-140.2729193442721
 10
77.00270722901321
 20
-140.2729193442721
 10
77.00270722901321
 20
-140.2729193442721
 10
77.00270722901321
 20
-140.2729193442721
 10
77.00494654107862
 20
-140.2388128989681
 10
77.00494654107862
 20
-140.2388128989681
 10
77.00494654107862
 20
-140.2388128989681
 10
76.30249157163618
 20
-140.2388128989681
 10
76.30249157163618
 20
-140.2388128989681
 10
76.30249157163618
 20
-140.2388128989681
 10
76.3047308837016
 20
-140.2729193442721
 10
76.3047308837016
 20
-140.2729193442721
 10
76.3047308837016
 20
-140.2729193442721
 10
76.08682859425954
 20
-140.2729193442721
 10
76.08682859425954
 20
-140.2729193442721
 10
76.09096270884184
 20
-140.2177978165081
 10
76.09096270884184
 20
-140.2050509632126
 10
76.09733613548956
 20
-140.0906737931023
 10
76.09940319278071
 20
-140.0634575387689
 10
76.10164250484613
 20
-139.9301323434897
 10
76.10164250484613
 20
-139.9108398087723
 10
76.10164250484613
 20
-139.9108398087723
 10
76.10164250484613
 20
-139.7079236846911
 10
76.10164250484613
 20
-139.7079236846911
 10
75.96194388291924
 20
-139.9576931073717
 10
75.79278969459347
 20
-140.0886067358112
 10
75.6870252631963
 20
-140.1544080595795
 10
75.6870252631963
 20
-140.1544080595795
 10
75.51339245073972
 20
-140.0145371828783
 10
75.51339245073972
 20
-140.0145371828783
 10
75.60227591425915
 20
-139.9638942792452
 10
75.74610865076833
 20
-139.8770778730168
 10
75.88374021540407
 20
-139.6824299781002
 10
75.97469073621467
 20
-139.555650464243
 10
76.04014755043441
 20
-139.4116454729596
 10
76.07408174096412
 20
-139.2593722525116
 10
75.84567191029205
 20
-139.2614393098027
 10
75.66583792596202
 20
-139.2679849912247
 10
75.57058103579486
 20
-139.2700520485158
 10
75.57058103579486
 20
-139.2700520485158
 10
75.57058103579486
 20
-139.0922851214769
 10
75.57058103579486
 20
-139.0922851214769
 10
75.76729598800263
 20
-139.0984862933504
 10
76.05082734643868
 20
-139.1029649174812
 10
76.20103350959558
 20
-139.1029649174812
 10
76.20103350959558
 20
-139.1029649174812
 10
76.41462942968107
 20
-139.1029649174812
 10
76.41462942968107
 20
-139.1029649174812
 10
76.41462942968107
 20
-139.1029649174812
 10
76.41462942968107
 20
-138.9951334287929
 10
76.41462942968107
 20
-138.9951334287929
 10
76.41462942968107
 20
-138.9951334287929
 10
76.26872963588073
 20
-138.9951334287929
 10
76.26872963588073
 20
-138.9951334287929
 10
76.09940319278071
 20
-138.9951334287929
 10
75.93024900445494
 20
-138.9992675433752
 10
75.76316187342033
 20
-139.0054687152486
 10
75.76316187342033
 20
-139.0054687152486
 10
75.76316187342033
 20
-138.8342474696317
 10
75.76316187342033
 20
-138.8342474696317
 10
75.91750215115951
 20
-138.844927265636
 10
76.10370956213727
 20
-138.844927265636
 10
76.26872963588073
 20
-138.844927265636
 10
76.26872963588073
 20
-138.844927265636
 10
76.41462942968107
 20
-138.844927265636
 10
76.41462942968107
 20
-138.844927265636
 10
76.41462942968107
 20
-138.844927265636
 10
76.41462942968107
 20
-138.7264159809434
 10
76.41462942968107
 20
-138.7264159809434
 10
76.41462942968107
 20
-138.7264159809434
 10
76.28354354646731
 20
-138.7264159809434
 10
76.28354354646731
 20
-138.7264159809434
 10
76.23703475741644
 20
-138.7264159809434
 10
76.03394637856096
 20
-138.734684210108
 10
75.9915717040924
 20
-138.734684210108
 10
75.78848332523691
 20
-138.7391628342388
 10
75.71234671501288
 20
-138.74122989153
 10
75.63397079272346
 20
-138.7432969488211
 10
75.63397079272346
 20
-138.7432969488211
 10
75.63397079272346
 20
-138.5593288499088
 10
75.63397079272346
 20
-138.5593288499088
 10
75.74834796283375
 20
-138.5675970790734
 10
75.79278969459347
 20
-138.5675970790734
 10
76.17553980300472
 20
-138.5762098177865
 10
76.11215004607614
 20
-138.4807806728451
 10
76.08458928219413
 20
-138.4535644185116
 10
76.04876028914754
 20
-138.4173909159165
 10
76.04876028914754
 20
-138.4173909159165
 10
76.22428790412101
 20
-138.335053133819
 10
76.22428790412101
 20
-138.335053133819
 10
76.26442326652418
 20
-138.3708821268656
 10
76.3088649982839
 20
-138.4132568013342
 10
76.38293455121676
 20
-138.5231553473137
 10
76.38293455121676
 20
-138.5231553473137
 10
76.26872963588073
 20
-138.5782768750776
 10
76.26872963588073
 20
-138.5782768750776
 10
76.26872963588073
 20
-138.5782768750776
 10
76.27923717711074
 20
-138.5782768750776
 10
76.27923717711074
 20
-138.5782768750776
 10
76.27923717711074
 20
-138.5782768750776
 10
76.80185816222316
 20
-138.5782768750776
 10
76.80185816222316
 20
-138.5782768750776
 10
76.80185816222316
 20
-138.5782768750776
 10
76.70660127205599
 20
-138.5338351433179
 10
76.70660127205599
 20
-138.5338351433179
 10
76.73416203593798
 20
-138.4955945834317
 10
76.79117836621887
 20
-138.4153238586253
 10
76.80599227680545
 20
-138.3412543056925
 10
76.80599227680545
 20
-138.3412543056925
 10
77.0197604516652
 20
-138.4046440626211
 10
77.0197604516652
 20
-138.4046440626211
 10
77.02820093560406
 20
-138.4070556294607
 10
77.04938827283836
 20
-138.4173909159165
 10
77.04938827283836
 20
-138.4387505079251
 10
77.04938827283836
 20
-138.4766465582628
 10
76.98375920384434
 20
-138.4766465582628
 10
76.9646389239012
 20
-138.4766465582628
 10
76.95413138267119
 20
-138.4955945834317
 10
76.93087698814576
 20
-138.5359022006091
 10
76.9012491669726
 20
-138.5762098177865
 10
77.30105249803586
 20
-138.5696641363645
 10
77.330680319209
 20
-138.5675970790734
 10
77.40681692943302
 20
-138.5613959071999
 10
77.40681692943302
 20
-138.5613959071999
 10
77.40681692943302
 20
-138.7432969488211
 10
77.40681692943302
 20
-138.7432969488211
 10
77.38786890426415
 20
-138.7432969488211
 10
77.3623751976733
 20
-138.74122989153
 10
77.1424058509401
 20
-138.7326171528169
 10
77.09159069253266
 20
-138.7305500955257
 10
76.87162134579945
 20
-138.7264159809434
 10
76.82717961403974
 20
-138.7264159809434
 10
76.82717961403974
 20
-138.7264159809434
 10
76.61134438188883
 20
-138.7264159809434
 10
76.61134438188883
 20
-138.7264159809434
 10
76.61134438188883
 20
-138.7264159809434
 10
76.61134438188883
 20
-138.844927265636
 10
76.61134438188883
 20
-138.844927265636
 10
76.61134438188883
 20
-138.844927265636
 10
76.78497719434543
 20
-138.844927265636
 10
76.78497719434543
 20
-138.844927265636
 10
76.94775795602348
 20
-138.844927265636
 10
77.13809948158354
 20
-138.844927265636
 10
77.29467907138815
 20
-138.8342474696317
 10
77.29467907138815
 20
-138.8342474696317
 10
77.29467907138815
 20
-139.0054687152486
 10
77.29467907138815
 20
-139.0054687152486
 10
77.08521726588495
 20
-138.997200486084
 10
76.88850231367718
 20
-138.9951334287929
 10
76.78497719434543
 20
-138.9951334287929
 10
76.78497719434543
 20
-138.9951334287929
 10
76.61134438188883
 20
-138.9951334287929
 10
76.61134438188883
 20
-138.9951334287929
 10
76.61134438188883
 20
-138.9951334287929
 10
76.61134438188883
 20
-139.1029649174812
 10
76.61134438188883
 20
-139.1029649174812
 10
76.61134438188883
 20
-139.1029649174812
 10
76.8419935246263
 20
-139.1029649174812
 10
76.8419935246263
 20
-139.1029649174812
 10
76.97531871990547
 20
-139.1029649174812
 10
77.26298419292384
 20
-139.0984862933504
 10
77.47244599842703
 20
-139.0922851214769
 10
77.47244599842703
 20
-139.0922851214769
 10
77.47244599842703
 20
-139.2700520485158
 10
77.47244599842703
 20
-139.2700520485158
 10
77.27986516080156
 20
-139.2635063670938
 10
76.96687823596662
 20
-139.2593722525116
 10
76.8419935246263
 20
-139.2593722525116
 97
        0
 97
        0
 92
        1
 93
        4
 72
     1
 10
77.00701359836978
 20
-139.5153428470656
 11
76.30042451434504
 21
-139.5153428470656
 72
     1
 10
76.30042451434504
 20
-139.5153428470656
 11
76.30042451434504
 21
-139.6231743357539
 72
     1
 10
76.30042451434504
 20
-139.6231743357539
 11
77.00701359836978
 21
-139.6231743357539
 72
     1
 10
77.00701359836978
 20
-139.6231743357539
 11
77.00701359836978
 21
-139.5153428470656
 97
        0
 92
        1
 93
        4
 72
     1
 10
77.00701359836978
 20
-139.7482313018685
 11
76.30042451434504
 21
-139.7482313018685
 72
     1
 10
76.30042451434504
 20
-139.7482313018685
 11
76.30042451434504
 21
-139.8622639624303
 72
     1
 10
76.30042451434504
 20
-139.8622639624303
 11
77.00701359836978
 21
-139.8622639624303
 72
     1
 10
77.00701359836978
 20
-139.8622639624303
 11
77.00701359836978
 21
-139.7482313018685
 97
        0
 92
        1
 93
        4
 72
     1
 10
77.00701359836978
 20
-139.9914550431271
 11
76.30042451434504
 21
-139.9914550431271
 72
     1
 10
76.30042451434504
 20
-139.9914550431271
 11
76.30042451434504
 21
-140.1054877036889
 72
     1
 10
76.30042451434504
 20
-140.1054877036889
 11
77.00701359836978
 21
-140.1054877036889
 72
     1
 10
77.00701359836978
 20
-140.1054877036889
 11
77.00701359836978
 21
-139.9914550431271
 97
        0
 75
     2
 76
     1
 98
        0
  0
SPLINE
  5
11D
330
FE
100
AcDbEntity
  8
_U+30EC_U+30A4_U+30E4_U+30FC 1
370
     0
100
AcDbSpline
210
0.0
220
0.0
230
1.0
 70
    11
 71
     3
 72
    47
 73
    43
 74
     0
 42
0.0000000001
 43
0.0000000001
 12
1.0
 22
0.0
 32
0.0
 13
1.0
 23
0.0
 33
0.0
 40
0.0
 40
0.0
 40
0.0
 40
0.0
 40
1.0
 40
1.0
 40
1.0
 40
2.0
 40
2.0
 40
2.0
 40
3.0
 40
3.0
 40
3.0
 40
4.0
 40
4.0
 40
4.0
 40
5.0
 40
5.0
 40
5.0
 40
6.0
 40
6.0
 40
6.0
 40
7.0
 40
7.0
 40
7.0
 40
8.0
 40
8.0
 40
8.0
 40
9.0
 40
9.0
 40
9.0
 40
10.0
 40
10.0
 40
10.0
 40
11.0
 40
11.0
 40
11.0
 40
12.0
 40
12.0
 40
12.0
 40
13.0
 40
13.0
 40
13.0
 40
14.0
 40
14.0
 40
14.0
 40
14.0
 10
78.81896156883693
 20
-139.2362901127604
 30
0.0
 10
78.81896156883693
 20
-139.2362901127604
 30
0.0
 10
78.71750350679632
 20
-139.2362901127604
 30
0.0
 10
78.71750350679632
 20
-139.2362901127604
 30
0.0
 10
78.71750350679632
 20
-139.3227620094401
 30
0.0
 10
78.69631616956204
 20
-139.7120577992734
 30
0.0
 10
78.49960121735427
 20
-139.9321994007808
 30
0.0
 10
78.34732799690623
 20
-140.1013535891066
 30
0.0
 10
78.13993324869419
 20
-140.1712890274572
 30
0.0
 10
78.05535615453131
 20
-140.1988497913392
 30
0.0
 10
78.05535615453131
 20
-140.1988497913392
 30
0.0
 10
77.86070825961468
 20
-140.0317626603046
 30
0.0
 10
77.86070825961468
 20
-140.0317626603046
 30
0.0
 10
77.95803220707299
 20
-140.0190158070091
 30
0.0
 10
78.13355982204648
 20
-139.9955891577094
 30
0.0
 10
78.32183429031538
 20
-139.8074869442148
 30
0.0
 10
78.39590384324825
 20
-139.7354844485731
 30
0.0
 10
78.49960121735427
 20
-139.5959580814205
 30
0.0
 10
78.49960121735427
 20
-139.2362901127604
 30
0.0
 10
78.49960121735427
 20
-139.2362901127604
 30
0.0
 10
78.26895207461679
 20
-139.2362901127604
 30
0.0
 10
78.26895207461679
 20
-139.2362901127604
 30
0.0
 10
78.08274466363903
 20
-139.2362901127604
 30
0.0
 10
77.89670950743555
 20
-139.2404242273427
 30
0.0
 10
77.7105020964578
 20
-139.2552381379292
 30
0.0
 10
77.7105020964578
 20
-139.2552381379292
 30
0.0
 10
77.7105020964578
 20
-139.0350965364218
 30
0.0
 10
77.7105020964578
 20
-139.0350965364218
 30
0.0
 10
77.8987765647267
 20
-139.0499104470084
 30
0.0
 10
78.18437498045391
 20
-139.0543890711392
 30
0.0
 10
78.26895207461679
 20
-139.0543890711392
 30
0.0
 10
78.26895207461679
 20
-139.0543890711392
 30
0.0
 10
78.81896156883693
 20
-139.0543890711392
 30
0.0
 10
78.81896156883693
 20
-139.0543890711392
 30
0.0
 10
78.83808184878006
 20
-139.0543890711392
 30
0.0
 10
79.15537514297158
 20
-139.0543890711392
 30
0.0
 10
79.38378497364364
 20
-139.0350965364218
 30
0.0
 10
79.38378497364364
 20
-139.0350965364218
 30
0.0
 10
79.38378497364364
 20
-139.2552381379292
 30
0.0
 10
79.38378497364364
 20
-139.2552381379292
 30
0.0
 10
79.19551050537474
 20
-139.2404242273427
 30
0.0
 10
79.00723603710583
 20
-139.2362901127604
 30
0.0
 10
78.81896156883693
 20
-139.2362901127604
 30
0.0
  0
SPLINE
  5
11E
330
FE
100
AcDbEntity
  8
_U+30EC_U+30A4_U+30E4_U+30FC 1
370
     0
100
AcDbSpline
210
0.0
220
0.0
230
1.0
 70
    11
 71
     3
 72
    29
 73
    25
 74
     0
 42
0.0000000001
 43
0.0000000001
 12
1.0
 22
0.0
 32
0.0
 13
1.0
 23
0.0
 33
0.0
 40
0.0
 40
0.0
 40
0.0
 40
0.0
 40
1.0
 40
1.0
 40
1.0
 40
2.0
 40
2.0
 40
2.0
 40
3.0
 40
3.0
 40
3.0
 40
4.0
 40
4.0
 40
4.0
 40
5.0
 40
5.0
 40
5.0
 40
6.0
 40
6.0
 40
6.0
 40
7.0
 40
7.0
 40
7.0
 40
8.0
 40
8.0
 40
8.0
 40
8.0
 10
78.71750350679632
 20
-138.707123446226
 30
0.0
 10
78.71750350679632
 20
-138.707123446226
 30
0.0
 10
78.36420896478396
 20
-138.707123446226
 30
0.0
 10
78.36420896478396
 20
-138.707123446226
 30
0.0
 10
78.25207110673907
 20
-138.707123446226
 30
0.0
 10
78.11237248481218
 20
-138.713669127648
 30
0.0
 10
78.00454099612386
 20
-138.7264159809434
 30
0.0
 10
78.00454099612386
 20
-138.7264159809434
 30
0.0
 10
78.00454099612386
 20
-138.4914604688494
 30
0.0
 10
78.00454099612386
 20
-138.4914604688494
 30
0.0
 10
78.12305228081647
 20
-138.506274379436
 30
0.0
 10
78.3070203797288
 20
-138.5104084940182
 30
0.0
 10
78.36420896478396
 20
-138.5104084940182
 30
0.0
 10
78.36420896478396
 20
-138.5104084940182
 30
0.0
 10
78.71750350679632
 20
-138.5104084940182
 30
0.0
 10
78.71750350679632
 20
-138.5104084940182
 30
0.0
 10
78.7364515319652
 20
-138.5104084940182
 30
0.0
 10
78.93953991082067
 20
-138.5104084940182
 30
0.0
 10
79.08130559003871
 20
-138.4914604688494
 30
0.0
 10
79.08130559003871
 20
-138.4914604688494
 30
0.0
 10
79.08130559003871
 20
-138.7264159809434
 30
0.0
 10
79.08130559003871
 20
-138.7264159809434
 30
0.0
 10
78.9247260002341
 20
-138.707123446226
 30
0.0
 10
78.73438447467404
 20
-138.707123446226
 30
0.0
 10
78.71750350679632
 20
-138.707123446226
 30
0.0
  0
HATCH
  5
11F
330
FE
100
AcDbEntity
  8
_U+30EC_U+30A4_U+30E4_U+30FC 1
 62
   179
420
  2234388
100
AcDbHatch
 10
0.0
 20
0.0
 30
0.0
210
0.0
220
0.0
230
1.0
  2
SOLID
 70
     1
 71
     0
 91
        2
 92
        1
 93
        1
 72
     4
 94
        3
 73
     0
 74
     1
 95
       47
 96
       43
 40
0.0
 40
0.0
 40
0.0
 40
0.0
 40
1.0
 40
1.0
 40
1.0
 40
2.0
 40
2.0
 40
2.0
 40
3.0
 40
3.0
 40
3.0
 40
4.0
 40
4.0
 40
4.0
 40
5.0
 40
5.0
 40
5.0
 40
6.0
 40
6.0
 40
6.0
 40
7.0
 40
7.0
 40
7.0
 40
8.0
 40
8.0
 40
8.0
 40
9.0
 40
9.0
 40
9.0
 40
10.0
 40
10.0
 40
10.0
 40
11.0
 40
11.0
 40
11.0
 40
12.0
 40
12.0
 40
12.0
 40
13.0
 40
13.0
 40
13.0
 40
14.0
 40
14.0
 40
14.0
 40
14.0
 10
78.81896156883693
 20
-139.2362901127604
 10
78.81896156883693
 20
-139.2362901127604
 10
78.71750350679632
 20
-139.2362901127604
 10
78.71750350679632
 20
-139.2362901127604
 10
78.71750350679632
 20
-139.3227620094401
 10
78.69631616956204
 20
-139.7120577992734
 10
78.49960121735427
 20
-139.9321994007808
 10
78.34732799690623
 20
-140.1013535891066
 10
78.13993324869419
 20
-140.1712890274572
 10
78.05535615453131
 20
-140.1988497913392
 10
78.05535615453131
 20
-140.1988497913392
 10
77.86070825961468
 20
-140.0317626603046
 10
77.86070825961468
 20
-140.0317626603046
 10
77.95803220707299
 20
-140.0190158070091
 10
78.13355982204648
 20
-139.9955891577094
 10
78.32183429031538
 20
-139.8074869442148
 10
78.39590384324825
 20
-139.7354844485731
 10
78.49960121735427
 20
-139.5959580814205
 10
78.49960121735427
 20
-139.2362901127604
 10
78.49960121735427
 20
-139.2362901127604
 10
78.26895207461679
 20
-139.2362901127604
 10
78.26895207461679
 20
-139.2362901127604
 10
78.08274466363903
 20
-139.2362901127604
 10
77.89670950743555
 20
-139.2404242273427
 10
77.7105020964578
 20
-139.2552381379292
 10
77.7105020964578
 20
-139.2552381379292
 10
77.7105020964578
 20
-139.0350965364218
 10
77.7105020964578
 20
-139.0350965364218
 10
77.8987765647267
 20
-139.0499104470084
 10
78.18437498045391
 20
-139.0543890711392
 10
78.26895207461679
 20
-139.0543890711392
 10
78.26895207461679
 20
-139.0543890711392
 10
78.81896156883693
 20
-139.0543890711392
 10
78.81896156883693
 20
-139.0543890711392
 10
78.83808184878006
 20
-139.0543890711392
 10
79.15537514297158
 20
-139.0543890711392
 10
79.38378497364364
 20
-139.0350965364218
 10
79.38378497364364
 20
-139.0350965364218
 10
79.38378497364364
 20
-139.2552381379292
 10
79.38378497364364
 20
-139.2552381379292
 10
79.19551050537474
 20
-139.2404242273427
 10
79.00723603710583
 20
-139.2362901127604
 10
78.81896156883693
 20
-139.2362901127604
 97
        0
 97
        0
 92
        1
 93
        1
 72
     4
 94
        3
 73
     0
 74
     1
 95
       29
 96
       25
 40
0.0
 40
0.0
 40
0.0
 40
0.0
 40
1.0
 40
1.0
 40
1.0
 40
2.0
 40
2.0
 40
2.0
 40
3.0
 40
3.0
 40
3.0
 40
4.0
 40
4.0
 40
4.0
 40
5.0
 40
5.0
 40
5.0
 40
6.0
 40
6.0
 40
6.0
 40
7.0
 40
7.0
 40
7.0
 40
8.0
 40
8.0
 40
8.0
 40
8.0
 10
78.71750350679632
 20
-138.707123446226
 10
78.71750350679632
 20
-138.707123446226
 10
78.36420896478396
 20
-138.707123446226
 10
78.36420896478396
 20
-138.707123446226
 10
78.25207110673907
 20
-138.707123446226
 10
78.11237248481218
 20
-138.713669127648
 10
78.00454099612386
 20
-138.7264159809434
 10
78.00454099612386
 20
-138.7264159809434
 10
78.00454099612386
 20
-138.4914604688494
 10
78.00454099612386
 20
-138.4914604688494
 10
78.12305228081647
 20
-138.506274379436
 10
78.3070203797288
 20
-138.5104084940182
 10
78.36420896478396
 20
-138.5104084940182
 10
78.36420896478396
 20
-138.5104084940182
 10
78.71750350679632
 20
-138.5104084940182
 10
78.71750350679632
 20
-138.5104084940182
 10
78.7364515319652
 20
-138.5104084940182
 10
78.93953991082067
 20
-138.5104084940182
 10
79.08130559003871
 20
-138.4914604688494
 10
79.08130559003871
 20
-138.4914604688494
 10
79.08130559003871
 20
-138.7264159809434
 10
79.08130559003871
 20
-138.7264159809434
 10
78.9247260002341
 20
-138.707123446226
 10
78.73438447467404
 20
-138.707123446226
 10
78.71750350679632
 20
-138.707123446226
 97
        0
 97
        0
 75
     2
 76
     1
 98
        0
  0
SPLINE
  5
120
330
FE
100
AcDbEntity
  8
_U+30EC_U+30A4_U+30E4_U+30FC 1
370
     0
100
AcDbSpline
210
0.0
220
0.0
230
1.0
 70
    11
 71
     3
 72
    29
 73
    25
 74
     0
 42
0.0000000001
 43
0.0000000001
 12
1.0
 22
0.0
 32
0.0
 13
1.0
 23
0.0
 33
0.0
 40
0.0
 40
0.0
 40
0.0
 40
0.0
 40
1.0
 40
1.0
 40
1.0
 40
2.0
 40
2.0
 40
2.0
 40
3.0
 40
3.0
 40
3.0
 40
4.0
 40
4.0
 40
4.0
 40
5.0
 40
5.0
 40
5.0
 40
6.0
 40
6.0
 40
6.0
 40
7.0
 40
7.0
 40
7.0
 40
8.0
 40
8.0
 40
8.0
 40
8.0
 10
80.66484372983379
 20
-139.3988986196642
 30
0.0
 10
80.66484372983379
 20
-139.3988986196642
 30
0.0
 10
80.1802910498334
 20
-139.3988986196642
 30
0.0
 10
80.1802910498334
 20
-139.3988986196642
 30
0.0
 10
80.15290254072566
 20
-139.3988986196642
 30
0.0
 10
79.83543699175989
 20
-139.3988986196642
 30
0.0
 10
79.62390812896555
 20
-139.424392326255
 30
0.0
 10
79.62390812896555
 20
-139.424392326255
 30
0.0
 10
79.62390812896555
 20
-139.1939154382918
 30
0.0
 10
79.62390812896555
 20
-139.1939154382918
 30
0.0
 10
79.7825547760613
 20
-139.216997578043
 30
0.0
 10
79.97306855639563
 20
-139.2194091448827
 30
0.0
 10
80.1802910498334
 20
-139.2194091448827
 30
0.0
 10
80.1802910498334
 20
-139.2194091448827
 30
0.0
 10
80.66484372983379
 20
-139.2194091448827
 30
0.0
 10
80.66484372983379
 20
-139.2194091448827
 30
0.0
 10
80.85087888603728
 20
-139.2194091448827
 30
0.0
 10
81.03708629701504
 20
-139.216997578043
 30
0.0
 10
81.22122665070164
 20
-139.1939154382918
 30
0.0
 10
81.22122665070164
 20
-139.1939154382918
 30
0.0
 10
81.22122665070164
 20
-139.424392326255
 30
0.0
 10
81.22122665070164
 20
-139.424392326255
 30
0.0
 10
81.03708629701504
 20
-139.4013101865038
 30
0.0
 10
80.78955618639984
 20
-139.3988986196642
 30
0.0
 10
80.66484372983379
 20
-139.3988986196642
 30
0.0
  0
HATCH
  5
121
330
FE
100
AcDbEntity
  8
_U+30EC_U+30A4_U+30E4_U+30FC 1
 62
   179
420
  2234388
100
AcDbHatch
 10
0.0
 20
0.0
 30
0.0
210
0.0
220
0.0
230
1.0
  2
SOLID
 70
     1
 71
     0
 91
        1
 92
        1
 93
        1
 72
     4
 94
        3
 73
     0
 74
     1
 95
       29
 96
       25
 40
0.0
 40
0.0
 40
0.0
 40
0.0
 40
1.0
 40
1.0
 40
1.0
 40
2.0
 40
2.0
 40
2.0
 40
3.0
 40
3.0
 40
3.0
 40
4.0
 40
4.0
 40
4.0
 40
5.0
 40
5.0
 40
5.0
 40
6.0
 40
6.0
 40
6.0
 40
7.0
 40
7.0
 40
7.0
 40
8.0
 40
8.0
 40
8.0
 40
8.0
 10
80.66484372983379
 20
-139.3988986196642
 10
80.66484372983379
 20
-139.3988986196642
 10
80.1802910498334
 20
-139.3988986196642
 10
80.1802910498334
 20
-139.3988986196642
 10
80.15290254072566
 20
-139.3988986196642
 10
79.83543699175989
 20
-139.3988986196642
 10
79.62390812896555
 20
-139.424392326255
 10
79.62390812896555
 20
-139.424392326255
 10
79.62390812896555
 20
-139.1939154382918
 10
79.62390812896555
 20
-139.1939154382918
 10
79.7825547760613
 20
-139.216997578043
 10
79.97306855639563
 20
-139.2194091448827
 10
80.1802910498334
 20
-139.2194091448827
 10
80.1802910498334
 20
-139.2194091448827
 10
80.66484372983379
 20
-139.2194091448827
 10
80.66484372983379
 20
-139.2194091448827
 10
80.85087888603728
 20
-139.2194091448827
 10
81.03708629701504
 20
-139.216997578043
 10
81.22122665070164
 20
-139.1939154382918
 10
81.22122665070164
 20
-139.1939154382918
 10
81.22122665070164
 20
-139.424392326255
 10
81.22122665070164
 20
-139.424392326255
 10
81.03708629701504
 20
-139.4013101865038
 10
80.78955618639984
 20
-139.3988986196642
 10
80.66484372983379
 20
-139.3988986196642
 97
        0
 97
        0
 75
     2
 76
     1
 98
        0
  0
SPLINE
  5
122
330
FE
100
AcDbEntity
  8
_U+30EC_U+30A4_U+30E4_U+30FC 1
370
     0
100
AcDbSpline
210
0.0
220
0.0
230
1.0
 70
    11
 71
     3
 72
    44
 73
    40
 74
     0
 42
0.0000000001
 43
0.0000000001
 12
1.0
 22
0.0
 32
0.0
 13
1.0
 23
0.0
 33
0.0
 40
0.0
 40
0.0
 40
0.0
 40
0.0
 40
1.0
 40
1.0
 40
1.0
 40
2.0
 40
2.0
 40
2.0
 40
3.0
 40
3.0
 40
3.0
 40
4.0
 40
4.0
 40
4.0
 40
5.0
 40
5.0
 40
5.0
 40
6.0
 40
6.0
 40
6.0
 40
7.0
 40
7.0
 40
7.0
 40
8.0
 40
8.0
 40
8.0
 40
9.0
 40
9.0
 40
9.0
 40
10.0
 40
10.0
 40
10.0
 40
11.0
 40
11.0
 40
11.0
 40
12.0
 40
12.0
 40
12.0
 40
13.0
 40
13.0
 40
13.0
 40
13.0
 10
82.87659503136419
 20
-138.9610269834889
 30
0.0
 10
82.7644571733193
 20
-139.3293076908621
 30
0.0
 10
82.71364201491187
 20
-139.4877820831836
 30
0.0
 10
82.5169270627041
 20
-139.7375515058642
 30
0.0
 10
82.3327867090175
 20
-139.9680283938274
 30
0.0
 10
82.09593639440658
 20
-140.1544080595795
 30
0.0
 10
81.81671140532707
 20
-140.2474256376812
 30
0.0
 10
81.81671140532707
 20
-140.2474256376812
 30
0.0
 10
81.62413056770161
 20
-140.0675916533512
 30
0.0
 10
81.62413056770161
 20
-140.0675916533512
 30
0.0
 10
82.26509058273234
 20
-139.9153184329031
 30
0.0
 10
82.59513073021928
 20
-139.3589355120353
 30
0.0
 10
82.65869274192214
 20
-138.9189968185689
 30
0.0
 10
82.65869274192214
 20
-138.9189968185689
 30
0.0
 10
81.8928480155511
 20
-138.9189968185689
 30
0.0
 10
81.8928480155511
 20
-138.9189968185689
 30
0.0
 10
81.79965818267509
 20
-138.9189968185689
 30
0.0
 10
81.61569008376274
 20
-138.9231309331512
 30
0.0
 10
81.45911049395815
 20
-138.9420789583201
 30
0.0
 10
81.45911049395815
 20
-138.9420789583201
 30
0.0
 10
81.45911049395815
 20
-138.7219373568126
 30
0.0
 10
81.45911049395815
 20
-138.7219373568126
 30
0.0
 10
81.54592690018644
 20
-138.7432969488211
 30
0.0
 10
81.79759112538395
 20
-138.7432969488211
 30
0.0
 10
81.8969821301334
 20
-138.7432969488211
 30
0.0
 10
81.8969821301334
 20
-138.7432969488211
 30
0.0
 10
82.3286525944352
 20
-138.7432969488211
 30
0.0
 10
82.3286525944352
 20
-138.7432969488211
 30
0.0
 10
82.37085501412952
 20
-138.7432969488211
 30
0.0
 10
82.60581052622355
 20
-138.74122989153
 30
0.0
 10
82.64387883133556
 20
-138.734684210108
 30
0.0
 10
82.68608125102988
 20
-138.7284830382345
 30
0.0
 10
82.68832056309529
 20
-138.7264159809434
 30
0.0
 10
82.74964326273273
 20
-138.686108363766
 30
0.0
 10
82.74964326273273
 20
-138.686108363766
 30
0.0
 10
82.93791773100163
 20
-138.8404486415052
 30
0.0
 10
82.93791773100163
 20
-138.8404486415052
 30
0.0
 10
82.90828990982848
 20
-138.8700764626783
 30
0.0
 10
82.89347599924191
 20
-138.9017713411426
 30
0.0
 10
82.87659503136419
 20
-138.9610269834889
 30
0.0
  0
SPLINE
  5
123
330
FE
100
AcDbEntity
  8
_U+30EC_U+30A4_U+30E4_U+30FC 1
370
     0
100
AcDbSpline
210
0.0
220
0.0
230
1.0
 70
    11
 71
     3
 72
    17
 73
    13
 74
     0
 42
0.0000000001
 43
0.0000000001
 12
1.0
 22
0.0
 32
0.0
 13
1.0
 23
0.0
 33
0.0
 40
0.0
 40
0.0
 40
0.0
 40
0.0
 40
1.0
 40
1.0
 40
1.0
 40
2.0
 40
2.0
 40
2.0
 40
3.0
 40
3.0
 40
3.0
 40
4.0
 40
4.0
 40
4.0
 40
4.0
 10
83.08588458209312
 20
-138.76224497399
 30
0.0
 10
82.95910506823593
 20
-138.76224497399
 30
0.0
 10
82.85747475142105
 20
-138.6606146571751
 30
0.0
 10
82.85747475142105
 20
-138.5338351433179
 30
0.0
 10
82.85747475142105
 20
-138.4070556294607
 30
0.0
 10
82.95910506823593
 20
-138.3033582553547
 30
0.0
 10
83.08588458209312
 20
-138.3033582553547
 30
0.0
 10
83.21283635072457
 20
-138.3033582553547
 30
0.0
 10
83.31653372483059
 20
-138.4070556294607
 30
0.0
 10
83.31653372483059
 20
-138.5338351433179
 30
0.0
 10
83.31653372483059
 20
-138.6606146571751
 30
0.0
 10
83.21283635072457
 20
-138.76224497399
 30
0.0
 10
83.08588458209312
 20
-138.76224497399
 30
0.0
  0
SPLINE
  5
124
330
FE
100
AcDbEntity
  8
_U+30EC_U+30A4_U+30E4_U+30FC 1
370
     0
100
AcDbSpline
210
0.0
220
0.0
230
1.0
 70
    11
 71
     3
 72
    17
 73
    13
 74
     0
 42
0.0000000001
 43
0.0000000001
 12
1.0
 22
0.0
 32
0.0
 13
1.0
 23
0.0
 33
0.0
 40
0.0
 40
0.0
 40
0.0
 40
0.0
 40
1.0
 40
1.0
 40
1.0
 40
2.0
 40
2.0
 40
2.0
 40
3.0
 40
3.0
 40
3.0
 40
4.0
 40
4.0
 40
4.0
 40
4.0
 10
83.08381752480197
 20
-138.4322048265031
 30
0.0
 10
83.02886825181223
 20
-138.4322048265031
 30
0.0
 10
82.98442652005251
 20
-138.4766465582628
 30
0.0
 10
82.98442652005251
 20
-138.5317680860268
 30
0.0
 10
82.98442652005251
 20
-138.5889566710819
 30
0.0
 10
83.02886825181223
 20
-138.6375325174239
 30
0.0
 10
83.08812389415853
 20
-138.6375325174239
 30
0.0
 10
83.14737953650483
 20
-138.6375325174239
 30
0.0
 10
83.18751489890799
 20
-138.5865451042422
 30
0.0
 10
83.18751489890799
 20
-138.5338351433179
 30
0.0
 10
83.18751489890799
 20
-138.4766465582628
 30
0.0
 10
83.14100610985712
 20
-138.4322048265031
 30
0.0
 10
83.08381752480197
 20
-138.4322048265031
 30
0.0
  0
HATCH
  5
125
330
FE
100
AcDbEntity
  8
_U+30EC_U+30A4_U+30E4_U+30FC 1
 62
   179
420
  2234388
100
AcDbHatch
 10
0.0
 20
0.0
 30
0.0
210
0.0
220
0.0
230
1.0
  2
SOLID
 70
     1
 71
     0
 91
        3
 92
        1
 93
        1
 72
     4
 94
        3
 73
     0
 74
     1
 95
       44
 96
       40
 40
0.0
 40
0.0
 40
0.0
 40
0.0
 40
1.0
 40
1.0
 40
1.0
 40
2.0
 40
2.0
 40
2.0
 40
3.0
 40
3.0
 40
3.0
 40
4.0
 40
4.0
 40
4.0
 40
5.0
 40
5.0
 40
5.0
 40
6.0
 40
6.0
 40
6.0
 40
7.0
 40
7.0
 40
7.0
 40
8.0
 40
8.0
 40
8.0
 40
9.0
 40
9.0
 40
9.0
 40
10.0
 40
10.0
 40
10.0
 40
11.0
 40
11.0
 40
11.0
 40
12.0
 40
12.0
 40
12.0
 40
13.0
 40
13.0
 40
13.0
 40
13.0
 10
82.87659503136419
 20
-138.9610269834889
 10
82.7644571733193
 20
-139.3293076908621
 10
82.71364201491187
 20
-139.4877820831836
 10
82.5169270627041
 20
-139.7375515058642
 10
82.3327867090175
 20
-139.9680283938274
 10
82.09593639440658
 20
-140.1544080595795
 10
81.81671140532707
 20
-140.2474256376812
 10
81.81671140532707
 20
-140.2474256376812
 10
81.62413056770161
 20
-140.0675916533512
 10
81.62413056770161
 20
-140.0675916533512
 10
82.26509058273234
 20
-139.9153184329031
 10
82.59513073021928
 20
-139.3589355120353
 10
82.65869274192214
 20
-138.9189968185689
 10
82.65869274192214
 20
-138.9189968185689
 10
81.8928480155511
 20
-138.9189968185689
 10
81.8928480155511
 20
-138.9189968185689
 10
81.79965818267509
 20
-138.9189968185689
 10
81.61569008376274
 20
-138.9231309331512
 10
81.45911049395815
 20
-138.9420789583201
 10
81.45911049395815
 20
-138.9420789583201
 10
81.45911049395815
 20
-138.7219373568126
 10
81.45911049395815
 20
-138.7219373568126
 10
81.54592690018644
 20
-138.7432969488211
 10
81.79759112538395
 20
-138.7432969488211
 10
81.8969821301334
 20
-138.7432969488211
 10
81.8969821301334
 20
-138.7432969488211
 10
82.3286525944352
 20
-138.7432969488211
 10
82.3286525944352
 20
-138.7432969488211
 10
82.37085501412952
 20
-138.7432969488211
 10
82.60581052622355
 20
-138.74122989153
 10
82.64387883133556
 20
-138.734684210108
 10
82.68608125102988
 20
-138.7284830382345
 10
82.68832056309529
 20
-138.7264159809434
 10
82.74964326273273
 20
-138.686108363766
 10
82.74964326273273
 20
-138.686108363766
 10
82.93791773100163
 20
-138.8404486415052
 10
82.93791773100163
 20
-138.8404486415052
 10
82.90828990982848
 20
-138.8700764626783
 10
82.89347599924191
 20
-138.9017713411426
 10
82.87659503136419
 20
-138.9610269834889
 97
        0
 97
        0
 92
        1
 93
        1
 72
     4
 94
        3
 73
     0
 74
     1
 95
       17
 96
       13
 40
0.0
 40
0.0
 40
0.0
 40
0.0
 40
1.0
 40
1.0
 40
1.0
 40
2.0
 40
2.0
 40
2.0
 40
3.0
 40
3.0
 40
3.0
 40
4.0
 40
4.0
 40
4.0
 40
4.0
 10
83.08588458209312
 20
-138.76224497399
 10
82.95910506823593
 20
-138.76224497399
 10
82.85747475142105
 20
-138.6606146571751
 10
82.85747475142105
 20
-138.5338351433179
 10
82.85747475142105
 20
-138.4070556294607
 10
82.95910506823593
 20
-138.3033582553547
 10
83.08588458209312
 20
-138.3033582553547
 10
83.21283635072457
 20
-138.3033582553547
 10
83.31653372483059
 20
-138.4070556294607
 10
83.31653372483059
 20
-138.5338351433179
 10
83.31653372483059
 20
-138.6606146571751
 10
83.21283635072457
 20
-138.76224497399
 10
83.08588458209312
 20
-138.76224497399
 97
        0
 97
        0
 92
        1
 93
        1
 72
     4
 94
        3
 73
     0
 74
     1
 95
       17
 96
       13
 40
0.0
 40
0.0
 40
0.0
 40
0.0
 40
1.0
 40
1.0
 40
1.0
 40
2.0
 40
2.0
 40
2.0
 40
3.0
 40
3.0
 40
3.0
 40
4.0
 40
4.0
 40
4.0
 40
4.0
 10
83.08381752480197
 20
-138.4322048265031
 10
83.02886825181223
 20
-138.4322048265031
 10
82.98442652005251
 20
-138.4766465582628
 10
82.98442652005251
 20
-138.5317680860268
 10
82.98442652005251
 20
-138.5889566710819
 10
83.02886825181223
 20
-138.6375325174239
 10
83.08812389415853
 20
-138.6375325174239
 10
83.14737953650483
 20
-138.6375325174239
 10
83.18751489890799
 20
-138.5865451042422
 10
83.18751489890799
 20
-138.5338351433179
 10
83.18751489890799
 20
-138.4766465582628
 10
83.14100610985712
 20
-138.4322048265031
 10
83.08381752480197
 20
-138.4322048265031
 97
        0
 97
        0
 75
     2
 76
     1
 98
        0
  0
ENDBLK
  5
101
330
FE
100
AcDbEntity
  8
0
100
AcDbBlockEnd
  0
BLOCK
  5
132
330
130
100
AcDbEntity
  8
0
100
AcDbBlockBegin
  2
block 7
 70
     0
 10
0.0
 20
0.0
 30
0.0
  3
block 7
  1

  0
SPLINE
  5
134
330
130
100
AcDbEntity
  8
_U+30EC_U+30A4_U+30E4_U+30FC 1
 62
   179
420
  2234388
370
     9
100
AcDbSpline
210
0.0
220
0.0
230
1.0
 70
    11
 71
     3
 72
    17
 73
    13
 74
     0
 42
0.0000000001
 43
0.0000000001
 12
1.0
 22
0.0
 32
0.0
 13
1.0
 23
0.0
 33
0.0
 40
0.0
 40
0.0
 40
0.0
 40
0.0
 40
1.0
 40
1.0
 40
1.0
 40
2.0
 40
2.0
 40
2.0
 40
3.0
 40
3.0
 40
3.0
 40
4.0
 40
4.0
 40
4.0
 40
4.0
 10
113.9668690369074
 20
-132.3529794113564
 30
0.0
 10
113.9957968139472
 20
-132.477016077992
 30
0.0
 10
114.1990673643168
 20
-132.5121527446497
 30
0.0
 10
114.4195534698029
 20
-132.4322133002253
 30
0.0
 10
114.6400395752889
 20
-132.3516035780235
 30
0.0
 10
114.7943798491292
 20
-132.1862566336199
 30
0.0
 10
114.7654167943125
 20
-132.0618671892065
 30
0.0
 10
114.7364890172727
 20
-131.9388888559042
 30
0.0
 10
114.5339240224406
 20
-131.9027291336907
 30
0.0
 10
114.312732361417
 20
-131.9836916336709
 30
0.0
 10
114.092246255931
 20
-132.0639485780949
 30
0.0
 10
113.9372357043301
 20
-132.2296483002756
 30
0.0
 10
113.9668690369074
 20
-132.3529794113564
 30
0.0
  0
SPLINE
  5
135
330
130
100
AcDbEntity
  8
_U+30EC_U+30A4_U+30E4_U+30FC 1
 62
   179
420
  2234388
370
     9
100
AcDbSpline
210
0.0
220
0.0
230
1.0
 70
     8
 71
     3
 72
    11
 73
     7
 74
     0
 42
0.0000000001
 43
0.0000000001
 12
1.0
 22
0.0
 32
0.0
 13
1.0
 23
0.0
 33
0.0
 40
0.0
 40
0.0
 40
0.0
 40
0.0
 40
1.0
 40
1.0
 40
1.0
 40
2.0
 40
2.0
 40
2.0
 40
2.0
 10
114.2259166381105
 20
-132.4532388557758
 30
0.0
 10
114.2259166381105
 20
-132.4532388557758
 30
0.0
 10
113.8820965390701
 20
-132.3819424669045
 30
0.0
 10
114.2300765301924
 20
-132.0160766336629
 30
0.0
 10
114.2300765301924
 20
-132.0160766336629
 30
0.0
 10
114.0006298693794
 20
-132.1517902447396
 30
0.0
 10
113.9992540360812
 20
-132.2772027447087
 30
0.0
  0
SPLINE
  5
136
330
130
100
AcDbEntity
  8
_U+30EC_U+30A4_U+30E4_U+30FC 1
 62
   179
420
  2234388
370
     9
100
AcDbSpline
210
0.0
220
0.0
230
1.0
 70
    11
 71
     3
 72
    17
 73
    13
 74
     0
 42
0.0000000001
 43
0.0000000001
 12
1.0
 22
0.0
 32
0.0
 13
1.0
 23
0.0
 33
0.0
 40
0.0
 40
0.0
 40
0.0
 40
0.0
 40
1.0
 40
1.0
 40
1.0
 40
2.0
 40
2.0
 40
2.0
 40
3.0
 40
3.0
 40
3.0
 40
4.0
 40
4.0
 40
4.0
 40
4.0
 10
113.7560166382279
 20
-133.248717466688
 30
0.0
 10
113.7856499715534
 20
-133.3727541333236
 30
0.0
 10
113.9882120919184
 20
-133.4078907999813
 30
0.0
 10
114.209403752942
 20
-133.3279513555569
 30
0.0
 10
114.4298898584281
 20
-133.2476944111322
 30
0.0
 10
114.5842301322683
 20
-133.0816419111738
 30
0.0
 10
114.554596799691
 20
-132.9576052445381
 30
0.0
 10
114.5270448559494
 20
-132.834274133458
 30
0.0
 10
114.3230687500422
 20
-132.7984319112448
 30
0.0
 10
114.1025826445562
 20
-132.8793944112244
 30
0.0
 10
113.8820965390701
 20
-132.9593338556488
 30
0.0
 10
113.7270888604572
 20
-133.1253863556079
 30
0.0
 10
113.7560166382279
 20
-133.248717466688
 30
0.0
  0
SPLINE
  5
137
330
130
100
AcDbEntity
  8
_U+30EC_U+30A4_U+30E4_U+30FC 1
 62
   179
420
  2234388
370
     9
100
AcDbSpline
210
0.0
220
0.0
230
1.0
 70
     8
 71
     3
 72
    11
 73
     7
 74
     0
 42
0.0000000001
 43
0.0000000001
 12
1.0
 22
0.0
 32
0.0
 13
1.0
 23
0.0
 33
0.0
 40
0.0
 40
0.0
 40
0.0
 40
0.0
 40
1.0
 40
1.0
 40
1.0
 40
2.0
 40
2.0
 40
2.0
 40
2.0
 10
114.0150937578993
 20
-133.3486241333296
 30
0.0
 10
114.0150937578993
 20
-133.3486241333296
 30
0.0
 10
113.6712765444486
 20
-133.2776452444587
 30
0.0
 10
114.0199268133316
 20
-132.9114266334385
 30
0.0
 10
114.0199268133316
 20
-132.9114266334385
 30
0.0
 10
113.789774596981
 20
-133.0475283000712
 30
0.0
 10
113.7883987636828
 20
-133.1729055222622
 30
0.0
  0
SPLINE
  5
138
330
130
100
AcDbEntity
  8
_U+30EC_U+30A4_U+30E4_U+30FC 1
 62
   179
420
  2234388
370
     9
100
AcDbSpline
210
0.0
220
0.0
230
1.0
 70
    11
 71
     3
 72
    17
 73
    13
 74
     0
 42
0.0000000001
 43
0.0000000001
 12
1.0
 22
0.0
 32
0.0
 13
1.0
 23
0.0
 33
0.0
 40
0.0
 40
0.0
 40
0.0
 40
0.0
 40
1.0
 40
1.0
 40
1.0
 40
2.0
 40
2.0
 40
2.0
 40
3.0
 40
3.0
 40
3.0
 40
4.0
 40
4.0
 40
4.0
 40
4.0
 10
112.0706885297274
 20
-134.222983855333
 30
0.0
 10
112.1002865845279
 20
-134.3476907997466
 30
0.0
 10
112.3021813015993
 20
-134.382157188627
 30
0.0
 10
112.5233729626229
 20
-134.3029232997574
 30
0.0
 10
112.7445293458697
 20
-134.2223135775556
 30
0.0
 10
112.8988696197099
 20
-134.0562610775972
 30
0.0
 10
112.8699418426701
 20
-133.9325771887393
 30
0.0
 10
112.8410140656303
 20
-133.8081877443259
 30
0.0
 10
112.6377435152607
 20
-133.7723807998902
 30
0.0
 10
112.4165518542371
 20
-133.8540135776477
 30
0.0
 10
112.1967713042886
 20
-133.9339530220722
 30
0.0
 10
112.0410551971501
 20
-134.0996527442529
 30
0.0
 10
112.0706885297274
 20
-134.222983855333
 30
0.0
  0
SPLINE
  5
139
330
130
100
AcDbEntity
  8
_U+30EC_U+30A4_U+30E4_U+30FC 1
 62
   179
420
  2234388
370
     9
100
AcDbSpline
210
0.0
220
0.0
230
1.0
 70
     8
 71
     3
 72
    11
 73
     7
 74
     0
 42
0.0000000001
 43
0.0000000001
 12
1.0
 22
0.0
 32
0.0
 13
1.0
 23
0.0
 33
0.0
 40
0.0
 40
0.0
 40
0.0
 40
0.0
 40
1.0
 40
1.0
 40
1.0
 40
2.0
 40
2.0
 40
2.0
 40
2.0
 10
112.329736083029
 20
-134.3228905219746
 30
0.0
 10
112.329736083029
 20
-134.3228905219746
 30
0.0
 10
111.9859160318902
 20
-134.2519116331036
 30
0.0
 10
112.3338960230124
 20
-133.8860457998619
 30
0.0
 10
112.3338960230124
 20
-133.8860457998619
 30
0.0
 10
112.1044493621994
 20
-134.0217946887168
 30
0.0
 10
112.1030735289012
 20
-134.1472071886854
 30
0.0
  0
SPLINE
  5
13A
330
130
100
AcDbEntity
  8
_U+30EC_U+30A4_U+30E4_U+30FC 1
 62
   179
420
  2234388
370
     9
100
AcDbSpline
210
0.0
220
0.0
230
1.0
 70
    11
 71
     3
 72
    17
 73
    13
 74
     0
 42
0.0000000001
 43
0.0000000001
 12
1.0
 22
0.0
 32
0.0
 13
1.0
 23
0.0
 33
0.0
 40
0.0
 40
0.0
 40
0.0
 40
0.0
 40
1.0
 40
1.0
 40
1.0
 40
2.0
 40
2.0
 40
2.0
 40
3.0
 40
3.0
 40
3.0
 40
4.0
 40
4.0
 40
4.0
 40
4.0
 10
115.9161073205115
 20
-131.2409180227456
 30
0.0
 10
115.9450350975513
 20
-131.3649194116031
 30
0.0
 10
116.1476000923834
 20
-131.400091356039
 30
0.0
 10
116.3680861978695
 20
-131.3197991338368
 30
0.0
 10
116.5892778588931
 20
-131.2395421894121
 30
0.0
 10
116.7436181327333
 20
-131.0738424672314
 30
0.0
 10
116.713984800156
 20
-130.949453022818
 30
0.0
 10
116.6863975786375
 20
-130.8261219117379
 30
0.0
 10
116.4824567505072
 20
-130.7902796895246
 30
0.0
 10
116.2619706450211
 20
-130.8715949672819
 30
0.0
 10
116.0414845395351
 20
-130.9515344117064
 30
0.0
 10
115.8864739879342
 20
-131.11688135611
 30
0.0
 10
115.9161073205115
 20
-131.2409180227456
 30
0.0
  0
SPLINE
  5
13B
330
130
100
AcDbEntity
  8
_U+30EC_U+30A4_U+30E4_U+30FC 1
 62
   179
420
  2234388
370
     9
100
AcDbSpline
210
0.0
220
0.0
230
1.0
 70
    11
 71
     3
 72
    14
 73
    10
 74
     0
 42
0.0000000001
 43
0.0000000001
 12
1.0
 22
0.0
 32
0.0
 13
1.0
 23
0.0
 33
0.0
 40
0.0
 40
0.0
 40
0.0
 40
0.0
 40
1.0
 40
1.0
 40
1.0
 40
2.0
 40
2.0
 40
2.0
 40
3.0
 40
3.0
 40
3.0
 40
3.0
 10
116.1351823149224
 20
-130.9270516339346
 30
0.0
 10
116.1351823149224
 20
-130.9270516339346
 30
0.0
 10
115.9050653763488
 20
-131.063506078345
 30
0.0
 10
115.9036895430505
 20
-131.1882130227587
 30
0.0
 10
115.9036895430505
 20
-131.1882130227587
 30
0.0
 10
115.9181534315704
 20
-131.3800888560436
 30
0.0
 10
116.1310548150277
 20
-131.3646019116035
 30
0.0
 10
116.1310548150277
 20
-131.3646019116035
 30
0.0
 10
115.7865673238163
 20
-131.292917467177
 30
0.0
 10
116.1351823149224
 20
-130.9270516339346
 30
0.0
  0
SPLINE
  5
13C
330
130
100
AcDbEntity
  8
_U+30EC_U+30A4_U+30E4_U+30FC 1
 62
   179
420
  2234388
370
     9
100
AcDbSpline
210
0.0
220
0.0
230
1.0
 70
    11
 71
     3
 72
    17
 73
    13
 74
     0
 42
0.0000000001
 43
0.0000000001
 12
1.0
 22
0.0
 32
0.0
 13
1.0
 23
0.0
 33
0.0
 40
0.0
 40
0.0
 40
0.0
 40
0.0
 40
1.0
 40
1.0
 40
1.0
 40
2.0
 40
2.0
 40
2.0
 40
3.0
 40
3.0
 40
3.0
 40
4.0
 40
4.0
 40
4.0
 40
4.0
 10
114.6035270762204
 20
-131.4224574671442
 30
0.0
 10
114.6324548532602
 20
-131.5468469115576
 30
0.0
 10
114.8357254036299
 20
-131.582336355993
 30
0.0
 10
115.0562115091159
 20
-131.5020441337909
 30
0.0
 10
115.276697614602
 20
-131.421434411589
 30
0.0
 10
115.4310378884422
 20
-131.2560874671861
 30
0.0
 10
115.4020777489272
 20
-131.1313452449949
 30
0.0
 10
115.3731499711565
 20
-131.0080141339148
 30
0.0
 10
115.1698765062161
 20
-130.9722071894791
 30
0.0
 10
114.9487201229694
 20
-131.0534871894589
 30
0.0
 10
114.728904295244
 20
-131.1334266338834
 30
0.0
 10
114.5738937436431
 20
-131.2994791338418
 30
0.0
 10
114.6035270762204
 20
-131.4224574671442
 30
0.0
  0
SPLINE
  5
13D
330
130
100
AcDbEntity
  8
_U+30EC_U+30A4_U+30E4_U+30FC 1
 62
   179
420
  2234388
370
     9
100
AcDbSpline
210
0.0
220
0.0
230
1.0
 70
    11
 71
     3
 72
    14
 73
    10
 74
     0
 42
0.0000000001
 43
0.0000000001
 12
1.0
 22
0.0
 32
0.0
 13
1.0
 23
0.0
 33
0.0
 40
0.0
 40
0.0
 40
0.0
 40
0.0
 40
1.0
 40
1.0
 40
1.0
 40
2.0
 40
2.0
 40
2.0
 40
3.0
 40
3.0
 40
3.0
 40
3.0
 10
114.8233076261689
 20
-131.1092966338894
 30
0.0
 10
114.8233076261689
 20
-131.1092966338894
 30
0.0
 10
114.5924851320577
 20
-131.2450455227442
 30
0.0
 10
114.5911092987595
 20
-131.3704580227128
 30
0.0
 10
114.5911092987595
 20
-131.3704580227128
 30
0.0
 10
114.6055731872793
 20
-131.5619810782206
 30
0.0
 10
114.8184745707367
 20
-131.546141356002
 30
0.0
 10
114.8184745707367
 20
-131.546141356002
 30
0.0
 10
114.474657357286
 20
-131.4755152449088
 30
0.0
 10
114.8233076261689
 20
-131.1092966338894
 30
0.0
  0
SPLINE
  5
13E
330
130
100
AcDbEntity
  8
_U+30EC_U+30A4_U+30E4_U+30FC 1
 62
   179
420
  2234388
370
     9
100
AcDbSpline
210
0.0
220
0.0
230
1.0
 70
    11
 71
     3
 72
    17
 73
    13
 74
     0
 42
0.0000000001
 43
0.0000000001
 12
1.0
 22
0.0
 32
0.0
 13
1.0
 23
0.0
 33
0.0
 40
0.0
 40
0.0
 40
0.0
 40
0.0
 40
1.0
 40
1.0
 40
1.0
 40
2.0
 40
2.0
 40
2.0
 40
3.0
 40
3.0
 40
3.0
 40
4.0
 40
4.0
 40
4.0
 40
4.0
 10
116.4604110819959
 20
-130.0330774674918
 30
0.0
 10
116.490749970877
 20
-130.1570788563493
 30
0.0
 10
116.6933120229056
 20
-130.1925683007854
 30
0.0
 10
116.9137981283916
 20
-130.1123113563607
 30
0.0
 10
117.1342842338777
 20
-130.0317016341589
 30
0.0
 10
117.2892947854786
 20
-129.8663194119779
 30
0.0
 10
117.2596614529013
 20
-129.7422827453422
 30
0.0
 10
117.2307336758615
 20
-129.6186341342619
 30
0.0
 10
117.0281686810293
 20
-129.5831446898264
 30
0.0
 10
116.8069770200057
 20
-129.6637544120288
 30
0.0
 10
116.5864909145197
 20
-129.7436585786751
 30
0.0
 10
116.4314833042253
 20
-129.9097110786335
 30
0.0
 10
116.4604110819959
 20
-130.0330774674918
 30
0.0
  0
SPLINE
  5
13F
330
130
100
AcDbEntity
  8
_U+30EC_U+30A4_U+30E4_U+30FC 1
 62
   179
420
  2234388
370
     9
100
AcDbSpline
210
0.0
220
0.0
230
1.0
 70
    11
 71
     3
 72
    14
 73
    10
 74
     0
 42
0.0000000001
 43
0.0000000001
 12
1.0
 22
0.0
 32
0.0
 13
1.0
 23
0.0
 33
0.0
 40
0.0
 40
0.0
 40
0.0
 40
0.0
 40
1.0
 40
1.0
 40
1.0
 40
2.0
 40
2.0
 40
2.0
 40
3.0
 40
3.0
 40
3.0
 40
3.0
 10
116.6808971930519
 20
-129.7195638564593
 30
0.0
 10
116.6808971930519
 20
-129.7195638564593
 30
0.0
 10
116.4514475846316
 20
-129.8556302453138
 30
0.0
 10
116.4494014735727
 20
-129.9806899675045
 30
0.0
 10
116.4494014735727
 20
-129.9806899675045
 30
0.0
 10
116.463159806555
 20
-130.1722483007905
 30
0.0
 10
116.6767667455499
 20
-130.156408578572
 30
0.0
 10
116.6767667455499
 20
-130.156408578572
 30
0.0
 10
116.3322439765616
 20
-130.085429689701
 30
0.0
 10
116.6808971930519
 20
-129.7195638564593
 30
0.0
  0
SPLINE
  5
140
330
130
100
AcDbEntity
  8
_U+30EC_U+30A4_U+30E4_U+30FC 1
 62
   179
420
  2234388
370
     9
100
AcDbSpline
210
0.0
220
0.0
230
1.0
 70
    11
 71
     3
 72
    17
 73
    13
 74
     0
 42
0.0000000001
 43
0.0000000001
 12
1.0
 22
0.0
 32
0.0
 13
1.0
 23
0.0
 33
0.0
 40
0.0
 40
0.0
 40
0.0
 40
0.0
 40
1.0
 40
1.0
 40
1.0
 40
2.0
 40
2.0
 40
2.0
 40
3.0
 40
3.0
 40
3.0
 40
4.0
 40
4.0
 40
4.0
 40
4.0
 10
118.626005029154
 20
-127.7827433013875
 30
0.0
 10
118.656308639492
 20
-127.9070974680231
 30
0.0
 10
118.8574978010259
 20
-127.9418813569034
 30
0.0
 10
119.0786894620495
 20
-127.8619771902568
 30
0.0
 10
119.2991755675356
 20
-127.7813321902768
 30
0.0
 10
119.4542213969134
 20
-127.6159852458739
 30
0.0
 10
119.4252583420967
 20
-127.4916310792383
 30
0.0
 10
119.3956250095194
 20
-127.3679471903801
 30
0.0
 10
119.1930600146873
 20
-127.3324577459446
 30
0.0
 10
118.9725739092012
 20
-127.413773023702
 30
0.0
 10
118.7520878037152
 20
-127.4933244125711
 30
0.0
 10
118.5970772521143
 20
-127.6590594125296
 30
0.0
 10
118.626005029154
 20
-127.7827433013875
 30
0.0
  0
SPLINE
  5
141
330
130
100
AcDbEntity
  8
_U+30EC_U+30A4_U+30E4_U+30FC 1
 62
   179
420
  2234388
370
     9
100
AcDbSpline
210
0.0
220
0.0
230
1.0
 70
    11
 71
     3
 72
    14
 73
    10
 74
     0
 42
0.0000000001
 43
0.0000000001
 12
1.0
 22
0.0
 32
0.0
 13
1.0
 23
0.0
 33
0.0
 40
0.0
 40
0.0
 40
0.0
 40
0.0
 40
1.0
 40
1.0
 40
1.0
 40
2.0
 40
2.0
 40
2.0
 40
3.0
 40
3.0
 40
3.0
 40
3.0
 10
118.8464911346401
 20
-127.469229690355
 30
0.0
 10
118.8464911346401
 20
-127.469229690355
 30
0.0
 10
118.6156686405289
 20
-127.6052960792098
 30
0.0
 10
118.6149630849913
 20
-127.7303558014009
 30
0.0
 10
118.6149630849913
 20
-127.7303558014009
 30
0.0
 10
118.6287566957505
 20
-127.9219141346862
 30
0.0
 10
118.8416610814006
 20
-127.9067446902457
 30
0.0
 10
118.8416610814006
 20
-127.9067446902457
 30
0.0
 10
118.4971705879964
 20
-127.8354483013744
 30
0.0
 10
118.8464911346401
 20
-127.469229690355
 30
0.0
  0
SPLINE
  5
142
330
130
100
AcDbEntity
  8
_U+30EC_U+30A4_U+30E4_U+30FC 1
 62
   179
420
  2234388
370
     9
100
AcDbSpline
210
0.0
220
0.0
230
1.0
 70
    11
 71
     3
 72
    17
 73
    13
 74
     0
 42
0.0000000001
 43
0.0000000001
 12
1.0
 22
0.0
 32
0.0
 13
1.0
 23
0.0
 33
0.0
 40
0.0
 40
0.0
 40
0.0
 40
0.0
 40
1.0
 40
1.0
 40
1.0
 40
2.0
 40
2.0
 40
2.0
 40
3.0
 40
3.0
 40
3.0
 40
4.0
 40
4.0
 40
4.0
 40
4.0
 10
119.9998980496587
 20
-126.9743177460342
 30
0.0
 10
120.0288611044753
 20
-127.098178023781
 30
0.0
 10
120.2320963770681
 20
-127.1333146904391
 30
0.0
 10
120.4525824825542
 20
-127.0530577460147
 30
0.0
 10
120.6730685880402
 20
-126.9732946904788
 30
0.0
 10
120.828114417418
 20
-126.8072421905204
 30
0.0
 10
120.7984810848407
 20
-126.6832408016625
 30
0.0
 10
120.7702235855616
 20
-126.5598744128046
 30
0.0
 10
120.5662827574312
 20
-126.5237146905914
 30
0.0
 10
120.3457966519452
 20
-126.6050299683487
 30
0.0
 10
120.1253105464591
 20
-126.6852869127731
 30
0.0
 10
119.9702647170813
 20
-126.8506691349539
 30
0.0
 10
119.9998980496587
 20
-126.9743177460342
 30
0.0
  0
SPLINE
  5
143
330
130
100
AcDbEntity
  8
_U+30EC_U+30A4_U+30E4_U+30FC 1
 62
   179
420
  2234388
370
     9
100
AcDbSpline
210
0.0
220
0.0
230
1.0
 70
    11
 71
     3
 72
    14
 73
    10
 74
     0
 42
0.0000000001
 43
0.0000000001
 12
1.0
 22
0.0
 32
0.0
 13
1.0
 23
0.0
 33
0.0
 40
0.0
 40
0.0
 40
0.0
 40
0.0
 40
1.0
 40
1.0
 40
1.0
 40
2.0
 40
2.0
 40
2.0
 40
3.0
 40
3.0
 40
3.0
 40
3.0
 10
120.219713877384
 20
-126.6604866350014
 30
0.0
 10
120.219713877384
 20
-126.6604866350014
 30
0.0
 10
119.9888944144473
 20
-126.7972585794118
 30
0.0
 10
119.9875155499746
 20
-126.9219655238251
 30
0.0
 10
119.9875155499746
 20
-126.9219655238251
 30
0.0
 10
120.0019794384944
 20
-127.1133474682215
 30
0.0
 10
120.2155863774893
 20
-127.0978252460032
 30
0.0
 10
120.2155863774893
 20
-127.0978252460032
 30
0.0
 10
119.8710666366987
 20
-127.0268816349101
 30
0.0
 10
120.219713877384
 20
-126.6604866350014
 30
0.0
  0
SPLINE
  5
144
330
130
100
AcDbEntity
  8
_U+30EC_U+30A4_U+30E4_U+30FC 1
 62
   179
420
  2234388
370
     9
100
AcDbSpline
210
0.0
220
0.0
230
1.0
 70
    11
 71
     3
 72
    17
 73
    13
 74
     0
 42
0.0000000001
 43
0.0000000001
 12
1.0
 22
0.0
 32
0.0
 13
1.0
 23
0.0
 33
0.0
 40
0.0
 40
0.0
 40
0.0
 40
0.0
 40
1.0
 40
1.0
 40
1.0
 40
2.0
 40
2.0
 40
2.0
 40
3.0
 40
3.0
 40
3.0
 40
4.0
 40
4.0
 40
4.0
 40
4.0
 10
118.5233466984397
 20
-128.7063508011568
 30
0.0
 10
118.5522744754795
 20
-128.8300346900147
 30
0.0
 10
118.7548394703116
 20
-128.8655241344502
 30
0.0
 10
118.9753255757977
 20
-128.785231912248
 30
0.0
 10
119.1951444146457
 20
-128.7046221900462
 30
0.0
 10
119.3508575106615
 20
-128.539275245643
 30
0.0
 10
119.3212241780842
 20
-128.4152385790073
 30
0.0
 10
119.2929666788051
 20
-128.2919074679269
 30
0.0
 10
119.090401683973
 20
-128.2560652457136
 30
0.0
 10
118.8692100229494
 20
-128.3367102456936
 30
0.0
 10
118.6480536397026
 20
-128.4173199678957
 30
0.0
 10
118.4937133658624
 20
-128.5826669122989
 30
0.0
 10
118.5233466984397
 20
-128.7063508011568
 30
0.0
  0
SPLINE
  5
145
330
130
100
AcDbEntity
  8
_U+30EC_U+30A4_U+30E4_U+30FC 1
 62
   179
420
  2234388
370
     9
100
AcDbSpline
210
0.0
220
0.0
230
1.0
 70
    11
 71
     3
 72
    14
 73
    10
 74
     0
 42
0.0000000001
 43
0.0000000001
 12
1.0
 22
0.0
 32
0.0
 13
1.0
 23
0.0
 33
0.0
 40
0.0
 40
0.0
 40
0.0
 40
0.0
 40
1.0
 40
1.0
 40
1.0
 40
2.0
 40
2.0
 40
2.0
 40
3.0
 40
3.0
 40
3.0
 40
3.0
 10
118.7431272483882
 20
-128.3931899679017
 30
0.0
 10
118.7431272483882
 20
-128.3931899679017
 30
0.0
 10
118.5130103098145
 20
-128.5289388567566
 30
0.0
 10
118.5109289209788
 20
-128.6536458011699
 30
0.0
 10
118.5109289209788
 20
-128.6536458011699
 30
0.0
 10
118.5253928094986
 20
-128.8452041344553
 30
0.0
 10
118.7376239151953
 20
-128.8300346900147
 30
0.0
 10
118.7376239151953
 20
-128.8300346900147
 30
0.0
 10
118.3944769795053
 20
-128.7587383011435
 30
0.0
 10
118.7431272483882
 20
-128.3931899679017
 30
0.0
  0
SPLINE
  5
146
330
130
100
AcDbEntity
  8
_U+30EC_U+30A4_U+30E4_U+30FC 1
 62
   179
420
  2234388
370
     9
100
AcDbSpline
210
0.0
220
0.0
230
1.0
 70
    11
 71
     3
 72
    17
 73
    13
 74
     0
 42
0.0000000001
 43
0.0000000001
 12
1.0
 22
0.0
 32
0.0
 13
1.0
 23
0.0
 33
0.0
 40
0.0
 40
0.0
 40
0.0
 40
0.0
 40
1.0
 40
1.0
 40
1.0
 40
2.0
 40
2.0
 40
2.0
 40
3.0
 40
3.0
 40
3.0
 40
4.0
 40
4.0
 40
4.0
 40
4.0
 10
117.0102475703754
 20
-129.0346810788522
 30
0.0
 10
117.0391753474152
 20
-129.1586824677103
 30
0.0
 10
117.2417756200242
 20
-129.1938544121462
 30
0.0
 10
117.4622617255103
 20
-129.1139149677217
 30
0.0
 10
117.6827478309963
 20
-129.0333052455193
 30
0.0
 10
117.8377583825972
 20
-128.8679230233388
 30
0.0
 10
117.8081250500199
 20
-128.7439216344807
 30
0.0
 10
117.7799028285177
 20
-128.6198849678451
 30
0.0
 10
117.576632278148
 20
-128.5843955234096
 30
0.0
 10
117.3554406171244
 20
-128.6653580233892
 30
0.0
 10
117.1349545116383
 20
-128.7456149678135
 30
0.0
 10
116.9806142377981
 20
-128.9109971899943
 30
0.0
 10
117.0102475703754
 20
-129.0346810788522
 30
0.0
  0
SPLINE
  5
147
330
130
100
AcDbEntity
  8
_U+30EC_U+30A4_U+30E4_U+30FC 1
 62
   179
420
  2234388
370
     9
100
AcDbSpline
210
0.0
220
0.0
230
1.0
 70
    11
 71
     3
 72
    14
 73
    10
 74
     0
 42
0.0000000001
 43
0.0000000001
 12
1.0
 22
0.0
 32
0.0
 13
1.0
 23
0.0
 33
0.0
 40
0.0
 40
0.0
 40
0.0
 40
0.0
 40
1.0
 40
1.0
 40
1.0
 40
2.0
 40
2.0
 40
2.0
 40
3.0
 40
3.0
 40
3.0
 40
3.0
 10
117.2300633981008
 20
-128.7211674678196
 30
0.0
 10
117.2300633981008
 20
-128.7211674678196
 30
0.0
 10
116.9992409039896
 20
-128.8572338566747
 30
0.0
 10
116.9978650706913
 20
-128.9822935788655
 30
0.0
 10
116.9978650706913
 20
-128.9822935788655
 30
0.0
 10
117.0123289592112
 20
-129.1738519121508
 30
0.0
 10
117.224527748472
 20
-129.1580121899329
 30
0.0
 10
117.224527748472
 20
-129.1580121899329
 30
0.0
 10
116.8807075736803
 20
-129.0870333010613
 30
0.0
 10
117.2300633981008
 20
-128.7211674678196
 30
0.0
  0
SPLINE
  5
148
330
130
100
AcDbEntity
  8
_U+30EC_U+30A4_U+30E4_U+30FC 1
 62
   179
420
  2234388
370
     9
100
AcDbSpline
210
0.0
220
0.0
230
1.0
 70
    11
 71
     3
 72
    17
 73
    13
 74
     0
 42
0.0000000001
 43
0.0000000001
 12
1.0
 22
0.0
 32
0.0
 13
1.0
 23
0.0
 33
0.0
 40
0.0
 40
0.0
 40
0.0
 40
0.0
 40
1.0
 40
1.0
 40
1.0
 40
2.0
 40
2.0
 40
2.0
 40
3.0
 40
3.0
 40
3.0
 40
4.0
 40
4.0
 40
4.0
 40
4.0
 10
118.1271419863255
 20
-133.1343469111607
 30
0.0
 10
118.1581511522011
 20
-133.353104411106
 30
0.0
 10
117.9114889362718
 20
-133.567381633275
 30
0.0
 10
117.5773055261615
 20
-133.6132074665968
 30
0.0
 10
117.2451975643814
 20
-133.6590332999187
 30
0.0
 10
116.9489347941619
 20
-133.5198271888425
 30
0.0
 10
116.9186311838239
 20
-133.3010696888971
 30
0.0
 10
116.8876249707778
 20
-133.0833352445069
 30
0.0
 10
117.1349545116383
 20
-132.8680349667829
 30
0.0
 10
117.4691408920014
 20
-132.8225619112388
 30
0.0
 10
117.8019514390663
 20
-132.7760305223614
 30
0.0
 10
118.0968383759875
 20
-132.9159069112156
 30
0.0
 10
118.1271419863255
 20
-133.1343469111607
 30
0.0
  0
SPLINE
  5
149
330
130
100
AcDbEntity
  8
_U+30EC_U+30A4_U+30E4_U+30FC 1
 62
   179
420
  2234388
370
     9
100
AcDbSpline
210
0.0
220
0.0
230
1.0
 70
    11
 71
     3
 72
    14
 73
    10
 74
     0
 42
0.0000000001
 43
0.0000000001
 12
1.0
 22
0.0
 32
0.0
 13
1.0
 23
0.0
 33
0.0
 40
0.0
 40
0.0
 40
0.0
 40
0.0
 40
1.0
 40
1.0
 40
1.0
 40
2.0
 40
2.0
 40
2.0
 40
3.0
 40
3.0
 40
3.0
 40
3.0
 10
117.6648267203424
 20
-132.8118727445747
 30
0.0
 10
117.6648267203424
 20
-132.8118727445747
 30
0.0
 10
118.0431103218027
 20
-132.8459863556773
 30
0.0
 10
118.1133836533432
 20
-133.0420249667396
 30
0.0
 10
118.1133836533432
 20
-133.0420249667396
 30
0.0
 10
118.2015780955376
 20
-133.3562088555496
 30
0.0
 10
117.9135703251075
 20
-133.4981313555146
 30
0.0
 10
117.9135703251075
 20
-133.4981313555146
 30
0.0
 10
118.3262850368005
 20
-133.1154027444986
 30
0.0
 10
117.6648267203424
 20
-132.8118727445747
 30
0.0
  0
SPLINE
  5
14A
330
130
100
AcDbEntity
  8
_U+30EC_U+30A4_U+30E4_U+30FC 1
 62
   179
420
  2234388
370
     9
100
AcDbSpline
210
0.0
220
0.0
230
1.0
 70
    11
 71
     3
 72
    17
 73
    13
 74
     0
 42
0.0000000001
 43
0.0000000001
 12
1.0
 22
0.0
 32
0.0
 13
1.0
 23
0.0
 33
0.0
 40
0.0
 40
0.0
 40
0.0
 40
0.0
 40
1.0
 40
1.0
 40
1.0
 40
2.0
 40
2.0
 40
2.0
 40
3.0
 40
3.0
 40
3.0
 40
4.0
 40
4.0
 40
4.0
 40
4.0
 10
121.0272221901161
 20
-134.8937555218322
 30
0.0
 10
121.0589369115292
 20
-135.1125130217775
 30
0.0
 10
120.8122777475744
 20
-135.3271430217236
 30
0.0
 10
120.4780883152368
 20
-135.3729688550454
 30
0.0
 10
120.1446074904113
 20
-135.4184419105902
 30
0.0
 10
119.8496852757131
 20
-135.2795885772911
 30
0.0
 10
119.8193816653751
 20
-135.060478299568
 30
0.0
 10
119.7883724994996
 20
-134.8424263551782
 30
0.0
 10
120.0357402709665
 20
-134.6281138552317
 30
0.0
 10
120.369221095792
 20
-134.5826407996877
 30
0.0
 10
120.7027019206175
 20
-134.5351216330327
 30
0.0
 10
120.9976241353157
 20
-134.6756682996642
 30
0.0
 10
121.0272221901161
 20
-134.8937555218322
 30
0.0
  0
SPLINE
  5
14B
330
130
100
AcDbEntity
  8
_U+30EC_U+30A4_U+30E4_U+30FC 1
 62
   179
420
  2234388
370
     9
100
AcDbSpline
210
0.0
220
0.0
230
1.0
 70
    11
 71
     3
 72
    14
 73
    10
 74
     0
 42
0.0000000001
 43
0.0000000001
 12
1.0
 22
0.0
 32
0.0
 13
1.0
 23
0.0
 33
0.0
 40
0.0
 40
0.0
 40
0.0
 40
0.0
 40
1.0
 40
1.0
 40
1.0
 40
2.0
 40
2.0
 40
2.0
 40
3.0
 40
3.0
 40
3.0
 40
3.0
 10
120.5662827574312
 20
-134.5712813552462
 30
0.0
 10
120.5662827574312
 20
-134.5712813552462
 30
0.0
 10
120.9431905255933
 20
-134.6057477441265
 30
0.0
 10
121.0141341348944
 20
-134.8010807996334
 30
0.0
 10
121.0141341348944
 20
-134.8010807996334
 30
0.0
 10
121.1016582993282
 20
-135.1152646884433
 30
0.0
 10
120.8143208066588
 20
-135.2578927439633
 30
0.0
 10
120.8143208066588
 20
-135.2578927439633
 30
0.0
 10
121.2263652405911
 20
-134.8748113551701
 30
0.0
 10
120.5662827574312
 20
-134.5712813552462
 30
0.0
  0
SPLINE
  5
14C
330
130
100
AcDbEntity
  8
_U+30EC_U+30A4_U+30E4_U+30FC 1
 62
   179
420
  2234388
370
     9
100
AcDbSpline
210
0.0
220
0.0
230
1.0
 70
    11
 71
     3
 72
    17
 73
    13
 74
     0
 42
0.0000000001
 43
0.0000000001
 12
1.0
 22
0.0
 32
0.0
 13
1.0
 23
0.0
 33
0.0
 40
0.0
 40
0.0
 40
0.0
 40
0.0
 40
1.0
 40
1.0
 40
1.0
 40
2.0
 40
2.0
 40
2.0
 40
3.0
 40
3.0
 40
3.0
 40
4.0
 40
4.0
 40
4.0
 40
4.0
 10
120.7419660862825
 20
-133.0392380222957
 30
0.0
 10
120.7723049743974
 20
-133.2583483000188
 30
0.0
 10
120.5263130362287
 20
-133.4723080221875
 30
0.0
 10
120.1928322114032
 20
-133.5181338555093
 30
0.0
 10
119.8593513865776
 20
-133.5639244110537
 30
0.0
 10
119.5637588941188
 20
-133.424753577755
 30
0.0
 10
119.5341255615415
 20
-133.2059960778097
 30
0.0
 10
119.5038249701241
 20
-132.9879088556417
 30
0.0
 10
119.7504841671329
 20
-132.7732788556957
 30
0.0
 10
120.0839649919584
 20
-132.7278058001516
 30
0.0
 10
120.4181513723215
 20
-132.6809569112739
 30
0.0
 10
120.712368031482
 20
-132.8211860779059
 30
0.0
 10
120.7419660862825
 20
-133.0392380222957
 30
0.0
  0
SPLINE
  5
14D
330
130
100
AcDbEntity
  8
_U+30EC_U+30A4_U+30E4_U+30FC 1
 62
   179
420
  2234388
370
     9
100
AcDbSpline
210
0.0
220
0.0
230
1.0
 70
    11
 71
     3
 72
    14
 73
    10
 74
     0
 42
0.0000000001
 43
0.0000000001
 12
1.0
 22
0.0
 32
0.0
 13
1.0
 23
0.0
 33
0.0
 40
0.0
 40
0.0
 40
0.0
 40
0.0
 40
1.0
 40
1.0
 40
1.0
 40
2.0
 40
2.0
 40
2.0
 40
3.0
 40
3.0
 40
3.0
 40
3.0
 10
120.28032109806
 20
-132.7167991334872
 30
0.0
 10
120.28032109806
 20
-132.7167991334872
 30
0.0
 10
120.6579344217596
 20
-132.7505599668127
 30
0.0
 10
120.7295835865984
 20
-132.9465633000969
 30
0.0
 10
120.7295835865984
 20
-132.9465633000969
 30
0.0
 10
120.8164021954946
 20
-133.2610999666846
 30
0.0
 10
120.5297702583627
 20
-133.4030577444272
 30
0.0
 10
120.5297702583627
 20
-133.4030577444272
 30
0.0
 10
120.9411091367575
 20
-133.0202938556336
 30
0.0
 10
120.28032109806
 20
-132.7167991334872
 30
0.0
  0
SPLINE
  5
14E
330
130
100
AcDbEntity
  8
_U+30EC_U+30A4_U+30E4_U+30FC 1
 62
   179
420
  2234388
370
     9
100
AcDbSpline
210
0.0
220
0.0
230
1.0
 70
    11
 71
     3
 72
    17
 73
    13
 74
     0
 42
0.0000000001
 43
0.0000000001
 12
1.0
 22
0.0
 32
0.0
 13
1.0
 23
0.0
 33
0.0
 40
0.0
 40
0.0
 40
0.0
 40
0.0
 40
1.0
 40
1.0
 40
1.0
 40
2.0
 40
2.0
 40
2.0
 40
3.0
 40
3.0
 40
3.0
 40
4.0
 40
4.0
 40
4.0
 40
4.0
 10
120.0529558260828
 20
-131.2085330227536
 30
0.0
 10
120.0832947141977
 20
-131.427290522699
 30
0.0
 10
119.837302776029
 20
-131.6412502448677
 30
0.0
 10
119.5038249701241
 20
-131.6873935781891
 30
0.0
 10
119.170341126378
 20
-131.733219411511
 30
0.0
 10
118.8754189116798
 20
-131.5936958004352
 30
0.0
 10
118.8451153013418
 20
-131.3752558004894
 30
0.0
 10
118.8141061354663
 20
-131.1568510783219
 30
0.0
 10
119.0607683513956
 20
-130.9425738561536
 30
0.0
 10
119.3942491762212
 20
-130.8967480228311
 30
0.0
 10
119.7284355565842
 20
-130.8498991339541
 30
0.0
 10
120.0233224935055
 20
-130.9904458005857
 30
0.0
 10
120.0529558260828
 20
-131.2085330227536
 30
0.0
  0
SPLINE
  5
14F
330
130
100
AcDbEntity
  8
_U+30EC_U+30A4_U+30E4_U+30FC 1
 62
   179
420
  2234388
370
     9
100
AcDbSpline
210
0.0
220
0.0
230
1.0
 70
    11
 71
     3
 72
    14
 73
    10
 74
     0
 42
0.0000000001
 43
0.0000000001
 12
1.0
 22
0.0
 32
0.0
 13
1.0
 23
0.0
 33
0.0
 40
0.0
 40
0.0
 40
0.0
 40
0.0
 40
1.0
 40
1.0
 40
1.0
 40
2.0
 40
2.0
 40
2.0
 40
3.0
 40
3.0
 40
3.0
 40
3.0
 10
119.591313858991
 20
-130.8853885783896
 30
0.0
 10
119.591313858991
 20
-130.8853885783896
 30
0.0
 10
119.9688888837831
 20
-130.9198196894924
 30
0.0
 10
120.0398677708612
 20
-131.1155055227764
 30
0.0
 10
120.0398677708612
 20
-131.1155055227764
 30
0.0
 10
120.1266863797574
 20
-131.429689411587
 30
0.0
 10
119.8400544426255
 20
-131.5719999671067
 30
0.0
 10
119.8400544426255
 20
-131.5719999671067
 30
0.0
 10
120.2513933210203
 20
-131.1895888560916
 30
0.0
 10
119.591313858991
 20
-130.8853885783896
 30
0.0
  0
SPLINE
  5
150
330
130
100
AcDbEntity
  8
_U+30EC_U+30A4_U+30E4_U+30FC 1
 62
   179
420
  2234388
370
     9
100
AcDbSpline
210
0.0
220
0.0
230
1.0
 70
    11
 71
     3
 72
    17
 73
    13
 74
     0
 42
0.0000000001
 43
0.0000000001
 12
1.0
 22
0.0
 32
0.0
 13
1.0
 23
0.0
 33
0.0
 40
0.0
 40
0.0
 40
0.0
 40
0.0
 40
1.0
 40
1.0
 40
1.0
 40
2.0
 40
2.0
 40
2.0
 40
3.0
 40
3.0
 40
3.0
 40
4.0
 40
4.0
 40
4.0
 40
4.0
 10
122.9537415854109
 20
-132.9675888556467
 30
0.0
 10
122.9840451957489
 20
-133.1866991333698
 30
0.0
 10
122.7387588131178
 20
-133.4009763555388
 30
0.0
 10
122.4045724327547
 20
-133.4468021888606
 30
0.0
 10
122.0704213301685
 20
-133.4919224666269
 30
0.0
 10
121.7754991154704
 20
-133.353104411106
 30
0.0
 10
121.7458657828931
 20
-133.1346644111609
 30
0.0
 10
121.7155621725551
 20
-132.9166124667711
 30
0.0
 10
121.9615541107238
 20
-132.7019824668244
 30
0.0
 10
122.2943293800117
 20
-132.6561566335026
 30
0.0
 10
122.6292213159124
 20
-132.609978022403
 30
0.0
 10
122.9241082528336
 20
-132.7498544112572
 30
0.0
 10
122.9537415854109
 20
-132.9675888556467
 30
0.0
  0
SPLINE
  5
151
330
130
100
AcDbEntity
  8
_U+30EC_U+30A4_U+30E4_U+30FC 1
 62
   179
420
  2234388
370
     9
100
AcDbSpline
210
0.0
220
0.0
230
1.0
 70
    11
 71
     3
 72
    14
 73
    10
 74
     0
 42
0.0000000001
 43
0.0000000001
 12
1.0
 22
0.0
 32
0.0
 13
1.0
 23
0.0
 33
0.0
 40
0.0
 40
0.0
 40
0.0
 40
0.0
 40
1.0
 40
1.0
 40
1.0
 40
2.0
 40
2.0
 40
2.0
 40
3.0
 40
3.0
 40
3.0
 40
3.0
 10
122.4913910416509
 20
-132.6454674668385
 30
0.0
 10
122.4913910416509
 20
-132.6454674668385
 30
0.0
 10
122.8696777470602
 20
-132.6795810779411
 30
0.0
 10
122.9406535301893
 20
-132.8752669112257
 30
0.0
 10
122.9406535301893
 20
-132.8752669112257
 30
0.0
 10
123.0274721390855
 20
-133.1894508000362
 30
0.0
 10
122.7408402019536
 20
-133.3314085777782
 30
0.0
 10
122.7408402019536
 20
-133.3314085777782
 30
0.0
 10
123.1521790803484
 20
-132.9486446889853
 30
0.0
 10
122.4913910416509
 20
-132.6454674668385
 30
0.0
  0
SPLINE
  5
152
330
130
100
AcDbEntity
  8
_U+30EC_U+30A4_U+30E4_U+30FC 1
 62
   179
420
  2234388
370
     9
100
AcDbSpline
210
0.0
220
0.0
230
1.0
 70
    11
 71
     3
 72
    17
 73
    13
 74
     0
 42
0.0000000001
 43
0.0000000001
 12
1.0
 22
0.0
 32
0.0
 13
1.0
 23
0.0
 33
0.0
 40
0.0
 40
0.0
 40
0.0
 40
0.0
 40
1.0
 40
1.0
 40
1.0
 40
2.0
 40
2.0
 40
2.0
 40
3.0
 40
3.0
 40
3.0
 40
4.0
 40
4.0
 40
4.0
 40
4.0
 10
122.6677799260398
 20
-131.1127538561107
 30
0.0
 10
122.6987890919153
 20
-131.3318641338338
 30
0.0
 10
122.4535027092842
 20
-131.546141356002
 30
0.0
 10
122.1186460511605
 20
-131.5926727448794
 30
0.0
 10
121.7858355040956
 20
-131.6377930226464
 30
0.0
 10
121.4902430116368
 20
-131.4986221893477
 30
0.0
 10
121.4599394012988
 20
-131.280182189402
 30
0.0
 10
121.4289333029763
 20
-131.0617774672344
 30
0.0
 10
121.6755924513526
 20
-130.8475002450661
 30
0.0
 10
122.0097788317157
 20
-130.8016744117443
 30
0.0
 10
122.3432596565412
 20
-130.7551430228669
 30
0.0
 10
122.6381465934624
 20
-130.8950194117204
 30
0.0
 10
122.6677799260398
 20
-131.1127538561107
 30
0.0
  0
SPLINE
  5
153
330
130
100
AcDbEntity
  8
_U+30EC_U+30A4_U+30E4_U+30FC 1
 62
   179
420
  2234388
370
     9
100
AcDbSpline
210
0.0
220
0.0
230
1.0
 70
    11
 71
     3
 72
    14
 73
    10
 74
     0
 42
0.0000000001
 43
0.0000000001
 12
1.0
 22
0.0
 32
0.0
 13
1.0
 23
0.0
 33
0.0
 40
0.0
 40
0.0
 40
0.0
 40
0.0
 40
1.0
 40
1.0
 40
1.0
 40
2.0
 40
2.0
 40
2.0
 40
3.0
 40
3.0
 40
3.0
 40
3.0
 10
122.2061349378173
 20
-130.7906324673024
 30
0.0
 10
122.2061349378173
 20
-130.7906324673024
 30
0.0
 10
122.58371298374
 20
-130.824746078405
 30
0.0
 10
122.6546918708181
 20
-131.0204319116896
 30
0.0
 10
122.6546918708181
 20
-131.0204319116896
 30
0.0
 10
122.7422160352519
 20
-131.3349685782773
 30
0.0
 10
122.4548785425824
 20
-131.4772438560195
 30
0.0
 10
122.4548785425824
 20
-131.4772438560195
 30
0.0
 10
122.8669229765148
 20
-131.0941624672263
 30
0.0
 10
122.2061349378173
 20
-130.7906324673024
 30
0.0
  0
SPLINE
  5
154
330
130
100
AcDbEntity
  8
_U+30EC_U+30A4_U+30E4_U+30FC 1
 62
   179
420
  2234388
370
     9
100
AcDbSpline
210
0.0
220
0.0
230
1.0
 70
    11
 71
     3
 72
    17
 73
    13
 74
     0
 42
0.0000000001
 43
0.0000000001
 12
1.0
 22
0.0
 32
0.0
 13
1.0
 23
0.0
 33
0.0
 40
0.0
 40
0.0
 40
0.0
 40
0.0
 40
1.0
 40
1.0
 40
1.0
 40
2.0
 40
2.0
 40
2.0
 40
3.0
 40
3.0
 40
3.0
 40
4.0
 40
4.0
 40
4.0
 40
4.0
 10
122.1221032732945
 20
-129.140091078826
 30
0.0
 10
122.1524068836325
 20
-129.3584958009936
 30
0.0
 10
121.9064149454638
 20
-129.5731258009403
 30
0.0
 10
121.5729341206383
 20
-129.6189516342621
 30
0.0
 10
121.2394532958128
 20
-129.6644246898062
 30
0.0
 10
120.9431905255933
 20
-129.5252538565075
 30
0.0
 10
120.9135571930159
 20
-129.30684913434
 30
0.0
 10
120.8825480271404
 20
-129.0884091343949
 30
0.0
 10
121.1299157986073
 20
-128.8741319122259
 30
0.0
 10
121.4626910678952
 20
-128.8283060789041
 30
0.0
 10
121.7961749695509
 20
-128.7814571900271
 30
0.0
 10
122.0917643851796
 20
-128.9216863566584
 30
0.0
 10
122.1221032732945
 20
-129.140091078826
 30
0.0
  0
SPLINE
  5
155
330
130
100
AcDbEntity
  8
_U+30EC_U+30A4_U+30E4_U+30FC 1
 62
   179
420
  2234388
370
     9
100
AcDbSpline
210
0.0
220
0.0
230
1.0
 70
    11
 71
     3
 72
    14
 73
    10
 74
     0
 42
0.0000000001
 43
0.0000000001
 12
1.0
 22
0.0
 32
0.0
 13
1.0
 23
0.0
 33
0.0
 40
0.0
 40
0.0
 40
0.0
 40
0.0
 40
1.0
 40
1.0
 40
1.0
 40
2.0
 40
2.0
 40
2.0
 40
3.0
 40
3.0
 40
3.0
 40
3.0
 10
121.660458285072
 20
-128.8176169122399
 30
0.0
 10
121.660458285072
 20
-128.8176169122399
 30
0.0
 10
122.0373307754572
 20
-128.8513777455648
 30
0.0
 10
122.1083096625353
 20
-129.0470635788494
 30
0.0
 10
122.1083096625353
 20
-129.0470635788494
 30
0.0
 10
122.1957985491921
 20
-129.3612827454375
 30
0.0
 10
121.9084963342996
 20
-129.5032052454019
 30
0.0
 10
121.9084963342996
 20
-129.5032052454019
 30
0.0
 10
122.3198352126944
 20
-129.1207941343862
 30
0.0
 10
121.660458285072
 20
-128.8176169122399
 30
0.0
  0
SPLINE
  5
156
330
130
100
AcDbEntity
  8
_U+30EC_U+30A4_U+30E4_U+30FC 1
 62
   179
420
  2234388
370
     9
100
AcDbSpline
210
0.0
220
0.0
230
1.0
 70
    11
 71
     3
 72
    17
 73
    13
 74
     0
 42
0.0000000001
 43
0.0000000001
 12
1.0
 22
0.0
 32
0.0
 13
1.0
 23
0.0
 33
0.0
 40
0.0
 40
0.0
 40
0.0
 40
0.0
 40
1.0
 40
1.0
 40
1.0
 40
2.0
 40
2.0
 40
2.0
 40
3.0
 40
3.0
 40
3.0
 40
4.0
 40
4.0
 40
4.0
 40
4.0
 10
125.022183477085
 20
-130.8991469117197
 30
0.0
 10
125.0531573651837
 20
-131.1182571894428
 30
0.0
 10
124.8064951492544
 20
-131.3325696893893
 30
0.0
 10
124.4730143244288
 20
-131.378360244933
 30
0.0
 10
124.1395334996033
 20
-131.4241860782548
 30
0.0
 10
123.8446465626821
 20
-131.2850152449568
 30
0.0
 10
123.8143076745672
 20
-131.0659049672337
 30
0.0
 10
123.7832985086916
 20
-130.8481705228435
 30
0.0
 10
124.030669413437
 20
-130.6331877451197
 30
0.0
 10
124.3634768272234
 20
-130.5877146895756
 30
0.0
 10
124.6976279298096
 20
-130.540865800698
 30
0.0
 10
124.9918445889702
 20
-130.6810949673299
 30
0.0
 10
125.022183477085
 20
-130.8991469117197
 30
0.0
  0
SPLINE
  5
157
330
130
100
AcDbEntity
  8
_U+30EC_U+30A4_U+30E4_U+30FC 1
 62
   179
420
  2234388
370
     9
100
AcDbSpline
210
0.0
220
0.0
230
1.0
 70
    11
 71
     3
 72
    14
 73
    10
 74
     0
 42
0.0000000001
 43
0.0000000001
 12
1.0
 22
0.0
 32
0.0
 13
1.0
 23
0.0
 33
0.0
 40
0.0
 40
0.0
 40
0.0
 40
0.0
 40
1.0
 40
1.0
 40
1.0
 40
2.0
 40
2.0
 40
2.0
 40
3.0
 40
3.0
 40
3.0
 40
3.0
 10
124.5612087666233
 20
-130.5767080229112
 30
0.0
 10
124.5612087666233
 20
-130.5767080229112
 30
0.0
 10
124.9381165347853
 20
-130.6111391340141
 30
0.0
 10
125.0090601440865
 20
-130.8071777450758
 30
0.0
 10
125.0090601440865
 20
-130.8071777450758
 30
0.0
 10
125.0965843085202
 20
-131.1210088561086
 30
0.0
 10
124.8099555243529
 20
-131.2629666338512
 30
0.0
 10
124.8099555243529
 20
-131.2629666338512
 30
0.0
 10
125.2212944131393
 20
-130.8805555228354
 30
0.0
 10
124.5612087666233
 20
-130.5767080229112
 30
0.0
  0
SPLINE
  5
158
330
130
100
AcDbEntity
  8
_U+30EC_U+30A4_U+30E4_U+30FC 1
 62
   179
420
  2234388
370
     9
100
AcDbSpline
210
0.0
220
0.0
230
1.0
 70
    11
 71
     3
 72
    17
 73
    13
 74
     0
 42
0.0000000001
 43
0.0000000001
 12
1.0
 22
0.0
 32
0.0
 13
1.0
 23
0.0
 33
0.0
 40
0.0
 40
0.0
 40
0.0
 40
0.0
 40
1.0
 40
1.0
 40
1.0
 40
2.0
 40
2.0
 40
2.0
 40
3.0
 40
3.0
 40
3.0
 40
4.0
 40
4.0
 40
4.0
 40
4.0
 10
124.736930524371
 20
-129.0450174677385
 30
0.0
 10
124.7672309835894
 20
-129.2634221899061
 30
0.0
 10
124.5219446009583
 20
-129.4780521898528
 30
0.0
 10
124.1870879428346
 20
-129.5238780231746
 30
0.0
 10
123.8549860801471
 20
-129.5693510787187
 30
0.0
 10
123.5586849033109
 20
-129.4304977454203
 30
0.0
 10
123.5283812929729
 20
-129.2114227454747
 30
0.0
 10
123.498042404858
 20
-128.9933355233074
 30
0.0
 10
123.7447398985642
 20
-128.7787055233607
 30
0.0
 10
124.0788910011504
 20
-128.7335852455944
 30
0.0
 10
124.4123749688972
 20
-128.6867363567171
 30
0.0
 10
124.7072971910455
 20
-128.8265774677934
 30
0.0
 10
124.736930524371
 20
-129.0450174677385
 30
0.0
  0
SPLINE
  5
159
330
130
100
AcDbEntity
  8
_U+30EC_U+30A4_U+30E4_U+30FC 1
 62
   179
420
  2234388
370
     9
100
AcDbSpline
210
0.0
220
0.0
230
1.0
 70
    11
 71
     3
 72
    14
 73
    10
 74
     0
 42
0.0000000001
 43
0.0000000001
 12
1.0
 22
0.0
 32
0.0
 13
1.0
 23
0.0
 33
0.0
 40
0.0
 40
0.0
 40
0.0
 40
0.0
 40
1.0
 40
1.0
 40
1.0
 40
2.0
 40
2.0
 40
2.0
 40
3.0
 40
3.0
 40
3.0
 40
3.0
 10
124.275282385029
 20
-128.7225433011528
 30
0.0
 10
124.275282385029
 20
-128.7225433011528
 30
0.0
 10
124.6521548754141
 20
-128.7563041344777
 30
0.0
 10
124.7231337624922
 20
-128.951989967762
 30
0.0
 10
124.7231337624922
 20
-128.951989967762
 30
0.0
 10
124.8106226491491
 20
-129.2661738565725
 30
0.0
 10
124.5239907120172
 20
-129.4088019120925
 30
0.0
 10
124.5239907120172
 20
-129.4088019120925
 30
0.0
 10
124.9353648681889
 20
-129.0257205232993
 30
0.0
 10
124.275282385029
 20
-128.7225433011528
 30
0.0
  0
SPLINE
  5
15A
330
130
100
AcDbEntity
  8
_U+30EC_U+30A4_U+30E4_U+30FC 1
 62
   179
420
  2234388
370
     9
100
AcDbSpline
210
0.0
220
0.0
230
1.0
 70
    11
 71
     3
 72
    17
 73
    13
 74
     0
 42
0.0000000001
 43
0.0000000001
 12
1.0
 22
0.0
 32
0.0
 13
1.0
 23
0.0
 33
0.0
 40
0.0
 40
0.0
 40
0.0
 40
0.0
 40
1.0
 40
1.0
 40
1.0
 40
2.0
 40
2.0
 40
2.0
 40
3.0
 40
3.0
 40
3.0
 40
4.0
 40
4.0
 40
4.0
 40
4.0
 10
123.9521379488286
 20
-127.3086805237284
 30
0.0
 10
123.9824415591666
 20
-127.5277908014515
 30
0.0
 10
123.7371583023991
 20
-127.7420680236201
 30
0.0
 10
123.40367435171
 20
-127.7882466347197
 30
0.0
 10
123.0701935268845
 20
-127.8337196902638
 30
0.0
 10
122.7746010344256
 20
-127.6945488569651
 30
0.0
 10
122.7442621463108
 20
-127.4754385792424
 30
0.0
 10
122.7139585359728
 20
-127.2577041348521
 30
0.0
 10
122.9606207519021
 20
-127.0430741349058
 30
0.0
 10
123.2941015767276
 20
-126.9976010793617
 30
0.0
 10
123.6282879570907
 20
-126.9512460793732
 30
0.0
 10
123.9225046162513
 20
-127.0909460793385
 30
0.0
 10
123.9521379488286
 20
-127.3086805237284
 30
0.0
  0
SPLINE
  5
15B
330
130
100
AcDbEntity
  8
_U+30EC_U+30A4_U+30E4_U+30FC 1
 62
   179
420
  2234388
370
     9
100
AcDbSpline
210
0.0
220
0.0
230
1.0
 70
    11
 71
     3
 72
    14
 73
    10
 74
     0
 42
0.0000000001
 43
0.0000000001
 12
1.0
 22
0.0
 32
0.0
 13
1.0
 23
0.0
 33
0.0
 40
0.0
 40
0.0
 40
0.0
 40
0.0
 40
1.0
 40
1.0
 40
1.0
 40
2.0
 40
2.0
 40
2.0
 40
3.0
 40
3.0
 40
3.0
 40
3.0
 10
123.4911632383668
 20
-126.9863827460312
 30
0.0
 10
123.4911632383668
 20
-126.9863827460312
 30
0.0
 10
123.8694499690327
 20
-127.0206727460227
 30
0.0
 10
123.9397201713676
 20
-127.216358579307
 30
0.0
 10
123.9397201713676
 20
-127.216358579307
 30
0.0
 10
124.0265387802638
 20
-127.5305424681173
 30
0.0
 10
123.739906843132
 20
-127.6725002458595
 30
0.0
 10
123.739906843132
 20
-127.6725002458595
 30
0.0
 10
124.1512457215267
 20
-127.2900891348441
 30
0.0
 10
123.4911632383668
 20
-126.9863827460312
 30
0.0
  0
SPLINE
  5
15C
330
130
100
AcDbEntity
  8
_U+30EC_U+30A4_U+30E4_U+30FC 1
 62
   179
420
  2234388
370
     9
100
AcDbSpline
210
0.0
220
0.0
230
1.0
 70
    11
 71
     3
 72
    17
 73
    13
 74
     0
 42
0.0000000001
 43
0.0000000001
 12
1.0
 22
0.0
 32
0.0
 13
1.0
 23
0.0
 33
0.0
 40
0.0
 40
0.0
 40
0.0
 40
0.0
 40
1.0
 40
1.0
 40
1.0
 40
2.0
 40
2.0
 40
2.0
 40
3.0
 40
3.0
 40
3.0
 40
4.0
 40
4.0
 40
4.0
 40
4.0
 10
126.8528916349536
 20
-129.0684419121777
 30
0.0
 10
126.8838975962554
 20
-129.2875521899001
 30
0.0
 10
126.6379056580868
 20
-129.501829412069
 30
0.0
 10
126.3044248332612
 20
-129.5473024676131
 30
0.0
 10
125.9709471907297
 20
-129.5927755231572
 30
0.0
 10
125.6760570715144
 20
-129.4539574676363
 30
0.0
 10
125.6457181833996
 20
-129.2351646899135
 30
0.0
 10
125.6140387397633
 20
-129.0174655233014
 30
0.0
 10
125.8614065112302
 20
-128.802482745577
 30
0.0
 10
126.1948873360558
 20
-128.7570096900328
 30
0.0
 10
126.5290416350347
 20
-128.7101608011559
 30
0.0
 10
126.8232583016274
 20
-128.8507074677874
 30
0.0
 10
126.8528916349536
 20
-129.0684419121777
 30
0.0
  0
SPLINE
  5
15D
330
130
100
AcDbEntity
  8
_U+30EC_U+30A4_U+30E4_U+30FC 1
 62
   179
420
  2234388
370
     9
100
AcDbSpline
210
0.0
220
0.0
230
1.0
 70
    11
 71
     3
 72
    14
 73
    10
 74
     0
 42
0.0000000001
 43
0.0000000001
 12
1.0
 22
0.0
 32
0.0
 13
1.0
 23
0.0
 33
0.0
 40
0.0
 40
0.0
 40
0.0
 40
0.0
 40
1.0
 40
1.0
 40
1.0
 40
2.0
 40
2.0
 40
2.0
 40
3.0
 40
3.0
 40
3.0
 40
3.0
 10
126.391948997695
 20
-128.7459677455913
 30
0.0
 10
126.391948997695
 20
-128.7459677455913
 30
0.0
 10
126.7695270436177
 20
-128.7804341344713
 30
0.0
 10
126.8398003751582
 20
-128.9757671899782
 30
0.0
 10
126.8398003751582
 20
-128.9757671899782
 30
0.0
 10
126.9266221904904
 20
-129.2903038565665
 30
0.0
 10
126.6406573246832
 20
-129.4322263565309
 30
0.0
 10
126.6406573246832
 20
-129.4322263565309
 30
0.0
 10
127.0513259253173
 20
-129.0491449677378
 30
0.0
 10
126.391948997695
 20
-128.7459677455913
 30
0.0
  0
SPLINE
  5
15E
330
130
100
AcDbEntity
  8
_U+30EC_U+30A4_U+30E4_U+30FC 1
 62
   179
420
  2234388
370
     9
100
AcDbSpline
210
0.0
220
0.0
230
1.0
 70
    11
 71
     3
 72
    17
 73
    13
 74
     0
 42
0.0000000001
 43
0.0000000001
 12
1.0
 22
0.0
 32
0.0
 13
1.0
 23
0.0
 33
0.0
 40
0.0
 40
0.0
 40
0.0
 40
0.0
 40
1.0
 40
1.0
 40
1.0
 40
2.0
 40
2.0
 40
2.0
 40
3.0
 40
3.0
 40
3.0
 40
4.0
 40
4.0
 40
4.0
 40
4.0
 10
125.2764304150431
 20
-125.677259690803
 30
0.0
 10
125.3081098586793
 20
-125.8963699685261
 30
0.0
 10
125.0621179205107
 20
-126.1106471906947
 30
0.0
 10
124.7279668179245
 20
-126.1564730240165
 30
0.0
 10
124.3944859930989
 20
-126.2019460795606
 30
0.0
 10
124.0988935006401
 20
-126.0627752462622
 30
0.0
 10
124.0699304458235
 20
-125.8439824685391
 30
0.0
 10
124.0389212799479
 20
-125.6262833019267
 30
0.0
 10
124.2856187736542
 20
-125.4116533019803
 30
0.0
 10
124.6191027466231
 20
-125.3661802464362
 30
0.0
 10
124.9525804233052
 20
-125.3189785797815
 30
0.0
 10
125.2474673602265
 20
-125.4595252464131
 30
0.0
 10
125.2764304150431
 20
-125.677259690803
 30
0.0
  0
SPLINE
  5
15F
330
130
100
AcDbEntity
  8
_U+30EC_U+30A4_U+30E4_U+30FC 1
 62
   179
420
  2234388
370
     9
100
AcDbSpline
210
0.0
220
0.0
230
1.0
 70
    11
 71
     3
 72
    14
 73
    10
 74
     0
 42
0.0000000001
 43
0.0000000001
 12
1.0
 22
0.0
 32
0.0
 13
1.0
 23
0.0
 33
0.0
 40
0.0
 40
0.0
 40
0.0
 40
0.0
 40
1.0
 40
1.0
 40
1.0
 40
2.0
 40
2.0
 40
2.0
 40
3.0
 40
3.0
 40
3.0
 40
3.0
 10
124.8161612601189
 20
-125.3547855242169
 30
0.0
 10
124.8161612601189
 20
-125.3547855242169
 30
0.0
 10
125.1930337505041
 20
-125.3885463575418
 30
0.0
 10
125.2647181931197
 20
-125.5849377463816
 30
0.0
 10
125.2647181931197
 20
-125.5849377463816
 30
0.0
 10
125.3508312464783
 20
-125.8991216351918
 30
0.0
 10
125.0641993093465
 20
-126.041396912934
 30
0.0
 10
125.0641993093465
 20
-126.041396912934
 30
0.0
 10
125.4762437432788
 20
-125.6583155241409
 30
0.0
 10
124.8161612601189
 20
-125.3547855242169
 30
0.0
  0
SPLINE
  5
160
330
130
100
AcDbEntity
  8
_U+30EC_U+30A4_U+30E4_U+30FC 1
 62
   179
420
  2234388
370
     9
100
AcDbSpline
210
0.0
220
0.0
230
1.0
 70
    11
 71
     3
 72
    17
 73
    13
 74
     0
 42
0.0000000001
 43
0.0000000001
 12
1.0
 22
0.0
 32
0.0
 13
1.0
 23
0.0
 33
0.0
 40
0.0
 40
0.0
 40
0.0
 40
0.0
 40
1.0
 40
1.0
 40
1.0
 40
2.0
 40
2.0
 40
2.0
 40
3.0
 40
3.0
 40
3.0
 40
4.0
 40
4.0
 40
4.0
 40
4.0
 10
128.4879428331106
 20
-127.5598230236657
 30
0.0
 10
128.5182464434486
 20
-127.7789333013885
 30
0.0
 10
128.2722545052799
 20
-127.9928930235575
 30
0.0
 10
127.9387736804544
 20
-128.0397419124344
 30
0.0
 10
127.6052928556289
 20
-128.0848621902011
 30
0.0
 10
127.3104059187076
 20
-127.9456913569024
 30
0.0
 10
127.2800670305927
 20
-127.7268985791792
 30
0.0
 10
127.2497666348544
 20
-127.5091994125672
 30
0.0
 10
127.4964256361841
 20
-127.2942166348431
 30
0.0
 10
127.8299064610096
 20
-127.248743579299
 30
0.0
 10
128.1627170080745
 20
-127.2018946904217
 30
0.0
 10
128.4583095005333
 20
-127.3420885792755
 30
0.0
 10
128.4879428331106
 20
-127.5598230236657
 30
0.0
  0
SPLINE
  5
161
330
130
100
AcDbEntity
  8
_U+30EC_U+30A4_U+30E4_U+30FC 1
 62
   179
420
  2234388
370
     9
100
AcDbSpline
210
0.0
220
0.0
230
1.0
 70
    11
 71
     3
 72
    14
 73
    10
 74
     0
 42
0.0000000001
 43
0.0000000001
 12
1.0
 22
0.0
 32
0.0
 13
1.0
 23
0.0
 33
0.0
 40
0.0
 40
0.0
 40
0.0
 40
0.0
 40
1.0
 40
1.0
 40
1.0
 40
2.0
 40
2.0
 40
2.0
 40
3.0
 40
3.0
 40
3.0
 40
3.0
 10
128.0269681226488
 20
-127.2377016348574
 30
0.0
 10
128.0269681226488
 20
-127.2377016348574
 30
0.0
 10
128.4038758908109
 20
-127.2718152459597
 30
0.0
 10
128.4755250556496
 20
-127.4675010792443
 30
0.0
 10
128.4755250556496
 20
-127.4675010792443
 30
0.0
 10
128.5616733867851
 20
-127.7820377458323
 30
0.0
 10
128.2757117274139
 20
-127.9239602457967
 30
0.0
 10
128.2757117274139
 20
-127.9239602457967
 30
0.0
 10
128.6870506058087
 20
-127.5408788570036
 30
0.0
 10
128.0269681226488
 20
-127.2377016348574
 30
0.0
  0
SPLINE
  5
162
330
130
100
AcDbEntity
  8
_U+30EC_U+30A4_U+30E4_U+30FC 1
 62
   179
420
  2234388
370
     9
100
AcDbSpline
210
0.0
220
0.0
230
1.0
 70
    11
 71
     3
 72
    17
 73
    13
 74
     0
 42
0.0000000001
 43
0.0000000001
 12
1.0
 22
0.0
 32
0.0
 13
1.0
 23
0.0
 33
0.0
 40
0.0
 40
0.0
 40
0.0
 40
0.0
 40
1.0
 40
1.0
 40
1.0
 40
2.0
 40
2.0
 40
2.0
 40
3.0
 40
3.0
 40
3.0
 40
4.0
 40
4.0
 40
4.0
 40
4.0
 10
126.5669620487856
 20
-127.2136069126409
 30
0.0
 10
126.5979712146611
 20
-127.433034690364
 30
0.0
 10
126.3526527461899
 20
-127.6469944125326
 30
0.0
 10
126.0184984516669
 20
-127.6928202458545
 30
0.0
 10
125.6850176268414
 20
-127.7386460791763
 30
0.0
 10
125.3900954121433
 20
-127.5990871903224
 30
0.0
 10
125.3597918018053
 20
-127.3806824681548
 30
0.0
 10
125.3294529136904
 20
-127.1625952459871
 30
0.0
 10
125.5768206851573
 20
-126.9481416349297
 30
0.0
 10
125.9103015099828
 20
-126.9023158016078
 30
0.0
 10
126.2431120570477
 20
-126.8558196905083
 30
0.0
 10
126.5379989939689
 20
-126.995872468251
 30
0.0
 10
126.5669620487856
 20
-127.2136069126409
 30
0.0
  0
SPLINE
  5
163
330
130
100
AcDbEntity
  8
_U+30EC_U+30A4_U+30E4_U+30FC 1
 62
   179
420
  2234388
370
     9
100
AcDbSpline
210
0.0
220
0.0
230
1.0
 70
    11
 71
     3
 72
    14
 73
    10
 74
     0
 42
0.0000000001
 43
0.0000000001
 12
1.0
 22
0.0
 32
0.0
 13
1.0
 23
0.0
 33
0.0
 40
0.0
 40
0.0
 40
0.0
 40
0.0
 40
1.0
 40
1.0
 40
1.0
 40
2.0
 40
2.0
 40
2.0
 40
3.0
 40
3.0
 40
3.0
 40
3.0
 10
126.1066928938614
 20
-126.8916619127215
 30
0.0
 10
126.1066928938614
 20
-126.8916619127215
 30
0.0
 10
126.4842709397841
 20
-126.9257755238241
 30
0.0
 10
126.5545442713246
 20
-127.1212849682196
 30
0.0
 10
126.5545442713246
 20
-127.1212849682196
 30
0.0
 10
126.6420684357583
 20
-127.4358216348076
 30
0.0
 10
126.3554364986265
 20
-127.5777441347723
 30
0.0
 10
126.3554364986265
 20
-127.5777441347723
 30
0.0
 10
126.7667753770212
 20
-127.1949802459791
 30
0.0
 10
126.1066928938614
 20
-126.8916619127215
 30
0.0
  0
POLYLINE
  5
164
330
130
100
AcDbEntity
  8
_U+30EC_U+30A4_U+30E4_U+30FC 1
 62
     7
420
 16777215
370
     9
100
AcDb2dPolyline
 66
     1
 10
0.0
 20
0.0
 30
0.0
  0
VERTEX
  5
165
330
164
100
AcDbEntity
  8
_U+30EC_U+30A4_U+30E4_U+30FC 1
 62
     7
420
 16777215
370
     9
100
AcDbVertex
100
AcDb2dVertex
 10
114.7371945728103
 20
-133.5980380221563
 30
0.0
  0
VERTEX
  5
166
330
164
100
AcDbEntity
  8
_U+30EC_U+30A4_U+30E4_U+30FC 1
 62
     7
420
 16777215
370
     9
100
AcDbVertex
100
AcDb2dVertex
 10
108.7964522243713
 20
-137.2140102434745
 30
0.0
  0
VERTEX
  5
167
330
164
100
AcDbEntity
  8
_U+30EC_U+30A4_U+30E4_U+30FC 1
 62
     7
420
 16777215
370
     9
100
AcDbVertex
100
AcDb2dVertex
 10
108.6731211164066
 20
-137.0114452435248
 30
0.0
  0
VERTEX
  5
168
330
164
100
AcDbEntity
  8
_U+30EC_U+30A4_U+30E4_U+30FC 1
 62
     7
420
 16777215
370
     9
100
AcDbVertex
100
AcDb2dVertex
 10
114.7785048495342
 20
-133.2828310777906
 30
0.0
  0
SEQEND
  5
169
330
164
100
AcDbEntity
  8
_U+30EC_U+30A4_U+30E4_U+30FC 1
 62
     7
420
 16777215
370
     9
  0
POLYLINE
  5
16A
330
130
100
AcDbEntity
  8
_U+30EC_U+30A4_U+30E4_U+30FC 1
 62
     7
420
 16777215
370
     9
100
AcDb2dPolyline
 66
     1
 10
0.0
 20
0.0
 30
0.0
  0
VERTEX
  5
16B
330
16A
100
AcDbEntity
  8
_U+30EC_U+30A4_U+30E4_U+30FC 1
 62
     7
420
 16777215
370
     9
100
AcDbVertex
100
AcDb2dVertex
 10
114.7709583046403
 20
-133.5642771888314
 30
0.0
  0
VERTEX
  5
16C
330
16A
100
AcDbEntity
  8
_U+30EC_U+30A4_U+30E4_U+30FC 1
 62
     7
420
 16777215
370
     9
100
AcDbVertex
100
AcDb2dVertex
 10
120.7454233084165
 20
-137.2133399656965
 30
0.0
  0
VERTEX
  5
16D
330
16A
100
AcDbEntity
  8
_U+30EC_U+30A4_U+30E4_U+30FC 1
 62
     7
420
 16777215
370
     9
100
AcDbVertex
100
AcDb2dVertex
 10
120.8687544163812
 20
-137.0114452435248
 30
0.0
  0
VERTEX
  5
16E
330
16A
100
AcDbEntity
  8
_U+30EC_U+30A4_U+30E4_U+30FC 1
 62
     7
420
 16777215
370
     9
100
AcDbVertex
100
AcDb2dVertex
 10
114.7640409610143
 20
-133.2824783000128
 30
0.0
  0
SEQEND
  5
16F
330
16A
100
AcDbEntity
  8
_U+30EC_U+30A4_U+30E4_U+30FC 1
 62
     7
420
 16777215
370
     9
  0
POLYLINE
  5
170
330
130
100
AcDbEntity
  8
_U+30EC_U+30A4_U+30E4_U+30FC 1
 62
     7
420
 16777215
370
     9
100
AcDb2dPolyline
 66
     1
 10
0.0
 20
0.0
 30
0.0
  0
VERTEX
  5
171
330
170
100
AcDbEntity
  8
_U+30EC_U+30A4_U+30E4_U+30FC 1
 62
     7
420
 16777215
370
     9
100
AcDbVertex
100
AcDb2dVertex
 10
118.5171378097093
 20
-127.4282369125873
 30
0.0
  0
VERTEX
  5
172
330
170
100
AcDbEntity
  8
_U+30EC_U+30A4_U+30E4_U+30FC 1
 62
     7
420
 16777215
370
     9
100
AcDbVertex
100
AcDb2dVertex
 10
123.9369685047712
 20
-124.1345271911887
 30
0.0
  0
VERTEX
  5
173
330
170
100
AcDbEntity
  8
_U+30EC_U+30A4_U+30E4_U+30FC 1
 62
     7
420
 16777215
370
     9
100
AcDbVertex
100
AcDb2dVertex
 10
114.7571617945231
 20
-133.3141577444493
 30
0.0
  0
SEQEND
  5
174
330
170
100
AcDbEntity
  8
_U+30EC_U+30A4_U+30E4_U+30FC 1
 62
     7
420
 16777215
370
     9
  0
POLYLINE
  5
175
330
130
100
AcDbEntity
  8
_U+30EC_U+30A4_U+30E4_U+30FC 1
 62
     7
420
 16777215
370
     9
100
AcDb2dPolyline
 66
     1
 10
0.0
 20
0.0
 30
0.0
  0
VERTEX
  5
176
330
175
100
AcDbEntity
  8
_U+30EC_U+30A4_U+30E4_U+30FC 1
 62
     7
420
 16777215
370
     9
100
AcDbVertex
100
AcDb2dVertex
 10
108.6731211164066
 20
-137.0114452435248
 30
0.0
  0
VERTEX
  5
177
330
175
100
AcDbEntity
  8
_U+30EC_U+30A4_U+30E4_U+30FC 1
 62
     7
420
 16777215
370
     9
100
AcDbVertex
100
AcDb2dVertex
 10
117.8535981044153
 20
-127.8309680235977
 30
0.0
  0
VERTEX
  5
178
330
175
100
AcDbEntity
  8
_U+30EC_U+30A4_U+30E4_U+30FC 1
 62
     7
420
 16777215
370
     9
100
AcDbVertex
100
AcDb2dVertex
 10
118.5171378097093
 20
-127.4282369125873
 30
0.0
  0
SEQEND
  5
179
330
175
100
AcDbEntity
  8
_U+30EC_U+30A4_U+30E4_U+30FC 1
 62
     7
420
 16777215
370
     9
  0
POLYLINE
  5
17A
330
130
100
AcDbEntity
  8
_U+30EC_U+30A4_U+30E4_U+30FC 1
 62
     7
420
 16777215
370
     9
100
AcDb2dPolyline
 66
     1
 10
0.0
 20
0.0
 30
0.0
  0
VERTEX
  5
17B
330
17A
100
AcDbEntity
  8
_U+30EC_U+30A4_U+30E4_U+30FC 1
 62
     7
420
 16777215
370
     9
100
AcDbVertex
100
AcDb2dVertex
 10
120.8928844157656
 20
-137.0114452435248
 30
0.0
  0
VERTEX
  5
17C
330
17A
100
AcDbEntity
  8
_U+30EC_U+30A4_U+30E4_U+30FC 1
 62
     7
420
 16777215
370
     9
100
AcDbVertex
100
AcDb2dVertex
 10
130.0733614037743
 20
-127.8309680235977
 30
0.0
  0
VERTEX
  5
17D
330
17A
100
AcDbEntity
  8
_U+30EC_U+30A4_U+30E4_U+30FC 1
 62
     7
420
 16777215
370
     9
100
AcDbVertex
100
AcDb2dVertex
 10
123.9369685047712
 20
-124.1345271911887
 30
0.0
  0
SEQEND
  5
17E
330
17A
100
AcDbEntity
  8
_U+30EC_U+30A4_U+30E4_U+30FC 1
 62
     7
420
 16777215
370
     9
  0
ENDBLK
  5
133
330
130
100
AcDbEntity
  8
0
100
AcDbBlockEnd
  0
ENDSEC
  0
SECTION
  2
ENTITIES
  0
INSERT
  5
42
330
1F
100
AcDbEntity
  8
_U+30EC_U+30A4_U+30E4_U+30FC 1
100
AcDbBlockReference
  2
block 2
 10
0.0
 20
0.0
 30
0.0
  0
ENDSEC
  0
SECTION
  2
OBJECTS
  0
DICTIONARY
  5
C
330
0
100
AcDbDictionary
281
     1
  3
ACAD_GROUP
350
D
  3
ACAD_LAYOUT
350
1A
  3
ACAD_MATERIAL
350
3B
  3
ACAD_MLEADERSTYLE
350
180
  3
ACAD_MLINESTYLE
350
17
  3
ACAD_PLOTSETTINGS
350
19
  3
ACAD_PLOTSTYLENAME
350
E
  3
ACAD_TABLESTYLE
350
17F
  3
ACAD_VISUALSTYLE
350
2A
  0
SUN
  5
3F
330
29
100
AcDbSun
 90
        1
290
     0
 63
     7
421
 16777215
 40
1.0
291
     1
 91
  2455826
 92
 54000000
292
     0
 70
     2
 71
   256
280
     1
  0
DICTIONARY
  5
D
102
{ACAD_REACTORS
330
C
102
}
330
C
100
AcDbDictionary
281
     1
  0
DICTIONARY
  5
1A
102
{ACAD_REACTORS
330
C
102
}
330
C
100
AcDbDictionary
281
     1
  3
Layout1
350
1E
  3
Layout2
350
26
  3
Model
350
22
  0
DICTIONARY
  5
3B
102
{ACAD_REACTORS
330
C
102
}
330
C
100
AcDbDictionary
281
     1
  3
ByBlock
350
3D
  3
ByLayer
350
3C
  3
Global
350
3E
  0
DICTIONARY
  5
180
102
{ACAD_REACTORS
330
C
102
}
330
C
100
AcDbDictionary
281
     1
  0
DICTIONARY
  5
17
102
{ACAD_REACTORS
330
C
102
}
330
C
100
AcDbDictionary
281
     1
  3
Standard
350
18
  0
DICTIONARY
  5
19
102
{ACAD_REACTORS
330
C
102
}
330
C
100
AcDbDictionary
281
     1
  0
ACDBDICTIONARYWDFLT
  5
E
102
{ACAD_REACTORS
330
C
102
}
330
C
100
AcDbDictionary
281
     1
  3
Normal
350
F
100
AcDbDictionaryWithDefault
340
F
  0
DICTIONARY
  5
17F
102
{ACAD_REACTORS
330
C
102
}
330
C
100
AcDbDictionary
281
     1
  0
DICTIONARY
  5
2A
102
{ACAD_REACTORS
330
C
102
}
330
C
100
AcDbDictionary
281
     1
  3
2dWireframe
350
2F
  3
3D Hidden
350
31
  3
3dWireframe
350
30
  3
Basic
350
32
  3
Brighten
350
36
  3
ColorChange
350
3A
  3
Conceptual
350
34
  3
Dim
350
35
  3
Facepattern
350
39
  3
Flat
350
2B
  3
FlatWithEdges
350
2C
  3
Gouraud
350
2D
  3
GouraudWithEdges
350
2E
  3
Linepattern
350
38
  3
Realistic
350
33
  3
Thicken
350
37
  0
LAYOUT
  5
1E
102
{ACAD_REACTORS
330
1A
102
}
330
1A
100
AcDbPlotSettings
  1

  2
none_device
  4

  6

 40
0.0
 41
0.0
 42
0.0
 43
0.0
 44
0.0
 45
0.0
 46
0.0
 47
0.0
 48
0.0
 49
0.0
140
0.0
141
0.0
142
1.0
143
1.0
 70
   688
 72
     0
 73
     0
 74
     5
  7

 75
    16
 76
     0
 77
     2
 78
   300
147
1.0
148
0.0
149
0.0
100
AcDbLayout
  1
Layout1
 70
     1
 71
     1
 10
0.0
 20
0.0
 11
12.0
 21
9.0
 12
0.0
 22
0.0
 32
0.0
 14
1.000000000000000E+20
 24
1.000000000000000E+20
 34
1.000000000000000E+20
 15
-1.000000000000000E+20
 25
-1.000000000000000E+20
 35
-1.000000000000000E+20
146
0.0
 13
0.0
 23
0.0
 33
0.0
 16
1.0
 26
0.0
 36
0.0
 17
0.0
 27
1.0
 37
0.0
 76
     0
330
1B
  0
LAYOUT
  5
26
102
{ACAD_REACTORS
330
1A
102
}
330
1A
100
AcDbPlotSettings
  1

  2
none_device
  4

  6

 40
0.0
 41
0.0
 42
0.0
 43
0.0
 44
0.0
 45
0.0
 46
0.0
 47
0.0
 48
0.0
 49
0.0
140
0.0
141
0.0
142
1.0
143
1.0
 70
   688
 72
     0
 73
     0
 74
     5
  7

 75
    16
 76
     0
 77
     2
 78
   300
147
1.0
148
0.0
149
0.0
100
AcDbLayout
  1
Layout2
 70
     1
 71
     2
 10
0.0
 20
0.0
 11
0.0
 21
0.0
 12
0.0
 22
0.0
 32
0.0
 14
0.0
 24
0.0
 34
0.0
 15
0.0
 25
0.0
 35
0.0
146
0.0
 13
0.0
 23
0.0
 33
0.0
 16
1.0
 26
0.0
 36
0.0
 17
0.0
 27
1.0
 37
0.0
 76
     0
330
23
  0
LAYOUT
  5
22
102
{ACAD_REACTORS
330
1A
102
}
330
1A
100
AcDbPlotSettings
  1

  2
none_device
  4

  6

 40
0.0
 41
0.0
 42
0.0
 43
0.0
 44
0.0
 45
0.0
 46
0.0
 47
0.0
 48
0.0
 49
0.0
140
0.0
141
0.0
142
1.0
143
1.0
 70
  1712
 72
     0
 73
     0
 74
     0
  7

 75
     0
 76
     0
 77
     2
 78
   300
147
1.0
148
0.0
149
0.0
100
AcDbLayout
  1
Model
 70
     1
 71
     0
 10
0.0
 20
0.0
 11
12.0
 21
9.0
 12
0.0
 22
0.0
 32
0.0
 14
1.000000000000000E+20
 24
1.000000000000000E+20
 34
1.000000000000000E+20
 15
-1.000000000000000E+20
 25
-1.000000000000000E+20
 35
-1.000000000000000E+20
146
0.0
 13
0.0
 23
0.0
 33
0.0
 16
1.0
 26
0.0
 36
0.0
 17
0.0
 27
1.0
 37
0.0
 76
     0
330
1F
331
29
  0
MATERIAL
  5
3D
102
{ACAD_REACTORS
330
3B
102
}
330
3B
100
AcDbMaterial
  1
ByBlock
 72
     1
 94
      127
  0
MATERIAL
  5
3C
102
{ACAD_REACTORS
330
3B
102
}
330
3B
100
AcDbMaterial
  1
ByLayer
 72
     1
 94
      127
  0
MATERIAL
  5
3E
102
{ACAD_REACTORS
330
3B
102
}
330
3B
100
AcDbMaterial
  1
Global
 72
     1
 94
      127
  0
MLINESTYLE
  5
18
102
{ACAD_REACTORS
330
17
102
}
330
17
100
AcDbMlineStyle
  2
Standard
 70
     0
  3

 62
   256
 51
90.0
 52
90.0
 71
     2
 49
0.5
 62
   256
  6
BYLAYER
 49
-0.5
 62
   256
  6
BYLAYER
  0
ACDBPLACEHOLDER
  5
F
102
{ACAD_REACTORS
330
E
102
}
330
E
  0
VISUALSTYLE
  5
2F
102
{ACAD_REACTORS
330
2A
102
}
330
2A
100
AcDbVisualStyle
  2
2dWireframe
 70
     4
177
     2
291
     0
 71
     0
176
     1
 72
     2
176
     1
 73
     0
176
     1
 90
        0
176
     1
 40
-0.6
176
     1
 41
-30.0
176
     1
 62
     5
 63
     7
421
 16777215
176
     1
 74
     1
176
     1
 91
        4
176
     1
 64
     7
176
     1
 65
   257
176
     1
 75
     1
176
     1
175
     1
176
     1
 42
1.0
176
     1
 92
        0
176
     1
 66
   257
176
     1
 43
1.0
176
     1
 76
     1
176
     1
 77
     6
176
     1
 78
     2
176
     1
 67
     7
176
     1
 79
     5
176
     1
170
     0
176
     1
171
     0
176
     1
290
     0
176
     1
 93
        1
176
     1
 44
0.0
176
     1
173
     0
176
     1
  0
VISUALSTYLE
  5
31
102
{ACAD_REACTORS
330
2A
102
}
330
2A
100
AcDbVisualStyle
  2
3D Hidden
 70
     6
177
     2
291
     0
 71
     1
176
     1
 72
     2
176
     1
 73
     2
176
     1
 90
        0
176
     1
 40
-0.6
176
     1
 41
-30.0
176
     1
 62
     5
 63
     7
421
 16777215
176
     1
 74
     2
176
     1
 91
        2
176
     1
 64
     7
176
     1
 65
   257
176
     1
 75
     2
176
     1
175
     1
176
     1
 42
40.0
176
     1
 92
        0
176
     1
 66
   257
176
     1
 43
1.0
176
     1
 76
     1
176
     1
 77
     6
176
     1
 78
     2
176
     1
 67
     7
176
     1
 79
     3
176
     1
170
     0
176
     1
171
     0
176
     1
290
     0
176
     1
 93
        1
176
     1
 44
0.0
176
     1
173
     0
176
     1
  0
VISUALSTYLE
  5
30
102
{ACAD_REACTORS
330
2A
102
}
330
2A
100
AcDbVisualStyle
  2
3dWireframe
 70
     5
177
     2
291
     0
 71
     0
176
     1
 72
     2
176
     1
 73
     0
176
     1
 90
        0
176
     1
 40
-0.6
176
     1
 41
-30.0
176
     1
 62
     5
 63
     7
421
 16777215
176
     1
 74
     1
176
     1
 91
        4
176
     1
 64
     7
176
     1
 65
   257
176
     1
 75
     1
176
     1
175
     1
176
     1
 42
1.0
176
     1
 92
        0
176
     1
 66
   257
176
     1
 43
1.0
176
     1
 76
     1
176
     1
 77
     6
176
     1
 78
     2
176
     1
 67
     7
176
     1
 79
     5
176
     1
170
     0
176
     1
171
     0
176
     1
290
     0
176
     1
 93
        1
176
     1
 44
0.0
176
     1
173
     0
176
     1
  0
VISUALSTYLE
  5
32
102
{ACAD_REACTORS
330
2A
102
}
330
2A
100
AcDbVisualStyle
  2
Basic
 70
     7
177
     2
291
     1
 71
     1
176
     1
 72
     0
176
     1
 73
     1
176
     1
 90
        0
176
     1
 40
-0.6
176
     1
 41
-30.0
176
     1
 62
     5
 63
     7
421
 16777215
176
     1
 74
     0
176
     1
 91
        4
176
     1
 64
     7
176
     1
 65
   257
176
     1
 75
     1
176
     1
175
     1
176
     1
 42
1.0
176
     1
 92
        8
176
     1
 66
     7
176
     1
 43
1.0
176
     1
 76
     1
176
     1
 77
     6
176
     1
 78
     2
176
     1
 67
     7
176
     1
 79
     5
176
     1
170
     0
176
     1
171
     0
176
     1
290
     0
176
     1
 93
        1
176
     1
 44
0.0
176
     1
173
     0
176
     1
  0
VISUALSTYLE
  5
36
102
{ACAD_REACTORS
330
2A
102
}
330
2A
100
AcDbVisualStyle
  2
Brighten
 70
    12
177
     2
291
     1
 71
     2
176
     1
 72
     2
176
     1
 73
     0
176
     1
 90
        0
176
     1
 40
-0.6
176
     1
 41
-30.0
176
     1
 62
     5
 63
     7
421
 16777215
176
     1
 74
     1
176
     1
 91
        4
176
     1
 64
     7
176
     1
 65
   257
176
     1
 75
     1
176
     1
175
     1
176
     1
 42
1.0
176
     1
 92
        8
176
     1
 66
     7
176
     1
 43
1.0
176
     1
 76
     1
176
     1
 77
     6
176
     1
 78
     2
176
     1
 67
     7
176
     1
 79
     5
176
     1
170
     0
176
     1
171
     0
176
     1
290
     0
176
     1
 93
        1
176
     1
 44
50.0
176
     1
173
     0
176
     1
  0
VISUALSTYLE
  5
3A
102
{ACAD_REACTORS
330
2A
102
}
330
2A
100
AcDbVisualStyle
  2
ColorChange
 70
    16
177
     2
291
     1
 71
     2
176
     1
 72
     2
176
     1
 73
     3
176
     1
 90
        0
176
     1
 40
-0.6
176
     1
 41
-30.0
176
     1
 62
     5
 63
     8
421
  8421504
176
     1
 74
     1
176
     1
 91
        4
176
     1
 64
     7
176
     1
 65
   257
176
     1
 75
     1
176
     1
175
     1
176
     1
 42
1.0
176
     1
 92
        8
176
     1
 66
     8
424
  8421504
176
     1
 43
1.0
176
     1
 76
     1
176
     1
 77
     6
176
     1
 78
     2
176
     1
 67
     7
176
     1
 79
     5
176
     1
170
     0
176
     1
171
     0
176
     1
290
     0
176
     1
 93
        1
176
     1
 44
0.0
176
     1
173
     0
176
     1
  0
VISUALSTYLE
  5
34
102
{ACAD_REACTORS
330
2A
102
}
330
2A
100
AcDbVisualStyle
  2
Conceptual
 70
     9
177
     2
291
     0
 71
     3
176
     1
 72
     2
176
     1
 73
     0
176
     1
 90
        0
176
     1
 40
-0.6
176
     1
 41
-30.0
176
     1
 62
     5
 63
     7
421
 16777215
176
     1
 74
     2
176
     1
 91
        2
176
     1
 64
     7
176
     1
 65
   257
176
     1
 75
     1
176
     1
175
     1
176
     1
 42
40.0
176
     1
 92
        8
176
     1
 66
     7
176
     1
 43
1.0
176
     1
 76
     1
176
     1
 77
     6
176
     1
 78
     2
176
     1
 67
     7
176
     1
 79
     3
176
     1
170
     0
176
     1
171
     0
176
     1
290
     0
176
     1
 93
        1
176
     1
 44
0.0
176
     1
173
     0
176
     1
  0
VISUALSTYLE
  5
35
102
{ACAD_REACTORS
330
2A
102
}
330
2A
100
AcDbVisualStyle
  2
Dim
 70
    11
177
     2
291
     1
 71
     2
176
     1
 72
     2
176
     1
 73
     0
176
     1
 90
        0
176
     1
 40
-0.6
176
     1
 41
-30.0
176
     1
 62
     5
 63
     7
421
 16777215
176
     1
 74
     1
176
     1
 91
        4
176
     1
 64
     7
176
     1
 65
   257
176
     1
 75
     1
176
     1
175
     1
176
     1
 42
1.0
176
     1
 92
        8
176
     1
 66
     7
176
     1
 43
1.0
176
     1
 76
     1
176
     1
 77
     6
176
     1
 78
     2
176
     1
 67
     7
176
     1
 79
     5
176
     1
170
     0
176
     1
171
     0
176
     1
290
     0
176
     1
 93
        1
176
     1
 44
-50.0
176
     1
173
     0
176
     1
  0
VISUALSTYLE
  5
39
102
{ACAD_REACTORS
330
2A
102
}
330
2A
100
AcDbVisualStyle
  2
Facepattern
 70
    15
177
     2
291
     1
 71
     2
176
     1
 72
     2
176
     1
 73
     0
176
     1
 90
        0
176
     1
 40
-0.6
176
     1
 41
-30.0
176
     1
 62
     5
 63
     7
421
 16777215
176
     1
 74
     1
176
     1
 91
        4
176
     1
 64
     7
176
     1
 65
   257
176
     1
 75
     1
176
     1
175
     1
176
     1
 42
1.0
176
     1
 92
        8
176
     1
 66
     7
176
     1
 43
1.0
176
     1
 76
     1
176
     1
 77
     6
176
     1
 78
     2
176
     1
 67
     7
176
     1
 79
     5
176
     1
170
     0
176
     1
171
     0
176
     1
290
     0
176
     1
 93
        1
176
     1
 44
0.0
176
     1
173
     0
176
     1
  0
VISUALSTYLE
  5
2B
102
{ACAD_REACTORS
330
2A
102
}
330
2A
100
AcDbVisualStyle
  2
Flat
 70
     0
177
     2
291
     1
 71
     2
176
     1
 72
     1
176
     1
 73
     1
176
     1
 90
        2
176
     1
 40
-0.6
176
     1
 41
30.0
176
     1
 62
     5
 63
     7
421
 16777215
176
     1
 74
     0
176
     1
 91
        4
176
     1
 64
     7
176
     1
 65
   257
176
     1
 75
     1
176
     1
175
     1
176
     1
 42
1.0
176
     1
 92
        8
176
     1
 66
     7
176
     1
 43
1.0
176
     1
 76
     1
176
     1
 77
     6
176
     1
 78
     2
176
     1
 67
     7
176
     1
 79
     5
176
     1
170
     0
176
     1
171
     0
176
     1
290
     0
176
     1
 93
       13
176
     1
 44
0.0
176
     1
173
     0
176
     1
  0
VISUALSTYLE
  5
2C
102
{ACAD_REACTORS
330
2A
102
}
330
2A
100
AcDbVisualStyle
  2
FlatWithEdges
 70
     1
177
     2
291
     1
 71
     2
176
     1
 72
     1
176
     1
 73
     1
176
     1
 90
        2
176
     1
 40
-0.6
176
     1
 41
30.0
176
     1
 62
     5
 63
     7
421
 16777215
176
     1
 74
     1
176
     1
 91
        4
176
     1
 64
     7
176
     1
 65
   257
176
     1
 75
     1
176
     1
175
     1
176
     1
 42
1.0
176
     1
 92
        0
176
     1
 66
   257
176
     1
 43
1.0
176
     1
 76
     1
176
     1
 77
     6
176
     1
 78
     2
176
     1
 67
     7
176
     1
 79
     5
176
     1
170
     0
176
     1
171
     0
176
     1
290
     0
176
     1
 93
       13
176
     1
 44
0.0
176
     1
173
     0
176
     1
  0
VISUALSTYLE
  5
2D
102
{ACAD_REACTORS
330
2A
102
}
330
2A
100
AcDbVisualStyle
  2
Gouraud
 70
     2
177
     2
291
     1
 71
     2
176
     1
 72
     2
176
     1
 73
     1
176
     1
 90
        2
176
     1
 40
-0.6
176
     1
 41
30.0
176
     1
 62
     5
 63
     7
421
 16777215
176
     1
 74
     0
176
     1
 91
        4
176
     1
 64
     7
176
     1
 65
   257
176
     1
 75
     1
176
     1
175
     1
176
     1
 42
1.0
176
     1
 92
        0
176
     1
 66
     7
176
     1
 43
1.0
176
     1
 76
     1
176
     1
 77
     6
176
     1
 78
     2
176
     1
 67
     7
176
     1
 79
     5
176
     1
170
     0
176
     1
171
     0
176
     1
290
     0
176
     1
 93
       13
176
     1
 44
0.0
176
     1
173
     0
176
     1
  0
VISUALSTYLE
  5
2E
102
{ACAD_REACTORS
330
2A
102
}
330
2A
100
AcDbVisualStyle
  2
GouraudWithEdges
 70
     3
177
     2
291
     1
 71
     2
176
     1
 72
     2
176
     1
 73
     1
176
     1
 90
        2
176
     1
 40
-0.6
176
     1
 41
30.0
176
     1
 62
     5
 63
     7
421
 16777215
176
     1
 74
     1
176
     1
 91
        4
176
     1
 64
     7
176
     1
 65
   257
176
     1
 75
     1
176
     1
175
     1
176
     1
 42
1.0
176
     1
 92
        0
176
     1
 66
   257
176
     1
 43
1.0
176
     1
 76
     1
176
     1
 77
     6
176
     1
 78
     2
176
     1
 67
     7
176
     1
 79
     5
176
     1
170
     0
176
     1
171
     0
176
     1
290
     0
176
     1
 93
       13
176
     1
 44
0.0
176
     1
173
     0
176
     1
  0
VISUALSTYLE
  5
38
102
{ACAD_REACTORS
330
2A
102
}
330
2A
100
AcDbVisualStyle
  2
Linepattern
 70
    14
177
     2
291
     1
 71
     2
176
     1
 72
     2
176
     1
 73
     0
176
     1
 90
        0
176
     1
 40
-0.6
176
     1
 41
-30.0
176
     1
 62
     5
 63
     7
421
 16777215
176
     1
 74
     1
176
     1
 91
        4
176
     1
 64
     7
176
     1
 65
   257
176
     1
 75
     7
176
     1
175
     7
176
     1
 42
1.0
176
     1
 92
        8
176
     1
 66
     7
176
     1
 43
1.0
176
     1
 76
     1
176
     1
 77
     6
176
     1
 78
     2
176
     1
 67
     7
176
     1
 79
     5
176
     1
170
     0
176
     1
171
     0
176
     1
290
     0
176
     1
 93
        1
176
     1
 44
0.0
176
     1
173
     0
176
     1
  0
VISUALSTYLE
  5
33
102
{ACAD_REACTORS
330
2A
102
}
330
2A
100
AcDbVisualStyle
  2
Realistic
 70
     8
177
     2
291
     0
 71
     2
176
     1
 72
     2
176
     1
 73
     0
176
     1
 90
        0
176
     1
 40
-0.6
176
     1
 41
-30.0
176
     1
 62
     5
 63
     7
421
 16777215
176
     1
 74
     1
176
     1
 91
        0
176
     1
 64
     7
176
     1
 65
   257
176
     1
 75
     1
176
     1
175
     1
176
     1
 42
1.0
176
     1
 92
        8
176
     1
 66
     8
424
  7895160
176
     1
 43
1.0
176
     1
 76
     1
176
     1
 77
     6
176
     1
 78
     2
176
     1
 67
     7
176
     1
 79
     5
176
     1
170
     0
176
     1
171
     0
176
     1
290
     0
176
     1
 93
       13
176
     1
 44
0.0
176
     1
173
     0
176
     1
  0
VISUALSTYLE
  5
37
102
{ACAD_REACTORS
330
2A
102
}
330
2A
100
AcDbVisualStyle
  2
Thicken
 70
    13
177
     2
291
     1
 71
     2
176
     1
 72
     2
176
     1
 73
     0
176
     1
 90
        0
176
     1
 40
-0.6
176
     1
 41
-30.0
176
     1
 62
     5
 63
     7
421
 16777215
176
     1
 74
     1
176
     1
 91
        4
176
     1
 64
     7
176
     1
 65
   257
176
     1
 75
     1
176
     1
175
     1
176
     1
 42
1.0
176
     1
 92
       12
176
     1
 66
     7
176
     1
 43
1.0
176
     1
 76
     1
176
     1
 77
     6
176
     1
 78
     2
176
     1
 67
     7
176
     1
 79
     5
176
     1
170
     0
176
     1
171
     0
176
     1
290
     0
176
     1
 93
        1
176
     1
 44
0.0
176
     1
173
     0
176
     1
  0
ENDSEC
  0
EOF
