  0
SECTION
  2
HEADER
  9
$ACADVER
  1
AC1024
  9
$ACADMAINTVER
 70
     6
  9
$DWGCODEPAGE
  3
UNDEFINED
  9
$INSBASE
 10
0.0
 20
0.0
 30
0.0
  9
$EXTMIN
 10
1.000000000000000E+20
 20
1.000000000000000E+20
 30
1.000000000000000E+20
  9
$EXTMAX
 10
-1.000000000000000E+20
 20
-1.000000000000000E+20
 30
-1.000000000000000E+20
  9
$LIMMIN
 10
0.0
 20
0.0
  9
$LIMMAX
 10
12.0
 20
9.0
  9
$ORTHOMODE
 70
     0
  9
$REGENMODE
 70
     1
  9
$FILLMODE
 70
     1
  9
$QTEXTMODE
 70
     0
  9
$MIRRTEXT
 70
     1
  9
$LTSCALE
 40
1.0
  9
$ATTMODE
 70
     1
  9
$TEXTSIZE
 40
0.2
  9
$TRACEWID
 40
0.05
  9
$TEXTSTYLE
  7
Standard
  9
$CLAYER
  8
0
  9
$CELTYPE
  6
ByLayer
  9
$CECOLOR
 62
   256
  9
$CELTSCALE
 40
1.0
  9
$DISPSILH
 70
     0
  9
$DIMSCALE
 40
1.0
  9
$DIMASZ
 40
0.18
  9
$DIMEXO
 40
0.0625
  9
$DIMDLI
 40
0.38
  9
$DIMRND
 40
0.0
  9
$DIMDLE
 40
0.0
  9
$DIMEXE
 40
0.18
  9
$DIMTP
 40
0.0
  9
$DIMTM
 40
0.0
  9
$DIMTXT
 40
0.18
  9
$DIMCEN
 40
0.09
  9
$DIMTSZ
 40
0.0
  9
$DIMTOL
 70
     0
  9
$DIMLIM
 70
     0
  9
$DIMTIH
 70
     1
  9
$DIMTOH
 70
     1
  9
$DIMSE1
 70
     0
  9
$DIMSE2
 70
     0
  9
$DIMTAD
 70
     0
  9
$DIMZIN
 70
     0
  9
$DIMBLK
  1

  9
$DIMASO
 70
     1
  9
$DIMSHO
 70
     1
  9
$DIMPOST
  1

  9
$DIMAPOST
  1

  9
$DIMALT
 70
     0
  9
$DIMALTD
 70
     2
  9
$DIMALTF
 40
25.4
  9
$DIMLFAC
 40
1.0
  9
$DIMTOFL
 70
     0
  9
$DIMTVP
 40
0.0
  9
$DIMTIX
 70
     0
  9
$DIMSOXD
 70
     0
  9
$DIMSAH
 70
     0
  9
$DIMBLK1
  1

  9
$DIMBLK2
  1

  9
$DIMSTYLE
  2
Standard
  9
$DIMCLRD
 70
     0
  9
$DIMCLRE
 70
     0
  9
$DIMCLRT
 70
     0
  9
$DIMTFAC
 40
1.0
  9
$DIMGAP
 40
0.09
  9
$DIMJUST
 70
     0
  9
$DIMSD1
 70
     0
  9
$DIMSD2
 70
     0
  9
$DIMTOLJ
 70
     1
  9
$DIMTZIN
 70
     0
  9
$DIMALTZ
 70
     0
  9
$DIMALTTZ
 70
     0
  9
$DIMUPT
 70
     0
  9
$DIMDEC
 70
     4
  9
$DIMTDEC
 70
     4
  9
$DIMALTU
 70
     2
  9
$DIMALTTD
 70
     2
  9
$DIMTXSTY
  7
Standard
  9
$DIMAUNIT
 70
     0
  9
$DIMADEC
 70
     0
  9
$DIMALTRND
 40
0.0
  9
$DIMAZIN
 70
     0
  9
$DIMDSEP
 70
    46
  9
$DIMATFIT
 70
     3
  9
$DIMFRAC
 70
     0
  9
$DIMLDRBLK
  1

  9
$DIMLUNIT
 70
     2
  9
$DIMLWD
 70
    -2
  9
$DIMLWE
 70
    -2
  9
$DIMTMOVE
 70
     0
  9
$DIMFXL
 40
1.0
  9
$DIMFXLON
 70
     0
  9
$DIMJOGANG
 40
0.7853981633974483
  9
$DIMTFILL
 70
     0
  9
$DIMTFILLCLR
 70
     0
  9
$DIMARCSYM
 70
     0
  9
$DIMLTYPE
  6

  9
$DIMLTEX1
  6

  9
$DIMLTEX2
  6

  9
$DIMTXTDIRECTION
 70
     0
  9
$LUNITS
 70
     2
  9
$LUPREC
 70
     4
  9
$SKETCHINC
 40
0.1
  9
$FILLETRAD
 40
0.5
  9
$AUNITS
 70
     0
  9
$AUPREC
 70
     0
  9
$MENU
  1
.
  9
$ELEVATION
 40
0.0
  9
$PELEVATION
 40
0.0
  9
$THICKNESS
 40
0.0
  9
$LIMCHECK
 70
     0
  9
$CHAMFERA
 40
0.5
  9
$CHAMFERB
 40
0.5
  9
$CHAMFERC
 40
1.0
  9
$CHAMFERD
 40
0.0
  9
$SKPOLY
 70
     0
  9
$TDCREATE
 40
2457917.585810185
  9
$TDUCREATE
 40
2457917.210810185
  9
$TDUPDATE
 40
2457917.585810185
  9
$TDUUPDATE
 40
2457917.210810185
  9
$TDINDWG
 40
0.0000000116
  9
$TDUSRTIMER
 40
0.0000000116
  9
$USRTIMER
 70
     1
  9
$ANGBASE
 50
0.0
  9
$ANGDIR
 70
     0
  9
$PDMODE
 70
     0
  9
$PDSIZE
 40
0.0
  9
$PLINEWID
 40
0.0
  9
$SPLFRAME
 70
     0
  9
$SPLINETYPE
 70
     6
  9
$SPLINESEGS
 70
     8
  9
$HANDSEED
  5
E6
  9
$SURFTAB1
 70
     6
  9
$SURFTAB2
 70
     6
  9
$SURFTYPE
 70
     6
  9
$SURFU
 70
     6
  9
$SURFV
 70
     6
  9
$UCSBASE
  2

  9
$UCSNAME
  2

  9
$UCSORG
 10
0.0
 20
0.0
 30
0.0
  9
$UCSXDIR
 10
1.0
 20
0.0
 30
0.0
  9
$UCSYDIR
 10
0.0
 20
1.0
 30
0.0
  9
$UCSORTHOREF
  2

  9
$UCSORTHOVIEW
 70
     0
  9
$UCSORGTOP
 10
0.0
 20
0.0
 30
0.0
  9
$UCSORGBOTTOM
 10
0.0
 20
0.0
 30
0.0
  9
$UCSORGLEFT
 10
0.0
 20
0.0
 30
0.0
  9
$UCSORGRIGHT
 10
0.0
 20
0.0
 30
0.0
  9
$UCSORGFRONT
 10
0.0
 20
0.0
 30
0.0
  9
$UCSORGBACK
 10
0.0
 20
0.0
 30
0.0
  9
$PUCSBASE
  2

  9
$PUCSNAME
  2

  9
$PUCSORG
 10
0.0
 20
0.0
 30
0.0
  9
$PUCSXDIR
 10
1.0
 20
0.0
 30
0.0
  9
$PUCSYDIR
 10
0.0
 20
1.0
 30
0.0
  9
$PUCSORTHOREF
  2

  9
$PUCSORTHOVIEW
 70
     0
  9
$PUCSORGTOP
 10
0.0
 20
0.0
 30
0.0
  9
$PUCSORGBOTTOM
 10
0.0
 20
0.0
 30
0.0
  9
$PUCSORGLEFT
 10
0.0
 20
0.0
 30
0.0
  9
$PUCSORGRIGHT
 10
0.0
 20
0.0
 30
0.0
  9
$PUCSORGFRONT
 10
0.0
 20
0.0
 30
0.0
  9
$PUCSORGBACK
 10
0.0
 20
0.0
 30
0.0
  9
$USERI1
 70
     0
  9
$USERI2
 70
     0
  9
$USERI3
 70
     0
  9
$USERI4
 70
     0
  9
$USERI5
 70
     0
  9
$USERR1
 40
0.0
  9
$USERR2
 40
0.0
  9
$USERR3
 40
0.0
  9
$USERR4
 40
0.0
  9
$USERR5
 40
0.0
  9
$WORLDVIEW
 70
     1
  9
$SHADEDGE
 70
     3
  9
$SHADEDIF
 70
    70
  9
$TILEMODE
 70
     1
  9
$MAXACTVP
 70
    64
  9
$PINSBASE
 10
0.0
 20
0.0
 30
0.0
  9
$PLIMCHECK
 70
     0
  9
$PEXTMIN
 10
1.000000000000000E+20
 20
1.000000000000000E+20
 30
1.000000000000000E+20
  9
$PEXTMAX
 10
-1.000000000000000E+20
 20
-1.000000000000000E+20
 30
-1.000000000000000E+20
  9
$PLIMMIN
 10
0.0
 20
0.0
  9
$PLIMMAX
 10
12.0
 20
9.0
  9
$UNITMODE
 70
     0
  9
$VISRETAIN
 70
     1
  9
$PLINEGEN
 70
     0
  9
$PSLTSCALE
 70
     1
  9
$TREEDEPTH
 70
  3020
  9
$CMLSTYLE
  2
Standard
  9
$CMLJUST
 70
     0
  9
$CMLSCALE
 40
1.0
  9
$PROXYGRAPHICS
 70
     1
  9
$MEASUREMENT
 70
     0
  9
$CELWEIGHT
370
    -1
  9
$ENDCAPS
280
     0
  9
$JOINSTYLE
280
     0
  9
$LWDISPLAY
290
     1
  9
$INSUNITS
 70
     1
  9
$HYPERLINKBASE
  1

  9
$STYLESHEET
  1

  9
$XEDIT
290
     1
  9
$CEPSNTYPE
380
     0
  9
$PSTYLEMODE
290
     1
  9
$FINGERPRINTGUID
  2
{F9ED0212-83B8-CE51-E2EE-8421BF931496}
  9
$VERSIONGUID
  2
{FAEB1C32-E019-11D5-929B-00C0DF256EC4}
  9
$EXTNAMES
290
     1
  9
$PSVPSCALE
 40
0.0
  9
$OLESTARTUP
290
     0
  9
$SORTENTS
280
   127
  9
$INDEXCTL
280
     0
  9
$HIDETEXT
280
     1
  9
$XCLIPFRAME
280
     2
  9
$HALOGAP
280
     0
  9
$OBSCOLOR
 70
   257
  9
$OBSLTYPE
280
     0
  9
$INTERSECTIONDISPLAY
280
     0
  9
$INTERSECTIONCOLOR
 70
   257
  9
$DIMASSOC
280
     2
  9
$PROJECTNAME
  1

  9
$CAMERADISPLAY
290
     0
  9
$LENSLENGTH
 40
50.0
  9
$CAMERAHEIGHT
 40
0.0
  9
$STEPSPERSEC
 40
2.0
  9
$STEPSIZE
 40
6.0
  9
$3DDWFPREC
 40
2.0
  9
$PSOLWIDTH
 40
0.25
  9
$PSOLHEIGHT
 40
4.0
  9
$LOFTANG1
 40
1.570796326794897
  9
$LOFTANG2
 40
1.570796326794897
  9
$LOFTMAG1
 40
0.0
  9
$LOFTMAG2
 40
0.0
  9
$LOFTPARAM
 70
     7
  9
$LOFTNORMALS
280
     1
  9
$LATITUDE
 40
37.795
  9
$LONGITUDE
 40
-122.394
  9
$NORTHDIRECTION
 40
0.0
  9
$TIMEZONE
 70
 -8000
  9
$LIGHTGLYPHDISPLAY
280
     1
  9
$TILEMODELIGHTSYNCH
280
     1
  9
$CMATERIAL
347
3C
  9
$SOLIDHIST
280
     1
  9
$SHOWHIST
280
     1
  9
$DWFFRAME
280
     2
  9
$DGNFRAME
280
     2
  9
$REALWORLDSCALE
290
     1
  9
$INTERFERECOLOR
 62
   256
  9
$CSHADOW
280
     0
  9
$SHADOWPLANELOCATION
 40
0.0
  0
ENDSEC
  0
SECTION
  2
CLASSES
  0
CLASS
  1
ACDBDICTIONARYWDFLT
  2
AcDbDictionaryWithDefault
  3
ObjectDBX Classes
 90
        0
 91
        4
280
     0
281
     0
  0
CLASS
  1
VISUALSTYLE
  2
AcDbVisualStyle
  3
ObjectDBX Classes
 90
     4095
 91
        4
280
     0
281
     0
  0
CLASS
  1
MATERIAL
  2
AcDbMaterial
  3
ObjectDBX Classes
 90
     1153
 91
        4
280
     0
281
     0
  0
CLASS
  1
SUN
  2
AcDbSun
  3
SCENEOE
 90
     1024
 91
        4
280
     0
281
     0
  0
ENDSEC
  0
SECTION
  2
TABLES
  0
TABLE
  2
VPORT
  5
8
330
0
100
AcDbSymbolTable
 70
     1
  0
VPORT
  5
29
330
8
100
AcDbSymbolTableRecord
100
AcDbViewportTableRecord
  2
*Active
 70
     0
 10
0.0
 20
0.0
 11
1.0
 21
1.0
 12
0.0
 22
0.0
 13
0.0
 23
0.0
 14
0.5
 24
0.5
 15
0.5
 25
0.5
 16
0.0
 26
0.0
 36
1.0
 17
91.00082462281999
 27
-128.4993055234307
 37
0.0
 40
256.9986110468615
 41
0.7081814508812795
 42
50.0
 43
0.0
 44
0.0
 50
0.0
 51
0.0
 71
     0
 72
   100
 73
     1
 74
     3
 75
     0
 76
     0
 77
     0
 78
     0
281
     0
 65
     1
110
0.0
120
0.0
130
0.0
111
1.0
121
0.0
131
0.0
112
0.0
122
1.0
132
0.0
 79
     0
146
0.0
 60
     3
 61
     5
292
     1
282
     1
141
0.0
142
0.0
 63
   250
361
3F
  0
ENDTAB
  0
TABLE
  2
LTYPE
  5
5
330
0
100
AcDbSymbolTable
 70
     1
  0
LTYPE
  5
14
330
5
100
AcDbSymbolTableRecord
100
AcDbLinetypeTableRecord
  2
ByBlock
 70
     0
  3

 72
    65
 73
     0
 40
0.0
  0
LTYPE
  5
15
330
5
100
AcDbSymbolTableRecord
100
AcDbLinetypeTableRecord
  2
ByLayer
 70
     0
  3

 72
    65
 73
     0
 40
0.0
  0
LTYPE
  5
16
330
5
100
AcDbSymbolTableRecord
100
AcDbLinetypeTableRecord
  2
Continuous
 70
     0
  3
Solid line
 72
    65
 73
     0
 40
0.0
  0
ENDTAB
  0
TABLE
  2
LAYER
  5
2
330
0
100
AcDbSymbolTable
 70
     2
  0
LAYER
  5
10
330
2
100
AcDbSymbolTableRecord
100
AcDbLayerTableRecord
  2
0
 70
     0
 62
     7
  6
Continuous
370
    -3
390
F
347
3E
  0
LAYER
  5
40
330
2
100
AcDbSymbolTableRecord
100
AcDbLayerTableRecord
  2
_U+30EC_U+30A4_U+30E4_U+30FC 1
 70
     0
 62
     7
  6
Continuous
370
    -3
390
F
347
3E
  0
ENDTAB
  0
TABLE
  2
STYLE
  5
3
330
0
100
AcDbSymbolTable
 70
     1
  0
STYLE
  5
11
330
3
100
AcDbSymbolTableRecord
100
AcDbTextStyleTableRecord
  2
Standard
 70
     0
 40
0.0
 41
1.0
 50
0.0
 71
     0
 42
0.2
  3
txt
  4

  0
ENDTAB
  0
TABLE
  2
VIEW
  5
6
330
0
100
AcDbSymbolTable
 70
     0
  0
ENDTAB
  0
TABLE
  2
UCS
  5
7
330
0
100
AcDbSymbolTable
 70
     0
  0
ENDTAB
  0
TABLE
  2
APPID
  5
9
330
0
100
AcDbSymbolTable
 70
     1
  0
APPID
  5
12
330
9
100
AcDbSymbolTableRecord
100
AcDbRegAppTableRecord
  2
ACAD
 70
     0
  0
ENDTAB
  0
TABLE
  2
DIMSTYLE
  5
A
330
0
100
AcDbSymbolTable
 70
     1
100
AcDbDimStyleTable
  0
DIMSTYLE
105
27
330
A
100
AcDbSymbolTableRecord
100
AcDbDimStyleTableRecord
  2
Standard
 70
     0
178
     0
340
11
  0
ENDTAB
  0
TABLE
  2
BLOCK_RECORD
  5
1
330
0
100
AcDbSymbolTable
 70
     5
  0
BLOCK_RECORD
  5
1F
330
1
100
AcDbSymbolTableRecord
100
AcDbBlockTableRecord
  2
*Model_Space
340
22
 70
     0
280
     1
281
     0
  0
BLOCK_RECORD
  5
1B
330
1
100
AcDbSymbolTableRecord
100
AcDbBlockTableRecord
  2
*Paper_Space
340
1E
 70
     0
280
     1
281
     0
  0
BLOCK_RECORD
  5
23
330
1
100
AcDbSymbolTableRecord
100
AcDbBlockTableRecord
  2
*Paper_Space0
340
26
 70
     0
280
     1
281
     0
  0
BLOCK_RECORD
  5
41
330
1
100
AcDbSymbolTableRecord
100
AcDbBlockTableRecord
  2
block 2
340
0
102
{BLKREFS
331
42
102
}
 70
     0
280
     1
281
     0
  0
BLOCK_RECORD
  5
59
330
1
100
AcDbSymbolTableRecord
100
AcDbBlockTableRecord
  2
block 3
340
0
102
{BLKREFS
331
5A
102
}
 70
     0
280
     1
281
     0
  0
BLOCK_RECORD
  5
B3
330
1
100
AcDbSymbolTableRecord
100
AcDbBlockTableRecord
  2
block 4
340
0
102
{BLKREFS
331
B4
102
}
 70
     0
280
     1
281
     0
  0
BLOCK_RECORD
  5
CD
330
1
100
AcDbSymbolTableRecord
100
AcDbBlockTableRecord
  2
block 5
340
0
102
{BLKREFS
331
CE
102
}
 70
     0
280
     1
281
     0
  0
ENDTAB
  0
ENDSEC
  0
SECTION
  2
BLOCKS
  0
BLOCK
  5
20
330
1F
100
AcDbEntity
  8
0
100
AcDbBlockBegin
  2
*Model_Space
 70
     0
 10
0.0
 20
0.0
 30
0.0
  3
*Model_Space
  1

  0
ENDBLK
  5
21
330
1F
100
AcDbEntity
  8
0
100
AcDbBlockEnd
  0
BLOCK
  5
1C
330
1B
100
AcDbEntity
 67
     1
  8
0
100
AcDbBlockBegin
  2
*Paper_Space
 70
     0
 10
0.0
 20
0.0
 30
0.0
  3
*Paper_Space
  1

  0
ENDBLK
  5
1D
330
1B
100
AcDbEntity
 67
     1
  8
0
100
AcDbBlockEnd
  0
BLOCK
  5
24
330
23
100
AcDbEntity
  8
0
100
AcDbBlockBegin
  2
*Paper_Space0
 70
     0
 10
0.0
 20
0.0
 30
0.0
  3
*Paper_Space0
  1

  0
ENDBLK
  5
25
330
23
100
AcDbEntity
  8
0
100
AcDbBlockEnd
  0
BLOCK
  5
43
330
41
100
AcDbEntity
  8
0
100
AcDbBlockBegin
  2
block 2
 70
     0
 10
0.0
 20
0.0
 30
0.0
  3
block 2
  1

  0
POLYLINE
  5
45
330
41
100
AcDbEntity
  8
_U+30EC_U+30A4_U+30E4_U+30FC 1
 62
   179
420
  2234388
370
     9
100
AcDb2dPolyline
 66
     1
 10
0.0
 20
0.0
 30
0.0
  0
VERTEX
  5
46
330
45
100
AcDbEntity
  8
_U+30EC_U+30A4_U+30E4_U+30FC 1
 62
   179
420
  2234388
370
     9
100
AcDbVertex
100
AcDb2dVertex
 10
90.86130101526842
 20
-122.5212038582588
 30
0.0
  0
VERTEX
  5
47
330
45
100
AcDbEntity
  8
_U+30EC_U+30A4_U+30E4_U+30FC 1
 62
   179
420
  2234388
370
     9
100
AcDbVertex
100
AcDb2dVertex
 10
90.86130101526842
 20
-128.4033499678992
 30
0.0
  0
SEQEND
  5
48
330
45
100
AcDbEntity
  8
_U+30EC_U+30A4_U+30E4_U+30FC 1
 62
   179
420
  2234388
370
     9
  0
POLYLINE
  5
49
330
41
100
AcDbEntity
  8
_U+30EC_U+30A4_U+30E4_U+30FC 1
 62
   179
420
  2234388
370
    25
100
AcDb2dPolyline
 66
     1
 10
0.0
 20
0.0
 30
0.0
  0
VERTEX
  5
4A
330
49
100
AcDbEntity
  8
_U+30EC_U+30A4_U+30E4_U+30FC 1
 62
   179
420
  2234388
370
    25
100
AcDbVertex
100
AcDb2dVertex
 10
86.68550584402406
 20
-131.6060783004318
 30
0.0
  0
VERTEX
  5
4B
330
49
100
AcDbEntity
  8
_U+30EC_U+30A4_U+30E4_U+30FC 1
 62
   179
420
  2234388
370
    25
100
AcDbVertex
100
AcDb2dVertex
 10
87.05616944567875
 20
-132.7478083001463
 30
0.0
  0
SEQEND
  5
4C
330
49
100
AcDbEntity
  8
_U+30EC_U+30A4_U+30E4_U+30FC 1
 62
   179
420
  2234388
370
    25
  0
POLYLINE
  5
4D
330
41
100
AcDbEntity
  8
_U+30EC_U+30A4_U+30E4_U+30FC 1
 62
   179
420
  2234388
370
     9
100
AcDb2dPolyline
 66
     1
 10
0.0
 20
0.0
 30
0.0
  0
VERTEX
  5
4E
330
4D
100
AcDbEntity
  8
_U+30EC_U+30A4_U+30E4_U+30FC 1
 62
   179
420
  2234388
370
     9
100
AcDbVertex
100
AcDb2dVertex
 10
90.53057185703936
 20
-127.1684513570968
 30
0.0
  0
VERTEX
  5
4F
330
4D
100
AcDbEntity
  8
_U+30EC_U+30A4_U+30E4_U+30FC 1
 62
   179
420
  2234388
370
     9
100
AcDbVertex
100
AcDb2dVertex
 10
90.86130101526842
 20
-128.4033499678992
 30
0.0
  0
SEQEND
  5
50
330
4D
100
AcDbEntity
  8
_U+30EC_U+30A4_U+30E4_U+30FC 1
 62
   179
420
  2234388
370
     9
  0
POLYLINE
  5
51
330
41
100
AcDbEntity
  8
_U+30EC_U+30A4_U+30E4_U+30FC 1
 62
   179
420
  2234388
370
     9
100
AcDb2dPolyline
 66
     1
 10
0.0
 20
0.0
 30
0.0
  0
VERTEX
  5
52
330
51
100
AcDbEntity
  8
_U+30EC_U+30A4_U+30E4_U+30FC 1
 62
   179
420
  2234388
370
     9
100
AcDbVertex
100
AcDb2dVertex
 10
91.19203017349749
 20
-127.1684513570968
 30
0.0
  0
VERTEX
  5
53
330
51
100
AcDbEntity
  8
_U+30EC_U+30A4_U+30E4_U+30FC 1
 62
   179
420
  2234388
370
     9
100
AcDbVertex
100
AcDb2dVertex
 10
90.86130101526842
 20
-128.4033499678992
 30
0.0
  0
SEQEND
  5
54
330
51
100
AcDbEntity
  8
_U+30EC_U+30A4_U+30E4_U+30FC 1
 62
   179
420
  2234388
370
     9
  0
SPLINE
  5
55
330
41
100
AcDbEntity
  8
_U+30EC_U+30A4_U+30E4_U+30FC 1
 62
   179
420
  2234388
370
     9
100
AcDbSpline
210
0.0
220
0.0
230
1.0
 70
    11
 71
     3
 72
    17
 73
    13
 74
     0
 42
0.0000000001
 43
0.0000000001
 12
1.0
 22
0.0
 32
0.0
 13
1.0
 23
0.0
 33
0.0
 40
0.0
 40
0.0
 40
0.0
 40
0.0
 40
1.0
 40
1.0
 40
1.0
 40
2.0
 40
2.0
 40
2.0
 40
3.0
 40
3.0
 40
3.0
 40
4.0
 40
4.0
 40
4.0
 40
4.0
 10
88.85625553334157
 20
-125.3522102464397
 30
0.0
 10
88.85625553334157
 20
-125.2809138575688
 30
0.0
 10
88.79906801232481
 20
-125.2236933020273
 30
0.0
 10
88.72875940300743
 20
-125.2236933020273
 30
0.0
 10
88.65848607146691
 20
-125.2236933020273
 30
0.0
 10
88.60063051738737
 20
-125.2809138575688
 30
0.0
 10
88.60063051738737
 20
-125.3522102464397
 30
0.0
 10
88.60063051738737
 20
-125.4226599686444
 30
0.0
 10
88.65848607146691
 20
-125.4798452464077
 30
0.0
 10
88.72875940300743
 20
-125.4798452464077
 30
0.0
 10
88.79906801232481
 20
-125.4798452464077
 30
0.0
 10
88.85625553334157
 20
-125.4226599686444
 30
0.0
 10
88.85625553334157
 20
-125.3522102464397
 30
0.0
  0
HATCH
  5
56
330
41
100
AcDbEntity
  8
_U+30EC_U+30A4_U+30E4_U+30FC 1
 62
   179
420
  2234388
100
AcDbHatch
 10
0.0
 20
0.0
 30
0.0
210
0.0
220
0.0
230
1.0
  2
SOLID
 70
     1
 71
     0
 91
        1
 92
        1
 93
        1
 72
     4
 94
        3
 73
     0
 74
     1
 95
       17
 96
       13
 40
0.0
 40
0.0
 40
0.0
 40
0.0
 40
1.0
 40
1.0
 40
1.0
 40
2.0
 40
2.0
 40
2.0
 40
3.0
 40
3.0
 40
3.0
 40
4.0
 40
4.0
 40
4.0
 40
4.0
 10
88.85625553334157
 20
-125.3522102464397
 10
88.85625553334157
 20
-125.2809138575688
 10
88.79906801232481
 20
-125.2236933020273
 10
88.72875940300743
 20
-125.2236933020273
 10
88.65848607146691
 20
-125.2236933020273
 10
88.60063051738737
 20
-125.2809138575688
 10
88.60063051738737
 20
-125.3522102464397
 10
88.60063051738737
 20
-125.4226599686444
 10
88.65848607146691
 20
-125.4798452464077
 10
88.72875940300743
 20
-125.4798452464077
 10
88.79906801232481
 20
-125.4798452464077
 10
88.85625553334157
 20
-125.4226599686444
 10
88.85625553334157
 20
-125.3522102464397
 97
        0
 97
        0
 75
     2
 76
     1
 98
        0
  0
SPLINE
  5
57
330
41
100
AcDbEntity
  8
_U+30EC_U+30A4_U+30E4_U+30FC 1
 62
   179
420
  2234388
370
     9
100
AcDbSpline
210
0.0
220
0.0
230
1.0
 70
    11
 71
     3
 72
    17
 73
    13
 74
     0
 42
0.0000000001
 43
0.0000000001
 12
1.0
 22
0.0
 32
0.0
 13
1.0
 23
0.0
 33
0.0
 40
0.0
 40
0.0
 40
0.0
 40
0.0
 40
1.0
 40
1.0
 40
1.0
 40
2.0
 40
2.0
 40
2.0
 40
3.0
 40
3.0
 40
3.0
 40
4.0
 40
4.0
 40
4.0
 40
4.0
 10
64.99207195302522
 20
-132.9386610778767
 30
0.0
 10
64.99207195302522
 20
-132.8676821890051
 30
0.0
 10
64.9341811211688
 20
-132.8104969112418
 30
0.0
 10
64.86390778962829
 20
-132.8104969112418
 30
0.0
 10
64.79363609491284
 20
-132.8104969112418
 30
0.0
 10
64.73644918176892
 20
-132.8676821890051
 30
0.0
 10
64.73644918176892
 20
-132.9386610778767
 30
0.0
 10
64.73644918176892
 20
-133.0089344111922
 30
0.0
 10
64.79363609491284
 20
-133.0661196889555
 30
0.0
 10
64.86390778962829
 20
-133.0661196889555
 30
0.0
 10
64.9341811211688
 20
-133.0661196889555
 30
0.0
 10
64.99207195302522
 20
-133.0089344111922
 30
0.0
 10
64.99207195302522
 20
-132.9386610778767
 30
0.0
  0
HATCH
  5
58
330
41
100
AcDbEntity
  8
_U+30EC_U+30A4_U+30E4_U+30FC 1
 62
   179
420
  2234388
100
AcDbHatch
 10
0.0
 20
0.0
 30
0.0
210
0.0
220
0.0
230
1.0
  2
SOLID
 70
     1
 71
     0
 91
        1
 92
        1
 93
        1
 72
     4
 94
        3
 73
     0
 74
     1
 95
       17
 96
       13
 40
0.0
 40
0.0
 40
0.0
 40
0.0
 40
1.0
 40
1.0
 40
1.0
 40
2.0
 40
2.0
 40
2.0
 40
3.0
 40
3.0
 40
3.0
 40
4.0
 40
4.0
 40
4.0
 40
4.0
 10
64.99207195302522
 20
-132.9386610778767
 10
64.99207195302522
 20
-132.8676821890051
 10
64.9341811211688
 20
-132.8104969112418
 10
64.86390778962829
 20
-132.8104969112418
 10
64.79363609491284
 20
-132.8104969112418
 10
64.73644918176892
 20
-132.8676821890051
 10
64.73644918176892
 20
-132.9386610778767
 10
64.73644918176892
 20
-133.0089344111922
 10
64.79363609491284
 20
-133.0661196889555
 10
64.86390778962829
 20
-133.0661196889555
 10
64.9341811211688
 20
-133.0661196889555
 10
64.99207195302522
 20
-133.0089344111922
 10
64.99207195302522
 20
-132.9386610778767
 97
        0
 97
        0
 75
     2
 76
     1
 98
        0
  0
INSERT
  5
5A
330
41
100
AcDbEntity
  8
_U+30EC_U+30A4_U+30E4_U+30FC 1
100
AcDbBlockReference
  2
block 3
 10
0.0
 20
0.0
 30
0.0
  0
INSERT
  5
B4
330
41
100
AcDbEntity
  8
_U+30EC_U+30A4_U+30E4_U+30FC 1
100
AcDbBlockReference
  2
block 4
 10
0.0
 20
0.0
 30
0.0
  0
POLYLINE
  5
BB
330
41
100
AcDbEntity
  8
_U+30EC_U+30A4_U+30E4_U+30FC 1
 62
   179
420
  2234388
370
     9
100
AcDb2dPolyline
 66
     1
 10
0.0
 20
0.0
 30
0.0
  0
VERTEX
  5
BC
330
BB
100
AcDbEntity
  8
_U+30EC_U+30A4_U+30E4_U+30FC 1
 62
   179
420
  2234388
370
     9
100
AcDbVertex
100
AcDb2dVertex
 10
88.72875940300743
 20
-125.3522102464397
 30
0.0
  0
VERTEX
  5
BD
330
BB
100
AcDbEntity
  8
_U+30EC_U+30A4_U+30E4_U+30FC 1
 62
   179
420
  2234388
370
     9
100
AcDbVertex
100
AcDb2dVertex
 10
64.8637314007439
 20
-132.9193641334369
 30
0.0
  0
SEQEND
  5
BE
330
BB
100
AcDbEntity
  8
_U+30EC_U+30A4_U+30E4_U+30FC 1
 62
   179
420
  2234388
370
     9
  0
POLYLINE
  5
BF
330
41
100
AcDbEntity
  8
_U+30EC_U+30A4_U+30E4_U+30FC 1
 62
   179
420
  2234388
370
     9
100
AcDb2dPolyline
 66
     1
 10
0.0
 20
0.0
 30
0.0
  0
VERTEX
  5
C0
330
BF
100
AcDbEntity
  8
_U+30EC_U+30A4_U+30E4_U+30FC 1
 62
   179
420
  2234388
370
     9
100
AcDbVertex
100
AcDb2dVertex
 10
89.87669826260995
 20
-128.9574933010941
 30
0.0
  0
VERTEX
  5
C1
330
BF
100
AcDbEntity
  8
_U+30EC_U+30A4_U+30E4_U+30FC 1
 62
   179
420
  2234388
370
     9
100
AcDbVertex
100
AcDb2dVertex
 10
88.340847200137
 20
-124.1340333022999
 30
0.0
  0
SEQEND
  5
C2
330
BF
100
AcDbEntity
  8
_U+30EC_U+30A4_U+30E4_U+30FC 1
 62
   179
420
  2234388
370
     9
  0
SPLINE
  5
C3
330
41
100
AcDbEntity
  8
_U+30EC_U+30A4_U+30E4_U+30FC 1
 62
   179
420
  2234388
370
     9
100
AcDbSpline
210
0.0
220
0.0
230
1.0
 70
    11
 71
     3
 72
    17
 73
    13
 74
     0
 42
0.0000000001
 43
0.0000000001
 12
1.0
 22
0.0
 32
0.0
 13
1.0
 23
0.0
 33
0.0
 40
0.0
 40
0.0
 40
0.0
 40
0.0
 40
1.0
 40
1.0
 40
1.0
 40
2.0
 40
2.0
 40
2.0
 40
3.0
 40
3.0
 40
3.0
 40
4.0
 40
4.0
 40
4.0
 40
4.0
 10
92.86666624188507
 20
-125.3522102464397
 30
0.0
 10
92.86666624188507
 20
-125.2809138575688
 30
0.0
 10
92.9238867959808
 20
-125.2236933020273
 30
0.0
 10
92.99416012752133
 20
-125.2236933020273
 30
0.0
 10
93.06443345906183
 20
-125.2236933020273
 30
0.0
 10
93.12232429091824
 20
-125.2809138575688
 30
0.0
 10
93.12232429091824
 20
-125.3522102464397
 30
0.0
 10
93.12232429091824
 20
-125.4226599686444
 30
0.0
 10
93.06443345906183
 20
-125.4798452464077
 30
0.0
 10
92.99416012752133
 20
-125.4798452464077
 30
0.0
 10
92.9238867959808
 20
-125.4798452464077
 30
0.0
 10
92.86666624188507
 20
-125.4226599686444
 30
0.0
 10
92.86666624188507
 20
-125.3522102464397
 30
0.0
  0
HATCH
  5
C4
330
41
100
AcDbEntity
  8
_U+30EC_U+30A4_U+30E4_U+30FC 1
 62
   179
420
  2234388
100
AcDbHatch
 10
0.0
 20
0.0
 30
0.0
210
0.0
220
0.0
230
1.0
  2
SOLID
 70
     1
 71
     0
 91
        1
 92
        1
 93
        1
 72
     4
 94
        3
 73
     0
 74
     1
 95
       17
 96
       13
 40
0.0
 40
0.0
 40
0.0
 40
0.0
 40
1.0
 40
1.0
 40
1.0
 40
2.0
 40
2.0
 40
2.0
 40
3.0
 40
3.0
 40
3.0
 40
4.0
 40
4.0
 40
4.0
 40
4.0
 10
92.86666624188507
 20
-125.3522102464397
 10
92.86666624188507
 20
-125.2809138575688
 10
92.9238867959808
 20
-125.2236933020273
 10
92.99416012752133
 20
-125.2236933020273
 10
93.06443345906183
 20
-125.2236933020273
 10
93.12232429091824
 20
-125.2809138575688
 10
93.12232429091824
 20
-125.3522102464397
 10
93.12232429091824
 20
-125.4226599686444
 10
93.06443345906183
 20
-125.4798452464077
 10
92.99416012752133
 20
-125.4798452464077
 10
92.9238867959808
 20
-125.4798452464077
 10
92.86666624188507
 20
-125.4226599686444
 10
92.86666624188507
 20
-125.3522102464397
 97
        0
 97
        0
 75
     2
 76
     1
 98
        0
  0
POLYLINE
  5
C5
330
41
100
AcDbEntity
  8
_U+30EC_U+30A4_U+30E4_U+30FC 1
 62
   179
420
  2234388
370
     9
100
AcDb2dPolyline
 66
     1
 10
0.0
 20
0.0
 30
0.0
  0
VERTEX
  5
C6
330
C5
100
AcDbEntity
  8
_U+30EC_U+30A4_U+30E4_U+30FC 1
 62
   179
420
  2234388
370
     9
100
AcDbVertex
100
AcDb2dVertex
 10
91.84625654569567
 20
-128.9574933010941
 30
0.0
  0
VERTEX
  5
C7
330
C5
100
AcDbEntity
  8
_U+30EC_U+30A4_U+30E4_U+30FC 1
 62
   179
420
  2234388
370
     9
100
AcDbVertex
100
AcDb2dVertex
 10
93.38207456206925
 20
-124.1340333022999
 30
0.0
  0
SEQEND
  5
C8
330
C5
100
AcDbEntity
  8
_U+30EC_U+30A4_U+30E4_U+30FC 1
 62
   179
420
  2234388
370
     9
  0
POLYLINE
  5
C9
330
41
100
AcDbEntity
  8
_U+30EC_U+30A4_U+30E4_U+30FC 1
 62
   179
420
  2234388
370
     9
100
AcDb2dPolyline
 66
     1
 10
0.0
 20
0.0
 30
0.0
  0
VERTEX
  5
CA
330
C9
100
AcDbEntity
  8
_U+30EC_U+30A4_U+30E4_U+30FC 1
 62
   179
420
  2234388
370
     9
100
AcDbVertex
100
AcDb2dVertex
 10
65.43131555293029
 20
-134.6356985774523
 30
0.0
  0
VERTEX
  5
CB
330
C9
100
AcDbEntity
  8
_U+30EC_U+30A4_U+30E4_U+30FC 1
 62
   179
420
  2234388
370
     9
100
AcDbVertex
100
AcDb2dVertex
 10
64.47772196614739
 20
-131.6391688559792
 30
0.0
  0
SEQEND
  5
CC
330
C9
100
AcDbEntity
  8
_U+30EC_U+30A4_U+30E4_U+30FC 1
 62
   179
420
  2234388
370
     9
  0
INSERT
  5
CE
330
41
100
AcDbEntity
  8
_U+30EC_U+30A4_U+30E4_U+30FC 1
100
AcDbBlockReference
  2
block 5
 10
0.0
 20
0.0
 30
0.0
  0
POLYLINE
  5
D5
330
41
100
AcDbEntity
  8
_U+30EC_U+30A4_U+30E4_U+30FC 1
 62
   179
420
  2234388
370
    25
100
AcDb2dPolyline
 66
     1
 10
0.0
 20
0.0
 30
0.0
  0
VERTEX
  5
D6
330
D5
100
AcDbEntity
  8
_U+30EC_U+30A4_U+30E4_U+30FC 1
 62
   179
420
  2234388
370
    25
100
AcDbVertex
100
AcDb2dVertex
 10
95.02951386513152
 20
-131.6460480226443
 30
0.0
  0
VERTEX
  5
D7
330
D5
100
AcDbEntity
  8
_U+30EC_U+30A4_U+30E4_U+30FC 1
 62
   179
420
  2234388
370
    25
100
AcDbVertex
100
AcDb2dVertex
 10
94.66914897367768
 20
-132.7381421890379
 30
0.0
  0
SEQEND
  5
D8
330
D5
100
AcDbEntity
  8
_U+30EC_U+30A4_U+30E4_U+30FC 1
 62
   179
420
  2234388
370
    25
  0
SPLINE
  5
D9
330
41
100
AcDbEntity
  8
_U+30EC_U+30A4_U+30E4_U+30FC 1
 62
   179
420
  2234388
370
     9
100
AcDbSpline
210
0.0
220
0.0
230
1.0
 70
    11
 71
     3
 72
    17
 73
    13
 74
     0
 42
0.0000000001
 43
0.0000000001
 12
1.0
 22
0.0
 32
0.0
 13
1.0
 23
0.0
 33
0.0
 40
0.0
 40
0.0
 40
0.0
 40
0.0
 40
1.0
 40
1.0
 40
1.0
 40
2.0
 40
2.0
 40
2.0
 40
3.0
 40
3.0
 40
3.0
 40
4.0
 40
4.0
 40
4.0
 40
4.0
 10
116.6970867450315
 20
-132.9531249667617
 30
0.0
 10
116.6970867450315
 20
-132.8828516334463
 30
0.0
 10
116.7549805263671
 20
-132.8256663556823
 30
0.0
 10
116.8252509084284
 20
-132.8256663556823
 30
0.0
 10
116.8955242399689
 20
-132.8256663556823
 30
0.0
 10
116.9527095162878
 20
-132.8828516334463
 30
0.0
 10
116.9527095162878
 20
-132.9531249667617
 30
0.0
 10
116.9527095162878
 20
-133.0241038556327
 30
0.0
 10
116.8955242399689
 20
-133.0812891333967
 30
0.0
 10
116.8252509084284
 20
-133.0812891333967
 30
0.0
 10
116.7549805263671
 20
-133.0812891333967
 30
0.0
 10
116.6970867450315
 20
-133.0241038556327
 30
0.0
 10
116.6970867450315
 20
-132.9531249667617
 30
0.0
  0
HATCH
  5
DA
330
41
100
AcDbEntity
  8
_U+30EC_U+30A4_U+30E4_U+30FC 1
 62
   179
420
  2234388
100
AcDbHatch
 10
0.0
 20
0.0
 30
0.0
210
0.0
220
0.0
230
1.0
  2
SOLID
 70
     1
 71
     0
 91
        1
 92
        1
 93
        1
 72
     4
 94
        3
 73
     0
 74
     1
 95
       17
 96
       13
 40
0.0
 40
0.0
 40
0.0
 40
0.0
 40
1.0
 40
1.0
 40
1.0
 40
2.0
 40
2.0
 40
2.0
 40
3.0
 40
3.0
 40
3.0
 40
4.0
 40
4.0
 40
4.0
 40
4.0
 10
116.6970867450315
 20
-132.9531249667617
 10
116.6970867450315
 20
-132.8828516334463
 10
116.7549805263671
 20
-132.8256663556823
 10
116.8252509084284
 20
-132.8256663556823
 10
116.8955242399689
 20
-132.8256663556823
 10
116.9527095162878
 20
-132.8828516334463
 10
116.9527095162878
 20
-132.9531249667617
 10
116.9527095162878
 20
-133.0241038556327
 10
116.8955242399689
 20
-133.0812891333967
 10
116.8252509084284
 20
-133.0812891333967
 10
116.7549805263671
 20
-133.0812891333967
 10
116.6970867450315
 20
-133.0241038556327
 10
116.6970867450315
 20
-132.9531249667617
 97
        0
 97
        0
 75
     2
 76
     1
 98
        0
  0
POLYLINE
  5
DB
330
41
100
AcDbEntity
  8
_U+30EC_U+30A4_U+30E4_U+30FC 1
 62
   179
420
  2234388
370
     9
100
AcDb2dPolyline
 66
     1
 10
0.0
 20
0.0
 30
0.0
  0
VERTEX
  5
DC
330
DB
100
AcDbEntity
  8
_U+30EC_U+30A4_U+30E4_U+30FC 1
 62
   179
420
  2234388
370
     9
100
AcDbVertex
100
AcDb2dVertex
 10
92.99416012752133
 20
-125.3522102464397
 30
0.0
  0
VERTEX
  5
DD
330
DB
100
AcDbEntity
  8
_U+30EC_U+30A4_U+30E4_U+30FC 1
 62
   179
420
  2234388
370
     9
100
AcDbVertex
100
AcDb2dVertex
 10
116.8548842410058
 20
-132.9338280223219
 30
0.0
  0
SEQEND
  5
DE
330
DB
100
AcDbEntity
  8
_U+30EC_U+30A4_U+30E4_U+30FC 1
 62
   179
420
  2234388
370
     9
  0
POLYLINE
  5
DF
330
41
100
AcDbEntity
  8
_U+30EC_U+30A4_U+30E4_U+30FC 1
 62
   179
420
  2234388
370
     9
100
AcDb2dPolyline
 66
     1
 10
0.0
 20
0.0
 30
0.0
  0
VERTEX
  5
E0
330
DF
100
AcDbEntity
  8
_U+30EC_U+30A4_U+30E4_U+30FC 1
 62
   179
420
  2234388
370
     9
100
AcDbVertex
100
AcDb2dVertex
 10
116.2836694153734
 20
-134.6356985774523
 30
0.0
  0
VERTEX
  5
E1
330
DF
100
AcDbEntity
  8
_U+30EC_U+30A4_U+30E4_U+30FC 1
 62
   179
420
  2234388
370
     9
100
AcDbVertex
100
AcDb2dVertex
 10
117.2372953423608
 20
-131.6391688559792
 30
0.0
  0
SEQEND
  5
E2
330
DF
100
AcDbEntity
  8
_U+30EC_U+30A4_U+30E4_U+30FC 1
 62
   179
420
  2234388
370
     9
  0
SPLINE
  5
E3
330
41
100
AcDbEntity
  8
_U+30EC_U+30A4_U+30E4_U+30FC 1
 62
   179
420
  2234388
370
    25
100
AcDbSpline
210
0.0
220
0.0
230
1.0
 70
    11
 71
     3
 72
    35
 73
    31
 74
     0
 42
0.0000000001
 43
0.0000000001
 12
1.0
 22
0.0
 32
0.0
 13
1.0
 23
0.0
 33
0.0
 40
0.0
 40
0.0
 40
0.0
 40
0.0
 40
1.0
 40
1.0
 40
1.0
 40
2.0
 40
2.0
 40
2.0
 40
3.0
 40
3.0
 40
3.0
 40
4.0
 40
4.0
 40
4.0
 40
5.0
 40
5.0
 40
5.0
 40
6.0
 40
6.0
 40
6.0
 40
7.0
 40
7.0
 40
7.0
 40
8.0
 40
8.0
 40
8.0
 40
9.0
 40
9.0
 40
9.0
 40
10.0
 40
10.0
 40
10.0
 40
10.0
 10
90.86161851526032
 20
-130.5746266340228
 30
0.0
 10
91.41904266770591
 20
-130.5746266340228
 30
0.0
 10
91.97717237568907
 20
-130.657988022891
 30
0.0
 10
92.51526664353771
 20
-130.824746078405
 30
0.0
 10
92.51526664353771
 20
-130.824746078405
 30
0.0
 10
115.2067417830534
 20
-137.9388627432929
 30
0.0
 10
115.2067417830534
 20
-137.9388627432929
 30
0.0
 10
115.2067417830534
 20
-137.9388627432929
 30
0.0
 10
115.0496527490154
 20
-138.4342685765024
 30
0.0
 10
115.0496527490154
 20
-138.4342685765024
 30
0.0
 10
115.0496527490154
 20
-138.4342685765024
 30
0.0
 10
91.80695710225383
 20
-131.9898652447804
 30
0.0
 10
91.80695710225383
 20
-131.9898652447804
 30
0.0
 10
91.49690072127515
 20
-131.9099610781335
 30
0.0
 10
91.17925961826774
 20
-131.8692858003661
 30
0.0
 10
90.86161851526032
 20
-131.8692858003661
 30
0.0
 10
90.54401269002979
 20
-131.8692858003661
 30
0.0
 10
90.22619519813799
 20
-131.9099610781335
 30
0.0
 10
89.9164563171512
 20
-131.9898652447804
 30
0.0
 10
89.9164563171512
 20
-131.9898652447804
 30
0.0
 10
66.65467829949749
 20
-138.4012132987331
 30
0.0
 10
66.65467829949749
 20
-138.4012132987331
 30
0.0
 10
66.65467829949749
 20
-138.4012132987331
 30
0.0
 10
66.49705719240762
 20
-137.9058074655235
 30
0.0
 10
66.49705719240762
 20
-137.9058074655235
 30
0.0
 10
66.49705719240762
 20
-137.9058074655235
 30
0.0
 10
89.2081491129994
 20
-130.824746078405
 30
0.0
 10
89.2081491129994
 20
-130.824746078405
 30
0.0
 10
89.74609993260846
 20
-130.657988022891
 30
0.0
 10
90.30387686282283
 20
-130.5746266340228
 30
0.0
 10
90.86161851526032
 20
-130.5746266340228
 30
0.0
  0
ENDBLK
  5
44
330
41
100
AcDbEntity
  8
0
100
AcDbBlockEnd
  0
BLOCK
  5
5B
330
59
100
AcDbEntity
  8
0
100
AcDbBlockBegin
  2
block 3
 70
     0
 10
0.0
 20
0.0
 30
0.0
  3
block 3
  1

  0
SPLINE
  5
5D
330
59
100
AcDbEntity
  8
_U+30EC_U+30A4_U+30E4_U+30FC 1
370
     0
100
AcDbSpline
210
0.0
220
0.0
230
1.0
 70
    11
 71
     3
 72
   197
 73
   193
 74
     0
 42
0.0000000001
 43
0.0000000001
 12
1.0
 22
0.0
 32
0.0
 13
1.0
 23
0.0
 33
0.0
 40
0.0
 40
0.0
 40
0.0
 40
0.0
 40
1.0
 40
1.0
 40
1.0
 40
2.0
 40
2.0
 40
2.0
 40
3.0
 40
3.0
 40
3.0
 40
4.0
 40
4.0
 40
4.0
 40
5.0
 40
5.0
 40
5.0
 40
6.0
 40
6.0
 40
6.0
 40
7.0
 40
7.0
 40
7.0
 40
8.0
 40
8.0
 40
8.0
 40
9.0
 40
9.0
 40
9.0
 40
10.0
 40
10.0
 40
10.0
 40
11.0
 40
11.0
 40
11.0
 40
12.0
 40
12.0
 40
12.0
 40
13.0
 40
13.0
 40
13.0
 40
14.0
 40
14.0
 40
14.0
 40
15.0
 40
15.0
 40
15.0
 40
16.0
 40
16.0
 40
16.0
 40
17.0
 40
17.0
 40
17.0
 40
18.0
 40
18.0
 40
18.0
 40
19.0
 40
19.0
 40
19.0
 40
20.0
 40
20.0
 40
20.0
 40
21.0
 40
21.0
 40
21.0
 40
22.0
 40
22.0
 40
22.0
 40
23.0
 40
23.0
 40
23.0
 40
24.0
 40
24.0
 40
24.0
 40
25.0
 40
25.0
 40
25.0
 40
26.0
 40
26.0
 40
26.0
 40
27.0
 40
27.0
 40
27.0
 40
28.0
 40
28.0
 40
28.0
 40
29.0
 40
29.0
 40
29.0
 40
30.0
 40
30.0
 40
30.0
 40
31.0
 40
31.0
 40
31.0
 40
32.0
 40
32.0
 40
32.0
 40
33.0
 40
33.0
 40
33.0
 40
34.0
 40
34.0
 40
34.0
 40
35.0
 40
35.0
 40
35.0
 40
36.0
 40
36.0
 40
36.0
 40
37.0
 40
37.0
 40
37.0
 40
38.0
 40
38.0
 40
38.0
 40
39.0
 40
39.0
 40
39.0
 40
40.0
 40
40.0
 40
40.0
 40
41.0
 40
41.0
 40
41.0
 40
42.0
 40
42.0
 40
42.0
 40
43.0
 40
43.0
 40
43.0
 40
44.0
 40
44.0
 40
44.0
 40
45.0
 40
45.0
 40
45.0
 40
46.0
 40
46.0
 40
46.0
 40
47.0
 40
47.0
 40
47.0
 40
48.0
 40
48.0
 40
48.0
 40
49.0
 40
49.0
 40
49.0
 40
50.0
 40
50.0
 40
50.0
 40
51.0
 40
51.0
 40
51.0
 40
52.0
 40
52.0
 40
52.0
 40
53.0
 40
53.0
 40
53.0
 40
54.0
 40
54.0
 40
54.0
 40
55.0
 40
55.0
 40
55.0
 40
56.0
 40
56.0
 40
56.0
 40
57.0
 40
57.0
 40
57.0
 40
58.0
 40
58.0
 40
58.0
 40
59.0
 40
59.0
 40
59.0
 40
60.0
 40
60.0
 40
60.0
 40
61.0
 40
61.0
 40
61.0
 40
62.0
 40
62.0
 40
62.0
 40
63.0
 40
63.0
 40
63.0
 40
64.0
 40
64.0
 40
64.0
 40
64.0
 10
88.53929848046934
 20
-119.3587781819659
 30
0.0
 10
88.52861868446507
 20
-119.388406003139
 30
0.0
 10
88.50519203516538
 20
-119.4349147921899
 30
0.0
 10
88.49485674870962
 20
-119.4623033012976
 30
0.0
 10
88.49485674870962
 20
-119.4623033012976
 30
0.0
 10
88.43353404907218
 20
-119.6147487765199
 30
0.0
 10
88.43353404907218
 20
-119.6147487765199
 30
0.0
 10
88.4228542530679
 20
-119.6400702283365
 30
0.0
 10
88.37427840672588
 20
-119.7522080863814
 30
0.0
 10
88.36153155343045
 20
-119.7754624809068
 30
0.0
 10
88.35946449613931
 20
-119.7818359075546
 30
0.0
 10
88.35498587200848
 20
-119.7902763914934
 30
0.0
 10
88.35291881471733
 20
-119.7966498181411
 30
0.0
 10
88.35291881471733
 20
-119.7966498181411
 30
0.0
 10
88.14345700921415
 20
-119.7437676024425
 30
0.0
 10
88.14345700921415
 20
-119.7437676024425
 30
0.0
 10
88.22200518627784
 20
-119.6336968016888
 30
0.0
 10
88.28332788591528
 20
-119.4983045491185
 30
0.0
 10
88.31502276437958
 20
-119.388406003139
 30
0.0
 10
88.31502276437958
 20
-119.388406003139
 30
0.0
 10
87.84959036432232
 20
-119.388406003139
 30
0.0
 10
87.84959036432232
 20
-119.388406003139
 30
0.0
 10
87.76897512996749
 20
-119.5532538221082
 30
0.0
 10
87.70145125845659
 20
-119.6316297443977
 30
0.0
 10
87.66768932270114
 20
-119.6717651068008
 30
0.0
 10
87.66768932270114
 20
-119.6717651068008
 30
0.0
 10
87.54504392342625
 20
-119.6061360378068
 30
0.0
 10
87.54504392342625
 20
-119.6061360378068
 30
0.0
 10
87.54504392342625
 20
-119.6061360378068
 30
0.0
 10
87.54504392342625
 20
-119.777529538198
 30
0.0
 10
87.54504392342625
 20
-119.777529538198
 30
0.0
 10
87.54504392342625
 20
-119.8855332816606
 30
0.0
 10
87.54711098071739
 20
-119.9341091280026
 30
0.0
 10
87.55744626717315
 20
-120.0398735593998
 30
0.0
 10
87.48578828107995
 20
-120.0378065021086
 30
0.0
 10
87.4644286890714
 20
-120.0378065021086
 30
0.0
 10
87.25944550769903
 20
-120.0378065021086
 30
0.0
 10
87.25944550769903
 20
-120.0378065021086
 30
0.0
 10
87.20432397993504
 20
-120.0378065021086
 30
0.0
 10
87.20432397993504
 20
-120.0378065021086
 30
0.0
 10
87.20432397993504
 20
-120.0378065021086
 30
0.0
 10
87.20432397993504
 20
-120.1731987546789
 30
0.0
 10
87.20432397993504
 20
-120.1731987546789
 30
0.0
 10
87.20432397993504
 20
-120.1731987546789
 30
0.0
 10
87.27632647557675
 20
-120.1731987546789
 30
0.0
 10
87.27632647557675
 20
-120.1731987546789
 30
0.0
 10
87.3417832897965
 20
-120.1731987546789
 30
0.0
 10
87.48785533837109
 20
-120.1688923853224
 30
0.0
 10
87.59361976976827
 20
-120.1604519013835
 30
0.0
 10
87.59361976976827
 20
-120.1604519013835
 30
0.0
 10
87.59361976976827
 20
-120.3382188284224
 30
0.0
 10
87.59361976976827
 20
-120.3382188284224
 30
0.0
 10
87.49612356753569
 20
-120.3318454017747
 30
0.0
 10
87.3376491752142
 20
-120.3275390324181
 30
0.0
 10
87.27632647557675
 20
-120.3275390324181
 30
0.0
 10
87.27632647557675
 20
-120.3275390324181
 30
0.0
 10
87.20432397993504
 20
-120.3275390324181
 30
0.0
 10
87.20432397993504
 20
-120.3275390324181
 30
0.0
 10
87.20639103722618
 20
-120.4164224959376
 30
0.0
 10
87.21052515180848
 20
-120.6555121226139
 30
0.0
 10
87.21259220909964
 20
-120.7295816755468
 30
0.0
 10
87.21259220909964
 20
-120.7295816755468
 30
0.0
 10
87.01174314230957
 20
-120.7295816755468
 30
0.0
 10
87.01174314230957
 20
-120.7295816755468
 30
0.0
 10
87.024489995605
 20
-120.515813500687
 30
0.0
 10
87.024489995605
 20
-120.4861856795139
 30
0.0
 10
87.0286241101873
 20
-120.3275390324181
 30
0.0
 10
87.0286241101873
 20
-120.3275390324181
 30
0.0
 10
86.95903318138525
 20
-120.3275390324181
 30
0.0
 10
86.95903318138525
 20
-120.3275390324181
 30
0.0
 10
86.9018445963301
 20
-120.3275390324181
 30
0.0
 10
86.74957137588206
 20
-120.3318454017747
 30
0.0
 10
86.63932832035407
 20
-120.3382188284224
 30
0.0
 10
86.63932832035407
 20
-120.3382188284224
 30
0.0
 10
86.63932832035407
 20
-120.1604519013835
 30
0.0
 10
86.63932832035407
 20
-120.1604519013835
 30
0.0
 10
86.74509275175123
 20
-120.1688923853224
 30
0.0
 10
86.88909774303467
 20
-120.1731987546789
 30
0.0
 10
86.95903318138525
 20
-120.1731987546789
 30
0.0
 10
86.95903318138525
 20
-120.1731987546789
 30
0.0
 10
87.0327582247696
 20
-120.1731987546789
 30
0.0
 10
87.0327582247696
 20
-120.1731987546789
 30
0.0
 10
87.0327582247696
 20
-120.1731987546789
 30
0.0
 10
87.0327582247696
 20
-120.0378065021086
 30
0.0
 10
87.0327582247696
 20
-120.0378065021086
 30
0.0
 10
87.0327582247696
 20
-120.0378065021086
 30
0.0
 10
86.98866100255839
 20
-120.0378065021086
 30
0.0
 10
86.98866100255839
 20
-120.0378065021086
 30
0.0
 10
86.91217988278585
 20
-120.0378065021086
 30
0.0
 10
86.7199435547089
 20
-120.0398735593998
 30
0.0
 10
86.68583710940493
 20
-120.0398735593998
 30
0.0
 10
86.69238279082691
 20
-119.9680433185323
 30
0.0
 10
86.70065101999151
 20
-119.8876003389517
 30
0.0
 10
86.70065101999151
 20
-119.767021996968
 30
0.0
 10
86.70065101999151
 20
-119.767021996968
 30
0.0
 10
86.70065101999151
 20
-119.5935614392856
 30
0.0
 10
86.70065101999151
 20
-119.5935614392856
 30
0.0
 10
86.70065101999151
 20
-119.5215589436439
 30
0.0
 10
86.69238279082691
 20
-119.4009806016602
 30
0.0
 10
86.68583710940493
 20
-119.3205376220796
 30
0.0
 10
86.76438528646862
 20
-119.3248439914362
 30
0.0
 10
86.80228133680637
 20
-119.3269110487273
 30
0.0
 10
86.9294053602121
 20
-119.3269110487273
 30
0.0
 10
86.9294053602121
 20
-119.3269110487273
 30
0.0
 10
87.0327582247696
 20
-119.3269110487273
 30
0.0
 10
87.0327582247696
 20
-119.3269110487273
 30
0.0
 10
87.0327582247696
 20
-119.3269110487273
 30
0.0
 10
87.0327582247696
 20
-119.181011254927
 30
0.0
 10
87.0327582247696
 20
-119.181011254927
 30
0.0
 10
87.0327582247696
 20
-119.181011254927
 30
0.0
 10
86.95455455725443
 20
-119.181011254927
 30
0.0
 10
86.95455455725443
 20
-119.181011254927
 30
0.0
 10
86.89977753903895
 20
-119.181011254927
 30
0.0
 10
86.7282117838735
 20
-119.1851453695093
 30
0.0
 10
86.64380694448488
 20
-119.191518796157
 30
0.0
 10
86.64380694448488
 20
-119.191518796157
 30
0.0
 10
86.64380694448488
 20
-119.0139241238924
 30
0.0
 10
86.64380694448488
 20
-119.0139241238924
 30
0.0
 10
86.72614472658236
 20
-119.0202975505401
 30
0.0
 10
86.88909774303467
 20
-119.0244316651224
 30
0.0
 10
86.95455455725443
 20
-119.0244316651224
 30
0.0
 10
86.95455455725443
 20
-119.0244316651224
 30
0.0
 10
87.0327582247696
 20
-119.0244316651224
 30
0.0
 10
87.0327582247696
 20
-119.0244316651224
 30
0.0
 10
87.0327582247696
 20
-118.9906697293669
 30
0.0
 10
87.0286241101873
 20
-118.8361571968535
 30
0.0
 10
87.0286241101873
 20
-118.8044623183892
 30
0.0
 10
87.0286241101873
 20
-118.8044623183892
 30
0.0
 10
87.22533906239507
 20
-118.8213432862669
 30
0.0
 10
87.22533906239507
 20
-118.8213432862669
 30
0.0
 10
87.24222003027278
 20
-118.823410343558
 30
0.0
 10
87.26357962228133
 20
-118.8256496556235
 30
0.0
 10
87.26357962228133
 20
-118.8468369928577
 30
0.0
 10
87.26357962228133
 20
-118.8700913873832
 30
0.0
 10
87.24222003027278
 20
-118.878531871322
 30
0.0
 10
87.21500377593931
 20
-118.8911064698432
 30
0.0
 10
87.21500377593931
 20
-118.9122938070775
 30
0.0
 10
87.21259220909964
 20
-119.0075506972446
 30
0.0
 10
87.21259220909964
 20
-119.0244316651224
 30
0.0
 10
87.21259220909964
 20
-119.0244316651224
 30
0.0
 10
87.27184785144593
 20
-119.0244316651224
 30
0.0
 10
87.27184785144593
 20
-119.0244316651224
 30
0.0
 10
87.33971623250535
 20
-119.0244316651224
 30
0.0
 10
87.48337671424026
 20
-119.0202975505401
 30
0.0
 10
87.58914114563744
 20
-119.0139241238924
 30
0.0
 10
87.58914114563744
 20
-119.0139241238924
 30
0.0
 10
87.58914114563744
 20
-119.191518796157
 30
0.0
 10
87.58914114563744
 20
-119.191518796157
 30
0.0
 10
87.49198945295339
 20
-119.1851453695093
 30
0.0
 10
87.33558211792305
 20
-119.181011254927
 30
0.0
 10
87.27184785144593
 20
-119.181011254927
 30
0.0
 10
87.27184785144593
 20
-119.181011254927
 30
0.0
 10
87.20432397993504
 20
-119.181011254927
 30
0.0
 10
87.20432397993504
 20
-119.181011254927
 30
0.0
 10
87.20432397993504
 20
-119.181011254927
 30
0.0
 10
87.20432397993504
 20
-119.3269110487273
 30
0.0
 10
87.20432397993504
 20
-119.3269110487273
 30
0.0
 10
87.20432397993504
 20
-119.3269110487273
 30
0.0
 10
87.27425941828561
 20
-119.3269110487273
 30
0.0
 10
87.27425941828561
 20
-119.3269110487273
 30
0.0
 10
87.42412107189398
 20
-119.3269110487273
 30
0.0
 10
87.49612356753569
 20
-119.322776934145
 30
0.0
 10
87.55744626717315
 20
-119.3205376220796
 30
0.0
 10
87.54917803800855
 20
-119.4157945122467
 30
0.0
 10
87.54711098071739
 20
-119.4941704345362
 30
0.0
 10
87.54504392342625
 20
-119.5322387396482
 30
0.0
 10
87.69938420116543
 20
-119.3205376220796
 30
0.0
 10
87.8051486325626
 20
-119.0731797662387
 30
0.0
 10
87.82202960044033
 20
-118.8108357450369
 30
0.0
 10
87.82202960044033
 20
-118.8108357450369
 30
0.0
 10
88.03769257781697
 20
-118.8614786486701
 30
0.0
 10
88.03769257781697
 20
-118.8614786486701
 30
0.0
 10
88.05250648840354
 20
-118.8657850180266
 30
0.0
 10
88.06732039899012
 20
-118.8721584446743
 30
0.0
 10
88.06732039899012
 20
-118.8890394125521
 30
0.0
 10
88.06732039899012
 20
-118.9059203804298
 30
0.0
 10
88.06318628440782
 20
-118.9081596924952
 30
0.0
 10
88.01254338077464
 20
-118.9291747749552
 30
0.0
 10
87.9953179033484
 20
-119.0054836399535
 30
0.0
 10
87.97016870630607
 20
-119.0964341607641
 30
0.0
 10
87.92159285996405
 20
-119.2233859293955
 30
0.0
 10
87.92159285996405
 20
-119.2233859293955
 30
0.0
 10
88.25990123661559
 20
-119.2233859293955
 30
0.0
 10
88.25990123661559
 20
-119.2233859293955
 30
0.0
 10
88.29814179650185
 20
-119.2233859293955
 30
0.0
 10
88.4269883676502
 20
-119.219079560039
 30
0.0
 10
88.47556421399223
 20
-119.2127061333913
 30
0.0
 10
88.47556421399223
 20
-119.2127061333913
 30
0.0
 10
88.56892630164249
 20
-119.2824693169676
 30
0.0
 10
88.56892630164249
 20
-119.2824693169676
 30
0.0
 10
88.56031356292937
 20
-119.3036566542019
 30
0.0
 10
88.55411239105592
 20
-119.322776934145
 30
0.0
 10
88.53929848046934
 20
-119.3587781819659
 30
0.0
  0
POLYLINE
  5
5E
330
59
100
AcDbEntity
  8
_U+30EC_U+30A4_U+30E4_U+30FC 1
370
     0
100
AcDb2dPolyline
 66
     1
 10
0.0
 20
0.0
 30
0.0
  0
VERTEX
  5
5F
330
5E
100
AcDbEntity
  8
_U+30EC_U+30A4_U+30E4_U+30FC 1
370
     0
100
AcDbVertex
100
AcDb2dVertex
 10
87.0327582247696
 20
-119.4834906385319
 30
0.0
  0
VERTEX
  5
60
330
5E
100
AcDbEntity
  8
_U+30EC_U+30A4_U+30E4_U+30FC 1
370
     0
100
AcDbVertex
100
AcDb2dVertex
 10
86.8742838324481
 20
-119.4834906385319
 30
0.0
  0
VERTEX
  5
61
330
5E
100
AcDbEntity
  8
_U+30EC_U+30A4_U+30E4_U+30FC 1
370
     0
100
AcDbVertex
100
AcDb2dVertex
 10
86.8742838324481
 20
-119.6125094644545
 30
0.0
  0
VERTEX
  5
62
330
5E
100
AcDbEntity
  8
_U+30EC_U+30A4_U+30E4_U+30FC 1
370
     0
100
AcDbVertex
100
AcDb2dVertex
 10
87.0327582247696
 20
-119.6125094644545
 30
0.0
  0
VERTEX
  5
63
330
5E
100
AcDbEntity
  8
_U+30EC_U+30A4_U+30E4_U+30FC 1
370
     0
100
AcDbVertex
100
AcDb2dVertex
 10
87.0327582247696
 20
-119.4834906385319
 30
0.0
  0
SEQEND
  5
64
330
5E
100
AcDbEntity
  8
_U+30EC_U+30A4_U+30E4_U+30FC 1
370
     0
  0
POLYLINE
  5
65
330
59
100
AcDbEntity
  8
_U+30EC_U+30A4_U+30E4_U+30FC 1
370
     0
100
AcDb2dPolyline
 66
     1
 10
0.0
 20
0.0
 30
0.0
  0
VERTEX
  5
66
330
65
100
AcDbEntity
  8
_U+30EC_U+30A4_U+30E4_U+30FC 1
370
     0
100
AcDbVertex
100
AcDb2dVertex
 10
87.0327582247696
 20
-119.7563422009637
 30
0.0
  0
VERTEX
  5
67
330
65
100
AcDbEntity
  8
_U+30EC_U+30A4_U+30E4_U+30FC 1
370
     0
100
AcDbVertex
100
AcDb2dVertex
 10
86.8742838324481
 20
-119.7563422009637
 30
0.0
  0
VERTEX
  5
68
330
65
100
AcDbEntity
  8
_U+30EC_U+30A4_U+30E4_U+30FC 1
370
     0
100
AcDbVertex
100
AcDb2dVertex
 10
86.8742838324481
 20
-119.8855332816606
 30
0.0
  0
VERTEX
  5
69
330
65
100
AcDbEntity
  8
_U+30EC_U+30A4_U+30E4_U+30FC 1
370
     0
100
AcDbVertex
100
AcDb2dVertex
 10
87.0327582247696
 20
-119.8855332816606
 30
0.0
  0
VERTEX
  5
6A
330
65
100
AcDbEntity
  8
_U+30EC_U+30A4_U+30E4_U+30FC 1
370
     0
100
AcDbVertex
100
AcDb2dVertex
 10
87.0327582247696
 20
-119.7563422009637
 30
0.0
  0
SEQEND
  5
6B
330
65
100
AcDbEntity
  8
_U+30EC_U+30A4_U+30E4_U+30FC 1
370
     0
  0
POLYLINE
  5
6C
330
59
100
AcDbEntity
  8
_U+30EC_U+30A4_U+30E4_U+30FC 1
370
     0
100
AcDb2dPolyline
 66
     1
 10
0.0
 20
0.0
 30
0.0
  0
VERTEX
  5
6D
330
6C
100
AcDbEntity
  8
_U+30EC_U+30A4_U+30E4_U+30FC 1
370
     0
100
AcDbVertex
100
AcDb2dVertex
 10
87.3652099390962
 20
-119.4834906385319
 30
0.0
  0
VERTEX
  5
6E
330
6C
100
AcDbEntity
  8
_U+30EC_U+30A4_U+30E4_U+30FC 1
370
     0
100
AcDbVertex
100
AcDb2dVertex
 10
87.20432397993504
 20
-119.4834906385319
 30
0.0
  0
VERTEX
  5
6F
330
6C
100
AcDbEntity
  8
_U+30EC_U+30A4_U+30E4_U+30FC 1
370
     0
100
AcDbVertex
100
AcDb2dVertex
 10
87.20432397993504
 20
-119.6125094644545
 30
0.0
  0
VERTEX
  5
70
330
6C
100
AcDbEntity
  8
_U+30EC_U+30A4_U+30E4_U+30FC 1
370
     0
100
AcDbVertex
100
AcDb2dVertex
 10
87.3652099390962
 20
-119.6125094644545
 30
0.0
  0
VERTEX
  5
71
330
6C
100
AcDbEntity
  8
_U+30EC_U+30A4_U+30E4_U+30FC 1
370
     0
100
AcDbVertex
100
AcDb2dVertex
 10
87.3652099390962
 20
-119.4834906385319
 30
0.0
  0
SEQEND
  5
72
330
6C
100
AcDbEntity
  8
_U+30EC_U+30A4_U+30E4_U+30FC 1
370
     0
  0
POLYLINE
  5
73
330
59
100
AcDbEntity
  8
_U+30EC_U+30A4_U+30E4_U+30FC 1
370
     0
100
AcDb2dPolyline
 66
     1
 10
0.0
 20
0.0
 30
0.0
  0
VERTEX
  5
74
330
73
100
AcDbEntity
  8
_U+30EC_U+30A4_U+30E4_U+30FC 1
370
     0
100
AcDbVertex
100
AcDb2dVertex
 10
87.3652099390962
 20
-119.7563422009637
 30
0.0
  0
VERTEX
  5
75
330
73
100
AcDbEntity
  8
_U+30EC_U+30A4_U+30E4_U+30FC 1
370
     0
100
AcDbVertex
100
AcDb2dVertex
 10
87.20432397993504
 20
-119.7563422009637
 30
0.0
  0
VERTEX
  5
76
330
73
100
AcDbEntity
  8
_U+30EC_U+30A4_U+30E4_U+30FC 1
370
     0
100
AcDbVertex
100
AcDb2dVertex
 10
87.20432397993504
 20
-119.8855332816606
 30
0.0
  0
VERTEX
  5
77
330
73
100
AcDbEntity
  8
_U+30EC_U+30A4_U+30E4_U+30FC 1
370
     0
100
AcDbVertex
100
AcDb2dVertex
 10
87.3652099390962
 20
-119.8855332816606
 30
0.0
  0
VERTEX
  5
78
330
73
100
AcDbEntity
  8
_U+30EC_U+30A4_U+30E4_U+30FC 1
370
     0
100
AcDbVertex
100
AcDb2dVertex
 10
87.3652099390962
 20
-119.7563422009637
 30
0.0
  0
SEQEND
  5
79
330
73
100
AcDbEntity
  8
_U+30EC_U+30A4_U+30E4_U+30FC 1
370
     0
  0
SPLINE
  5
7A
330
59
100
AcDbEntity
  8
_U+30EC_U+30A4_U+30E4_U+30FC 1
370
     0
100
AcDbSpline
210
0.0
220
0.0
230
1.0
 70
    11
 71
     3
 72
    41
 73
    37
 74
     0
 42
0.0000000001
 43
0.0000000001
 12
1.0
 22
0.0
 32
0.0
 13
1.0
 23
0.0
 33
0.0
 40
0.0
 40
0.0
 40
0.0
 40
0.0
 40
1.0
 40
1.0
 40
1.0
 40
2.0
 40
2.0
 40
2.0
 40
3.0
 40
3.0
 40
3.0
 40
4.0
 40
4.0
 40
4.0
 40
5.0
 40
5.0
 40
5.0
 40
6.0
 40
6.0
 40
6.0
 40
7.0
 40
7.0
 40
7.0
 40
8.0
 40
8.0
 40
8.0
 40
9.0
 40
9.0
 40
9.0
 40
10.0
 40
10.0
 40
10.0
 40
11.0
 40
11.0
 40
11.0
 40
12.0
 40
12.0
 40
12.0
 40
12.0
 10
88.4545491315322
 20
-120.7147677649602
 30
0.0
 10
88.21339244756471
 20
-120.5793755123899
 30
0.0
 10
88.03562552052583
 20
-120.2830973006584
 30
0.0
 10
87.9953179033484
 20
-120.1540784747358
 30
0.0
 10
87.87473956136465
 20
-120.4184895532287
 30
0.0
 10
87.71213105446085
 20
-120.5962564802676
 30
0.0
 10
87.53023001283967
 20
-120.7104613956036
 30
0.0
 10
87.53023001283967
 20
-120.7104613956036
 30
0.0
 10
87.33317055108338
 20
-120.5730020857422
 30
0.0
 10
87.33317055108338
 20
-120.5730020857422
 30
0.0
 10
87.40310598943395
 20
-120.5476806339256
 30
0.0
 10
87.54917803800855
 20
-120.4861856795139
 30
0.0
 10
87.67182343728344
 20
-120.3318454017747
 30
0.0
 10
87.79653589384948
 20
-120.1752658119701
 30
0.0
 10
87.88541935736893
 20
-119.9425496119414
 30
0.0
 10
87.88541935736893
 20
-119.6824449028051
 30
0.0
 10
87.88541935736893
 20
-119.5808145859902
 30
0.0
 10
87.8726725040735
 20
-119.5089843451228
 30
0.0
 10
87.86233721761775
 20
-119.4623033012976
 30
0.0
 10
87.86233721761775
 20
-119.4623033012976
 30
0.0
 10
88.06732039899012
 20
-119.4834906385319
 30
0.0
 10
88.06732039899012
 20
-119.4834906385319
 30
0.0
 10
88.08867999099867
 20
-119.4855576958231
 30
0.0
 10
88.1096950734587
 20
-119.4877970078885
 30
0.0
 10
88.1096950734587
 20
-119.5089843451228
 30
0.0
 10
88.1096950734587
 20
-119.5279323702916
 30
0.0
 10
88.09901527745441
 20
-119.5363728542305
 30
0.0
 10
88.06525334169896
 20
-119.5575601914648
 30
0.0
 10
88.05698511253436
 20
-119.7585815130291
 30
0.0
 10
88.113829188041
 20
-120.0018052542877
 30
0.0
 10
88.17515188767844
 20
-120.1223835962715
 30
0.0
 10
88.26610240848903
 20
-120.297911211245
 30
0.0
 10
88.46075030340565
 20
-120.477745195575
 30
0.0
 10
88.59614255597597
 20
-120.5349337806302
 30
0.0
 10
88.59614255597597
 20
-120.5349337806302
 30
0.0
 10
88.4545491315322
 20
-120.7147677649602
 30
0.0
 10
88.4545491315322
 20
-120.7147677649602
 30
0.0
  0
HATCH
  5
7B
330
59
100
AcDbEntity
  8
_U+30EC_U+30A4_U+30E4_U+30FC 1
 62
   179
420
  2234388
100
AcDbHatch
 10
0.0
 20
0.0
 30
0.0
210
0.0
220
0.0
230
1.0
  2
SOLID
 70
     1
 71
     0
 91
        6
 92
        1
 93
        1
 72
     4
 94
        3
 73
     0
 74
     1
 95
      197
 96
      193
 40
0.0
 40
0.0
 40
0.0
 40
0.0
 40
1.0
 40
1.0
 40
1.0
 40
2.0
 40
2.0
 40
2.0
 40
3.0
 40
3.0
 40
3.0
 40
4.0
 40
4.0
 40
4.0
 40
5.0
 40
5.0
 40
5.0
 40
6.0
 40
6.0
 40
6.0
 40
7.0
 40
7.0
 40
7.0
 40
8.0
 40
8.0
 40
8.0
 40
9.0
 40
9.0
 40
9.0
 40
10.0
 40
10.0
 40
10.0
 40
11.0
 40
11.0
 40
11.0
 40
12.0
 40
12.0
 40
12.0
 40
13.0
 40
13.0
 40
13.0
 40
14.0
 40
14.0
 40
14.0
 40
15.0
 40
15.0
 40
15.0
 40
16.0
 40
16.0
 40
16.0
 40
17.0
 40
17.0
 40
17.0
 40
18.0
 40
18.0
 40
18.0
 40
19.0
 40
19.0
 40
19.0
 40
20.0
 40
20.0
 40
20.0
 40
21.0
 40
21.0
 40
21.0
 40
22.0
 40
22.0
 40
22.0
 40
23.0
 40
23.0
 40
23.0
 40
24.0
 40
24.0
 40
24.0
 40
25.0
 40
25.0
 40
25.0
 40
26.0
 40
26.0
 40
26.0
 40
27.0
 40
27.0
 40
27.0
 40
28.0
 40
28.0
 40
28.0
 40
29.0
 40
29.0
 40
29.0
 40
30.0
 40
30.0
 40
30.0
 40
31.0
 40
31.0
 40
31.0
 40
32.0
 40
32.0
 40
32.0
 40
33.0
 40
33.0
 40
33.0
 40
34.0
 40
34.0
 40
34.0
 40
35.0
 40
35.0
 40
35.0
 40
36.0
 40
36.0
 40
36.0
 40
37.0
 40
37.0
 40
37.0
 40
38.0
 40
38.0
 40
38.0
 40
39.0
 40
39.0
 40
39.0
 40
40.0
 40
40.0
 40
40.0
 40
41.0
 40
41.0
 40
41.0
 40
42.0
 40
42.0
 40
42.0
 40
43.0
 40
43.0
 40
43.0
 40
44.0
 40
44.0
 40
44.0
 40
45.0
 40
45.0
 40
45.0
 40
46.0
 40
46.0
 40
46.0
 40
47.0
 40
47.0
 40
47.0
 40
48.0
 40
48.0
 40
48.0
 40
49.0
 40
49.0
 40
49.0
 40
50.0
 40
50.0
 40
50.0
 40
51.0
 40
51.0
 40
51.0
 40
52.0
 40
52.0
 40
52.0
 40
53.0
 40
53.0
 40
53.0
 40
54.0
 40
54.0
 40
54.0
 40
55.0
 40
55.0
 40
55.0
 40
56.0
 40
56.0
 40
56.0
 40
57.0
 40
57.0
 40
57.0
 40
58.0
 40
58.0
 40
58.0
 40
59.0
 40
59.0
 40
59.0
 40
60.0
 40
60.0
 40
60.0
 40
61.0
 40
61.0
 40
61.0
 40
62.0
 40
62.0
 40
62.0
 40
63.0
 40
63.0
 40
63.0
 40
64.0
 40
64.0
 40
64.0
 40
64.0
 10
88.53929848046934
 20
-119.3587781819659
 10
88.52861868446507
 20
-119.388406003139
 10
88.50519203516538
 20
-119.4349147921899
 10
88.49485674870962
 20
-119.4623033012976
 10
88.49485674870962
 20
-119.4623033012976
 10
88.43353404907218
 20
-119.6147487765199
 10
88.43353404907218
 20
-119.6147487765199
 10
88.4228542530679
 20
-119.6400702283365
 10
88.37427840672588
 20
-119.7522080863814
 10
88.36153155343045
 20
-119.7754624809068
 10
88.35946449613931
 20
-119.7818359075546
 10
88.35498587200848
 20
-119.7902763914934
 10
88.35291881471733
 20
-119.7966498181411
 10
88.35291881471733
 20
-119.7966498181411
 10
88.14345700921415
 20
-119.7437676024425
 10
88.14345700921415
 20
-119.7437676024425
 10
88.22200518627784
 20
-119.6336968016888
 10
88.28332788591528
 20
-119.4983045491185
 10
88.31502276437958
 20
-119.388406003139
 10
88.31502276437958
 20
-119.388406003139
 10
87.84959036432232
 20
-119.388406003139
 10
87.84959036432232
 20
-119.388406003139
 10
87.76897512996749
 20
-119.5532538221082
 10
87.70145125845659
 20
-119.6316297443977
 10
87.66768932270114
 20
-119.6717651068008
 10
87.66768932270114
 20
-119.6717651068008
 10
87.54504392342625
 20
-119.6061360378068
 10
87.54504392342625
 20
-119.6061360378068
 10
87.54504392342625
 20
-119.6061360378068
 10
87.54504392342625
 20
-119.777529538198
 10
87.54504392342625
 20
-119.777529538198
 10
87.54504392342625
 20
-119.8855332816606
 10
87.54711098071739
 20
-119.9341091280026
 10
87.55744626717315
 20
-120.0398735593998
 10
87.48578828107995
 20
-120.0378065021086
 10
87.4644286890714
 20
-120.0378065021086
 10
87.25944550769903
 20
-120.0378065021086
 10
87.25944550769903
 20
-120.0378065021086
 10
87.20432397993504
 20
-120.0378065021086
 10
87.20432397993504
 20
-120.0378065021086
 10
87.20432397993504
 20
-120.0378065021086
 10
87.20432397993504
 20
-120.1731987546789
 10
87.20432397993504
 20
-120.1731987546789
 10
87.20432397993504
 20
-120.1731987546789
 10
87.27632647557675
 20
-120.1731987546789
 10
87.27632647557675
 20
-120.1731987546789
 10
87.3417832897965
 20
-120.1731987546789
 10
87.48785533837109
 20
-120.1688923853224
 10
87.59361976976827
 20
-120.1604519013835
 10
87.59361976976827
 20
-120.1604519013835
 10
87.59361976976827
 20
-120.3382188284224
 10
87.59361976976827
 20
-120.3382188284224
 10
87.49612356753569
 20
-120.3318454017747
 10
87.3376491752142
 20
-120.3275390324181
 10
87.27632647557675
 20
-120.3275390324181
 10
87.27632647557675
 20
-120.3275390324181
 10
87.20432397993504
 20
-120.3275390324181
 10
87.20432397993504
 20
-120.3275390324181
 10
87.20639103722618
 20
-120.4164224959376
 10
87.21052515180848
 20
-120.6555121226139
 10
87.21259220909964
 20
-120.7295816755468
 10
87.21259220909964
 20
-120.7295816755468
 10
87.01174314230957
 20
-120.7295816755468
 10
87.01174314230957
 20
-120.7295816755468
 10
87.024489995605
 20
-120.515813500687
 10
87.024489995605
 20
-120.4861856795139
 10
87.0286241101873
 20
-120.3275390324181
 10
87.0286241101873
 20
-120.3275390324181
 10
86.95903318138525
 20
-120.3275390324181
 10
86.95903318138525
 20
-120.3275390324181
 10
86.9018445963301
 20
-120.3275390324181
 10
86.74957137588206
 20
-120.3318454017747
 10
86.63932832035407
 20
-120.3382188284224
 10
86.63932832035407
 20
-120.3382188284224
 10
86.63932832035407
 20
-120.1604519013835
 10
86.63932832035407
 20
-120.1604519013835
 10
86.74509275175123
 20
-120.1688923853224
 10
86.88909774303467
 20
-120.1731987546789
 10
86.95903318138525
 20
-120.1731987546789
 10
86.95903318138525
 20
-120.1731987546789
 10
87.0327582247696
 20
-120.1731987546789
 10
87.0327582247696
 20
-120.1731987546789
 10
87.0327582247696
 20
-120.1731987546789
 10
87.0327582247696
 20
-120.0378065021086
 10
87.0327582247696
 20
-120.0378065021086
 10
87.0327582247696
 20
-120.0378065021086
 10
86.98866100255839
 20
-120.0378065021086
 10
86.98866100255839
 20
-120.0378065021086
 10
86.91217988278585
 20
-120.0378065021086
 10
86.7199435547089
 20
-120.0398735593998
 10
86.68583710940493
 20
-120.0398735593998
 10
86.69238279082691
 20
-119.9680433185323
 10
86.70065101999151
 20
-119.8876003389517
 10
86.70065101999151
 20
-119.767021996968
 10
86.70065101999151
 20
-119.767021996968
 10
86.70065101999151
 20
-119.5935614392856
 10
86.70065101999151
 20
-119.5935614392856
 10
86.70065101999151
 20
-119.5215589436439
 10
86.69238279082691
 20
-119.4009806016602
 10
86.68583710940493
 20
-119.3205376220796
 10
86.76438528646862
 20
-119.3248439914362
 10
86.80228133680637
 20
-119.3269110487273
 10
86.9294053602121
 20
-119.3269110487273
 10
86.9294053602121
 20
-119.3269110487273
 10
87.0327582247696
 20
-119.3269110487273
 10
87.0327582247696
 20
-119.3269110487273
 10
87.0327582247696
 20
-119.3269110487273
 10
87.0327582247696
 20
-119.181011254927
 10
87.0327582247696
 20
-119.181011254927
 10
87.0327582247696
 20
-119.181011254927
 10
86.95455455725443
 20
-119.181011254927
 10
86.95455455725443
 20
-119.181011254927
 10
86.89977753903895
 20
-119.181011254927
 10
86.7282117838735
 20
-119.1851453695093
 10
86.64380694448488
 20
-119.191518796157
 10
86.64380694448488
 20
-119.191518796157
 10
86.64380694448488
 20
-119.0139241238924
 10
86.64380694448488
 20
-119.0139241238924
 10
86.72614472658236
 20
-119.0202975505401
 10
86.88909774303467
 20
-119.0244316651224
 10
86.95455455725443
 20
-119.0244316651224
 10
86.95455455725443
 20
-119.0244316651224
 10
87.0327582247696
 20
-119.0244316651224
 10
87.0327582247696
 20
-119.0244316651224
 10
87.0327582247696
 20
-118.9906697293669
 10
87.0286241101873
 20
-118.8361571968535
 10
87.0286241101873
 20
-118.8044623183892
 10
87.0286241101873
 20
-118.8044623183892
 10
87.22533906239507
 20
-118.8213432862669
 10
87.22533906239507
 20
-118.8213432862669
 10
87.24222003027278
 20
-118.823410343558
 10
87.26357962228133
 20
-118.8256496556235
 10
87.26357962228133
 20
-118.8468369928577
 10
87.26357962228133
 20
-118.8700913873832
 10
87.24222003027278
 20
-118.878531871322
 10
87.21500377593931
 20
-118.8911064698432
 10
87.21500377593931
 20
-118.9122938070775
 10
87.21259220909964
 20
-119.0075506972446
 10
87.21259220909964
 20
-119.0244316651224
 10
87.21259220909964
 20
-119.0244316651224
 10
87.27184785144593
 20
-119.0244316651224
 10
87.27184785144593
 20
-119.0244316651224
 10
87.33971623250535
 20
-119.0244316651224
 10
87.48337671424026
 20
-119.0202975505401
 10
87.58914114563744
 20
-119.0139241238924
 10
87.58914114563744
 20
-119.0139241238924
 10
87.58914114563744
 20
-119.191518796157
 10
87.58914114563744
 20
-119.191518796157
 10
87.49198945295339
 20
-119.1851453695093
 10
87.33558211792305
 20
-119.181011254927
 10
87.27184785144593
 20
-119.181011254927
 10
87.27184785144593
 20
-119.181011254927
 10
87.20432397993504
 20
-119.181011254927
 10
87.20432397993504
 20
-119.181011254927
 10
87.20432397993504
 20
-119.181011254927
 10
87.20432397993504
 20
-119.3269110487273
 10
87.20432397993504
 20
-119.3269110487273
 10
87.20432397993504
 20
-119.3269110487273
 10
87.27425941828561
 20
-119.3269110487273
 10
87.27425941828561
 20
-119.3269110487273
 10
87.42412107189398
 20
-119.3269110487273
 10
87.49612356753569
 20
-119.322776934145
 10
87.55744626717315
 20
-119.3205376220796
 10
87.54917803800855
 20
-119.4157945122467
 10
87.54711098071739
 20
-119.4941704345362
 10
87.54504392342625
 20
-119.5322387396482
 10
87.69938420116543
 20
-119.3205376220796
 10
87.8051486325626
 20
-119.0731797662387
 10
87.82202960044033
 20
-118.8108357450369
 10
87.82202960044033
 20
-118.8108357450369
 10
88.03769257781697
 20
-118.8614786486701
 10
88.03769257781697
 20
-118.8614786486701
 10
88.05250648840354
 20
-118.8657850180266
 10
88.06732039899012
 20
-118.8721584446743
 10
88.06732039899012
 20
-118.8890394125521
 10
88.06732039899012
 20
-118.9059203804298
 10
88.06318628440782
 20
-118.9081596924952
 10
88.01254338077464
 20
-118.9291747749552
 10
87.9953179033484
 20
-119.0054836399535
 10
87.97016870630607
 20
-119.0964341607641
 10
87.92159285996405
 20
-119.2233859293955
 10
87.92159285996405
 20
-119.2233859293955
 10
88.25990123661559
 20
-119.2233859293955
 10
88.25990123661559
 20
-119.2233859293955
 10
88.29814179650185
 20
-119.2233859293955
 10
88.4269883676502
 20
-119.219079560039
 10
88.47556421399223
 20
-119.2127061333913
 10
88.47556421399223
 20
-119.2127061333913
 10
88.56892630164249
 20
-119.2824693169676
 10
88.56892630164249
 20
-119.2824693169676
 10
88.56031356292937
 20
-119.3036566542019
 10
88.55411239105592
 20
-119.322776934145
 10
88.53929848046934
 20
-119.3587781819659
 97
        0
 97
        0
 92
        1
 93
        4
 72
     1
 10
87.0327582247696
 20
-119.4834906385319
 11
86.8742838324481
 21
-119.4834906385319
 72
     1
 10
86.8742838324481
 20
-119.4834906385319
 11
86.8742838324481
 21
-119.6125094644545
 72
     1
 10
86.8742838324481
 20
-119.6125094644545
 11
87.0327582247696
 21
-119.6125094644545
 72
     1
 10
87.0327582247696
 20
-119.6125094644545
 11
87.0327582247696
 21
-119.4834906385319
 97
        0
 92
        1
 93
        4
 72
     1
 10
87.0327582247696
 20
-119.7563422009637
 11
86.8742838324481
 21
-119.7563422009637
 72
     1
 10
86.8742838324481
 20
-119.7563422009637
 11
86.8742838324481
 21
-119.8855332816606
 72
     1
 10
86.8742838324481
 20
-119.8855332816606
 11
87.0327582247696
 21
-119.8855332816606
 72
     1
 10
87.0327582247696
 20
-119.8855332816606
 11
87.0327582247696
 21
-119.7563422009637
 97
        0
 92
        1
 93
        4
 72
     1
 10
87.3652099390962
 20
-119.4834906385319
 11
87.20432397993504
 21
-119.4834906385319
 72
     1
 10
87.20432397993504
 20
-119.4834906385319
 11
87.20432397993504
 21
-119.6125094644545
 72
     1
 10
87.20432397993504
 20
-119.6125094644545
 11
87.3652099390962
 21
-119.6125094644545
 72
     1
 10
87.3652099390962
 20
-119.6125094644545
 11
87.3652099390962
 21
-119.4834906385319
 97
        0
 92
        1
 93
        4
 72
     1
 10
87.3652099390962
 20
-119.7563422009637
 11
87.20432397993504
 21
-119.7563422009637
 72
     1
 10
87.20432397993504
 20
-119.7563422009637
 11
87.20432397993504
 21
-119.8855332816606
 72
     1
 10
87.20432397993504
 20
-119.8855332816606
 11
87.3652099390962
 21
-119.8855332816606
 72
     1
 10
87.3652099390962
 20
-119.8855332816606
 11
87.3652099390962
 21
-119.7563422009637
 97
        0
 92
        1
 93
        1
 72
     4
 94
        3
 73
     0
 74
     1
 95
       41
 96
       37
 40
0.0
 40
0.0
 40
0.0
 40
0.0
 40
1.0
 40
1.0
 40
1.0
 40
2.0
 40
2.0
 40
2.0
 40
3.0
 40
3.0
 40
3.0
 40
4.0
 40
4.0
 40
4.0
 40
5.0
 40
5.0
 40
5.0
 40
6.0
 40
6.0
 40
6.0
 40
7.0
 40
7.0
 40
7.0
 40
8.0
 40
8.0
 40
8.0
 40
9.0
 40
9.0
 40
9.0
 40
10.0
 40
10.0
 40
10.0
 40
11.0
 40
11.0
 40
11.0
 40
12.0
 40
12.0
 40
12.0
 40
12.0
 10
88.4545491315322
 20
-120.7147677649602
 10
88.21339244756471
 20
-120.5793755123899
 10
88.03562552052583
 20
-120.2830973006584
 10
87.9953179033484
 20
-120.1540784747358
 10
87.87473956136465
 20
-120.4184895532287
 10
87.71213105446085
 20
-120.5962564802676
 10
87.53023001283967
 20
-120.7104613956036
 10
87.53023001283967
 20
-120.7104613956036
 10
87.33317055108338
 20
-120.5730020857422
 10
87.33317055108338
 20
-120.5730020857422
 10
87.40310598943395
 20
-120.5476806339256
 10
87.54917803800855
 20
-120.4861856795139
 10
87.67182343728344
 20
-120.3318454017747
 10
87.79653589384948
 20
-120.1752658119701
 10
87.88541935736893
 20
-119.9425496119414
 10
87.88541935736893
 20
-119.6824449028051
 10
87.88541935736893
 20
-119.5808145859902
 10
87.8726725040735
 20
-119.5089843451228
 10
87.86233721761775
 20
-119.4623033012976
 10
87.86233721761775
 20
-119.4623033012976
 10
88.06732039899012
 20
-119.4834906385319
 10
88.06732039899012
 20
-119.4834906385319
 10
88.08867999099867
 20
-119.4855576958231
 10
88.1096950734587
 20
-119.4877970078885
 10
88.1096950734587
 20
-119.5089843451228
 10
88.1096950734587
 20
-119.5279323702916
 10
88.09901527745441
 20
-119.5363728542305
 10
88.06525334169896
 20
-119.5575601914648
 10
88.05698511253436
 20
-119.7585815130291
 10
88.113829188041
 20
-120.0018052542877
 10
88.17515188767844
 20
-120.1223835962715
 10
88.26610240848903
 20
-120.297911211245
 10
88.46075030340565
 20
-120.477745195575
 10
88.59614255597597
 20
-120.5349337806302
 10
88.59614255597597
 20
-120.5349337806302
 10
88.4545491315322
 20
-120.7147677649602
 10
88.4545491315322
 20
-120.7147677649602
 97
        0
 97
        0
 75
     2
 76
     1
 98
        0
  0
SPLINE
  5
7C
330
59
100
AcDbEntity
  8
_U+30EC_U+30A4_U+30E4_U+30FC 1
370
     0
100
AcDbSpline
210
0.0
220
0.0
230
1.0
 70
    11
 71
     3
 72
    71
 73
    67
 74
     0
 42
0.0000000001
 43
0.0000000001
 12
1.0
 22
0.0
 32
0.0
 13
1.0
 23
0.0
 33
0.0
 40
0.0
 40
0.0
 40
0.0
 40
0.0
 40
1.0
 40
1.0
 40
1.0
 40
2.0
 40
2.0
 40
2.0
 40
3.0
 40
3.0
 40
3.0
 40
4.0
 40
4.0
 40
4.0
 40
5.0
 40
5.0
 40
5.0
 40
6.0
 40
6.0
 40
6.0
 40
7.0
 40
7.0
 40
7.0
 40
8.0
 40
8.0
 40
8.0
 40
9.0
 40
9.0
 40
9.0
 40
10.0
 40
10.0
 40
10.0
 40
11.0
 40
11.0
 40
11.0
 40
12.0
 40
12.0
 40
12.0
 40
13.0
 40
13.0
 40
13.0
 40
14.0
 40
14.0
 40
14.0
 40
15.0
 40
15.0
 40
15.0
 40
16.0
 40
16.0
 40
16.0
 40
17.0
 40
17.0
 40
17.0
 40
18.0
 40
18.0
 40
18.0
 40
19.0
 40
19.0
 40
19.0
 40
20.0
 40
20.0
 40
20.0
 40
21.0
 40
21.0
 40
21.0
 40
22.0
 40
22.0
 40
22.0
 40
22.0
 10
89.64896373626831
 20
-118.9822292454281
 30
0.0
 10
89.63414982568175
 20
-118.9822292454281
 30
0.0
 10
89.62140297238632
 20
-118.9779228760715
 30
0.0
 10
89.59590926579547
 20
-118.9694823921326
 30
0.0
 10
89.4543158413517
 20
-119.0159911811835
 30
0.0
 10
89.28068302889511
 20
-119.0328721490612
 30
0.0
 10
89.1411566617425
 20
-119.0371785184178
 30
0.0
 10
89.1411566617425
 20
-119.0371785184178
 30
0.0
 10
89.13908960445134
 20
-119.1260619819372
 30
0.0
 10
89.13908960445134
 20
-119.1260619819372
 30
0.0
 10
89.13908960445134
 20
-119.1260619819372
 30
0.0
 10
89.3991943135877
 20
-119.1260619819372
 30
0.0
 10
89.3991943135877
 20
-119.1260619819372
 30
0.0
 10
89.45224878406056
 20
-119.1260619819372
 30
0.0
 10
89.63414982568175
 20
-119.1176214979984
 30
0.0
 10
89.67859155744146
 20
-119.1112480713507
 30
0.0
 10
89.67859155744146
 20
-119.1112480713507
 30
0.0
 10
89.67859155744146
 20
-119.2719617757376
 30
0.0
 10
89.67859155744146
 20
-119.2719617757376
 30
0.0
 10
89.62347002967746
 20
-119.2655883490899
 30
0.0
 10
89.49875757311142
 20
-119.2635212917987
 30
0.0
 10
89.46051701322516
 20
-119.2655883490899
 30
0.0
 10
89.46051701322516
 20
-119.2655883490899
 30
0.0
 10
89.46051701322516
 20
-119.3756591498436
 30
0.0
 10
89.46051701322516
 20
-119.3756591498436
 30
0.0
 10
89.46051701322516
 20
-119.4221679388945
 30
0.0
 10
89.4625840705163
 20
-119.4855576958231
 30
0.0
 10
89.46912975193828
 20
-119.5237982557093
 30
0.0
 10
89.46912975193828
 20
-119.5237982557093
 30
0.0
 10
89.27654891431281
 20
-119.5237982557093
 30
0.0
 10
89.27654891431281
 20
-119.5237982557093
 30
0.0
 10
89.28275008618625
 20
-119.4834906385319
 30
0.0
 10
89.28929576760824
 20
-119.4009806016602
 30
0.0
 10
89.28929576760824
 20
-119.3861666910736
 30
0.0
 10
89.28929576760824
 20
-119.3861666910736
 30
0.0
 10
89.28929576760824
 20
-119.2655883490899
 30
0.0
 10
89.28929576760824
 20
-119.2655883490899
 30
0.0
 10
89.28929576760824
 20
-119.2655883490899
 30
0.0
 10
89.12427569386477
 20
-119.2655883490899
 30
0.0
 10
89.12427569386477
 20
-119.2655883490899
 30
0.0
 10
89.0819010193962
 20
-119.4855576958231
 30
0.0
 10
89.0267794916322
 20
-119.5660006754036
 30
0.0
 10
88.92101506023502
 20
-119.6653916801531
 30
0.0
 10
88.92101506023502
 20
-119.6653916801531
 30
0.0
 10
88.75392792920042
 20
-119.5511867648171
 30
0.0
 10
88.75392792920042
 20
-119.5511867648171
 30
0.0
 10
88.817317686129
 20
-119.502610918475
 30
0.0
 10
88.9675238492859
 20
-119.3904730604302
 30
0.0
 10
88.9675238492859
 20
-119.0413126330001
 30
0.0
 10
88.9675238492859
 20
-118.9588025961284
 30
0.0
 10
88.9592556201213
 20
-118.9122938070775
 30
0.0
 10
88.95064288140817
 20
-118.8637179607355
 30
0.0
 10
89.09671492998277
 20
-118.878531871322
 30
0.0
 10
89.11152884056935
 20
-118.878531871322
 30
0.0
 10
89.14735783361594
 20
-118.878531871322
 30
0.0
 10
89.25553383185279
 20
-118.878531871322
 30
0.0
 10
89.39712725629656
 20
-118.8614786486701
 30
0.0
 10
89.55801321545772
 20
-118.8001559490326
 30
0.0
 10
89.55801321545772
 20
-118.8001559490326
 30
0.0
 10
89.6720458760195
 20
-118.9314140870206
 30
0.0
 10
89.6720458760195
 20
-118.9314140870206
 30
0.0
 10
89.67859155744146
 20
-118.9377875136683
 30
0.0
 10
89.68272567202376
 20
-118.9462279976072
 30
0.0
 10
89.68272567202376
 20
-118.9546684815461
 30
0.0
 10
89.68272567202376
 20
-118.9779228760715
 30
0.0
 10
89.6637776468549
 20
-118.9822292454281
 30
0.0
 10
89.64896373626831
 20
-118.9822292454281
 30
0.0
  0
SPLINE
  5
7D
330
59
100
AcDbEntity
  8
_U+30EC_U+30A4_U+30E4_U+30FC 1
370
     0
100
AcDbSpline
210
0.0
220
0.0
230
1.0
 70
    11
 71
     3
 72
    74
 73
    70
 74
     0
 42
0.0000000001
 43
0.0000000001
 12
1.0
 22
0.0
 32
0.0
 13
1.0
 23
0.0
 33
0.0
 40
0.0
 40
0.0
 40
0.0
 40
0.0
 40
1.0
 40
1.0
 40
1.0
 40
2.0
 40
2.0
 40
2.0
 40
3.0
 40
3.0
 40
3.0
 40
4.0
 40
4.0
 40
4.0
 40
5.0
 40
5.0
 40
5.0
 40
6.0
 40
6.0
 40
6.0
 40
7.0
 40
7.0
 40
7.0
 40
8.0
 40
8.0
 40
8.0
 40
9.0
 40
9.0
 40
9.0
 40
10.0
 40
10.0
 40
10.0
 40
11.0
 40
11.0
 40
11.0
 40
12.0
 40
12.0
 40
12.0
 40
13.0
 40
13.0
 40
13.0
 40
14.0
 40
14.0
 40
14.0
 40
15.0
 40
15.0
 40
15.0
 40
16.0
 40
16.0
 40
16.0
 40
17.0
 40
17.0
 40
17.0
 40
18.0
 40
18.0
 40
18.0
 40
19.0
 40
19.0
 40
19.0
 40
20.0
 40
20.0
 40
20.0
 40
21.0
 40
21.0
 40
21.0
 40
22.0
 40
22.0
 40
22.0
 40
23.0
 40
23.0
 40
23.0
 40
23.0
 10
90.48646644873256
 20
-120.7485297007157
 30
0.0
 10
90.27287052864706
 20
-120.7380221594856
 30
0.0
 10
90.072021461857
 20
-120.6512057532573
 30
0.0
 10
89.89632159210926
 20
-120.5306274112736
 30
0.0
 10
89.89632159210926
 20
-120.5306274112736
 30
0.0
 10
89.99381779434182
 20
-120.4439832598196
 30
0.0
 10
89.99381779434182
 20
-120.4439832598196
 30
0.0
 10
89.99381779434182
 20
-120.4439832598196
 30
0.0
 10
89.44156898805628
 20
-120.4439832598196
 30
0.0
 10
89.44156898805628
 20
-120.4439832598196
 30
0.0
 10
89.44156898805628
 20
-120.4439832598196
 30
0.0
 10
89.5218397128626
 20
-120.5073730167482
 30
0.0
 10
89.5218397128626
 20
-120.5073730167482
 30
0.0
 10
89.52838539428457
 20
-120.5116793861047
 30
0.0
 10
89.53872068074033
 20
-120.5221869273347
 30
0.0
 10
89.53872068074033
 20
-120.5370008379213
 30
0.0
 10
89.53872068074033
 20
-120.5773084550987
 30
0.0
 10
89.46465112780746
 20
-120.570935028451
 30
0.0
 10
89.44983721722087
 20
-120.5686957163856
 30
0.0
 10
89.21936032925767
 20
-120.7083943383125
 30
0.0
 10
89.07569984752274
 20
-120.7400892167768
 30
0.0
 10
88.97200247341672
 20
-120.7569701846545
 30
0.0
 10
88.97200247341672
 20
-120.7569701846545
 30
0.0
 10
88.84281139271985
 20
-120.5793755123899
 30
0.0
 10
88.84281139271985
 20
-120.5793755123899
 30
0.0
 10
89.09051375810932
 20
-120.5476806339256
 30
0.0
 10
89.19179956537566
 20
-120.5009995901004
 30
0.0
 10
89.28068302889511
 20
-120.4481173744019
 30
0.0
 10
89.20661347596224
 20
-120.4503566864673
 30
0.0
 10
89.09258081540047
 20
-120.4524237437584
 30
0.0
 10
89.06088593693617
 20
-120.4544908010496
 30
0.0
 10
89.07569984752274
 20
-120.3656073375301
 30
0.0
 10
89.0777669048139
 20
-120.2365885116075
 30
0.0
 10
89.0777669048139
 20
-120.1625189586747
 30
0.0
 10
89.0777669048139
 20
-120.1625189586747
 30
0.0
 10
89.0777669048139
 20
-119.8621066323609
 30
0.0
 10
89.0777669048139
 20
-119.8621066323609
 30
0.0
 10
89.0777669048139
 20
-119.7627156276114
 30
0.0
 10
89.07122122339192
 20
-119.6633246228619
 30
0.0
 10
89.06088593693617
 20
-119.5660006754036
 30
0.0
 10
89.16217174420251
 20
-119.5723741020514
 30
0.0
 10
89.39299314171426
 20
-119.5787475286991
 30
0.0
 10
89.50082463040258
 20
-119.5787475286991
 30
0.0
 10
89.50082463040258
 20
-119.5787475286991
 30
0.0
 10
89.92388235599125
 20
-119.5787475286991
 30
0.0
 10
89.92388235599125
 20
-119.5787475286991
 30
0.0
 10
90.04239364068385
 20
-119.5787475286991
 30
0.0
 10
90.08476831515242
 20
-119.5787475286991
 30
0.0
 10
90.1671060972499
 20
-119.5744411593425
 30
0.0
 10
90.31524520311564
 20
-119.5680677326948
 30
0.0
 10
90.33212617099336
 20
-119.5680677326948
 30
0.0
 10
90.37863496004424
 20
-119.5660006754036
 30
0.0
 10
90.37036673087964
 20
-119.6464436549842
 30
0.0
 10
90.36588810674881
 20
-119.80509030208
 30
0.0
 10
90.36588810674881
 20
-119.8876003389517
 30
0.0
 10
90.36588810674881
 20
-119.8876003389517
 30
0.0
 10
90.36588810674881
 20
-120.1731987546789
 30
0.0
 10
90.36588810674881
 20
-120.1731987546789
 30
0.0
 10
90.36588810674881
 20
-120.2450289955464
 30
0.0
 10
90.36795516403996
 20
-120.3762871335344
 30
0.0
 10
90.37863496004424
 20
-120.4544908010496
 30
0.0
 10
90.30663246440251
 20
-120.4503566864673
 30
0.0
 10
90.18398706512762
 20
-120.4481173744019
 30
0.0
 10
90.10578339761244
 20
-120.4460503171107
 30
0.0
 10
90.21568194359192
 20
-120.5137464433959
 30
0.0
 10
90.36795516403996
 20
-120.5645616018033
 30
0.0
 10
90.57982853638282
 20
-120.5686957163856
 30
0.0
 10
90.57982853638282
 20
-120.5686957163856
 30
0.0
 10
90.48646644873256
 20
-120.7485297007157
 30
0.0
 10
90.48646644873256
 20
-120.7485297007157
 30
0.0
  0
POLYLINE
  5
7E
330
59
100
AcDbEntity
  8
_U+30EC_U+30A4_U+30E4_U+30FC 1
370
     0
100
AcDb2dPolyline
 66
     1
 10
0.0
 20
0.0
 30
0.0
  0
VERTEX
  5
7F
330
7E
100
AcDbEntity
  8
_U+30EC_U+30A4_U+30E4_U+30FC 1
370
     0
100
AcDbVertex
100
AcDb2dVertex
 10
90.18192000783647
 20
-119.7141397812694
 30
0.0
  0
VERTEX
  5
80
330
7E
100
AcDbEntity
  8
_U+30EC_U+30A4_U+30E4_U+30FC 1
370
     0
100
AcDbVertex
100
AcDb2dVertex
 10
89.27000323289084
 20
-119.7141397812694
 30
0.0
  0
VERTEX
  5
81
330
7E
100
AcDbEntity
  8
_U+30EC_U+30A4_U+30E4_U+30FC 1
370
     0
100
AcDbVertex
100
AcDb2dVertex
 10
89.27000323289084
 20
-119.8262776393143
 30
0.0
  0
VERTEX
  5
82
330
7E
100
AcDbEntity
  8
_U+30EC_U+30A4_U+30E4_U+30FC 1
370
     0
100
AcDbVertex
100
AcDb2dVertex
 10
90.18192000783647
 20
-119.8262776393143
 30
0.0
  0
VERTEX
  5
83
330
7E
100
AcDbEntity
  8
_U+30EC_U+30A4_U+30E4_U+30FC 1
370
     0
100
AcDbVertex
100
AcDb2dVertex
 10
90.18192000783647
 20
-119.7141397812694
 30
0.0
  0
SEQEND
  5
84
330
7E
100
AcDbEntity
  8
_U+30EC_U+30A4_U+30E4_U+30FC 1
370
     0
  0
POLYLINE
  5
85
330
59
100
AcDbEntity
  8
_U+30EC_U+30A4_U+30E4_U+30FC 1
370
     0
100
AcDb2dPolyline
 66
     1
 10
0.0
 20
0.0
 30
0.0
  0
VERTEX
  5
86
330
85
100
AcDbEntity
  8
_U+30EC_U+30A4_U+30E4_U+30FC 1
370
     0
100
AcDbVertex
100
AcDb2dVertex
 10
90.18192000783647
 20
-119.9594305798192
 30
0.0
  0
VERTEX
  5
87
330
85
100
AcDbEntity
  8
_U+30EC_U+30A4_U+30E4_U+30FC 1
370
     0
100
AcDbVertex
100
AcDb2dVertex
 10
89.27000323289084
 20
-119.9594305798192
 30
0.0
  0
VERTEX
  5
88
330
85
100
AcDbEntity
  8
_U+30EC_U+30A4_U+30E4_U+30FC 1
370
     0
100
AcDbVertex
100
AcDb2dVertex
 10
89.27000323289084
 20
-120.0695013805729
 30
0.0
  0
VERTEX
  5
89
330
85
100
AcDbEntity
  8
_U+30EC_U+30A4_U+30E4_U+30FC 1
370
     0
100
AcDbVertex
100
AcDb2dVertex
 10
90.18192000783647
 20
-120.0695013805729
 30
0.0
  0
VERTEX
  5
8A
330
85
100
AcDbEntity
  8
_U+30EC_U+30A4_U+30E4_U+30FC 1
370
     0
100
AcDbVertex
100
AcDb2dVertex
 10
90.18192000783647
 20
-119.9594305798192
 30
0.0
  0
SEQEND
  5
8B
330
85
100
AcDbEntity
  8
_U+30EC_U+30A4_U+30E4_U+30FC 1
370
     0
  0
POLYLINE
  5
8C
330
59
100
AcDbEntity
  8
_U+30EC_U+30A4_U+30E4_U+30FC 1
370
     0
100
AcDb2dPolyline
 66
     1
 10
0.0
 20
0.0
 30
0.0
  0
VERTEX
  5
8D
330
8C
100
AcDbEntity
  8
_U+30EC_U+30A4_U+30E4_U+30FC 1
370
     0
100
AcDbVertex
100
AcDb2dVertex
 10
90.18192000783647
 20
-120.2048936331432
 30
0.0
  0
VERTEX
  5
8E
330
8C
100
AcDbEntity
  8
_U+30EC_U+30A4_U+30E4_U+30FC 1
370
     0
100
AcDbVertex
100
AcDb2dVertex
 10
89.27000323289084
 20
-120.2048936331432
 30
0.0
  0
VERTEX
  5
8F
330
8C
100
AcDbEntity
  8
_U+30EC_U+30A4_U+30E4_U+30FC 1
370
     0
100
AcDbVertex
100
AcDb2dVertex
 10
89.27000323289084
 20
-120.3127251218315
 30
0.0
  0
VERTEX
  5
90
330
8C
100
AcDbEntity
  8
_U+30EC_U+30A4_U+30E4_U+30FC 1
370
     0
100
AcDbVertex
100
AcDb2dVertex
 10
90.18192000783647
 20
-120.3127251218315
 30
0.0
  0
VERTEX
  5
91
330
8C
100
AcDbEntity
  8
_U+30EC_U+30A4_U+30E4_U+30FC 1
370
     0
100
AcDbVertex
100
AcDb2dVertex
 10
90.18192000783647
 20
-120.2048936331432
 30
0.0
  0
SEQEND
  5
92
330
8C
100
AcDbEntity
  8
_U+30EC_U+30A4_U+30E4_U+30FC 1
370
     0
  0
SPLINE
  5
93
330
59
100
AcDbEntity
  8
_U+30EC_U+30A4_U+30E4_U+30FC 1
370
     0
100
AcDbSpline
210
0.0
220
0.0
230
1.0
 70
    11
 71
     3
 72
    74
 73
    70
 74
     0
 42
0.0000000001
 43
0.0000000001
 12
1.0
 22
0.0
 32
0.0
 13
1.0
 23
0.0
 33
0.0
 40
0.0
 40
0.0
 40
0.0
 40
0.0
 40
1.0
 40
1.0
 40
1.0
 40
2.0
 40
2.0
 40
2.0
 40
3.0
 40
3.0
 40
3.0
 40
4.0
 40
4.0
 40
4.0
 40
5.0
 40
5.0
 40
5.0
 40
6.0
 40
6.0
 40
6.0
 40
7.0
 40
7.0
 40
7.0
 40
8.0
 40
8.0
 40
8.0
 40
9.0
 40
9.0
 40
9.0
 40
10.0
 40
10.0
 40
10.0
 40
11.0
 40
11.0
 40
11.0
 40
12.0
 40
12.0
 40
12.0
 40
13.0
 40
13.0
 40
13.0
 40
14.0
 40
14.0
 40
14.0
 40
15.0
 40
15.0
 40
15.0
 40
16.0
 40
16.0
 40
16.0
 40
17.0
 40
17.0
 40
17.0
 40
18.0
 40
18.0
 40
18.0
 40
19.0
 40
19.0
 40
19.0
 40
20.0
 40
20.0
 40
20.0
 40
21.0
 40
21.0
 40
21.0
 40
22.0
 40
22.0
 40
22.0
 40
23.0
 40
23.0
 40
23.0
 40
23.0
 10
90.49921330202798
 20
-119.2614542345076
 30
0.0
 10
90.49921330202798
 20
-119.2614542345076
 30
0.0
 10
90.33867185241533
 20
-119.2614542345076
 30
0.0
 10
90.33867185241533
 20
-119.2614542345076
 30
0.0
 10
90.33867185241533
 20
-119.2614542345076
 30
0.0
 10
90.33867185241533
 20
-119.3756591498436
 30
0.0
 10
90.33867185241533
 20
-119.3756591498436
 30
0.0
 10
90.33867185241533
 20
-119.4157945122467
 30
0.0
 10
90.34487302428879
 20
-119.4898640651796
 30
0.0
 10
90.34900713887109
 20
-119.5151855169962
 30
0.0
 10
90.34900713887109
 20
-119.5151855169962
 30
0.0
 10
90.13747827607675
 20
-119.5151855169962
 30
0.0
 10
90.13747827607675
 20
-119.5151855169962
 30
0.0
 10
90.14815807208102
 20
-119.4497287027765
 30
0.0
 10
90.15022512937217
 20
-119.3904730604302
 30
0.0
 10
90.15022512937217
 20
-119.388406003139
 30
0.0
 10
90.15022512937217
 20
-119.388406003139
 30
0.0
 10
90.15022512937217
 20
-119.2655883490899
 30
0.0
 10
90.15022512937217
 20
-119.2655883490899
 30
0.0
 10
90.15022512937217
 20
-119.2655883490899
 30
0.0
 10
89.97039114504213
 20
-119.2655883490899
 30
0.0
 10
89.97039114504213
 20
-119.2655883490899
 30
0.0
 10
89.95144311987326
 20
-119.3248439914362
 30
0.0
 10
89.90493433082239
 20
-119.4707437852365
 30
0.0
 10
89.79055716071208
 20
-119.5532538221082
 30
0.0
 10
89.79055716071208
 20
-119.5532538221082
 30
0.0
 10
89.63414982568175
 20
-119.4474893907111
 30
0.0
 10
89.63414982568175
 20
-119.4474893907111
 30
0.0
 10
89.70821937861461
 20
-119.4009806016602
 30
0.0
 10
89.82431909646753
 20
-119.3269110487273
 30
0.0
 10
89.82431909646753
 20
-119.0054836399535
 30
0.0
 10
89.82431909646753
 20
-118.9503621121895
 30
0.0
 10
89.82018498188523
 20
-118.9059203804298
 30
0.0
 10
89.81811792459409
 20
-118.8678520753178
 30
0.0
 10
89.8942545348181
 20
-118.8762925592566
 30
0.0
 10
89.96832408775097
 20
-118.8826659859043
 30
0.0
 10
90.03171384467957
 20
-118.8826659859043
 30
0.0
 10
90.20948077171846
 20
-118.8826659859043
 30
0.0
 10
90.40826278121739
 20
-118.823410343558
 30
0.0
 10
90.46958548085483
 20
-118.7937825223849
 30
0.0
 10
90.46958548085483
 20
-118.7937825223849
 30
0.0
 10
90.59670950426055
 20
-118.9291747749552
 30
0.0
 10
90.59670950426055
 20
-118.9291747749552
 30
0.0
 10
90.60084361884284
 20
-118.9334811443118
 30
0.0
 10
90.602910676134
 20
-118.9419216282506
 30
0.0
 10
90.602910676134
 20
-118.9482950548984
 30
0.0
 10
90.602910676134
 20
-118.9694823921326
 30
0.0
 10
90.58809676554742
 20
-118.9758558187803
 30
0.0
 10
90.5712157976697
 20
-118.9758558187803
 30
0.0
 10
90.55020071520967
 20
-118.9758558187803
 30
0.0
 10
90.5353868046231
 20
-118.9674153348415
 30
0.0
 10
90.51609426990571
 20
-118.9567355388372
 30
0.0
 10
90.34280596699763
 20
-119.0139241238924
 30
0.0
 10
90.12473142278132
 20
-119.0392455757089
 30
0.0
 10
89.99140622750215
 20
-119.0413126330001
 30
0.0
 10
89.99140622750215
 20
-119.0413126330001
 30
0.0
 10
89.98727211291985
 20
-119.1238226698718
 30
0.0
 10
89.98727211291985
 20
-119.1238226698718
 30
0.0
 10
89.98727211291985
 20
-119.1238226698718
 30
0.0
 10
90.26012367535164
 20
-119.1238226698718
 30
0.0
 10
90.26012367535164
 20
-119.1238226698718
 30
0.0
 10
90.3173122604068
 20
-119.1238226698718
 30
0.0
 10
90.57982853638282
 20
-119.104874644703
 30
0.0
 10
90.62392575859403
 20
-119.0985012180552
 30
0.0
 10
90.62392575859403
 20
-119.0985012180552
 30
0.0
 10
90.62392575859403
 20
-119.267655406381
 30
0.0
 10
90.62392575859403
 20
-119.267655406381
 30
0.0
 10
90.59016382283858
 20
-119.2635212917987
 30
0.0
 10
90.57741696954315
 20
-119.2614542345076
 30
0.0
 10
90.49921330202798
 20
-119.2614542345076
 30
0.0
  0
HATCH
  5
94
330
59
100
AcDbEntity
  8
_U+30EC_U+30A4_U+30E4_U+30FC 1
 62
   179
420
  2234388
100
AcDbHatch
 10
0.0
 20
0.0
 30
0.0
210
0.0
220
0.0
230
1.0
  2
SOLID
 70
     1
 71
     0
 91
        6
 92
        1
 93
        1
 72
     4
 94
        3
 73
     0
 74
     1
 95
       71
 96
       67
 40
0.0
 40
0.0
 40
0.0
 40
0.0
 40
1.0
 40
1.0
 40
1.0
 40
2.0
 40
2.0
 40
2.0
 40
3.0
 40
3.0
 40
3.0
 40
4.0
 40
4.0
 40
4.0
 40
5.0
 40
5.0
 40
5.0
 40
6.0
 40
6.0
 40
6.0
 40
7.0
 40
7.0
 40
7.0
 40
8.0
 40
8.0
 40
8.0
 40
9.0
 40
9.0
 40
9.0
 40
10.0
 40
10.0
 40
10.0
 40
11.0
 40
11.0
 40
11.0
 40
12.0
 40
12.0
 40
12.0
 40
13.0
 40
13.0
 40
13.0
 40
14.0
 40
14.0
 40
14.0
 40
15.0
 40
15.0
 40
15.0
 40
16.0
 40
16.0
 40
16.0
 40
17.0
 40
17.0
 40
17.0
 40
18.0
 40
18.0
 40
18.0
 40
19.0
 40
19.0
 40
19.0
 40
20.0
 40
20.0
 40
20.0
 40
21.0
 40
21.0
 40
21.0
 40
22.0
 40
22.0
 40
22.0
 40
22.0
 10
89.64896373626831
 20
-118.9822292454281
 10
89.63414982568175
 20
-118.9822292454281
 10
89.62140297238632
 20
-118.9779228760715
 10
89.59590926579547
 20
-118.9694823921326
 10
89.4543158413517
 20
-119.0159911811835
 10
89.28068302889511
 20
-119.0328721490612
 10
89.1411566617425
 20
-119.0371785184178
 10
89.1411566617425
 20
-119.0371785184178
 10
89.13908960445134
 20
-119.1260619819372
 10
89.13908960445134
 20
-119.1260619819372
 10
89.13908960445134
 20
-119.1260619819372
 10
89.3991943135877
 20
-119.1260619819372
 10
89.3991943135877
 20
-119.1260619819372
 10
89.45224878406056
 20
-119.1260619819372
 10
89.63414982568175
 20
-119.1176214979984
 10
89.67859155744146
 20
-119.1112480713507
 10
89.67859155744146
 20
-119.1112480713507
 10
89.67859155744146
 20
-119.2719617757376
 10
89.67859155744146
 20
-119.2719617757376
 10
89.62347002967746
 20
-119.2655883490899
 10
89.49875757311142
 20
-119.2635212917987
 10
89.46051701322516
 20
-119.2655883490899
 10
89.46051701322516
 20
-119.2655883490899
 10
89.46051701322516
 20
-119.3756591498436
 10
89.46051701322516
 20
-119.3756591498436
 10
89.46051701322516
 20
-119.4221679388945
 10
89.4625840705163
 20
-119.4855576958231
 10
89.46912975193828
 20
-119.5237982557093
 10
89.46912975193828
 20
-119.5237982557093
 10
89.27654891431281
 20
-119.5237982557093
 10
89.27654891431281
 20
-119.5237982557093
 10
89.28275008618625
 20
-119.4834906385319
 10
89.28929576760824
 20
-119.4009806016602
 10
89.28929576760824
 20
-119.3861666910736
 10
89.28929576760824
 20
-119.3861666910736
 10
89.28929576760824
 20
-119.2655883490899
 10
89.28929576760824
 20
-119.2655883490899
 10
89.28929576760824
 20
-119.2655883490899
 10
89.12427569386477
 20
-119.2655883490899
 10
89.12427569386477
 20
-119.2655883490899
 10
89.0819010193962
 20
-119.4855576958231
 10
89.0267794916322
 20
-119.5660006754036
 10
88.92101506023502
 20
-119.6653916801531
 10
88.92101506023502
 20
-119.6653916801531
 10
88.75392792920042
 20
-119.5511867648171
 10
88.75392792920042
 20
-119.5511867648171
 10
88.817317686129
 20
-119.502610918475
 10
88.9675238492859
 20
-119.3904730604302
 10
88.9675238492859
 20
-119.0413126330001
 10
88.9675238492859
 20
-118.9588025961284
 10
88.9592556201213
 20
-118.9122938070775
 10
88.95064288140817
 20
-118.8637179607355
 10
89.09671492998277
 20
-118.878531871322
 10
89.11152884056935
 20
-118.878531871322
 10
89.14735783361594
 20
-118.878531871322
 10
89.25553383185279
 20
-118.878531871322
 10
89.39712725629656
 20
-118.8614786486701
 10
89.55801321545772
 20
-118.8001559490326
 10
89.55801321545772
 20
-118.8001559490326
 10
89.6720458760195
 20
-118.9314140870206
 10
89.6720458760195
 20
-118.9314140870206
 10
89.67859155744146
 20
-118.9377875136683
 10
89.68272567202376
 20
-118.9462279976072
 10
89.68272567202376
 20
-118.9546684815461
 10
89.68272567202376
 20
-118.9779228760715
 10
89.6637776468549
 20
-118.9822292454281
 10
89.64896373626831
 20
-118.9822292454281
 97
        0
 97
        0
 92
        1
 93
        1
 72
     4
 94
        3
 73
     0
 74
     1
 95
       74
 96
       70
 40
0.0
 40
0.0
 40
0.0
 40
0.0
 40
1.0
 40
1.0
 40
1.0
 40
2.0
 40
2.0
 40
2.0
 40
3.0
 40
3.0
 40
3.0
 40
4.0
 40
4.0
 40
4.0
 40
5.0
 40
5.0
 40
5.0
 40
6.0
 40
6.0
 40
6.0
 40
7.0
 40
7.0
 40
7.0
 40
8.0
 40
8.0
 40
8.0
 40
9.0
 40
9.0
 40
9.0
 40
10.0
 40
10.0
 40
10.0
 40
11.0
 40
11.0
 40
11.0
 40
12.0
 40
12.0
 40
12.0
 40
13.0
 40
13.0
 40
13.0
 40
14.0
 40
14.0
 40
14.0
 40
15.0
 40
15.0
 40
15.0
 40
16.0
 40
16.0
 40
16.0
 40
17.0
 40
17.0
 40
17.0
 40
18.0
 40
18.0
 40
18.0
 40
19.0
 40
19.0
 40
19.0
 40
20.0
 40
20.0
 40
20.0
 40
21.0
 40
21.0
 40
21.0
 40
22.0
 40
22.0
 40
22.0
 40
23.0
 40
23.0
 40
23.0
 40
23.0
 10
90.48646644873256
 20
-120.7485297007157
 10
90.27287052864706
 20
-120.7380221594856
 10
90.072021461857
 20
-120.6512057532573
 10
89.89632159210926
 20
-120.5306274112736
 10
89.89632159210926
 20
-120.5306274112736
 10
89.99381779434182
 20
-120.4439832598196
 10
89.99381779434182
 20
-120.4439832598196
 10
89.99381779434182
 20
-120.4439832598196
 10
89.44156898805628
 20
-120.4439832598196
 10
89.44156898805628
 20
-120.4439832598196
 10
89.44156898805628
 20
-120.4439832598196
 10
89.5218397128626
 20
-120.5073730167482
 10
89.5218397128626
 20
-120.5073730167482
 10
89.52838539428457
 20
-120.5116793861047
 10
89.53872068074033
 20
-120.5221869273347
 10
89.53872068074033
 20
-120.5370008379213
 10
89.53872068074033
 20
-120.5773084550987
 10
89.46465112780746
 20
-120.570935028451
 10
89.44983721722087
 20
-120.5686957163856
 10
89.21936032925767
 20
-120.7083943383125
 10
89.07569984752274
 20
-120.7400892167768
 10
88.97200247341672
 20
-120.7569701846545
 10
88.97200247341672
 20
-120.7569701846545
 10
88.84281139271985
 20
-120.5793755123899
 10
88.84281139271985
 20
-120.5793755123899
 10
89.09051375810932
 20
-120.5476806339256
 10
89.19179956537566
 20
-120.5009995901004
 10
89.28068302889511
 20
-120.4481173744019
 10
89.20661347596224
 20
-120.4503566864673
 10
89.09258081540047
 20
-120.4524237437584
 10
89.06088593693617
 20
-120.4544908010496
 10
89.07569984752274
 20
-120.3656073375301
 10
89.0777669048139
 20
-120.2365885116075
 10
89.0777669048139
 20
-120.1625189586747
 10
89.0777669048139
 20
-120.1625189586747
 10
89.0777669048139
 20
-119.8621066323609
 10
89.0777669048139
 20
-119.8621066323609
 10
89.0777669048139
 20
-119.7627156276114
 10
89.07122122339192
 20
-119.6633246228619
 10
89.06088593693617
 20
-119.5660006754036
 10
89.16217174420251
 20
-119.5723741020514
 10
89.39299314171426
 20
-119.5787475286991
 10
89.50082463040258
 20
-119.5787475286991
 10
89.50082463040258
 20
-119.5787475286991
 10
89.92388235599125
 20
-119.5787475286991
 10
89.92388235599125
 20
-119.5787475286991
 10
90.04239364068385
 20
-119.5787475286991
 10
90.08476831515242
 20
-119.5787475286991
 10
90.1671060972499
 20
-119.5744411593425
 10
90.31524520311564
 20
-119.5680677326948
 10
90.33212617099336
 20
-119.5680677326948
 10
90.37863496004424
 20
-119.5660006754036
 10
90.37036673087964
 20
-119.6464436549842
 10
90.36588810674881
 20
-119.80509030208
 10
90.36588810674881
 20
-119.8876003389517
 10
90.36588810674881
 20
-119.8876003389517
 10
90.36588810674881
 20
-120.1731987546789
 10
90.36588810674881
 20
-120.1731987546789
 10
90.36588810674881
 20
-120.2450289955464
 10
90.36795516403996
 20
-120.3762871335344
 10
90.37863496004424
 20
-120.4544908010496
 10
90.30663246440251
 20
-120.4503566864673
 10
90.18398706512762
 20
-120.4481173744019
 10
90.10578339761244
 20
-120.4460503171107
 10
90.21568194359192
 20
-120.5137464433959
 10
90.36795516403996
 20
-120.5645616018033
 10
90.57982853638282
 20
-120.5686957163856
 10
90.57982853638282
 20
-120.5686957163856
 10
90.48646644873256
 20
-120.7485297007157
 10
90.48646644873256
 20
-120.7485297007157
 97
        0
 97
        0
 92
        1
 93
        4
 72
     1
 10
90.18192000783647
 20
-119.7141397812694
 11
89.27000323289084
 21
-119.7141397812694
 72
     1
 10
89.27000323289084
 20
-119.7141397812694
 11
89.27000323289084
 21
-119.8262776393143
 72
     1
 10
89.27000323289084
 20
-119.8262776393143
 11
90.18192000783647
 21
-119.8262776393143
 72
     1
 10
90.18192000783647
 20
-119.8262776393143
 11
90.18192000783647
 21
-119.7141397812694
 97
        0
 92
        1
 93
        4
 72
     1
 10
90.18192000783647
 20
-119.9594305798192
 11
89.27000323289084
 21
-119.9594305798192
 72
     1
 10
89.27000323289084
 20
-119.9594305798192
 11
89.27000323289084
 21
-120.0695013805729
 72
     1
 10
89.27000323289084
 20
-120.0695013805729
 11
90.18192000783647
 21
-120.0695013805729
 72
     1
 10
90.18192000783647
 20
-120.0695013805729
 11
90.18192000783647
 21
-119.9594305798192
 97
        0
 92
        1
 93
        4
 72
     1
 10
90.18192000783647
 20
-120.2048936331432
 11
89.27000323289084
 21
-120.2048936331432
 72
     1
 10
89.27000323289084
 20
-120.2048936331432
 11
89.27000323289084
 21
-120.3127251218315
 72
     1
 10
89.27000323289084
 20
-120.3127251218315
 11
90.18192000783647
 21
-120.3127251218315
 72
     1
 10
90.18192000783647
 20
-120.3127251218315
 11
90.18192000783647
 21
-120.2048936331432
 97
        0
 92
        1
 93
        1
 72
     4
 94
        3
 73
     0
 74
     1
 95
       74
 96
       70
 40
0.0
 40
0.0
 40
0.0
 40
0.0
 40
1.0
 40
1.0
 40
1.0
 40
2.0
 40
2.0
 40
2.0
 40
3.0
 40
3.0
 40
3.0
 40
4.0
 40
4.0
 40
4.0
 40
5.0
 40
5.0
 40
5.0
 40
6.0
 40
6.0
 40
6.0
 40
7.0
 40
7.0
 40
7.0
 40
8.0
 40
8.0
 40
8.0
 40
9.0
 40
9.0
 40
9.0
 40
10.0
 40
10.0
 40
10.0
 40
11.0
 40
11.0
 40
11.0
 40
12.0
 40
12.0
 40
12.0
 40
13.0
 40
13.0
 40
13.0
 40
14.0
 40
14.0
 40
14.0
 40
15.0
 40
15.0
 40
15.0
 40
16.0
 40
16.0
 40
16.0
 40
17.0
 40
17.0
 40
17.0
 40
18.0
 40
18.0
 40
18.0
 40
19.0
 40
19.0
 40
19.0
 40
20.0
 40
20.0
 40
20.0
 40
21.0
 40
21.0
 40
21.0
 40
22.0
 40
22.0
 40
22.0
 40
23.0
 40
23.0
 40
23.0
 40
23.0
 10
90.49921330202798
 20
-119.2614542345076
 10
90.49921330202798
 20
-119.2614542345076
 10
90.33867185241533
 20
-119.2614542345076
 10
90.33867185241533
 20
-119.2614542345076
 10
90.33867185241533
 20
-119.2614542345076
 10
90.33867185241533
 20
-119.3756591498436
 10
90.33867185241533
 20
-119.3756591498436
 10
90.33867185241533
 20
-119.4157945122467
 10
90.34487302428879
 20
-119.4898640651796
 10
90.34900713887109
 20
-119.5151855169962
 10
90.34900713887109
 20
-119.5151855169962
 10
90.13747827607675
 20
-119.5151855169962
 10
90.13747827607675
 20
-119.5151855169962
 10
90.14815807208102
 20
-119.4497287027765
 10
90.15022512937217
 20
-119.3904730604302
 10
90.15022512937217
 20
-119.388406003139
 10
90.15022512937217
 20
-119.388406003139
 10
90.15022512937217
 20
-119.2655883490899
 10
90.15022512937217
 20
-119.2655883490899
 10
90.15022512937217
 20
-119.2655883490899
 10
89.97039114504213
 20
-119.2655883490899
 10
89.97039114504213
 20
-119.2655883490899
 10
89.95144311987326
 20
-119.3248439914362
 10
89.90493433082239
 20
-119.4707437852365
 10
89.79055716071208
 20
-119.5532538221082
 10
89.79055716071208
 20
-119.5532538221082
 10
89.63414982568175
 20
-119.4474893907111
 10
89.63414982568175
 20
-119.4474893907111
 10
89.70821937861461
 20
-119.4009806016602
 10
89.82431909646753
 20
-119.3269110487273
 10
89.82431909646753
 20
-119.0054836399535
 10
89.82431909646753
 20
-118.9503621121895
 10
89.82018498188523
 20
-118.9059203804298
 10
89.81811792459409
 20
-118.8678520753178
 10
89.8942545348181
 20
-118.8762925592566
 10
89.96832408775097
 20
-118.8826659859043
 10
90.03171384467957
 20
-118.8826659859043
 10
90.20948077171846
 20
-118.8826659859043
 10
90.40826278121739
 20
-118.823410343558
 10
90.46958548085483
 20
-118.7937825223849
 10
90.46958548085483
 20
-118.7937825223849
 10
90.59670950426055
 20
-118.9291747749552
 10
90.59670950426055
 20
-118.9291747749552
 10
90.60084361884284
 20
-118.9334811443118
 10
90.602910676134
 20
-118.9419216282506
 10
90.602910676134
 20
-118.9482950548984
 10
90.602910676134
 20
-118.9694823921326
 10
90.58809676554742
 20
-118.9758558187803
 10
90.5712157976697
 20
-118.9758558187803
 10
90.55020071520967
 20
-118.9758558187803
 10
90.5353868046231
 20
-118.9674153348415
 10
90.51609426990571
 20
-118.9567355388372
 10
90.34280596699763
 20
-119.0139241238924
 10
90.12473142278132
 20
-119.0392455757089
 10
89.99140622750215
 20
-119.0413126330001
 10
89.99140622750215
 20
-119.0413126330001
 10
89.98727211291985
 20
-119.1238226698718
 10
89.98727211291985
 20
-119.1238226698718
 10
89.98727211291985
 20
-119.1238226698718
 10
90.26012367535164
 20
-119.1238226698718
 10
90.26012367535164
 20
-119.1238226698718
 10
90.3173122604068
 20
-119.1238226698718
 10
90.57982853638282
 20
-119.104874644703
 10
90.62392575859403
 20
-119.0985012180552
 10
90.62392575859403
 20
-119.0985012180552
 10
90.62392575859403
 20
-119.267655406381
 10
90.62392575859403
 20
-119.267655406381
 10
90.59016382283858
 20
-119.2635212917987
 10
90.57741696954315
 20
-119.2614542345076
 10
90.49921330202798
 20
-119.2614542345076
 97
        0
 97
        0
 75
     2
 76
     1
 98
        0
  0
SPLINE
  5
95
330
59
100
AcDbEntity
  8
_U+30EC_U+30A4_U+30E4_U+30FC 1
370
     0
100
AcDbSpline
210
0.0
220
0.0
230
1.0
 70
    11
 71
     3
 72
    53
 73
    49
 74
     0
 42
0.0000000001
 43
0.0000000001
 12
1.0
 22
0.0
 32
0.0
 13
1.0
 23
0.0
 33
0.0
 40
0.0
 40
0.0
 40
0.0
 40
0.0
 40
1.0
 40
1.0
 40
1.0
 40
2.0
 40
2.0
 40
2.0
 40
3.0
 40
3.0
 40
3.0
 40
4.0
 40
4.0
 40
4.0
 40
5.0
 40
5.0
 40
5.0
 40
6.0
 40
6.0
 40
6.0
 40
7.0
 40
7.0
 40
7.0
 40
8.0
 40
8.0
 40
8.0
 40
9.0
 40
9.0
 40
9.0
 40
10.0
 40
10.0
 40
10.0
 40
11.0
 40
11.0
 40
11.0
 40
12.0
 40
12.0
 40
12.0
 40
13.0
 40
13.0
 40
13.0
 40
14.0
 40
14.0
 40
14.0
 40
15.0
 40
15.0
 40
15.0
 40
16.0
 40
16.0
 40
16.0
 40
16.0
 10
91.95269908725489
 20
-120.6238172441496
 30
0.0
 10
91.7625298164691
 20
-120.6238172441496
 30
0.0
 10
91.7032741741228
 20
-120.4989325328093
 30
0.0
 10
91.7032741741228
 20
-120.3507934269436
 30
0.0
 10
91.7032741741228
 20
-120.3507934269436
 30
0.0
 10
91.7032741741228
 20
-119.6569511962142
 30
0.0
 10
91.7032741741228
 20
-119.6569511962142
 30
0.0
 10
91.7032741741228
 20
-119.6569511962142
 30
0.0
 10
91.52137313250161
 20
-119.6569511962142
 30
0.0
 10
91.52137313250161
 20
-119.6569511962142
 30
0.0
 10
91.52137313250161
 20
-119.6569511962142
 30
0.0
 10
91.52137313250161
 20
-119.464542613363
 30
0.0
 10
91.52137313250161
 20
-119.464542613363
 30
0.0
 10
91.52137313250161
 20
-119.464542613363
 30
0.0
 10
91.7032741741228
 20
-119.464542613363
 30
0.0
 10
91.7032741741228
 20
-119.464542613363
 30
0.0
 10
91.7032741741228
 20
-119.464542613363
 30
0.0
 10
91.7032741741228
 20
-119.1493163764627
 30
0.0
 10
91.7032741741228
 20
-119.1493163764627
 30
0.0
 10
91.7032741741228
 20
-119.1493163764627
 30
0.0
 10
91.92100420879059
 20
-119.1493163764627
 30
0.0
 10
91.92100420879059
 20
-119.1493163764627
 30
0.0
 10
91.92100420879059
 20
-119.1493163764627
 30
0.0
 10
91.92100420879059
 20
-119.464542613363
 30
0.0
 10
91.92100420879059
 20
-119.464542613363
 30
0.0
 10
91.92100420879059
 20
-119.464542613363
 30
0.0
 10
92.1115179891249
 20
-119.464542613363
 30
0.0
 10
92.1115179891249
 20
-119.464542613363
 30
0.0
 10
92.1115179891249
 20
-119.464542613363
 30
0.0
 10
92.1115179891249
 20
-119.6569511962142
 30
0.0
 10
92.1115179891249
 20
-119.6569511962142
 30
0.0
 10
92.1115179891249
 20
-119.6569511962142
 30
0.0
 10
91.92100420879059
 20
-119.6569511962142
 30
0.0
 10
91.92100420879059
 20
-119.6569511962142
 30
0.0
 10
91.92100420879059
 20
-119.6569511962142
 30
0.0
 10
91.92100420879059
 20
-120.325471975127
 30
0.0
 10
91.92100420879059
 20
-120.325471975127
 30
0.0
 10
91.92100420879059
 20
-120.4100490692899
 30
0.0
 10
91.97405867926344
 20
-120.4333034638153
 30
0.0
 10
92.04571666535664
 20
-120.4333034638153
 30
0.0
 10
92.0563964613609
 20
-120.4333034638153
 30
0.0
 10
92.0798231106606
 20
-120.4333034638153
 30
0.0
 10
92.1115179891249
 20
-120.429169349233
 30
0.0
 10
92.1115179891249
 20
-120.429169349233
 30
0.0
 10
92.1115179891249
 20
-120.6005628496242
 30
0.0
 10
92.1115179891249
 20
-120.6005628496242
 30
0.0
 10
92.07775605336946
 20
-120.6131374481453
 30
0.0
 10
92.00368650043659
 20
-120.6238172441496
 30
0.0
 10
91.95269908725489
 20
-120.6238172441496
 30
0.0
  0
HATCH
  5
96
330
59
100
AcDbEntity
  8
_U+30EC_U+30A4_U+30E4_U+30FC 1
 62
   179
420
  2234388
100
AcDbHatch
 10
0.0
 20
0.0
 30
0.0
210
0.0
220
0.0
230
1.0
  2
SOLID
 70
     1
 71
     0
 91
        1
 92
        1
 93
        1
 72
     4
 94
        3
 73
     0
 74
     1
 95
       53
 96
       49
 40
0.0
 40
0.0
 40
0.0
 40
0.0
 40
1.0
 40
1.0
 40
1.0
 40
2.0
 40
2.0
 40
2.0
 40
3.0
 40
3.0
 40
3.0
 40
4.0
 40
4.0
 40
4.0
 40
5.0
 40
5.0
 40
5.0
 40
6.0
 40
6.0
 40
6.0
 40
7.0
 40
7.0
 40
7.0
 40
8.0
 40
8.0
 40
8.0
 40
9.0
 40
9.0
 40
9.0
 40
10.0
 40
10.0
 40
10.0
 40
11.0
 40
11.0
 40
11.0
 40
12.0
 40
12.0
 40
12.0
 40
13.0
 40
13.0
 40
13.0
 40
14.0
 40
14.0
 40
14.0
 40
15.0
 40
15.0
 40
15.0
 40
16.0
 40
16.0
 40
16.0
 40
16.0
 10
91.95269908725489
 20
-120.6238172441496
 10
91.7625298164691
 20
-120.6238172441496
 10
91.7032741741228
 20
-120.4989325328093
 10
91.7032741741228
 20
-120.3507934269436
 10
91.7032741741228
 20
-120.3507934269436
 10
91.7032741741228
 20
-119.6569511962142
 10
91.7032741741228
 20
-119.6569511962142
 10
91.7032741741228
 20
-119.6569511962142
 10
91.52137313250161
 20
-119.6569511962142
 10
91.52137313250161
 20
-119.6569511962142
 10
91.52137313250161
 20
-119.6569511962142
 10
91.52137313250161
 20
-119.464542613363
 10
91.52137313250161
 20
-119.464542613363
 10
91.52137313250161
 20
-119.464542613363
 10
91.7032741741228
 20
-119.464542613363
 10
91.7032741741228
 20
-119.464542613363
 10
91.7032741741228
 20
-119.464542613363
 10
91.7032741741228
 20
-119.1493163764627
 10
91.7032741741228
 20
-119.1493163764627
 10
91.7032741741228
 20
-119.1493163764627
 10
91.92100420879059
 20
-119.1493163764627
 10
91.92100420879059
 20
-119.1493163764627
 10
91.92100420879059
 20
-119.1493163764627
 10
91.92100420879059
 20
-119.464542613363
 10
91.92100420879059
 20
-119.464542613363
 10
91.92100420879059
 20
-119.464542613363
 10
92.1115179891249
 20
-119.464542613363
 10
92.1115179891249
 20
-119.464542613363
 10
92.1115179891249
 20
-119.464542613363
 10
92.1115179891249
 20
-119.6569511962142
 10
92.1115179891249
 20
-119.6569511962142
 10
92.1115179891249
 20
-119.6569511962142
 10
91.92100420879059
 20
-119.6569511962142
 10
91.92100420879059
 20
-119.6569511962142
 10
91.92100420879059
 20
-119.6569511962142
 10
91.92100420879059
 20
-120.325471975127
 10
91.92100420879059
 20
-120.325471975127
 10
91.92100420879059
 20
-120.4100490692899
 10
91.97405867926344
 20
-120.4333034638153
 10
92.04571666535664
 20
-120.4333034638153
 10
92.0563964613609
 20
-120.4333034638153
 10
92.0798231106606
 20
-120.4333034638153
 10
92.1115179891249
 20
-120.429169349233
 10
92.1115179891249
 20
-120.429169349233
 10
92.1115179891249
 20
-120.6005628496242
 10
92.1115179891249
 20
-120.6005628496242
 10
92.07775605336946
 20
-120.6131374481453
 10
92.00368650043659
 20
-120.6238172441496
 10
91.95269908725489
 20
-120.6238172441496
 97
        0
 97
        0
 75
     2
 76
     1
 98
        0
  0
POLYLINE
  5
97
330
59
100
AcDbEntity
  8
_U+30EC_U+30A4_U+30E4_U+30FC 1
370
     0
100
AcDb2dPolyline
 66
     1
 10
0.0
 20
0.0
 30
0.0
  0
VERTEX
  5
98
330
97
100
AcDbEntity
  8
_U+30EC_U+30A4_U+30E4_U+30FC 1
370
     0
100
AcDbVertex
100
AcDb2dVertex
 10
92.32408038056482
 20
-119.6865790173874
 30
0.0
  0
VERTEX
  5
99
330
97
100
AcDbEntity
  8
_U+30EC_U+30A4_U+30E4_U+30FC 1
370
     0
100
AcDbVertex
100
AcDb2dVertex
 10
92.32408038056482
 20
-119.4814235812408
 30
0.0
  0
VERTEX
  5
9A
330
97
100
AcDbEntity
  8
_U+30EC_U+30A4_U+30E4_U+30FC 1
370
     0
100
AcDbVertex
100
AcDb2dVertex
 10
93.50230303652026
 20
-119.4814235812408
 30
0.0
  0
VERTEX
  5
9B
330
97
100
AcDbEntity
  8
_U+30EC_U+30A4_U+30E4_U+30FC 1
370
     0
100
AcDbVertex
100
AcDb2dVertex
 10
93.50230303652026
 20
-119.6865790173874
 30
0.0
  0
VERTEX
  5
9C
330
97
100
AcDbEntity
  8
_U+30EC_U+30A4_U+30E4_U+30FC 1
370
     0
100
AcDbVertex
100
AcDb2dVertex
 10
92.32408038056482
 20
-119.6865790173874
 30
0.0
  0
SEQEND
  5
9D
330
97
100
AcDbEntity
  8
_U+30EC_U+30A4_U+30E4_U+30FC 1
370
     0
  0
POLYLINE
  5
9E
330
59
100
AcDbEntity
  8
_U+30EC_U+30A4_U+30E4_U+30FC 1
370
     0
100
AcDb2dPolyline
 66
     1
 10
0.0
 20
0.0
 30
0.0
  0
VERTEX
  5
9F
330
9E
100
AcDbEntity
  8
_U+30EC_U+30A4_U+30E4_U+30FC 1
370
     0
100
AcDbVertex
100
AcDb2dVertex
 10
92.32408038056482
 20
-120.1203165389803
 30
0.0
  0
VERTEX
  5
A0
330
9E
100
AcDbEntity
  8
_U+30EC_U+30A4_U+30E4_U+30FC 1
370
     0
100
AcDbVertex
100
AcDb2dVertex
 10
92.32408038056482
 20
-119.9151611028337
 30
0.0
  0
VERTEX
  5
A1
330
9E
100
AcDbEntity
  8
_U+30EC_U+30A4_U+30E4_U+30FC 1
370
     0
100
AcDbVertex
100
AcDb2dVertex
 10
93.50230303652026
 20
-119.9151611028337
 30
0.0
  0
VERTEX
  5
A2
330
9E
100
AcDbEntity
  8
_U+30EC_U+30A4_U+30E4_U+30FC 1
370
     0
100
AcDbVertex
100
AcDb2dVertex
 10
93.50230303652026
 20
-120.1203165389803
 30
0.0
  0
VERTEX
  5
A3
330
9E
100
AcDbEntity
  8
_U+30EC_U+30A4_U+30E4_U+30FC 1
370
     0
100
AcDbVertex
100
AcDb2dVertex
 10
92.32408038056482
 20
-120.1203165389803
 30
0.0
  0
SEQEND
  5
A4
330
9E
100
AcDbEntity
  8
_U+30EC_U+30A4_U+30E4_U+30FC 1
370
     0
  0
HATCH
  5
A5
330
59
100
AcDbEntity
  8
_U+30EC_U+30A4_U+30E4_U+30FC 1
 62
   179
420
  2234388
100
AcDbHatch
 10
0.0
 20
0.0
 30
0.0
210
0.0
220
0.0
230
1.0
  2
SOLID
 70
     1
 71
     0
 91
        2
 92
        1
 93
        4
 72
     1
 10
92.32408038056482
 20
-119.6865790173874
 11
92.32408038056482
 21
-119.4814235812408
 72
     1
 10
92.32408038056482
 20
-119.4814235812408
 11
93.50230303652026
 21
-119.4814235812408
 72
     1
 10
93.50230303652026
 20
-119.4814235812408
 11
93.50230303652026
 21
-119.6865790173874
 72
     1
 10
93.50230303652026
 20
-119.6865790173874
 11
92.32408038056482
 21
-119.6865790173874
 97
        0
 92
        1
 93
        4
 72
     1
 10
92.32408038056482
 20
-120.1203165389803
 11
92.32408038056482
 21
-119.9151611028337
 72
     1
 10
92.32408038056482
 20
-119.9151611028337
 11
93.50230303652026
 21
-119.9151611028337
 72
     1
 10
93.50230303652026
 20
-119.9151611028337
 11
93.50230303652026
 21
-120.1203165389803
 72
     1
 10
93.50230303652026
 20
-120.1203165389803
 11
92.32408038056482
 21
-120.1203165389803
 97
        0
 75
     2
 76
     1
 98
        0
  0
SPLINE
  5
A6
330
59
100
AcDbEntity
  8
_U+30EC_U+30A4_U+30E4_U+30FC 1
370
     0
100
AcDbSpline
210
0.0
220
0.0
230
1.0
 70
    11
 71
     3
 72
    26
 73
    22
 74
     0
 42
0.0000000001
 43
0.0000000001
 12
1.0
 22
0.0
 32
0.0
 13
1.0
 23
0.0
 33
0.0
 40
0.0
 40
0.0
 40
0.0
 40
0.0
 40
1.0
 40
1.0
 40
1.0
 40
2.0
 40
2.0
 40
2.0
 40
3.0
 40
3.0
 40
3.0
 40
4.0
 40
4.0
 40
4.0
 40
5.0
 40
5.0
 40
5.0
 40
6.0
 40
6.0
 40
6.0
 40
7.0
 40
7.0
 40
7.0
 40
7.0
 10
94.13930119174296
 20
-120.5730020857422
 30
0.0
 10
94.13930119174296
 20
-120.5730020857422
 30
0.0
 10
94.13930119174296
 20
-119.4686767279453
 30
0.0
 10
94.13930119174296
 20
-119.4686767279453
 30
0.0
 10
94.13930119174296
 20
-119.4686767279453
 30
0.0
 10
93.80926104425602
 20
-119.4686767279453
 30
0.0
 10
93.80926104425602
 20
-119.4686767279453
 30
0.0
 10
93.80926104425602
 20
-119.4686767279453
 30
0.0
 10
93.80926104425602
 20
-119.3205376220796
 30
0.0
 10
93.80926104425602
 20
-119.3205376220796
 30
0.0
 10
94.1413682490341
 20
-119.3058959662673
 30
0.0
 10
94.18787703808498
 20
-119.142942949815
 30
0.0
 10
94.21750485925813
 20
-119.0287380344789
 30
0.0
 10
94.21750485925813
 20
-119.0287380344789
 30
0.0
 10
94.36357690783272
 20
-119.0287380344789
 30
0.0
 10
94.36357690783272
 20
-119.0287380344789
 30
0.0
 10
94.36357690783272
 20
-119.0287380344789
 30
0.0
 10
94.36357690783272
 20
-120.5730020857422
 30
0.0
 10
94.36357690783272
 20
-120.5730020857422
 30
0.0
 10
94.36357690783272
 20
-120.5730020857422
 30
0.0
 10
94.13930119174296
 20
-120.5730020857422
 30
0.0
 10
94.13930119174296
 20
-120.5730020857422
 30
0.0
  0
HATCH
  5
A7
330
59
100
AcDbEntity
  8
_U+30EC_U+30A4_U+30E4_U+30FC 1
 62
   179
420
  2234388
100
AcDbHatch
 10
0.0
 20
0.0
 30
0.0
210
0.0
220
0.0
230
1.0
  2
SOLID
 70
     1
 71
     0
 91
        1
 92
        1
 93
        1
 72
     4
 94
        3
 73
     0
 74
     1
 95
       26
 96
       22
 40
0.0
 40
0.0
 40
0.0
 40
0.0
 40
1.0
 40
1.0
 40
1.0
 40
2.0
 40
2.0
 40
2.0
 40
3.0
 40
3.0
 40
3.0
 40
4.0
 40
4.0
 40
4.0
 40
5.0
 40
5.0
 40
5.0
 40
6.0
 40
6.0
 40
6.0
 40
7.0
 40
7.0
 40
7.0
 40
7.0
 10
94.13930119174296
 20
-120.5730020857422
 10
94.13930119174296
 20
-120.5730020857422
 10
94.13930119174296
 20
-119.4686767279453
 10
94.13930119174296
 20
-119.4686767279453
 10
94.13930119174296
 20
-119.4686767279453
 10
93.80926104425602
 20
-119.4686767279453
 10
93.80926104425602
 20
-119.4686767279453
 10
93.80926104425602
 20
-119.4686767279453
 10
93.80926104425602
 20
-119.3205376220796
 10
93.80926104425602
 20
-119.3205376220796
 10
94.1413682490341
 20
-119.3058959662673
 10
94.18787703808498
 20
-119.142942949815
 10
94.21750485925813
 20
-119.0287380344789
 10
94.21750485925813
 20
-119.0287380344789
 10
94.36357690783272
 20
-119.0287380344789
 10
94.36357690783272
 20
-119.0287380344789
 10
94.36357690783272
 20
-119.0287380344789
 10
94.36357690783272
 20
-120.5730020857422
 10
94.36357690783272
 20
-120.5730020857422
 10
94.36357690783272
 20
-120.5730020857422
 10
94.13930119174296
 20
-120.5730020857422
 10
94.13930119174296
 20
-120.5730020857422
 97
        0
 97
        0
 75
     2
 76
     1
 98
        0
  0
POLYLINE
  5
A8
330
59
100
AcDbEntity
  8
_U+30EC_U+30A4_U+30E4_U+30FC 1
370
     0
100
AcDb2dPolyline
 66
     1
 10
0.0
 20
0.0
 30
0.0
  0
VERTEX
  5
A9
330
A8
100
AcDbEntity
  8
_U+30EC_U+30A4_U+30E4_U+30FC 1
370
     0
100
AcDbVertex
100
AcDb2dVertex
 10
94.80627167768732
 20
-120.5730020857422
 30
0.0
  0
VERTEX
  5
AA
330
A8
100
AcDbEntity
  8
_U+30EC_U+30A4_U+30E4_U+30FC 1
370
     0
100
AcDbVertex
100
AcDb2dVertex
 10
94.80627167768732
 20
-120.3213378605447
 30
0.0
  0
VERTEX
  5
AB
330
A8
100
AcDbEntity
  8
_U+30EC_U+30A4_U+30E4_U+30FC 1
370
     0
100
AcDbVertex
100
AcDb2dVertex
 10
95.05810815765909
 20
-120.3213378605447
 30
0.0
  0
VERTEX
  5
AC
330
A8
100
AcDbEntity
  8
_U+30EC_U+30A4_U+30E4_U+30FC 1
370
     0
100
AcDbVertex
100
AcDb2dVertex
 10
95.05810815765909
 20
-120.5730020857422
 30
0.0
  0
VERTEX
  5
AD
330
A8
100
AcDbEntity
  8
_U+30EC_U+30A4_U+30E4_U+30FC 1
370
     0
100
AcDbVertex
100
AcDb2dVertex
 10
94.80627167768732
 20
-120.5730020857422
 30
0.0
  0
SEQEND
  5
AE
330
A8
100
AcDbEntity
  8
_U+30EC_U+30A4_U+30E4_U+30FC 1
370
     0
  0
HATCH
  5
AF
330
59
100
AcDbEntity
  8
_U+30EC_U+30A4_U+30E4_U+30FC 1
 62
   179
420
  2234388
100
AcDbHatch
 10
0.0
 20
0.0
 30
0.0
210
0.0
220
0.0
230
1.0
  2
SOLID
 70
     1
 71
     0
 91
        1
 92
        1
 93
        4
 72
     1
 10
94.80627167768732
 20
-120.5730020857422
 11
94.80627167768732
 21
-120.3213378605447
 72
     1
 10
94.80627167768732
 20
-120.3213378605447
 11
95.05810815765909
 21
-120.3213378605447
 72
     1
 10
95.05810815765909
 20
-120.3213378605447
 11
95.05810815765909
 21
-120.5730020857422
 72
     1
 10
95.05810815765909
 20
-120.5730020857422
 11
94.80627167768732
 21
-120.5730020857422
 97
        0
 75
     2
 76
     1
 98
        0
  0
SPLINE
  5
B0
330
59
100
AcDbEntity
  8
_U+30EC_U+30A4_U+30E4_U+30FC 1
370
     0
100
AcDbSpline
210
0.0
220
0.0
230
1.0
 70
    11
 71
     3
 72
    29
 73
    25
 74
     0
 42
0.0000000001
 43
0.0000000001
 12
1.0
 22
0.0
 32
0.0
 13
1.0
 23
0.0
 33
0.0
 40
0.0
 40
0.0
 40
0.0
 40
0.0
 40
1.0
 40
1.0
 40
1.0
 40
2.0
 40
2.0
 40
2.0
 40
3.0
 40
3.0
 40
3.0
 40
4.0
 40
4.0
 40
4.0
 40
5.0
 40
5.0
 40
5.0
 40
6.0
 40
6.0
 40
6.0
 40
7.0
 40
7.0
 40
7.0
 40
8.0
 40
8.0
 40
8.0
 40
8.0
 10
96.34967445507925
 20
-120.3952351587033
 30
0.0
 10
96.24149845684241
 20
-120.6046969642065
 30
0.0
 10
96.06821015393434
 20
-120.6238172441496
 30
0.0
 10
95.9517659265329
 20
-120.6238172441496
 30
0.0
 10
95.79087996737172
 20
-120.6238172441496
 30
0.0
 10
95.64928654292797
 20
-120.5773084550987
 30
0.0
 10
95.55420190753506
 20
-120.3952351587033
 30
0.0
 10
95.45050453342904
 20
-120.2007595185609
 30
0.0
 10
95.43121199871165
 20
-119.9637369491757
 30
0.0
 10
95.43121199871165
 20
-119.8007839327234
 30
0.0
 10
95.43121199871165
 20
-119.6569511962142
 30
0.0
 10
95.4484374761379
 20
-119.4052869710167
 30
0.0
 10
95.55420190753506
 20
-119.2063327067436
 30
0.0
 10
95.66203339622338
 20
-119.0032443278881
 30
0.0
 10
95.82291935538456
 20
-118.9799899333626
 30
0.0
 10
95.9517659265329
 20
-118.9799899333626
 30
0.0
 10
96.11058482840292
 20
-118.9799899333626
 30
0.0
 10
96.25424531013783
 20
-119.0244316651224
 30
0.0
 10
96.34967445507925
 20
-119.2063327067436
 30
0.0
 10
96.44889320505445
 20
-119.398913544369
 30
0.0
 10
96.47231985435414
 20
-119.6273233750411
 30
0.0
 10
96.47231985435414
 20
-119.8007839327234
 30
0.0
 10
96.47231985435414
 20
-119.9721774331146
 30
0.0
 10
96.4509602623456
 20
-120.2028265758521
 30
0.0
 10
96.34967445507925
 20
-120.3952351587033
 30
0.0
  0
SPLINE
  5
B1
330
59
100
AcDbEntity
  8
_U+30EC_U+30A4_U+30E4_U+30FC 1
370
     0
100
AcDbSpline
210
0.0
220
0.0
230
1.0
 70
    11
 71
     3
 72
    17
 73
    13
 74
     0
 42
0.0000000001
 43
0.0000000001
 12
1.0
 22
0.0
 32
0.0
 13
1.0
 23
0.0
 33
0.0
 40
0.0
 40
0.0
 40
0.0
 40
0.0
 40
1.0
 40
1.0
 40
1.0
 40
2.0
 40
2.0
 40
2.0
 40
3.0
 40
3.0
 40
3.0
 40
4.0
 40
4.0
 40
4.0
 40
4.0
 10
95.9517659265329
 20
-119.1725707709881
 30
0.0
 10
95.70199650385229
 20
-119.1725707709881
 30
0.0
 10
95.65548771480141
 20
-119.4559298746499
 30
0.0
 10
95.65548771480141
 20
-119.8007839327234
 30
0.0
 10
95.65548771480141
 20
-120.1203165389803
 30
0.0
 10
95.69166121739653
 20
-120.429169349233
 30
0.0
 10
95.9517659265329
 20
-120.429169349233
 30
0.0
 10
96.19946829192236
 20
-120.429169349233
 30
0.0
 10
96.24804413826438
 20
-120.1477050480881
 30
0.0
 10
96.24804413826438
 20
-119.8007839327234
 30
0.0
 10
96.24804413826438
 20
-119.4814235812408
 30
0.0
 10
96.20980357837811
 20
-119.1725707709881
 30
0.0
 10
95.9517659265329
 20
-119.1725707709881
 30
0.0
  0
HATCH
  5
B2
330
59
100
AcDbEntity
  8
_U+30EC_U+30A4_U+30E4_U+30FC 1
 62
   179
420
  2234388
100
AcDbHatch
 10
0.0
 20
0.0
 30
0.0
210
0.0
220
0.0
230
1.0
  2
SOLID
 70
     1
 71
     0
 91
        2
 92
        1
 93
        1
 72
     4
 94
        3
 73
     0
 74
     1
 95
       29
 96
       25
 40
0.0
 40
0.0
 40
0.0
 40
0.0
 40
1.0
 40
1.0
 40
1.0
 40
2.0
 40
2.0
 40
2.0
 40
3.0
 40
3.0
 40
3.0
 40
4.0
 40
4.0
 40
4.0
 40
5.0
 40
5.0
 40
5.0
 40
6.0
 40
6.0
 40
6.0
 40
7.0
 40
7.0
 40
7.0
 40
8.0
 40
8.0
 40
8.0
 40
8.0
 10
96.34967445507925
 20
-120.3952351587033
 10
96.24149845684241
 20
-120.6046969642065
 10
96.06821015393434
 20
-120.6238172441496
 10
95.9517659265329
 20
-120.6238172441496
 10
95.79087996737172
 20
-120.6238172441496
 10
95.64928654292797
 20
-120.5773084550987
 10
95.55420190753506
 20
-120.3952351587033
 10
95.45050453342904
 20
-120.2007595185609
 10
95.43121199871165
 20
-119.9637369491757
 10
95.43121199871165
 20
-119.8007839327234
 10
95.43121199871165
 20
-119.6569511962142
 10
95.4484374761379
 20
-119.4052869710167
 10
95.55420190753506
 20
-119.2063327067436
 10
95.66203339622338
 20
-119.0032443278881
 10
95.82291935538456
 20
-118.9799899333626
 10
95.9517659265329
 20
-118.9799899333626
 10
96.11058482840292
 20
-118.9799899333626
 10
96.25424531013783
 20
-119.0244316651224
 10
96.34967445507925
 20
-119.2063327067436
 10
96.44889320505445
 20
-119.398913544369
 10
96.47231985435414
 20
-119.6273233750411
 10
96.47231985435414
 20
-119.8007839327234
 10
96.47231985435414
 20
-119.9721774331146
 10
96.4509602623456
 20
-120.2028265758521
 10
96.34967445507925
 20
-120.3952351587033
 97
        0
 97
        0
 92
        1
 93
        1
 72
     4
 94
        3
 73
     0
 74
     1
 95
       17
 96
       13
 40
0.0
 40
0.0
 40
0.0
 40
0.0
 40
1.0
 40
1.0
 40
1.0
 40
2.0
 40
2.0
 40
2.0
 40
3.0
 40
3.0
 40
3.0
 40
4.0
 40
4.0
 40
4.0
 40
4.0
 10
95.9517659265329
 20
-119.1725707709881
 10
95.70199650385229
 20
-119.1725707709881
 10
95.65548771480141
 20
-119.4559298746499
 10
95.65548771480141
 20
-119.8007839327234
 10
95.65548771480141
 20
-120.1203165389803
 10
95.69166121739653
 20
-120.429169349233
 10
95.9517659265329
 20
-120.429169349233
 10
96.19946829192236
 20
-120.429169349233
 10
96.24804413826438
 20
-120.1477050480881
 10
96.24804413826438
 20
-119.8007839327234
 10
96.24804413826438
 20
-119.4814235812408
 10
96.20980357837811
 20
-119.1725707709881
 10
95.9517659265329
 20
-119.1725707709881
 97
        0
 97
        0
 75
     2
 76
     1
 98
        0
  0
ENDBLK
  5
5C
330
59
100
AcDbEntity
  8
0
100
AcDbBlockEnd
  0
BLOCK
  5
B5
330
B3
100
AcDbEntity
  8
0
100
AcDbBlockBegin
  2
block 4
 70
     0
 10
0.0
 20
0.0
 30
0.0
  3
block 4
  1

  0
SPLINE
  5
B7
330
B3
100
AcDbEntity
  8
_U+30EC_U+30A4_U+30E4_U+30FC 1
370
     0
100
AcDbSpline
210
0.0
220
0.0
230
1.0
 70
    11
 71
     3
 72
    44
 73
    40
 74
     0
 42
0.0000000001
 43
0.0000000001
 12
1.0
 22
0.0
 32
0.0
 13
1.0
 23
0.0
 33
0.0
 40
0.0
 40
0.0
 40
0.0
 40
0.0
 40
1.0
 40
1.0
 40
1.0
 40
2.0
 40
2.0
 40
2.0
 40
3.0
 40
3.0
 40
3.0
 40
4.0
 40
4.0
 40
4.0
 40
5.0
 40
5.0
 40
5.0
 40
6.0
 40
6.0
 40
6.0
 40
7.0
 40
7.0
 40
7.0
 40
8.0
 40
8.0
 40
8.0
 40
9.0
 40
9.0
 40
9.0
 40
10.0
 40
10.0
 40
10.0
 40
11.0
 40
11.0
 40
11.0
 40
12.0
 40
12.0
 40
12.0
 40
13.0
 40
13.0
 40
13.0
 40
13.0
 10
104.4156765146947
 20
-127.4151339742226
 30
0.0
 10
104.1600504296892
 20
-127.500055577934
 30
0.0
 10
104.0491183550641
 20
-127.5424302524026
 30
0.0
 10
103.9588568533506
 20
-127.6645588873547
 30
0.0
 10
103.9588568533506
 20
-127.6645588873547
 30
0.0
 10
104.7005859113249
 20
-127.9012369471914
 30
0.0
 10
104.7005859113249
 20
-127.9012369471914
 30
0.0
 10
104.7005859113249
 20
-127.9012369471914
 30
0.0
 10
104.6382296830418
 20
-128.096573861205
 30
0.0
 10
104.6382296830418
 20
-128.096573861205
 30
0.0
 10
104.6382296830418
 20
-128.096573861205
 30
0.0
 10
103.6587890365853
 20
-127.7841037006929
 30
0.0
 10
103.6587890365853
 20
-127.7841037006929
 30
0.0
 10
103.7979708941894
 20
-127.4530300245604
 30
0.0
 10
103.8840982813206
 20
-127.3985975158934
 30
0.0
 10
104.3416069617618
 20
-127.2315103848588
 30
0.0
 10
104.6458088931094
 20
-127.1198892911367
 30
0.0
 10
104.7288356943039
 20
-127.0752753046027
 30
0.0
 10
104.7705213496754
 20
-126.9443616761632
 30
0.0
 10
104.8066948522706
 20
-126.831362544247
 30
0.0
 10
104.7777560501945
 20
-126.6846014765754
 30
0.0
 10
104.5903428557969
 20
-126.6248290699063
 30
0.0
 10
104.3422959808589
 20
-126.5455918737456
 30
0.0
 10
104.2644368228922
 20
-126.7628051440905
 30
0.0
 10
104.2248182248119
 20
-126.8723591805215
 30
0.0
 10
104.2248182248119
 20
-126.8723591805215
 30
0.0
 10
104.0112223047264
 20
-126.8043185446878
 30
0.0
 10
104.0112223047264
 20
-126.8043185446878
 30
0.0
 10
104.0580756033258
 20
-126.6858072599952
 30
0.0
 10
104.102172825537
 20
-126.5824543954377
 30
0.0
 10
104.2148274479046
 20
-126.4937431866925
 30
0.0
 10
104.3684787065468
 20
-126.3740261185801
 30
0.0
 10
104.5565809200414
 20
-126.3984862965254
 30
0.0
 10
104.6671684851179
 20
-126.4337985252492
 30
0.0
 10
104.9310627992881
 20
-126.5180311098636
 30
0.0
 10
105.0726562237318
 20
-126.7564317174428
 30
0.0
 10
104.9896294225373
 20
-127.0163641718049
 30
0.0
 10
104.9203830032838
 20
-127.2339219516985
 30
0.0
 10
104.7791340883886
 20
-127.2935221035933
 30
0.0
 10
104.4156765146947
 20
-127.4151339742226
 30
0.0
  0
HATCH
  5
B8
330
B3
100
AcDbEntity
  8
_U+30EC_U+30A4_U+30E4_U+30FC 1
 62
   179
420
  2234388
100
AcDbHatch
 10
0.0
 20
0.0
 30
0.0
210
0.0
220
0.0
230
1.0
  2
SOLID
 70
     1
 71
     0
 91
        1
 92
        1
 93
        1
 72
     4
 94
        3
 73
     0
 74
     1
 95
       44
 96
       40
 40
0.0
 40
0.0
 40
0.0
 40
0.0
 40
1.0
 40
1.0
 40
1.0
 40
2.0
 40
2.0
 40
2.0
 40
3.0
 40
3.0
 40
3.0
 40
4.0
 40
4.0
 40
4.0
 40
5.0
 40
5.0
 40
5.0
 40
6.0
 40
6.0
 40
6.0
 40
7.0
 40
7.0
 40
7.0
 40
8.0
 40
8.0
 40
8.0
 40
9.0
 40
9.0
 40
9.0
 40
10.0
 40
10.0
 40
10.0
 40
11.0
 40
11.0
 40
11.0
 40
12.0
 40
12.0
 40
12.0
 40
13.0
 40
13.0
 40
13.0
 40
13.0
 10
104.4156765146947
 20
-127.4151339742226
 10
104.1600504296892
 20
-127.500055577934
 10
104.0491183550641
 20
-127.5424302524026
 10
103.9588568533506
 20
-127.6645588873547
 10
103.9588568533506
 20
-127.6645588873547
 10
104.7005859113249
 20
-127.9012369471914
 10
104.7005859113249
 20
-127.9012369471914
 10
104.7005859113249
 20
-127.9012369471914
 10
104.6382296830418
 20
-128.096573861205
 10
104.6382296830418
 20
-128.096573861205
 10
104.6382296830418
 20
-128.096573861205
 10
103.6587890365853
 20
-127.7841037006929
 10
103.6587890365853
 20
-127.7841037006929
 10
103.7979708941894
 20
-127.4530300245604
 10
103.8840982813206
 20
-127.3985975158934
 10
104.3416069617618
 20
-127.2315103848588
 10
104.6458088931094
 20
-127.1198892911367
 10
104.7288356943039
 20
-127.0752753046027
 10
104.7705213496754
 20
-126.9443616761632
 10
104.8066948522706
 20
-126.831362544247
 10
104.7777560501945
 20
-126.6846014765754
 10
104.5903428557969
 20
-126.6248290699063
 10
104.3422959808589
 20
-126.5455918737456
 10
104.2644368228922
 20
-126.7628051440905
 10
104.2248182248119
 20
-126.8723591805215
 10
104.2248182248119
 20
-126.8723591805215
 10
104.0112223047264
 20
-126.8043185446878
 10
104.0112223047264
 20
-126.8043185446878
 10
104.0580756033258
 20
-126.6858072599952
 10
104.102172825537
 20
-126.5824543954377
 10
104.2148274479046
 20
-126.4937431866925
 10
104.3684787065468
 20
-126.3740261185801
 10
104.5565809200414
 20
-126.3984862965254
 10
104.6671684851179
 20
-126.4337985252492
 10
104.9310627992881
 20
-126.5180311098636
 10
105.0726562237318
 20
-126.7564317174428
 10
104.9896294225373
 20
-127.0163641718049
 10
104.9203830032838
 20
-127.2339219516985
 10
104.7791340883886
 20
-127.2935221035933
 10
104.4156765146947
 20
-127.4151339742226
 97
        0
 97
        0
 75
     2
 76
     1
 98
        0
  0
SPLINE
  5
B9
330
B3
100
AcDbEntity
  8
_U+30EC_U+30A4_U+30E4_U+30FC 1
370
     0
100
AcDbSpline
210
0.0
220
0.0
230
1.0
 70
    11
 71
     3
 72
    53
 73
    49
 74
     0
 42
0.0000000001
 43
0.0000000001
 12
1.0
 22
0.0
 32
0.0
 13
1.0
 23
0.0
 33
0.0
 40
0.0
 40
0.0
 40
0.0
 40
0.0
 40
1.0
 40
1.0
 40
1.0
 40
2.0
 40
2.0
 40
2.0
 40
3.0
 40
3.0
 40
3.0
 40
4.0
 40
4.0
 40
4.0
 40
5.0
 40
5.0
 40
5.0
 40
6.0
 40
6.0
 40
6.0
 40
7.0
 40
7.0
 40
7.0
 40
8.0
 40
8.0
 40
8.0
 40
9.0
 40
9.0
 40
9.0
 40
10.0
 40
10.0
 40
10.0
 40
11.0
 40
11.0
 40
11.0
 40
12.0
 40
12.0
 40
12.0
 40
13.0
 40
13.0
 40
13.0
 40
14.0
 40
14.0
 40
14.0
 40
15.0
 40
15.0
 40
15.0
 40
16.0
 40
16.0
 40
16.0
 40
16.0
 10
105.2380208070238
 20
-128.3415201502063
 30
0.0
 10
105.1636067445424
 20
-128.3177489913581
 30
0.0
 10
105.0719672046348
 20
-128.2705511832102
 30
0.0
 10
104.9944525562167
 20
-128.179256152851
 30
0.0
 10
104.8628499086801
 20
-128.0216430344009
 30
0.0
 10
104.8824869529461
 20
-127.8902126416386
 30
0.0
 10
104.8969563539841
 20
-127.7818643886275
 30
0.0
 10
104.8969563539841
 20
-127.7818643886275
 30
0.0
 10
105.108829726327
 20
-127.8493882601384
 30
0.0
 10
105.108829726327
 20
-127.8493882601384
 30
0.0
 10
105.1005614971624
 20
-128.055232715382
 30
0.0
 10
105.212527100433
 20
-128.1222398225702
 30
0.0
 10
105.3014105639524
 20
-128.1504896055492
 30
0.0
 10
105.4343912496831
 20
-128.193036534792
 30
0.0
 10
105.6094021003338
 20
-128.14446068845
 30
0.0
 10
105.6803710673299
 20
-127.9227687939742
 30
0.0
 10
105.757885715748
 20
-127.6790282883927
 30
0.0
 10
105.6076795525911
 20
-127.5579331820862
 30
0.0
 10
105.4929578729323
 20
-127.5212429151683
 30
0.0
 10
105.4626410326621
 20
-127.5115966478096
 30
0.0
 10
105.3279377991889
 20
-127.468532954244
 30
0.0
 10
105.2039143617199
 20
-127.5643066087339
 30
0.0
 10
105.2039143617199
 20
-127.5643066087339
 30
0.0
 10
105.0423393834616
 20
-127.4929931321893
 30
0.0
 10
105.0423393834616
 20
-127.4929931321893
 30
0.0
 10
105.0423393834616
 20
-127.4929931321893
 30
0.0
 10
105.4147542054172
 20
-126.7233588007844
 30
0.0
 10
105.4147542054172
 20
-126.7233588007844
 30
0.0
 10
105.4147542054172
 20
-126.7233588007844
 30
0.0
 10
106.1564832633914
 20
-126.9600368606211
 30
0.0
 10
106.1564832633914
 20
-126.9600368606211
 30
0.0
 10
106.1564832633914
 20
-126.9600368606211
 30
0.0
 10
106.0972276210451
 20
-127.1455552525018
 30
0.0
 10
106.0972276210451
 20
-127.1455552525018
 30
0.0
 10
106.0972276210451
 20
-127.1455552525018
 30
0.0
 10
105.5105278599071
 20
-126.9583143128785
 30
0.0
 10
105.5105278599071
 20
-126.9583143128785
 30
0.0
 10
105.5105278599071
 20
-126.9583143128785
 30
0.0
 10
105.3193250604757
 20
-127.3414089308383
 30
0.0
 10
105.3193250604757
 20
-127.3414089308383
 30
0.0
 10
105.3882269701807
 20
-127.3279730584458
 30
0.0
 10
105.4788329814428
 20
-127.3145371860533
 30
0.0
 10
105.591832113359
 20
-127.3507106886484
 30
0.0
 10
105.8336778164235
 20
-127.427880827518
 30
0.0
 10
106.0031765142978
 20
-127.6773057406501
 30
0.0
 10
105.9077473693564
 20
-127.9754787548985
 30
0.0
 10
105.8112846957694
 20
-128.2777858837292
 30
0.0
 10
105.5263752991392
 20
-128.4335041996625
 30
0.0
 10
105.2380208070238
 20
-128.3415201502063
 30
0.0
  0
HATCH
  5
BA
330
B3
100
AcDbEntity
  8
_U+30EC_U+30A4_U+30E4_U+30FC 1
 62
   179
420
  2234388
100
AcDbHatch
 10
0.0
 20
0.0
 30
0.0
210
0.0
220
0.0
230
1.0
  2
SOLID
 70
     1
 71
     0
 91
        1
 92
        1
 93
        1
 72
     4
 94
        3
 73
     0
 74
     1
 95
       53
 96
       49
 40
0.0
 40
0.0
 40
0.0
 40
0.0
 40
1.0
 40
1.0
 40
1.0
 40
2.0
 40
2.0
 40
2.0
 40
3.0
 40
3.0
 40
3.0
 40
4.0
 40
4.0
 40
4.0
 40
5.0
 40
5.0
 40
5.0
 40
6.0
 40
6.0
 40
6.0
 40
7.0
 40
7.0
 40
7.0
 40
8.0
 40
8.0
 40
8.0
 40
9.0
 40
9.0
 40
9.0
 40
10.0
 40
10.0
 40
10.0
 40
11.0
 40
11.0
 40
11.0
 40
12.0
 40
12.0
 40
12.0
 40
13.0
 40
13.0
 40
13.0
 40
14.0
 40
14.0
 40
14.0
 40
15.0
 40
15.0
 40
15.0
 40
16.0
 40
16.0
 40
16.0
 40
16.0
 10
105.2380208070238
 20
-128.3415201502063
 10
105.1636067445424
 20
-128.3177489913581
 10
105.0719672046348
 20
-128.2705511832102
 10
104.9944525562167
 20
-128.179256152851
 10
104.8628499086801
 20
-128.0216430344009
 10
104.8824869529461
 20
-127.8902126416386
 10
104.8969563539841
 20
-127.7818643886275
 10
104.8969563539841
 20
-127.7818643886275
 10
105.108829726327
 20
-127.8493882601384
 10
105.108829726327
 20
-127.8493882601384
 10
105.1005614971624
 20
-128.055232715382
 10
105.212527100433
 20
-128.1222398225702
 10
105.3014105639524
 20
-128.1504896055492
 10
105.4343912496831
 20
-128.193036534792
 10
105.6094021003338
 20
-128.14446068845
 10
105.6803710673299
 20
-127.9227687939742
 10
105.757885715748
 20
-127.6790282883927
 10
105.6076795525911
 20
-127.5579331820862
 10
105.4929578729323
 20
-127.5212429151683
 10
105.4626410326621
 20
-127.5115966478096
 10
105.3279377991889
 20
-127.468532954244
 10
105.2039143617199
 20
-127.5643066087339
 10
105.2039143617199
 20
-127.5643066087339
 10
105.0423393834616
 20
-127.4929931321893
 10
105.0423393834616
 20
-127.4929931321893
 10
105.0423393834616
 20
-127.4929931321893
 10
105.4147542054172
 20
-126.7233588007844
 10
105.4147542054172
 20
-126.7233588007844
 10
105.4147542054172
 20
-126.7233588007844
 10
106.1564832633914
 20
-126.9600368606211
 10
106.1564832633914
 20
-126.9600368606211
 10
106.1564832633914
 20
-126.9600368606211
 10
106.0972276210451
 20
-127.1455552525018
 10
106.0972276210451
 20
-127.1455552525018
 10
106.0972276210451
 20
-127.1455552525018
 10
105.5105278599071
 20
-126.9583143128785
 10
105.5105278599071
 20
-126.9583143128785
 10
105.5105278599071
 20
-126.9583143128785
 10
105.3193250604757
 20
-127.3414089308383
 10
105.3193250604757
 20
-127.3414089308383
 10
105.3882269701807
 20
-127.3279730584458
 10
105.4788329814428
 20
-127.3145371860533
 10
105.591832113359
 20
-127.3507106886484
 10
105.8336778164235
 20
-127.427880827518
 10
106.0031765142978
 20
-127.6773057406501
 10
105.9077473693564
 20
-127.9754787548985
 10
105.8112846957694
 20
-128.2777858837292
 10
105.5263752991392
 20
-128.4335041996625
 10
105.2380208070238
 20
-128.3415201502063
 97
        0
 97
        0
 75
     2
 76
     1
 98
        0
  0
ENDBLK
  5
B6
330
B3
100
AcDbEntity
  8
0
100
AcDbBlockEnd
  0
BLOCK
  5
CF
330
CD
100
AcDbEntity
  8
0
100
AcDbBlockBegin
  2
block 5
 70
     0
 10
0.0
 20
0.0
 30
0.0
  3
block 5
  1

  0
SPLINE
  5
D1
330
CD
100
AcDbEntity
  8
_U+30EC_U+30A4_U+30E4_U+30FC 1
370
     0
100
AcDbSpline
210
0.0
220
0.0
230
1.0
 70
    11
 71
     3
 72
    44
 73
    40
 74
     0
 42
0.0000000001
 43
0.0000000001
 12
1.0
 22
0.0
 32
0.0
 13
1.0
 23
0.0
 33
0.0
 40
0.0
 40
0.0
 40
0.0
 40
0.0
 40
1.0
 40
1.0
 40
1.0
 40
2.0
 40
2.0
 40
2.0
 40
3.0
 40
3.0
 40
3.0
 40
4.0
 40
4.0
 40
4.0
 40
5.0
 40
5.0
 40
5.0
 40
6.0
 40
6.0
 40
6.0
 40
7.0
 40
7.0
 40
7.0
 40
8.0
 40
8.0
 40
8.0
 40
9.0
 40
9.0
 40
9.0
 40
10.0
 40
10.0
 40
10.0
 40
11.0
 40
11.0
 40
11.0
 40
12.0
 40
12.0
 40
12.0
 40
13.0
 40
13.0
 40
13.0
 40
13.0
 10
75.35250649157854
 20
-128.1811509553679
 30
0.0
 10
75.19334308016
 20
-128.3987087352614
 30
0.0
 10
75.12719724684321
 20
-128.4975829756881
 30
0.0
 10
75.124441170455
 20
-128.6495116865876
 30
0.0
 10
75.124441170455
 20
-128.6495116865876
 30
0.0
 10
75.86582571888077
 20
-128.412833626751
 30
0.0
 10
75.86582571888077
 20
-128.412833626751
 30
0.0
 10
75.86582571888077
 20
-128.412833626751
 30
0.0
 10
75.92852645671232
 20
-128.6081705407646
 30
0.0
 10
75.92852645671232
 20
-128.6081705407646
 30
0.0
 10
75.92852645671232
 20
-128.6081705407646
 30
0.0
 10
74.94908581025578
 20
-128.9206407012768
 30
0.0
 10
74.94908581025578
 20
-128.9206407012768
 30
0.0
 10
74.87053763319209
 20
-128.5702744904269
 30
0.0
 10
74.90912270262689
 20
-128.4760511289053
 30
0.0
 10
75.18541936054393
 20
-128.0746975048737
 30
0.0
 10
75.36869844035921
 20
-127.8078748595411
 30
0.0
 10
75.41038409573073
 20
-127.7231255106039
 30
0.0
 10
75.36869844035921
 20
-127.5922118821644
 30
0.0
 10
75.33252493776409
 20
-127.4792127502483
 30
0.0
 10
75.22434893952725
 20
-127.3763766500136
 30
0.0
 10
75.03693574512965
 20
-127.4361490566826
 30
0.0
 10
74.78888887019167
 20
-127.5152139980691
 30
0.0
 10
74.85090058892617
 20
-127.7372504020935
 30
0.0
 10
74.88259546739046
 20
-127.8495605149126
 30
0.0
 10
74.88259546739046
 20
-127.8495605149126
 30
0.0
 10
74.66899954730498
 20
-127.9176011507463
 30
0.0
 10
74.66899954730498
 20
-127.9176011507463
 30
0.0
 10
74.63833819748625
 20
-127.7940944776001
 30
0.0
 10
74.6142225290895
 20
-127.6841959316206
 30
0.0
 10
74.65487465581545
 20
-127.5467366217592
 30
0.0
 10
74.7106852026765
 20
-127.3603569560071
 30
0.0
 10
74.87777233371112
 20
-127.2713012377134
 30
0.0
 10
74.98870440833616
 20
-127.2359890089896
 30
0.0
 10
75.25259872250629
 20
-127.151584169601
 30
0.0
 10
75.50615775022068
 20
-127.2640665371944
 30
0.0
 10
75.58884004186669
 20
-127.5238267367822
 30
0.0
 10
75.65843097066873
 20
-127.7419012809986
 30
0.0
 10
75.57781573631388
 20
-127.8716091260182
 30
0.0
 10
75.35250649157854
 20
-128.1811509553679
 30
0.0
  0
HATCH
  5
D2
330
CD
100
AcDbEntity
  8
_U+30EC_U+30A4_U+30E4_U+30FC 1
 62
   179
420
  2234388
100
AcDbHatch
 10
0.0
 20
0.0
 30
0.0
210
0.0
220
0.0
230
1.0
  2
SOLID
 70
     1
 71
     0
 91
        1
 92
        1
 93
        1
 72
     4
 94
        3
 73
     0
 74
     1
 95
       44
 96
       40
 40
0.0
 40
0.0
 40
0.0
 40
0.0
 40
1.0
 40
1.0
 40
1.0
 40
2.0
 40
2.0
 40
2.0
 40
3.0
 40
3.0
 40
3.0
 40
4.0
 40
4.0
 40
4.0
 40
5.0
 40
5.0
 40
5.0
 40
6.0
 40
6.0
 40
6.0
 40
7.0
 40
7.0
 40
7.0
 40
8.0
 40
8.0
 40
8.0
 40
9.0
 40
9.0
 40
9.0
 40
10.0
 40
10.0
 40
10.0
 40
11.0
 40
11.0
 40
11.0
 40
12.0
 40
12.0
 40
12.0
 40
13.0
 40
13.0
 40
13.0
 40
13.0
 10
75.35250649157854
 20
-128.1811509553679
 10
75.19334308016
 20
-128.3987087352614
 10
75.12719724684321
 20
-128.4975829756881
 10
75.124441170455
 20
-128.6495116865876
 10
75.124441170455
 20
-128.6495116865876
 10
75.86582571888077
 20
-128.412833626751
 10
75.86582571888077
 20
-128.412833626751
 10
75.86582571888077
 20
-128.412833626751
 10
75.92852645671232
 20
-128.6081705407646
 10
75.92852645671232
 20
-128.6081705407646
 10
75.92852645671232
 20
-128.6081705407646
 10
74.94908581025578
 20
-128.9206407012768
 10
74.94908581025578
 20
-128.9206407012768
 10
74.87053763319209
 20
-128.5702744904269
 10
74.90912270262689
 20
-128.4760511289053
 10
75.18541936054393
 20
-128.0746975048737
 10
75.36869844035921
 20
-127.8078748595411
 10
75.41038409573073
 20
-127.7231255106039
 10
75.36869844035921
 20
-127.5922118821644
 10
75.33252493776409
 20
-127.4792127502483
 10
75.22434893952725
 20
-127.3763766500136
 10
75.03693574512965
 20
-127.4361490566826
 10
74.78888887019167
 20
-127.5152139980691
 10
74.85090058892617
 20
-127.7372504020935
 10
74.88259546739046
 20
-127.8495605149126
 10
74.88259546739046
 20
-127.8495605149126
 10
74.66899954730498
 20
-127.9176011507463
 10
74.66899954730498
 20
-127.9176011507463
 10
74.63833819748625
 20
-127.7940944776001
 10
74.6142225290895
 20
-127.6841959316206
 10
74.65487465581545
 20
-127.5467366217592
 10
74.7106852026765
 20
-127.3603569560071
 10
74.87777233371112
 20
-127.2713012377134
 10
74.98870440833616
 20
-127.2359890089896
 10
75.25259872250629
 20
-127.151584169601
 10
75.50615775022068
 20
-127.2640665371944
 10
75.58884004186669
 20
-127.5238267367822
 10
75.65843097066873
 20
-127.7419012809986
 10
75.57781573631388
 20
-127.8716091260182
 10
75.35250649157854
 20
-128.1811509553679
 97
        0
 97
        0
 75
     2
 76
     1
 98
        0
  0
SPLINE
  5
D3
330
CD
100
AcDbEntity
  8
_U+30EC_U+30A4_U+30E4_U+30FC 1
370
     0
100
AcDbSpline
210
0.0
220
0.0
230
1.0
 70
    11
 71
     3
 72
    53
 73
    49
 74
     0
 42
0.0000000001
 43
0.0000000001
 12
1.0
 22
0.0
 32
0.0
 13
1.0
 23
0.0
 33
0.0
 40
0.0
 40
0.0
 40
0.0
 40
0.0
 40
1.0
 40
1.0
 40
1.0
 40
2.0
 40
2.0
 40
2.0
 40
3.0
 40
3.0
 40
3.0
 40
4.0
 40
4.0
 40
4.0
 40
5.0
 40
5.0
 40
5.0
 40
6.0
 40
6.0
 40
6.0
 40
7.0
 40
7.0
 40
7.0
 40
8.0
 40
8.0
 40
8.0
 40
9.0
 40
9.0
 40
9.0
 40
10.0
 40
10.0
 40
10.0
 40
11.0
 40
11.0
 40
11.0
 40
12.0
 40
12.0
 40
12.0
 40
13.0
 40
13.0
 40
13.0
 40
14.0
 40
14.0
 40
14.0
 40
15.0
 40
15.0
 40
15.0
 40
16.0
 40
16.0
 40
16.0
 40
16.0
 10
76.55897893051304
 20
-128.4600314348989
 30
0.0
 10
76.48456486803164
 20
-128.4838025937471
 30
0.0
 10
76.38259004166825
 20
-128.4989610138822
 30
0.0
 10
76.26649032381532
 20
-128.4691609379348
 30
0.0
 10
76.06805282386493
 20
-128.4174845056561
 30
0.0
 10
76.00776365287307
 20
-128.2988009661892
 30
0.0
 10
75.95712074923989
 20
-128.2016492735052
 30
0.0
 10
75.95712074923989
 20
-128.2016492735052
 30
0.0
 10
76.16864961203423
 20
-128.1341254019943
 30
0.0
 10
76.16864961203423
 20
-128.1341254019943
 30
0.0
 10
76.2813042344019
 20
-128.3068969405795
 30
0.0
 10
76.41152884374435
 20
-128.2965616541238
 30
0.0
 10
76.50006779771526
 20
-128.2681396163705
 30
0.0
 10
76.6330484834459
 20
-128.2257649419019
 30
0.0
 10
76.74777016310473
 20
-128.0846882817809
 30
0.0
 10
76.67714570565711
 20
-127.8631686420794
 30
0.0
 10
76.59963105723898
 20
-127.6192558817237
 30
0.0
 10
76.406705710065
 20
-127.607025792751
 30
0.0
 10
76.29198403040617
 20
-127.6438883144432
 30
0.0
 10
76.26166719013598
 20
-127.6533623270276
 30
0.0
 10
76.12661944711418
 20
-127.6965982753675
 30
0.0
 10
76.08114418670888
 20
-127.8468044385244
 30
0.0
 10
76.08114418670888
 20
-127.8468044385244
 30
0.0
 10
75.90854490289787
 20
-127.881944412474
 30
0.0
 10
75.90854490289787
 20
-127.881944412474
 30
0.0
 10
75.90854490289787
 20
-127.881944412474
 30
0.0
 10
75.76591794980853
 20
-127.0391018020076
 30
0.0
 10
75.76591794980853
 20
-127.0391018020076
 30
0.0
 10
75.76591794980853
 20
-127.0391018020076
 30
0.0
 10
76.50764700778281
 20
-126.8025959969452
 30
0.0
 10
76.50764700778281
 20
-126.8025959969452
 30
0.0
 10
76.50764700778281
 20
-126.8025959969452
 30
0.0
 10
76.56655814058058
 20
-126.9879421340516
 30
0.0
 10
76.56655814058058
 20
-126.9879421340516
 30
0.0
 10
76.56655814058058
 20
-126.9879421340516
 30
0.0
 10
75.98020288899106
 20
-127.1750108189007
 30
0.0
 10
75.98020288899106
 20
-127.1750108189007
 30
0.0
 10
75.98020288899106
 20
-127.1750108189007
 30
0.0
 10
76.04634872230785
 20
-127.5980685444894
 30
0.0
 10
76.04634872230785
 20
-127.5980685444894
 30
0.0
 10
76.09458005910136
 20
-127.5469088765334
 30
0.0
 10
76.16072589241816
 20
-127.4836913743791
 30
0.0
 10
76.27372502433435
 20
-127.4476901265582
 30
0.0
 10
76.5155707273989
 20
-127.3705199876886
 30
0.0
 10
76.79806855718938
 20
-127.475767654763
 30
0.0
 10
76.89315319258228
 20
-127.7741129237857
 30
0.0
 10
76.98961586616926
 20
-128.0765923073906
 30
0.0
 10
76.84698891307993
 20
-128.3680473854427
 30
0.0
 10
76.55897893051304
 20
-128.4600314348989
 30
0.0
  0
HATCH
  5
D4
330
CD
100
AcDbEntity
  8
_U+30EC_U+30A4_U+30E4_U+30FC 1
 62
   179
420
  2234388
100
AcDbHatch
 10
0.0
 20
0.0
 30
0.0
210
0.0
220
0.0
230
1.0
  2
SOLID
 70
     1
 71
     0
 91
        1
 92
        1
 93
        1
 72
     4
 94
        3
 73
     0
 74
     1
 95
       53
 96
       49
 40
0.0
 40
0.0
 40
0.0
 40
0.0
 40
1.0
 40
1.0
 40
1.0
 40
2.0
 40
2.0
 40
2.0
 40
3.0
 40
3.0
 40
3.0
 40
4.0
 40
4.0
 40
4.0
 40
5.0
 40
5.0
 40
5.0
 40
6.0
 40
6.0
 40
6.0
 40
7.0
 40
7.0
 40
7.0
 40
8.0
 40
8.0
 40
8.0
 40
9.0
 40
9.0
 40
9.0
 40
10.0
 40
10.0
 40
10.0
 40
11.0
 40
11.0
 40
11.0
 40
12.0
 40
12.0
 40
12.0
 40
13.0
 40
13.0
 40
13.0
 40
14.0
 40
14.0
 40
14.0
 40
15.0
 40
15.0
 40
15.0
 40
16.0
 40
16.0
 40
16.0
 40
16.0
 10
76.55897893051304
 20
-128.4600314348989
 10
76.48456486803164
 20
-128.4838025937471
 10
76.38259004166825
 20
-128.4989610138822
 10
76.26649032381532
 20
-128.4691609379348
 10
76.06805282386493
 20
-128.4174845056561
 10
76.00776365287307
 20
-128.2988009661892
 10
75.95712074923989
 20
-128.2016492735052
 10
75.95712074923989
 20
-128.2016492735052
 10
76.16864961203423
 20
-128.1341254019943
 10
76.16864961203423
 20
-128.1341254019943
 10
76.2813042344019
 20
-128.3068969405795
 10
76.41152884374435
 20
-128.2965616541238
 10
76.50006779771526
 20
-128.2681396163705
 10
76.6330484834459
 20
-128.2257649419019
 10
76.74777016310473
 20
-128.0846882817809
 10
76.67714570565711
 20
-127.8631686420794
 10
76.59963105723898
 20
-127.6192558817237
 10
76.406705710065
 20
-127.607025792751
 10
76.29198403040617
 20
-127.6438883144432
 10
76.26166719013598
 20
-127.6533623270276
 10
76.12661944711418
 20
-127.6965982753675
 10
76.08114418670888
 20
-127.8468044385244
 10
76.08114418670888
 20
-127.8468044385244
 10
75.90854490289787
 20
-127.881944412474
 10
75.90854490289787
 20
-127.881944412474
 10
75.90854490289787
 20
-127.881944412474
 10
75.76591794980853
 20
-127.0391018020076
 10
75.76591794980853
 20
-127.0391018020076
 10
75.76591794980853
 20
-127.0391018020076
 10
76.50764700778281
 20
-126.8025959969452
 10
76.50764700778281
 20
-126.8025959969452
 10
76.50764700778281
 20
-126.8025959969452
 10
76.56655814058058
 20
-126.9879421340516
 10
76.56655814058058
 20
-126.9879421340516
 10
76.56655814058058
 20
-126.9879421340516
 10
75.98020288899106
 20
-127.1750108189007
 10
75.98020288899106
 20
-127.1750108189007
 10
75.98020288899106
 20
-127.1750108189007
 10
76.04634872230785
 20
-127.5980685444894
 10
76.04634872230785
 20
-127.5980685444894
 10
76.09458005910136
 20
-127.5469088765334
 10
76.16072589241816
 20
-127.4836913743791
 10
76.27372502433435
 20
-127.4476901265582
 10
76.5155707273989
 20
-127.3705199876886
 10
76.79806855718938
 20
-127.475767654763
 10
76.89315319258228
 20
-127.7741129237857
 10
76.98961586616926
 20
-128.0765923073906
 10
76.84698891307993
 20
-128.3680473854427
 10
76.55897893051304
 20
-128.4600314348989
 97
        0
 97
        0
 75
     2
 76
     1
 98
        0
  0
ENDBLK
  5
D0
330
CD
100
AcDbEntity
  8
0
100
AcDbBlockEnd
  0
ENDSEC
  0
SECTION
  2
ENTITIES
  0
INSERT
  5
42
330
1F
100
AcDbEntity
  8
_U+30EC_U+30A4_U+30E4_U+30FC 1
100
AcDbBlockReference
  2
block 2
 10
0.0
 20
0.0
 30
0.0
  0
ENDSEC
  0
SECTION
  2
OBJECTS
  0
DICTIONARY
  5
C
330
0
100
AcDbDictionary
281
     1
  3
ACAD_GROUP
350
D
  3
ACAD_LAYOUT
350
1A
  3
ACAD_MATERIAL
350
3B
  3
ACAD_MLEADERSTYLE
350
E5
  3
ACAD_MLINESTYLE
350
17
  3
ACAD_PLOTSETTINGS
350
19
  3
ACAD_PLOTSTYLENAME
350
E
  3
ACAD_TABLESTYLE
350
E4
  3
ACAD_VISUALSTYLE
350
2A
  0
SUN
  5
3F
330
29
100
AcDbSun
 90
        1
290
     0
 63
     7
421
 16777215
 40
1.0
291
     1
 91
  2455826
 92
 54000000
292
     0
 70
     2
 71
   256
280
     1
  0
DICTIONARY
  5
D
102
{ACAD_REACTORS
330
C
102
}
330
C
100
AcDbDictionary
281
     1
  0
DICTIONARY
  5
1A
102
{ACAD_REACTORS
330
C
102
}
330
C
100
AcDbDictionary
281
     1
  3
Layout1
350
1E
  3
Layout2
350
26
  3
Model
350
22
  0
DICTIONARY
  5
3B
102
{ACAD_REACTORS
330
C
102
}
330
C
100
AcDbDictionary
281
     1
  3
ByBlock
350
3D
  3
ByLayer
350
3C
  3
Global
350
3E
  0
DICTIONARY
  5
E5
102
{ACAD_REACTORS
330
C
102
}
330
C
100
AcDbDictionary
281
     1
  0
DICTIONARY
  5
17
102
{ACAD_REACTORS
330
C
102
}
330
C
100
AcDbDictionary
281
     1
  3
Standard
350
18
  0
DICTIONARY
  5
19
102
{ACAD_REACTORS
330
C
102
}
330
C
100
AcDbDictionary
281
     1
  0
ACDBDICTIONARYWDFLT
  5
E
102
{ACAD_REACTORS
330
C
102
}
330
C
100
AcDbDictionary
281
     1
  3
Normal
350
F
100
AcDbDictionaryWithDefault
340
F
  0
DICTIONARY
  5
E4
102
{ACAD_REACTORS
330
C
102
}
330
C
100
AcDbDictionary
281
     1
  0
DICTIONARY
  5
2A
102
{ACAD_REACTORS
330
C
102
}
330
C
100
AcDbDictionary
281
     1
  3
2dWireframe
350
2F
  3
3D Hidden
350
31
  3
3dWireframe
350
30
  3
Basic
350
32
  3
Brighten
350
36
  3
ColorChange
350
3A
  3
Conceptual
350
34
  3
Dim
350
35
  3
Facepattern
350
39
  3
Flat
350
2B
  3
FlatWithEdges
350
2C
  3
Gouraud
350
2D
  3
GouraudWithEdges
350
2E
  3
Linepattern
350
38
  3
Realistic
350
33
  3
Thicken
350
37
  0
LAYOUT
  5
1E
102
{ACAD_REACTORS
330
1A
102
}
330
1A
100
AcDbPlotSettings
  1

  2
none_device
  4

  6

 40
0.0
 41
0.0
 42
0.0
 43
0.0
 44
0.0
 45
0.0
 46
0.0
 47
0.0
 48
0.0
 49
0.0
140
0.0
141
0.0
142
1.0
143
1.0
 70
   688
 72
     0
 73
     0
 74
     5
  7

 75
    16
 76
     0
 77
     2
 78
   300
147
1.0
148
0.0
149
0.0
100
AcDbLayout
  1
Layout1
 70
     1
 71
     1
 10
0.0
 20
0.0
 11
12.0
 21
9.0
 12
0.0
 22
0.0
 32
0.0
 14
1.000000000000000E+20
 24
1.000000000000000E+20
 34
1.000000000000000E+20
 15
-1.000000000000000E+20
 25
-1.000000000000000E+20
 35
-1.000000000000000E+20
146
0.0
 13
0.0
 23
0.0
 33
0.0
 16
1.0
 26
0.0
 36
0.0
 17
0.0
 27
1.0
 37
0.0
 76
     0
330
1B
  0
LAYOUT
  5
26
102
{ACAD_REACTORS
330
1A
102
}
330
1A
100
AcDbPlotSettings
  1

  2
none_device
  4

  6

 40
0.0
 41
0.0
 42
0.0
 43
0.0
 44
0.0
 45
0.0
 46
0.0
 47
0.0
 48
0.0
 49
0.0
140
0.0
141
0.0
142
1.0
143
1.0
 70
   688
 72
     0
 73
     0
 74
     5
  7

 75
    16
 76
     0
 77
     2
 78
   300
147
1.0
148
0.0
149
0.0
100
AcDbLayout
  1
Layout2
 70
     1
 71
     2
 10
0.0
 20
0.0
 11
0.0
 21
0.0
 12
0.0
 22
0.0
 32
0.0
 14
0.0
 24
0.0
 34
0.0
 15
0.0
 25
0.0
 35
0.0
146
0.0
 13
0.0
 23
0.0
 33
0.0
 16
1.0
 26
0.0
 36
0.0
 17
0.0
 27
1.0
 37
0.0
 76
     0
330
23
  0
LAYOUT
  5
22
102
{ACAD_REACTORS
330
1A
102
}
330
1A
100
AcDbPlotSettings
  1

  2
none_device
  4

  6

 40
0.0
 41
0.0
 42
0.0
 43
0.0
 44
0.0
 45
0.0
 46
0.0
 47
0.0
 48
0.0
 49
0.0
140
0.0
141
0.0
142
1.0
143
1.0
 70
  1712
 72
     0
 73
     0
 74
     0
  7

 75
     0
 76
     0
 77
     2
 78
   300
147
1.0
148
0.0
149
0.0
100
AcDbLayout
  1
Model
 70
     1
 71
     0
 10
0.0
 20
0.0
 11
12.0
 21
9.0
 12
0.0
 22
0.0
 32
0.0
 14
1.000000000000000E+20
 24
1.000000000000000E+20
 34
1.000000000000000E+20
 15
-1.000000000000000E+20
 25
-1.000000000000000E+20
 35
-1.000000000000000E+20
146
0.0
 13
0.0
 23
0.0
 33
0.0
 16
1.0
 26
0.0
 36
0.0
 17
0.0
 27
1.0
 37
0.0
 76
     0
330
1F
331
29
  0
MATERIAL
  5
3D
102
{ACAD_REACTORS
330
3B
102
}
330
3B
100
AcDbMaterial
  1
ByBlock
 72
     1
 94
      127
  0
MATERIAL
  5
3C
102
{ACAD_REACTORS
330
3B
102
}
330
3B
100
AcDbMaterial
  1
ByLayer
 72
     1
 94
      127
  0
MATERIAL
  5
3E
102
{ACAD_REACTORS
330
3B
102
}
330
3B
100
AcDbMaterial
  1
Global
 72
     1
 94
      127
  0
MLINESTYLE
  5
18
102
{ACAD_REACTORS
330
17
102
}
330
17
100
AcDbMlineStyle
  2
Standard
 70
     0
  3

 62
   256
 51
90.0
 52
90.0
 71
     2
 49
0.5
 62
   256
  6
BYLAYER
 49
-0.5
 62
   256
  6
BYLAYER
  0
ACDBPLACEHOLDER
  5
F
102
{ACAD_REACTORS
330
E
102
}
330
E
  0
VISUALSTYLE
  5
2F
102
{ACAD_REACTORS
330
2A
102
}
330
2A
100
AcDbVisualStyle
  2
2dWireframe
 70
     4
177
     2
291
     0
 71
     0
176
     1
 72
     2
176
     1
 73
     0
176
     1
 90
        0
176
     1
 40
-0.6
176
     1
 41
-30.0
176
     1
 62
     5
 63
     7
421
 16777215
176
     1
 74
     1
176
     1
 91
        4
176
     1
 64
     7
176
     1
 65
   257
176
     1
 75
     1
176
     1
175
     1
176
     1
 42
1.0
176
     1
 92
        0
176
     1
 66
   257
176
     1
 43
1.0
176
     1
 76
     1
176
     1
 77
     6
176
     1
 78
     2
176
     1
 67
     7
176
     1
 79
     5
176
     1
170
     0
176
     1
171
     0
176
     1
290
     0
176
     1
 93
        1
176
     1
 44
0.0
176
     1
173
     0
176
     1
  0
VISUALSTYLE
  5
31
102
{ACAD_REACTORS
330
2A
102
}
330
2A
100
AcDbVisualStyle
  2
3D Hidden
 70
     6
177
     2
291
     0
 71
     1
176
     1
 72
     2
176
     1
 73
     2
176
     1
 90
        0
176
     1
 40
-0.6
176
     1
 41
-30.0
176
     1
 62
     5
 63
     7
421
 16777215
176
     1
 74
     2
176
     1
 91
        2
176
     1
 64
     7
176
     1
 65
   257
176
     1
 75
     2
176
     1
175
     1
176
     1
 42
40.0
176
     1
 92
        0
176
     1
 66
   257
176
     1
 43
1.0
176
     1
 76
     1
176
     1
 77
     6
176
     1
 78
     2
176
     1
 67
     7
176
     1
 79
     3
176
     1
170
     0
176
     1
171
     0
176
     1
290
     0
176
     1
 93
        1
176
     1
 44
0.0
176
     1
173
     0
176
     1
  0
VISUALSTYLE
  5
30
102
{ACAD_REACTORS
330
2A
102
}
330
2A
100
AcDbVisualStyle
  2
3dWireframe
 70
     5
177
     2
291
     0
 71
     0
176
     1
 72
     2
176
     1
 73
     0
176
     1
 90
        0
176
     1
 40
-0.6
176
     1
 41
-30.0
176
     1
 62
     5
 63
     7
421
 16777215
176
     1
 74
     1
176
     1
 91
        4
176
     1
 64
     7
176
     1
 65
   257
176
     1
 75
     1
176
     1
175
     1
176
     1
 42
1.0
176
     1
 92
        0
176
     1
 66
   257
176
     1
 43
1.0
176
     1
 76
     1
176
     1
 77
     6
176
     1
 78
     2
176
     1
 67
     7
176
     1
 79
     5
176
     1
170
     0
176
     1
171
     0
176
     1
290
     0
176
     1
 93
        1
176
     1
 44
0.0
176
     1
173
     0
176
     1
  0
VISUALSTYLE
  5
32
102
{ACAD_REACTORS
330
2A
102
}
330
2A
100
AcDbVisualStyle
  2
Basic
 70
     7
177
     2
291
     1
 71
     1
176
     1
 72
     0
176
     1
 73
     1
176
     1
 90
        0
176
     1
 40
-0.6
176
     1
 41
-30.0
176
     1
 62
     5
 63
     7
421
 16777215
176
     1
 74
     0
176
     1
 91
        4
176
     1
 64
     7
176
     1
 65
   257
176
     1
 75
     1
176
     1
175
     1
176
     1
 42
1.0
176
     1
 92
        8
176
     1
 66
     7
176
     1
 43
1.0
176
     1
 76
     1
176
     1
 77
     6
176
     1
 78
     2
176
     1
 67
     7
176
     1
 79
     5
176
     1
170
     0
176
     1
171
     0
176
     1
290
     0
176
     1
 93
        1
176
     1
 44
0.0
176
     1
173
     0
176
     1
  0
VISUALSTYLE
  5
36
102
{ACAD_REACTORS
330
2A
102
}
330
2A
100
AcDbVisualStyle
  2
Brighten
 70
    12
177
     2
291
     1
 71
     2
176
     1
 72
     2
176
     1
 73
     0
176
     1
 90
        0
176
     1
 40
-0.6
176
     1
 41
-30.0
176
     1
 62
     5
 63
     7
421
 16777215
176
     1
 74
     1
176
     1
 91
        4
176
     1
 64
     7
176
     1
 65
   257
176
     1
 75
     1
176
     1
175
     1
176
     1
 42
1.0
176
     1
 92
        8
176
     1
 66
     7
176
     1
 43
1.0
176
     1
 76
     1
176
     1
 77
     6
176
     1
 78
     2
176
     1
 67
     7
176
     1
 79
     5
176
     1
170
     0
176
     1
171
     0
176
     1
290
     0
176
     1
 93
        1
176
     1
 44
50.0
176
     1
173
     0
176
     1
  0
VISUALSTYLE
  5
3A
102
{ACAD_REACTORS
330
2A
102
}
330
2A
100
AcDbVisualStyle
  2
ColorChange
 70
    16
177
     2
291
     1
 71
     2
176
     1
 72
     2
176
     1
 73
     3
176
     1
 90
        0
176
     1
 40
-0.6
176
     1
 41
-30.0
176
     1
 62
     5
 63
     8
421
  8421504
176
     1
 74
     1
176
     1
 91
        4
176
     1
 64
     7
176
     1
 65
   257
176
     1
 75
     1
176
     1
175
     1
176
     1
 42
1.0
176
     1
 92
        8
176
     1
 66
     8
424
  8421504
176
     1
 43
1.0
176
     1
 76
     1
176
     1
 77
     6
176
     1
 78
     2
176
     1
 67
     7
176
     1
 79
     5
176
     1
170
     0
176
     1
171
     0
176
     1
290
     0
176
     1
 93
        1
176
     1
 44
0.0
176
     1
173
     0
176
     1
  0
VISUALSTYLE
  5
34
102
{ACAD_REACTORS
330
2A
102
}
330
2A
100
AcDbVisualStyle
  2
Conceptual
 70
     9
177
     2
291
     0
 71
     3
176
     1
 72
     2
176
     1
 73
     0
176
     1
 90
        0
176
     1
 40
-0.6
176
     1
 41
-30.0
176
     1
 62
     5
 63
     7
421
 16777215
176
     1
 74
     2
176
     1
 91
        2
176
     1
 64
     7
176
     1
 65
   257
176
     1
 75
     1
176
     1
175
     1
176
     1
 42
40.0
176
     1
 92
        8
176
     1
 66
     7
176
     1
 43
1.0
176
     1
 76
     1
176
     1
 77
     6
176
     1
 78
     2
176
     1
 67
     7
176
     1
 79
     3
176
     1
170
     0
176
     1
171
     0
176
     1
290
     0
176
     1
 93
        1
176
     1
 44
0.0
176
     1
173
     0
176
     1
  0
VISUALSTYLE
  5
35
102
{ACAD_REACTORS
330
2A
102
}
330
2A
100
AcDbVisualStyle
  2
Dim
 70
    11
177
     2
291
     1
 71
     2
176
     1
 72
     2
176
     1
 73
     0
176
     1
 90
        0
176
     1
 40
-0.6
176
     1
 41
-30.0
176
     1
 62
     5
 63
     7
421
 16777215
176
     1
 74
     1
176
     1
 91
        4
176
     1
 64
     7
176
     1
 65
   257
176
     1
 75
     1
176
     1
175
     1
176
     1
 42
1.0
176
     1
 92
        8
176
     1
 66
     7
176
     1
 43
1.0
176
     1
 76
     1
176
     1
 77
     6
176
     1
 78
     2
176
     1
 67
     7
176
     1
 79
     5
176
     1
170
     0
176
     1
171
     0
176
     1
290
     0
176
     1
 93
        1
176
     1
 44
-50.0
176
     1
173
     0
176
     1
  0
VISUALSTYLE
  5
39
102
{ACAD_REACTORS
330
2A
102
}
330
2A
100
AcDbVisualStyle
  2
Facepattern
 70
    15
177
     2
291
     1
 71
     2
176
     1
 72
     2
176
     1
 73
     0
176
     1
 90
        0
176
     1
 40
-0.6
176
     1
 41
-30.0
176
     1
 62
     5
 63
     7
421
 16777215
176
     1
 74
     1
176
     1
 91
        4
176
     1
 64
     7
176
     1
 65
   257
176
     1
 75
     1
176
     1
175
     1
176
     1
 42
1.0
176
     1
 92
        8
176
     1
 66
     7
176
     1
 43
1.0
176
     1
 76
     1
176
     1
 77
     6
176
     1
 78
     2
176
     1
 67
     7
176
     1
 79
     5
176
     1
170
     0
176
     1
171
     0
176
     1
290
     0
176
     1
 93
        1
176
     1
 44
0.0
176
     1
173
     0
176
     1
  0
VISUALSTYLE
  5
2B
102
{ACAD_REACTORS
330
2A
102
}
330
2A
100
AcDbVisualStyle
  2
Flat
 70
     0
177
     2
291
     1
 71
     2
176
     1
 72
     1
176
     1
 73
     1
176
     1
 90
        2
176
     1
 40
-0.6
176
     1
 41
30.0
176
     1
 62
     5
 63
     7
421
 16777215
176
     1
 74
     0
176
     1
 91
        4
176
     1
 64
     7
176
     1
 65
   257
176
     1
 75
     1
176
     1
175
     1
176
     1
 42
1.0
176
     1
 92
        8
176
     1
 66
     7
176
     1
 43
1.0
176
     1
 76
     1
176
     1
 77
     6
176
     1
 78
     2
176
     1
 67
     7
176
     1
 79
     5
176
     1
170
     0
176
     1
171
     0
176
     1
290
     0
176
     1
 93
       13
176
     1
 44
0.0
176
     1
173
     0
176
     1
  0
VISUALSTYLE
  5
2C
102
{ACAD_REACTORS
330
2A
102
}
330
2A
100
AcDbVisualStyle
  2
FlatWithEdges
 70
     1
177
     2
291
     1
 71
     2
176
     1
 72
     1
176
     1
 73
     1
176
     1
 90
        2
176
     1
 40
-0.6
176
     1
 41
30.0
176
     1
 62
     5
 63
     7
421
 16777215
176
     1
 74
     1
176
     1
 91
        4
176
     1
 64
     7
176
     1
 65
   257
176
     1
 75
     1
176
     1
175
     1
176
     1
 42
1.0
176
     1
 92
        0
176
     1
 66
   257
176
     1
 43
1.0
176
     1
 76
     1
176
     1
 77
     6
176
     1
 78
     2
176
     1
 67
     7
176
     1
 79
     5
176
     1
170
     0
176
     1
171
     0
176
     1
290
     0
176
     1
 93
       13
176
     1
 44
0.0
176
     1
173
     0
176
     1
  0
VISUALSTYLE
  5
2D
102
{ACAD_REACTORS
330
2A
102
}
330
2A
100
AcDbVisualStyle
  2
Gouraud
 70
     2
177
     2
291
     1
 71
     2
176
     1
 72
     2
176
     1
 73
     1
176
     1
 90
        2
176
     1
 40
-0.6
176
     1
 41
30.0
176
     1
 62
     5
 63
     7
421
 16777215
176
     1
 74
     0
176
     1
 91
        4
176
     1
 64
     7
176
     1
 65
   257
176
     1
 75
     1
176
     1
175
     1
176
     1
 42
1.0
176
     1
 92
        0
176
     1
 66
     7
176
     1
 43
1.0
176
     1
 76
     1
176
     1
 77
     6
176
     1
 78
     2
176
     1
 67
     7
176
     1
 79
     5
176
     1
170
     0
176
     1
171
     0
176
     1
290
     0
176
     1
 93
       13
176
     1
 44
0.0
176
     1
173
     0
176
     1
  0
VISUALSTYLE
  5
2E
102
{ACAD_REACTORS
330
2A
102
}
330
2A
100
AcDbVisualStyle
  2
GouraudWithEdges
 70
     3
177
     2
291
     1
 71
     2
176
     1
 72
     2
176
     1
 73
     1
176
     1
 90
        2
176
     1
 40
-0.6
176
     1
 41
30.0
176
     1
 62
     5
 63
     7
421
 16777215
176
     1
 74
     1
176
     1
 91
        4
176
     1
 64
     7
176
     1
 65
   257
176
     1
 75
     1
176
     1
175
     1
176
     1
 42
1.0
176
     1
 92
        0
176
     1
 66
   257
176
     1
 43
1.0
176
     1
 76
     1
176
     1
 77
     6
176
     1
 78
     2
176
     1
 67
     7
176
     1
 79
     5
176
     1
170
     0
176
     1
171
     0
176
     1
290
     0
176
     1
 93
       13
176
     1
 44
0.0
176
     1
173
     0
176
     1
  0
VISUALSTYLE
  5
38
102
{ACAD_REACTORS
330
2A
102
}
330
2A
100
AcDbVisualStyle
  2
Linepattern
 70
    14
177
     2
291
     1
 71
     2
176
     1
 72
     2
176
     1
 73
     0
176
     1
 90
        0
176
     1
 40
-0.6
176
     1
 41
-30.0
176
     1
 62
     5
 63
     7
421
 16777215
176
     1
 74
     1
176
     1
 91
        4
176
     1
 64
     7
176
     1
 65
   257
176
     1
 75
     7
176
     1
175
     7
176
     1
 42
1.0
176
     1
 92
        8
176
     1
 66
     7
176
     1
 43
1.0
176
     1
 76
     1
176
     1
 77
     6
176
     1
 78
     2
176
     1
 67
     7
176
     1
 79
     5
176
     1
170
     0
176
     1
171
     0
176
     1
290
     0
176
     1
 93
        1
176
     1
 44
0.0
176
     1
173
     0
176
     1
  0
VISUALSTYLE
  5
33
102
{ACAD_REACTORS
330
2A
102
}
330
2A
100
AcDbVisualStyle
  2
Realistic
 70
     8
177
     2
291
     0
 71
     2
176
     1
 72
     2
176
     1
 73
     0
176
     1
 90
        0
176
     1
 40
-0.6
176
     1
 41
-30.0
176
     1
 62
     5
 63
     7
421
 16777215
176
     1
 74
     1
176
     1
 91
        0
176
     1
 64
     7
176
     1
 65
   257
176
     1
 75
     1
176
     1
175
     1
176
     1
 42
1.0
176
     1
 92
        8
176
     1
 66
     8
424
  7895160
176
     1
 43
1.0
176
     1
 76
     1
176
     1
 77
     6
176
     1
 78
     2
176
     1
 67
     7
176
     1
 79
     5
176
     1
170
     0
176
     1
171
     0
176
     1
290
     0
176
     1
 93
       13
176
     1
 44
0.0
176
     1
173
     0
176
     1
  0
VISUALSTYLE
  5
37
102
{ACAD_REACTORS
330
2A
102
}
330
2A
100
AcDbVisualStyle
  2
Thicken
 70
    13
177
     2
291
     1
 71
     2
176
     1
 72
     2
176
     1
 73
     0
176
     1
 90
        0
176
     1
 40
-0.6
176
     1
 41
-30.0
176
     1
 62
     5
 63
     7
421
 16777215
176
     1
 74
     1
176
     1
 91
        4
176
     1
 64
     7
176
     1
 65
   257
176
     1
 75
     1
176
     1
175
     1
176
     1
 42
1.0
176
     1
 92
       12
176
     1
 66
     7
176
     1
 43
1.0
176
     1
 76
     1
176
     1
 77
     6
176
     1
 78
     2
176
     1
 67
     7
176
     1
 79
     5
176
     1
170
     0
176
     1
171
     0
176
     1
290
     0
176
     1
 93
        1
176
     1
 44
0.0
176
     1
173
     0
176
     1
  0
ENDSEC
  0
EOF
