  0
SECTION
  2
HEADER
  9
$ACADVER
  1
AC1024
  9
$ACADMAINTVER
 70
     6
  9
$DWGCODEPAGE
  3
UNDEFINED
  9
$INSBASE
 10
0.0
 20
0.0
 30
0.0
  9
$EXTMIN
 10
1.000000000000000E+20
 20
1.000000000000000E+20
 30
1.000000000000000E+20
  9
$EXTMAX
 10
-1.000000000000000E+20
 20
-1.000000000000000E+20
 30
-1.000000000000000E+20
  9
$LIMMIN
 10
0.0
 20
0.0
  9
$LIMMAX
 10
12.0
 20
9.0
  9
$ORTHOMODE
 70
     0
  9
$REGENMODE
 70
     1
  9
$FILLMODE
 70
     1
  9
$QTEXTMODE
 70
     0
  9
$MIRRTEXT
 70
     1
  9
$LTSCALE
 40
1.0
  9
$ATTMODE
 70
     1
  9
$TEXTSIZE
 40
0.2
  9
$TRACEWID
 40
0.05
  9
$TEXTSTYLE
  7
Standard
  9
$CLAYER
  8
0
  9
$CELTYPE
  6
ByLayer
  9
$CECOLOR
 62
   256
  9
$CELTSCALE
 40
1.0
  9
$DISPSILH
 70
     0
  9
$DIMSCALE
 40
1.0
  9
$DIMASZ
 40
0.18
  9
$DIMEXO
 40
0.0625
  9
$DIMDLI
 40
0.38
  9
$DIMRND
 40
0.0
  9
$DIMDLE
 40
0.0
  9
$DIMEXE
 40
0.18
  9
$DIMTP
 40
0.0
  9
$DIMTM
 40
0.0
  9
$DIMTXT
 40
0.18
  9
$DIMCEN
 40
0.09
  9
$DIMTSZ
 40
0.0
  9
$DIMTOL
 70
     0
  9
$DIMLIM
 70
     0
  9
$DIMTIH
 70
     1
  9
$DIMTOH
 70
     1
  9
$DIMSE1
 70
     0
  9
$DIMSE2
 70
     0
  9
$DIMTAD
 70
     0
  9
$DIMZIN
 70
     0
  9
$DIMBLK
  1

  9
$DIMASO
 70
     1
  9
$DIMSHO
 70
     1
  9
$DIMPOST
  1

  9
$DIMAPOST
  1

  9
$DIMALT
 70
     0
  9
$DIMALTD
 70
     2
  9
$DIMALTF
 40
25.4
  9
$DIMLFAC
 40
1.0
  9
$DIMTOFL
 70
     0
  9
$DIMTVP
 40
0.0
  9
$DIMTIX
 70
     0
  9
$DIMSOXD
 70
     0
  9
$DIMSAH
 70
     0
  9
$DIMBLK1
  1

  9
$DIMBLK2
  1

  9
$DIMSTYLE
  2
Standard
  9
$DIMCLRD
 70
     0
  9
$DIMCLRE
 70
     0
  9
$DIMCLRT
 70
     0
  9
$DIMTFAC
 40
1.0
  9
$DIMGAP
 40
0.09
  9
$DIMJUST
 70
     0
  9
$DIMSD1
 70
     0
  9
$DIMSD2
 70
     0
  9
$DIMTOLJ
 70
     1
  9
$DIMTZIN
 70
     0
  9
$DIMALTZ
 70
     0
  9
$DIMALTTZ
 70
     0
  9
$DIMUPT
 70
     0
  9
$DIMDEC
 70
     4
  9
$DIMTDEC
 70
     4
  9
$DIMALTU
 70
     2
  9
$DIMALTTD
 70
     2
  9
$DIMTXSTY
  7
Standard
  9
$DIMAUNIT
 70
     0
  9
$DIMADEC
 70
     0
  9
$DIMALTRND
 40
0.0
  9
$DIMAZIN
 70
     0
  9
$DIMDSEP
 70
    46
  9
$DIMATFIT
 70
     3
  9
$DIMFRAC
 70
     0
  9
$DIMLDRBLK
  1

  9
$DIMLUNIT
 70
     2
  9
$DIMLWD
 70
    -2
  9
$DIMLWE
 70
    -2
  9
$DIMTMOVE
 70
     0
  9
$DIMFXL
 40
1.0
  9
$DIMFXLON
 70
     0
  9
$DIMJOGANG
 40
0.7853981633974483
  9
$DIMTFILL
 70
     0
  9
$DIMTFILLCLR
 70
     0
  9
$DIMARCSYM
 70
     0
  9
$DIMLTYPE
  6

  9
$DIMLTEX1
  6

  9
$DIMLTEX2
  6

  9
$DIMTXTDIRECTION
 70
     0
  9
$LUNITS
 70
     2
  9
$LUPREC
 70
     4
  9
$SKETCHINC
 40
0.1
  9
$FILLETRAD
 40
0.5
  9
$AUNITS
 70
     0
  9
$AUPREC
 70
     0
  9
$MENU
  1
.
  9
$ELEVATION
 40
0.0
  9
$PELEVATION
 40
0.0
  9
$THICKNESS
 40
0.0
  9
$LIMCHECK
 70
     0
  9
$CHAMFERA
 40
0.5
  9
$CHAMFERB
 40
0.5
  9
$CHAMFERC
 40
1.0
  9
$CHAMFERD
 40
0.0
  9
$SKPOLY
 70
     0
  9
$TDCREATE
 40
2457917.585740741
  9
$TDUCREATE
 40
2457917.210740741
  9
$TDUPDATE
 40
2457917.585740741
  9
$TDUUPDATE
 40
2457917.210740741
  9
$TDINDWG
 40
0.0000000116
  9
$TDUSRTIMER
 40
0.0000000116
  9
$USRTIMER
 70
     1
  9
$ANGBASE
 50
0.0
  9
$ANGDIR
 70
     0
  9
$PDMODE
 70
     0
  9
$PDSIZE
 40
0.0
  9
$PLINEWID
 40
0.0
  9
$SPLFRAME
 70
     0
  9
$SPLINETYPE
 70
     6
  9
$SPLINESEGS
 70
     8
  9
$HANDSEED
  5
DD
  9
$SURFTAB1
 70
     6
  9
$SURFTAB2
 70
     6
  9
$SURFTYPE
 70
     6
  9
$SURFU
 70
     6
  9
$SURFV
 70
     6
  9
$UCSBASE
  2

  9
$UCSNAME
  2

  9
$UCSORG
 10
0.0
 20
0.0
 30
0.0
  9
$UCSXDIR
 10
1.0
 20
0.0
 30
0.0
  9
$UCSYDIR
 10
0.0
 20
1.0
 30
0.0
  9
$UCSORTHOREF
  2

  9
$UCSORTHOVIEW
 70
     0
  9
$UCSORGTOP
 10
0.0
 20
0.0
 30
0.0
  9
$UCSORGBOTTOM
 10
0.0
 20
0.0
 30
0.0
  9
$UCSORGLEFT
 10
0.0
 20
0.0
 30
0.0
  9
$UCSORGRIGHT
 10
0.0
 20
0.0
 30
0.0
  9
$UCSORGFRONT
 10
0.0
 20
0.0
 30
0.0
  9
$UCSORGBACK
 10
0.0
 20
0.0
 30
0.0
  9
$PUCSBASE
  2

  9
$PUCSNAME
  2

  9
$PUCSORG
 10
0.0
 20
0.0
 30
0.0
  9
$PUCSXDIR
 10
1.0
 20
0.0
 30
0.0
  9
$PUCSYDIR
 10
0.0
 20
1.0
 30
0.0
  9
$PUCSORTHOREF
  2

  9
$PUCSORTHOVIEW
 70
     0
  9
$PUCSORGTOP
 10
0.0
 20
0.0
 30
0.0
  9
$PUCSORGBOTTOM
 10
0.0
 20
0.0
 30
0.0
  9
$PUCSORGLEFT
 10
0.0
 20
0.0
 30
0.0
  9
$PUCSORGRIGHT
 10
0.0
 20
0.0
 30
0.0
  9
$PUCSORGFRONT
 10
0.0
 20
0.0
 30
0.0
  9
$PUCSORGBACK
 10
0.0
 20
0.0
 30
0.0
  9
$USERI1
 70
     0
  9
$USERI2
 70
     0
  9
$USERI3
 70
     0
  9
$USERI4
 70
     0
  9
$USERI5
 70
     0
  9
$USERR1
 40
0.0
  9
$USERR2
 40
0.0
  9
$USERR3
 40
0.0
  9
$USERR4
 40
0.0
  9
$USERR5
 40
0.0
  9
$WORLDVIEW
 70
     1
  9
$SHADEDGE
 70
     3
  9
$SHADEDIF
 70
    70
  9
$TILEMODE
 70
     1
  9
$MAXACTVP
 70
    64
  9
$PINSBASE
 10
0.0
 20
0.0
 30
0.0
  9
$PLIMCHECK
 70
     0
  9
$PEXTMIN
 10
1.000000000000000E+20
 20
1.000000000000000E+20
 30
1.000000000000000E+20
  9
$PEXTMAX
 10
-1.000000000000000E+20
 20
-1.000000000000000E+20
 30
-1.000000000000000E+20
  9
$PLIMMIN
 10
0.0
 20
0.0
  9
$PLIMMAX
 10
12.0
 20
9.0
  9
$UNITMODE
 70
     0
  9
$VISRETAIN
 70
     1
  9
$PLINEGEN
 70
     0
  9
$PSLTSCALE
 70
     1
  9
$TREEDEPTH
 70
  3020
  9
$CMLSTYLE
  2
Standard
  9
$CMLJUST
 70
     0
  9
$CMLSCALE
 40
1.0
  9
$PROXYGRAPHICS
 70
     1
  9
$MEASUREMENT
 70
     0
  9
$CELWEIGHT
370
    -1
  9
$ENDCAPS
280
     0
  9
$JOINSTYLE
280
     0
  9
$LWDISPLAY
290
     1
  9
$INSUNITS
 70
     1
  9
$HYPERLINKBASE
  1

  9
$STYLESHEET
  1

  9
$XEDIT
290
     1
  9
$CEPSNTYPE
380
     0
  9
$PSTYLEMODE
290
     1
  9
$FINGERPRINTGUID
  2
{7DB08B0A-FA91-F59B-2985-5FF9EC85FA8A}
  9
$VERSIONGUID
  2
{FAEB1C32-E019-11D5-929B-00C0DF256EC4}
  9
$EXTNAMES
290
     1
  9
$PSVPSCALE
 40
0.0
  9
$OLESTARTUP
290
     0
  9
$SORTENTS
280
   127
  9
$INDEXCTL
280
     0
  9
$HIDETEXT
280
     1
  9
$XCLIPFRAME
280
     2
  9
$HALOGAP
280
     0
  9
$OBSCOLOR
 70
   257
  9
$OBSLTYPE
280
     0
  9
$INTERSECTIONDISPLAY
280
     0
  9
$INTERSECTIONCOLOR
 70
   257
  9
$DIMASSOC
280
     2
  9
$PROJECTNAME
  1

  9
$CAMERADISPLAY
290
     0
  9
$LENSLENGTH
 40
50.0
  9
$CAMERAHEIGHT
 40
0.0
  9
$STEPSPERSEC
 40
2.0
  9
$STEPSIZE
 40
6.0
  9
$3DDWFPREC
 40
2.0
  9
$PSOLWIDTH
 40
0.25
  9
$PSOLHEIGHT
 40
4.0
  9
$LOFTANG1
 40
1.570796326794897
  9
$LOFTANG2
 40
1.570796326794897
  9
$LOFTMAG1
 40
0.0
  9
$LOFTMAG2
 40
0.0
  9
$LOFTPARAM
 70
     7
  9
$LOFTNORMALS
280
     1
  9
$LATITUDE
 40
37.795
  9
$LONGITUDE
 40
-122.394
  9
$NORTHDIRECTION
 40
0.0
  9
$TIMEZONE
 70
 -8000
  9
$LIGHTGLYPHDISPLAY
280
     1
  9
$TILEMODELIGHTSYNCH
280
     1
  9
$CMATERIAL
347
3C
  9
$SOLIDHIST
280
     1
  9
$SHOWHIST
280
     1
  9
$DWFFRAME
280
     2
  9
$DGNFRAME
280
     2
  9
$REALWORLDSCALE
290
     1
  9
$INTERFERECOLOR
 62
   256
  9
$CSHADOW
280
     0
  9
$SHADOWPLANELOCATION
 40
0.0
  0
ENDSEC
  0
SECTION
  2
CLASSES
  0
CLASS
  1
ACDBDICTIONARYWDFLT
  2
AcDbDictionaryWithDefault
  3
ObjectDBX Classes
 90
        0
 91
        4
280
     0
281
     0
  0
CLASS
  1
VISUALSTYLE
  2
AcDbVisualStyle
  3
ObjectDBX Classes
 90
     4095
 91
        4
280
     0
281
     0
  0
CLASS
  1
MATERIAL
  2
AcDbMaterial
  3
ObjectDBX Classes
 90
     1153
 91
        4
280
     0
281
     0
  0
CLASS
  1
SUN
  2
AcDbSun
  3
SCENEOE
 90
     1024
 91
        4
280
     0
281
     0
  0
ENDSEC
  0
SECTION
  2
TABLES
  0
TABLE
  2
VPORT
  5
8
330
0
100
AcDbSymbolTable
 70
     1
  0
VPORT
  5
29
330
8
100
AcDbSymbolTableRecord
100
AcDbViewportTableRecord
  2
*Active
 70
     0
 10
0.0
 20
0.0
 11
1.0
 21
1.0
 12
0.0
 22
0.0
 13
0.0
 23
0.0
 14
0.5
 24
0.5
 15
0.5
 25
0.5
 16
0.0
 26
0.0
 36
1.0
 17
91.00082462281999
 27
-128.4993055234307
 37
0.0
 40
256.9986110468615
 41
0.7081814508812795
 42
50.0
 43
0.0
 44
0.0
 50
0.0
 51
0.0
 71
     0
 72
   100
 73
     1
 74
     3
 75
     0
 76
     0
 77
     0
 78
     0
281
     0
 65
     1
110
0.0
120
0.0
130
0.0
111
1.0
121
0.0
131
0.0
112
0.0
122
1.0
132
0.0
 79
     0
146
0.0
 60
     3
 61
     5
292
     1
282
     1
141
0.0
142
0.0
 63
   250
361
3F
  0
ENDTAB
  0
TABLE
  2
LTYPE
  5
5
330
0
100
AcDbSymbolTable
 70
     1
  0
LTYPE
  5
14
330
5
100
AcDbSymbolTableRecord
100
AcDbLinetypeTableRecord
  2
ByBlock
 70
     0
  3

 72
    65
 73
     0
 40
0.0
  0
LTYPE
  5
15
330
5
100
AcDbSymbolTableRecord
100
AcDbLinetypeTableRecord
  2
ByLayer
 70
     0
  3

 72
    65
 73
     0
 40
0.0
  0
LTYPE
  5
16
330
5
100
AcDbSymbolTableRecord
100
AcDbLinetypeTableRecord
  2
Continuous
 70
     0
  3
Solid line
 72
    65
 73
     0
 40
0.0
  0
ENDTAB
  0
TABLE
  2
LAYER
  5
2
330
0
100
AcDbSymbolTable
 70
     2
  0
LAYER
  5
10
330
2
100
AcDbSymbolTableRecord
100
AcDbLayerTableRecord
  2
0
 70
     0
 62
     7
  6
Continuous
370
    -3
390
F
347
3E
  0
LAYER
  5
40
330
2
100
AcDbSymbolTableRecord
100
AcDbLayerTableRecord
  2
_U+30EC_U+30A4_U+30E4_U+30FC 1
 70
     0
 62
     7
  6
Continuous
370
    -3
390
F
347
3E
  0
ENDTAB
  0
TABLE
  2
STYLE
  5
3
330
0
100
AcDbSymbolTable
 70
     1
  0
STYLE
  5
11
330
3
100
AcDbSymbolTableRecord
100
AcDbTextStyleTableRecord
  2
Standard
 70
     0
 40
0.0
 41
1.0
 50
0.0
 71
     0
 42
0.2
  3
txt
  4

  0
ENDTAB
  0
TABLE
  2
VIEW
  5
6
330
0
100
AcDbSymbolTable
 70
     0
  0
ENDTAB
  0
TABLE
  2
UCS
  5
7
330
0
100
AcDbSymbolTable
 70
     0
  0
ENDTAB
  0
TABLE
  2
APPID
  5
9
330
0
100
AcDbSymbolTable
 70
     1
  0
APPID
  5
12
330
9
100
AcDbSymbolTableRecord
100
AcDbRegAppTableRecord
  2
ACAD
 70
     0
  0
ENDTAB
  0
TABLE
  2
DIMSTYLE
  5
A
330
0
100
AcDbSymbolTable
 70
     1
100
AcDbDimStyleTable
  0
DIMSTYLE
105
27
330
A
100
AcDbSymbolTableRecord
100
AcDbDimStyleTableRecord
  2
Standard
 70
     0
178
     0
340
11
  0
ENDTAB
  0
TABLE
  2
BLOCK_RECORD
  5
1
330
0
100
AcDbSymbolTable
 70
     3
  0
BLOCK_RECORD
  5
1F
330
1
100
AcDbSymbolTableRecord
100
AcDbBlockTableRecord
  2
*Model_Space
340
22
 70
     0
280
     1
281
     0
  0
BLOCK_RECORD
  5
1B
330
1
100
AcDbSymbolTableRecord
100
AcDbBlockTableRecord
  2
*Paper_Space
340
1E
 70
     0
280
     1
281
     0
  0
BLOCK_RECORD
  5
23
330
1
100
AcDbSymbolTableRecord
100
AcDbBlockTableRecord
  2
*Paper_Space0
340
26
 70
     0
280
     1
281
     0
  0
BLOCK_RECORD
  5
41
330
1
100
AcDbSymbolTableRecord
100
AcDbBlockTableRecord
  2
block 2
340
0
102
{BLKREFS
331
42
102
}
 70
     0
280
     1
281
     0
  0
BLOCK_RECORD
  5
D3
330
1
100
AcDbSymbolTableRecord
100
AcDbBlockTableRecord
  2
block 3
340
0
102
{BLKREFS
331
D4
102
}
 70
     0
280
     1
281
     0
  0
ENDTAB
  0
ENDSEC
  0
SECTION
  2
BLOCKS
  0
BLOCK
  5
20
330
1F
100
AcDbEntity
  8
0
100
AcDbBlockBegin
  2
*Model_Space
 70
     0
 10
0.0
 20
0.0
 30
0.0
  3
*Model_Space
  1

  0
ENDBLK
  5
21
330
1F
100
AcDbEntity
  8
0
100
AcDbBlockEnd
  0
BLOCK
  5
1C
330
1B
100
AcDbEntity
 67
     1
  8
0
100
AcDbBlockBegin
  2
*Paper_Space
 70
     0
 10
0.0
 20
0.0
 30
0.0
  3
*Paper_Space
  1

  0
ENDBLK
  5
1D
330
1B
100
AcDbEntity
 67
     1
  8
0
100
AcDbBlockEnd
  0
BLOCK
  5
24
330
23
100
AcDbEntity
  8
0
100
AcDbBlockBegin
  2
*Paper_Space0
 70
     0
 10
0.0
 20
0.0
 30
0.0
  3
*Paper_Space0
  1

  0
ENDBLK
  5
25
330
23
100
AcDbEntity
  8
0
100
AcDbBlockEnd
  0
BLOCK
  5
43
330
41
100
AcDbEntity
  8
0
100
AcDbBlockBegin
  2
block 2
 70
     0
 10
0.0
 20
0.0
 30
0.0
  3
block 2
  1

  0
SPLINE
  5
45
330
41
100
AcDbEntity
  8
_U+30EC_U+30A4_U+30E4_U+30FC 1
 62
   179
420
  2234388
370
     9
100
AcDbSpline
210
0.0
220
0.0
230
1.0
 70
    11
 71
     3
 72
    92
 73
    88
 74
     0
 42
0.0000000001
 43
0.0000000001
 12
1.0
 22
0.0
 32
0.0
 13
1.0
 23
0.0
 33
0.0
 40
0.0
 40
0.0
 40
0.0
 40
0.0
 40
1.0
 40
1.0
 40
1.0
 40
2.0
 40
2.0
 40
2.0
 40
3.0
 40
3.0
 40
3.0
 40
4.0
 40
4.0
 40
4.0
 40
5.0
 40
5.0
 40
5.0
 40
6.0
 40
6.0
 40
6.0
 40
7.0
 40
7.0
 40
7.0
 40
8.0
 40
8.0
 40
8.0
 40
9.0
 40
9.0
 40
9.0
 40
10.0
 40
10.0
 40
10.0
 40
11.0
 40
11.0
 40
11.0
 40
12.0
 40
12.0
 40
12.0
 40
13.0
 40
13.0
 40
13.0
 40
14.0
 40
14.0
 40
14.0
 40
15.0
 40
15.0
 40
15.0
 40
16.0
 40
16.0
 40
16.0
 40
17.0
 40
17.0
 40
17.0
 40
18.0
 40
18.0
 40
18.0
 40
19.0
 40
19.0
 40
19.0
 40
20.0
 40
20.0
 40
20.0
 40
21.0
 40
21.0
 40
21.0
 40
22.0
 40
22.0
 40
22.0
 40
23.0
 40
23.0
 40
23.0
 40
24.0
 40
24.0
 40
24.0
 40
25.0
 40
25.0
 40
25.0
 40
26.0
 40
26.0
 40
26.0
 40
27.0
 40
27.0
 40
27.0
 40
28.0
 40
28.0
 40
28.0
 40
29.0
 40
29.0
 40
29.0
 40
29.0
 10
73.67199442602639
 20
-129.2940785787874
 30
0.0
 10
73.67199442602639
 20
-129.2940785787874
 30
0.0
 10
73.67199442602639
 20
-129.5876249676028
 30
0.0
 10
73.67199442602639
 20
-129.5876249676028
 30
0.0
 10
73.67199442602639
 20
-129.5876249676028
 30
0.0
 10
77.37616109176702
 20
-131.6753285781921
 30
0.0
 10
77.37616109176702
 20
-131.6753285781921
 30
0.0
 10
77.37616109176702
 20
-131.6753285781921
 30
0.0
 10
77.69930553613074
 20
-130.8815785783906
 30
0.0
 10
78.93402775804428
 20
-131.2343563560801
 30
0.0
 10
78.93402775804428
 20
-131.2343563560801
 30
0.0
 10
79.72777775784584
 20
-131.6753285781921
 30
0.0
 10
78.19883886933924
 20
-131.9102785781338
 30
0.0
 10
78.19883886933924
 20
-131.9102785781338
 30
0.0
 10
78.19883886933924
 20
-132.1748619114009
 30
0.0
 10
78.19883886933924
 20
-132.1748619114009
 30
0.0
 10
78.19883886933924
 20
-132.1748619114009
 30
0.0
 10
87.75347220028385
 20
-137.3783341323223
 30
0.0
 10
87.75347220028385
 20
-137.3783341323223
 30
0.0
 10
87.75347220028385
 20
-137.3783341323223
 30
0.0
 10
88.16481108906997
 20
-136.6431805213945
 30
0.0
 10
89.22314442213872
 20
-136.9669952435358
 30
0.0
 10
89.22314442213872
 20
-136.9669952435358
 30
0.0
 10
89.9286999775179
 20
-137.4665285767447
 30
0.0
 10
88.54722220008541
 20
-137.5843563544926
 30
0.0
 10
88.54722220008541
 20
-137.5843563544926
 30
0.0
 10
88.54722220008541
 20
-137.9075007988567
 30
0.0
 10
88.54722220008541
 20
-137.9075007988567
 30
0.0
 10
88.54722220008541
 20
-137.9075007988567
 30
0.0
 10
90.22291664411094
 20
-138.8190785764062
 30
0.0
 10
90.22291664411094
 20
-138.8190785764062
 30
0.0
 10
90.22291664411094
 20
-138.8190785764062
 30
0.0
 10
111.2428277499673
 20
-126.3836619128487
 30
0.0
 10
111.2428277499673
 20
-126.3836619128487
 30
0.0
 10
111.2428277499673
 20
-126.3836619128487
 30
0.0
 10
111.2428277499673
 20
-126.1487119129074
 30
0.0
 10
111.2428277499673
 20
-126.1487119129074
 30
0.0
 10
111.2428277499673
 20
-126.1487119129074
 30
0.0
 10
108.9201388616589
 20
-126.5600508016935
 30
0.0
 10
106.8331055288475
 20
-126.2954674684263
 30
0.0
 10
106.8331055288475
 20
-126.2954674684263
 30
0.0
 10
106.8034721955214
 20
-126.5600508016935
 30
0.0
 10
106.8034721955214
 20
-126.5600508016935
 30
0.0
 10
106.8034721955214
 20
-126.5600508016935
 30
0.0
 10
107.4793944175743
 20
-127.1774119126502
 30
0.0
 10
105.8918944179712
 20
-127.1477785793241
 30
0.0
 10
105.8918944179712
 20
-127.1477785793241
 30
0.0
 10
105.1863388625921
 20
-126.8831952460569
 30
0.0
 10
105.627311084704
 20
-126.5600508016935
 30
0.0
 10
105.627311084704
 20
-126.5600508016935
 30
0.0
 10
106.039355529046
 20
-126.3836619128487
 30
0.0
 10
106.5685221955804
 20
-126.3836619128487
 30
0.0
 10
106.5685221955804
 20
-126.3836619128487
 30
0.0
 10
106.5685221955804
 20
-126.2072730240039
 30
0.0
 10
106.5685221955804
 20
-126.2072730240039
 30
0.0
 10
106.5685221955804
 20
-126.2072730240039
 30
0.0
 10
105.3627277514368
 20
-125.4135230242023
 30
0.0
 10
104.9810221959772
 20
-125.2667674686834
 30
0.0
 10
104.9810221959772
 20
-125.2667674686834
 30
0.0
 10
104.3925888627905
 20
-125.3542916353281
 30
0.0
 10
104.4807833072129
 20
-124.5315785799784
 30
0.0
 10
104.4807833072129
 20
-124.5315785799784
 30
0.0
 10
102.9229166409359
 20
-121.7975508028841
 30
0.0
 10
102.8347221965136
 20
-121.0919952475049
 30
0.0
 10
102.8347221965136
 20
-121.0919952475049
 30
0.0
 10
101.7467555301186
 20
-118.2987360815364
 30
0.0
 10
101.1886610858142
 20
-118.1223471926916
 30
0.0
 10
101.1886610858142
 20
-118.1223471926916
 30
0.0
 10
100.953005530317
 20
-119.0338896924636
 30
0.0
 10
99.6597221973073
 20
-118.4751249703812
 30
0.0
 10
99.6597221973073
 20
-118.4751249703812
 30
0.0
 10
99.10092219744674
 20
-117.8873619149725
 30
0.0
 10
100.8944444192208
 20
-118.0051896927211
 30
0.0
 10
100.8944444192208
 20
-118.0051896927211
 30
0.0
 10
100.8944444192208
 20
-117.7406063594539
 30
0.0
 10
100.8944444192208
 20
-117.7406063594539
 30
0.0
 10
100.8944444192208
 20
-117.7406063594539
 30
0.0
 10
100.0710610860931
 20
-116.8876249707781
 30
0.0
 10
99.5129666417887
 20
-116.7704674708075
 30
0.0
 10
99.5129666417887
 20
-116.7704674708075
 30
0.0
 10
98.74814441975715
 20
-116.8586619152299
 30
0.0
 10
98.30717219764517
 20
-116.4176896931179
 30
0.0
 10
98.30717219764517
 20
-116.4176896931179
 30
0.0
 10
95.3967555317061
 20
-116.0351374709911
 30
0.0
 10
93.57430553216199
 20
-117.2404027484677
 30
0.0
 10
93.57430553216199
 20
-117.2404027484677
 30
0.0
 10
73.67199442602639
 20
-129.2940785787874
 30
0.0
 10
73.67199442602639
 20
-129.2940785787874
 30
0.0
  0
SPLINE
  5
46
330
41
100
AcDbEntity
  8
_U+30EC_U+30A4_U+30E4_U+30FC 1
 62
   179
420
  2234388
370
     9
100
AcDbSpline
210
0.0
220
0.0
230
1.0
 70
     8
 71
     3
 72
    14
 73
    10
 74
     0
 42
0.0000000001
 43
0.0000000001
 12
1.0
 22
0.0
 32
0.0
 13
1.0
 23
0.0
 33
0.0
 40
0.0
 40
0.0
 40
0.0
 40
0.0
 40
1.0
 40
1.0
 40
1.0
 40
2.0
 40
2.0
 40
2.0
 40
3.0
 40
3.0
 40
3.0
 40
3.0
 10
73.67199442602639
 20
-129.2940785787874
 30
0.0
 10
73.67199442602639
 20
-129.2940785787874
 30
0.0
 10
77.31689442511528
 20
-131.3515138560507
 30
0.0
 10
77.31689442511528
 20
-131.3515138560507
 30
0.0
 10
77.31689442511528
 20
-131.3515138560507
 30
0.0
 10
77.9053277583014
 20
-130.4406063562786
 30
0.0
 10
79.05185553579254
 20
-130.9697730228129
 30
0.0
 10
79.05185553579254
 20
-130.9697730228129
 30
0.0
 10
79.55138886900104
 20
-131.3811119115994
 30
0.0
 10
79.05185553579254
 20
-131.6160971893179
 30
0.0
  0
POLYLINE
  5
47
330
41
100
AcDbEntity
  8
_U+30EC_U+30A4_U+30E4_U+30FC 1
 62
   179
420
  2234388
370
     9
100
AcDb2dPolyline
 66
     1
 10
0.0
 20
0.0
 30
0.0
  0
VERTEX
  5
48
330
47
100
AcDbEntity
  8
_U+30EC_U+30A4_U+30E4_U+30FC 1
 62
   179
420
  2234388
370
     9
100
AcDbVertex
100
AcDb2dVertex
 10
77.31689442511528
 20
-131.3515138560507
 30
0.0
  0
VERTEX
  5
49
330
47
100
AcDbEntity
  8
_U+30EC_U+30A4_U+30E4_U+30FC 1
 62
   179
420
  2234388
370
     9
100
AcDbVertex
100
AcDb2dVertex
 10
77.37616109176702
 20
-131.6753285781921
 30
0.0
  0
SEQEND
  5
4A
330
47
100
AcDbEntity
  8
_U+30EC_U+30A4_U+30E4_U+30FC 1
 62
   179
420
  2234388
370
     9
  0
POLYLINE
  5
4B
330
41
100
AcDbEntity
  8
_U+30EC_U+30A4_U+30E4_U+30FC 1
 62
   179
420
  2234388
370
     9
100
AcDb2dPolyline
 66
     1
 10
0.0
 20
0.0
 30
0.0
  0
VERTEX
  5
4C
330
4B
100
AcDbEntity
  8
_U+30EC_U+30A4_U+30E4_U+30FC 1
 62
   179
420
  2234388
370
     9
100
AcDbVertex
100
AcDb2dVertex
 10
78.19883886933924
 20
-131.9102785781338
 30
0.0
  0
VERTEX
  5
4D
330
4B
100
AcDbEntity
  8
_U+30EC_U+30A4_U+30E4_U+30FC 1
 62
   179
420
  2234388
370
     9
100
AcDbVertex
100
AcDb2dVertex
 10
81.72661664623507
 20
-133.7919952443296
 30
0.0
  0
VERTEX
  5
4E
330
4B
100
AcDbEntity
  8
_U+30EC_U+30A4_U+30E4_U+30FC 1
 62
   179
420
  2234388
370
     9
100
AcDbVertex
100
AcDb2dVertex
 10
102.8347221965136
 20
-121.0919952475049
 30
0.0
  0
SEQEND
  5
4F
330
4B
100
AcDbEntity
  8
_U+30EC_U+30A4_U+30E4_U+30FC 1
 62
   179
420
  2234388
370
     9
  0
POLYLINE
  5
50
330
41
100
AcDbEntity
  8
_U+30EC_U+30A4_U+30E4_U+30FC 1
 62
   179
420
  2234388
370
     9
100
AcDb2dPolyline
 66
     1
 10
0.0
 20
0.0
 30
0.0
  0
VERTEX
  5
51
330
50
100
AcDbEntity
  8
_U+30EC_U+30A4_U+30E4_U+30FC 1
 62
   179
420
  2234388
370
     9
100
AcDbVertex
100
AcDb2dVertex
 10
81.72661664623507
 20
-133.7919952443296
 30
0.0
  0
VERTEX
  5
52
330
50
100
AcDbEntity
  8
_U+30EC_U+30A4_U+30E4_U+30FC 1
 62
   179
420
  2234388
370
     9
100
AcDbVertex
100
AcDb2dVertex
 10
81.72661664623507
 20
-134.085541633145
 30
0.0
  0
SEQEND
  5
53
330
50
100
AcDbEntity
  8
_U+30EC_U+30A4_U+30E4_U+30FC 1
 62
   179
420
  2234388
370
     9
  0
POLYLINE
  5
54
330
41
100
AcDbEntity
  8
_U+30EC_U+30A4_U+30E4_U+30FC 1
 62
   179
420
  2234388
370
     9
100
AcDb2dPolyline
 66
     1
 10
0.0
 20
0.0
 30
0.0
  0
VERTEX
  5
55
330
54
100
AcDbEntity
  8
_U+30EC_U+30A4_U+30E4_U+30FC 1
 62
   179
420
  2234388
370
     9
100
AcDbVertex
100
AcDb2dVertex
 10
81.81516386843523
 20
-134.1151396886937
 30
0.0
  0
VERTEX
  5
56
330
54
100
AcDbEntity
  8
_U+30EC_U+30A4_U+30E4_U+30FC 1
 62
   179
420
  2234388
370
     9
100
AcDbVertex
100
AcDb2dVertex
 10
102.9229166409359
 20
-121.5619305251651
 30
0.0
  0
SEQEND
  5
57
330
54
100
AcDbEntity
  8
_U+30EC_U+30A4_U+30E4_U+30FC 1
 62
   179
420
  2234388
370
     9
  0
SPLINE
  5
58
330
41
100
AcDbEntity
  8
_U+30EC_U+30A4_U+30E4_U+30FC 1
 62
   179
420
  2234388
370
     9
100
AcDbSpline
210
0.0
220
0.0
230
1.0
 70
     8
 71
     3
 72
    17
 73
    13
 74
     0
 42
0.0000000001
 43
0.0000000001
 12
1.0
 22
0.0
 32
0.0
 13
1.0
 23
0.0
 33
0.0
 40
0.0
 40
0.0
 40
0.0
 40
0.0
 40
1.0
 40
1.0
 40
1.0
 40
2.0
 40
2.0
 40
2.0
 40
3.0
 40
3.0
 40
3.0
 40
4.0
 40
4.0
 40
4.0
 40
4.0
 10
103.0407444186845
 20
-121.7679174695579
 30
0.0
 10
103.0407444186845
 20
-121.7679174695579
 30
0.0
 10
82.25613609054722
 20
-134.1151396886937
 30
0.0
 10
82.25613609054722
 20
-134.1151396886937
 30
0.0
 10
82.25613609054722
 20
-134.1151396886937
 30
0.0
 10
87.72419164473575
 20
-137.0255563546327
 30
0.0
 10
87.72419164473575
 20
-137.0255563546327
 30
0.0
 10
87.72419164473575
 20
-137.0255563546327
 30
0.0
 10
88.25300553349237
 20
-136.1140138548601
 30
0.0
 10
89.42916664430938
 20
-136.7906063546911
 30
0.0
 10
89.42916664430938
 20
-136.7906063546911
 30
0.0
 10
89.95833331084376
 20
-137.4079674656478
 30
0.0
 10
89.22349719991648
 20
-137.4665285767447
 30
0.0
  0
POLYLINE
  5
59
330
41
100
AcDbEntity
  8
_U+30EC_U+30A4_U+30E4_U+30FC 1
 62
   179
420
  2234388
370
     9
100
AcDb2dPolyline
 66
     1
 10
0.0
 20
0.0
 30
0.0
  0
VERTEX
  5
5A
330
59
100
AcDbEntity
  8
_U+30EC_U+30A4_U+30E4_U+30FC 1
 62
   179
420
  2234388
370
     9
100
AcDbVertex
100
AcDb2dVertex
 10
87.72419164473575
 20
-137.0255563546327
 30
0.0
  0
VERTEX
  5
5B
330
59
100
AcDbEntity
  8
_U+30EC_U+30A4_U+30E4_U+30FC 1
 62
   179
420
  2234388
370
     9
100
AcDbVertex
100
AcDb2dVertex
 10
87.72419164473575
 20
-137.3783341323223
 30
0.0
  0
SEQEND
  5
5C
330
59
100
AcDbEntity
  8
_U+30EC_U+30A4_U+30E4_U+30FC 1
 62
   179
420
  2234388
370
     9
  0
POLYLINE
  5
5D
330
41
100
AcDbEntity
  8
_U+30EC_U+30A4_U+30E4_U+30FC 1
 62
   179
420
  2234388
370
     9
100
AcDb2dPolyline
 66
     1
 10
0.0
 20
0.0
 30
0.0
  0
VERTEX
  5
5E
330
5D
100
AcDbEntity
  8
_U+30EC_U+30A4_U+30E4_U+30FC 1
 62
   179
420
  2234388
370
     9
100
AcDbVertex
100
AcDb2dVertex
 10
82.19722220167291
 20
-134.1151396886937
 30
0.0
  0
VERTEX
  5
5F
330
5D
100
AcDbEntity
  8
_U+30EC_U+30A4_U+30E4_U+30FC 1
 62
   179
420
  2234388
370
     9
100
AcDbVertex
100
AcDb2dVertex
 10
82.19722220167291
 20
-134.2915285775384
 30
0.0
  0
SEQEND
  5
60
330
5D
100
AcDbEntity
  8
_U+30EC_U+30A4_U+30E4_U+30FC 1
 62
   179
420
  2234388
370
     9
  0
POLYLINE
  5
61
330
41
100
AcDbEntity
  8
_U+30EC_U+30A4_U+30E4_U+30FC 1
 62
   179
420
  2234388
370
     9
100
AcDb2dPolyline
 66
     1
 10
0.0
 20
0.0
 30
0.0
  0
VERTEX
  5
62
330
61
100
AcDbEntity
  8
_U+30EC_U+30A4_U+30E4_U+30FC 1
 62
   179
420
  2234388
370
     9
100
AcDbVertex
100
AcDb2dVertex
 10
88.54722220008541
 20
-137.5843563544926
 30
0.0
  0
VERTEX
  5
63
330
61
100
AcDbEntity
  8
_U+30EC_U+30A4_U+30E4_U+30FC 1
 62
   179
420
  2234388
370
     9
100
AcDbVertex
100
AcDb2dVertex
 10
90.22291664411094
 20
-138.5248619098134
 30
0.0
  0
VERTEX
  5
64
330
61
100
AcDbEntity
  8
_U+30EC_U+30A4_U+30E4_U+30FC 1
 62
   179
420
  2234388
370
     9
100
AcDbVertex
100
AcDb2dVertex
 10
111.2428277499673
 20
-126.1487119129074
 30
0.0
  0
SEQEND
  5
65
330
61
100
AcDbEntity
  8
_U+30EC_U+30A4_U+30E4_U+30FC 1
 62
   179
420
  2234388
370
     9
  0
SPLINE
  5
66
330
41
100
AcDbEntity
  8
_U+30EC_U+30A4_U+30E4_U+30FC 1
 62
   179
420
  2234388
370
     9
100
AcDbSpline
210
0.0
220
0.0
230
1.0
 70
     8
 71
     3
 72
     8
 73
     4
 74
     0
 42
0.0000000001
 43
0.0000000001
 12
1.0
 22
0.0
 32
0.0
 13
1.0
 23
0.0
 33
0.0
 40
0.0
 40
0.0
 40
0.0
 40
0.0
 40
1.0
 40
1.0
 40
1.0
 40
1.0
 10
106.5685221955804
 20
-126.2072730240039
 30
0.0
 10
106.5685221955804
 20
-126.2072730240039
 30
0.0
 10
105.157411084822
 20
-126.0894452462553
 30
0.0
 10
105.4805555291854
 20
-126.8246341349607
 30
0.0
  0
SPLINE
  5
67
330
41
100
AcDbEntity
  8
_U+30EC_U+30A4_U+30E4_U+30FC 1
 62
   179
420
  2234388
370
     9
100
AcDbSpline
210
0.0
220
0.0
230
1.0
 70
    11
 71
     3
 72
    17
 73
    13
 74
     0
 42
0.0000000001
 43
0.0000000001
 12
1.0
 22
0.0
 32
0.0
 13
1.0
 23
0.0
 33
0.0
 40
0.0
 40
0.0
 40
0.0
 40
0.0
 40
1.0
 40
1.0
 40
1.0
 40
2.0
 40
2.0
 40
2.0
 40
3.0
 40
3.0
 40
3.0
 40
4.0
 40
4.0
 40
4.0
 40
4.0
 10
81.52129997961961
 20
-130.087828578589
 30
0.0
 10
81.52129997961961
 20
-130.4123841340634
 30
0.0
 10
81.06688487625591
 20
-130.6755563562202
 30
0.0
 10
80.50706386876207
 20
-130.6755563562202
 30
0.0
 10
79.94688601594058
 20
-130.6755563562202
 30
0.0
 10
79.49282775790452
 20
-130.4123841340634
 30
0.0
 10
79.49282775790452
 20
-130.087828578589
 30
0.0
 10
79.49282775790452
 20
-129.7626380231147
 30
0.0
 10
79.94688601594058
 20
-129.4994305231804
 30
0.0
 10
80.50706386876207
 20
-129.4994305231804
 30
0.0
 10
81.06688487625591
 20
-129.4994305231804
 30
0.0
 10
81.52129997961961
 20
-129.7626380231147
 30
0.0
 10
81.52129997961961
 20
-130.087828578589
 30
0.0
  0
SPLINE
  5
68
330
41
100
AcDbEntity
  8
_U+30EC_U+30A4_U+30E4_U+30FC 1
 62
   179
420
  2234388
370
     9
100
AcDbSpline
210
0.0
220
0.0
230
1.0
 70
     8
 71
     3
 72
    11
 73
     7
 74
     0
 42
0.0000000001
 43
0.0000000001
 12
1.0
 22
0.0
 32
0.0
 13
1.0
 23
0.0
 33
0.0
 40
0.0
 40
0.0
 40
0.0
 40
0.0
 40
1.0
 40
1.0
 40
1.0
 40
2.0
 40
2.0
 40
2.0
 40
2.0
 10
79.6692166467493
 20
-130.410973022953
 30
0.0
 10
79.6692166467493
 20
-130.410973022953
 30
0.0
 10
79.63958331342344
 20
-129.7054174675739
 30
0.0
 10
80.78611109091459
 20
-129.7640138564476
 30
0.0
 10
80.78611109091459
 20
-129.7640138564476
 30
0.0
 10
81.46238609074565
 20
-129.85220830087
 30
0.0
 10
81.34491109077483
 20
-130.3813749674044
 30
0.0
  0
SPLINE
  5
69
330
41
100
AcDbEntity
  8
_U+30EC_U+30A4_U+30E4_U+30FC 1
 62
   179
420
  2234388
370
     9
100
AcDbSpline
210
0.0
220
0.0
230
1.0
 70
    11
 71
     3
 72
    17
 73
    13
 74
     0
 42
0.0000000001
 43
0.0000000001
 12
1.0
 22
0.0
 32
0.0
 13
1.0
 23
0.0
 33
0.0
 40
0.0
 40
0.0
 40
0.0
 40
0.0
 40
1.0
 40
1.0
 40
1.0
 40
2.0
 40
2.0
 40
2.0
 40
3.0
 40
3.0
 40
3.0
 40
4.0
 40
4.0
 40
4.0
 40
4.0
 10
78.33113053597283
 20
-129.5876249676028
 30
0.0
 10
78.33113053597283
 20
-129.9128155230771
 30
0.0
 10
77.87706829096824
 20
-130.1760230230114
 30
0.0
 10
77.31724720289304
 20
-130.1760230230114
 30
0.0
 10
76.7570694306529
 20
-130.1760230230114
 30
0.0
 10
76.30265831425773
 20
-129.9128155230771
 30
0.0
 10
76.30265831425773
 20
-129.5876249676028
 30
0.0
 10
76.30265831425773
 20
-129.263069412129
 30
0.0
 10
76.7570694306529
 20
-128.9998619121947
 30
0.0
 10
77.31724720289304
 20
-128.9998619121947
 30
0.0
 10
77.87706829096824
 20
-128.9998619121947
 30
0.0
 10
78.33113053597283
 20
-129.263069412129
 30
0.0
 10
78.33113053597283
 20
-129.5876249676028
 30
0.0
  0
SPLINE
  5
6A
330
41
100
AcDbEntity
  8
_U+30EC_U+30A4_U+30E4_U+30FC 1
 62
   179
420
  2234388
370
     9
100
AcDbSpline
210
0.0
220
0.0
230
1.0
 70
     8
 71
     3
 72
    11
 73
     7
 74
     0
 42
0.0000000001
 43
0.0000000001
 12
1.0
 22
0.0
 32
0.0
 13
1.0
 23
0.0
 33
0.0
 40
0.0
 40
0.0
 40
0.0
 40
0.0
 40
1.0
 40
1.0
 40
1.0
 40
2.0
 40
2.0
 40
2.0
 40
2.0
 10
76.47904720310252
 20
-129.9114396897442
 30
0.0
 10
76.47904720310252
 20
-129.9114396897442
 30
0.0
 10
76.4497666475541
 20
-129.2052138565877
 30
0.0
 10
77.59629442504524
 20
-129.2644452454619
 30
0.0
 10
77.59629442504524
 20
-129.2644452454619
 30
0.0
 10
78.27256942487631
 20
-129.3526396898843
 30
0.0
 10
78.15474164712805
 20
-129.8818063564187
 30
0.0
  0
SPLINE
  5
6B
330
41
100
AcDbEntity
  8
_U+30EC_U+30A4_U+30E4_U+30FC 1
 62
   179
420
  2234388
370
     9
100
AcDbSpline
210
0.0
220
0.0
230
1.0
 70
    11
 71
     3
 72
    17
 73
    13
 74
     0
 42
0.0000000001
 43
0.0000000001
 12
1.0
 22
0.0
 32
0.0
 13
1.0
 23
0.0
 33
0.0
 40
0.0
 40
0.0
 40
0.0
 40
0.0
 40
1.0
 40
1.0
 40
1.0
 40
2.0
 40
2.0
 40
2.0
 40
3.0
 40
3.0
 40
3.0
 40
4.0
 40
4.0
 40
4.0
 40
4.0
 10
80.62418609095512
 20
-128.235745245719
 30
0.0
 10
80.62418609095512
 20
-128.5603008011931
 30
0.0
 10
80.17012378802308
 20
-128.8234730233499
 30
0.0
 10
79.61030275787533
 20
-128.8234730233499
 30
0.0
 10
79.05012492770774
 20
-128.8234730233499
 30
0.0
 10
78.59571386924003
 20
-128.5603008011931
 30
0.0
 10
78.59571386924003
 20
-128.235745245719
 30
0.0
 10
78.59571386924003
 20
-127.9105546902447
 30
0.0
 10
79.05012492770774
 20
-127.6473471903104
 30
0.0
 10
79.61030275787533
 20
-127.6473471903104
 30
0.0
 10
80.17012378802308
 20
-127.6473471903104
 30
0.0
 10
80.62418609095512
 20
-127.9105546902447
 30
0.0
 10
80.62418609095512
 20
-128.235745245719
 30
0.0
  0
SPLINE
  5
6C
330
41
100
AcDbEntity
  8
_U+30EC_U+30A4_U+30E4_U+30FC 1
 62
   179
420
  2234388
370
     9
100
AcDbSpline
210
0.0
220
0.0
230
1.0
 70
     8
 71
     3
 72
    11
 73
     7
 74
     0
 42
0.0000000001
 43
0.0000000001
 12
1.0
 22
0.0
 32
0.0
 13
1.0
 23
0.0
 33
0.0
 40
0.0
 40
0.0
 40
0.0
 40
0.0
 40
1.0
 40
1.0
 40
1.0
 40
2.0
 40
2.0
 40
2.0
 40
2.0
 10
78.77210275808481
 20
-128.5588896900824
 30
0.0
 10
78.77210275808481
 20
-128.5588896900824
 30
0.0
 10
78.74282220253639
 20
-127.8533341347032
 30
0.0
 10
79.88934998002753
 20
-127.9119305235776
 30
0.0
 10
79.88934998002753
 20
-127.9119305235776
 30
0.0
 10
80.5656249798586
 20
-128.000124968
 30
0.0
 10
80.44779720211034
 20
-128.5292916345344
 30
0.0
  0
SPLINE
  5
6D
330
41
100
AcDbEntity
  8
_U+30EC_U+30A4_U+30E4_U+30FC 1
 62
   179
420
  2234388
370
     9
100
AcDbSpline
210
0.0
220
0.0
230
1.0
 70
    11
 71
     3
 72
    17
 73
    13
 74
     0
 42
0.0000000001
 43
0.0000000001
 12
1.0
 22
0.0
 32
0.0
 13
1.0
 23
0.0
 33
0.0
 40
0.0
 40
0.0
 40
0.0
 40
0.0
 40
1.0
 40
1.0
 40
1.0
 40
2.0
 40
2.0
 40
2.0
 40
3.0
 40
3.0
 40
3.0
 40
4.0
 40
4.0
 40
4.0
 40
4.0
 10
83.62279720131659
 20
-128.7352785789272
 30
0.0
 10
83.62279720131659
 20
-129.0605044121793
 30
0.0
 10
83.16873482263325
 20
-129.3237119121136
 30
0.0
 10
82.6089138682368
 20
-129.3237119121136
 30
0.0
 10
82.0487359623179
 20
-129.3237119121136
 30
0.0
 10
81.59432497960148
 20
-129.0605044121793
 30
0.0
 10
81.59432497960148
 20
-128.7352785789272
 30
0.0
 10
81.59432497960148
 20
-128.4107583012306
 30
0.0
 10
82.0487359623179
 20
-128.1475508012966
 30
0.0
 10
82.6089138682368
 20
-128.1475508012966
 30
0.0
 10
83.16873482263325
 20
-128.1475508012966
 30
0.0
 10
83.62279720131659
 20
-128.4107583012306
 30
0.0
 10
83.62279720131659
 20
-128.7352785789272
 30
0.0
  0
SPLINE
  5
6E
330
41
100
AcDbEntity
  8
_U+30EC_U+30A4_U+30E4_U+30FC 1
 62
   179
420
  2234388
370
     9
100
AcDbSpline
210
0.0
220
0.0
230
1.0
 70
     8
 71
     3
 72
    11
 73
     7
 74
     0
 42
0.0000000001
 43
0.0000000001
 12
1.0
 22
0.0
 32
0.0
 13
1.0
 23
0.0
 33
0.0
 40
0.0
 40
0.0
 40
0.0
 40
0.0
 40
1.0
 40
1.0
 40
1.0
 40
2.0
 40
2.0
 40
2.0
 40
2.0
 10
81.77071386844628
 20
-129.0591285788464
 30
0.0
 10
81.77071386844628
 20
-129.0591285788464
 30
0.0
 10
81.74143331289785
 20
-128.3529027456896
 30
0.0
 10
82.887961090389
 20
-128.4121341345638
 30
0.0
 10
82.887961090389
 20
-128.4121341345638
 30
0.0
 10
83.56423609022005
 20
-128.5003285789862
 30
0.0
 10
83.44640831247179
 20
-129.0294952455202
 30
0.0
  0
SPLINE
  5
6F
330
41
100
AcDbEntity
  8
_U+30EC_U+30A4_U+30E4_U+30FC 1
 62
   179
420
  2234388
370
     9
100
AcDbSpline
210
0.0
220
0.0
230
1.0
 70
    11
 71
     3
 72
    17
 73
    13
 74
     0
 42
0.0000000001
 43
0.0000000001
 12
1.0
 22
0.0
 32
0.0
 13
1.0
 23
0.0
 33
0.0
 40
0.0
 40
0.0
 40
0.0
 40
0.0
 40
1.0
 40
1.0
 40
1.0
 40
2.0
 40
2.0
 40
2.0
 40
3.0
 40
3.0
 40
3.0
 40
4.0
 40
4.0
 40
4.0
 40
4.0
 10
82.85868053484089
 20
-126.9417916349312
 30
0.0
 10
82.85868053484089
 20
-127.2669821904055
 30
0.0
 10
82.40461817546083
 20
-127.5301896903398
 30
0.0
 10
81.84444442398333
 20
-127.5301896903398
 30
0.0
 10
81.28426653737671
 20
-127.5301896903398
 30
0.0
 10
80.83020831312578
 20
-127.2669821904055
 30
0.0
 10
80.83020831312578
 20
-126.9417916349312
 30
0.0
 10
80.83020831312578
 20
-126.6172360794568
 30
0.0
 10
81.28426653737671
 20
-126.3540285795225
 30
0.0
 10
81.84444442398333
 20
-126.3540285795225
 30
0.0
 10
82.40461817546083
 20
-126.3540285795225
 30
0.0
 10
82.85868053484089
 20
-126.6172360794568
 30
0.0
 10
82.85868053484089
 20
-126.9417916349312
 30
0.0
  0
SPLINE
  5
70
330
41
100
AcDbEntity
  8
_U+30EC_U+30A4_U+30E4_U+30FC 1
 62
   179
420
  2234388
370
     9
100
AcDbSpline
210
0.0
220
0.0
230
1.0
 70
     8
 71
     3
 72
    11
 73
     7
 74
     0
 42
0.0000000001
 43
0.0000000001
 12
1.0
 22
0.0
 32
0.0
 13
1.0
 23
0.0
 33
0.0
 40
0.0
 40
0.0
 40
0.0
 40
0.0
 40
1.0
 40
1.0
 40
1.0
 40
2.0
 40
2.0
 40
2.0
 40
2.0
 10
81.00659720197058
 20
-127.2656063570726
 30
0.0
 10
81.00659720197058
 20
-127.2656063570726
 30
0.0
 10
80.97696386864472
 20
-126.5593805239158
 30
0.0
 10
82.12349164613586
 20
-126.6186119127897
 30
0.0
 10
82.12349164613586
 20
-126.6186119127897
 30
0.0
 10
82.80011942374436
 20
-126.7068063572121
 30
0.0
 10
82.6822916459961
 20
-127.2359730237465
 30
0.0
  0
SPLINE
  5
71
330
41
100
AcDbEntity
  8
_U+30EC_U+30A4_U+30E4_U+30FC 1
 62
   179
420
  2234388
370
     9
100
AcDbSpline
210
0.0
220
0.0
230
1.0
 70
    11
 71
     3
 72
    17
 73
    13
 74
     0
 42
0.0000000001
 43
0.0000000001
 12
1.0
 22
0.0
 32
0.0
 13
1.0
 23
0.0
 33
0.0
 40
0.0
 40
0.0
 40
0.0
 40
0.0
 40
1.0
 40
1.0
 40
1.0
 40
2.0
 40
2.0
 40
2.0
 40
3.0
 40
3.0
 40
3.0
 40
4.0
 40
4.0
 40
4.0
 40
4.0
 10
85.85729164520235
 20
-127.4419952459174
 30
0.0
 10
85.85729164520235
 20
-127.7665508013915
 30
0.0
 10
85.40322921007099
 20
-128.029723023548
 30
0.0
 10
84.8430555343448
 20
-128.029723023548
 30
0.0
 10
84.28287757198687
 20
-128.029723023548
 30
0.0
 10
83.82881942348725
 20
-127.7665508013915
 30
0.0
 10
83.82881942348725
 20
-127.4419952459174
 30
0.0
 10
83.82881942348725
 20
-127.1168046904431
 30
0.0
 10
84.28287757198687
 20
-126.8535971905088
 30
0.0
 10
84.8430555343448
 20
-126.8535971905088
 30
0.0
 10
85.40322921007099
 20
-126.8535971905088
 30
0.0
 10
85.85729164520235
 20
-127.1168046904431
 30
0.0
 10
85.85729164520235
 20
-127.4419952459174
 30
0.0
  0
SPLINE
  5
72
330
41
100
AcDbEntity
  8
_U+30EC_U+30A4_U+30E4_U+30FC 1
 62
   179
420
  2234388
370
     9
100
AcDbSpline
210
0.0
220
0.0
230
1.0
 70
     8
 71
     3
 72
    11
 73
     7
 74
     0
 42
0.0000000001
 43
0.0000000001
 12
1.0
 22
0.0
 32
0.0
 13
1.0
 23
0.0
 33
0.0
 40
0.0
 40
0.0
 40
0.0
 40
0.0
 40
1.0
 40
1.0
 40
1.0
 40
2.0
 40
2.0
 40
2.0
 40
2.0
 10
84.00520831233203
 20
-127.7651396902808
 30
0.0
 10
84.00520831233203
 20
-127.7651396902808
 30
0.0
 10
83.97557497900617
 20
-127.0595841349017
 30
0.0
 10
85.12210275649731
 20
-127.118180523776
 30
0.0
 10
85.12210275649731
 20
-127.118180523776
 30
0.0
 10
85.79873053410581
 20
-127.2063749681984
 30
0.0
 10
85.68090275635755
 20
-127.7355416347328
 30
0.0
  0
SPLINE
  5
73
330
41
100
AcDbEntity
  8
_U+30EC_U+30A4_U+30E4_U+30FC 1
 62
   179
420
  2234388
370
     9
100
AcDbSpline
210
0.0
220
0.0
230
1.0
 70
    11
 71
     3
 72
    17
 73
    13
 74
     0
 42
0.0000000001
 43
0.0000000001
 12
1.0
 22
0.0
 32
0.0
 13
1.0
 23
0.0
 33
0.0
 40
0.0
 40
0.0
 40
0.0
 40
0.0
 40
1.0
 40
1.0
 40
1.0
 40
2.0
 40
2.0
 40
2.0
 40
3.0
 40
3.0
 40
3.0
 40
4.0
 40
4.0
 40
4.0
 40
4.0
 10
85.00498053430425
 20
-125.6781063574695
 30
0.0
 10
85.00498053430425
 20
-126.0026619129436
 30
0.0
 10
84.55056534293537
 20
-126.2658341351001
 30
0.0
 10
83.9907444234467
 20
-126.2658341351001
 30
0.0
 10
83.43056648262004
 20
-126.2658341351001
 30
0.0
 10
82.97650831258915
 20
-126.0026619129436
 30
0.0
 10
82.97650831258915
 20
-125.6781063574695
 30
0.0
 10
82.97650831258915
 20
-125.3529158019952
 30
0.0
 10
83.43056648262004
 20
-125.0897083020609
 30
0.0
 10
83.9907444234467
 20
-125.0897083020609
 30
0.0
 10
84.55056534293537
 20
-125.0897083020609
 30
0.0
 10
85.00498053430425
 20
-125.3529158019952
 30
0.0
 10
85.00498053430425
 20
-125.6781063574695
 30
0.0
  0
SPLINE
  5
74
330
41
100
AcDbEntity
  8
_U+30EC_U+30A4_U+30E4_U+30FC 1
 62
   179
420
  2234388
370
     9
100
AcDbSpline
210
0.0
220
0.0
230
1.0
 70
     8
 71
     3
 72
    11
 73
     7
 74
     0
 42
0.0000000001
 43
0.0000000001
 12
1.0
 22
0.0
 32
0.0
 13
1.0
 23
0.0
 33
0.0
 40
0.0
 40
0.0
 40
0.0
 40
0.0
 40
1.0
 40
1.0
 40
1.0
 40
2.0
 40
2.0
 40
2.0
 40
2.0
 10
83.15289720143394
 20
-126.0012508018329
 30
0.0
 10
83.15289720143394
 20
-126.0012508018329
 30
0.0
 10
83.12326386810808
 20
-125.2956952464537
 30
0.0
 10
84.26979164559923
 20
-125.3542916353281
 30
0.0
 10
84.26979164559923
 20
-125.3542916353281
 30
0.0
 10
84.94606664543028
 20
-125.4424860797505
 30
0.0
 10
84.82859164545947
 20
-125.9716527462849
 30
0.0
  0
SPLINE
  5
75
330
41
100
AcDbEntity
  8
_U+30EC_U+30A4_U+30E4_U+30FC 1
 62
   179
420
  2234388
370
     9
100
AcDbSpline
210
0.0
220
0.0
230
1.0
 70
    11
 71
     3
 72
    17
 73
    13
 74
     0
 42
0.0000000001
 43
0.0000000001
 12
1.0
 22
0.0
 32
0.0
 13
1.0
 23
0.0
 33
0.0
 40
0.0
 40
0.0
 40
0.0
 40
0.0
 40
1.0
 40
1.0
 40
1.0
 40
2.0
 40
2.0
 40
2.0
 40
3.0
 40
3.0
 40
3.0
 40
4.0
 40
4.0
 40
4.0
 40
4.0
 10
88.00359164466572
 20
-126.1776396906777
 30
0.0
 10
88.00359164466572
 20
-126.5028655239298
 30
0.0
 10
87.54917637754554
 20
-126.7660730238641
 30
0.0
 10
86.98935553380817
 20
-126.7660730238641
 30
0.0
 10
86.4291775172302
 20
-126.7660730238641
 30
0.0
 10
85.97511942295061
 20
-126.5028655239298
 30
0.0
 10
85.97511942295061
 20
-126.1776396906777
 30
0.0
 10
85.97511942295061
 20
-125.8531194129811
 30
0.0
 10
86.4291775172302
 20
-125.5899119130471
 30
0.0
 10
86.98935553380817
 20
-125.5899119130471
 30
0.0
 10
87.54917637754554
 20
-125.5899119130471
 30
0.0
 10
88.00359164466572
 20
-125.8531194129811
 30
0.0
 10
88.00359164466572
 20
-126.1776396906777
 30
0.0
  0
SPLINE
  5
76
330
41
100
AcDbEntity
  8
_U+30EC_U+30A4_U+30E4_U+30FC 1
 62
   179
420
  2234388
370
     9
100
AcDbSpline
210
0.0
220
0.0
230
1.0
 70
     8
 71
     3
 72
    11
 73
     7
 74
     0
 42
0.0000000001
 43
0.0000000001
 12
1.0
 22
0.0
 32
0.0
 13
1.0
 23
0.0
 33
0.0
 40
0.0
 40
0.0
 40
0.0
 40
0.0
 40
1.0
 40
1.0
 40
1.0
 40
2.0
 40
2.0
 40
2.0
 40
2.0
 10
86.1515083117954
 20
-126.5014896905969
 30
0.0
 10
86.1515083117954
 20
-126.5014896905969
 30
0.0
 10
86.12187497846953
 20
-125.7952638574401
 30
0.0
 10
87.26840275596068
 20
-125.8544952463143
 30
0.0
 10
87.26840275596068
 20
-125.8544952463143
 30
0.0
 10
87.94467775579174
 20
-125.9426896907367
 30
0.0
 10
87.82720275582092
 20
-126.4718563572711
 30
0.0
  0
SPLINE
  5
77
330
41
100
AcDbEntity
  8
_U+30EC_U+30A4_U+30E4_U+30FC 1
 62
   179
420
  2234388
370
     9
100
AcDbSpline
210
0.0
220
0.0
230
1.0
 70
    11
 71
     3
 72
    17
 73
    13
 74
     0
 42
0.0000000001
 43
0.0000000001
 12
1.0
 22
0.0
 32
0.0
 13
1.0
 23
0.0
 33
0.0
 40
0.0
 40
0.0
 40
0.0
 40
0.0
 40
1.0
 40
1.0
 40
1.0
 40
2.0
 40
2.0
 40
2.0
 40
3.0
 40
3.0
 40
3.0
 40
4.0
 40
4.0
 40
4.0
 40
4.0
 10
87.20984164486416
 20
-124.3841527466818
 30
0.0
 10
87.20984164486416
 20
-124.709343302156
 30
0.0
 10
86.75542639779579
 20
-124.9725508020903
 30
0.0
 10
86.1956055340066
 20
-124.9725508020903
 30
0.0
 10
85.63542753748045
 20
-124.9725508020903
 30
0.0
 10
85.18136942314905
 20
-124.709343302156
 30
0.0
 10
85.18136942314905
 20
-124.3841527466818
 30
0.0
 10
85.18136942314905
 20
-124.0595971912073
 30
0.0
 10
85.63542753748045
 20
-123.796389691273
 30
0.0
 10
86.1956055340066
 20
-123.796389691273
 30
0.0
 10
86.75542639779579
 20
-123.796389691273
 30
0.0
 10
87.20984164486416
 20
-124.0595971912073
 30
0.0
 10
87.20984164486416
 20
-124.3841527466818
 30
0.0
  0
SPLINE
  5
78
330
41
100
AcDbEntity
  8
_U+30EC_U+30A4_U+30E4_U+30FC 1
 62
   179
420
  2234388
370
     9
100
AcDbSpline
210
0.0
220
0.0
230
1.0
 70
     8
 71
     3
 72
    11
 73
     7
 74
     0
 42
0.0000000001
 43
0.0000000001
 12
1.0
 22
0.0
 32
0.0
 13
1.0
 23
0.0
 33
0.0
 40
0.0
 40
0.0
 40
0.0
 40
0.0
 40
1.0
 40
1.0
 40
1.0
 40
2.0
 40
2.0
 40
2.0
 40
2.0
 10
85.35775831199383
 20
-124.7079674688232
 30
0.0
 10
85.35775831199383
 20
-124.7079674688232
 30
0.0
 10
85.32812497866797
 20
-124.0017416356663
 30
0.0
 10
86.47465275615912
 20
-124.0609730245402
 30
0.0
 10
86.47465275615912
 20
-124.0609730245402
 30
0.0
 10
87.15092775599018
 20
-124.1491674689626
 30
0.0
 10
87.03345275601936
 20
-124.678334135497
 30
0.0
  0
SPLINE
  5
79
330
41
100
AcDbEntity
  8
_U+30EC_U+30A4_U+30E4_U+30FC 1
 62
   179
420
  2234388
370
     9
100
AcDbSpline
210
0.0
220
0.0
230
1.0
 70
    11
 71
     3
 72
    17
 73
    13
 74
     0
 42
0.0000000001
 43
0.0000000001
 12
1.0
 22
0.0
 32
0.0
 13
1.0
 23
0.0
 33
0.0
 40
0.0
 40
0.0
 40
0.0
 40
0.0
 40
1.0
 40
1.0
 40
1.0
 40
2.0
 40
2.0
 40
2.0
 40
3.0
 40
3.0
 40
3.0
 40
4.0
 40
4.0
 40
4.0
 40
4.0
 10
90.20845275522561
 20
-124.884356357668
 30
0.0
 10
90.20845275522561
 20
-125.2089119131421
 30
0.0
 10
89.75403743240597
 20
-125.4720841352985
 30
0.0
 10
89.19421664436805
 20
-125.4720841352985
 30
0.0
 10
88.63403857209062
 20
-125.4720841352985
 30
0.0
 10
88.1799805335105
 20
-125.2089119131421
 30
0.0
 10
88.1799805335105
 20
-124.884356357668
 30
0.0
 10
88.1799805335105
 20
-124.5591658021937
 30
0.0
 10
88.63403857209062
 20
-124.2959583022594
 30
0.0
 10
89.19421664436805
 20
-124.2959583022594
 30
0.0
 10
89.75403743240597
 20
-124.2959583022594
 30
0.0
 10
90.20845275522561
 20
-124.5591658021937
 30
0.0
 10
90.20845275522561
 20
-124.884356357668
 30
0.0
  0
SPLINE
  5
7A
330
41
100
AcDbEntity
  8
_U+30EC_U+30A4_U+30E4_U+30FC 1
 62
   179
420
  2234388
370
     9
100
AcDbSpline
210
0.0
220
0.0
230
1.0
 70
     8
 71
     3
 72
    11
 73
     7
 74
     0
 42
0.0000000001
 43
0.0000000001
 12
1.0
 22
0.0
 32
0.0
 13
1.0
 23
0.0
 33
0.0
 40
0.0
 40
0.0
 40
0.0
 40
0.0
 40
1.0
 40
1.0
 40
1.0
 40
2.0
 40
2.0
 40
2.0
 40
2.0
 10
88.3563694223553
 20
-125.2075008020313
 30
0.0
 10
88.3563694223553
 20
-125.2075008020313
 30
0.0
 10
88.32673608902942
 20
-124.5019452466522
 30
0.0
 10
89.47326386652058
 20
-124.5605416355265
 30
0.0
 10
89.47326386652058
 20
-124.5605416355265
 30
0.0
 10
90.14953886635163
 20
-124.6487360799489
 30
0.0
 10
90.03206386638082
 20
-125.1779027464833
 30
0.0
  0
SPLINE
  5
7B
330
41
100
AcDbEntity
  8
_U+30EC_U+30A4_U+30E4_U+30FC 1
 62
   179
420
  2234388
370
     9
100
AcDbSpline
210
0.0
220
0.0
230
1.0
 70
    11
 71
     3
 72
    17
 73
    13
 74
     0
 42
0.0000000001
 43
0.0000000001
 12
1.0
 22
0.0
 32
0.0
 13
1.0
 23
0.0
 33
0.0
 40
0.0
 40
0.0
 40
0.0
 40
0.0
 40
1.0
 40
1.0
 40
1.0
 40
2.0
 40
2.0
 40
2.0
 40
3.0
 40
3.0
 40
3.0
 40
4.0
 40
4.0
 40
4.0
 40
4.0
 10
89.35578886655007
 20
-123.0612360803458
 30
0.0
 10
89.35578886655007
 20
-123.3864266358201
 30
0.0
 10
88.90137356527033
 20
-123.6496341357544
 30
0.0
 10
88.34190553346997
 20
-123.6496341357544
 30
0.0
 10
87.78172748272378
 20
-123.6496341357544
 30
0.0
 10
87.32731664483497
 20
-123.3864266358201
 30
0.0
 10
87.32731664483497
 20
-123.0612360803458
 30
0.0
 10
87.32731664483497
 20
-122.7366805248714
 30
0.0
 10
87.78172748272378
 20
-122.4734730249371
 30
0.0
 10
88.34190553346997
 20
-122.4734730249371
 30
0.0
 10
88.90137356527033
 20
-122.4734730249371
 30
0.0
 10
89.35578886655007
 20
-122.7366805248714
 30
0.0
 10
89.35578886655007
 20
-123.0612360803458
 30
0.0
  0
SPLINE
  5
7C
330
41
100
AcDbEntity
  8
_U+30EC_U+30A4_U+30E4_U+30FC 1
 62
   179
420
  2234388
370
     9
100
AcDbSpline
210
0.0
220
0.0
230
1.0
 70
     8
 71
     3
 72
    11
 73
     7
 74
     0
 42
0.0000000001
 43
0.0000000001
 12
1.0
 22
0.0
 32
0.0
 13
1.0
 23
0.0
 33
0.0
 40
0.0
 40
0.0
 40
0.0
 40
0.0
 40
1.0
 40
1.0
 40
1.0
 40
2.0
 40
2.0
 40
2.0
 40
2.0
 10
87.50370553367976
 20
-123.3850508024872
 30
0.0
 10
87.50370553367976
 20
-123.3850508024872
 30
0.0
 10
87.47442497813134
 20
-122.6788249693304
 30
0.0
 10
88.62095275562248
 20
-122.7380563582043
 30
0.0
 10
88.62095275562248
 20
-122.7380563582043
 30
0.0
 10
89.29687497767578
 20
-122.8262508026267
 30
0.0
 10
89.17939997770529
 20
-123.355417469161
 30
0.0
  0
SPLINE
  5
7D
330
41
100
AcDbEntity
  8
_U+30EC_U+30A4_U+30E4_U+30FC 1
 62
   179
420
  2234388
370
     9
100
AcDbSpline
210
0.0
220
0.0
230
1.0
 70
    11
 71
     3
 72
    17
 73
    13
 74
     0
 42
0.0000000001
 43
0.0000000001
 12
1.0
 22
0.0
 32
0.0
 13
1.0
 23
0.0
 33
0.0
 40
0.0
 40
0.0
 40
0.0
 40
0.0
 40
1.0
 40
1.0
 40
1.0
 40
2.0
 40
2.0
 40
2.0
 40
3.0
 40
3.0
 40
3.0
 40
4.0
 40
4.0
 40
4.0
 40
4.0
 10
92.35439997691121
 20
-123.561439691332
 30
0.0
 10
92.35439997691121
 20
-123.8859952468061
 30
0.0
 10
91.89998459988051
 20
-124.1491674689626
 30
0.0
 10
91.34051664383142
 20
-124.1491674689626
 30
0.0
 10
90.78033851733394
 20
-124.1491674689626
 30
0.0
 10
90.32592775519643
 20
-123.8859952468061
 30
0.0
 10
90.32592775519643
 20
-123.561439691332
 30
0.0
 10
90.32592775519643
 20
-123.2362491358577
 30
0.0
 10
90.78033851733394
 20
-122.9730416359234
 30
0.0
 10
91.34051664383142
 20
-122.9730416359234
 30
0.0
 10
91.89998459988051
 20
-122.9730416359234
 30
0.0
 10
92.35439997691121
 20
-123.2362491358577
 30
0.0
 10
92.35439997691121
 20
-123.561439691332
 30
0.0
  0
SPLINE
  5
7E
330
41
100
AcDbEntity
  8
_U+30EC_U+30A4_U+30E4_U+30FC 1
 62
   179
420
  2234388
370
     9
100
AcDbSpline
210
0.0
220
0.0
230
1.0
 70
     8
 71
     3
 72
    11
 73
     7
 74
     0
 42
0.0000000001
 43
0.0000000001
 12
1.0
 22
0.0
 32
0.0
 13
1.0
 23
0.0
 33
0.0
 40
0.0
 40
0.0
 40
0.0
 40
0.0
 40
1.0
 40
1.0
 40
1.0
 40
2.0
 40
2.0
 40
2.0
 40
2.0
 10
90.50231664404122
 20
-123.8845841356954
 30
0.0
 10
90.50231664404122
 20
-123.8845841356954
 30
0.0
 10
90.47303608849279
 20
-123.1790285803162
 30
0.0
 10
91.61956386598426
 20
-123.2376249691906
 30
0.0
 10
91.61956386598426
 20
-123.2376249691906
 30
0.0
 10
92.29548608803725
 20
-123.325819413613
 30
0.0
 10
92.17801108806643
 20
-123.8549860801474
 30
0.0
  0
SPLINE
  5
7F
330
41
100
AcDbEntity
  8
_U+30EC_U+30A4_U+30E4_U+30FC 1
 62
   179
420
  2234388
370
     9
100
AcDbSpline
210
0.0
220
0.0
230
1.0
 70
    11
 71
     3
 72
    17
 73
    13
 74
     0
 42
0.0000000001
 43
0.0000000001
 12
1.0
 22
0.0
 32
0.0
 13
1.0
 23
0.0
 33
0.0
 40
0.0
 40
0.0
 40
0.0
 40
0.0
 40
1.0
 40
1.0
 40
1.0
 40
2.0
 40
2.0
 40
2.0
 40
3.0
 40
3.0
 40
3.0
 40
4.0
 40
4.0
 40
4.0
 40
4.0
 10
91.58993053265807
 20
-121.6797230251355
 30
0.0
 10
91.58993053265807
 20
-122.0049488583876
 30
0.0
 10
91.13586795270808
 20
-122.2681563583219
 30
0.0
 10
90.57569442180052
 20
-122.2681563583219
 30
0.0
 10
90.01551631462397
 20
-122.2681563583219
 30
0.0
 10
89.56145831094297
 20
-122.0049488583876
 30
0.0
 10
89.56145831094297
 20
-121.6797230251355
 30
0.0
 10
89.56145831094297
 20
-121.3552027474389
 30
0.0
 10
90.01551631462397
 20
-121.0919952475049
 30
0.0
 10
90.57569442180052
 20
-121.0919952475049
 30
0.0
 10
91.13586795270808
 20
-121.0919952475049
 30
0.0
 10
91.58993053265807
 20
-121.3552027474389
 30
0.0
 10
91.58993053265807
 20
-121.6797230251355
 30
0.0
  0
SPLINE
  5
80
330
41
100
AcDbEntity
  8
_U+30EC_U+30A4_U+30E4_U+30FC 1
 62
   179
420
  2234388
370
     9
100
AcDbSpline
210
0.0
220
0.0
230
1.0
 70
     8
 71
     3
 72
    11
 73
     7
 74
     0
 42
0.0000000001
 43
0.0000000001
 12
1.0
 22
0.0
 32
0.0
 13
1.0
 23
0.0
 33
0.0
 40
0.0
 40
0.0
 40
0.0
 40
0.0
 40
1.0
 40
1.0
 40
1.0
 40
2.0
 40
2.0
 40
2.0
 40
2.0
 10
89.73784719978777
 20
-122.0035730250547
 30
0.0
 10
89.73784719978777
 20
-122.0035730250547
 30
0.0
 10
89.7082138664619
 20
-121.2973471918979
 30
0.0
 10
90.85474164395305
 20
-121.3565785807721
 30
0.0
 10
90.85474164395305
 20
-121.3565785807721
 30
0.0
 10
91.53136942156186
 20
-121.4447730251945
 30
0.0
 10
91.41354164381329
 20
-121.9739396917289
 30
0.0
  0
SPLINE
  5
81
330
41
100
AcDbEntity
  8
_U+30EC_U+30A4_U+30E4_U+30FC 1
 62
   179
420
  2234388
370
     9
100
AcDbSpline
210
0.0
220
0.0
230
1.0
 70
    11
 71
     3
 72
    17
 73
    13
 74
     0
 42
0.0000000001
 43
0.0000000001
 12
1.0
 22
0.0
 32
0.0
 13
1.0
 23
0.0
 33
0.0
 40
0.0
 40
0.0
 40
0.0
 40
0.0
 40
1.0
 40
1.0
 40
1.0
 40
2.0
 40
2.0
 40
2.0
 40
3.0
 40
3.0
 40
3.0
 40
4.0
 40
4.0
 40
4.0
 40
4.0
 10
94.58854164301954
 20
-122.1799619138995
 30
0.0
 10
94.58854164301954
 20
-122.5044821915962
 30
0.0
 10
94.13447898731825
 20
-122.7676896915304
 30
0.0
 10
93.57430553216199
 20
-122.7676896915304
 30
0.0
 10
93.01412734923414
 20
-122.7676896915304
 30
0.0
 10
92.56006942130443
 20
-122.5044821915962
 30
0.0
 10
92.56006942130443
 20
-122.1799619138995
 30
0.0
 10
92.56006942130443
 20
-121.8547360806474
 30
0.0
 10
93.01412734923414
 20
-121.5915285807131
 30
0.0
 10
93.57430553216199
 20
-121.5915285807131
 30
0.0
 10
94.13447898731825
 20
-121.5915285807131
 30
0.0
 10
94.58854164301954
 20
-121.8547360806474
 30
0.0
 10
94.58854164301954
 20
-122.1799619138995
 30
0.0
  0
SPLINE
  5
82
330
41
100
AcDbEntity
  8
_U+30EC_U+30A4_U+30E4_U+30FC 1
 62
   179
420
  2234388
370
     9
100
AcDbSpline
210
0.0
220
0.0
230
1.0
 70
     8
 71
     3
 72
    11
 73
     7
 74
     0
 42
0.0000000001
 43
0.0000000001
 12
1.0
 22
0.0
 32
0.0
 13
1.0
 23
0.0
 33
0.0
 40
0.0
 40
0.0
 40
0.0
 40
0.0
 40
1.0
 40
1.0
 40
1.0
 40
2.0
 40
2.0
 40
2.0
 40
2.0
 10
92.73645831014922
 20
-122.5031063582633
 30
0.0
 10
92.73645831014922
 20
-122.5031063582633
 30
0.0
 10
92.70682497682304
 20
-121.7975508028841
 30
0.0
 10
93.85335275431419
 20
-121.8561119139803
 30
0.0
 10
93.85335275431419
 20
-121.8561119139803
 30
0.0
 10
94.52998053192333
 20
-121.9443063584027
 30
0.0
 10
94.41215275417474
 20
-122.4734730249371
 30
0.0
  0
SPLINE
  5
83
330
41
100
AcDbEntity
  8
_U+30EC_U+30A4_U+30E4_U+30FC 1
 62
   179
420
  2234388
370
     9
100
AcDbSpline
210
0.0
220
0.0
230
1.0
 70
    11
 71
     3
 72
    17
 73
    13
 74
     0
 42
0.0000000001
 43
0.0000000001
 12
1.0
 22
0.0
 32
0.0
 13
1.0
 23
0.0
 33
0.0
 40
0.0
 40
0.0
 40
0.0
 40
0.0
 40
1.0
 40
1.0
 40
1.0
 40
2.0
 40
2.0
 40
2.0
 40
3.0
 40
3.0
 40
3.0
 40
4.0
 40
4.0
 40
4.0
 40
4.0
 10
93.79479164321798
 20
-120.3864396921258
 30
0.0
 10
93.79479164321798
 20
-120.7109952475999
 30
0.0
 10
93.3407290075685
 20
-120.9741674697564
 30
0.0
 10
92.78055553236042
 20
-120.9741674697564
 30
0.0
 10
92.22037736948438
 20
-120.9741674697564
 30
0.0
 10
91.76631942150287
 20
-120.7109952475999
 30
0.0
 10
91.76631942150287
 20
-120.3864396921258
 30
0.0
 10
91.76631942150287
 20
-120.0612491366515
 30
0.0
 10
92.22037736948438
 20
-119.7980416367172
 30
0.0
 10
92.78055553236042
 20
-119.7980416367172
 30
0.0
 10
93.3407290075685
 20
-119.7980416367172
 30
0.0
 10
93.79479164321798
 20
-120.0612491366515
 30
0.0
 10
93.79479164321798
 20
-120.3864396921258
 30
0.0
  0
SPLINE
  5
84
330
41
100
AcDbEntity
  8
_U+30EC_U+30A4_U+30E4_U+30FC 1
 62
   179
420
  2234388
370
     9
100
AcDbSpline
210
0.0
220
0.0
230
1.0
 70
     8
 71
     3
 72
    11
 73
     7
 74
     0
 42
0.0000000001
 43
0.0000000001
 12
1.0
 22
0.0
 32
0.0
 13
1.0
 23
0.0
 33
0.0
 40
0.0
 40
0.0
 40
0.0
 40
0.0
 40
1.0
 40
1.0
 40
1.0
 40
2.0
 40
2.0
 40
2.0
 40
2.0
 10
91.94270831034765
 20
-120.7095841364892
 30
0.0
 10
91.94270831034765
 20
-120.7095841364892
 30
0.0
 10
91.91307497702148
 20
-120.00402858111
 30
0.0
 10
93.05960275451262
 20
-120.0626249699844
 30
0.0
 10
93.05960275451262
 20
-120.0626249699844
 30
0.0
 10
93.73623053212177
 20
-120.1508194144068
 30
0.0
 10
93.61840275437318
 20
-120.6799860809411
 30
0.0
  0
SPLINE
  5
85
330
41
100
AcDbEntity
  8
_U+30EC_U+30A4_U+30E4_U+30FC 1
 62
   179
420
  2234388
370
     9
100
AcDbSpline
210
0.0
220
0.0
230
1.0
 70
    11
 71
     3
 72
    17
 73
    13
 74
     0
 42
0.0000000001
 43
0.0000000001
 12
1.0
 22
0.0
 32
0.0
 13
1.0
 23
0.0
 33
0.0
 40
0.0
 40
0.0
 40
0.0
 40
0.0
 40
1.0
 40
1.0
 40
1.0
 40
2.0
 40
2.0
 40
2.0
 40
3.0
 40
3.0
 40
3.0
 40
4.0
 40
4.0
 40
4.0
 40
4.0
 10
96.79340275357943
 20
-120.885973025334
 30
0.0
 10
96.79340275357943
 20
-121.2111988585861
 30
0.0
 10
96.33934004217868
 20
-121.4744063585204
 30
0.0
 10
95.77916664272188
 20
-121.4744063585204
 30
0.0
 10
95.21898840409456
 20
-121.4744063585204
 30
0.0
 10
94.76493053186432
 20
-121.2111988585861
 30
0.0
 10
94.76493053186432
 20
-120.885973025334
 30
0.0
 10
94.76493053186432
 20
-120.5614527476373
 30
0.0
 10
95.21898840409456
 20
-120.2982452477034
 30
0.0
 10
95.77916664272188
 20
-120.2982452477034
 30
0.0
 10
96.33934004217868
 20
-120.2982452477034
 30
0.0
 10
96.79340275357943
 20
-120.5614527476373
 30
0.0
 10
96.79340275357943
 20
-120.885973025334
 30
0.0
  0
SPLINE
  5
86
330
41
100
AcDbEntity
  8
_U+30EC_U+30A4_U+30E4_U+30FC 1
 62
   179
420
  2234388
370
     9
100
AcDbSpline
210
0.0
220
0.0
230
1.0
 70
     8
 71
     3
 72
    11
 73
     7
 74
     0
 42
0.0000000001
 43
0.0000000001
 12
1.0
 22
0.0
 32
0.0
 13
1.0
 23
0.0
 33
0.0
 40
0.0
 40
0.0
 40
0.0
 40
0.0
 40
1.0
 40
1.0
 40
1.0
 40
2.0
 40
2.0
 40
2.0
 40
2.0
 10
94.94131942070912
 20
-121.2098230252532
 30
0.0
 10
94.94131942070912
 20
-121.2098230252532
 30
0.0
 10
94.91168608738293
 20
-120.5035971920963
 30
0.0
 10
96.05821386487408
 20
-120.5628285809706
 30
0.0
 10
96.05821386487408
 20
-120.5628285809706
 30
0.0
 10
96.73484164248322
 20
-120.6510230253929
 30
0.0
 10
96.61701386473464
 20
-121.1801896919273
 30
0.0
  0
SPLINE
  5
87
330
41
100
AcDbEntity
  8
_U+30EC_U+30A4_U+30E4_U+30FC 1
 62
   179
420
  2234388
370
     9
100
AcDbSpline
210
0.0
220
0.0
230
1.0
 70
    11
 71
     3
 72
    17
 73
    13
 74
     0
 42
0.0000000001
 43
0.0000000001
 12
1.0
 22
0.0
 32
0.0
 13
1.0
 23
0.0
 33
0.0
 40
0.0
 40
0.0
 40
0.0
 40
0.0
 40
1.0
 40
1.0
 40
1.0
 40
2.0
 40
2.0
 40
2.0
 40
3.0
 40
3.0
 40
3.0
 40
4.0
 40
4.0
 40
4.0
 40
4.0
 10
95.94109164268166
 20
-119.0042916369156
 30
0.0
 10
95.94109164268166
 20
-119.3294821923899
 30
0.0
 10
95.48667617504304
 20
-119.5926896923242
 30
0.0
 10
94.9268555318241
 20
-119.5926896923242
 30
0.0
 10
94.36667731472771
 20
-119.5926896923242
 30
0.0
 10
93.91261942096655
 20
-119.3294821923899
 30
0.0
 10
93.91261942096655
 20
-119.0042916369156
 30
0.0
 10
93.91261942096655
 20
-118.6797360814412
 30
0.0
 10
94.36667731472771
 20
-118.4165285815069
 30
0.0
 10
94.9268555318241
 20
-118.4165285815069
 30
0.0
 10
95.48667617504304
 20
-118.4165285815069
 30
0.0
 10
95.94109164268166
 20
-118.6797360814412
 30
0.0
 10
95.94109164268166
 20
-119.0042916369156
 30
0.0
  0
SPLINE
  5
88
330
41
100
AcDbEntity
  8
_U+30EC_U+30A4_U+30E4_U+30FC 1
 62
   179
420
  2234388
370
     9
100
AcDbSpline
210
0.0
220
0.0
230
1.0
 70
     8
 71
     3
 72
    11
 73
     7
 74
     0
 42
0.0000000001
 43
0.0000000001
 12
1.0
 22
0.0
 32
0.0
 13
1.0
 23
0.0
 33
0.0
 40
0.0
 40
0.0
 40
0.0
 40
0.0
 40
1.0
 40
1.0
 40
1.0
 40
2.0
 40
2.0
 40
2.0
 40
2.0
 10
94.08900830981135
 20
-119.328106359057
 30
0.0
 10
94.08900830981135
 20
-119.328106359057
 30
0.0
 10
94.05937497648516
 20
-118.6218805259002
 30
0.0
 10
95.2059027539763
 20
-118.681111914774
 30
0.0
 10
95.2059027539763
 20
-118.681111914774
 30
0.0
 10
95.88182497602929
 20
-118.7693063591964
 30
0.0
 10
95.76470275383687
 20
-119.2984730257308
 30
0.0
  0
SPLINE
  5
89
330
41
100
AcDbEntity
  8
_U+30EC_U+30A4_U+30E4_U+30FC 1
 62
   179
420
  2234388
370
     9
100
AcDbSpline
210
0.0
220
0.0
230
1.0
 70
    11
 71
     3
 72
    17
 73
    13
 74
     0
 42
0.0000000001
 43
0.0000000001
 12
1.0
 22
0.0
 32
0.0
 13
1.0
 23
0.0
 33
0.0
 40
0.0
 40
0.0
 40
0.0
 40
0.0
 40
1.0
 40
1.0
 40
1.0
 40
2.0
 40
2.0
 40
2.0
 40
3.0
 40
3.0
 40
3.0
 40
4.0
 40
4.0
 40
4.0
 40
4.0
 10
98.08668608658918
 20
-117.7109730261277
 30
0.0
 10
98.08668608658918
 20
-118.0361988593798
 30
0.0
 10
97.6326233425176
 20
-118.2994063593141
 30
0.0
 10
97.07315553128716
 20
-118.2994063593141
 30
0.0
 10
96.51297725997104
 20
-118.2994063593141
 30
0.0
 10
96.05821386487408
 20
-118.0361988593798
 30
0.0
 10
96.05821386487408
 20
-117.7109730261277
 30
0.0
 10
96.05821386487408
 20
-117.3864527484311
 30
0.0
 10
96.51297725997104
 20
-117.1232452484971
 30
0.0
 10
97.07315553128716
 20
-117.1232452484971
 30
0.0
 10
97.6326233425176
 20
-117.1232452484971
 30
0.0
 10
98.08668608658918
 20
-117.3864527484311
 30
0.0
 10
98.08668608658918
 20
-117.7109730261277
 30
0.0
  0
SPLINE
  5
8A
330
41
100
AcDbEntity
  8
_U+30EC_U+30A4_U+30E4_U+30FC 1
 62
   179
420
  2234388
370
     9
100
AcDbSpline
210
0.0
220
0.0
230
1.0
 70
     8
 71
     3
 72
    11
 73
     7
 74
     0
 42
0.0000000001
 43
0.0000000001
 12
1.0
 22
0.0
 32
0.0
 13
1.0
 23
0.0
 33
0.0
 40
0.0
 40
0.0
 40
0.0
 40
0.0
 40
1.0
 40
1.0
 40
1.0
 40
2.0
 40
2.0
 40
2.0
 40
2.0
 10
96.23460275371887
 20
-118.0348230260469
 30
0.0
 10
96.23460275371887
 20
-118.0348230260469
 30
0.0
 10
96.20567497594885
 20
-117.3285971928901
 30
0.0
 10
97.35220275344
 20
-117.3878285817643
 30
0.0
 10
97.35220275344
 20
-117.3878285817643
 30
0.0
 10
98.02812497549297
 20
-117.4760230261867
 30
0.0
 10
97.91029719774438
 20
-118.0051896927211
 30
0.0
  0
SPLINE
  5
8B
330
41
100
AcDbEntity
  8
_U+30EC_U+30A4_U+30E4_U+30FC 1
 62
   179
420
  2234388
370
     9
100
AcDbSpline
210
0.0
220
0.0
230
1.0
 70
    11
 71
     3
 72
    17
 73
    13
 74
     0
 42
0.0000000001
 43
0.0000000001
 12
1.0
 22
0.0
 32
0.0
 13
1.0
 23
0.0
 33
0.0
 40
0.0
 40
0.0
 40
0.0
 40
0.0
 40
1.0
 40
1.0
 40
1.0
 40
2.0
 40
2.0
 40
2.0
 40
3.0
 40
3.0
 40
3.0
 40
4.0
 40
4.0
 40
4.0
 40
4.0
 10
98.93970275304312
 20
-119.5044952479018
 30
0.0
 10
98.93970275304312
 20
-119.8290508033759
 30
0.0
 10
98.48493443188444
 20
-120.0922230255324
 30
0.0
 10
97.92546664218557
 20
-120.0922230255324
 30
0.0
 10
97.36528834933789
 20
-120.0922230255324
 30
0.0
 10
96.91123053132802
 20
-119.8290508033759
 30
0.0
 10
96.91123053132802
 20
-119.5044952479018
 30
0.0
 10
96.91123053132802
 20
-119.1793046924275
 30
0.0
 10
97.36528834933789
 20
-118.9160971924932
 30
0.0
 10
97.92546664218557
 20
-118.9160971924932
 30
0.0
 10
98.48493443188444
 20
-118.9160971924932
 30
0.0
 10
98.93970275304312
 20
-119.1793046924275
 30
0.0
 10
98.93970275304312
 20
-119.5044952479018
 30
0.0
  0
SPLINE
  5
8C
330
41
100
AcDbEntity
  8
_U+30EC_U+30A4_U+30E4_U+30FC 1
 62
   179
420
  2234388
370
     9
100
AcDbSpline
210
0.0
220
0.0
230
1.0
 70
     8
 71
     3
 72
    11
 73
     7
 74
     0
 42
0.0000000001
 43
0.0000000001
 12
1.0
 22
0.0
 32
0.0
 13
1.0
 23
0.0
 33
0.0
 40
0.0
 40
0.0
 40
0.0
 40
0.0
 40
1.0
 40
1.0
 40
1.0
 40
2.0
 40
2.0
 40
2.0
 40
2.0
 10
97.0876194201728
 20
-119.8276396922652
 30
0.0
 10
97.0876194201728
 20
-119.8276396922652
 30
0.0
 10
97.05798608684663
 20
-119.122084136886
 30
0.0
 10
98.20451386433777
 20
-119.1806805257604
 30
0.0
 10
98.20451386433777
 20
-119.1806805257604
 30
0.0
 10
98.88043608639074
 20
-119.2688749701828
 30
0.0
 10
98.76331386419832
 20
-119.7980416367172
 30
0.0
  0
SPLINE
  5
8D
330
41
100
AcDbEntity
  8
_U+30EC_U+30A4_U+30E4_U+30FC 1
 62
   179
420
  2234388
370
     9
100
AcDbSpline
210
0.0
220
0.0
230
1.0
 70
    11
 71
     3
 72
    17
 73
    13
 74
     0
 42
0.0000000001
 43
0.0000000001
 12
1.0
 22
0.0
 32
0.0
 13
1.0
 23
0.0
 33
0.0
 40
0.0
 40
0.0
 40
0.0
 40
0.0
 40
1.0
 40
1.0
 40
1.0
 40
2.0
 40
2.0
 40
2.0
 40
3.0
 40
3.0
 40
3.0
 40
4.0
 40
4.0
 40
4.0
 40
4.0
 10
101.9383138634046
 20
-127.4419952459174
 30
0.0
 10
101.9383138634046
 20
-127.7665508013915
 30
0.0
 10
101.4835454664946
 20
-128.029723023548
 30
0.0
 10
100.924077752547
 20
-128.029723023548
 30
0.0
 10
100.3638993839481
 20
-128.029723023548
 30
0.0
 10
99.90984164168947
 20
-127.7665508013915
 30
0.0
 10
99.90984164168947
 20
-127.4419952459174
 30
0.0
 10
99.90984164168947
 20
-127.1168046904431
 30
0.0
 10
100.3638993839481
 20
-126.8535971905088
 30
0.0
 10
100.924077752547
 20
-126.8535971905088
 30
0.0
 10
101.4835454664946
 20
-126.8535971905088
 30
0.0
 10
101.9383138634046
 20
-127.1168046904431
 30
0.0
 10
101.9383138634046
 20
-127.4419952459174
 30
0.0
  0
SPLINE
  5
8E
330
41
100
AcDbEntity
  8
_U+30EC_U+30A4_U+30E4_U+30FC 1
 62
   179
420
  2234388
370
     9
100
AcDbSpline
210
0.0
220
0.0
230
1.0
 70
     8
 71
     3
 72
    11
 73
     7
 74
     0
 42
0.0000000001
 43
0.0000000001
 12
1.0
 22
0.0
 32
0.0
 13
1.0
 23
0.0
 33
0.0
 40
0.0
 40
0.0
 40
0.0
 40
0.0
 40
1.0
 40
1.0
 40
1.0
 40
2.0
 40
2.0
 40
2.0
 40
2.0
 10
100.0862305305343
 20
-127.7651396902808
 30
0.0
 10
100.0862305305343
 20
-127.7651396902808
 30
0.0
 10
100.0565971972081
 20
-127.0595841349017
 30
0.0
 10
101.2031249746992
 20
-127.118180523776
 30
0.0
 10
101.2031249746992
 20
-127.118180523776
 30
0.0
 10
101.8790471967522
 20
-127.2063749681984
 30
0.0
 10
101.7619249745598
 20
-127.7355416347328
 30
0.0
  0
SPLINE
  5
8F
330
41
100
AcDbEntity
  8
_U+30EC_U+30A4_U+30E4_U+30FC 1
 62
   179
420
  2234388
370
     9
100
AcDbSpline
210
0.0
220
0.0
230
1.0
 70
    11
 71
     3
 72
    17
 73
    13
 74
     0
 42
0.0000000001
 43
0.0000000001
 12
1.0
 22
0.0
 32
0.0
 13
1.0
 23
0.0
 33
0.0
 40
0.0
 40
0.0
 40
0.0
 40
0.0
 40
1.0
 40
1.0
 40
1.0
 40
2.0
 40
2.0
 40
2.0
 40
3.0
 40
3.0
 40
3.0
 40
4.0
 40
4.0
 40
4.0
 40
4.0
 10
102.7906249743023
 20
-129.2348471899132
 30
0.0
 10
102.7906249743023
 20
-129.5600377453875
 30
0.0
 10
102.336562111399
 20
-129.8232452453218
 30
0.0
 10
101.7763888634448
 20
-129.8232452453218
 30
0.0
 10
101.2162104733149
 20
-129.8232452453218
 30
0.0
 10
100.7621527525872
 20
-129.5600377453875
 30
0.0
 10
100.7621527525872
 20
-129.2348471899132
 30
0.0
 10
100.7621527525872
 20
-128.9102916344394
 30
0.0
 10
101.2162104733149
 20
-128.6470841345048
 30
0.0
 10
101.7763888634448
 20
-128.6470841345048
 30
0.0
 10
102.336562111399
 20
-128.6470841345048
 30
0.0
 10
102.7906249743023
 20
-128.9102916344394
 30
0.0
 10
102.7906249743023
 20
-129.2348471899132
 30
0.0
  0
SPLINE
  5
90
330
41
100
AcDbEntity
  8
_U+30EC_U+30A4_U+30E4_U+30FC 1
 62
   179
420
  2234388
370
     9
100
AcDbSpline
210
0.0
220
0.0
230
1.0
 70
     8
 71
     3
 72
    11
 73
     7
 74
     0
 42
0.0000000001
 43
0.0000000001
 12
1.0
 22
0.0
 32
0.0
 13
1.0
 23
0.0
 33
0.0
 40
0.0
 40
0.0
 40
0.0
 40
0.0
 40
1.0
 40
1.0
 40
1.0
 40
2.0
 40
2.0
 40
2.0
 40
2.0
 10
100.938541641432
 20
-129.5586619120546
 30
0.0
 10
100.938541641432
 20
-129.5586619120546
 30
0.0
 10
100.9089083081059
 20
-128.8524360788981
 30
0.0
 10
102.055436085597
 20
-128.9116674677723
 30
0.0
 10
102.055436085597
 20
-128.9116674677723
 30
0.0
 10
102.7320638632061
 20
-128.9998619121947
 30
0.0
 10
102.6142360854576
 20
-129.5290285787291
 30
0.0
  0
SPLINE
  5
91
330
41
100
AcDbEntity
  8
_U+30EC_U+30A4_U+30E4_U+30FC 1
 62
   179
420
  2234388
370
     9
100
AcDbSpline
210
0.0
220
0.0
230
1.0
 70
    11
 71
     3
 72
    17
 73
    13
 74
     0
 42
0.0000000001
 43
0.0000000001
 12
1.0
 22
0.0
 32
0.0
 13
1.0
 23
0.0
 33
0.0
 40
0.0
 40
0.0
 40
0.0
 40
0.0
 40
1.0
 40
1.0
 40
1.0
 40
2.0
 40
2.0
 40
2.0
 40
3.0
 40
3.0
 40
3.0
 40
4.0
 40
4.0
 40
4.0
 40
4.0
 10
99.7623805306147
 20
-128.8234730233499
 30
0.0
 10
99.7623805306147
 20
-129.1486988566017
 30
0.0
 10
99.30831774421152
 20
-129.411906356536
 30
0.0
 10
98.74884997531268
 20
-129.411906356536
 30
0.0
 10
98.18867166166496
 20
-129.411906356536
 30
0.0
 10
97.7339083088996
 20
-129.1486988566017
 30
0.0
 10
97.7339083088996
 20
-128.8234730233499
 30
0.0
 10
97.7339083088996
 20
-128.498952745653
 30
0.0
 10
98.18867166166496
 20
-128.235745245719
 30
0.0
 10
98.74884997531268
 20
-128.235745245719
 30
0.0
 10
99.30831774421152
 20
-128.235745245719
 30
0.0
 10
99.7623805306147
 20
-128.498952745653
 30
0.0
 10
99.7623805306147
 20
-128.8234730233499
 30
0.0
  0
SPLINE
  5
92
330
41
100
AcDbEntity
  8
_U+30EC_U+30A4_U+30E4_U+30FC 1
 62
   179
420
  2234388
370
     9
100
AcDbSpline
210
0.0
220
0.0
230
1.0
 70
     8
 71
     3
 72
    11
 73
     7
 74
     0
 42
0.0000000001
 43
0.0000000001
 12
1.0
 22
0.0
 32
0.0
 13
1.0
 23
0.0
 33
0.0
 40
0.0
 40
0.0
 40
0.0
 40
0.0
 40
1.0
 40
1.0
 40
1.0
 40
2.0
 40
2.0
 40
2.0
 40
2.0
 10
97.91029719774438
 20
-129.1473230232688
 30
0.0
 10
97.91029719774438
 20
-129.1473230232688
 30
0.0
 10
97.88136941997436
 20
-128.441097190112
 30
0.0
 10
99.02789719746552
 20
-128.5003285789862
 30
0.0
 10
99.02789719746552
 20
-128.5003285789862
 30
0.0
 10
99.7038194195185
 20
-128.5885230234086
 30
0.0
 10
99.58599164176991
 20
-129.1176896899426
 30
0.0
  0
SPLINE
  5
93
330
41
100
AcDbEntity
  8
_U+30EC_U+30A4_U+30E4_U+30FC 1
 62
   179
420
  2234388
370
     9
100
AcDbSpline
210
0.0
220
0.0
230
1.0
 70
    11
 71
     3
 72
    17
 73
    13
 74
     0
 42
0.0000000001
 43
0.0000000001
 12
1.0
 22
0.0
 32
0.0
 13
1.0
 23
0.0
 33
0.0
 40
0.0
 40
0.0
 40
0.0
 40
0.0
 40
1.0
 40
1.0
 40
1.0
 40
2.0
 40
2.0
 40
2.0
 40
3.0
 40
3.0
 40
3.0
 40
4.0
 40
4.0
 40
4.0
 40
4.0
 10
100.6153971970686
 20
-130.6169952451233
 30
0.0
 10
100.6153971970686
 20
-130.9415508005978
 30
0.0
 10
100.1606288335784
 20
-131.2047230227546
 30
0.0
 10
99.60116108621109
 20
-131.2047230227546
 30
0.0
 10
99.0409827510318
 20
-131.2047230227546
 30
0.0
 10
98.58692497535354
 20
-130.9415508005978
 30
0.0
 10
98.58692497535354
 20
-130.6169952451233
 30
0.0
 10
98.58692497535354
 20
-130.2918046896491
 30
0.0
 10
99.0409827510318
 20
-130.0285971897148
 30
0.0
 10
99.60116108621109
 20
-130.0285971897148
 30
0.0
 10
100.1606288335784
 20
-130.0285971897148
 30
0.0
 10
100.6153971970686
 20
-130.2918046896491
 30
0.0
 10
100.6153971970686
 20
-130.6169952451233
 30
0.0
  0
SPLINE
  5
94
330
41
100
AcDbEntity
  8
_U+30EC_U+30A4_U+30E4_U+30FC 1
 62
   179
420
  2234388
370
     9
100
AcDbSpline
210
0.0
220
0.0
230
1.0
 70
     8
 71
     3
 72
    11
 73
     7
 74
     0
 42
0.0000000001
 43
0.0000000001
 12
1.0
 22
0.0
 32
0.0
 13
1.0
 23
0.0
 33
0.0
 40
0.0
 40
0.0
 40
0.0
 40
0.0
 40
1.0
 40
1.0
 40
1.0
 40
2.0
 40
2.0
 40
2.0
 40
2.0
 10
98.76331386419832
 20
-130.9401396894874
 30
0.0
 10
98.76331386419832
 20
-130.9401396894874
 30
0.0
 10
98.73368053087214
 20
-130.2345841341082
 30
0.0
 10
99.88020830836328
 20
-130.293180522982
 30
0.0
 10
99.88020830836328
 20
-130.293180522982
 30
0.0
 10
100.5561305304163
 20
-130.3813749674044
 30
0.0
 10
100.4390083082238
 20
-130.9105416339387
 30
0.0
  0
SPLINE
  5
95
330
41
100
AcDbEntity
  8
_U+30EC_U+30A4_U+30E4_U+30FC 1
 62
   179
420
  2234388
370
     9
100
AcDbSpline
210
0.0
220
0.0
230
1.0
 70
    11
 71
     3
 72
    17
 73
    13
 74
     0
 42
0.0000000001
 43
0.0000000001
 12
1.0
 22
0.0
 32
0.0
 13
1.0
 23
0.0
 33
0.0
 40
0.0
 40
0.0
 40
0.0
 40
0.0
 40
1.0
 40
1.0
 40
1.0
 40
2.0
 40
2.0
 40
2.0
 40
3.0
 40
3.0
 40
3.0
 40
4.0
 40
4.0
 40
4.0
 40
4.0
 10
104.1431749739645
 20
-126.2362360795521
 30
0.0
 10
104.1431749739645
 20
-126.5614266350264
 30
0.0
 10
103.688406521355
 20
-126.8246341349607
 30
0.0
 10
103.1289388631069
 20
-126.8246341349607
 30
0.0
 10
102.5687604388085
 20
-126.8246341349607
 30
0.0
 10
102.1147027522494
 20
-126.5614266350264
 30
0.0
 10
102.1147027522494
 20
-126.2362360795521
 30
0.0
 10
102.1147027522494
 20
-125.9116805240776
 30
0.0
 10
102.5687604388085
 20
-125.6484730241433
 30
0.0
 10
103.1289388631069
 20
-125.6484730241433
 30
0.0
 10
103.688406521355
 20
-125.6484730241433
 30
0.0
 10
104.1431749739645
 20
-125.9116805240776
 30
0.0
 10
104.1431749739645
 20
-126.2362360795521
 30
0.0
  0
SPLINE
  5
96
330
41
100
AcDbEntity
  8
_U+30EC_U+30A4_U+30E4_U+30FC 1
 62
   179
420
  2234388
370
     9
100
AcDbSpline
210
0.0
220
0.0
230
1.0
 70
     8
 71
     3
 72
    11
 73
     7
 74
     0
 42
0.0000000001
 43
0.0000000001
 12
1.0
 22
0.0
 32
0.0
 13
1.0
 23
0.0
 33
0.0
 40
0.0
 40
0.0
 40
0.0
 40
0.0
 40
1.0
 40
1.0
 40
1.0
 40
2.0
 40
2.0
 40
2.0
 40
2.0
 10
102.2910916410942
 20
-126.5600508016935
 30
0.0
 10
102.2910916410942
 20
-126.5600508016935
 30
0.0
 10
102.261458307768
 20
-125.8538249685366
 30
0.0
 10
103.4079860852591
 20
-125.9130563574105
 30
0.0
 10
103.4079860852591
 20
-125.9130563574105
 30
0.0
 10
104.0839083073121
 20
-126.0012508018329
 30
0.0
 10
103.9667860851197
 20
-126.5304174683673
 30
0.0
  0
SPLINE
  5
97
330
41
100
AcDbEntity
  8
_U+30EC_U+30A4_U+30E4_U+30FC 1
 62
   179
420
  2234388
370
     9
100
AcDbSpline
210
0.0
220
0.0
230
1.0
 70
    11
 71
     3
 72
    17
 73
    13
 74
     0
 42
0.0000000001
 43
0.0000000001
 12
1.0
 22
0.0
 32
0.0
 13
1.0
 23
0.0
 33
0.0
 40
0.0
 40
0.0
 40
0.0
 40
0.0
 40
1.0
 40
1.0
 40
1.0
 40
2.0
 40
2.0
 40
2.0
 40
3.0
 40
3.0
 40
3.0
 40
4.0
 40
4.0
 40
4.0
 40
4.0
 10
104.9954860848623
 20
-128.029723023548
 30
0.0
 10
104.9954860848623
 20
-128.3542785790225
 30
0.0
 10
104.5414231662594
 20
-128.6174860789567
 30
0.0
 10
103.9812499740047
 20
-128.6174860789567
 30
0.0
 10
103.4210715281753
 20
-128.6174860789567
 30
0.0
 10
102.9670138631471
 20
-128.3542785790225
 30
0.0
 10
102.9670138631471
 20
-128.029723023548
 30
0.0
 10
102.9670138631471
 20
-127.7045324680737
 30
0.0
 10
103.4210715281753
 20
-127.4413249681398
 30
0.0
 10
103.9812499740047
 20
-127.4413249681398
 30
0.0
 10
104.5414231662594
 20
-127.4413249681398
 30
0.0
 10
104.9954860848623
 20
-127.7045324680737
 30
0.0
 10
104.9954860848623
 20
-128.029723023548
 30
0.0
  0
SPLINE
  5
98
330
41
100
AcDbEntity
  8
_U+30EC_U+30A4_U+30E4_U+30FC 1
 62
   179
420
  2234388
370
     9
100
AcDbSpline
210
0.0
220
0.0
230
1.0
 70
     8
 71
     3
 72
    11
 73
     7
 74
     0
 42
0.0000000001
 43
0.0000000001
 12
1.0
 22
0.0
 32
0.0
 13
1.0
 23
0.0
 33
0.0
 40
0.0
 40
0.0
 40
0.0
 40
0.0
 40
1.0
 40
1.0
 40
1.0
 40
2.0
 40
2.0
 40
2.0
 40
2.0
 10
103.1434027519919
 20
-128.3529027456896
 30
0.0
 10
103.1434027519919
 20
-128.3529027456896
 30
0.0
 10
103.1137694186657
 20
-127.6473471903104
 30
0.0
 10
104.2602971961569
 20
-127.7059083014069
 30
0.0
 10
104.2602971961569
 20
-127.7059083014069
 30
0.0
 10
104.936924973766
 20
-127.7941027458293
 30
0.0
 10
104.8190971960175
 20
-128.3232694123637
 30
0.0
  0
SPLINE
  5
99
330
41
100
AcDbEntity
  8
_U+30EC_U+30A4_U+30E4_U+30FC 1
 62
   179
420
  2234388
370
     9
100
AcDbSpline
210
0.0
220
0.0
230
1.0
 70
    11
 71
     3
 72
    17
 73
    13
 74
     0
 42
0.0000000001
 43
0.0000000001
 12
1.0
 22
0.0
 32
0.0
 13
1.0
 23
0.0
 33
0.0
 40
0.0
 40
0.0
 40
0.0
 40
0.0
 40
1.0
 40
1.0
 40
1.0
 40
2.0
 40
2.0
 40
2.0
 40
3.0
 40
3.0
 40
3.0
 40
4.0
 40
4.0
 40
4.0
 40
4.0
 10
97.58715275338099
 20
-130.1167916341372
 30
0.0
 10
97.58715275338099
 20
-130.4419821896115
 30
0.0
 10
97.13309002192842
 20
-130.7051896895458
 30
0.0
 10
96.57291664252344
 20
-130.7051896895458
 30
0.0
 10
96.01273838384431
 20
-130.7051896895458
 30
0.0
 10
95.55868053166589
 20
-130.4419821896115
 30
0.0
 10
95.55868053166589
 20
-130.1167916341372
 30
0.0
 10
95.55868053166589
 20
-129.7922360786634
 30
0.0
 10
96.01273838384431
 20
-129.5290285787291
 30
0.0
 10
96.57291664252344
 20
-129.5290285787291
 30
0.0
 10
97.13309002192842
 20
-129.5290285787291
 30
0.0
 10
97.58715275338099
 20
-129.7922360786634
 30
0.0
 10
97.58715275338099
 20
-130.1167916341372
 30
0.0
  0
SPLINE
  5
9A
330
41
100
AcDbEntity
  8
_U+30EC_U+30A4_U+30E4_U+30FC 1
 62
   179
420
  2234388
370
     9
100
AcDbSpline
210
0.0
220
0.0
230
1.0
 70
     8
 71
     3
 72
    11
 73
     7
 74
     0
 42
0.0000000001
 43
0.0000000001
 12
1.0
 22
0.0
 32
0.0
 13
1.0
 23
0.0
 33
0.0
 40
0.0
 40
0.0
 40
0.0
 40
0.0
 40
1.0
 40
1.0
 40
1.0
 40
2.0
 40
2.0
 40
2.0
 40
2.0
 10
95.73506942051068
 20
-130.4406063562786
 30
0.0
 10
95.73506942051068
 20
-130.4406063562786
 30
0.0
 10
95.7054360871845
 20
-129.734380523122
 30
0.0
 10
96.85196386467564
 20
-129.7936119119962
 30
0.0
 10
96.85196386467564
 20
-129.7936119119962
 30
0.0
 10
97.52859164228478
 20
-129.8818063564187
 30
0.0
 10
97.41076386453621
 20
-130.410973022953
 30
0.0
  0
SPLINE
  5
9B
330
41
100
AcDbEntity
  8
_U+30EC_U+30A4_U+30E4_U+30FC 1
 62
   179
420
  2234388
370
     9
100
AcDbSpline
210
0.0
220
0.0
230
1.0
 70
    11
 71
     3
 72
    17
 73
    13
 74
     0
 42
0.0000000001
 43
0.0000000001
 12
1.0
 22
0.0
 32
0.0
 13
1.0
 23
0.0
 33
0.0
 40
0.0
 40
0.0
 40
0.0
 40
0.0
 40
1.0
 40
1.0
 40
1.0
 40
2.0
 40
2.0
 40
2.0
 40
3.0
 40
3.0
 40
3.0
 40
4.0
 40
4.0
 40
4.0
 40
4.0
 10
98.43946386427876
 20
-131.9102785781338
 30
0.0
 10
98.43946386427876
 20
-132.2348341336082
 30
0.0
 10
97.98540111129526
 20
-132.4980416335418
 30
0.0
 10
97.42522775342121
 20
-132.4980416335418
 30
0.0
 10
96.86504947321116
 20
-132.4980416335418
 30
0.0
 10
96.41099164256366
 20
-132.2348341336082
 30
0.0
 10
96.41099164256366
 20
-131.9102785781338
 30
0.0
 10
96.41099164256366
 20
-131.5850880226595
 30
0.0
 10
96.86504947321116
 20
-131.3218805227252
 30
0.0
 10
97.42522775342121
 20
-131.3218805227252
 30
0.0
 10
97.98540111129526
 20
-131.3218805227252
 30
0.0
 10
98.43946386427876
 20
-131.5850880226595
 30
0.0
 10
98.43946386427876
 20
-131.9102785781338
 30
0.0
  0
SPLINE
  5
9C
330
41
100
AcDbEntity
  8
_U+30EC_U+30A4_U+30E4_U+30FC 1
 62
   179
420
  2234388
370
     9
100
AcDbSpline
210
0.0
220
0.0
230
1.0
 70
     8
 71
     3
 72
    11
 73
     7
 74
     0
 42
0.0000000001
 43
0.0000000001
 12
1.0
 22
0.0
 32
0.0
 13
1.0
 23
0.0
 33
0.0
 40
0.0
 40
0.0
 40
0.0
 40
0.0
 40
1.0
 40
1.0
 40
1.0
 40
2.0
 40
2.0
 40
2.0
 40
2.0
 10
96.58738053140846
 20
-132.2334583002747
 30
0.0
 10
96.58738053140846
 20
-132.2334583002747
 30
0.0
 10
96.55774719808291
 20
-131.5279027448955
 30
0.0
 10
97.70427497557405
 20
-131.5864638559923
 30
0.0
 10
97.70427497557405
 20
-131.5864638559923
 30
0.0
 10
98.38090275318255
 20
-131.6746583004147
 30
0.0
 10
98.26307497543398
 20
-132.2038249669491
 30
0.0
  0
SPLINE
  5
9D
330
41
100
AcDbEntity
  8
_U+30EC_U+30A4_U+30E4_U+30FC 1
 62
   179
420
  2234388
370
     9
100
AcDbSpline
210
0.0
220
0.0
230
1.0
 70
    11
 71
     3
 72
    17
 73
    13
 74
     0
 42
0.0000000001
 43
0.0000000001
 12
1.0
 22
0.0
 32
0.0
 13
1.0
 23
0.0
 33
0.0
 40
0.0
 40
0.0
 40
0.0
 40
0.0
 40
1.0
 40
1.0
 40
1.0
 40
2.0
 40
2.0
 40
2.0
 40
3.0
 40
3.0
 40
3.0
 40
4.0
 40
4.0
 40
4.0
 40
4.0
 10
95.32373053172489
 20
-131.4397083004731
 30
0.0
 10
95.32373053172489
 20
-131.7648988559474
 30
0.0
 10
94.86931507968214
 20
-132.0281063558817
 30
0.0
 10
94.30949442086734
 20
-132.0281063558817
 30
0.0
 10
93.74931621936679
 20
-132.0281063558817
 30
0.0
 10
93.29525831000979
 20
-131.7648988559474
 30
0.0
 10
93.29525831000979
 20
-131.4397083004731
 30
0.0
 10
93.29525831000979
 20
-131.1151527449993
 30
0.0
 10
93.74931621936679
 20
-130.851945245065
 30
0.0
 10
94.30949442086734
 20
-130.851945245065
 30
0.0
 10
94.86931507968214
 20
-130.851945245065
 30
0.0
 10
95.32373053172489
 20
-131.1151527449993
 30
0.0
 10
95.32373053172489
 20
-131.4397083004731
 30
0.0
  0
SPLINE
  5
9E
330
41
100
AcDbEntity
  8
_U+30EC_U+30A4_U+30E4_U+30FC 1
 62
   179
420
  2234388
370
     9
100
AcDbSpline
210
0.0
220
0.0
230
1.0
 70
     8
 71
     3
 72
    11
 73
     7
 74
     0
 42
0.0000000001
 43
0.0000000001
 12
1.0
 22
0.0
 32
0.0
 13
1.0
 23
0.0
 33
0.0
 40
0.0
 40
0.0
 40
0.0
 40
0.0
 40
1.0
 40
1.0
 40
1.0
 40
2.0
 40
2.0
 40
2.0
 40
2.0
 10
93.47164719885458
 20
-131.7635230226145
 30
0.0
 10
93.47164719885458
 20
-131.7635230226145
 30
0.0
 10
93.4420138655284
 20
-131.057297189458
 30
0.0
 10
94.58854164301954
 20
-131.1165285783322
 30
0.0
 10
94.58854164301954
 20
-131.1165285783322
 30
0.0
 10
95.26481664285028
 20
-131.2047230227546
 30
0.0
 10
95.1473416428801
 20
-131.733889689289
 30
0.0
  0
SPLINE
  5
9F
330
41
100
AcDbEntity
  8
_U+30EC_U+30A4_U+30E4_U+30FC 1
 62
   179
420
  2234388
370
     9
100
AcDbSpline
210
0.0
220
0.0
230
1.0
 70
    11
 71
     3
 72
    17
 73
    13
 74
     0
 42
0.0000000001
 43
0.0000000001
 12
1.0
 22
0.0
 32
0.0
 13
1.0
 23
0.0
 33
0.0
 40
0.0
 40
0.0
 40
0.0
 40
0.0
 40
1.0
 40
1.0
 40
1.0
 40
2.0
 40
2.0
 40
2.0
 40
3.0
 40
3.0
 40
3.0
 40
4.0
 40
4.0
 40
4.0
 40
4.0
 10
96.17604164262266
 20
-133.2331952444697
 30
0.0
 10
96.17604164262266
 20
-133.5577507999441
 30
0.0
 10
95.72197894681776
 20
-133.8209582998778
 30
0.0
 10
95.16180553176511
 20
-133.8209582998778
 30
0.0
 10
94.60162730873364
 20
-133.8209582998778
 30
0.0
 10
94.14756942090756
 20
-133.5577507999441
 30
0.0
 10
94.14756942090756
 20
-133.2331952444697
 30
0.0
 10
94.14756942090756
 20
-132.9080046889954
 30
0.0
 10
94.60162730873364
 20
-132.6447971890611
 30
0.0
 10
95.16180553176511
 20
-132.6447971890611
 30
0.0
 10
95.72197894681776
 20
-132.6447971890611
 30
0.0
 10
96.17604164262266
 20
-132.9080046889954
 30
0.0
 10
96.17604164262266
 20
-133.2331952444697
 30
0.0
  0
SPLINE
  5
A0
330
41
100
AcDbEntity
  8
_U+30EC_U+30A4_U+30E4_U+30FC 1
 62
   179
420
  2234388
370
     9
100
AcDbSpline
210
0.0
220
0.0
230
1.0
 70
     8
 71
     3
 72
    11
 73
     7
 74
     0
 42
0.0000000001
 43
0.0000000001
 12
1.0
 22
0.0
 32
0.0
 13
1.0
 23
0.0
 33
0.0
 40
0.0
 40
0.0
 40
0.0
 40
0.0
 40
1.0
 40
1.0
 40
1.0
 40
2.0
 40
2.0
 40
2.0
 40
2.0
 10
94.32395830975234
 20
-133.5563749666106
 30
0.0
 10
94.32395830975234
 20
-133.5563749666106
 30
0.0
 10
94.29432497642617
 20
-132.8508194112314
 30
0.0
 10
95.44085275391731
 20
-132.9093805223283
 30
0.0
 10
95.44085275391731
 20
-132.9093805223283
 30
0.0
 10
96.11748053152645
 20
-132.9975749667507
 30
0.0
 10
95.99965275377787
 20
-133.5267416332851
 30
0.0
  0
SPLINE
  5
A1
330
41
100
AcDbEntity
  8
_U+30EC_U+30A4_U+30E4_U+30FC 1
 62
   179
420
  2234388
370
     9
100
AcDbSpline
210
0.0
220
0.0
230
1.0
 70
    11
 71
     3
 72
    17
 73
    13
 74
     0
 42
0.0000000001
 43
0.0000000001
 12
1.0
 22
0.0
 32
0.0
 13
1.0
 23
0.0
 33
0.0
 40
0.0
 40
0.0
 40
0.0
 40
0.0
 40
1.0
 40
1.0
 40
1.0
 40
2.0
 40
2.0
 40
2.0
 40
3.0
 40
3.0
 40
3.0
 40
4.0
 40
4.0
 40
4.0
 40
4.0
 10
93.11886942116499
 20
-132.762624966809
 30
0.0
 10
93.11886942116499
 20
-133.0878155222833
 30
0.0
 10
92.66445402482171
 20
-133.3510230222176
 30
0.0
 10
92.10463331030743
 20
-133.3510230222176
 30
0.0
 10
91.54445516450637
 20
-133.3510230222176
 30
0.0
 10
91.09039719944957
 20
-133.0878155222833
 30
0.0
 10
91.09039719944957
 20
-132.762624966809
 30
0.0
 10
91.09039719944957
 20
-132.4380694113352
 30
0.0
 10
91.54445516450637
 20
-132.1748619114009
 30
0.0
 10
92.10463331030743
 20
-132.1748619114009
 30
0.0
 10
92.66445402482171
 20
-132.1748619114009
 30
0.0
 10
93.11886942116499
 20
-132.4380694113352
 30
0.0
 10
93.11886942116499
 20
-132.762624966809
 30
0.0
  0
SPLINE
  5
A2
330
41
100
AcDbEntity
  8
_U+30EC_U+30A4_U+30E4_U+30FC 1
 62
   179
420
  2234388
370
     9
100
AcDbSpline
210
0.0
220
0.0
230
1.0
 70
     8
 71
     3
 72
    11
 73
     7
 74
     0
 42
0.0000000001
 43
0.0000000001
 12
1.0
 22
0.0
 32
0.0
 13
1.0
 23
0.0
 33
0.0
 40
0.0
 40
0.0
 40
0.0
 40
0.0
 40
1.0
 40
1.0
 40
1.0
 40
2.0
 40
2.0
 40
2.0
 40
2.0
 10
91.26678608829435
 20
-133.0864396889504
 30
0.0
 10
91.26678608829435
 20
-133.0864396889504
 30
0.0
 10
91.23715275496849
 20
-132.3802138557939
 30
0.0
 10
92.38368053245964
 20
-132.4394452446681
 30
0.0
 10
92.38368053245964
 20
-132.4394452446681
 30
0.0
 10
93.05995553229037
 20
-132.5276396890905
 30
0.0
 10
92.9424805323202
 20
-133.0568063556249
 30
0.0
  0
SPLINE
  5
A3
330
41
100
AcDbEntity
  8
_U+30EC_U+30A4_U+30E4_U+30FC 1
 62
   179
420
  2234388
370
     9
100
AcDbSpline
210
0.0
220
0.0
230
1.0
 70
    11
 71
     3
 72
    17
 73
    13
 74
     0
 42
0.0000000001
 43
0.0000000001
 12
1.0
 22
0.0
 32
0.0
 13
1.0
 23
0.0
 33
0.0
 40
0.0
 40
0.0
 40
0.0
 40
0.0
 40
1.0
 40
1.0
 40
1.0
 40
2.0
 40
2.0
 40
2.0
 40
3.0
 40
3.0
 40
3.0
 40
4.0
 40
4.0
 40
4.0
 40
4.0
 10
93.97118053206276
 20
-134.5561119108056
 30
0.0
 10
93.97118053206276
 20
-134.8806674662801
 30
0.0
 10
93.51711789195734
 20
-135.1438749662137
 30
0.0
 10
92.95694442120521
 20
-135.1438749662137
 30
0.0
 10
92.39676625387322
 20
-135.1438749662137
 30
0.0
 10
91.94270831034765
 20
-134.8806674662801
 30
0.0
 10
91.94270831034765
 20
-134.5561119108056
 30
0.0
 10
91.94270831034765
 20
-134.2309213553313
 30
0.0
 10
92.39676625387322
 20
-133.9677138553971
 30
0.0
 10
92.95694442120521
 20
-133.9677138553971
 30
0.0
 10
93.51711789195734
 20
-133.9677138553971
 30
0.0
 10
93.97118053206276
 20
-134.2309213553313
 30
0.0
 10
93.97118053206276
 20
-134.5561119108056
 30
0.0
  0
SPLINE
  5
A4
330
41
100
AcDbEntity
  8
_U+30EC_U+30A4_U+30E4_U+30FC 1
 62
   179
420
  2234388
370
     9
100
AcDbSpline
210
0.0
220
0.0
230
1.0
 70
     8
 71
     3
 72
    11
 73
     7
 74
     0
 42
0.0000000001
 43
0.0000000001
 12
1.0
 22
0.0
 32
0.0
 13
1.0
 23
0.0
 33
0.0
 40
0.0
 40
0.0
 40
0.0
 40
0.0
 40
1.0
 40
1.0
 40
1.0
 40
2.0
 40
2.0
 40
2.0
 40
2.0
 10
92.11909719919245
 20
-134.8792916329465
 30
0.0
 10
92.11909719919245
 20
-134.8792916329465
 30
0.0
 10
92.08946386586626
 20
-134.1737360775674
 30
0.0
 10
93.23599164335741
 20
-134.2322971886642
 30
0.0
 10
93.23599164335741
 20
-134.2322971886642
 30
0.0
 10
93.91261942096655
 20
-134.3204916330866
 30
0.0
 10
93.79479164321798
 20
-134.849658299621
 30
0.0
  0
SPLINE
  5
A5
330
41
100
AcDbEntity
  8
_U+30EC_U+30A4_U+30E4_U+30FC 1
 62
   179
420
  2234388
370
     9
100
AcDbSpline
210
0.0
220
0.0
230
1.0
 70
    11
 71
     3
 72
    17
 73
    13
 74
     0
 42
0.0000000001
 43
0.0000000001
 12
1.0
 22
0.0
 32
0.0
 13
1.0
 23
0.0
 33
0.0
 40
0.0
 40
0.0
 40
0.0
 40
0.0
 40
1.0
 40
1.0
 40
1.0
 40
2.0
 40
2.0
 40
2.0
 40
3.0
 40
3.0
 40
3.0
 40
4.0
 40
4.0
 40
4.0
 40
4.0
 10
91.00220275502717
 20
-134.0565785775968
 30
0.0
 10
91.00220275502717
 20
-134.3811341330712
 30
0.0
 10
90.54778741215571
 20
-134.644306355228
 30
0.0
 10
89.98796664416962
 20
-134.644306355228
 30
0.0
 10
89.42778855184038
 20
-134.644306355228
 30
0.0
 10
88.97373053331206
 20
-134.3811341330712
 30
0.0
 10
88.97373053331206
 20
-134.0565785775968
 30
0.0
 10
88.97373053331206
 20
-133.7313880221225
 30
0.0
 10
89.42778855184038
 20
-133.4681805221882
 30
0.0
 10
89.98796664416962
 20
-133.4681805221882
 30
0.0
 10
90.54778741215571
 20
-133.4681805221882
 30
0.0
 10
91.00220275502717
 20
-133.7313880221225
 30
0.0
 10
91.00220275502717
 20
-134.0565785775968
 30
0.0
  0
SPLINE
  5
A6
330
41
100
AcDbEntity
  8
_U+30EC_U+30A4_U+30E4_U+30FC 1
 62
   179
420
  2234388
370
     9
100
AcDbSpline
210
0.0
220
0.0
230
1.0
 70
     8
 71
     3
 72
    11
 73
     7
 74
     0
 42
0.0000000001
 43
0.0000000001
 12
1.0
 22
0.0
 32
0.0
 13
1.0
 23
0.0
 33
0.0
 40
0.0
 40
0.0
 40
0.0
 40
0.0
 40
1.0
 40
1.0
 40
1.0
 40
2.0
 40
2.0
 40
2.0
 40
2.0
 10
89.15011942215686
 20
-134.3797230219608
 30
0.0
 10
89.15011942215686
 20
-134.3797230219608
 30
0.0
 10
89.12048608883099
 20
-133.6741674665817
 30
0.0
 10
90.26701386632215
 20
-133.7327638554554
 30
0.0
 10
90.26701386632215
 20
-133.7327638554554
 30
0.0
 10
90.9432888661532
 20
-133.8209582998778
 30
0.0
 10
90.82581386618239
 20
-134.3501249664122
 30
0.0
  0
SPLINE
  5
A7
330
41
100
AcDbEntity
  8
_U+30EC_U+30A4_U+30E4_U+30FC 1
 62
   179
420
  2234388
370
     9
100
AcDbSpline
210
0.0
220
0.0
230
1.0
 70
    11
 71
     3
 72
    17
 73
    13
 74
     0
 42
0.0000000001
 43
0.0000000001
 12
1.0
 22
0.0
 32
0.0
 13
1.0
 23
0.0
 33
0.0
 40
0.0
 40
0.0
 40
0.0
 40
0.0
 40
1.0
 40
1.0
 40
1.0
 40
2.0
 40
2.0
 40
2.0
 40
3.0
 40
3.0
 40
3.0
 40
4.0
 40
4.0
 40
4.0
 40
4.0
 10
88.70914720004488
 20
-135.2913007995103
 30
0.0
 10
88.70914720004488
 20
-135.6158563549848
 30
0.0
 10
88.25473191510088
 20
-135.8790285771416
 30
0.0
 10
87.69491108918733
 20
-135.8790285771416
 30
0.0
 10
87.13473305478554
 20
-135.8790285771416
 30
0.0
 10
86.68067497832978
 20
-135.6158563549848
 30
0.0
 10
86.68067497832978
 20
-135.2913007995103
 30
0.0
 10
86.68067497832978
 20
-134.9661102440361
 30
0.0
 10
87.13473305478554
 20
-134.7029027441017
 30
0.0
 10
87.69491108918733
 20
-134.7029027441017
 30
0.0
 10
88.25473191510088
 20
-134.7029027441017
 30
0.0
 10
88.70914720004488
 20
-134.9661102440361
 30
0.0
 10
88.70914720004488
 20
-135.2913007995103
 30
0.0
  0
SPLINE
  5
A8
330
41
100
AcDbEntity
  8
_U+30EC_U+30A4_U+30E4_U+30FC 1
 62
   179
420
  2234388
370
     9
100
AcDbSpline
210
0.0
220
0.0
230
1.0
 70
     8
 71
     3
 72
    11
 73
     7
 74
     0
 42
0.0000000001
 43
0.0000000001
 12
1.0
 22
0.0
 32
0.0
 13
1.0
 23
0.0
 33
0.0
 40
0.0
 40
0.0
 40
0.0
 40
0.0
 40
1.0
 40
1.0
 40
1.0
 40
2.0
 40
2.0
 40
2.0
 40
2.0
 10
86.85706386717457
 20
-135.6144452438744
 30
0.0
 10
86.85706386717457
 20
-135.6144452438744
 30
0.0
 10
86.8274305338487
 20
-134.9088896884952
 30
0.0
 10
87.97395831133984
 20
-134.9674860773689
 30
0.0
 10
87.97395831133984
 20
-134.9674860773689
 30
0.0
 10
88.65023331117091
 20
-135.0556805217913
 30
0.0
 10
88.53275831120008
 20
-135.5848471883257
 30
0.0
  0
SPLINE
  5
A9
330
41
100
AcDbEntity
  8
_U+30EC_U+30A4_U+30E4_U+30FC 1
 62
   179
420
  2234388
370
     9
100
AcDbSpline
210
0.0
220
0.0
230
1.0
 70
    11
 71
     3
 72
    17
 73
    13
 74
     0
 42
0.0000000001
 43
0.0000000001
 12
1.0
 22
0.0
 32
0.0
 13
1.0
 23
0.0
 33
0.0
 40
0.0
 40
0.0
 40
0.0
 40
0.0
 40
1.0
 40
1.0
 40
1.0
 40
2.0
 40
2.0
 40
2.0
 40
3.0
 40
3.0
 40
3.0
 40
4.0
 40
4.0
 40
4.0
 40
4.0
 10
91.85451386592527
 20
-135.8494305215929
 30
0.0
 10
91.85451386592527
 20
-136.1746210770672
 30
0.0
 10
91.40045127929133
 20
-136.4378285770015
 30
0.0
 10
90.84027775506772
 20
-136.4378285770015
 30
0.0
 10
90.28009964120722
 20
-136.4378285770015
 30
0.0
 10
89.82604164421016
 20
-136.1746210770672
 30
0.0
 10
89.82604164421016
 20
-135.8494305215929
 30
0.0
 10
89.82604164421016
 20
-135.5248749661191
 30
0.0
 10
90.28009964120722
 20
-135.2616674661848
 30
0.0
 10
90.84027775506772
 20
-135.2616674661848
 30
0.0
 10
91.40045127929133
 20
-135.2616674661848
 30
0.0
 10
91.85451386592527
 20
-135.5248749661191
 30
0.0
 10
91.85451386592527
 20
-135.8494305215929
 30
0.0
  0
SPLINE
  5
AA
330
41
100
AcDbEntity
  8
_U+30EC_U+30A4_U+30E4_U+30FC 1
 62
   179
420
  2234388
370
     9
100
AcDbSpline
210
0.0
220
0.0
230
1.0
 70
     8
 71
     3
 72
    11
 73
     7
 74
     0
 42
0.0000000001
 43
0.0000000001
 12
1.0
 22
0.0
 32
0.0
 13
1.0
 23
0.0
 33
0.0
 40
0.0
 40
0.0
 40
0.0
 40
0.0
 40
1.0
 40
1.0
 40
1.0
 40
2.0
 40
2.0
 40
2.0
 40
2.0
 10
90.00243053305495
 20
-136.1732452437343
 30
0.0
 10
90.00243053305495
 20
-136.1732452437343
 30
0.0
 10
89.97279719972909
 20
-135.4670194105778
 30
0.0
 10
91.11932497722023
 20
-135.526250799452
 30
0.0
 10
91.11932497722023
 20
-135.526250799452
 30
0.0
 10
91.79595275482906
 20
-135.6144452438744
 30
0.0
 10
91.67812497708047
 20
-136.1436119104087
 30
0.0
  0
SPLINE
  5
AB
330
41
100
AcDbEntity
  8
_U+30EC_U+30A4_U+30E4_U+30FC 1
 62
   179
420
  2234388
370
     9
100
AcDbSpline
210
0.0
220
0.0
230
1.0
 70
     8
 71
     3
 72
    11
 73
     7
 74
     0
 42
0.0000000001
 43
0.0000000001
 12
1.0
 22
0.0
 32
0.0
 13
1.0
 23
0.0
 33
0.0
 40
0.0
 40
0.0
 40
0.0
 40
0.0
 40
1.0
 40
1.0
 40
1.0
 40
2.0
 40
2.0
 40
2.0
 40
2.0
 10
99.6597221973073
 20
-118.4751249703812
 30
0.0
 10
99.6597221973073
 20
-118.4751249703812
 30
0.0
 10
99.36550553071392
 20
-117.8577638594245
 30
0.0
 10
100.0710610860931
 20
-117.6524119150315
 30
0.0
 10
100.0710610860931
 20
-117.6524119150315
 30
0.0
 10
100.6002277526275
 20
-117.5931805261573
 30
0.0
 10
100.8944444192208
 20
-117.7406063594539
 30
0.0
  0
SPLINE
  5
AC
330
41
100
AcDbEntity
  8
_U+30EC_U+30A4_U+30E4_U+30FC 1
 62
   179
420
  2234388
370
     9
100
AcDbSpline
210
0.0
220
0.0
230
1.0
 70
     8
 71
     3
 72
     8
 73
     4
 74
     0
 42
0.0000000001
 43
0.0000000001
 12
1.0
 22
0.0
 32
0.0
 13
1.0
 23
0.0
 33
0.0
 40
0.0
 40
0.0
 40
0.0
 40
0.0
 40
1.0
 40
1.0
 40
1.0
 40
1.0
 10
106.8331055288475
 20
-126.2954674684263
 30
0.0
 10
106.8331055288475
 20
-126.2954674684263
 30
0.0
 10
107.5675888619967
 20
-126.9424619127089
 30
0.0
 10
106.6567166400028
 20
-127.0595841349017
 30
0.0
  0
POLYLINE
  5
AD
330
41
100
AcDbEntity
  8
_U+30EC_U+30A4_U+30E4_U+30FC 1
 62
   179
420
  2234388
370
     9
100
AcDb2dPolyline
 66
     1
 10
0.0
 20
0.0
 30
0.0
  0
VERTEX
  5
AE
330
AD
100
AcDbEntity
  8
_U+30EC_U+30A4_U+30E4_U+30FC 1
 62
   179
420
  2234388
370
     9
100
AcDbVertex
100
AcDb2dVertex
 10
97.86619997553319
 20
-130.9994063561391
 30
0.0
  0
VERTEX
  5
AF
330
AD
100
AcDbEntity
  8
_U+30EC_U+30A4_U+30E4_U+30FC 1
 62
   179
420
  2234388
370
     9
100
AcDbVertex
100
AcDb2dVertex
 10
98.48356108648996
 20
-131.4989396893473
 30
0.0
  0
VERTEX
  5
B0
330
AD
100
AcDbEntity
  8
_U+30EC_U+30A4_U+30E4_U+30FC 1
 62
   179
420
  2234388
370
     9
100
AcDbVertex
100
AcDb2dVertex
 10
98.48356108648996
 20
-131.2047230227546
 30
0.0
  0
VERTEX
  5
B1
330
AD
100
AcDbEntity
  8
_U+30EC_U+30A4_U+30E4_U+30FC 1
 62
   179
420
  2234388
370
     9
100
AcDbVertex
100
AcDb2dVertex
 10
98.63102219756473
 20
-130.851945245065
 30
0.0
  0
VERTEX
  5
B2
330
AD
100
AcDbEntity
  8
_U+30EC_U+30A4_U+30E4_U+30FC 1
 62
   179
420
  2234388
370
     9
100
AcDbVertex
100
AcDb2dVertex
 10
97.86619997553319
 20
-130.9994063561391
 30
0.0
  0
SEQEND
  5
B4
330
AD
100
AcDbEntity
  8
_U+30EC_U+30A4_U+30E4_U+30FC 1
 62
   179
420
  2234388
370
     9
  0
HATCH
  5
B3
330
41
100
AcDbEntity
  8
_U+30EC_U+30A4_U+30E4_U+30FC 1
 62
   179
420
  2234388
100
AcDbHatch
 10
0.0
 20
0.0
 30
0.0
210
0.0
220
0.0
230
1.0
  2
SOLID
 70
     1
 71
     0
 91
        1
 92
        1
 93
        4
 72
     1
 10
97.86619997553319
 20
-130.9994063561391
 11
98.48356108648996
 21
-131.4989396893473
 72
     1
 10
98.48356108648996
 20
-131.4989396893473
 11
98.48356108648996
 21
-131.2047230227546
 72
     1
 10
98.48356108648996
 20
-131.2047230227546
 11
98.63102219756473
 21
-130.851945245065
 72
     1
 10
98.63102219756473
 20
-130.851945245065
 11
97.86619997553319
 21
-130.9994063561391
 97
        0
 75
     2
 76
     1
 98
        0
  0
SPLINE
  5
B5
330
41
100
AcDbEntity
  8
_U+30EC_U+30A4_U+30E4_U+30FC 1
 62
   179
420
  2234388
370
     9
100
AcDbSpline
210
0.0
220
0.0
230
1.0
 70
     8
 71
     3
 72
     8
 73
     4
 74
     0
 42
0.0000000001
 43
0.0000000001
 12
1.0
 22
0.0
 32
0.0
 13
1.0
 23
0.0
 33
0.0
 40
0.0
 40
0.0
 40
0.0
 40
0.0
 40
1.0
 40
1.0
 40
1.0
 40
1.0
 10
98.39536664206757
 20
-131.0876008005615
 30
0.0
 10
98.39536664206757
 20
-131.0876008005615
 30
0.0
 10
99.36550553071392
 20
-131.7345952448438
 30
0.0
 10
98.80741108640953
 20
-132.5869063557423
 30
0.0
  0
POLYLINE
  5
B6
330
41
100
AcDbEntity
  8
_U+30EC_U+30A4_U+30E4_U+30FC 1
 62
   179
420
  2234388
370
     9
100
AcDb2dPolyline
 66
     1
 10
0.0
 20
0.0
 30
0.0
  0
VERTEX
  5
B7
330
B6
100
AcDbEntity
  8
_U+30EC_U+30A4_U+30E4_U+30FC 1
 62
   179
420
  2234388
370
     9
100
AcDbVertex
100
AcDb2dVertex
 10
85.63680553414636
 20
-122.1792916361219
 30
0.0
  0
VERTEX
  5
B8
330
B6
100
AcDbEntity
  8
_U+30EC_U+30A4_U+30E4_U+30FC 1
 62
   179
420
  2234388
370
     9
100
AcDbVertex
100
AcDb2dVertex
 10
86.48911664504445
 20
-122.3556805249667
 30
0.0
  0
VERTEX
  5
B9
330
B6
100
AcDbEntity
  8
_U+30EC_U+30A4_U+30E4_U+30FC 1
 62
   179
420
  2234388
370
     9
100
AcDbVertex
100
AcDb2dVertex
 10
85.81319442299115
 20
-122.9440785803752
 30
0.0
  0
VERTEX
  5
BA
330
B6
100
AcDbEntity
  8
_U+30EC_U+30A4_U+30E4_U+30FC 1
 62
   179
420
  2234388
370
     9
100
AcDbVertex
100
AcDb2dVertex
 10
85.9310222007394
 20
-122.5616674693595
 30
0.0
  0
VERTEX
  5
BB
330
B6
100
AcDbEntity
  8
_U+30EC_U+30A4_U+30E4_U+30FC 1
 62
   179
420
  2234388
370
     9
100
AcDbVertex
100
AcDb2dVertex
 10
85.63680553414636
 20
-122.1792916361219
 30
0.0
  0
SEQEND
  5
BD
330
B6
100
AcDbEntity
  8
_U+30EC_U+30A4_U+30E4_U+30FC 1
 62
   179
420
  2234388
370
     9
  0
HATCH
  5
BC
330
41
100
AcDbEntity
  8
_U+30EC_U+30A4_U+30E4_U+30FC 1
 62
   179
420
  2234388
100
AcDbHatch
 10
0.0
 20
0.0
 30
0.0
210
0.0
220
0.0
230
1.0
  2
SOLID
 70
     1
 71
     0
 91
        1
 92
        1
 93
        4
 72
     1
 10
85.63680553414636
 20
-122.1792916361219
 11
86.48911664504445
 21
-122.3556805249667
 72
     1
 10
86.48911664504445
 20
-122.3556805249667
 11
85.81319442299115
 21
-122.9440785803752
 72
     1
 10
85.81319442299115
 20
-122.9440785803752
 11
85.9310222007394
 21
-122.5616674693595
 72
     1
 10
85.9310222007394
 20
-122.5616674693595
 11
85.63680553414636
 21
-122.1792916361219
 97
        0
 75
     2
 76
     1
 98
        0
  0
SPLINE
  5
BE
330
41
100
AcDbEntity
  8
_U+30EC_U+30A4_U+30E4_U+30FC 1
 62
   179
420
  2234388
370
     9
100
AcDbSpline
210
0.0
220
0.0
230
1.0
 70
     8
 71
     3
 72
     8
 73
     4
 74
     0
 42
0.0000000001
 43
0.0000000001
 12
1.0
 22
0.0
 32
0.0
 13
1.0
 23
0.0
 33
0.0
 40
0.0
 40
0.0
 40
0.0
 40
0.0
 40
1.0
 40
1.0
 40
1.0
 40
1.0
 10
85.95994997851008
 20
-122.4734730249371
 30
0.0
 10
85.95994997851008
 20
-122.4734730249371
 30
0.0
 10
85.01944442318958
 20
-123.0612360803458
 30
0.0
 10
85.54861108972396
 20
-123.9142174690216
 30
0.0
  0
POLYLINE
  5
BF
330
41
100
AcDbEntity
  8
_U+30EC_U+30A4_U+30E4_U+30FC 1
 62
   179
420
  2234388
370
     9
100
AcDb2dPolyline
 66
     1
 10
0.0
 20
0.0
 30
0.0
  0
VERTEX
  5
C0
330
BF
100
AcDbEntity
  8
_U+30EC_U+30A4_U+30E4_U+30FC 1
 62
   179
420
  2234388
370
     9
100
AcDbVertex
100
AcDb2dVertex
 10
70.43808053794616
 20
-131.8813508003631
 30
0.0
  0
VERTEX
  5
C1
330
BF
100
AcDbEntity
  8
_U+30EC_U+30A4_U+30E4_U+30FC 1
 62
   179
420
  2234388
370
     9
100
AcDbVertex
100
AcDb2dVertex
 10
72.81933053735085
 20
-130.4991674673754
 30
0.0
  0
SEQEND
  5
C2
330
BF
100
AcDbEntity
  8
_U+30EC_U+30A4_U+30E4_U+30FC 1
 62
   179
420
  2234388
370
     9
  0
POLYLINE
  5
C3
330
41
100
AcDbEntity
  8
_U+30EC_U+30A4_U+30E4_U+30FC 1
 62
   179
420
  2234388
370
     9
100
AcDb2dPolyline
 66
     1
 10
0.0
 20
0.0
 30
0.0
  0
VERTEX
  5
C4
330
C3
100
AcDbEntity
  8
_U+30EC_U+30A4_U+30E4_U+30FC 1
 62
   179
420
  2234388
370
     9
100
AcDbVertex
100
AcDb2dVertex
 10
71.34930553771824
 20
-131.3811119115994
 30
0.0
  0
VERTEX
  5
C5
330
C3
100
AcDbEntity
  8
_U+30EC_U+30A4_U+30E4_U+30FC 1
 62
   179
420
  2234388
370
     9
100
AcDbVertex
100
AcDb2dVertex
 10
77.84641386942742
 20
-134.9970841329176
 30
0.0
  0
SEQEND
  5
C6
330
C3
100
AcDbEntity
  8
_U+30EC_U+30A4_U+30E4_U+30FC 1
 62
   179
420
  2234388
370
     9
  0
POLYLINE
  5
C7
330
41
100
AcDbEntity
  8
_U+30EC_U+30A4_U+30E4_U+30FC 1
 62
   179
420
  2234388
370
     9
100
AcDb2dPolyline
 66
     1
 10
0.0
 20
0.0
 30
0.0
  0
VERTEX
  5
C8
330
C7
100
AcDbEntity
  8
_U+30EC_U+30A4_U+30E4_U+30FC 1
 62
   179
420
  2234388
370
     9
100
AcDbVertex
100
AcDb2dVertex
 10
86.93044164493419
 20
-140.9653785758699
 30
0.0
  0
VERTEX
  5
C9
330
C7
100
AcDbEntity
  8
_U+30EC_U+30A4_U+30E4_U+30FC 1
 62
   179
420
  2234388
370
     9
100
AcDbVertex
100
AcDb2dVertex
 10
89.1645833110422
 20
-139.5831952428822
 30
0.0
  0
SEQEND
  5
CA
330
C7
100
AcDbEntity
  8
_U+30EC_U+30A4_U+30E4_U+30FC 1
 62
   179
420
  2234388
370
     9
  0
POLYLINE
  5
CB
330
41
100
AcDbEntity
  8
_U+30EC_U+30A4_U+30E4_U+30FC 1
 62
   179
420
  2234388
370
     9
100
AcDb2dPolyline
 66
     1
 10
0.0
 20
0.0
 30
0.0
  0
VERTEX
  5
CC
330
CB
100
AcDbEntity
  8
_U+30EC_U+30A4_U+30E4_U+30FC 1
 62
   179
420
  2234388
370
     9
100
AcDbVertex
100
AcDb2dVertex
 10
80.96249997975937
 20
-136.8202396880173
 30
0.0
  0
VERTEX
  5
CD
330
CB
100
AcDbEntity
  8
_U+30EC_U+30A4_U+30E4_U+30FC 1
 62
   179
420
  2234388
370
     9
100
AcDbVertex
100
AcDb2dVertex
 10
87.57708331143907
 20
-140.5533341315285
 30
0.0
  0
SEQEND
  5
CE
330
CB
100
AcDbEntity
  8
_U+30EC_U+30A4_U+30E4_U+30FC 1
 62
   179
420
  2234388
370
     9
  0
SPLINE
  5
CF
330
41
100
AcDbEntity
  8
_U+30EC_U+30A4_U+30E4_U+30FC 1
370
     0
100
AcDbSpline
210
0.0
220
0.0
230
1.0
 70
    11
 71
     3
 72
    17
 73
    13
 74
     0
 42
0.0000000001
 43
0.0000000001
 12
1.0
 22
0.0
 32
0.0
 13
1.0
 23
0.0
 33
0.0
 40
0.0
 40
0.0
 40
0.0
 40
0.0
 40
1.0
 40
1.0
 40
1.0
 40
2.0
 40
2.0
 40
2.0
 40
3.0
 40
3.0
 40
3.0
 40
4.0
 40
4.0
 40
4.0
 40
4.0
 10
87.69491108918733
 20
-140.5533341315285
 30
0.0
 10
87.69491108918733
 20
-140.6022644092939
 30
0.0
 10
87.65529193039386
 20
-140.6415285759509
 30
0.0
 10
87.60671664476493
 20
-140.6415285759509
 30
0.0
 10
87.55778415510372
 20
-140.6415285759509
 30
0.0
 10
87.51852220034253
 20
-140.6022644092939
 30
0.0
 10
87.51852220034253
 20
-140.5533341315285
 30
0.0
 10
87.51852220034253
 20
-140.505109409318
 30
0.0
 10
87.55778415510372
 20
-140.4651396871062
 30
0.0
 10
87.60671664476493
 20
-140.4651396871062
 30
0.0
 10
87.65529193039386
 20
-140.4651396871062
 30
0.0
 10
87.69491108918733
 20
-140.505109409318
 30
0.0
 10
87.69491108918733
 20
-140.5533341315285
 30
0.0
  0
HATCH
  5
D0
330
41
100
AcDbEntity
  8
_U+30EC_U+30A4_U+30E4_U+30FC 1
 62
   179
420
  2234388
100
AcDbHatch
 10
0.0
 20
0.0
 30
0.0
210
0.0
220
0.0
230
1.0
  2
SOLID
 70
     1
 71
     0
 91
        1
 92
        1
 93
        1
 72
     4
 94
        3
 73
     0
 74
     1
 95
       17
 96
       13
 40
0.0
 40
0.0
 40
0.0
 40
0.0
 40
1.0
 40
1.0
 40
1.0
 40
2.0
 40
2.0
 40
2.0
 40
3.0
 40
3.0
 40
3.0
 40
4.0
 40
4.0
 40
4.0
 40
4.0
 10
87.69491108918733
 20
-140.5533341315285
 10
87.69491108918733
 20
-140.6022644092939
 10
87.65529193039386
 20
-140.6415285759509
 10
87.60671664476493
 20
-140.6415285759509
 10
87.55778415510372
 20
-140.6415285759509
 10
87.51852220034253
 20
-140.6022644092939
 10
87.51852220034253
 20
-140.5533341315285
 10
87.51852220034253
 20
-140.505109409318
 10
87.55778415510372
 20
-140.4651396871062
 10
87.60671664476493
 20
-140.4651396871062
 10
87.65529193039386
 20
-140.4651396871062
 10
87.69491108918733
 20
-140.505109409318
 10
87.69491108918733
 20
-140.5533341315285
 97
        0
 97
        0
 75
     2
 76
     1
 98
        0
  0
SPLINE
  5
D1
330
41
100
AcDbEntity
  8
_U+30EC_U+30A4_U+30E4_U+30FC 1
370
     0
100
AcDbSpline
210
0.0
220
0.0
230
1.0
 70
    11
 71
     3
 72
    17
 73
    13
 74
     0
 42
0.0000000001
 43
0.0000000001
 12
1.0
 22
0.0
 32
0.0
 13
1.0
 23
0.0
 33
0.0
 40
0.0
 40
0.0
 40
0.0
 40
0.0
 40
1.0
 40
1.0
 40
1.0
 40
2.0
 40
2.0
 40
2.0
 40
3.0
 40
3.0
 40
3.0
 40
4.0
 40
4.0
 40
4.0
 40
4.0
 10
71.40821942659252
 20
-131.3811119115994
 30
0.0
 10
71.40821942659252
 20
-131.4300421893647
 30
0.0
 10
71.36860067923531
 20
-131.4693063560218
 30
0.0
 10
71.32002498217012
 20
-131.4693063560218
 30
0.0
 10
71.27144568171394
 20
-131.4693063560218
 30
0.0
 10
71.23183053774773
 20
-131.4300421893647
 30
0.0
 10
71.23183053774773
 20
-131.3811119115994
 30
0.0
 10
71.23183053774773
 20
-131.3328871893889
 30
0.0
 10
71.27144568171394
 20
-131.292917467177
 30
0.0
 10
71.32002498217012
 20
-131.292917467177
 30
0.0
 10
71.36860067923531
 20
-131.292917467177
 30
0.0
 10
71.40821942659252
 20
-131.3328871893889
 30
0.0
 10
71.40821942659252
 20
-131.3811119115994
 30
0.0
  0
HATCH
  5
D2
330
41
100
AcDbEntity
  8
_U+30EC_U+30A4_U+30E4_U+30FC 1
 62
   179
420
  2234388
100
AcDbHatch
 10
0.0
 20
0.0
 30
0.0
210
0.0
220
0.0
230
1.0
  2
SOLID
 70
     1
 71
     0
 91
        1
 92
        1
 93
        1
 72
     4
 94
        3
 73
     0
 74
     1
 95
       17
 96
       13
 40
0.0
 40
0.0
 40
0.0
 40
0.0
 40
1.0
 40
1.0
 40
1.0
 40
2.0
 40
2.0
 40
2.0
 40
3.0
 40
3.0
 40
3.0
 40
4.0
 40
4.0
 40
4.0
 40
4.0
 10
71.40821942659252
 20
-131.3811119115994
 10
71.40821942659252
 20
-131.4300421893647
 10
71.36860067923531
 20
-131.4693063560218
 10
71.32002498217012
 20
-131.4693063560218
 10
71.27144568171394
 20
-131.4693063560218
 10
71.23183053774773
 20
-131.4300421893647
 10
71.23183053774773
 20
-131.3811119115994
 10
71.23183053774773
 20
-131.3328871893889
 10
71.27144568171394
 20
-131.292917467177
 10
71.32002498217012
 20
-131.292917467177
 10
71.36860067923531
 20
-131.292917467177
 10
71.40821942659252
 20
-131.3328871893889
 10
71.40821942659252
 20
-131.3811119115994
 97
        0
 97
        0
 75
     2
 76
     1
 98
        0
  0
INSERT
  5
D4
330
41
100
AcDbEntity
  8
_U+30EC_U+30A4_U+30E4_U+30FC 1
100
AcDbBlockReference
  2
block 3
 10
0.0
 20
0.0
 30
0.0
  0
ENDBLK
  5
44
330
41
100
AcDbEntity
  8
0
100
AcDbBlockEnd
  0
BLOCK
  5
D5
330
D3
100
AcDbEntity
  8
0
100
AcDbBlockBegin
  2
block 3
 70
     0
 10
0.0
 20
0.0
 30
0.0
  3
block 3
  1

  0
SPLINE
  5
D7
330
D3
100
AcDbEntity
  8
_U+30EC_U+30A4_U+30E4_U+30FC 1
370
     0
100
AcDbSpline
210
0.0
220
0.0
230
1.0
 70
    11
 71
     3
 72
    53
 73
    49
 74
     0
 42
0.0000000001
 43
0.0000000001
 12
1.0
 22
0.0
 32
0.0
 13
1.0
 23
0.0
 33
0.0
 40
0.0
 40
0.0
 40
0.0
 40
0.0
 40
1.0
 40
1.0
 40
1.0
 40
2.0
 40
2.0
 40
2.0
 40
3.0
 40
3.0
 40
3.0
 40
4.0
 40
4.0
 40
4.0
 40
5.0
 40
5.0
 40
5.0
 40
6.0
 40
6.0
 40
6.0
 40
7.0
 40
7.0
 40
7.0
 40
8.0
 40
8.0
 40
8.0
 40
9.0
 40
9.0
 40
9.0
 40
10.0
 40
10.0
 40
10.0
 40
11.0
 40
11.0
 40
11.0
 40
12.0
 40
12.0
 40
12.0
 40
13.0
 40
13.0
 40
13.0
 40
14.0
 40
14.0
 40
14.0
 40
15.0
 40
15.0
 40
15.0
 40
16.0
 40
16.0
 40
16.0
 40
16.0
 10
78.97399086567317
 20
-136.7820040890684
 30
0.0
 10
78.89561494338373
 20
-136.7820040890684
 30
0.0
 10
78.79415688134313
 20
-136.7654676307392
 30
0.0
 10
78.69252656452826
 20
-136.7020778738106
 30
0.0
 10
78.51906600684593
 20
-136.5918348182826
 30
0.0
 10
78.49787866961165
 20
-136.4609211898431
 30
0.0
 10
78.47893064444277
 20
-136.3527451916063
 30
0.0
 10
78.47893064444277
 20
-136.3527451916063
 30
0.0
 10
78.70096704846712
 20
-136.3527451916063
 30
0.0
 10
78.70096704846712
 20
-136.3527451916063
 30
0.0
 10
78.75608857623112
 20
-136.5518717106537
 30
0.0
 10
78.88304034486258
 20
-136.5814995318269
 30
0.0
 10
78.97605792296432
 20
-136.5814995318269
 30
0.0
 10
79.11558429011694
 20
-136.5814995318269
 30
0.0
 10
79.26802976533925
 20
-136.4815917627546
 30
0.0
 10
79.26802976533925
 20
-136.2493923270488
 30
0.0
 10
79.26802976533925
 20
-135.9930772229462
 30
0.0
 10
79.0881957810092
 20
-135.9234862941441
 30
0.0
 10
78.96761743902546
 20
-135.9234862941441
 30
0.0
 10
78.93592256056117
 20
-135.9234862941441
 30
0.0
 10
78.79415688134313
 20
-135.9234862941441
 30
0.0
 10
78.70527341782369
 20
-136.0523328652925
 30
0.0
 10
78.70527341782369
 20
-136.0523328652925
 30
0.0
 10
78.5297458028502
 20
-136.0337293496721
 30
0.0
 10
78.5297458028502
 20
-136.0337293496721
 30
0.0
 10
78.5297458028502
 20
-136.0337293496721
 30
0.0
 10
78.65032414483395
 20
-135.1869248793977
 30
0.0
 10
78.65032414483395
 20
-135.1869248793977
 30
0.0
 10
78.65032414483395
 20
-135.1869248793977
 30
0.0
 10
79.42874346972616
 20
-135.1869248793977
 30
0.0
 10
79.42874346972616
 20
-135.1869248793977
 30
0.0
 10
79.42874346972616
 20
-135.1869248793977
 30
0.0
 10
79.42874346972616
 20
-135.3819172838629
 30
0.0
 10
79.42874346972616
 20
-135.3819172838629
 30
0.0
 10
79.42874346972616
 20
-135.3819172838629
 30
0.0
 10
78.81310490651201
 20
-135.3819172838629
 30
0.0
 10
78.81310490651201
 20
-135.3819172838629
 30
0.0
 10
78.81310490651201
 20
-135.3819172838629
 30
0.0
 10
78.74764809229225
 20
-135.8049750094515
 30
0.0
 10
78.74764809229225
 20
-135.8049750094515
 30
0.0
 10
78.80897079192971
 20
-135.7712130736961
 30
0.0
 10
78.89148082880143
 20
-135.7305609469701
 30
0.0
 10
79.00981985871977
 20
-135.7305609469701
 30
0.0
 10
79.26372339598268
 20
-135.7305609469701
 30
0.0
 10
79.50074596536787
 20
-135.9172851222707
 30
0.0
 10
79.50074596536787
 20
-136.2300997923314
 30
0.0
 10
79.50074596536787
 20
-136.5477375960714
 30
0.0
 10
79.2764702492781
 20
-136.7820040890684
 30
0.0
 10
78.97399086567317
 20
-136.7820040890684
 30
0.0
  0
HATCH
  5
D8
330
D3
100
AcDbEntity
  8
_U+30EC_U+30A4_U+30E4_U+30FC 1
 62
   179
420
  2234388
100
AcDbHatch
 10
0.0
 20
0.0
 30
0.0
210
0.0
220
0.0
230
1.0
  2
SOLID
 70
     1
 71
     0
 91
        1
 92
        1
 93
        1
 72
     4
 94
        3
 73
     0
 74
     1
 95
       53
 96
       49
 40
0.0
 40
0.0
 40
0.0
 40
0.0
 40
1.0
 40
1.0
 40
1.0
 40
2.0
 40
2.0
 40
2.0
 40
3.0
 40
3.0
 40
3.0
 40
4.0
 40
4.0
 40
4.0
 40
5.0
 40
5.0
 40
5.0
 40
6.0
 40
6.0
 40
6.0
 40
7.0
 40
7.0
 40
7.0
 40
8.0
 40
8.0
 40
8.0
 40
9.0
 40
9.0
 40
9.0
 40
10.0
 40
10.0
 40
10.0
 40
11.0
 40
11.0
 40
11.0
 40
12.0
 40
12.0
 40
12.0
 40
13.0
 40
13.0
 40
13.0
 40
14.0
 40
14.0
 40
14.0
 40
15.0
 40
15.0
 40
15.0
 40
16.0
 40
16.0
 40
16.0
 40
16.0
 10
78.97399086567317
 20
-136.7820040890684
 10
78.89561494338373
 20
-136.7820040890684
 10
78.79415688134313
 20
-136.7654676307392
 10
78.69252656452826
 20
-136.7020778738106
 10
78.51906600684593
 20
-136.5918348182826
 10
78.49787866961165
 20
-136.4609211898431
 10
78.47893064444277
 20
-136.3527451916063
 10
78.47893064444277
 20
-136.3527451916063
 10
78.70096704846712
 20
-136.3527451916063
 10
78.70096704846712
 20
-136.3527451916063
 10
78.75608857623112
 20
-136.5518717106537
 10
78.88304034486258
 20
-136.5814995318269
 10
78.97605792296432
 20
-136.5814995318269
 10
79.11558429011694
 20
-136.5814995318269
 10
79.26802976533925
 20
-136.4815917627546
 10
79.26802976533925
 20
-136.2493923270488
 10
79.26802976533925
 20
-135.9930772229462
 10
79.0881957810092
 20
-135.9234862941441
 10
78.96761743902546
 20
-135.9234862941441
 10
78.93592256056117
 20
-135.9234862941441
 10
78.79415688134313
 20
-135.9234862941441
 10
78.70527341782369
 20
-136.0523328652925
 10
78.70527341782369
 20
-136.0523328652925
 10
78.5297458028502
 20
-136.0337293496721
 10
78.5297458028502
 20
-136.0337293496721
 10
78.5297458028502
 20
-136.0337293496721
 10
78.65032414483395
 20
-135.1869248793977
 10
78.65032414483395
 20
-135.1869248793977
 10
78.65032414483395
 20
-135.1869248793977
 10
79.42874346972616
 20
-135.1869248793977
 10
79.42874346972616
 20
-135.1869248793977
 10
79.42874346972616
 20
-135.1869248793977
 10
79.42874346972616
 20
-135.3819172838629
 10
79.42874346972616
 20
-135.3819172838629
 10
79.42874346972616
 20
-135.3819172838629
 10
78.81310490651201
 20
-135.3819172838629
 10
78.81310490651201
 20
-135.3819172838629
 10
78.81310490651201
 20
-135.3819172838629
 10
78.74764809229225
 20
-135.8049750094515
 10
78.74764809229225
 20
-135.8049750094515
 10
78.80897079192971
 20
-135.7712130736961
 10
78.89148082880143
 20
-135.7305609469701
 10
79.00981985871977
 20
-135.7305609469701
 10
79.26372339598268
 20
-135.7305609469701
 10
79.50074596536787
 20
-135.9172851222707
 10
79.50074596536787
 20
-136.2300997923314
 10
79.50074596536787
 20
-136.5477375960714
 10
79.2764702492781
 20
-136.7820040890684
 10
78.97399086567317
 20
-136.7820040890684
 97
        0
 97
        0
 75
     2
 76
     1
 98
        0
  0
SPLINE
  5
D9
330
D3
100
AcDbEntity
  8
_U+30EC_U+30A4_U+30E4_U+30FC 1
370
     0
100
AcDbSpline
210
0.0
220
0.0
230
1.0
 70
    11
 71
     3
 72
    62
 73
    58
 74
     0
 42
0.0000000001
 43
0.0000000001
 12
1.0
 22
0.0
 32
0.0
 13
1.0
 23
0.0
 33
0.0
 40
0.0
 40
0.0
 40
0.0
 40
0.0
 40
1.0
 40
1.0
 40
1.0
 40
2.0
 40
2.0
 40
2.0
 40
3.0
 40
3.0
 40
3.0
 40
4.0
 40
4.0
 40
4.0
 40
5.0
 40
5.0
 40
5.0
 40
6.0
 40
6.0
 40
6.0
 40
7.0
 40
7.0
 40
7.0
 40
8.0
 40
8.0
 40
8.0
 40
9.0
 40
9.0
 40
9.0
 40
10.0
 40
10.0
 40
10.0
 40
11.0
 40
11.0
 40
11.0
 40
12.0
 40
12.0
 40
12.0
 40
13.0
 40
13.0
 40
13.0
 40
14.0
 40
14.0
 40
14.0
 40
15.0
 40
15.0
 40
15.0
 40
16.0
 40
16.0
 40
16.0
 40
17.0
 40
17.0
 40
17.0
 40
18.0
 40
18.0
 40
18.0
 40
19.0
 40
19.0
 40
19.0
 40
19.0
 10
80.16134302466453
 20
-136.7820040890684
 30
0.0
 10
80.06608613449737
 20
-136.7820040890684
 30
0.0
 10
79.84818384505532
 20
-136.7613335161569
 30
0.0
 10
79.72347138848927
 20
-136.5752983599534
 30
0.0
 10
79.6494018355564
 20
-136.4629882471343
 30
0.0
 10
79.64509546619983
 20
-136.3637694971591
 30
0.0
 10
79.64096135161753
 20
-136.2790201482219
 30
0.0
 10
79.64096135161753
 20
-136.2790201482219
 30
0.0
 10
79.86093069835074
 20
-136.2790201482219
 30
0.0
 10
79.86093069835074
 20
-136.2790201482219
 30
0.0
 10
79.8629977556419
 20
-136.3527451916063
 30
0.0
 10
79.87367755164617
 20
-136.5877007037003
 30
0.0
 10
80.15703665530796
 20
-136.5877007037003
 30
0.0
 10
80.2946682199437
 20
-136.5877007037003
 30
0.0
 10
80.44694144039174
 20
-136.5181097748982
 30
0.0
 10
80.44694144039174
 20
-136.2893554346777
 30
0.0
 10
80.44694144039174
 20
-136.1729112072762
 30
0.0
 10
80.40887313527973
 20
-136.1246798704827
 30
0.0
 10
80.37717825681543
 20
-136.0929849920184
 30
0.0
 10
80.30310870388256
 20
-136.018570929537
 30
0.0
 10
80.18666447648111
 20
-136.0061685857901
 30
0.0
 10
80.13171520349138
 20
-136.0061685857901
 30
0.0
 10
80.1127671783225
 20
-136.0061685857901
 30
0.0
 10
80.07676593050165
 20
-136.0082356430813
 30
0.0
 10
80.04920516661964
 20
-136.0123697576636
 30
0.0
 10
80.04920516661964
 20
-136.0123697576636
 30
0.0
 10
80.04920516661964
 20
-135.8173773531985
 30
0.0
 10
80.04920516661964
 20
-135.8173773531985
 30
0.0
 10
80.08727347173166
 20
-135.8242675441689
 30
0.0
 10
80.12964814620022
 20
-135.8263346014601
 30
0.0
 10
80.13602157284794
 20
-135.8263346014601
 30
0.0
 10
80.2014783870677
 20
-135.8263346014601
 30
0.0
 10
80.40043265134086
 20
-135.8049750094515
 30
0.0
 10
80.40043265134086
 20
-135.5679524400664
 30
0.0
 10
80.40043265134086
 20
-135.3901855130275
 30
0.0
 10
80.26917451335285
 20
-135.3350639852635
 30
0.0
 10
80.15927596737338
 20
-135.3350639852635
 30
0.0
 10
79.89486488888045
 20
-135.3350639852635
 30
0.0
 10
79.88625215016732
 20
-135.5679524400664
 30
0.0
 10
79.88211803558502
 20
-135.6396104261595
 30
0.0
 10
79.88211803558502
 20
-135.6396104261595
 30
0.0
 10
79.67902965672955
 20
-135.6396104261595
 30
0.0
 10
79.67902965672955
 20
-135.6396104261595
 30
0.0
 10
79.68747014066841
 20
-135.5148979695935
 30
0.0
 10
79.71503090455042
 20
-135.1386935426042
 30
0.0
 10
80.17185056589454
 20
-135.1386935426042
 30
0.0
 10
80.39612628198431
 20
-135.1386935426042
 30
0.0
 10
80.6372829659518
 20
-135.2654730564614
 30
0.0
 10
80.6372829659518
 20
-135.5617512681929
 30
0.0
 10
80.6372829659518
 20
-135.7477864243964
 30
0.0
 10
80.5421983305589
 20
-135.8304687160424
 30
0.0
 10
80.44263507103518
 20
-135.8917914156798
 30
0.0
 10
80.50413002544688
 20
-135.9193521795618
 30
0.0
 10
80.68603106706809
 20
-135.9992783948196
 30
0.0
 10
80.68603106706809
 20
-136.2769530909308
 30
0.0
 10
80.68603106706809
 20
-136.6152614675823
 30
0.0
 10
80.43850095645288
 20
-136.7820040890684
 30
0.0
 10
80.16134302466453
 20
-136.7820040890684
 30
0.0
  0
HATCH
  5
DA
330
D3
100
AcDbEntity
  8
_U+30EC_U+30A4_U+30E4_U+30FC 1
 62
   179
420
  2234388
100
AcDbHatch
 10
0.0
 20
0.0
 30
0.0
210
0.0
220
0.0
230
1.0
  2
SOLID
 70
     1
 71
     0
 91
        1
 92
        1
 93
        1
 72
     4
 94
        3
 73
     0
 74
     1
 95
       62
 96
       58
 40
0.0
 40
0.0
 40
0.0
 40
0.0
 40
1.0
 40
1.0
 40
1.0
 40
2.0
 40
2.0
 40
2.0
 40
3.0
 40
3.0
 40
3.0
 40
4.0
 40
4.0
 40
4.0
 40
5.0
 40
5.0
 40
5.0
 40
6.0
 40
6.0
 40
6.0
 40
7.0
 40
7.0
 40
7.0
 40
8.0
 40
8.0
 40
8.0
 40
9.0
 40
9.0
 40
9.0
 40
10.0
 40
10.0
 40
10.0
 40
11.0
 40
11.0
 40
11.0
 40
12.0
 40
12.0
 40
12.0
 40
13.0
 40
13.0
 40
13.0
 40
14.0
 40
14.0
 40
14.0
 40
15.0
 40
15.0
 40
15.0
 40
16.0
 40
16.0
 40
16.0
 40
17.0
 40
17.0
 40
17.0
 40
18.0
 40
18.0
 40
18.0
 40
19.0
 40
19.0
 40
19.0
 40
19.0
 10
80.16134302466453
 20
-136.7820040890684
 10
80.06608613449737
 20
-136.7820040890684
 10
79.84818384505532
 20
-136.7613335161569
 10
79.72347138848927
 20
-136.5752983599534
 10
79.6494018355564
 20
-136.4629882471343
 10
79.64509546619983
 20
-136.3637694971591
 10
79.64096135161753
 20
-136.2790201482219
 10
79.64096135161753
 20
-136.2790201482219
 10
79.86093069835074
 20
-136.2790201482219
 10
79.86093069835074
 20
-136.2790201482219
 10
79.8629977556419
 20
-136.3527451916063
 10
79.87367755164617
 20
-136.5877007037003
 10
80.15703665530796
 20
-136.5877007037003
 10
80.2946682199437
 20
-136.5877007037003
 10
80.44694144039174
 20
-136.5181097748982
 10
80.44694144039174
 20
-136.2893554346777
 10
80.44694144039174
 20
-136.1729112072762
 10
80.40887313527973
 20
-136.1246798704827
 10
80.37717825681543
 20
-136.0929849920184
 10
80.30310870388256
 20
-136.018570929537
 10
80.18666447648111
 20
-136.0061685857901
 10
80.13171520349138
 20
-136.0061685857901
 10
80.1127671783225
 20
-136.0061685857901
 10
80.07676593050165
 20
-136.0082356430813
 10
80.04920516661964
 20
-136.0123697576636
 10
80.04920516661964
 20
-136.0123697576636
 10
80.04920516661964
 20
-135.8173773531985
 10
80.04920516661964
 20
-135.8173773531985
 10
80.08727347173166
 20
-135.8242675441689
 10
80.12964814620022
 20
-135.8263346014601
 10
80.13602157284794
 20
-135.8263346014601
 10
80.2014783870677
 20
-135.8263346014601
 10
80.40043265134086
 20
-135.8049750094515
 10
80.40043265134086
 20
-135.5679524400664
 10
80.40043265134086
 20
-135.3901855130275
 10
80.26917451335285
 20
-135.3350639852635
 10
80.15927596737338
 20
-135.3350639852635
 10
79.89486488888045
 20
-135.3350639852635
 10
79.88625215016732
 20
-135.5679524400664
 10
79.88211803558502
 20
-135.6396104261595
 10
79.88211803558502
 20
-135.6396104261595
 10
79.67902965672955
 20
-135.6396104261595
 10
79.67902965672955
 20
-135.6396104261595
 10
79.68747014066841
 20
-135.5148979695935
 10
79.71503090455042
 20
-135.1386935426042
 10
80.17185056589454
 20
-135.1386935426042
 10
80.39612628198431
 20
-135.1386935426042
 10
80.6372829659518
 20
-135.2654730564614
 10
80.6372829659518
 20
-135.5617512681929
 10
80.6372829659518
 20
-135.7477864243964
 10
80.5421983305589
 20
-135.8304687160424
 10
80.44263507103518
 20
-135.8917914156798
 10
80.50413002544688
 20
-135.9193521795618
 10
80.68603106706809
 20
-135.9992783948196
 10
80.68603106706809
 20
-136.2769530909308
 10
80.68603106706809
 20
-136.6152614675823
 10
80.43850095645288
 20
-136.7820040890684
 10
80.16134302466453
 20
-136.7820040890684
 97
        0
 97
        0
 75
     2
 76
     1
 98
        0
  0
ENDBLK
  5
D6
330
D3
100
AcDbEntity
  8
0
100
AcDbBlockEnd
  0
ENDSEC
  0
SECTION
  2
ENTITIES
  0
INSERT
  5
42
330
1F
100
AcDbEntity
  8
_U+30EC_U+30A4_U+30E4_U+30FC 1
100
AcDbBlockReference
  2
block 2
 10
0.0
 20
0.0
 30
0.0
  0
ENDSEC
  0
SECTION
  2
OBJECTS
  0
DICTIONARY
  5
C
330
0
100
AcDbDictionary
281
     1
  3
ACAD_GROUP
350
D
  3
ACAD_LAYOUT
350
1A
  3
ACAD_MATERIAL
350
3B
  3
ACAD_MLEADERSTYLE
350
DC
  3
ACAD_MLINESTYLE
350
17
  3
ACAD_PLOTSETTINGS
350
19
  3
ACAD_PLOTSTYLENAME
350
E
  3
ACAD_TABLESTYLE
350
DB
  3
ACAD_VISUALSTYLE
350
2A
  0
SUN
  5
3F
330
29
100
AcDbSun
 90
        1
290
     0
 63
     7
421
 16777215
 40
1.0
291
     1
 91
  2455826
 92
 54000000
292
     0
 70
     2
 71
   256
280
     1
  0
DICTIONARY
  5
D
102
{ACAD_REACTORS
330
C
102
}
330
C
100
AcDbDictionary
281
     1
  0
DICTIONARY
  5
1A
102
{ACAD_REACTORS
330
C
102
}
330
C
100
AcDbDictionary
281
     1
  3
Layout1
350
1E
  3
Layout2
350
26
  3
Model
350
22
  0
DICTIONARY
  5
3B
102
{ACAD_REACTORS
330
C
102
}
330
C
100
AcDbDictionary
281
     1
  3
ByBlock
350
3D
  3
ByLayer
350
3C
  3
Global
350
3E
  0
DICTIONARY
  5
DC
102
{ACAD_REACTORS
330
C
102
}
330
C
100
AcDbDictionary
281
     1
  0
DICTIONARY
  5
17
102
{ACAD_REACTORS
330
C
102
}
330
C
100
AcDbDictionary
281
     1
  3
Standard
350
18
  0
DICTIONARY
  5
19
102
{ACAD_REACTORS
330
C
102
}
330
C
100
AcDbDictionary
281
     1
  0
ACDBDICTIONARYWDFLT
  5
E
102
{ACAD_REACTORS
330
C
102
}
330
C
100
AcDbDictionary
281
     1
  3
Normal
350
F
100
AcDbDictionaryWithDefault
340
F
  0
DICTIONARY
  5
DB
102
{ACAD_REACTORS
330
C
102
}
330
C
100
AcDbDictionary
281
     1
  0
DICTIONARY
  5
2A
102
{ACAD_REACTORS
330
C
102
}
330
C
100
AcDbDictionary
281
     1
  3
2dWireframe
350
2F
  3
3D Hidden
350
31
  3
3dWireframe
350
30
  3
Basic
350
32
  3
Brighten
350
36
  3
ColorChange
350
3A
  3
Conceptual
350
34
  3
Dim
350
35
  3
Facepattern
350
39
  3
Flat
350
2B
  3
FlatWithEdges
350
2C
  3
Gouraud
350
2D
  3
GouraudWithEdges
350
2E
  3
Linepattern
350
38
  3
Realistic
350
33
  3
Thicken
350
37
  0
LAYOUT
  5
1E
102
{ACAD_REACTORS
330
1A
102
}
330
1A
100
AcDbPlotSettings
  1

  2
none_device
  4

  6

 40
0.0
 41
0.0
 42
0.0
 43
0.0
 44
0.0
 45
0.0
 46
0.0
 47
0.0
 48
0.0
 49
0.0
140
0.0
141
0.0
142
1.0
143
1.0
 70
   688
 72
     0
 73
     0
 74
     5
  7

 75
    16
 76
     0
 77
     2
 78
   300
147
1.0
148
0.0
149
0.0
100
AcDbLayout
  1
Layout1
 70
     1
 71
     1
 10
0.0
 20
0.0
 11
12.0
 21
9.0
 12
0.0
 22
0.0
 32
0.0
 14
1.000000000000000E+20
 24
1.000000000000000E+20
 34
1.000000000000000E+20
 15
-1.000000000000000E+20
 25
-1.000000000000000E+20
 35
-1.000000000000000E+20
146
0.0
 13
0.0
 23
0.0
 33
0.0
 16
1.0
 26
0.0
 36
0.0
 17
0.0
 27
1.0
 37
0.0
 76
     0
330
1B
  0
LAYOUT
  5
26
102
{ACAD_REACTORS
330
1A
102
}
330
1A
100
AcDbPlotSettings
  1

  2
none_device
  4

  6

 40
0.0
 41
0.0
 42
0.0
 43
0.0
 44
0.0
 45
0.0
 46
0.0
 47
0.0
 48
0.0
 49
0.0
140
0.0
141
0.0
142
1.0
143
1.0
 70
   688
 72
     0
 73
     0
 74
     5
  7

 75
    16
 76
     0
 77
     2
 78
   300
147
1.0
148
0.0
149
0.0
100
AcDbLayout
  1
Layout2
 70
     1
 71
     2
 10
0.0
 20
0.0
 11
0.0
 21
0.0
 12
0.0
 22
0.0
 32
0.0
 14
0.0
 24
0.0
 34
0.0
 15
0.0
 25
0.0
 35
0.0
146
0.0
 13
0.0
 23
0.0
 33
0.0
 16
1.0
 26
0.0
 36
0.0
 17
0.0
 27
1.0
 37
0.0
 76
     0
330
23
  0
LAYOUT
  5
22
102
{ACAD_REACTORS
330
1A
102
}
330
1A
100
AcDbPlotSettings
  1

  2
none_device
  4

  6

 40
0.0
 41
0.0
 42
0.0
 43
0.0
 44
0.0
 45
0.0
 46
0.0
 47
0.0
 48
0.0
 49
0.0
140
0.0
141
0.0
142
1.0
143
1.0
 70
  1712
 72
     0
 73
     0
 74
     0
  7

 75
     0
 76
     0
 77
     2
 78
   300
147
1.0
148
0.0
149
0.0
100
AcDbLayout
  1
Model
 70
     1
 71
     0
 10
0.0
 20
0.0
 11
12.0
 21
9.0
 12
0.0
 22
0.0
 32
0.0
 14
1.000000000000000E+20
 24
1.000000000000000E+20
 34
1.000000000000000E+20
 15
-1.000000000000000E+20
 25
-1.000000000000000E+20
 35
-1.000000000000000E+20
146
0.0
 13
0.0
 23
0.0
 33
0.0
 16
1.0
 26
0.0
 36
0.0
 17
0.0
 27
1.0
 37
0.0
 76
     0
330
1F
331
29
  0
MATERIAL
  5
3D
102
{ACAD_REACTORS
330
3B
102
}
330
3B
100
AcDbMaterial
  1
ByBlock
 72
     1
 94
      127
  0
MATERIAL
  5
3C
102
{ACAD_REACTORS
330
3B
102
}
330
3B
100
AcDbMaterial
  1
ByLayer
 72
     1
 94
      127
  0
MATERIAL
  5
3E
102
{ACAD_REACTORS
330
3B
102
}
330
3B
100
AcDbMaterial
  1
Global
 72
     1
 94
      127
  0
MLINESTYLE
  5
18
102
{ACAD_REACTORS
330
17
102
}
330
17
100
AcDbMlineStyle
  2
Standard
 70
     0
  3

 62
   256
 51
90.0
 52
90.0
 71
     2
 49
0.5
 62
   256
  6
BYLAYER
 49
-0.5
 62
   256
  6
BYLAYER
  0
ACDBPLACEHOLDER
  5
F
102
{ACAD_REACTORS
330
E
102
}
330
E
  0
VISUALSTYLE
  5
2F
102
{ACAD_REACTORS
330
2A
102
}
330
2A
100
AcDbVisualStyle
  2
2dWireframe
 70
     4
177
     2
291
     0
 71
     0
176
     1
 72
     2
176
     1
 73
     0
176
     1
 90
        0
176
     1
 40
-0.6
176
     1
 41
-30.0
176
     1
 62
     5
 63
     7
421
 16777215
176
     1
 74
     1
176
     1
 91
        4
176
     1
 64
     7
176
     1
 65
   257
176
     1
 75
     1
176
     1
175
     1
176
     1
 42
1.0
176
     1
 92
        0
176
     1
 66
   257
176
     1
 43
1.0
176
     1
 76
     1
176
     1
 77
     6
176
     1
 78
     2
176
     1
 67
     7
176
     1
 79
     5
176
     1
170
     0
176
     1
171
     0
176
     1
290
     0
176
     1
 93
        1
176
     1
 44
0.0
176
     1
173
     0
176
     1
  0
VISUALSTYLE
  5
31
102
{ACAD_REACTORS
330
2A
102
}
330
2A
100
AcDbVisualStyle
  2
3D Hidden
 70
     6
177
     2
291
     0
 71
     1
176
     1
 72
     2
176
     1
 73
     2
176
     1
 90
        0
176
     1
 40
-0.6
176
     1
 41
-30.0
176
     1
 62
     5
 63
     7
421
 16777215
176
     1
 74
     2
176
     1
 91
        2
176
     1
 64
     7
176
     1
 65
   257
176
     1
 75
     2
176
     1
175
     1
176
     1
 42
40.0
176
     1
 92
        0
176
     1
 66
   257
176
     1
 43
1.0
176
     1
 76
     1
176
     1
 77
     6
176
     1
 78
     2
176
     1
 67
     7
176
     1
 79
     3
176
     1
170
     0
176
     1
171
     0
176
     1
290
     0
176
     1
 93
        1
176
     1
 44
0.0
176
     1
173
     0
176
     1
  0
VISUALSTYLE
  5
30
102
{ACAD_REACTORS
330
2A
102
}
330
2A
100
AcDbVisualStyle
  2
3dWireframe
 70
     5
177
     2
291
     0
 71
     0
176
     1
 72
     2
176
     1
 73
     0
176
     1
 90
        0
176
     1
 40
-0.6
176
     1
 41
-30.0
176
     1
 62
     5
 63
     7
421
 16777215
176
     1
 74
     1
176
     1
 91
        4
176
     1
 64
     7
176
     1
 65
   257
176
     1
 75
     1
176
     1
175
     1
176
     1
 42
1.0
176
     1
 92
        0
176
     1
 66
   257
176
     1
 43
1.0
176
     1
 76
     1
176
     1
 77
     6
176
     1
 78
     2
176
     1
 67
     7
176
     1
 79
     5
176
     1
170
     0
176
     1
171
     0
176
     1
290
     0
176
     1
 93
        1
176
     1
 44
0.0
176
     1
173
     0
176
     1
  0
VISUALSTYLE
  5
32
102
{ACAD_REACTORS
330
2A
102
}
330
2A
100
AcDbVisualStyle
  2
Basic
 70
     7
177
     2
291
     1
 71
     1
176
     1
 72
     0
176
     1
 73
     1
176
     1
 90
        0
176
     1
 40
-0.6
176
     1
 41
-30.0
176
     1
 62
     5
 63
     7
421
 16777215
176
     1
 74
     0
176
     1
 91
        4
176
     1
 64
     7
176
     1
 65
   257
176
     1
 75
     1
176
     1
175
     1
176
     1
 42
1.0
176
     1
 92
        8
176
     1
 66
     7
176
     1
 43
1.0
176
     1
 76
     1
176
     1
 77
     6
176
     1
 78
     2
176
     1
 67
     7
176
     1
 79
     5
176
     1
170
     0
176
     1
171
     0
176
     1
290
     0
176
     1
 93
        1
176
     1
 44
0.0
176
     1
173
     0
176
     1
  0
VISUALSTYLE
  5
36
102
{ACAD_REACTORS
330
2A
102
}
330
2A
100
AcDbVisualStyle
  2
Brighten
 70
    12
177
     2
291
     1
 71
     2
176
     1
 72
     2
176
     1
 73
     0
176
     1
 90
        0
176
     1
 40
-0.6
176
     1
 41
-30.0
176
     1
 62
     5
 63
     7
421
 16777215
176
     1
 74
     1
176
     1
 91
        4
176
     1
 64
     7
176
     1
 65
   257
176
     1
 75
     1
176
     1
175
     1
176
     1
 42
1.0
176
     1
 92
        8
176
     1
 66
     7
176
     1
 43
1.0
176
     1
 76
     1
176
     1
 77
     6
176
     1
 78
     2
176
     1
 67
     7
176
     1
 79
     5
176
     1
170
     0
176
     1
171
     0
176
     1
290
     0
176
     1
 93
        1
176
     1
 44
50.0
176
     1
173
     0
176
     1
  0
VISUALSTYLE
  5
3A
102
{ACAD_REACTORS
330
2A
102
}
330
2A
100
AcDbVisualStyle
  2
ColorChange
 70
    16
177
     2
291
     1
 71
     2
176
     1
 72
     2
176
     1
 73
     3
176
     1
 90
        0
176
     1
 40
-0.6
176
     1
 41
-30.0
176
     1
 62
     5
 63
     8
421
  8421504
176
     1
 74
     1
176
     1
 91
        4
176
     1
 64
     7
176
     1
 65
   257
176
     1
 75
     1
176
     1
175
     1
176
     1
 42
1.0
176
     1
 92
        8
176
     1
 66
     8
424
  8421504
176
     1
 43
1.0
176
     1
 76
     1
176
     1
 77
     6
176
     1
 78
     2
176
     1
 67
     7
176
     1
 79
     5
176
     1
170
     0
176
     1
171
     0
176
     1
290
     0
176
     1
 93
        1
176
     1
 44
0.0
176
     1
173
     0
176
     1
  0
VISUALSTYLE
  5
34
102
{ACAD_REACTORS
330
2A
102
}
330
2A
100
AcDbVisualStyle
  2
Conceptual
 70
     9
177
     2
291
     0
 71
     3
176
     1
 72
     2
176
     1
 73
     0
176
     1
 90
        0
176
     1
 40
-0.6
176
     1
 41
-30.0
176
     1
 62
     5
 63
     7
421
 16777215
176
     1
 74
     2
176
     1
 91
        2
176
     1
 64
     7
176
     1
 65
   257
176
     1
 75
     1
176
     1
175
     1
176
     1
 42
40.0
176
     1
 92
        8
176
     1
 66
     7
176
     1
 43
1.0
176
     1
 76
     1
176
     1
 77
     6
176
     1
 78
     2
176
     1
 67
     7
176
     1
 79
     3
176
     1
170
     0
176
     1
171
     0
176
     1
290
     0
176
     1
 93
        1
176
     1
 44
0.0
176
     1
173
     0
176
     1
  0
VISUALSTYLE
  5
35
102
{ACAD_REACTORS
330
2A
102
}
330
2A
100
AcDbVisualStyle
  2
Dim
 70
    11
177
     2
291
     1
 71
     2
176
     1
 72
     2
176
     1
 73
     0
176
     1
 90
        0
176
     1
 40
-0.6
176
     1
 41
-30.0
176
     1
 62
     5
 63
     7
421
 16777215
176
     1
 74
     1
176
     1
 91
        4
176
     1
 64
     7
176
     1
 65
   257
176
     1
 75
     1
176
     1
175
     1
176
     1
 42
1.0
176
     1
 92
        8
176
     1
 66
     7
176
     1
 43
1.0
176
     1
 76
     1
176
     1
 77
     6
176
     1
 78
     2
176
     1
 67
     7
176
     1
 79
     5
176
     1
170
     0
176
     1
171
     0
176
     1
290
     0
176
     1
 93
        1
176
     1
 44
-50.0
176
     1
173
     0
176
     1
  0
VISUALSTYLE
  5
39
102
{ACAD_REACTORS
330
2A
102
}
330
2A
100
AcDbVisualStyle
  2
Facepattern
 70
    15
177
     2
291
     1
 71
     2
176
     1
 72
     2
176
     1
 73
     0
176
     1
 90
        0
176
     1
 40
-0.6
176
     1
 41
-30.0
176
     1
 62
     5
 63
     7
421
 16777215
176
     1
 74
     1
176
     1
 91
        4
176
     1
 64
     7
176
     1
 65
   257
176
     1
 75
     1
176
     1
175
     1
176
     1
 42
1.0
176
     1
 92
        8
176
     1
 66
     7
176
     1
 43
1.0
176
     1
 76
     1
176
     1
 77
     6
176
     1
 78
     2
176
     1
 67
     7
176
     1
 79
     5
176
     1
170
     0
176
     1
171
     0
176
     1
290
     0
176
     1
 93
        1
176
     1
 44
0.0
176
     1
173
     0
176
     1
  0
VISUALSTYLE
  5
2B
102
{ACAD_REACTORS
330
2A
102
}
330
2A
100
AcDbVisualStyle
  2
Flat
 70
     0
177
     2
291
     1
 71
     2
176
     1
 72
     1
176
     1
 73
     1
176
     1
 90
        2
176
     1
 40
-0.6
176
     1
 41
30.0
176
     1
 62
     5
 63
     7
421
 16777215
176
     1
 74
     0
176
     1
 91
        4
176
     1
 64
     7
176
     1
 65
   257
176
     1
 75
     1
176
     1
175
     1
176
     1
 42
1.0
176
     1
 92
        8
176
     1
 66
     7
176
     1
 43
1.0
176
     1
 76
     1
176
     1
 77
     6
176
     1
 78
     2
176
     1
 67
     7
176
     1
 79
     5
176
     1
170
     0
176
     1
171
     0
176
     1
290
     0
176
     1
 93
       13
176
     1
 44
0.0
176
     1
173
     0
176
     1
  0
VISUALSTYLE
  5
2C
102
{ACAD_REACTORS
330
2A
102
}
330
2A
100
AcDbVisualStyle
  2
FlatWithEdges
 70
     1
177
     2
291
     1
 71
     2
176
     1
 72
     1
176
     1
 73
     1
176
     1
 90
        2
176
     1
 40
-0.6
176
     1
 41
30.0
176
     1
 62
     5
 63
     7
421
 16777215
176
     1
 74
     1
176
     1
 91
        4
176
     1
 64
     7
176
     1
 65
   257
176
     1
 75
     1
176
     1
175
     1
176
     1
 42
1.0
176
     1
 92
        0
176
     1
 66
   257
176
     1
 43
1.0
176
     1
 76
     1
176
     1
 77
     6
176
     1
 78
     2
176
     1
 67
     7
176
     1
 79
     5
176
     1
170
     0
176
     1
171
     0
176
     1
290
     0
176
     1
 93
       13
176
     1
 44
0.0
176
     1
173
     0
176
     1
  0
VISUALSTYLE
  5
2D
102
{ACAD_REACTORS
330
2A
102
}
330
2A
100
AcDbVisualStyle
  2
Gouraud
 70
     2
177
     2
291
     1
 71
     2
176
     1
 72
     2
176
     1
 73
     1
176
     1
 90
        2
176
     1
 40
-0.6
176
     1
 41
30.0
176
     1
 62
     5
 63
     7
421
 16777215
176
     1
 74
     0
176
     1
 91
        4
176
     1
 64
     7
176
     1
 65
   257
176
     1
 75
     1
176
     1
175
     1
176
     1
 42
1.0
176
     1
 92
        0
176
     1
 66
     7
176
     1
 43
1.0
176
     1
 76
     1
176
     1
 77
     6
176
     1
 78
     2
176
     1
 67
     7
176
     1
 79
     5
176
     1
170
     0
176
     1
171
     0
176
     1
290
     0
176
     1
 93
       13
176
     1
 44
0.0
176
     1
173
     0
176
     1
  0
VISUALSTYLE
  5
2E
102
{ACAD_REACTORS
330
2A
102
}
330
2A
100
AcDbVisualStyle
  2
GouraudWithEdges
 70
     3
177
     2
291
     1
 71
     2
176
     1
 72
     2
176
     1
 73
     1
176
     1
 90
        2
176
     1
 40
-0.6
176
     1
 41
30.0
176
     1
 62
     5
 63
     7
421
 16777215
176
     1
 74
     1
176
     1
 91
        4
176
     1
 64
     7
176
     1
 65
   257
176
     1
 75
     1
176
     1
175
     1
176
     1
 42
1.0
176
     1
 92
        0
176
     1
 66
   257
176
     1
 43
1.0
176
     1
 76
     1
176
     1
 77
     6
176
     1
 78
     2
176
     1
 67
     7
176
     1
 79
     5
176
     1
170
     0
176
     1
171
     0
176
     1
290
     0
176
     1
 93
       13
176
     1
 44
0.0
176
     1
173
     0
176
     1
  0
VISUALSTYLE
  5
38
102
{ACAD_REACTORS
330
2A
102
}
330
2A
100
AcDbVisualStyle
  2
Linepattern
 70
    14
177
     2
291
     1
 71
     2
176
     1
 72
     2
176
     1
 73
     0
176
     1
 90
        0
176
     1
 40
-0.6
176
     1
 41
-30.0
176
     1
 62
     5
 63
     7
421
 16777215
176
     1
 74
     1
176
     1
 91
        4
176
     1
 64
     7
176
     1
 65
   257
176
     1
 75
     7
176
     1
175
     7
176
     1
 42
1.0
176
     1
 92
        8
176
     1
 66
     7
176
     1
 43
1.0
176
     1
 76
     1
176
     1
 77
     6
176
     1
 78
     2
176
     1
 67
     7
176
     1
 79
     5
176
     1
170
     0
176
     1
171
     0
176
     1
290
     0
176
     1
 93
        1
176
     1
 44
0.0
176
     1
173
     0
176
     1
  0
VISUALSTYLE
  5
33
102
{ACAD_REACTORS
330
2A
102
}
330
2A
100
AcDbVisualStyle
  2
Realistic
 70
     8
177
     2
291
     0
 71
     2
176
     1
 72
     2
176
     1
 73
     0
176
     1
 90
        0
176
     1
 40
-0.6
176
     1
 41
-30.0
176
     1
 62
     5
 63
     7
421
 16777215
176
     1
 74
     1
176
     1
 91
        0
176
     1
 64
     7
176
     1
 65
   257
176
     1
 75
     1
176
     1
175
     1
176
     1
 42
1.0
176
     1
 92
        8
176
     1
 66
     8
424
  7895160
176
     1
 43
1.0
176
     1
 76
     1
176
     1
 77
     6
176
     1
 78
     2
176
     1
 67
     7
176
     1
 79
     5
176
     1
170
     0
176
     1
171
     0
176
     1
290
     0
176
     1
 93
       13
176
     1
 44
0.0
176
     1
173
     0
176
     1
  0
VISUALSTYLE
  5
37
102
{ACAD_REACTORS
330
2A
102
}
330
2A
100
AcDbVisualStyle
  2
Thicken
 70
    13
177
     2
291
     1
 71
     2
176
     1
 72
     2
176
     1
 73
     0
176
     1
 90
        0
176
     1
 40
-0.6
176
     1
 41
-30.0
176
     1
 62
     5
 63
     7
421
 16777215
176
     1
 74
     1
176
     1
 91
        4
176
     1
 64
     7
176
     1
 65
   257
176
     1
 75
     1
176
     1
175
     1
176
     1
 42
1.0
176
     1
 92
       12
176
     1
 66
     7
176
     1
 43
1.0
176
     1
 76
     1
176
     1
 77
     6
176
     1
 78
     2
176
     1
 67
     7
176
     1
 79
     5
176
     1
170
     0
176
     1
171
     0
176
     1
290
     0
176
     1
 93
        1
176
     1
 44
0.0
176
     1
173
     0
176
     1
  0
ENDSEC
  0
EOF
