  0
SECTION
  2
HEADER
  9
$ACADVER
  1
AC1024
  9
$ACADMAINTVER
 70
     6
  9
$DWGCODEPAGE
  3
UNDEFINED
  9
$INSBASE
 10
0.0
 20
0.0
 30
0.0
  9
$EXTMIN
 10
1.000000000000000E+20
 20
1.000000000000000E+20
 30
1.000000000000000E+20
  9
$EXTMAX
 10
-1.000000000000000E+20
 20
-1.000000000000000E+20
 30
-1.000000000000000E+20
  9
$LIMMIN
 10
0.0
 20
0.0
  9
$LIMMAX
 10
12.0
 20
9.0
  9
$ORTHOMODE
 70
     0
  9
$REGENMODE
 70
     1
  9
$FILLMODE
 70
     1
  9
$QTEXTMODE
 70
     0
  9
$MIRRTEXT
 70
     1
  9
$LTSCALE
 40
1.0
  9
$ATTMODE
 70
     1
  9
$TEXTSIZE
 40
0.2
  9
$TRACEWID
 40
0.05
  9
$TEXTSTYLE
  7
Standard
  9
$CLAYER
  8
0
  9
$CELTYPE
  6
ByLayer
  9
$CECOLOR
 62
   256
  9
$CELTSCALE
 40
1.0
  9
$DISPSILH
 70
     0
  9
$DIMSCALE
 40
1.0
  9
$DIMASZ
 40
0.18
  9
$DIMEXO
 40
0.0625
  9
$DIMDLI
 40
0.38
  9
$DIMRND
 40
0.0
  9
$DIMDLE
 40
0.0
  9
$DIMEXE
 40
0.18
  9
$DIMTP
 40
0.0
  9
$DIMTM
 40
0.0
  9
$DIMTXT
 40
0.18
  9
$DIMCEN
 40
0.09
  9
$DIMTSZ
 40
0.0
  9
$DIMTOL
 70
     0
  9
$DIMLIM
 70
     0
  9
$DIMTIH
 70
     1
  9
$DIMTOH
 70
     1
  9
$DIMSE1
 70
     0
  9
$DIMSE2
 70
     0
  9
$DIMTAD
 70
     0
  9
$DIMZIN
 70
     0
  9
$DIMBLK
  1

  9
$DIMASO
 70
     1
  9
$DIMSHO
 70
     1
  9
$DIMPOST
  1

  9
$DIMAPOST
  1

  9
$DIMALT
 70
     0
  9
$DIMALTD
 70
     2
  9
$DIMALTF
 40
25.4
  9
$DIMLFAC
 40
1.0
  9
$DIMTOFL
 70
     0
  9
$DIMTVP
 40
0.0
  9
$DIMTIX
 70
     0
  9
$DIMSOXD
 70
     0
  9
$DIMSAH
 70
     0
  9
$DIMBLK1
  1

  9
$DIMBLK2
  1

  9
$DIMSTYLE
  2
Standard
  9
$DIMCLRD
 70
     0
  9
$DIMCLRE
 70
     0
  9
$DIMCLRT
 70
     0
  9
$DIMTFAC
 40
1.0
  9
$DIMGAP
 40
0.09
  9
$DIMJUST
 70
     0
  9
$DIMSD1
 70
     0
  9
$DIMSD2
 70
     0
  9
$DIMTOLJ
 70
     1
  9
$DIMTZIN
 70
     0
  9
$DIMALTZ
 70
     0
  9
$DIMALTTZ
 70
     0
  9
$DIMUPT
 70
     0
  9
$DIMDEC
 70
     4
  9
$DIMTDEC
 70
     4
  9
$DIMALTU
 70
     2
  9
$DIMALTTD
 70
     2
  9
$DIMTXSTY
  7
Standard
  9
$DIMAUNIT
 70
     0
  9
$DIMADEC
 70
     0
  9
$DIMALTRND
 40
0.0
  9
$DIMAZIN
 70
     0
  9
$DIMDSEP
 70
    46
  9
$DIMATFIT
 70
     3
  9
$DIMFRAC
 70
     0
  9
$DIMLDRBLK
  1

  9
$DIMLUNIT
 70
     2
  9
$DIMLWD
 70
    -2
  9
$DIMLWE
 70
    -2
  9
$DIMTMOVE
 70
     0
  9
$DIMFXL
 40
1.0
  9
$DIMFXLON
 70
     0
  9
$DIMJOGANG
 40
0.7853981633974483
  9
$DIMTFILL
 70
     0
  9
$DIMTFILLCLR
 70
     0
  9
$DIMARCSYM
 70
     0
  9
$DIMLTYPE
  6

  9
$DIMLTEX1
  6

  9
$DIMLTEX2
  6

  9
$DIMTXTDIRECTION
 70
     0
  9
$LUNITS
 70
     2
  9
$LUPREC
 70
     4
  9
$SKETCHINC
 40
0.1
  9
$FILLETRAD
 40
0.5
  9
$AUNITS
 70
     0
  9
$AUPREC
 70
     0
  9
$MENU
  1
.
  9
$ELEVATION
 40
0.0
  9
$PELEVATION
 40
0.0
  9
$THICKNESS
 40
0.0
  9
$LIMCHECK
 70
     0
  9
$CHAMFERA
 40
0.5
  9
$CHAMFERB
 40
0.5
  9
$CHAMFERC
 40
1.0
  9
$CHAMFERD
 40
0.0
  9
$SKPOLY
 70
     0
  9
$TDCREATE
 40
2457917.585671296
  9
$TDUCREATE
 40
2457917.210671296
  9
$TDUPDATE
 40
2457917.585671296
  9
$TDUUPDATE
 40
2457917.210671296
  9
$TDINDWG
 40
0.0000000116
  9
$TDUSRTIMER
 40
0.0000000116
  9
$USRTIMER
 70
     1
  9
$ANGBASE
 50
0.0
  9
$ANGDIR
 70
     0
  9
$PDMODE
 70
     0
  9
$PDSIZE
 40
0.0
  9
$PLINEWID
 40
0.0
  9
$SPLFRAME
 70
     0
  9
$SPLINETYPE
 70
     6
  9
$SPLINESEGS
 70
     8
  9
$HANDSEED
  5
91
  9
$SURFTAB1
 70
     6
  9
$SURFTAB2
 70
     6
  9
$SURFTYPE
 70
     6
  9
$SURFU
 70
     6
  9
$SURFV
 70
     6
  9
$UCSBASE
  2

  9
$UCSNAME
  2

  9
$UCSORG
 10
0.0
 20
0.0
 30
0.0
  9
$UCSXDIR
 10
1.0
 20
0.0
 30
0.0
  9
$UCSYDIR
 10
0.0
 20
1.0
 30
0.0
  9
$UCSORTHOREF
  2

  9
$UCSORTHOVIEW
 70
     0
  9
$UCSORGTOP
 10
0.0
 20
0.0
 30
0.0
  9
$UCSORGBOTTOM
 10
0.0
 20
0.0
 30
0.0
  9
$UCSORGLEFT
 10
0.0
 20
0.0
 30
0.0
  9
$UCSORGRIGHT
 10
0.0
 20
0.0
 30
0.0
  9
$UCSORGFRONT
 10
0.0
 20
0.0
 30
0.0
  9
$UCSORGBACK
 10
0.0
 20
0.0
 30
0.0
  9
$PUCSBASE
  2

  9
$PUCSNAME
  2

  9
$PUCSORG
 10
0.0
 20
0.0
 30
0.0
  9
$PUCSXDIR
 10
1.0
 20
0.0
 30
0.0
  9
$PUCSYDIR
 10
0.0
 20
1.0
 30
0.0
  9
$PUCSORTHOREF
  2

  9
$PUCSORTHOVIEW
 70
     0
  9
$PUCSORGTOP
 10
0.0
 20
0.0
 30
0.0
  9
$PUCSORGBOTTOM
 10
0.0
 20
0.0
 30
0.0
  9
$PUCSORGLEFT
 10
0.0
 20
0.0
 30
0.0
  9
$PUCSORGRIGHT
 10
0.0
 20
0.0
 30
0.0
  9
$PUCSORGFRONT
 10
0.0
 20
0.0
 30
0.0
  9
$PUCSORGBACK
 10
0.0
 20
0.0
 30
0.0
  9
$USERI1
 70
     0
  9
$USERI2
 70
     0
  9
$USERI3
 70
     0
  9
$USERI4
 70
     0
  9
$USERI5
 70
     0
  9
$USERR1
 40
0.0
  9
$USERR2
 40
0.0
  9
$USERR3
 40
0.0
  9
$USERR4
 40
0.0
  9
$USERR5
 40
0.0
  9
$WORLDVIEW
 70
     1
  9
$SHADEDGE
 70
     3
  9
$SHADEDIF
 70
    70
  9
$TILEMODE
 70
     1
  9
$MAXACTVP
 70
    64
  9
$PINSBASE
 10
0.0
 20
0.0
 30
0.0
  9
$PLIMCHECK
 70
     0
  9
$PEXTMIN
 10
1.000000000000000E+20
 20
1.000000000000000E+20
 30
1.000000000000000E+20
  9
$PEXTMAX
 10
-1.000000000000000E+20
 20
-1.000000000000000E+20
 30
-1.000000000000000E+20
  9
$PLIMMIN
 10
0.0
 20
0.0
  9
$PLIMMAX
 10
12.0
 20
9.0
  9
$UNITMODE
 70
     0
  9
$VISRETAIN
 70
     1
  9
$PLINEGEN
 70
     0
  9
$PSLTSCALE
 70
     1
  9
$TREEDEPTH
 70
  3020
  9
$CMLSTYLE
  2
Standard
  9
$CMLJUST
 70
     0
  9
$CMLSCALE
 40
1.0
  9
$PROXYGRAPHICS
 70
     1
  9
$MEASUREMENT
 70
     0
  9
$CELWEIGHT
370
    -1
  9
$ENDCAPS
280
     0
  9
$JOINSTYLE
280
     0
  9
$LWDISPLAY
290
     1
  9
$INSUNITS
 70
     1
  9
$HYPERLINKBASE
  1

  9
$STYLESHEET
  1

  9
$XEDIT
290
     1
  9
$CEPSNTYPE
380
     0
  9
$PSTYLEMODE
290
     1
  9
$FINGERPRINTGUID
  2
{AF73205C-DB4A-32FA-F823-71C3B5CF7426}
  9
$VERSIONGUID
  2
{FAEB1C32-E019-11D5-929B-00C0DF256EC4}
  9
$EXTNAMES
290
     1
  9
$PSVPSCALE
 40
0.0
  9
$OLESTARTUP
290
     0
  9
$SORTENTS
280
   127
  9
$INDEXCTL
280
     0
  9
$HIDETEXT
280
     1
  9
$XCLIPFRAME
280
     2
  9
$HALOGAP
280
     0
  9
$OBSCOLOR
 70
   257
  9
$OBSLTYPE
280
     0
  9
$INTERSECTIONDISPLAY
280
     0
  9
$INTERSECTIONCOLOR
 70
   257
  9
$DIMASSOC
280
     2
  9
$PROJECTNAME
  1

  9
$CAMERADISPLAY
290
     0
  9
$LENSLENGTH
 40
50.0
  9
$CAMERAHEIGHT
 40
0.0
  9
$STEPSPERSEC
 40
2.0
  9
$STEPSIZE
 40
6.0
  9
$3DDWFPREC
 40
2.0
  9
$PSOLWIDTH
 40
0.25
  9
$PSOLHEIGHT
 40
4.0
  9
$LOFTANG1
 40
1.570796326794897
  9
$LOFTANG2
 40
1.570796326794897
  9
$LOFTMAG1
 40
0.0
  9
$LOFTMAG2
 40
0.0
  9
$LOFTPARAM
 70
     7
  9
$LOFTNORMALS
280
     1
  9
$LATITUDE
 40
37.795
  9
$LONGITUDE
 40
-122.394
  9
$NORTHDIRECTION
 40
0.0
  9
$TIMEZONE
 70
 -8000
  9
$LIGHTGLYPHDISPLAY
280
     1
  9
$TILEMODELIGHTSYNCH
280
     1
  9
$CMATERIAL
347
3C
  9
$SOLIDHIST
280
     1
  9
$SHOWHIST
280
     1
  9
$DWFFRAME
280
     2
  9
$DGNFRAME
280
     2
  9
$REALWORLDSCALE
290
     1
  9
$INTERFERECOLOR
 62
   256
  9
$CSHADOW
280
     0
  9
$SHADOWPLANELOCATION
 40
0.0
  0
ENDSEC
  0
SECTION
  2
CLASSES
  0
CLASS
  1
ACDBDICTIONARYWDFLT
  2
AcDbDictionaryWithDefault
  3
ObjectDBX Classes
 90
        0
 91
        4
280
     0
281
     0
  0
CLASS
  1
VISUALSTYLE
  2
AcDbVisualStyle
  3
ObjectDBX Classes
 90
     4095
 91
        4
280
     0
281
     0
  0
CLASS
  1
MATERIAL
  2
AcDbMaterial
  3
ObjectDBX Classes
 90
     1153
 91
        4
280
     0
281
     0
  0
CLASS
  1
SUN
  2
AcDbSun
  3
SCENEOE
 90
     1024
 91
        4
280
     0
281
     0
  0
ENDSEC
  0
SECTION
  2
TABLES
  0
TABLE
  2
VPORT
  5
8
330
0
100
AcDbSymbolTable
 70
     1
  0
VPORT
  5
29
330
8
100
AcDbSymbolTableRecord
100
AcDbViewportTableRecord
  2
*Active
 70
     0
 10
0.0
 20
0.0
 11
1.0
 21
1.0
 12
0.0
 22
0.0
 13
0.0
 23
0.0
 14
0.5
 24
0.5
 15
0.5
 25
0.5
 16
0.0
 26
0.0
 36
1.0
 17
91.00082462281999
 27
-128.4993055234307
 37
0.0
 40
256.9986110468615
 41
0.7081814508812795
 42
50.0
 43
0.0
 44
0.0
 50
0.0
 51
0.0
 71
     0
 72
   100
 73
     1
 74
     3
 75
     0
 76
     0
 77
     0
 78
     0
281
     0
 65
     1
110
0.0
120
0.0
130
0.0
111
1.0
121
0.0
131
0.0
112
0.0
122
1.0
132
0.0
 79
     0
146
0.0
 60
     3
 61
     5
292
     1
282
     1
141
0.0
142
0.0
 63
   250
361
3F
  0
ENDTAB
  0
TABLE
  2
LTYPE
  5
5
330
0
100
AcDbSymbolTable
 70
     1
  0
LTYPE
  5
14
330
5
100
AcDbSymbolTableRecord
100
AcDbLinetypeTableRecord
  2
ByBlock
 70
     0
  3

 72
    65
 73
     0
 40
0.0
  0
LTYPE
  5
15
330
5
100
AcDbSymbolTableRecord
100
AcDbLinetypeTableRecord
  2
ByLayer
 70
     0
  3

 72
    65
 73
     0
 40
0.0
  0
LTYPE
  5
16
330
5
100
AcDbSymbolTableRecord
100
AcDbLinetypeTableRecord
  2
Continuous
 70
     0
  3
Solid line
 72
    65
 73
     0
 40
0.0
  0
ENDTAB
  0
TABLE
  2
LAYER
  5
2
330
0
100
AcDbSymbolTable
 70
     2
  0
LAYER
  5
10
330
2
100
AcDbSymbolTableRecord
100
AcDbLayerTableRecord
  2
0
 70
     0
 62
     7
  6
Continuous
370
    -3
390
F
347
3E
  0
LAYER
  5
40
330
2
100
AcDbSymbolTableRecord
100
AcDbLayerTableRecord
  2
_U+30EC_U+30A4_U+30E4_U+30FC 1
 70
     0
 62
     7
  6
Continuous
370
    -3
390
F
347
3E
  0
ENDTAB
  0
TABLE
  2
STYLE
  5
3
330
0
100
AcDbSymbolTable
 70
     1
  0
STYLE
  5
11
330
3
100
AcDbSymbolTableRecord
100
AcDbTextStyleTableRecord
  2
Standard
 70
     0
 40
0.0
 41
1.0
 50
0.0
 71
     0
 42
0.2
  3
txt
  4

  0
ENDTAB
  0
TABLE
  2
VIEW
  5
6
330
0
100
AcDbSymbolTable
 70
     0
  0
ENDTAB
  0
TABLE
  2
UCS
  5
7
330
0
100
AcDbSymbolTable
 70
     0
  0
ENDTAB
  0
TABLE
  2
APPID
  5
9
330
0
100
AcDbSymbolTable
 70
     1
  0
APPID
  5
12
330
9
100
AcDbSymbolTableRecord
100
AcDbRegAppTableRecord
  2
ACAD
 70
     0
  0
ENDTAB
  0
TABLE
  2
DIMSTYLE
  5
A
330
0
100
AcDbSymbolTable
 70
     1
100
AcDbDimStyleTable
  0
DIMSTYLE
105
27
330
A
100
AcDbSymbolTableRecord
100
AcDbDimStyleTableRecord
  2
Standard
 70
     0
178
     0
340
11
  0
ENDTAB
  0
TABLE
  2
BLOCK_RECORD
  5
1
330
0
100
AcDbSymbolTable
 70
     5
  0
BLOCK_RECORD
  5
1F
330
1
100
AcDbSymbolTableRecord
100
AcDbBlockTableRecord
  2
*Model_Space
340
22
 70
     0
280
     1
281
     0
  0
BLOCK_RECORD
  5
1B
330
1
100
AcDbSymbolTableRecord
100
AcDbBlockTableRecord
  2
*Paper_Space
340
1E
 70
     0
280
     1
281
     0
  0
BLOCK_RECORD
  5
23
330
1
100
AcDbSymbolTableRecord
100
AcDbBlockTableRecord
  2
*Paper_Space0
340
26
 70
     0
280
     1
281
     0
  0
BLOCK_RECORD
  5
41
330
1
100
AcDbSymbolTableRecord
100
AcDbBlockTableRecord
  2
block 2
340
0
102
{BLKREFS
331
42
102
}
 70
     0
280
     1
281
     0
  0
BLOCK_RECORD
  5
5D
330
1
100
AcDbSymbolTableRecord
100
AcDbBlockTableRecord
  2
block 3
340
0
102
{BLKREFS
331
5E
102
}
 70
     0
280
     1
281
     0
  0
BLOCK_RECORD
  5
65
330
1
100
AcDbSymbolTableRecord
100
AcDbBlockTableRecord
  2
block 4
340
0
102
{BLKREFS
331
66
102
}
 70
     0
280
     1
281
     0
  0
BLOCK_RECORD
  5
79
330
1
100
AcDbSymbolTableRecord
100
AcDbBlockTableRecord
  2
block 5
340
0
102
{BLKREFS
331
7A
102
}
 70
     0
280
     1
281
     0
  0
ENDTAB
  0
ENDSEC
  0
SECTION
  2
BLOCKS
  0
BLOCK
  5
20
330
1F
100
AcDbEntity
  8
0
100
AcDbBlockBegin
  2
*Model_Space
 70
     0
 10
0.0
 20
0.0
 30
0.0
  3
*Model_Space
  1

  0
ENDBLK
  5
21
330
1F
100
AcDbEntity
  8
0
100
AcDbBlockEnd
  0
BLOCK
  5
1C
330
1B
100
AcDbEntity
 67
     1
  8
0
100
AcDbBlockBegin
  2
*Paper_Space
 70
     0
 10
0.0
 20
0.0
 30
0.0
  3
*Paper_Space
  1

  0
ENDBLK
  5
1D
330
1B
100
AcDbEntity
 67
     1
  8
0
100
AcDbBlockEnd
  0
BLOCK
  5
24
330
23
100
AcDbEntity
  8
0
100
AcDbBlockBegin
  2
*Paper_Space0
 70
     0
 10
0.0
 20
0.0
 30
0.0
  3
*Paper_Space0
  1

  0
ENDBLK
  5
25
330
23
100
AcDbEntity
  8
0
100
AcDbBlockEnd
  0
BLOCK
  5
43
330
41
100
AcDbEntity
  8
0
100
AcDbBlockBegin
  2
block 2
 70
     0
 10
0.0
 20
0.0
 30
0.0
  3
block 2
  1

  0
POLYLINE
  5
45
330
41
100
AcDbEntity
  8
_U+30EC_U+30A4_U+30E4_U+30FC 1
370
     0
100
AcDb2dPolyline
 66
     1
 10
0.0
 20
0.0
 30
0.0
  0
VERTEX
  5
46
330
45
100
AcDbEntity
  8
_U+30EC_U+30A4_U+30E4_U+30FC 1
370
     0
100
AcDbVertex
100
AcDb2dVertex
 10
73.84630006046838
 20
-108.2065046951706
 30
0.0
  0
VERTEX
  5
47
330
45
100
AcDbEntity
  8
_U+30EC_U+30A4_U+30E4_U+30FC 1
370
     0
100
AcDbVertex
100
AcDb2dVertex
 10
113.7956307079427
 20
-108.2065046951706
 30
0.0
  0
VERTEX
  5
48
330
45
100
AcDbEntity
  8
_U+30EC_U+30A4_U+30E4_U+30FC 1
370
     0
100
AcDbVertex
100
AcDb2dVertex
 10
113.7956307079427
 20
-148.5290752406454
 30
0.0
  0
VERTEX
  5
49
330
45
100
AcDbEntity
  8
_U+30EC_U+30A4_U+30E4_U+30FC 1
370
     0
100
AcDbVertex
100
AcDb2dVertex
 10
73.84630006046838
 20
-148.5290752406454
 30
0.0
  0
VERTEX
  5
4A
330
45
100
AcDbEntity
  8
_U+30EC_U+30A4_U+30E4_U+30FC 1
370
     0
100
AcDbVertex
100
AcDb2dVertex
 10
73.84630006046838
 20
-108.2065046951706
 30
0.0
  0
SEQEND
  5
4B
330
45
100
AcDbEntity
  8
_U+30EC_U+30A4_U+30E4_U+30FC 1
370
     0
  0
SPLINE
  5
4C
330
41
100
AcDbEntity
  8
_U+30EC_U+30A4_U+30E4_U+30FC 1
 62
   179
420
  2234388
370
    25
100
AcDbSpline
210
0.0
220
0.0
230
1.0
 70
    11
 71
     3
 72
    80
 73
    76
 74
     0
 42
0.0000000001
 43
0.0000000001
 12
1.0
 22
0.0
 32
0.0
 13
1.0
 23
0.0
 33
0.0
 40
0.0
 40
0.0
 40
0.0
 40
0.0
 40
1.0
 40
1.0
 40
1.0
 40
2.0
 40
2.0
 40
2.0
 40
3.0
 40
3.0
 40
3.0
 40
4.0
 40
4.0
 40
4.0
 40
5.0
 40
5.0
 40
5.0
 40
6.0
 40
6.0
 40
6.0
 40
7.0
 40
7.0
 40
7.0
 40
8.0
 40
8.0
 40
8.0
 40
9.0
 40
9.0
 40
9.0
 40
10.0
 40
10.0
 40
10.0
 40
11.0
 40
11.0
 40
11.0
 40
12.0
 40
12.0
 40
12.0
 40
13.0
 40
13.0
 40
13.0
 40
14.0
 40
14.0
 40
14.0
 40
15.0
 40
15.0
 40
15.0
 40
16.0
 40
16.0
 40
16.0
 40
17.0
 40
17.0
 40
17.0
 40
18.0
 40
18.0
 40
18.0
 40
19.0
 40
19.0
 40
19.0
 40
20.0
 40
20.0
 40
20.0
 40
21.0
 40
21.0
 40
21.0
 40
22.0
 40
22.0
 40
22.0
 40
23.0
 40
23.0
 40
23.0
 40
24.0
 40
24.0
 40
24.0
 40
25.0
 40
25.0
 40
25.0
 40
25.0
 10
75.61777362638543
 20
-147.6926391297437
 30
0.0
 10
75.61777362638543
 20
-147.6926391297437
 30
0.0
 10
87.70884359569432
 20
-147.6926391297437
 30
0.0
 10
87.70884359569432
 20
-147.6926391297437
 30
0.0
 10
87.93003525671791
 20
-147.6926391297437
 30
0.0
 10
88.10899941881883
 20
-147.513463296455
 30
0.0
 10
88.10899941881883
 20
-147.292977185399
 30
0.0
 10
88.10899941881883
 20
-147.292977185399
 30
0.0
 10
88.10899941881883
 20
-141.7925366312185
 30
0.0
 10
88.10899941881883
 20
-141.7925366312185
 30
0.0
 10
88.10899941881883
 20
-141.3508941313292
 30
0.0
 10
88.47228996510606
 20
-140.9926130203074
 30
0.0
 10
88.9139677316157
 20
-140.9926130203074
 30
0.0
 10
88.9139677316157
 20
-140.9926130203074
 30
0.0
 10
103.9137256822733
 20
-140.9926130203074
 30
0.0
 10
103.9137256822733
 20
-140.9926130203074
 30
0.0
 10
103.9137256822733
 20
-140.9926130203074
 30
0.0
 10
103.9137256822733
 20
-141.7973696867727
 30
0.0
 10
103.9137256822733
 20
-141.7973696867727
 30
0.0
 10
103.9137256822733
 20
-141.7973696867727
 30
0.0
 10
89.31288883254949
 20
-141.7973696867727
 30
0.0
 10
89.31288883254949
 20
-141.7973696867727
 30
0.0
 10
89.09240272706344
 20
-141.7973696867727
 30
0.0
 10
88.9139677316157
 20
-141.9758399645059
 30
0.0
 10
88.9139677316157
 20
-142.1969963533399
 30
0.0
 10
88.9139677316157
 20
-142.1969963533399
 30
0.0
 10
88.9139677316157
 20
-147.6926391297437
 30
0.0
 10
88.9139677316157
 20
-147.6926391297437
 30
0.0
 10
88.9139677316157
 20
-148.1342816296331
 30
0.0
 10
88.55565135186822
 20
-148.4925627406548
 30
0.0
 10
88.1140110890826
 20
-148.4925627406548
 30
0.0
 10
88.1140110890826
 20
-148.4925627406548
 30
0.0
 10
74.71378059389266
 20
-148.4925627406548
 30
0.0
 10
74.71378059389266
 20
-148.4925627406548
 30
0.0
 10
74.2721381051599
 20
-148.4925627406548
 30
0.0
 10
73.91382172541242
 20
-148.1349871851886
 30
0.0
 10
73.91382172541242
 20
-147.6926391297437
 30
0.0
 10
73.91382172541242
 20
-147.6926391297437
 30
0.0
 10
73.91382172541242
 20
-134.2925869108711
 30
0.0
 10
73.91382172541242
 20
-134.2925869108711
 30
0.0
 10
73.91382172541242
 20
-133.8509091332042
 30
0.0
 10
74.2721381051599
 20
-133.4926280221825
 30
0.0
 10
74.71378059389266
 20
-133.4926280221825
 30
0.0
 10
74.71378059389266
 20
-133.4926280221825
 30
0.0
 10
80.00784601438535
 20
-133.4926280221825
 30
0.0
 10
80.00784601438535
 20
-133.4926280221825
 30
0.0
 10
80.22903767540895
 20
-133.4926280221825
 30
0.0
 10
80.4088837819318
 20
-133.3127819111164
 30
0.0
 10
80.4088837819318
 20
-133.0922958000604
 30
0.0
 10
80.4088837819318
 20
-133.0922958000604
 30
0.0
 10
80.41385794847157
 20
-118.4923405259323
 30
0.0
 10
80.41385794847157
 20
-118.4923405259323
 30
0.0
 10
80.41385794847157
 20
-118.4923405259323
 30
0.0
 10
81.21399320583619
 20
-118.4923405259323
 30
0.0
 10
81.21399320583619
 20
-118.4923405259323
 30
0.0
 10
81.21399320583619
 20
-118.4923405259323
 30
0.0
 10
81.21399320583619
 20
-133.4926280221825
 30
0.0
 10
81.21399320583619
 20
-133.4926280221825
 30
0.0
 10
81.21399320583619
 20
-133.93430579985
 30
0.0
 10
80.85553571498122
 20
-134.2973846886477
 30
0.0
 10
80.41385794847157
 20
-134.2973846886477
 30
0.0
 10
80.41385794847157
 20
-134.2973846886477
 30
0.0
 10
75.113407250364
 20
-134.2973846886477
 30
0.0
 10
75.113407250364
 20
-134.2973846886477
 30
0.0
 10
74.89292114487796
 20
-134.2973846886477
 30
0.0
 10
74.71378059389266
 20
-134.475854966381
 30
0.0
 10
74.71378059389266
 20
-134.6970466329925
 30
0.0
 10
74.71378059389266
 20
-134.6970466329925
 30
0.0
 10
74.71378059389266
 20
-147.2881794076224
 30
0.0
 10
74.71378059389266
 20
-147.2881794076224
 30
0.0
 10
74.71378059389266
 20
-147.5086655186783
 30
0.0
 10
74.89292114487796
 20
-147.6878060741889
 30
0.0
 10
75.113407250364
 20
-147.6878060741889
 30
0.0
 10
75.113407250364
 20
-147.6878060741889
 30
0.0
 10
75.61777362638543
 20
-147.6926391297437
 30
0.0
 10
75.61777362638543
 20
-147.6926391297437
 30
0.0
  0
ENDBLK
  5
44
330
41
100
AcDbEntity
  8
0
100
AcDbBlockEnd
  0
BLOCK
  5
5F
330
5D
100
AcDbEntity
  8
0
100
AcDbBlockBegin
  2
block 3
 70
     0
 10
0.0
 20
0.0
 30
0.0
  3
block 3
  1

  0
SPLINE
  5
61
330
5D
100
AcDbEntity
  8
_U+30EC_U+30A4_U+30E4_U+30FC 1
370
     0
100
AcDbSpline
210
0.0
220
0.0
230
1.0
 70
    11
 71
     3
 72
    26
 73
    22
 74
     0
 42
0.0000000001
 43
0.0000000001
 12
1.0
 22
0.0
 32
0.0
 13
1.0
 23
0.0
 33
0.0
 40
0.0
 40
0.0
 40
0.0
 40
0.0
 40
1.0
 40
1.0
 40
1.0
 40
2.0
 40
2.0
 40
2.0
 40
3.0
 40
3.0
 40
3.0
 40
4.0
 40
4.0
 40
4.0
 40
5.0
 40
5.0
 40
5.0
 40
6.0
 40
6.0
 40
6.0
 40
7.0
 40
7.0
 40
7.0
 40
7.0
 10
69.94852971341565
 20
-141.5510497692997
 30
0.0
 10
69.94852971341565
 20
-141.5510497692997
 30
0.0
 10
68.84420435561881
 20
-141.5510497692997
 30
0.0
 10
68.84420435561881
 20
-141.5510497692997
 30
0.0
 10
68.84420435561881
 20
-141.5510497692997
 30
0.0
 10
68.84420435561881
 20
-141.8400932805122
 30
0.0
 10
68.84420435561881
 20
-141.8400932805122
 30
0.0
 10
68.84420435561881
 20
-141.8400932805122
 30
0.0
 10
68.69606524975308
 20
-141.8400932805122
 30
0.0
 10
68.69606524975308
 20
-141.8400932805122
 30
0.0
 10
68.68142359394076
 20
-141.5493272215571
 30
0.0
 10
68.51847057748844
 20
-141.5083305852826
 30
0.0
 10
68.40426566215241
 20
-141.4824923691433
 30
0.0
 10
68.40426566215241
 20
-141.4824923691433
 30
0.0
 10
68.40426566215241
 20
-141.3546793266405
 30
0.0
 10
68.40426566215241
 20
-141.3546793266405
 30
0.0
 10
68.40426566215241
 20
-141.3546793266405
 30
0.0
 10
69.94852971341565
 20
-141.3546793266405
 30
0.0
 10
69.94852971341565
 20
-141.3546793266405
 30
0.0
 10
69.94852971341565
 20
-141.3546793266405
 30
0.0
 10
69.94852971341565
 20
-141.5510497692997
 30
0.0
 10
69.94852971341565
 20
-141.5510497692997
 30
0.0
  0
HATCH
  5
62
330
5D
100
AcDbEntity
  8
_U+30EC_U+30A4_U+30E4_U+30FC 1
 62
     7
420
 16777215
100
AcDbHatch
 10
0.0
 20
0.0
 30
0.0
210
0.0
220
0.0
230
1.0
  2
SOLID
 70
     1
 71
     0
 91
        1
 92
        1
 93
        1
 72
     4
 94
        3
 73
     0
 74
     1
 95
       26
 96
       22
 40
0.0
 40
0.0
 40
0.0
 40
0.0
 40
1.0
 40
1.0
 40
1.0
 40
2.0
 40
2.0
 40
2.0
 40
3.0
 40
3.0
 40
3.0
 40
4.0
 40
4.0
 40
4.0
 40
5.0
 40
5.0
 40
5.0
 40
6.0
 40
6.0
 40
6.0
 40
7.0
 40
7.0
 40
7.0
 40
7.0
 10
69.94852971341565
 20
-141.5510497692997
 10
69.94852971341565
 20
-141.5510497692997
 10
68.84420435561881
 20
-141.5510497692997
 10
68.84420435561881
 20
-141.5510497692997
 10
68.84420435561881
 20
-141.5510497692997
 10
68.84420435561881
 20
-141.8400932805122
 10
68.84420435561881
 20
-141.8400932805122
 10
68.84420435561881
 20
-141.8400932805122
 10
68.69606524975308
 20
-141.8400932805122
 10
68.69606524975308
 20
-141.8400932805122
 10
68.68142359394076
 20
-141.5493272215571
 10
68.51847057748844
 20
-141.5083305852826
 10
68.40426566215241
 20
-141.4824923691433
 10
68.40426566215241
 20
-141.4824923691433
 10
68.40426566215241
 20
-141.3546793266405
 10
68.40426566215241
 20
-141.3546793266405
 10
68.40426566215241
 20
-141.3546793266405
 10
69.94852971341565
 20
-141.3546793266405
 10
69.94852971341565
 20
-141.3546793266405
 10
69.94852971341565
 20
-141.3546793266405
 10
69.94852971341565
 20
-141.5510497692997
 10
69.94852971341565
 20
-141.5510497692997
 97
        0
 97
        0
 75
     2
 76
     1
 98
        0
  0
SPLINE
  5
63
330
5D
100
AcDbEntity
  8
_U+30EC_U+30A4_U+30E4_U+30FC 1
370
     0
100
AcDbSpline
210
0.0
220
0.0
230
1.0
 70
    11
 71
     3
 72
    53
 73
    49
 74
     0
 42
0.0000000001
 43
0.0000000001
 12
1.0
 22
0.0
 32
0.0
 13
1.0
 23
0.0
 33
0.0
 40
0.0
 40
0.0
 40
0.0
 40
0.0
 40
1.0
 40
1.0
 40
1.0
 40
2.0
 40
2.0
 40
2.0
 40
3.0
 40
3.0
 40
3.0
 40
4.0
 40
4.0
 40
4.0
 40
5.0
 40
5.0
 40
5.0
 40
6.0
 40
6.0
 40
6.0
 40
7.0
 40
7.0
 40
7.0
 40
8.0
 40
8.0
 40
8.0
 40
9.0
 40
9.0
 40
9.0
 40
10.0
 40
10.0
 40
10.0
 40
11.0
 40
11.0
 40
11.0
 40
12.0
 40
12.0
 40
12.0
 40
13.0
 40
13.0
 40
13.0
 40
14.0
 40
14.0
 40
14.0
 40
15.0
 40
15.0
 40
15.0
 40
16.0
 40
16.0
 40
16.0
 40
16.0
 10
69.99934487182308
 20
-140.4944389839736
 30
0.0
 10
69.99934487182308
 20
-140.5626518745816
 30
0.0
 10
69.98246390394536
 20
-140.651535338101
 30
0.0
 10
69.9189018922425
 20
-140.7404188016205
 30
0.0
 10
69.80883109148877
 20
-140.89234751252
 30
0.0
 10
69.67774520827501
 20
-140.9109510281403
 30
0.0
 10
69.5699137195867
 20
-140.9278319960181
 30
0.0
 10
69.5699137195867
 20
-140.9278319960181
 30
0.0
 10
69.5699137195867
 20
-140.7331841011014
 30
0.0
 10
69.5699137195867
 20
-140.7331841011014
 30
0.0
 10
69.76869572908561
 20
-140.6849527643079
 30
0.0
 10
69.79832355025876
 20
-140.5740206896829
 30
0.0
 10
69.79832355025876
 20
-140.4923719266825
 30
0.0
 10
69.79832355025876
 20
-140.3704155465046
 30
0.0
 10
69.6989325455093
 20
-140.2367458416769
 30
0.0
 10
69.46621634548067
 20
-140.2367458416769
 30
0.0
 10
69.2102457509266
 20
-140.2367458416769
 30
0.0
 10
69.1404825673503
 20
-140.3945312149014
 30
0.0
 10
69.1404825673503
 20
-140.49995113675
 30
0.0
 10
69.1404825673503
 20
-140.527511900632
 30
0.0
 10
69.1404825673503
 20
-140.651535338101
 30
0.0
 10
69.2695013932729
 20
-140.7293944960677
 30
0.0
 10
69.2695013932729
 20
-140.7293944960677
 30
0.0
 10
69.25038111332977
 20
-140.8830457547098
 30
0.0
 10
69.25038111332977
 20
-140.8830457547098
 30
0.0
 10
69.25038111332977
 20
-140.8830457547098
 30
0.0
 10
68.40426566215241
 20
-140.7776258328612
 30
0.0
 10
68.40426566215241
 20
-140.7776258328612
 30
0.0
 10
68.40426566215241
 20
-140.7776258328612
 30
0.0
 10
68.40426566215241
 20
-140.0961859458787
 30
0.0
 10
68.40426566215241
 20
-140.0961859458787
 30
0.0
 10
68.40426566215241
 20
-140.0961859458787
 30
0.0
 10
68.59891355706903
 20
-140.0961859458787
 30
0.0
 10
68.59891355706903
 20
-140.0961859458787
 30
0.0
 10
68.59891355706903
 20
-140.0961859458787
 30
0.0
 10
68.59891355706903
 20
-140.6349988797718
 30
0.0
 10
68.59891355706903
 20
-140.6349988797718
 30
0.0
 10
68.59891355706903
 20
-140.6349988797718
 30
0.0
 10
69.0219712826577
 20
-140.6925319743755
 30
0.0
 10
69.0219712826577
 20
-140.6925319743755
 30
0.0
 10
68.988037092128
 20
-140.6387884848056
 30
0.0
 10
68.94790172972483
 20
-140.5664414796153
 30
0.0
 10
68.94790172972483
 20
-140.4627441055093
 30
0.0
 10
68.94790172972483
 20
-140.2405354467107
 30
0.0
 10
69.13410914070259
 20
-140.0331406984987
 30
0.0
 10
69.44709606553754
 20
-140.0331406984987
 30
0.0
 10
69.76456161450331
 20
-140.0331406984987
 30
0.0
 10
69.99934487182308
 20
-140.2295111411579
 30
0.0
 10
69.99934487182308
 20
-140.4944389839736
 30
0.0
  0
HATCH
  5
64
330
5D
100
AcDbEntity
  8
_U+30EC_U+30A4_U+30E4_U+30FC 1
 62
     7
420
 16777215
100
AcDbHatch
 10
0.0
 20
0.0
 30
0.0
210
0.0
220
0.0
230
1.0
  2
SOLID
 70
     1
 71
     0
 91
        1
 92
        1
 93
        1
 72
     4
 94
        3
 73
     0
 74
     1
 95
       53
 96
       49
 40
0.0
 40
0.0
 40
0.0
 40
0.0
 40
1.0
 40
1.0
 40
1.0
 40
2.0
 40
2.0
 40
2.0
 40
3.0
 40
3.0
 40
3.0
 40
4.0
 40
4.0
 40
4.0
 40
5.0
 40
5.0
 40
5.0
 40
6.0
 40
6.0
 40
6.0
 40
7.0
 40
7.0
 40
7.0
 40
8.0
 40
8.0
 40
8.0
 40
9.0
 40
9.0
 40
9.0
 40
10.0
 40
10.0
 40
10.0
 40
11.0
 40
11.0
 40
11.0
 40
12.0
 40
12.0
 40
12.0
 40
13.0
 40
13.0
 40
13.0
 40
14.0
 40
14.0
 40
14.0
 40
15.0
 40
15.0
 40
15.0
 40
16.0
 40
16.0
 40
16.0
 40
16.0
 10
69.99934487182308
 20
-140.4944389839736
 10
69.99934487182308
 20
-140.5626518745816
 10
69.98246390394536
 20
-140.651535338101
 10
69.9189018922425
 20
-140.7404188016205
 10
69.80883109148877
 20
-140.89234751252
 10
69.67774520827501
 20
-140.9109510281403
 10
69.5699137195867
 20
-140.9278319960181
 10
69.5699137195867
 20
-140.9278319960181
 10
69.5699137195867
 20
-140.7331841011014
 10
69.5699137195867
 20
-140.7331841011014
 10
69.76869572908561
 20
-140.6849527643079
 10
69.79832355025876
 20
-140.5740206896829
 10
69.79832355025876
 20
-140.4923719266825
 10
69.79832355025876
 20
-140.3704155465046
 10
69.6989325455093
 20
-140.2367458416769
 10
69.46621634548067
 20
-140.2367458416769
 10
69.2102457509266
 20
-140.2367458416769
 10
69.1404825673503
 20
-140.3945312149014
 10
69.1404825673503
 20
-140.49995113675
 10
69.1404825673503
 20
-140.527511900632
 10
69.1404825673503
 20
-140.651535338101
 10
69.2695013932729
 20
-140.7293944960677
 10
69.2695013932729
 20
-140.7293944960677
 10
69.25038111332977
 20
-140.8830457547098
 10
69.25038111332977
 20
-140.8830457547098
 10
69.25038111332977
 20
-140.8830457547098
 10
68.40426566215241
 20
-140.7776258328612
 10
68.40426566215241
 20
-140.7776258328612
 10
68.40426566215241
 20
-140.7776258328612
 10
68.40426566215241
 20
-140.0961859458787
 10
68.40426566215241
 20
-140.0961859458787
 10
68.40426566215241
 20
-140.0961859458787
 10
68.59891355706903
 20
-140.0961859458787
 10
68.59891355706903
 20
-140.0961859458787
 10
68.59891355706903
 20
-140.0961859458787
 10
68.59891355706903
 20
-140.6349988797718
 10
68.59891355706903
 20
-140.6349988797718
 10
68.59891355706903
 20
-140.6349988797718
 10
69.0219712826577
 20
-140.6925319743755
 10
69.0219712826577
 20
-140.6925319743755
 10
68.988037092128
 20
-140.6387884848056
 10
68.94790172972483
 20
-140.5664414796153
 10
68.94790172972483
 20
-140.4627441055093
 10
68.94790172972483
 20
-140.2405354467107
 10
69.13410914070259
 20
-140.0331406984987
 10
69.44709606553754
 20
-140.0331406984987
 10
69.76456161450331
 20
-140.0331406984987
 10
69.99934487182308
 20
-140.2295111411579
 10
69.99934487182308
 20
-140.4944389839736
 97
        0
 97
        0
 75
     2
 76
     1
 98
        0
  0
ENDBLK
  5
60
330
5D
100
AcDbEntity
  8
0
100
AcDbBlockEnd
  0
BLOCK
  5
67
330
65
100
AcDbEntity
  8
0
100
AcDbBlockBegin
  2
block 4
 70
     0
 10
0.0
 20
0.0
 30
0.0
  3
block 4
  1

  0
SPLINE
  5
69
330
65
100
AcDbEntity
  8
_U+30EC_U+30A4_U+30E4_U+30FC 1
370
     0
100
AcDbSpline
210
0.0
220
0.0
230
1.0
 70
    11
 71
     3
 72
    26
 73
    22
 74
     0
 42
0.0000000001
 43
0.0000000001
 12
1.0
 22
0.0
 32
0.0
 13
1.0
 23
0.0
 33
0.0
 40
0.0
 40
0.0
 40
0.0
 40
0.0
 40
1.0
 40
1.0
 40
1.0
 40
2.0
 40
2.0
 40
2.0
 40
3.0
 40
3.0
 40
3.0
 40
4.0
 40
4.0
 40
4.0
 40
5.0
 40
5.0
 40
5.0
 40
6.0
 40
6.0
 40
6.0
 40
7.0
 40
7.0
 40
7.0
 40
7.0
 10
69.94835745864138
 20
-126.551104026522
 30
0.0
 10
69.94835745864138
 20
-126.551104026522
 30
0.0
 10
68.84403210084454
 20
-126.551104026522
 30
0.0
 10
68.84403210084454
 20
-126.551104026522
 30
0.0
 10
68.84403210084454
 20
-126.551104026522
 30
0.0
 10
68.84403210084454
 20
-126.8399752829602
 30
0.0
 10
68.84403210084454
 20
-126.8399752829602
 30
0.0
 10
68.84403210084454
 20
-126.8399752829602
 30
0.0
 10
68.6958929949788
 20
-126.8399752829602
 30
0.0
 10
68.6958929949788
 20
-126.8399752829602
 30
0.0
 10
68.6812513391665
 20
-126.5492092240051
 30
0.0
 10
68.51829832271417
 20
-126.5083848425049
 30
0.0
 10
68.40409340737814
 20
-126.4825466263655
 30
0.0
 10
68.40409340737814
 20
-126.4825466263655
 30
0.0
 10
68.40409340737814
 20
-126.3547335838627
 30
0.0
 10
68.40409340737814
 20
-126.3547335838627
 30
0.0
 10
68.40409340737814
 20
-126.3547335838627
 30
0.0
 10
69.94835745864138
 20
-126.3547335838627
 30
0.0
 10
69.94835745864138
 20
-126.3547335838627
 30
0.0
 10
69.94835745864138
 20
-126.3547335838627
 30
0.0
 10
69.94835745864138
 20
-126.551104026522
 30
0.0
 10
69.94835745864138
 20
-126.551104026522
 30
0.0
  0
HATCH
  5
6A
330
65
100
AcDbEntity
  8
_U+30EC_U+30A4_U+30E4_U+30FC 1
 62
     7
420
 16777215
100
AcDbHatch
 10
0.0
 20
0.0
 30
0.0
210
0.0
220
0.0
230
1.0
  2
SOLID
 70
     1
 71
     0
 91
        1
 92
        1
 93
        1
 72
     4
 94
        3
 73
     0
 74
     1
 95
       26
 96
       22
 40
0.0
 40
0.0
 40
0.0
 40
0.0
 40
1.0
 40
1.0
 40
1.0
 40
2.0
 40
2.0
 40
2.0
 40
3.0
 40
3.0
 40
3.0
 40
4.0
 40
4.0
 40
4.0
 40
5.0
 40
5.0
 40
5.0
 40
6.0
 40
6.0
 40
6.0
 40
7.0
 40
7.0
 40
7.0
 40
7.0
 10
69.94835745864138
 20
-126.551104026522
 10
69.94835745864138
 20
-126.551104026522
 10
68.84403210084454
 20
-126.551104026522
 10
68.84403210084454
 20
-126.551104026522
 10
68.84403210084454
 20
-126.551104026522
 10
68.84403210084454
 20
-126.8399752829602
 10
68.84403210084454
 20
-126.8399752829602
 10
68.84403210084454
 20
-126.8399752829602
 10
68.6958929949788
 20
-126.8399752829602
 10
68.6958929949788
 20
-126.8399752829602
 10
68.6812513391665
 20
-126.5492092240051
 10
68.51829832271417
 20
-126.5083848425049
 10
68.40409340737814
 20
-126.4825466263655
 10
68.40409340737814
 20
-126.4825466263655
 10
68.40409340737814
 20
-126.3547335838627
 10
68.40409340737814
 20
-126.3547335838627
 10
68.40409340737814
 20
-126.3547335838627
 10
69.94835745864138
 20
-126.3547335838627
 10
69.94835745864138
 20
-126.3547335838627
 10
69.94835745864138
 20
-126.3547335838627
 10
69.94835745864138
 20
-126.551104026522
 10
69.94835745864138
 20
-126.551104026522
 97
        0
 97
        0
 75
     2
 76
     1
 98
        0
  0
SPLINE
  5
6B
330
65
100
AcDbEntity
  8
_U+30EC_U+30A4_U+30E4_U+30FC 1
370
     0
100
AcDbSpline
210
0.0
220
0.0
230
1.0
 70
    11
 71
     3
 72
    53
 73
    49
 74
     0
 42
0.0000000001
 43
0.0000000001
 12
1.0
 22
0.0
 32
0.0
 13
1.0
 23
0.0
 33
0.0
 40
0.0
 40
0.0
 40
0.0
 40
0.0
 40
1.0
 40
1.0
 40
1.0
 40
2.0
 40
2.0
 40
2.0
 40
3.0
 40
3.0
 40
3.0
 40
4.0
 40
4.0
 40
4.0
 40
5.0
 40
5.0
 40
5.0
 40
6.0
 40
6.0
 40
6.0
 40
7.0
 40
7.0
 40
7.0
 40
8.0
 40
8.0
 40
8.0
 40
9.0
 40
9.0
 40
9.0
 40
10.0
 40
10.0
 40
10.0
 40
11.0
 40
11.0
 40
11.0
 40
12.0
 40
12.0
 40
12.0
 40
13.0
 40
13.0
 40
13.0
 40
14.0
 40
14.0
 40
14.0
 40
15.0
 40
15.0
 40
15.0
 40
16.0
 40
16.0
 40
16.0
 40
16.0
 10
69.99917261704883
 20
-125.4943209864216
 30
0.0
 10
69.99917261704883
 20
-125.562878386578
 30
0.0
 10
69.9822916491711
 20
-125.6517618500975
 30
0.0
 10
69.91872963746823
 20
-125.7406453136169
 30
0.0
 10
69.8086588367145
 20
-125.8924017697422
 30
0.0
 10
69.67757295350074
 20
-125.9110052853625
 30
0.0
 10
69.56974146481242
 20
-125.927713998466
 30
0.0
 10
69.56974146481242
 20
-125.927713998466
 30
0.0
 10
69.56974146481242
 20
-125.7332383583236
 30
0.0
 10
69.56974146481242
 20
-125.7332383583236
 30
0.0
 10
69.76852347431135
 20
-125.6850070215301
 30
0.0
 10
69.79815129548449
 20
-125.5740749469051
 30
0.0
 10
69.79815129548449
 20
-125.4924261839047
 30
0.0
 10
69.79815129548449
 20
-125.3702975489526
 30
0.0
 10
69.69876029073504
 20
-125.2369723536734
 30
0.0
 10
69.4660440907064
 20
-125.2369723536734
 30
0.0
 10
69.21007349615235
 20
-125.2369723536734
 30
0.0
 10
69.14031031257603
 20
-125.3944132173493
 30
0.0
 10
69.14031031257603
 20
-125.5000053939722
 30
0.0
 10
69.14031031257603
 20
-125.5277384126285
 30
0.0
 10
69.14031031257603
 20
-125.6517618500975
 30
0.0
 10
69.26932913849865
 20
-125.7294487532899
 30
0.0
 10
69.26932913849865
 20
-125.7294487532899
 30
0.0
 10
69.25020885855551
 20
-125.8832722667063
 30
0.0
 10
69.25020885855551
 20
-125.8832722667063
 30
0.0
 10
69.25020885855551
 20
-125.8832722667063
 30
0.0
 10
68.40409340737814
 20
-125.7776800900834
 30
0.0
 10
68.40409340737814
 20
-125.7776800900834
 30
0.0
 10
68.40409340737814
 20
-125.7776800900834
 30
0.0
 10
68.40409340737814
 20
-125.0962402031009
 30
0.0
 10
68.40409340737814
 20
-125.0962402031009
 30
0.0
 10
68.40409340737814
 20
-125.0962402031009
 30
0.0
 10
68.59874130229477
 20
-125.0962402031009
 30
0.0
 10
68.59874130229477
 20
-125.0962402031009
 30
0.0
 10
68.59874130229477
 20
-125.0962402031009
 30
0.0
 10
68.59874130229477
 20
-125.635053136994
 30
0.0
 10
68.59874130229477
 20
-125.635053136994
 30
0.0
 10
68.59874130229477
 20
-125.635053136994
 30
0.0
 10
69.02179902788345
 20
-125.6925862315977
 30
0.0
 10
69.02179902788345
 20
-125.6925862315977
 30
0.0
 10
68.98786483735373
 20
-125.6388427420278
 30
0.0
 10
68.94772947495058
 20
-125.5664957368376
 30
0.0
 10
68.94772947495058
 20
-125.4627983627315
 30
0.0
 10
68.94772947495058
 20
-125.2405897039329
 30
0.0
 10
69.13393688592832
 20
-125.0331949557209
 30
0.0
 10
69.44692381076327
 20
-125.0331949557209
 30
0.0
 10
69.76438935972905
 20
-125.0331949557209
 30
0.0
 10
69.99917261704883
 20
-125.2295653983801
 30
0.0
 10
69.99917261704883
 20
-125.4943209864216
 30
0.0
  0
HATCH
  5
6C
330
65
100
AcDbEntity
  8
_U+30EC_U+30A4_U+30E4_U+30FC 1
 62
     7
420
 16777215
100
AcDbHatch
 10
0.0
 20
0.0
 30
0.0
210
0.0
220
0.0
230
1.0
  2
SOLID
 70
     1
 71
     0
 91
        1
 92
        1
 93
        1
 72
     4
 94
        3
 73
     0
 74
     1
 95
       53
 96
       49
 40
0.0
 40
0.0
 40
0.0
 40
0.0
 40
1.0
 40
1.0
 40
1.0
 40
2.0
 40
2.0
 40
2.0
 40
3.0
 40
3.0
 40
3.0
 40
4.0
 40
4.0
 40
4.0
 40
5.0
 40
5.0
 40
5.0
 40
6.0
 40
6.0
 40
6.0
 40
7.0
 40
7.0
 40
7.0
 40
8.0
 40
8.0
 40
8.0
 40
9.0
 40
9.0
 40
9.0
 40
10.0
 40
10.0
 40
10.0
 40
11.0
 40
11.0
 40
11.0
 40
12.0
 40
12.0
 40
12.0
 40
13.0
 40
13.0
 40
13.0
 40
14.0
 40
14.0
 40
14.0
 40
15.0
 40
15.0
 40
15.0
 40
16.0
 40
16.0
 40
16.0
 40
16.0
 10
69.99917261704883
 20
-125.4943209864216
 10
69.99917261704883
 20
-125.562878386578
 10
69.9822916491711
 20
-125.6517618500975
 10
69.91872963746823
 20
-125.7406453136169
 10
69.8086588367145
 20
-125.8924017697422
 10
69.67757295350074
 20
-125.9110052853625
 10
69.56974146481242
 20
-125.927713998466
 10
69.56974146481242
 20
-125.927713998466
 10
69.56974146481242
 20
-125.7332383583236
 10
69.56974146481242
 20
-125.7332383583236
 10
69.76852347431135
 20
-125.6850070215301
 10
69.79815129548449
 20
-125.5740749469051
 10
69.79815129548449
 20
-125.4924261839047
 10
69.79815129548449
 20
-125.3702975489526
 10
69.69876029073504
 20
-125.2369723536734
 10
69.4660440907064
 20
-125.2369723536734
 10
69.21007349615235
 20
-125.2369723536734
 10
69.14031031257603
 20
-125.3944132173493
 10
69.14031031257603
 20
-125.5000053939722
 10
69.14031031257603
 20
-125.5277384126285
 10
69.14031031257603
 20
-125.6517618500975
 10
69.26932913849865
 20
-125.7294487532899
 10
69.26932913849865
 20
-125.7294487532899
 10
69.25020885855551
 20
-125.8832722667063
 10
69.25020885855551
 20
-125.8832722667063
 10
69.25020885855551
 20
-125.8832722667063
 10
68.40409340737814
 20
-125.7776800900834
 10
68.40409340737814
 20
-125.7776800900834
 10
68.40409340737814
 20
-125.7776800900834
 10
68.40409340737814
 20
-125.0962402031009
 10
68.40409340737814
 20
-125.0962402031009
 10
68.40409340737814
 20
-125.0962402031009
 10
68.59874130229477
 20
-125.0962402031009
 10
68.59874130229477
 20
-125.0962402031009
 10
68.59874130229477
 20
-125.0962402031009
 10
68.59874130229477
 20
-125.635053136994
 10
68.59874130229477
 20
-125.635053136994
 10
68.59874130229477
 20
-125.635053136994
 10
69.02179902788345
 20
-125.6925862315977
 10
69.02179902788345
 20
-125.6925862315977
 10
68.98786483735373
 20
-125.6388427420278
 10
68.94772947495058
 20
-125.5664957368376
 10
68.94772947495058
 20
-125.4627983627315
 10
68.94772947495058
 20
-125.2405897039329
 10
69.13393688592832
 20
-125.0331949557209
 10
69.44692381076327
 20
-125.0331949557209
 10
69.76438935972905
 20
-125.0331949557209
 10
69.99917261704883
 20
-125.2295653983801
 10
69.99917261704883
 20
-125.4943209864216
 97
        0
 97
        0
 75
     2
 76
     1
 98
        0
  0
ENDBLK
  5
68
330
65
100
AcDbEntity
  8
0
100
AcDbBlockEnd
  0
BLOCK
  5
7B
330
79
100
AcDbEntity
  8
0
100
AcDbBlockBegin
  2
block 5
 70
     0
 10
0.0
 20
0.0
 30
0.0
  3
block 5
  1

  0
SPLINE
  5
7D
330
79
100
AcDbEntity
  8
_U+30EC_U+30A4_U+30E4_U+30FC 1
370
     0
100
AcDbSpline
210
0.0
220
0.0
230
1.0
 70
    11
 71
     3
 72
    32
 73
    28
 74
     0
 42
0.0000000001
 43
0.0000000001
 12
1.0
 22
0.0
 32
0.0
 13
1.0
 23
0.0
 33
0.0
 40
0.0
 40
0.0
 40
0.0
 40
0.0
 40
1.0
 40
1.0
 40
1.0
 40
2.0
 40
2.0
 40
2.0
 40
3.0
 40
3.0
 40
3.0
 40
4.0
 40
4.0
 40
4.0
 40
5.0
 40
5.0
 40
5.0
 40
6.0
 40
6.0
 40
6.0
 40
7.0
 40
7.0
 40
7.0
 40
8.0
 40
8.0
 40
8.0
 40
9.0
 40
9.0
 40
9.0
 40
9.0
 10
76.30524764802439
 20
-113.4237399347517
 30
0.0
 10
75.78900008955969
 20
-113.4237399347517
 30
0.0
 10
75.78055960562084
 20
-112.869424071175
 30
0.0
 10
75.78055960562084
 20
-112.6558281510895
 30
0.0
 10
75.78055960562084
 20
-112.425179008352
 30
0.0
 10
75.79967988556398
 20
-111.7778455666736
 30
0.0
 10
76.3433159531364
 20
-111.7778455666736
 30
0.0
 10
76.51677651081873
 20
-111.7778455666736
 30
0.0
 10
76.76223956414277
 20
-111.8476087502499
 30
0.0
 10
76.8003078692548
 20
-112.179715955028
 30
0.0
 10
76.8003078692548
 20
-112.179715955028
 30
0.0
 10
76.58653969439503
 20
-112.179715955028
 30
0.0
 10
76.58653969439503
 20
-112.179715955028
 30
0.0
 10
76.57603215316502
 20
-112.1226996247471
 30
0.0
 10
76.54433727470072
 20
-111.9745605188814
 30
0.0
 10
76.34124889584524
 20
-111.9745605188814
 30
0.0
 10
76.04927705347032
 20
-111.9745605188814
 30
0.0
 10
76.0089694362929
 20
-112.3025336090771
 30
0.0
 10
75.99639483777173
 20
-112.5076890452238
 30
0.0
 10
76.08941241587348
 20
-112.4294853777086
 30
0.0
 10
76.15710854215864
 20
-112.3702297353623
 30
0.0
 10
76.33900958377984
 20
-112.3702297353623
 30
0.0
 10
76.51884356810987
 20
-112.3702297353623
 30
0.0
 10
76.8213229517148
 20
-112.4780612240506
 30
0.0
 10
76.8213229517148
 20
-112.8842379817616
 30
0.0
 10
76.8213229517148
 20
-113.2035983332442
 30
0.0
 10
76.62254094221589
 20
-113.4237399347517
 30
0.0
 10
76.30524764802439
 20
-113.4237399347517
 30
0.0
  0
SPLINE
  5
7E
330
79
100
AcDbEntity
  8
_U+30EC_U+30A4_U+30E4_U+30FC 1
370
     0
100
AcDbSpline
210
0.0
220
0.0
230
1.0
 70
    11
 71
     3
 72
    17
 73
    13
 74
     0
 42
0.0000000001
 43
0.0000000001
 12
1.0
 22
0.0
 32
0.0
 13
1.0
 23
0.0
 33
0.0
 40
0.0
 40
0.0
 40
0.0
 40
0.0
 40
1.0
 40
1.0
 40
1.0
 40
2.0
 40
2.0
 40
2.0
 40
3.0
 40
3.0
 40
3.0
 40
4.0
 40
4.0
 40
4.0
 40
4.0
 10
76.32212861590212
 20
-112.5648776302789
 30
0.0
 10
76.05978459470033
 20
-112.5648776302789
 30
0.0
 10
76.02171628958833
 20
-112.7764064930733
 30
0.0
 10
76.02171628958833
 20
-112.8926784657004
 30
0.0
 10
76.02171628958833
 20
-113.0682060806739
 30
0.0
 10
76.11697317975548
 20
-113.2311590971262
 30
0.0
 10
76.30094127866782
 20
-113.2311590971262
 30
0.0
 10
76.42151962065157
 20
-113.2311590971262
 30
0.0
 10
76.59721949039931
 20
-113.17190345478
 30
0.0
 10
76.59721949039931
 20
-112.8863050390527
 30
0.0
 10
76.59721949039931
 20
-112.662029322963
 30
0.0
 10
76.45752086847243
 20
-112.5648776302789
 30
0.0
 10
76.32212861590212
 20
-112.5648776302789
 30
0.0
  0
HATCH
  5
7F
330
79
100
AcDbEntity
  8
_U+30EC_U+30A4_U+30E4_U+30FC 1
 62
     7
420
 16777215
100
AcDbHatch
 10
0.0
 20
0.0
 30
0.0
210
0.0
220
0.0
230
1.0
  2
SOLID
 70
     1
 71
     0
 91
        2
 92
        1
 93
        1
 72
     4
 94
        3
 73
     0
 74
     1
 95
       32
 96
       28
 40
0.0
 40
0.0
 40
0.0
 40
0.0
 40
1.0
 40
1.0
 40
1.0
 40
2.0
 40
2.0
 40
2.0
 40
3.0
 40
3.0
 40
3.0
 40
4.0
 40
4.0
 40
4.0
 40
5.0
 40
5.0
 40
5.0
 40
6.0
 40
6.0
 40
6.0
 40
7.0
 40
7.0
 40
7.0
 40
8.0
 40
8.0
 40
8.0
 40
9.0
 40
9.0
 40
9.0
 40
9.0
 10
76.30524764802439
 20
-113.4237399347517
 10
75.78900008955969
 20
-113.4237399347517
 10
75.78055960562084
 20
-112.869424071175
 10
75.78055960562084
 20
-112.6558281510895
 10
75.78055960562084
 20
-112.425179008352
 10
75.79967988556398
 20
-111.7778455666736
 10
76.3433159531364
 20
-111.7778455666736
 10
76.51677651081873
 20
-111.7778455666736
 10
76.76223956414277
 20
-111.8476087502499
 10
76.8003078692548
 20
-112.179715955028
 10
76.8003078692548
 20
-112.179715955028
 10
76.58653969439503
 20
-112.179715955028
 10
76.58653969439503
 20
-112.179715955028
 10
76.57603215316502
 20
-112.1226996247471
 10
76.54433727470072
 20
-111.9745605188814
 10
76.34124889584524
 20
-111.9745605188814
 10
76.04927705347032
 20
-111.9745605188814
 10
76.0089694362929
 20
-112.3025336090771
 10
75.99639483777173
 20
-112.5076890452238
 10
76.08941241587348
 20
-112.4294853777086
 10
76.15710854215864
 20
-112.3702297353623
 10
76.33900958377984
 20
-112.3702297353623
 10
76.51884356810987
 20
-112.3702297353623
 10
76.8213229517148
 20
-112.4780612240506
 10
76.8213229517148
 20
-112.8842379817616
 10
76.8213229517148
 20
-113.2035983332442
 10
76.62254094221589
 20
-113.4237399347517
 10
76.30524764802439
 20
-113.4237399347517
 97
        0
 97
        0
 92
        1
 93
        1
 72
     4
 94
        3
 73
     0
 74
     1
 95
       17
 96
       13
 40
0.0
 40
0.0
 40
0.0
 40
0.0
 40
1.0
 40
1.0
 40
1.0
 40
2.0
 40
2.0
 40
2.0
 40
3.0
 40
3.0
 40
3.0
 40
4.0
 40
4.0
 40
4.0
 40
4.0
 10
76.32212861590212
 20
-112.5648776302789
 10
76.05978459470033
 20
-112.5648776302789
 10
76.02171628958833
 20
-112.7764064930733
 10
76.02171628958833
 20
-112.8926784657004
 10
76.02171628958833
 20
-113.0682060806739
 10
76.11697317975548
 20
-113.2311590971262
 10
76.30094127866782
 20
-113.2311590971262
 10
76.42151962065157
 20
-113.2311590971262
 10
76.59721949039931
 20
-113.17190345478
 10
76.59721949039931
 20
-112.8863050390527
 10
76.59721949039931
 20
-112.662029322963
 10
76.45752086847243
 20
-112.5648776302789
 10
76.32212861590212
 20
-112.5648776302789
 97
        0
 97
        0
 75
     2
 76
     1
 98
        0
  0
POLYLINE
  5
80
330
79
100
AcDbEntity
  8
_U+30EC_U+30A4_U+30E4_U+30FC 1
370
     0
100
AcDb2dPolyline
 66
     1
 10
0.0
 20
0.0
 30
0.0
  0
VERTEX
  5
81
330
80
100
AcDbEntity
  8
_U+30EC_U+30A4_U+30E4_U+30FC 1
370
     0
100
AcDbVertex
100
AcDb2dVertex
 10
77.03784720296277
 20
-113.3729247763443
 30
0.0
  0
VERTEX
  5
82
330
80
100
AcDbEntity
  8
_U+30EC_U+30A4_U+30E4_U+30FC 1
370
     0
100
AcDbVertex
100
AcDb2dVertex
 10
77.03784720296277
 20
-113.1212605511468
 30
0.0
  0
VERTEX
  5
83
330
80
100
AcDbEntity
  8
_U+30EC_U+30A4_U+30E4_U+30FC 1
370
     0
100
AcDbVertex
100
AcDb2dVertex
 10
77.28951142816027
 20
-113.1212605511468
 30
0.0
  0
VERTEX
  5
84
330
80
100
AcDbEntity
  8
_U+30EC_U+30A4_U+30E4_U+30FC 1
370
     0
100
AcDbVertex
100
AcDb2dVertex
 10
77.28951142816027
 20
-113.3729247763443
 30
0.0
  0
VERTEX
  5
85
330
80
100
AcDbEntity
  8
_U+30EC_U+30A4_U+30E4_U+30FC 1
370
     0
100
AcDbVertex
100
AcDb2dVertex
 10
77.03784720296277
 20
-113.3729247763443
 30
0.0
  0
SEQEND
  5
86
330
80
100
AcDbEntity
  8
_U+30EC_U+30A4_U+30E4_U+30FC 1
370
     0
  0
HATCH
  5
87
330
79
100
AcDbEntity
  8
_U+30EC_U+30A4_U+30E4_U+30FC 1
 62
     7
420
 16777215
100
AcDbHatch
 10
0.0
 20
0.0
 30
0.0
210
0.0
220
0.0
230
1.0
  2
SOLID
 70
     1
 71
     0
 91
        1
 92
        1
 93
        4
 72
     1
 10
77.03784720296277
 20
-113.3729247763443
 11
77.03784720296277
 21
-113.1212605511468
 72
     1
 10
77.03784720296277
 20
-113.1212605511468
 11
77.28951142816027
 21
-113.1212605511468
 72
     1
 10
77.28951142816027
 20
-113.1212605511468
 11
77.28951142816027
 21
-113.3729247763443
 72
     1
 10
77.28951142816027
 20
-113.3729247763443
 11
77.03784720296277
 21
-113.3729247763443
 97
        0
 75
     2
 76
     1
 98
        0
  0
SPLINE
  5
88
330
79
100
AcDbEntity
  8
_U+30EC_U+30A4_U+30E4_U+30FC 1
370
     0
100
AcDbSpline
210
0.0
220
0.0
230
1.0
 70
    11
 71
     3
 72
    53
 73
    49
 74
     0
 42
0.0000000001
 43
0.0000000001
 12
1.0
 22
0.0
 32
0.0
 13
1.0
 23
0.0
 33
0.0
 40
0.0
 40
0.0
 40
0.0
 40
0.0
 40
1.0
 40
1.0
 40
1.0
 40
2.0
 40
2.0
 40
2.0
 40
3.0
 40
3.0
 40
3.0
 40
4.0
 40
4.0
 40
4.0
 40
5.0
 40
5.0
 40
5.0
 40
6.0
 40
6.0
 40
6.0
 40
7.0
 40
7.0
 40
7.0
 40
8.0
 40
8.0
 40
8.0
 40
9.0
 40
9.0
 40
9.0
 40
10.0
 40
10.0
 40
10.0
 40
11.0
 40
11.0
 40
11.0
 40
12.0
 40
12.0
 40
12.0
 40
13.0
 40
13.0
 40
13.0
 40
14.0
 40
14.0
 40
14.0
 40
15.0
 40
15.0
 40
15.0
 40
16.0
 40
16.0
 40
16.0
 40
16.0
 10
78.0071248177378
 20
-113.4237399347517
 30
0.0
 10
77.92874889544836
 20
-113.4237399347517
 30
0.0
 10
77.82729083340776
 20
-113.406858966874
 30
0.0
 10
77.7256605165929
 20
-113.3432969551711
 30
0.0
 10
77.55219995891056
 20
-113.2332261544174
 30
0.0
 10
77.53101262167628
 20
-113.1021402712036
 30
0.0
 10
77.5120645965074
 20
-112.9943087825153
 30
0.0
 10
77.5120645965074
 20
-112.9943087825153
 30
0.0
 10
77.73410100053175
 20
-112.9943087825153
 30
0.0
 10
77.73410100053175
 20
-112.9943087825153
 30
0.0
 10
77.78922252829575
 20
-113.1930907920142
 30
0.0
 10
77.91617429692721
 20
-113.2227186131874
 30
0.0
 10
78.00919187502896
 20
-113.2227186131874
 30
0.0
 10
78.14889049695584
 20
-113.2227186131874
 30
0.0
 10
78.30116371740388
 20
-113.1233276084379
 30
0.0
 10
78.30116371740388
 20
-112.8906114084093
 30
0.0
 10
78.30116371740388
 20
-112.6346408138552
 30
0.0
 10
78.12132973307384
 20
-112.5648776302789
 30
0.0
 10
78.00075139109009
 20
-112.5648776302789
 30
0.0
 10
77.9690565126258
 20
-112.5648776302789
 30
0.0
 10
77.82729083340776
 20
-112.5648776302789
 30
0.0
 10
77.73840736988832
 20
-112.6938964562015
 30
0.0
 10
77.73840736988832
 20
-112.6938964562015
 30
0.0
 10
77.56287975491485
 20
-112.6747761762584
 30
0.0
 10
77.56287975491485
 20
-112.6747761762584
 30
0.0
 10
77.56287975491485
 20
-112.6747761762584
 30
0.0
 10
77.68345809689859
 20
-111.828660725081
 30
0.0
 10
77.68345809689859
 20
-111.828660725081
 30
0.0
 10
77.68345809689859
 20
-111.828660725081
 30
0.0
 10
78.46187742179079
 20
-111.828660725081
 30
0.0
 10
78.46187742179079
 20
-111.828660725081
 30
0.0
 10
78.46187742179079
 20
-111.828660725081
 30
0.0
 10
78.46187742179079
 20
-112.0233086199976
 30
0.0
 10
78.46187742179079
 20
-112.0233086199976
 30
0.0
 10
78.46187742179079
 20
-112.0233086199976
 30
0.0
 10
77.84623885857664
 20
-112.0233086199976
 30
0.0
 10
77.84623885857664
 20
-112.0233086199976
 30
0.0
 10
77.84623885857664
 20
-112.0233086199976
 30
0.0
 10
77.7807820443569
 20
-112.4463663455863
 30
0.0
 10
77.7807820443569
 20
-112.4463663455863
 30
0.0
 10
77.84210474399434
 20
-112.4124321550566
 30
0.0
 10
77.92461478086607
 20
-112.3722967926535
 30
0.0
 10
78.04295381078441
 20
-112.3722967926535
 30
0.0
 10
78.29685734804731
 20
-112.3722967926535
 30
0.0
 10
78.5338799174325
 20
-112.5585042036312
 30
0.0
 10
78.5338799174325
 20
-112.8714911284662
 30
0.0
 10
78.5338799174325
 20
-113.1889566774319
 30
0.0
 10
78.30960420134274
 20
-113.4237399347517
 30
0.0
 10
78.0071248177378
 20
-113.4237399347517
 30
0.0
  0
HATCH
  5
89
330
79
100
AcDbEntity
  8
_U+30EC_U+30A4_U+30E4_U+30FC 1
 62
     7
420
 16777215
100
AcDbHatch
 10
0.0
 20
0.0
 30
0.0
210
0.0
220
0.0
230
1.0
  2
SOLID
 70
     1
 71
     0
 91
        1
 92
        1
 93
        1
 72
     4
 94
        3
 73
     0
 74
     1
 95
       53
 96
       49
 40
0.0
 40
0.0
 40
0.0
 40
0.0
 40
1.0
 40
1.0
 40
1.0
 40
2.0
 40
2.0
 40
2.0
 40
3.0
 40
3.0
 40
3.0
 40
4.0
 40
4.0
 40
4.0
 40
5.0
 40
5.0
 40
5.0
 40
6.0
 40
6.0
 40
6.0
 40
7.0
 40
7.0
 40
7.0
 40
8.0
 40
8.0
 40
8.0
 40
9.0
 40
9.0
 40
9.0
 40
10.0
 40
10.0
 40
10.0
 40
11.0
 40
11.0
 40
11.0
 40
12.0
 40
12.0
 40
12.0
 40
13.0
 40
13.0
 40
13.0
 40
14.0
 40
14.0
 40
14.0
 40
15.0
 40
15.0
 40
15.0
 40
16.0
 40
16.0
 40
16.0
 40
16.0
 10
78.0071248177378
 20
-113.4237399347517
 10
77.92874889544836
 20
-113.4237399347517
 10
77.82729083340776
 20
-113.406858966874
 10
77.7256605165929
 20
-113.3432969551711
 10
77.55219995891056
 20
-113.2332261544174
 10
77.53101262167628
 20
-113.1021402712036
 10
77.5120645965074
 20
-112.9943087825153
 10
77.5120645965074
 20
-112.9943087825153
 10
77.73410100053175
 20
-112.9943087825153
 10
77.73410100053175
 20
-112.9943087825153
 10
77.78922252829575
 20
-113.1930907920142
 10
77.91617429692721
 20
-113.2227186131874
 10
78.00919187502896
 20
-113.2227186131874
 10
78.14889049695584
 20
-113.2227186131874
 10
78.30116371740388
 20
-113.1233276084379
 10
78.30116371740388
 20
-112.8906114084093
 10
78.30116371740388
 20
-112.6346408138552
 10
78.12132973307384
 20
-112.5648776302789
 10
78.00075139109009
 20
-112.5648776302789
 10
77.9690565126258
 20
-112.5648776302789
 10
77.82729083340776
 20
-112.5648776302789
 10
77.73840736988832
 20
-112.6938964562015
 10
77.73840736988832
 20
-112.6938964562015
 10
77.56287975491485
 20
-112.6747761762584
 10
77.56287975491485
 20
-112.6747761762584
 10
77.56287975491485
 20
-112.6747761762584
 10
77.68345809689859
 20
-111.828660725081
 10
77.68345809689859
 20
-111.828660725081
 10
77.68345809689859
 20
-111.828660725081
 10
78.46187742179079
 20
-111.828660725081
 10
78.46187742179079
 20
-111.828660725081
 10
78.46187742179079
 20
-111.828660725081
 10
78.46187742179079
 20
-112.0233086199976
 10
78.46187742179079
 20
-112.0233086199976
 10
78.46187742179079
 20
-112.0233086199976
 10
77.84623885857664
 20
-112.0233086199976
 10
77.84623885857664
 20
-112.0233086199976
 10
77.84623885857664
 20
-112.0233086199976
 10
77.7807820443569
 20
-112.4463663455863
 10
77.7807820443569
 20
-112.4463663455863
 10
77.84210474399434
 20
-112.4124321550566
 10
77.92461478086607
 20
-112.3722967926535
 10
78.04295381078441
 20
-112.3722967926535
 10
78.29685734804731
 20
-112.3722967926535
 10
78.5338799174325
 20
-112.5585042036312
 10
78.5338799174325
 20
-112.8714911284662
 10
78.5338799174325
 20
-113.1889566774319
 10
78.30960420134274
 20
-113.4237399347517
 10
78.0071248177378
 20
-113.4237399347517
 97
        0
 97
        0
 75
     2
 76
     1
 98
        0
  0
ENDBLK
  5
7C
330
79
100
AcDbEntity
  8
0
100
AcDbBlockEnd
  0
ENDSEC
  0
SECTION
  2
ENTITIES
  0
INSERT
  5
42
330
1F
100
AcDbEntity
  8
_U+30EC_U+30A4_U+30E4_U+30FC 1
100
AcDbBlockReference
  2
block 2
 10
0.0
 20
0.0
 30
0.0
  0
POLYLINE
  5
4D
330
1F
100
AcDbEntity
  8
_U+30EC_U+30A4_U+30E4_U+30FC 1
 62
   179
420
  2234388
370
     9
100
AcDb2dPolyline
 66
     1
 10
0.0
 20
0.0
 30
0.0
  0
VERTEX
  5
4E
330
4D
100
AcDbEntity
  8
_U+30EC_U+30A4_U+30E4_U+30FC 1
 62
   179
420
  2234388
370
     9
100
AcDbVertex
100
AcDb2dVertex
 10
70.90833331560626
 20
-148.4925627406548
 30
0.0
  0
VERTEX
  5
4F
330
4D
100
AcDbEntity
  8
_U+30EC_U+30A4_U+30E4_U+30FC 1
 62
   179
420
  2234388
370
     9
100
AcDbVertex
100
AcDb2dVertex
 10
70.90833331560626
 20
-118.4923405259323
 30
0.0
  0
SEQEND
  5
50
330
4D
100
AcDbEntity
  8
_U+30EC_U+30A4_U+30E4_U+30FC 1
 62
   179
420
  2234388
370
     9
  0
POLYLINE
  5
51
330
1F
100
AcDbEntity
  8
_U+30EC_U+30A4_U+30E4_U+30FC 1
 62
   179
420
  2234388
370
     9
100
AcDb2dPolyline
 66
     1
 10
0.0
 20
0.0
 30
0.0
  0
VERTEX
  5
52
330
51
100
AcDbEntity
  8
_U+30EC_U+30A4_U+30E4_U+30FC 1
 62
   179
420
  2234388
370
     9
100
AcDbVertex
100
AcDb2dVertex
 10
72.76387203252786
 20
-148.4925627406548
 30
0.0
  0
VERTEX
  5
53
330
51
100
AcDbEntity
  8
_U+30EC_U+30A4_U+30E4_U+30FC 1
 62
   179
420
  2234388
370
     9
100
AcDbVertex
100
AcDb2dVertex
 10
70.00828960282863
 20
-148.4925627406548
 30
0.0
  0
SEQEND
  5
54
330
51
100
AcDbEntity
  8
_U+30EC_U+30A4_U+30E4_U+30FC 1
 62
   179
420
  2234388
370
     9
  0
POLYLINE
  5
55
330
1F
100
AcDbEntity
  8
_U+30EC_U+30A4_U+30E4_U+30FC 1
 62
   179
420
  2234388
370
     9
100
AcDb2dPolyline
 66
     1
 10
0.0
 20
0.0
 30
0.0
  0
VERTEX
  5
56
330
55
100
AcDbEntity
  8
_U+30EC_U+30A4_U+30E4_U+30FC 1
 62
   179
420
  2234388
370
     9
100
AcDbVertex
100
AcDb2dVertex
 10
72.58194453716922
 20
-133.4926280221825
 30
0.0
  0
VERTEX
  5
57
330
55
100
AcDbEntity
  8
_U+30EC_U+30A4_U+30E4_U+30FC 1
 62
   179
420
  2234388
370
     9
100
AcDbVertex
100
AcDb2dVertex
 10
70.00846599171301
 20
-133.4926280221825
 30
0.0
  0
SEQEND
  5
58
330
55
100
AcDbEntity
  8
_U+30EC_U+30A4_U+30E4_U+30FC 1
 62
   179
420
  2234388
370
     9
  0
POLYLINE
  5
59
330
1F
100
AcDbEntity
  8
_U+30EC_U+30A4_U+30E4_U+30FC 1
 62
   179
420
  2234388
370
     9
100
AcDb2dPolyline
 66
     1
 10
0.0
 20
0.0
 30
0.0
  0
VERTEX
  5
5A
330
59
100
AcDbEntity
  8
_U+30EC_U+30A4_U+30E4_U+30FC 1
 62
   179
420
  2234388
370
     9
100
AcDbVertex
100
AcDb2dVertex
 10
79.26355547781823
 20
-118.4925169148212
 30
0.0
  0
VERTEX
  5
5B
330
59
100
AcDbEntity
  8
_U+30EC_U+30A4_U+30E4_U+30FC 1
 62
   179
420
  2234388
370
     9
100
AcDbVertex
100
AcDb2dVertex
 10
70.0086423805974
 20
-118.4925169148212
 30
0.0
  0
SEQEND
  5
5C
330
59
100
AcDbEntity
  8
_U+30EC_U+30A4_U+30E4_U+30FC 1
 62
   179
420
  2234388
370
     9
  0
INSERT
  5
5E
330
1F
100
AcDbEntity
  8
_U+30EC_U+30A4_U+30E4_U+30FC 1
100
AcDbBlockReference
  2
block 3
 10
0.0
 20
0.0
 30
0.0
  0
INSERT
  5
66
330
1F
100
AcDbEntity
  8
_U+30EC_U+30A4_U+30E4_U+30FC 1
100
AcDbBlockReference
  2
block 4
 10
0.0
 20
0.0
 30
0.0
  0
POLYLINE
  5
6D
330
1F
100
AcDbEntity
  8
_U+30EC_U+30A4_U+30E4_U+30FC 1
 62
   179
420
  2234388
370
     9
100
AcDb2dPolyline
 66
     1
 10
0.0
 20
0.0
 30
0.0
  0
VERTEX
  5
6E
330
6D
100
AcDbEntity
  8
_U+30EC_U+30A4_U+30E4_U+30FC 1
 62
   179
420
  2234388
370
     9
100
AcDbVertex
100
AcDb2dVertex
 10
73.91382172541242
 20
-114.0672724714831
 30
0.0
  0
VERTEX
  5
6F
330
6D
100
AcDbEntity
  8
_U+30EC_U+30A4_U+30E4_U+30FC 1
 62
   179
420
  2234388
370
     9
100
AcDbVertex
100
AcDb2dVertex
 10
80.41385794847157
 20
-114.0672724714831
 30
0.0
  0
SEQEND
  5
70
330
6D
100
AcDbEntity
  8
_U+30EC_U+30A4_U+30E4_U+30FC 1
 62
   179
420
  2234388
370
     9
  0
POLYLINE
  5
71
330
1F
100
AcDbEntity
  8
_U+30EC_U+30A4_U+30E4_U+30FC 1
 62
   179
420
  2234388
370
     9
100
AcDb2dPolyline
 66
     1
 10
0.0
 20
0.0
 30
0.0
  0
VERTEX
  5
72
330
71
100
AcDbEntity
  8
_U+30EC_U+30A4_U+30E4_U+30FC 1
 62
   179
420
  2234388
370
     9
100
AcDbVertex
100
AcDb2dVertex
 10
73.91382172541242
 20
-112.82637663846
 30
0.0
  0
VERTEX
  5
73
330
71
100
AcDbEntity
  8
_U+30EC_U+30A4_U+30E4_U+30FC 1
 62
   179
420
  2234388
370
     9
100
AcDbVertex
100
AcDb2dVertex
 10
73.91382172541242
 20
-121.9923899695018
 30
0.0
  0
SEQEND
  5
74
330
71
100
AcDbEntity
  8
_U+30EC_U+30A4_U+30E4_U+30FC 1
 62
   179
420
  2234388
370
     9
  0
POLYLINE
  5
75
330
1F
100
AcDbEntity
  8
_U+30EC_U+30A4_U+30E4_U+30FC 1
 62
   179
420
  2234388
370
     9
100
AcDb2dPolyline
 66
     1
 10
0.0
 20
0.0
 30
0.0
  0
VERTEX
  5
76
330
75
100
AcDbEntity
  8
_U+30EC_U+30A4_U+30E4_U+30FC 1
 62
   179
420
  2234388
370
     9
100
AcDbVertex
100
AcDb2dVertex
 10
80.41385794847157
 20
-112.82637663846
 30
0.0
  0
VERTEX
  5
77
330
75
100
AcDbEntity
  8
_U+30EC_U+30A4_U+30E4_U+30FC 1
 62
   179
420
  2234388
370
     9
100
AcDbVertex
100
AcDb2dVertex
 10
80.41385794847157
 20
-117.4455430261943
 30
0.0
  0
SEQEND
  5
78
330
75
100
AcDbEntity
  8
_U+30EC_U+30A4_U+30E4_U+30FC 1
 62
   179
420
  2234388
370
     9
  0
INSERT
  5
7A
330
1F
100
AcDbEntity
  8
_U+30EC_U+30A4_U+30E4_U+30FC 1
100
AcDbBlockReference
  2
block 5
 10
0.0
 20
0.0
 30
0.0
  0
SPLINE
  5
8A
330
1F
100
AcDbEntity
  8
_U+30EC_U+30A4_U+30E4_U+30FC 1
 62
   179
420
  2234388
370
     9
100
AcDbSpline
210
0.0
220
0.0
230
1.0
 70
    11
 71
     3
 72
    17
 73
    13
 74
     0
 42
0.0000000001
 43
0.0000000001
 12
1.0
 22
0.0
 32
0.0
 13
1.0
 23
0.0
 33
0.0
 40
0.0
 40
0.0
 40
0.0
 40
0.0
 40
1.0
 40
1.0
 40
1.0
 40
2.0
 40
2.0
 40
2.0
 40
3.0
 40
3.0
 40
3.0
 40
4.0
 40
4.0
 40
4.0
 40
4.0
 10
74.01355200064587
 20
-114.0670960825942
 30
0.0
 10
74.01355200064587
 20
-114.0119921937193
 30
0.0
 10
73.96878450178798
 20
-113.9671894159526
 30
0.0
 10
73.91364720374389
 20
-113.9671894159526
 30
0.0
 10
73.85889422681373
 20
-113.9671894159526
 30
0.0
 10
73.81409145017898
 20
-114.0119921937193
 30
0.0
 10
73.81409145017898
 20
-114.0670960825942
 30
0.0
 10
73.81409145017898
 20
-114.1225880270248
 30
0.0
 10
73.85889422681373
 20
-114.1673555270137
 30
0.0
 10
73.91364720374389
 20
-114.1673555270137
 30
0.0
 10
73.96878450178798
 20
-114.1673555270137
 30
0.0
 10
74.01355200064587
 20
-114.1225880270248
 30
0.0
 10
74.01355200064587
 20
-114.0670960825942
 30
0.0
  0
SPLINE
  5
8B
330
1F
100
AcDbEntity
  8
_U+30EC_U+30A4_U+30E4_U+30FC 1
 62
   179
420
  2234388
370
     9
100
AcDbSpline
210
0.0
220
0.0
230
1.0
 70
    11
 71
     3
 72
    17
 73
    13
 74
     0
 42
0.0000000001
 43
0.0000000001
 12
1.0
 22
0.0
 32
0.0
 13
1.0
 23
0.0
 33
0.0
 40
0.0
 40
0.0
 40
0.0
 40
0.0
 40
1.0
 40
1.0
 40
1.0
 40
2.0
 40
2.0
 40
2.0
 40
3.0
 40
3.0
 40
3.0
 40
4.0
 40
4.0
 40
4.0
 40
4.0
 10
80.51376664653826
 20
-114.0670960825942
 30
0.0
 10
80.51376664653826
 20
-114.0119921937193
 30
0.0
 10
80.46899711373152
 20
-113.9671894159526
 30
0.0
 10
80.41385794847157
 20
-113.9671894159526
 30
0.0
 10
80.3587540609885
 20
-113.9671894159526
 30
0.0
 10
80.31395128435373
 20
-114.0119921937193
 30
0.0
 10
80.31395128435373
 20
-114.0670960825942
 30
0.0
 10
80.31395128435373
 20
-114.1225880270248
 30
0.0
 10
80.3587540609885
 20
-114.1673555270137
 30
0.0
 10
80.41385794847157
 20
-114.1673555270137
 30
0.0
 10
80.46899711373152
 20
-114.1673555270137
 30
0.0
 10
80.51376664653826
 20
-114.1225880270248
 30
0.0
 10
80.51376664653826
 20
-114.0670960825942
 30
0.0
  0
SPLINE
  5
8C
330
1F
100
AcDbEntity
  8
_U+30EC_U+30A4_U+30E4_U+30FC 1
 62
   179
420
  2234388
370
     9
100
AcDbSpline
210
0.0
220
0.0
230
1.0
 70
    11
 71
     3
 72
    17
 73
    13
 74
     0
 42
0.0000000001
 43
0.0000000001
 12
1.0
 22
0.0
 32
0.0
 13
1.0
 23
0.0
 33
0.0
 40
0.0
 40
0.0
 40
0.0
 40
0.0
 40
1.0
 40
1.0
 40
1.0
 40
2.0
 40
2.0
 40
2.0
 40
3.0
 40
3.0
 40
3.0
 40
4.0
 40
4.0
 40
4.0
 40
4.0
 10
71.00340513299666
 20
-118.4921641370438
 30
0.0
 10
71.00340513299666
 20
-118.4373777481685
 30
0.0
 10
70.95863763413878
 20
-118.3922574704018
 30
0.0
 10
70.90349846887884
 20
-118.3922574704018
 30
0.0
 10
70.84857097028015
 20
-118.3922574704018
 30
0.0
 10
70.80376819364538
 20
-118.4373777481685
 30
0.0
 10
70.80376819364538
 20
-118.4921641370438
 30
0.0
 10
70.80376819364538
 20
-118.5479735814742
 30
0.0
 10
70.84857097028015
 20
-118.5927763592406
 30
0.0
 10
70.90349846887884
 20
-118.5927763592406
 30
0.0
 10
70.95863763413878
 20
-118.5927763592406
 30
0.0
 10
71.00340513299666
 20
-118.5479735814742
 30
0.0
 10
71.00340513299666
 20
-118.4921641370438
 30
0.0
  0
SPLINE
  5
8D
330
1F
100
AcDbEntity
  8
_U+30EC_U+30A4_U+30E4_U+30FC 1
 62
   179
420
  2234388
370
     9
100
AcDbSpline
210
0.0
220
0.0
230
1.0
 70
    11
 71
     3
 72
    17
 73
    13
 74
     0
 42
0.0000000001
 43
0.0000000001
 12
1.0
 22
0.0
 32
0.0
 13
1.0
 23
0.0
 33
0.0
 40
0.0
 40
0.0
 40
0.0
 40
0.0
 40
1.0
 40
1.0
 40
1.0
 40
2.0
 40
2.0
 40
2.0
 40
3.0
 40
3.0
 40
3.0
 40
4.0
 40
4.0
 40
4.0
 40
4.0
 10
71.00340513299666
 20
-133.4919224666269
 30
0.0
 10
71.00340513299666
 20
-133.436818577752
 30
0.0
 10
70.95863763413878
 20
-133.3920157999853
 30
0.0
 10
70.90349846887884
 20
-133.3920157999853
 30
0.0
 10
70.84857097028015
 20
-133.3920157999853
 30
0.0
 10
70.80376819364538
 20
-133.436818577752
 30
0.0
 10
70.80376819364538
 20
-133.4919224666269
 30
0.0
 10
70.80376819364538
 20
-133.5477319110574
 30
0.0
 10
70.84857097028015
 20
-133.5925346888241
 30
0.0
 10
70.90349846887884
 20
-133.5925346888241
 30
0.0
 10
70.95863763413878
 20
-133.5925346888241
 30
0.0
 10
71.00340513299666
 20
-133.5477319110574
 30
0.0
 10
71.00340513299666
 20
-133.4919224666269
 30
0.0
  0
SPLINE
  5
8E
330
1F
100
AcDbEntity
  8
_U+30EC_U+30A4_U+30E4_U+30FC 1
 62
   179
420
  2234388
370
     9
100
AcDbSpline
210
0.0
220
0.0
230
1.0
 70
    11
 71
     3
 72
    17
 73
    13
 74
     0
 42
0.0000000001
 43
0.0000000001
 12
1.0
 22
0.0
 32
0.0
 13
1.0
 23
0.0
 33
0.0
 40
0.0
 40
0.0
 40
0.0
 40
0.0
 40
1.0
 40
1.0
 40
1.0
 40
2.0
 40
2.0
 40
2.0
 40
3.0
 40
3.0
 40
3.0
 40
4.0
 40
4.0
 40
4.0
 40
4.0
 10
71.00340513299666
 20
-148.4856835739897
 30
0.0
 10
71.00340513299666
 20
-148.4305444073367
 30
0.0
 10
70.95863763413878
 20
-148.3857769073481
 30
0.0
 10
70.90349846887884
 20
-148.3857769073481
 30
0.0
 10
70.84857097028015
 20
-148.3857769073481
 30
0.0
 10
70.80376819364538
 20
-148.4305444073367
 30
0.0
 10
70.80376819364538
 20
-148.4856835739897
 30
0.0
 10
70.80376819364538
 20
-148.5414930184202
 30
0.0
 10
70.84857097028015
 20
-148.5862957961869
 30
0.0
 10
70.90349846887884
 20
-148.5862957961869
 30
0.0
 10
70.95863763413878
 20
-148.5862957961869
 30
0.0
 10
71.00340513299666
 20
-148.5414930184202
 30
0.0
 10
71.00340513299666
 20
-148.4856835739897
 30
0.0
  0
ENDSEC
  0
SECTION
  2
OBJECTS
  0
DICTIONARY
  5
C
330
0
100
AcDbDictionary
281
     1
  3
ACAD_GROUP
350
D
  3
ACAD_LAYOUT
350
1A
  3
ACAD_MATERIAL
350
3B
  3
ACAD_MLEADERSTYLE
350
90
  3
ACAD_MLINESTYLE
350
17
  3
ACAD_PLOTSETTINGS
350
19
  3
ACAD_PLOTSTYLENAME
350
E
  3
ACAD_TABLESTYLE
350
8F
  3
ACAD_VISUALSTYLE
350
2A
  0
SUN
  5
3F
330
29
100
AcDbSun
 90
        1
290
     0
 63
     7
421
 16777215
 40
1.0
291
     1
 91
  2455826
 92
 54000000
292
     0
 70
     2
 71
   256
280
     1
  0
DICTIONARY
  5
D
102
{ACAD_REACTORS
330
C
102
}
330
C
100
AcDbDictionary
281
     1
  0
DICTIONARY
  5
1A
102
{ACAD_REACTORS
330
C
102
}
330
C
100
AcDbDictionary
281
     1
  3
Layout1
350
1E
  3
Layout2
350
26
  3
Model
350
22
  0
DICTIONARY
  5
3B
102
{ACAD_REACTORS
330
C
102
}
330
C
100
AcDbDictionary
281
     1
  3
ByBlock
350
3D
  3
ByLayer
350
3C
  3
Global
350
3E
  0
DICTIONARY
  5
90
102
{ACAD_REACTORS
330
C
102
}
330
C
100
AcDbDictionary
281
     1
  0
DICTIONARY
  5
17
102
{ACAD_REACTORS
330
C
102
}
330
C
100
AcDbDictionary
281
     1
  3
Standard
350
18
  0
DICTIONARY
  5
19
102
{ACAD_REACTORS
330
C
102
}
330
C
100
AcDbDictionary
281
     1
  0
ACDBDICTIONARYWDFLT
  5
E
102
{ACAD_REACTORS
330
C
102
}
330
C
100
AcDbDictionary
281
     1
  3
Normal
350
F
100
AcDbDictionaryWithDefault
340
F
  0
DICTIONARY
  5
8F
102
{ACAD_REACTORS
330
C
102
}
330
C
100
AcDbDictionary
281
     1
  0
DICTIONARY
  5
2A
102
{ACAD_REACTORS
330
C
102
}
330
C
100
AcDbDictionary
281
     1
  3
2dWireframe
350
2F
  3
3D Hidden
350
31
  3
3dWireframe
350
30
  3
Basic
350
32
  3
Brighten
350
36
  3
ColorChange
350
3A
  3
Conceptual
350
34
  3
Dim
350
35
  3
Facepattern
350
39
  3
Flat
350
2B
  3
FlatWithEdges
350
2C
  3
Gouraud
350
2D
  3
GouraudWithEdges
350
2E
  3
Linepattern
350
38
  3
Realistic
350
33
  3
Thicken
350
37
  0
LAYOUT
  5
1E
102
{ACAD_REACTORS
330
1A
102
}
330
1A
100
AcDbPlotSettings
  1

  2
none_device
  4

  6

 40
0.0
 41
0.0
 42
0.0
 43
0.0
 44
0.0
 45
0.0
 46
0.0
 47
0.0
 48
0.0
 49
0.0
140
0.0
141
0.0
142
1.0
143
1.0
 70
   688
 72
     0
 73
     0
 74
     5
  7

 75
    16
 76
     0
 77
     2
 78
   300
147
1.0
148
0.0
149
0.0
100
AcDbLayout
  1
Layout1
 70
     1
 71
     1
 10
0.0
 20
0.0
 11
12.0
 21
9.0
 12
0.0
 22
0.0
 32
0.0
 14
1.000000000000000E+20
 24
1.000000000000000E+20
 34
1.000000000000000E+20
 15
-1.000000000000000E+20
 25
-1.000000000000000E+20
 35
-1.000000000000000E+20
146
0.0
 13
0.0
 23
0.0
 33
0.0
 16
1.0
 26
0.0
 36
0.0
 17
0.0
 27
1.0
 37
0.0
 76
     0
330
1B
  0
LAYOUT
  5
26
102
{ACAD_REACTORS
330
1A
102
}
330
1A
100
AcDbPlotSettings
  1

  2
none_device
  4

  6

 40
0.0
 41
0.0
 42
0.0
 43
0.0
 44
0.0
 45
0.0
 46
0.0
 47
0.0
 48
0.0
 49
0.0
140
0.0
141
0.0
142
1.0
143
1.0
 70
   688
 72
     0
 73
     0
 74
     5
  7

 75
    16
 76
     0
 77
     2
 78
   300
147
1.0
148
0.0
149
0.0
100
AcDbLayout
  1
Layout2
 70
     1
 71
     2
 10
0.0
 20
0.0
 11
0.0
 21
0.0
 12
0.0
 22
0.0
 32
0.0
 14
0.0
 24
0.0
 34
0.0
 15
0.0
 25
0.0
 35
0.0
146
0.0
 13
0.0
 23
0.0
 33
0.0
 16
1.0
 26
0.0
 36
0.0
 17
0.0
 27
1.0
 37
0.0
 76
     0
330
23
  0
LAYOUT
  5
22
102
{ACAD_REACTORS
330
1A
102
}
330
1A
100
AcDbPlotSettings
  1

  2
none_device
  4

  6

 40
0.0
 41
0.0
 42
0.0
 43
0.0
 44
0.0
 45
0.0
 46
0.0
 47
0.0
 48
0.0
 49
0.0
140
0.0
141
0.0
142
1.0
143
1.0
 70
  1712
 72
     0
 73
     0
 74
     0
  7

 75
     0
 76
     0
 77
     2
 78
   300
147
1.0
148
0.0
149
0.0
100
AcDbLayout
  1
Model
 70
     1
 71
     0
 10
0.0
 20
0.0
 11
12.0
 21
9.0
 12
0.0
 22
0.0
 32
0.0
 14
1.000000000000000E+20
 24
1.000000000000000E+20
 34
1.000000000000000E+20
 15
-1.000000000000000E+20
 25
-1.000000000000000E+20
 35
-1.000000000000000E+20
146
0.0
 13
0.0
 23
0.0
 33
0.0
 16
1.0
 26
0.0
 36
0.0
 17
0.0
 27
1.0
 37
0.0
 76
     0
330
1F
331
29
  0
MATERIAL
  5
3D
102
{ACAD_REACTORS
330
3B
102
}
330
3B
100
AcDbMaterial
  1
ByBlock
 72
     1
 94
      127
  0
MATERIAL
  5
3C
102
{ACAD_REACTORS
330
3B
102
}
330
3B
100
AcDbMaterial
  1
ByLayer
 72
     1
 94
      127
  0
MATERIAL
  5
3E
102
{ACAD_REACTORS
330
3B
102
}
330
3B
100
AcDbMaterial
  1
Global
 72
     1
 94
      127
  0
MLINESTYLE
  5
18
102
{ACAD_REACTORS
330
17
102
}
330
17
100
AcDbMlineStyle
  2
Standard
 70
     0
  3

 62
   256
 51
90.0
 52
90.0
 71
     2
 49
0.5
 62
   256
  6
BYLAYER
 49
-0.5
 62
   256
  6
BYLAYER
  0
ACDBPLACEHOLDER
  5
F
102
{ACAD_REACTORS
330
E
102
}
330
E
  0
VISUALSTYLE
  5
2F
102
{ACAD_REACTORS
330
2A
102
}
330
2A
100
AcDbVisualStyle
  2
2dWireframe
 70
     4
177
     2
291
     0
 71
     0
176
     1
 72
     2
176
     1
 73
     0
176
     1
 90
        0
176
     1
 40
-0.6
176
     1
 41
-30.0
176
     1
 62
     5
 63
     7
421
 16777215
176
     1
 74
     1
176
     1
 91
        4
176
     1
 64
     7
176
     1
 65
   257
176
     1
 75
     1
176
     1
175
     1
176
     1
 42
1.0
176
     1
 92
        0
176
     1
 66
   257
176
     1
 43
1.0
176
     1
 76
     1
176
     1
 77
     6
176
     1
 78
     2
176
     1
 67
     7
176
     1
 79
     5
176
     1
170
     0
176
     1
171
     0
176
     1
290
     0
176
     1
 93
        1
176
     1
 44
0.0
176
     1
173
     0
176
     1
  0
VISUALSTYLE
  5
31
102
{ACAD_REACTORS
330
2A
102
}
330
2A
100
AcDbVisualStyle
  2
3D Hidden
 70
     6
177
     2
291
     0
 71
     1
176
     1
 72
     2
176
     1
 73
     2
176
     1
 90
        0
176
     1
 40
-0.6
176
     1
 41
-30.0
176
     1
 62
     5
 63
     7
421
 16777215
176
     1
 74
     2
176
     1
 91
        2
176
     1
 64
     7
176
     1
 65
   257
176
     1
 75
     2
176
     1
175
     1
176
     1
 42
40.0
176
     1
 92
        0
176
     1
 66
   257
176
     1
 43
1.0
176
     1
 76
     1
176
     1
 77
     6
176
     1
 78
     2
176
     1
 67
     7
176
     1
 79
     3
176
     1
170
     0
176
     1
171
     0
176
     1
290
     0
176
     1
 93
        1
176
     1
 44
0.0
176
     1
173
     0
176
     1
  0
VISUALSTYLE
  5
30
102
{ACAD_REACTORS
330
2A
102
}
330
2A
100
AcDbVisualStyle
  2
3dWireframe
 70
     5
177
     2
291
     0
 71
     0
176
     1
 72
     2
176
     1
 73
     0
176
     1
 90
        0
176
     1
 40
-0.6
176
     1
 41
-30.0
176
     1
 62
     5
 63
     7
421
 16777215
176
     1
 74
     1
176
     1
 91
        4
176
     1
 64
     7
176
     1
 65
   257
176
     1
 75
     1
176
     1
175
     1
176
     1
 42
1.0
176
     1
 92
        0
176
     1
 66
   257
176
     1
 43
1.0
176
     1
 76
     1
176
     1
 77
     6
176
     1
 78
     2
176
     1
 67
     7
176
     1
 79
     5
176
     1
170
     0
176
     1
171
     0
176
     1
290
     0
176
     1
 93
        1
176
     1
 44
0.0
176
     1
173
     0
176
     1
  0
VISUALSTYLE
  5
32
102
{ACAD_REACTORS
330
2A
102
}
330
2A
100
AcDbVisualStyle
  2
Basic
 70
     7
177
     2
291
     1
 71
     1
176
     1
 72
     0
176
     1
 73
     1
176
     1
 90
        0
176
     1
 40
-0.6
176
     1
 41
-30.0
176
     1
 62
     5
 63
     7
421
 16777215
176
     1
 74
     0
176
     1
 91
        4
176
     1
 64
     7
176
     1
 65
   257
176
     1
 75
     1
176
     1
175
     1
176
     1
 42
1.0
176
     1
 92
        8
176
     1
 66
     7
176
     1
 43
1.0
176
     1
 76
     1
176
     1
 77
     6
176
     1
 78
     2
176
     1
 67
     7
176
     1
 79
     5
176
     1
170
     0
176
     1
171
     0
176
     1
290
     0
176
     1
 93
        1
176
     1
 44
0.0
176
     1
173
     0
176
     1
  0
VISUALSTYLE
  5
36
102
{ACAD_REACTORS
330
2A
102
}
330
2A
100
AcDbVisualStyle
  2
Brighten
 70
    12
177
     2
291
     1
 71
     2
176
     1
 72
     2
176
     1
 73
     0
176
     1
 90
        0
176
     1
 40
-0.6
176
     1
 41
-30.0
176
     1
 62
     5
 63
     7
421
 16777215
176
     1
 74
     1
176
     1
 91
        4
176
     1
 64
     7
176
     1
 65
   257
176
     1
 75
     1
176
     1
175
     1
176
     1
 42
1.0
176
     1
 92
        8
176
     1
 66
     7
176
     1
 43
1.0
176
     1
 76
     1
176
     1
 77
     6
176
     1
 78
     2
176
     1
 67
     7
176
     1
 79
     5
176
     1
170
     0
176
     1
171
     0
176
     1
290
     0
176
     1
 93
        1
176
     1
 44
50.0
176
     1
173
     0
176
     1
  0
VISUALSTYLE
  5
3A
102
{ACAD_REACTORS
330
2A
102
}
330
2A
100
AcDbVisualStyle
  2
ColorChange
 70
    16
177
     2
291
     1
 71
     2
176
     1
 72
     2
176
     1
 73
     3
176
     1
 90
        0
176
     1
 40
-0.6
176
     1
 41
-30.0
176
     1
 62
     5
 63
     8
421
  8421504
176
     1
 74
     1
176
     1
 91
        4
176
     1
 64
     7
176
     1
 65
   257
176
     1
 75
     1
176
     1
175
     1
176
     1
 42
1.0
176
     1
 92
        8
176
     1
 66
     8
424
  8421504
176
     1
 43
1.0
176
     1
 76
     1
176
     1
 77
     6
176
     1
 78
     2
176
     1
 67
     7
176
     1
 79
     5
176
     1
170
     0
176
     1
171
     0
176
     1
290
     0
176
     1
 93
        1
176
     1
 44
0.0
176
     1
173
     0
176
     1
  0
VISUALSTYLE
  5
34
102
{ACAD_REACTORS
330
2A
102
}
330
2A
100
AcDbVisualStyle
  2
Conceptual
 70
     9
177
     2
291
     0
 71
     3
176
     1
 72
     2
176
     1
 73
     0
176
     1
 90
        0
176
     1
 40
-0.6
176
     1
 41
-30.0
176
     1
 62
     5
 63
     7
421
 16777215
176
     1
 74
     2
176
     1
 91
        2
176
     1
 64
     7
176
     1
 65
   257
176
     1
 75
     1
176
     1
175
     1
176
     1
 42
40.0
176
     1
 92
        8
176
     1
 66
     7
176
     1
 43
1.0
176
     1
 76
     1
176
     1
 77
     6
176
     1
 78
     2
176
     1
 67
     7
176
     1
 79
     3
176
     1
170
     0
176
     1
171
     0
176
     1
290
     0
176
     1
 93
        1
176
     1
 44
0.0
176
     1
173
     0
176
     1
  0
VISUALSTYLE
  5
35
102
{ACAD_REACTORS
330
2A
102
}
330
2A
100
AcDbVisualStyle
  2
Dim
 70
    11
177
     2
291
     1
 71
     2
176
     1
 72
     2
176
     1
 73
     0
176
     1
 90
        0
176
     1
 40
-0.6
176
     1
 41
-30.0
176
     1
 62
     5
 63
     7
421
 16777215
176
     1
 74
     1
176
     1
 91
        4
176
     1
 64
     7
176
     1
 65
   257
176
     1
 75
     1
176
     1
175
     1
176
     1
 42
1.0
176
     1
 92
        8
176
     1
 66
     7
176
     1
 43
1.0
176
     1
 76
     1
176
     1
 77
     6
176
     1
 78
     2
176
     1
 67
     7
176
     1
 79
     5
176
     1
170
     0
176
     1
171
     0
176
     1
290
     0
176
     1
 93
        1
176
     1
 44
-50.0
176
     1
173
     0
176
     1
  0
VISUALSTYLE
  5
39
102
{ACAD_REACTORS
330
2A
102
}
330
2A
100
AcDbVisualStyle
  2
Facepattern
 70
    15
177
     2
291
     1
 71
     2
176
     1
 72
     2
176
     1
 73
     0
176
     1
 90
        0
176
     1
 40
-0.6
176
     1
 41
-30.0
176
     1
 62
     5
 63
     7
421
 16777215
176
     1
 74
     1
176
     1
 91
        4
176
     1
 64
     7
176
     1
 65
   257
176
     1
 75
     1
176
     1
175
     1
176
     1
 42
1.0
176
     1
 92
        8
176
     1
 66
     7
176
     1
 43
1.0
176
     1
 76
     1
176
     1
 77
     6
176
     1
 78
     2
176
     1
 67
     7
176
     1
 79
     5
176
     1
170
     0
176
     1
171
     0
176
     1
290
     0
176
     1
 93
        1
176
     1
 44
0.0
176
     1
173
     0
176
     1
  0
VISUALSTYLE
  5
2B
102
{ACAD_REACTORS
330
2A
102
}
330
2A
100
AcDbVisualStyle
  2
Flat
 70
     0
177
     2
291
     1
 71
     2
176
     1
 72
     1
176
     1
 73
     1
176
     1
 90
        2
176
     1
 40
-0.6
176
     1
 41
30.0
176
     1
 62
     5
 63
     7
421
 16777215
176
     1
 74
     0
176
     1
 91
        4
176
     1
 64
     7
176
     1
 65
   257
176
     1
 75
     1
176
     1
175
     1
176
     1
 42
1.0
176
     1
 92
        8
176
     1
 66
     7
176
     1
 43
1.0
176
     1
 76
     1
176
     1
 77
     6
176
     1
 78
     2
176
     1
 67
     7
176
     1
 79
     5
176
     1
170
     0
176
     1
171
     0
176
     1
290
     0
176
     1
 93
       13
176
     1
 44
0.0
176
     1
173
     0
176
     1
  0
VISUALSTYLE
  5
2C
102
{ACAD_REACTORS
330
2A
102
}
330
2A
100
AcDbVisualStyle
  2
FlatWithEdges
 70
     1
177
     2
291
     1
 71
     2
176
     1
 72
     1
176
     1
 73
     1
176
     1
 90
        2
176
     1
 40
-0.6
176
     1
 41
30.0
176
     1
 62
     5
 63
     7
421
 16777215
176
     1
 74
     1
176
     1
 91
        4
176
     1
 64
     7
176
     1
 65
   257
176
     1
 75
     1
176
     1
175
     1
176
     1
 42
1.0
176
     1
 92
        0
176
     1
 66
   257
176
     1
 43
1.0
176
     1
 76
     1
176
     1
 77
     6
176
     1
 78
     2
176
     1
 67
     7
176
     1
 79
     5
176
     1
170
     0
176
     1
171
     0
176
     1
290
     0
176
     1
 93
       13
176
     1
 44
0.0
176
     1
173
     0
176
     1
  0
VISUALSTYLE
  5
2D
102
{ACAD_REACTORS
330
2A
102
}
330
2A
100
AcDbVisualStyle
  2
Gouraud
 70
     2
177
     2
291
     1
 71
     2
176
     1
 72
     2
176
     1
 73
     1
176
     1
 90
        2
176
     1
 40
-0.6
176
     1
 41
30.0
176
     1
 62
     5
 63
     7
421
 16777215
176
     1
 74
     0
176
     1
 91
        4
176
     1
 64
     7
176
     1
 65
   257
176
     1
 75
     1
176
     1
175
     1
176
     1
 42
1.0
176
     1
 92
        0
176
     1
 66
     7
176
     1
 43
1.0
176
     1
 76
     1
176
     1
 77
     6
176
     1
 78
     2
176
     1
 67
     7
176
     1
 79
     5
176
     1
170
     0
176
     1
171
     0
176
     1
290
     0
176
     1
 93
       13
176
     1
 44
0.0
176
     1
173
     0
176
     1
  0
VISUALSTYLE
  5
2E
102
{ACAD_REACTORS
330
2A
102
}
330
2A
100
AcDbVisualStyle
  2
GouraudWithEdges
 70
     3
177
     2
291
     1
 71
     2
176
     1
 72
     2
176
     1
 73
     1
176
     1
 90
        2
176
     1
 40
-0.6
176
     1
 41
30.0
176
     1
 62
     5
 63
     7
421
 16777215
176
     1
 74
     1
176
     1
 91
        4
176
     1
 64
     7
176
     1
 65
   257
176
     1
 75
     1
176
     1
175
     1
176
     1
 42
1.0
176
     1
 92
        0
176
     1
 66
   257
176
     1
 43
1.0
176
     1
 76
     1
176
     1
 77
     6
176
     1
 78
     2
176
     1
 67
     7
176
     1
 79
     5
176
     1
170
     0
176
     1
171
     0
176
     1
290
     0
176
     1
 93
       13
176
     1
 44
0.0
176
     1
173
     0
176
     1
  0
VISUALSTYLE
  5
38
102
{ACAD_REACTORS
330
2A
102
}
330
2A
100
AcDbVisualStyle
  2
Linepattern
 70
    14
177
     2
291
     1
 71
     2
176
     1
 72
     2
176
     1
 73
     0
176
     1
 90
        0
176
     1
 40
-0.6
176
     1
 41
-30.0
176
     1
 62
     5
 63
     7
421
 16777215
176
     1
 74
     1
176
     1
 91
        4
176
     1
 64
     7
176
     1
 65
   257
176
     1
 75
     7
176
     1
175
     7
176
     1
 42
1.0
176
     1
 92
        8
176
     1
 66
     7
176
     1
 43
1.0
176
     1
 76
     1
176
     1
 77
     6
176
     1
 78
     2
176
     1
 67
     7
176
     1
 79
     5
176
     1
170
     0
176
     1
171
     0
176
     1
290
     0
176
     1
 93
        1
176
     1
 44
0.0
176
     1
173
     0
176
     1
  0
VISUALSTYLE
  5
33
102
{ACAD_REACTORS
330
2A
102
}
330
2A
100
AcDbVisualStyle
  2
Realistic
 70
     8
177
     2
291
     0
 71
     2
176
     1
 72
     2
176
     1
 73
     0
176
     1
 90
        0
176
     1
 40
-0.6
176
     1
 41
-30.0
176
     1
 62
     5
 63
     7
421
 16777215
176
     1
 74
     1
176
     1
 91
        0
176
     1
 64
     7
176
     1
 65
   257
176
     1
 75
     1
176
     1
175
     1
176
     1
 42
1.0
176
     1
 92
        8
176
     1
 66
     8
424
  7895160
176
     1
 43
1.0
176
     1
 76
     1
176
     1
 77
     6
176
     1
 78
     2
176
     1
 67
     7
176
     1
 79
     5
176
     1
170
     0
176
     1
171
     0
176
     1
290
     0
176
     1
 93
       13
176
     1
 44
0.0
176
     1
173
     0
176
     1
  0
VISUALSTYLE
  5
37
102
{ACAD_REACTORS
330
2A
102
}
330
2A
100
AcDbVisualStyle
  2
Thicken
 70
    13
177
     2
291
     1
 71
     2
176
     1
 72
     2
176
     1
 73
     0
176
     1
 90
        0
176
     1
 40
-0.6
176
     1
 41
-30.0
176
     1
 62
     5
 63
     7
421
 16777215
176
     1
 74
     1
176
     1
 91
        4
176
     1
 64
     7
176
     1
 65
   257
176
     1
 75
     1
176
     1
175
     1
176
     1
 42
1.0
176
     1
 92
       12
176
     1
 66
     7
176
     1
 43
1.0
176
     1
 76
     1
176
     1
 77
     6
176
     1
 78
     2
176
     1
 67
     7
176
     1
 79
     5
176
     1
170
     0
176
     1
171
     0
176
     1
290
     0
176
     1
 93
        1
176
     1
 44
0.0
176
     1
173
     0
176
     1
  0
ENDSEC
  0
EOF
