  0
SECTION
  2
HEADER
  9
$ACADVER
  1
AC1024
  9
$ACADMAINTVER
 70
     6
  9
$DWGCODEPAGE
  3
UNDEFINED
  9
$INSBASE
 10
0.0
 20
0.0
 30
0.0
  9
$EXTMIN
 10
1.000000000000000E+20
 20
1.000000000000000E+20
 30
1.000000000000000E+20
  9
$EXTMAX
 10
-1.000000000000000E+20
 20
-1.000000000000000E+20
 30
-1.000000000000000E+20
  9
$LIMMIN
 10
0.0
 20
0.0
  9
$LIMMAX
 10
12.0
 20
9.0
  9
$ORTHOMODE
 70
     0
  9
$REGENMODE
 70
     1
  9
$FILLMODE
 70
     1
  9
$QTEXTMODE
 70
     0
  9
$MIRRTEXT
 70
     1
  9
$LTSCALE
 40
1.0
  9
$ATTMODE
 70
     1
  9
$TEXTSIZE
 40
0.2
  9
$TRACEWID
 40
0.05
  9
$TEXTSTYLE
  7
Standard
  9
$CLAYER
  8
0
  9
$CELTYPE
  6
ByLayer
  9
$CECOLOR
 62
   256
  9
$CELTSCALE
 40
1.0
  9
$DISPSILH
 70
     0
  9
$DIMSCALE
 40
1.0
  9
$DIMASZ
 40
0.18
  9
$DIMEXO
 40
0.0625
  9
$DIMDLI
 40
0.38
  9
$DIMRND
 40
0.0
  9
$DIMDLE
 40
0.0
  9
$DIMEXE
 40
0.18
  9
$DIMTP
 40
0.0
  9
$DIMTM
 40
0.0
  9
$DIMTXT
 40
0.18
  9
$DIMCEN
 40
0.09
  9
$DIMTSZ
 40
0.0
  9
$DIMTOL
 70
     0
  9
$DIMLIM
 70
     0
  9
$DIMTIH
 70
     1
  9
$DIMTOH
 70
     1
  9
$DIMSE1
 70
     0
  9
$DIMSE2
 70
     0
  9
$DIMTAD
 70
     0
  9
$DIMZIN
 70
     0
  9
$DIMBLK
  1

  9
$DIMASO
 70
     1
  9
$DIMSHO
 70
     1
  9
$DIMPOST
  1

  9
$DIMAPOST
  1

  9
$DIMALT
 70
     0
  9
$DIMALTD
 70
     2
  9
$DIMALTF
 40
25.4
  9
$DIMLFAC
 40
1.0
  9
$DIMTOFL
 70
     0
  9
$DIMTVP
 40
0.0
  9
$DIMTIX
 70
     0
  9
$DIMSOXD
 70
     0
  9
$DIMSAH
 70
     0
  9
$DIMBLK1
  1

  9
$DIMBLK2
  1

  9
$DIMSTYLE
  2
Standard
  9
$DIMCLRD
 70
     0
  9
$DIMCLRE
 70
     0
  9
$DIMCLRT
 70
     0
  9
$DIMTFAC
 40
1.0
  9
$DIMGAP
 40
0.09
  9
$DIMJUST
 70
     0
  9
$DIMSD1
 70
     0
  9
$DIMSD2
 70
     0
  9
$DIMTOLJ
 70
     1
  9
$DIMTZIN
 70
     0
  9
$DIMALTZ
 70
     0
  9
$DIMALTTZ
 70
     0
  9
$DIMUPT
 70
     0
  9
$DIMDEC
 70
     4
  9
$DIMTDEC
 70
     4
  9
$DIMALTU
 70
     2
  9
$DIMALTTD
 70
     2
  9
$DIMTXSTY
  7
Standard
  9
$DIMAUNIT
 70
     0
  9
$DIMADEC
 70
     0
  9
$DIMALTRND
 40
0.0
  9
$DIMAZIN
 70
     0
  9
$DIMDSEP
 70
    46
  9
$DIMATFIT
 70
     3
  9
$DIMFRAC
 70
     0
  9
$DIMLDRBLK
  1

  9
$DIMLUNIT
 70
     2
  9
$DIMLWD
 70
    -2
  9
$DIMLWE
 70
    -2
  9
$DIMTMOVE
 70
     0
  9
$DIMFXL
 40
1.0
  9
$DIMFXLON
 70
     0
  9
$DIMJOGANG
 40
0.7853981633974483
  9
$DIMTFILL
 70
     0
  9
$DIMTFILLCLR
 70
     0
  9
$DIMARCSYM
 70
     0
  9
$DIMLTYPE
  6

  9
$DIMLTEX1
  6

  9
$DIMLTEX2
  6

  9
$DIMTXTDIRECTION
 70
     0
  9
$LUNITS
 70
     2
  9
$LUPREC
 70
     4
  9
$SKETCHINC
 40
0.1
  9
$FILLETRAD
 40
0.5
  9
$AUNITS
 70
     0
  9
$AUPREC
 70
     0
  9
$MENU
  1
.
  9
$ELEVATION
 40
0.0
  9
$PELEVATION
 40
0.0
  9
$THICKNESS
 40
0.0
  9
$LIMCHECK
 70
     0
  9
$CHAMFERA
 40
0.5
  9
$CHAMFERB
 40
0.5
  9
$CHAMFERC
 40
1.0
  9
$CHAMFERD
 40
0.0
  9
$SKPOLY
 70
     0
  9
$TDCREATE
 40
2457917.584999988
  9
$TDUCREATE
 40
2457917.21
  9
$TDUPDATE
 40
2457917.584999988
  9
$TDUUPDATE
 40
2457917.21
  9
$TDINDWG
 40
0.0000000116
  9
$TDUSRTIMER
 40
0.0000000116
  9
$USRTIMER
 70
     1
  9
$ANGBASE
 50
0.0
  9
$ANGDIR
 70
     0
  9
$PDMODE
 70
     0
  9
$PDSIZE
 40
0.0
  9
$PLINEWID
 40
0.0
  9
$SPLFRAME
 70
     0
  9
$SPLINETYPE
 70
     6
  9
$SPLINESEGS
 70
     8
  9
$HANDSEED
  5
9B
  9
$SURFTAB1
 70
     6
  9
$SURFTAB2
 70
     6
  9
$SURFTYPE
 70
     6
  9
$SURFU
 70
     6
  9
$SURFV
 70
     6
  9
$UCSBASE
  2

  9
$UCSNAME
  2

  9
$UCSORG
 10
0.0
 20
0.0
 30
0.0
  9
$UCSXDIR
 10
1.0
 20
0.0
 30
0.0
  9
$UCSYDIR
 10
0.0
 20
1.0
 30
0.0
  9
$UCSORTHOREF
  2

  9
$UCSORTHOVIEW
 70
     0
  9
$UCSORGTOP
 10
0.0
 20
0.0
 30
0.0
  9
$UCSORGBOTTOM
 10
0.0
 20
0.0
 30
0.0
  9
$UCSORGLEFT
 10
0.0
 20
0.0
 30
0.0
  9
$UCSORGRIGHT
 10
0.0
 20
0.0
 30
0.0
  9
$UCSORGFRONT
 10
0.0
 20
0.0
 30
0.0
  9
$UCSORGBACK
 10
0.0
 20
0.0
 30
0.0
  9
$PUCSBASE
  2

  9
$PUCSNAME
  2

  9
$PUCSORG
 10
0.0
 20
0.0
 30
0.0
  9
$PUCSXDIR
 10
1.0
 20
0.0
 30
0.0
  9
$PUCSYDIR
 10
0.0
 20
1.0
 30
0.0
  9
$PUCSORTHOREF
  2

  9
$PUCSORTHOVIEW
 70
     0
  9
$PUCSORGTOP
 10
0.0
 20
0.0
 30
0.0
  9
$PUCSORGBOTTOM
 10
0.0
 20
0.0
 30
0.0
  9
$PUCSORGLEFT
 10
0.0
 20
0.0
 30
0.0
  9
$PUCSORGRIGHT
 10
0.0
 20
0.0
 30
0.0
  9
$PUCSORGFRONT
 10
0.0
 20
0.0
 30
0.0
  9
$PUCSORGBACK
 10
0.0
 20
0.0
 30
0.0
  9
$USERI1
 70
     0
  9
$USERI2
 70
     0
  9
$USERI3
 70
     0
  9
$USERI4
 70
     0
  9
$USERI5
 70
     0
  9
$USERR1
 40
0.0
  9
$USERR2
 40
0.0
  9
$USERR3
 40
0.0
  9
$USERR4
 40
0.0
  9
$USERR5
 40
0.0
  9
$WORLDVIEW
 70
     1
  9
$SHADEDGE
 70
     3
  9
$SHADEDIF
 70
    70
  9
$TILEMODE
 70
     1
  9
$MAXACTVP
 70
    64
  9
$PINSBASE
 10
0.0
 20
0.0
 30
0.0
  9
$PLIMCHECK
 70
     0
  9
$PEXTMIN
 10
1.000000000000000E+20
 20
1.000000000000000E+20
 30
1.000000000000000E+20
  9
$PEXTMAX
 10
-1.000000000000000E+20
 20
-1.000000000000000E+20
 30
-1.000000000000000E+20
  9
$PLIMMIN
 10
0.0
 20
0.0
  9
$PLIMMAX
 10
12.0
 20
9.0
  9
$UNITMODE
 70
     0
  9
$VISRETAIN
 70
     1
  9
$PLINEGEN
 70
     0
  9
$PSLTSCALE
 70
     1
  9
$TREEDEPTH
 70
  3020
  9
$CMLSTYLE
  2
Standard
  9
$CMLJUST
 70
     0
  9
$CMLSCALE
 40
1.0
  9
$PROXYGRAPHICS
 70
     1
  9
$MEASUREMENT
 70
     0
  9
$CELWEIGHT
370
    -1
  9
$ENDCAPS
280
     0
  9
$JOINSTYLE
280
     0
  9
$LWDISPLAY
290
     1
  9
$INSUNITS
 70
     1
  9
$HYPERLINKBASE
  1

  9
$STYLESHEET
  1

  9
$XEDIT
290
     1
  9
$CEPSNTYPE
380
     0
  9
$PSTYLEMODE
290
     1
  9
$FINGERPRINTGUID
  2
{1E2EF125-99C2-1F5E-6A59-4CAA529A0653}
  9
$VERSIONGUID
  2
{FAEB1C32-E019-11D5-929B-00C0DF256EC4}
  9
$EXTNAMES
290
     1
  9
$PSVPSCALE
 40
0.0
  9
$OLESTARTUP
290
     0
  9
$SORTENTS
280
   127
  9
$INDEXCTL
280
     0
  9
$HIDETEXT
280
     1
  9
$XCLIPFRAME
280
     2
  9
$HALOGAP
280
     0
  9
$OBSCOLOR
 70
   257
  9
$OBSLTYPE
280
     0
  9
$INTERSECTIONDISPLAY
280
     0
  9
$INTERSECTIONCOLOR
 70
   257
  9
$DIMASSOC
280
     2
  9
$PROJECTNAME
  1

  9
$CAMERADISPLAY
290
     0
  9
$LENSLENGTH
 40
50.0
  9
$CAMERAHEIGHT
 40
0.0
  9
$STEPSPERSEC
 40
2.0
  9
$STEPSIZE
 40
6.0
  9
$3DDWFPREC
 40
2.0
  9
$PSOLWIDTH
 40
0.25
  9
$PSOLHEIGHT
 40
4.0
  9
$LOFTANG1
 40
1.570796326794897
  9
$LOFTANG2
 40
1.570796326794897
  9
$LOFTMAG1
 40
0.0
  9
$LOFTMAG2
 40
0.0
  9
$LOFTPARAM
 70
     7
  9
$LOFTNORMALS
280
     1
  9
$LATITUDE
 40
37.795
  9
$LONGITUDE
 40
-122.394
  9
$NORTHDIRECTION
 40
0.0
  9
$TIMEZONE
 70
 -8000
  9
$LIGHTGLYPHDISPLAY
280
     1
  9
$TILEMODELIGHTSYNCH
280
     1
  9
$CMATERIAL
347
3C
  9
$SOLIDHIST
280
     1
  9
$SHOWHIST
280
     1
  9
$DWFFRAME
280
     2
  9
$DGNFRAME
280
     2
  9
$REALWORLDSCALE
290
     1
  9
$INTERFERECOLOR
 62
   256
  9
$CSHADOW
280
     0
  9
$SHADOWPLANELOCATION
 40
0.0
  0
ENDSEC
  0
SECTION
  2
CLASSES
  0
CLASS
  1
ACDBDICTIONARYWDFLT
  2
AcDbDictionaryWithDefault
  3
ObjectDBX Classes
 90
        0
 91
        4
280
     0
281
     0
  0
CLASS
  1
VISUALSTYLE
  2
AcDbVisualStyle
  3
ObjectDBX Classes
 90
     4095
 91
        4
280
     0
281
     0
  0
CLASS
  1
MATERIAL
  2
AcDbMaterial
  3
ObjectDBX Classes
 90
     1153
 91
        4
280
     0
281
     0
  0
CLASS
  1
SUN
  2
AcDbSun
  3
SCENEOE
 90
     1024
 91
        4
280
     0
281
     0
  0
ENDSEC
  0
SECTION
  2
TABLES
  0
TABLE
  2
VPORT
  5
8
330
0
100
AcDbSymbolTable
 70
     1
  0
VPORT
  5
29
330
8
100
AcDbSymbolTableRecord
100
AcDbViewportTableRecord
  2
*Active
 70
     0
 10
0.0
 20
0.0
 11
1.0
 21
1.0
 12
0.0
 22
0.0
 13
0.0
 23
0.0
 14
0.5
 24
0.5
 15
0.5
 25
0.5
 16
0.0
 26
0.0
 36
1.0
 17
91.00082462281999
 27
-128.4993055234307
 37
0.0
 40
256.9986110468615
 41
0.7081814508812795
 42
50.0
 43
0.0
 44
0.0
 50
0.0
 51
0.0
 71
     0
 72
   100
 73
     1
 74
     3
 75
     0
 76
     0
 77
     0
 78
     0
281
     0
 65
     1
110
0.0
120
0.0
130
0.0
111
1.0
121
0.0
131
0.0
112
0.0
122
1.0
132
0.0
 79
     0
146
0.0
 60
     3
 61
     5
292
     1
282
     1
141
0.0
142
0.0
 63
   250
361
3F
  0
ENDTAB
  0
TABLE
  2
LTYPE
  5
5
330
0
100
AcDbSymbolTable
 70
     1
  0
LTYPE
  5
14
330
5
100
AcDbSymbolTableRecord
100
AcDbLinetypeTableRecord
  2
ByBlock
 70
     0
  3

 72
    65
 73
     0
 40
0.0
  0
LTYPE
  5
15
330
5
100
AcDbSymbolTableRecord
100
AcDbLinetypeTableRecord
  2
ByLayer
 70
     0
  3

 72
    65
 73
     0
 40
0.0
  0
LTYPE
  5
16
330
5
100
AcDbSymbolTableRecord
100
AcDbLinetypeTableRecord
  2
Continuous
 70
     0
  3
Solid line
 72
    65
 73
     0
 40
0.0
  0
ENDTAB
  0
TABLE
  2
LAYER
  5
2
330
0
100
AcDbSymbolTable
 70
     2
  0
LAYER
  5
10
330
2
100
AcDbSymbolTableRecord
100
AcDbLayerTableRecord
  2
0
 70
     0
 62
     7
  6
Continuous
370
    -3
390
F
347
3E
  0
LAYER
  5
40
330
2
100
AcDbSymbolTableRecord
100
AcDbLayerTableRecord
  2
_U+30EC_U+30A4_U+30E4_U+30FC 1
 70
     0
 62
     7
  6
Continuous
370
    -3
390
F
347
3E
  0
ENDTAB
  0
TABLE
  2
STYLE
  5
3
330
0
100
AcDbSymbolTable
 70
     1
  0
STYLE
  5
11
330
3
100
AcDbSymbolTableRecord
100
AcDbTextStyleTableRecord
  2
Standard
 70
     0
 40
0.0
 41
1.0
 50
0.0
 71
     0
 42
0.2
  3
txt
  4

  0
ENDTAB
  0
TABLE
  2
VIEW
  5
6
330
0
100
AcDbSymbolTable
 70
     0
  0
ENDTAB
  0
TABLE
  2
UCS
  5
7
330
0
100
AcDbSymbolTable
 70
     0
  0
ENDTAB
  0
TABLE
  2
APPID
  5
9
330
0
100
AcDbSymbolTable
 70
     1
  0
APPID
  5
12
330
9
100
AcDbSymbolTableRecord
100
AcDbRegAppTableRecord
  2
ACAD
 70
     0
  0
ENDTAB
  0
TABLE
  2
DIMSTYLE
  5
A
330
0
100
AcDbSymbolTable
 70
     1
100
AcDbDimStyleTable
  0
DIMSTYLE
105
27
330
A
100
AcDbSymbolTableRecord
100
AcDbDimStyleTableRecord
  2
Standard
 70
     0
178
     0
340
11
  0
ENDTAB
  0
TABLE
  2
BLOCK_RECORD
  5
1
330
0
100
AcDbSymbolTable
 70
     4
  0
BLOCK_RECORD
  5
1F
330
1
100
AcDbSymbolTableRecord
100
AcDbBlockTableRecord
  2
*Model_Space
340
22
 70
     0
280
     1
281
     0
  0
BLOCK_RECORD
  5
1B
330
1
100
AcDbSymbolTableRecord
100
AcDbBlockTableRecord
  2
*Paper_Space
340
1E
 70
     0
280
     1
281
     0
  0
BLOCK_RECORD
  5
23
330
1
100
AcDbSymbolTableRecord
100
AcDbBlockTableRecord
  2
*Paper_Space0
340
26
 70
     0
280
     1
281
     0
  0
BLOCK_RECORD
  5
66
330
1
100
AcDbSymbolTableRecord
100
AcDbBlockTableRecord
  2
block 2
340
0
102
{BLKREFS
331
67
102
}
 70
     0
280
     1
281
     0
  0
BLOCK_RECORD
  5
6F
330
1
100
AcDbSymbolTableRecord
100
AcDbBlockTableRecord
  2
block 3
340
0
102
{BLKREFS
331
70
102
}
 70
     0
280
     1
281
     0
  0
BLOCK_RECORD
  5
83
330
1
100
AcDbSymbolTableRecord
100
AcDbBlockTableRecord
  2
block 4
340
0
102
{BLKREFS
331
84
102
}
 70
     0
280
     1
281
     0
  0
ENDTAB
  0
ENDSEC
  0
SECTION
  2
BLOCKS
  0
BLOCK
  5
20
330
1F
100
AcDbEntity
  8
0
100
AcDbBlockBegin
  2
*Model_Space
 70
     0
 10
0.0
 20
0.0
 30
0.0
  3
*Model_Space
  1

  0
ENDBLK
  5
21
330
1F
100
AcDbEntity
  8
0
100
AcDbBlockEnd
  0
BLOCK
  5
1C
330
1B
100
AcDbEntity
 67
     1
  8
0
100
AcDbBlockBegin
  2
*Paper_Space
 70
     0
 10
0.0
 20
0.0
 30
0.0
  3
*Paper_Space
  1

  0
ENDBLK
  5
1D
330
1B
100
AcDbEntity
 67
     1
  8
0
100
AcDbBlockEnd
  0
BLOCK
  5
24
330
23
100
AcDbEntity
  8
0
100
AcDbBlockBegin
  2
*Paper_Space0
 70
     0
 10
0.0
 20
0.0
 30
0.0
  3
*Paper_Space0
  1

  0
ENDBLK
  5
25
330
23
100
AcDbEntity
  8
0
100
AcDbBlockEnd
  0
BLOCK
  5
68
330
66
100
AcDbEntity
  8
0
100
AcDbBlockBegin
  2
block 2
 70
     0
 10
0.0
 20
0.0
 30
0.0
  3
block 2
  1

  0
SPLINE
  5
6A
330
66
100
AcDbEntity
  8
_U+30EC_U+30A4_U+30E4_U+30FC 1
370
     0
100
AcDbSpline
210
0.0
220
0.0
230
1.0
 70
    11
 71
     3
 72
    44
 73
    40
 74
     0
 42
0.0000000001
 43
0.0000000001
 12
1.0
 22
0.0
 32
0.0
 13
1.0
 23
0.0
 33
0.0
 40
0.0
 40
0.0
 40
0.0
 40
0.0
 40
1.0
 40
1.0
 40
1.0
 40
2.0
 40
2.0
 40
2.0
 40
3.0
 40
3.0
 40
3.0
 40
4.0
 40
4.0
 40
4.0
 40
5.0
 40
5.0
 40
5.0
 40
6.0
 40
6.0
 40
6.0
 40
7.0
 40
7.0
 40
7.0
 40
8.0
 40
8.0
 40
8.0
 40
9.0
 40
9.0
 40
9.0
 40
10.0
 40
10.0
 40
10.0
 40
11.0
 40
11.0
 40
11.0
 40
12.0
 40
12.0
 40
12.0
 40
13.0
 40
13.0
 40
13.0
 40
13.0
 10
73.37278237097972
 20
-138.4156683681739
 30
0.0
 10
73.53142901807549
 20
-138.6065266580567
 30
0.0
 10
73.60549857100835
 20
-138.6878309115086
 30
0.0
 10
73.74933130751754
 20
-138.7305500955257
 30
0.0
 10
73.74933130751754
 20
-138.7305500955257
 30
0.0
 10
73.74933130751754
 20
-138.0491102085433
 30
0.0
 10
73.74933130751754
 20
-138.0491102085433
 30
0.0
 10
73.74933130751754
 20
-138.0491102085433
 30
0.0
 10
73.95448674366416
 20
-138.0491102085433
 30
0.0
 10
73.95448674366416
 20
-138.0491102085433
 30
0.0
 10
73.95448674366416
 20
-138.0491102085433
 30
0.0
 10
73.95448674366416
 20
-138.9489691492905
 30
0.0
 10
73.95448674366416
 20
-138.9489691492905
 30
0.0
 10
73.59688583229523
 20
-138.9214083854085
 30
0.0
 10
73.51868216478006
 20
-138.8638752908049
 30
0.0
 10
73.22033689575741
 20
-138.5269449523474
 30
0.0
 10
73.0215548862585
 20
-138.3026692362577
 30
0.0
 10
72.95385875997334
 20
-138.2454806512025
 30
0.0
 10
72.81639945011187
 20
-138.2454806512025
 30
0.0
 10
72.69788816541929
 20
-138.2454806512025
 30
0.0
 10
72.56680228220553
 20
-138.3081813890341
 30
0.0
 10
72.56680228220553
 20
-138.4804361632966
 30
0.0
 10
72.56680228220553
 20
-138.7085014844201
 30
0.0
 10
72.79727917016874
 20
-138.7157361849391
 30
0.0
 10
72.91372339757018
 20
-138.7195257899729
 30
0.0
 10
72.91372339757018
 20
-138.7195257899729
 30
0.0
 10
72.91372339757018
 20
-138.9158962326322
 30
0.0
 10
72.91372339757018
 20
-138.9158962326322
 30
0.0
 10
72.78677162893872
 20
-138.9083170225646
 30
0.0
 10
72.67463377089385
 20
-138.8990152647544
 30
0.0
 10
72.55612248620125
 20
-138.8287353168553
 30
0.0
 10
72.39540878181434
 20
-138.7326171528169
 30
0.0
 10
72.36147459128463
 20
-138.569319626816
 30
0.0
 10
72.36147459128463
 20
-138.4676893100011
 30
0.0
 10
72.36147459128463
 20
-138.224810078291
 30
0.0
 10
72.54561494497123
 20
-138.0435980557669
 30
0.0
 10
72.81846650740303
 20
-138.0435980557669
 30
0.0
 10
73.0468763380751
 20
-138.0435980557669
 30
0.0
 10
73.14643959759881
 20
-138.1455728821303
 30
0.0
 10
73.37278237097972
 20
-138.4156683681739
 30
0.0
  0
HATCH
  5
6B
330
66
100
AcDbEntity
  8
_U+30EC_U+30A4_U+30E4_U+30FC 1
 62
     7
420
 16777215
100
AcDbHatch
 10
0.0
 20
0.0
 30
0.0
210
0.0
220
0.0
230
1.0
  2
SOLID
 70
     1
 71
     0
 91
        1
 92
        1
 93
        1
 72
     4
 94
        3
 73
     0
 74
     1
 95
       44
 96
       40
 40
0.0
 40
0.0
 40
0.0
 40
0.0
 40
1.0
 40
1.0
 40
1.0
 40
2.0
 40
2.0
 40
2.0
 40
3.0
 40
3.0
 40
3.0
 40
4.0
 40
4.0
 40
4.0
 40
5.0
 40
5.0
 40
5.0
 40
6.0
 40
6.0
 40
6.0
 40
7.0
 40
7.0
 40
7.0
 40
8.0
 40
8.0
 40
8.0
 40
9.0
 40
9.0
 40
9.0
 40
10.0
 40
10.0
 40
10.0
 40
11.0
 40
11.0
 40
11.0
 40
12.0
 40
12.0
 40
12.0
 40
13.0
 40
13.0
 40
13.0
 40
13.0
 10
73.37278237097972
 20
-138.4156683681739
 10
73.53142901807549
 20
-138.6065266580567
 10
73.60549857100835
 20
-138.6878309115086
 10
73.74933130751754
 20
-138.7305500955257
 10
73.74933130751754
 20
-138.7305500955257
 10
73.74933130751754
 20
-138.0491102085433
 10
73.74933130751754
 20
-138.0491102085433
 10
73.74933130751754
 20
-138.0491102085433
 10
73.95448674366416
 20
-138.0491102085433
 10
73.95448674366416
 20
-138.0491102085433
 10
73.95448674366416
 20
-138.0491102085433
 10
73.95448674366416
 20
-138.9489691492905
 10
73.95448674366416
 20
-138.9489691492905
 10
73.59688583229523
 20
-138.9214083854085
 10
73.51868216478006
 20
-138.8638752908049
 10
73.22033689575741
 20
-138.5269449523474
 10
73.0215548862585
 20
-138.3026692362577
 10
72.95385875997334
 20
-138.2454806512025
 10
72.81639945011187
 20
-138.2454806512025
 10
72.69788816541929
 20
-138.2454806512025
 10
72.56680228220553
 20
-138.3081813890341
 10
72.56680228220553
 20
-138.4804361632966
 10
72.56680228220553
 20
-138.7085014844201
 10
72.79727917016874
 20
-138.7157361849391
 10
72.91372339757018
 20
-138.7195257899729
 10
72.91372339757018
 20
-138.7195257899729
 10
72.91372339757018
 20
-138.9158962326322
 10
72.91372339757018
 20
-138.9158962326322
 10
72.78677162893872
 20
-138.9083170225646
 10
72.67463377089385
 20
-138.8990152647544
 10
72.55612248620125
 20
-138.8287353168553
 10
72.39540878181434
 20
-138.7326171528169
 10
72.36147459128463
 20
-138.569319626816
 10
72.36147459128463
 20
-138.4676893100011
 10
72.36147459128463
 20
-138.224810078291
 10
72.54561494497123
 20
-138.0435980557669
 10
72.81846650740303
 20
-138.0435980557669
 10
73.0468763380751
 20
-138.0435980557669
 10
73.14643959759881
 20
-138.1455728821303
 10
73.37278237097972
 20
-138.4156683681739
 97
        0
 97
        0
 75
     2
 76
     1
 98
        0
  0
SPLINE
  5
6C
330
66
100
AcDbEntity
  8
_U+30EC_U+30A4_U+30E4_U+30FC 1
370
     0
100
AcDbSpline
210
0.0
220
0.0
230
1.0
 70
    11
 71
     3
 72
    29
 73
    25
 74
     0
 42
0.0000000001
 43
0.0000000001
 12
1.0
 22
0.0
 32
0.0
 13
1.0
 23
0.0
 33
0.0
 40
0.0
 40
0.0
 40
0.0
 40
0.0
 40
1.0
 40
1.0
 40
1.0
 40
2.0
 40
2.0
 40
2.0
 40
3.0
 40
3.0
 40
3.0
 40
4.0
 40
4.0
 40
4.0
 40
5.0
 40
5.0
 40
5.0
 40
6.0
 40
6.0
 40
6.0
 40
7.0
 40
7.0
 40
7.0
 40
8.0
 40
8.0
 40
8.0
 40
8.0
 10
73.77671981662527
 20
-137.1182454084288
 30
0.0
 10
73.98618162212846
 20
-137.2126410247246
 30
0.0
 10
74.0053019020716
 20
-137.3645697356241
 30
0.0
 10
74.0053019020716
 20
-137.4665445619875
 30
0.0
 10
74.0053019020716
 20
-137.6071044577857
 30
0.0
 10
73.95879311302072
 20
-137.7314724048032
 30
0.0
 10
73.77671981662527
 20
-137.8144992059978
 30
0.0
 10
73.58207192170865
 20
-137.9051052172598
 30
0.0
 10
73.34522160709773
 20
-137.9219861851376
 30
0.0
 10
73.1822685906454
 20
-137.9219861851376
 30
0.0
 10
73.03843585413622
 20
-137.9219861851376
 30
0.0
 10
72.78677162893872
 20
-137.907172274551
 30
0.0
 10
72.58781736466555
 20
-137.8144992059978
 30
0.0
 10
72.38472898581007
 20
-137.7201035897019
 30
0.0
 10
72.36147459128463
 20
-137.5791991843552
 30
0.0
 10
72.36147459128463
 20
-137.4665445619875
 30
0.0
 10
72.36147459128463
 20
-137.327707213932
 30
0.0
 10
72.40591632304435
 20
-137.2016167191718
 30
0.0
 10
72.58781736466555
 20
-137.1182454084288
 30
0.0
 10
72.78039820229101
 20
-137.0314290022005
 30
0.0
 10
73.00880803296307
 20
-137.010758429289
 30
0.0
 10
73.1822685906454
 20
-137.010758429289
 30
0.0
 10
73.35366209103658
 20
-137.010758429289
 30
0.0
 10
73.58431123377406
 20
-137.0293619449093
 30
0.0
 10
73.77671981662527
 20
-137.1182454084288
 30
0.0
  0
SPLINE
  5
6D
330
66
100
AcDbEntity
  8
_U+30EC_U+30A4_U+30E4_U+30FC 1
370
     0
100
AcDbSpline
210
0.0
220
0.0
230
1.0
 70
    11
 71
     3
 72
    17
 73
    13
 74
     0
 42
0.0000000001
 43
0.0000000001
 12
1.0
 22
0.0
 32
0.0
 13
1.0
 23
0.0
 33
0.0
 40
0.0
 40
0.0
 40
0.0
 40
0.0
 40
1.0
 40
1.0
 40
1.0
 40
2.0
 40
2.0
 40
2.0
 40
3.0
 40
3.0
 40
3.0
 40
4.0
 40
4.0
 40
4.0
 40
4.0
 10
72.5540554289101
 20
-137.4665445619875
 30
0.0
 10
72.5540554289101
 20
-137.6849636157524
 30
0.0
 10
72.83758678734617
 20
-137.7256157424783
 30
0.0
 10
73.1822685906454
 20
-137.7256157424783
 30
0.0
 10
73.50180119690233
 20
-137.7256157424783
 30
0.0
 10
73.81065400715498
 20
-137.6942653735626
 30
0.0
 10
73.81065400715498
 20
-137.4665445619875
 30
0.0
 10
73.81065400715498
 20
-137.2498480559653
 30
0.0
 10
73.52918970601007
 20
-137.2071288719482
 30
0.0
 10
73.1822685906454
 20
-137.2071288719482
 30
0.0
 10
72.86290823916275
 20
-137.2071288719482
 30
0.0
 10
72.5540554289101
 20
-137.2405462981552
 30
0.0
 10
72.5540554289101
 20
-137.4665445619875
 30
0.0
  0
HATCH
  5
6E
330
66
100
AcDbEntity
  8
_U+30EC_U+30A4_U+30E4_U+30FC 1
 62
     7
420
 16777215
100
AcDbHatch
 10
0.0
 20
0.0
 30
0.0
210
0.0
220
0.0
230
1.0
  2
SOLID
 70
     1
 71
     0
 91
        2
 92
        1
 93
        1
 72
     4
 94
        3
 73
     0
 74
     1
 95
       29
 96
       25
 40
0.0
 40
0.0
 40
0.0
 40
0.0
 40
1.0
 40
1.0
 40
1.0
 40
2.0
 40
2.0
 40
2.0
 40
3.0
 40
3.0
 40
3.0
 40
4.0
 40
4.0
 40
4.0
 40
5.0
 40
5.0
 40
5.0
 40
6.0
 40
6.0
 40
6.0
 40
7.0
 40
7.0
 40
7.0
 40
8.0
 40
8.0
 40
8.0
 40
8.0
 10
73.77671981662527
 20
-137.1182454084288
 10
73.98618162212846
 20
-137.2126410247246
 10
74.0053019020716
 20
-137.3645697356241
 10
74.0053019020716
 20
-137.4665445619875
 10
74.0053019020716
 20
-137.6071044577857
 10
73.95879311302072
 20
-137.7314724048032
 10
73.77671981662527
 20
-137.8144992059978
 10
73.58207192170865
 20
-137.9051052172598
 10
73.34522160709773
 20
-137.9219861851376
 10
73.1822685906454
 20
-137.9219861851376
 10
73.03843585413622
 20
-137.9219861851376
 10
72.78677162893872
 20
-137.907172274551
 10
72.58781736466555
 20
-137.8144992059978
 10
72.38472898581007
 20
-137.7201035897019
 10
72.36147459128463
 20
-137.5791991843552
 10
72.36147459128463
 20
-137.4665445619875
 10
72.36147459128463
 20
-137.327707213932
 10
72.40591632304435
 20
-137.2016167191718
 10
72.58781736466555
 20
-137.1182454084288
 10
72.78039820229101
 20
-137.0314290022005
 10
73.00880803296307
 20
-137.010758429289
 10
73.1822685906454
 20
-137.010758429289
 10
73.35366209103658
 20
-137.010758429289
 10
73.58431123377406
 20
-137.0293619449093
 10
73.77671981662527
 20
-137.1182454084288
 97
        0
 97
        0
 92
        1
 93
        1
 72
     4
 94
        3
 73
     0
 74
     1
 95
       17
 96
       13
 40
0.0
 40
0.0
 40
0.0
 40
0.0
 40
1.0
 40
1.0
 40
1.0
 40
2.0
 40
2.0
 40
2.0
 40
3.0
 40
3.0
 40
3.0
 40
4.0
 40
4.0
 40
4.0
 40
4.0
 10
72.5540554289101
 20
-137.4665445619875
 10
72.5540554289101
 20
-137.6849636157524
 10
72.83758678734617
 20
-137.7256157424783
 10
73.1822685906454
 20
-137.7256157424783
 10
73.50180119690233
 20
-137.7256157424783
 10
73.81065400715498
 20
-137.6942653735626
 10
73.81065400715498
 20
-137.4665445619875
 10
73.81065400715498
 20
-137.2498480559653
 10
73.52918970601007
 20
-137.2071288719482
 10
73.1822685906454
 20
-137.2071288719482
 10
72.86290823916275
 20
-137.2071288719482
 10
72.5540554289101
 20
-137.2405462981552
 10
72.5540554289101
 20
-137.4665445619875
 97
        0
 97
        0
 75
     2
 76
     1
 98
        0
  0
ENDBLK
  5
69
330
66
100
AcDbEntity
  8
0
100
AcDbBlockEnd
  0
BLOCK
  5
71
330
6F
100
AcDbEntity
  8
0
100
AcDbBlockBegin
  2
block 3
 70
     0
 10
0.0
 20
0.0
 30
0.0
  3
block 3
  1

  0
SPLINE
  5
73
330
6F
100
AcDbEntity
  8
_U+30EC_U+30A4_U+30E4_U+30FC 1
370
     0
100
AcDbSpline
210
0.0
220
0.0
230
1.0
 70
    11
 71
     3
 72
    26
 73
    22
 74
     0
 42
0.0000000001
 43
0.0000000001
 12
1.0
 22
0.0
 32
0.0
 13
1.0
 23
0.0
 33
0.0
 40
0.0
 40
0.0
 40
0.0
 40
0.0
 40
1.0
 40
1.0
 40
1.0
 40
2.0
 40
2.0
 40
2.0
 40
3.0
 40
3.0
 40
3.0
 40
4.0
 40
4.0
 40
4.0
 40
5.0
 40
5.0
 40
5.0
 40
6.0
 40
6.0
 40
6.0
 40
7.0
 40
7.0
 40
7.0
 40
7.0
 10
73.95448674366416
 20
-122.6121541034615
 30
0.0
 10
73.95448674366416
 20
-122.6121541034615
 30
0.0
 10
72.85016138586732
 20
-122.6121541034615
 30
0.0
 10
72.85016138586732
 20
-122.6121541034615
 30
0.0
 10
72.85016138586732
 20
-122.6121541034615
 30
0.0
 10
72.85016138586732
 20
-122.9010253598997
 30
0.0
 10
72.85016138586732
 20
-122.9010253598997
 30
0.0
 10
72.85016138586732
 20
-122.9010253598997
 30
0.0
 10
72.70219453477584
 20
-122.9010253598997
 30
0.0
 10
72.70219453477584
 20
-122.9010253598997
 30
0.0
 10
72.68738062418927
 20
-122.6102593009447
 30
0.0
 10
72.52442760773695
 20
-122.5696071742187
 30
0.0
 10
72.41022269240092
 20
-122.5435967033051
 30
0.0
 10
72.41022269240092
 20
-122.5435967033051
 30
0.0
 10
72.41022269240092
 20
-122.4157836608023
 30
0.0
 10
72.41022269240092
 20
-122.4157836608023
 30
0.0
 10
72.41022269240092
 20
-122.4157836608023
 30
0.0
 10
73.95448674366416
 20
-122.4157836608023
 30
0.0
 10
73.95448674366416
 20
-122.4157836608023
 30
0.0
 10
73.95448674366416
 20
-122.4157836608023
 30
0.0
 10
73.95448674366416
 20
-122.6121541034615
 30
0.0
 10
73.95448674366416
 20
-122.6121541034615
 30
0.0
  0
HATCH
  5
74
330
6F
100
AcDbEntity
  8
_U+30EC_U+30A4_U+30E4_U+30FC 1
 62
     7
420
 16777215
100
AcDbHatch
 10
0.0
 20
0.0
 30
0.0
210
0.0
220
0.0
230
1.0
  2
SOLID
 70
     1
 71
     0
 91
        1
 92
        1
 93
        1
 72
     4
 94
        3
 73
     0
 74
     1
 95
       26
 96
       22
 40
0.0
 40
0.0
 40
0.0
 40
0.0
 40
1.0
 40
1.0
 40
1.0
 40
2.0
 40
2.0
 40
2.0
 40
3.0
 40
3.0
 40
3.0
 40
4.0
 40
4.0
 40
4.0
 40
5.0
 40
5.0
 40
5.0
 40
6.0
 40
6.0
 40
6.0
 40
7.0
 40
7.0
 40
7.0
 40
7.0
 10
73.95448674366416
 20
-122.6121541034615
 10
73.95448674366416
 20
-122.6121541034615
 10
72.85016138586732
 20
-122.6121541034615
 10
72.85016138586732
 20
-122.6121541034615
 10
72.85016138586732
 20
-122.6121541034615
 10
72.85016138586732
 20
-122.9010253598997
 10
72.85016138586732
 20
-122.9010253598997
 10
72.85016138586732
 20
-122.9010253598997
 10
72.70219453477584
 20
-122.9010253598997
 10
72.70219453477584
 20
-122.9010253598997
 10
72.68738062418927
 20
-122.6102593009447
 10
72.52442760773695
 20
-122.5696071742187
 10
72.41022269240092
 20
-122.5435967033051
 10
72.41022269240092
 20
-122.5435967033051
 10
72.41022269240092
 20
-122.4157836608023
 10
72.41022269240092
 20
-122.4157836608023
 10
72.41022269240092
 20
-122.4157836608023
 10
73.95448674366416
 20
-122.4157836608023
 10
73.95448674366416
 20
-122.4157836608023
 10
73.95448674366416
 20
-122.4157836608023
 10
73.95448674366416
 20
-122.6121541034615
 10
73.95448674366416
 20
-122.6121541034615
 97
        0
 97
        0
 75
     2
 76
     1
 98
        0
  0
SPLINE
  5
75
330
6F
100
AcDbEntity
  8
_U+30EC_U+30A4_U+30E4_U+30FC 1
370
     0
100
AcDbSpline
210
0.0
220
0.0
230
1.0
 70
    11
 71
     3
 72
    53
 73
    49
 74
     0
 42
0.0000000001
 43
0.0000000001
 12
1.0
 22
0.0
 32
0.0
 13
1.0
 23
0.0
 33
0.0
 40
0.0
 40
0.0
 40
0.0
 40
0.0
 40
1.0
 40
1.0
 40
1.0
 40
2.0
 40
2.0
 40
2.0
 40
3.0
 40
3.0
 40
3.0
 40
4.0
 40
4.0
 40
4.0
 40
5.0
 40
5.0
 40
5.0
 40
6.0
 40
6.0
 40
6.0
 40
7.0
 40
7.0
 40
7.0
 40
8.0
 40
8.0
 40
8.0
 40
9.0
 40
9.0
 40
9.0
 40
10.0
 40
10.0
 40
10.0
 40
11.0
 40
11.0
 40
11.0
 40
12.0
 40
12.0
 40
12.0
 40
13.0
 40
13.0
 40
13.0
 40
14.0
 40
14.0
 40
14.0
 40
15.0
 40
15.0
 40
15.0
 40
16.0
 40
16.0
 40
16.0
 40
16.0
 10
74.0053019020716
 20
-121.5553710633612
 30
0.0
 10
74.0053019020716
 20
-121.6239284635176
 30
0.0
 10
73.98824867941961
 20
-121.7128119270371
 30
0.0
 10
73.92485892249101
 20
-121.8016953905565
 30
0.0
 10
73.81478812173728
 20
-121.953624101456
 30
0.0
 10
73.68370223852352
 20
-121.9720553623021
 30
0.0
 10
73.5758707498352
 20
-121.9887640754056
 30
0.0
 10
73.5758707498352
 20
-121.9887640754056
 30
0.0
 10
73.5758707498352
 20
-121.7942884352632
 30
0.0
 10
73.5758707498352
 20
-121.7942884352632
 30
0.0
 10
73.77465275933412
 20
-121.746229353244
 30
0.0
 10
73.80428058050727
 20
-121.6349527690704
 30
0.0
 10
73.80428058050727
 20
-121.5536485156185
 30
0.0
 10
73.80428058050727
 20
-121.4313476258922
 30
0.0
 10
73.7048895757578
 20
-121.298022430613
 30
0.0
 10
73.47217337572918
 20
-121.298022430613
 30
0.0
 10
73.21620278117511
 20
-121.298022430613
 30
0.0
 10
73.14643959759881
 20
-121.4554632942889
 30
0.0
 10
73.14643959759881
 20
-121.5608832161376
 30
0.0
 10
73.14643959759881
 20
-121.5887884895681
 30
0.0
 10
73.14643959759881
 20
-121.7128119270371
 30
0.0
 10
73.27545842352141
 20
-121.7906710850037
 30
0.0
 10
73.27545842352141
 20
-121.7906710850037
 30
0.0
 10
73.25633814357828
 20
-121.9443223436459
 30
0.0
 10
73.25633814357828
 20
-121.9443223436459
 30
0.0
 10
73.25633814357828
 20
-121.9443223436459
 30
0.0
 10
72.41022269240092
 20
-121.838730167023
 30
0.0
 10
72.41022269240092
 20
-121.838730167023
 30
0.0
 10
72.41022269240092
 20
-121.838730167023
 30
0.0
 10
72.41022269240092
 20
-121.1572902800405
 30
0.0
 10
72.41022269240092
 20
-121.1572902800405
 30
0.0
 10
72.41022269240092
 20
-121.1572902800405
 30
0.0
 10
72.60487058731754
 20
-121.1572902800405
 30
0.0
 10
72.60487058731754
 20
-121.1572902800405
 30
0.0
 10
72.60487058731754
 20
-121.1572902800405
 30
0.0
 10
72.60487058731754
 20
-121.6961032139336
 30
0.0
 10
72.60487058731754
 20
-121.6961032139336
 30
0.0
 10
72.60487058731754
 20
-121.6961032139336
 30
0.0
 10
73.02792831290621
 20
-121.753464053763
 30
0.0
 10
73.02792831290621
 20
-121.753464053763
 30
0.0
 10
72.9939941223765
 20
-121.6998928189674
 30
0.0
 10
72.95385875997334
 20
-121.6277180685514
 30
0.0
 10
72.95385875997334
 20
-121.5240206944454
 30
0.0
 10
72.95385875997334
 20
-121.3018120356468
 30
0.0
 10
73.1400661709511
 20
-121.0944172874347
 30
0.0
 10
73.45305309578605
 20
-121.0944172874347
 30
0.0
 10
73.77051864475182
 20
-121.0944172874347
 30
0.0
 10
74.0053019020716
 20
-121.2906154753197
 30
0.0
 10
74.0053019020716
 20
-121.5553710633612
 30
0.0
  0
HATCH
  5
76
330
6F
100
AcDbEntity
  8
_U+30EC_U+30A4_U+30E4_U+30FC 1
 62
     7
420
 16777215
100
AcDbHatch
 10
0.0
 20
0.0
 30
0.0
210
0.0
220
0.0
230
1.0
  2
SOLID
 70
     1
 71
     0
 91
        1
 92
        1
 93
        1
 72
     4
 94
        3
 73
     0
 74
     1
 95
       53
 96
       49
 40
0.0
 40
0.0
 40
0.0
 40
0.0
 40
1.0
 40
1.0
 40
1.0
 40
2.0
 40
2.0
 40
2.0
 40
3.0
 40
3.0
 40
3.0
 40
4.0
 40
4.0
 40
4.0
 40
5.0
 40
5.0
 40
5.0
 40
6.0
 40
6.0
 40
6.0
 40
7.0
 40
7.0
 40
7.0
 40
8.0
 40
8.0
 40
8.0
 40
9.0
 40
9.0
 40
9.0
 40
10.0
 40
10.0
 40
10.0
 40
11.0
 40
11.0
 40
11.0
 40
12.0
 40
12.0
 40
12.0
 40
13.0
 40
13.0
 40
13.0
 40
14.0
 40
14.0
 40
14.0
 40
15.0
 40
15.0
 40
15.0
 40
16.0
 40
16.0
 40
16.0
 40
16.0
 10
74.0053019020716
 20
-121.5553710633612
 10
74.0053019020716
 20
-121.6239284635176
 10
73.98824867941961
 20
-121.7128119270371
 10
73.92485892249101
 20
-121.8016953905565
 10
73.81478812173728
 20
-121.953624101456
 10
73.68370223852352
 20
-121.9720553623021
 10
73.5758707498352
 20
-121.9887640754056
 10
73.5758707498352
 20
-121.9887640754056
 10
73.5758707498352
 20
-121.7942884352632
 10
73.5758707498352
 20
-121.7942884352632
 10
73.77465275933412
 20
-121.746229353244
 10
73.80428058050727
 20
-121.6349527690704
 10
73.80428058050727
 20
-121.5536485156185
 10
73.80428058050727
 20
-121.4313476258922
 10
73.7048895757578
 20
-121.298022430613
 10
73.47217337572918
 20
-121.298022430613
 10
73.21620278117511
 20
-121.298022430613
 10
73.14643959759881
 20
-121.4554632942889
 10
73.14643959759881
 20
-121.5608832161376
 10
73.14643959759881
 20
-121.5887884895681
 10
73.14643959759881
 20
-121.7128119270371
 10
73.27545842352141
 20
-121.7906710850037
 10
73.27545842352141
 20
-121.7906710850037
 10
73.25633814357828
 20
-121.9443223436459
 10
73.25633814357828
 20
-121.9443223436459
 10
73.25633814357828
 20
-121.9443223436459
 10
72.41022269240092
 20
-121.838730167023
 10
72.41022269240092
 20
-121.838730167023
 10
72.41022269240092
 20
-121.838730167023
 10
72.41022269240092
 20
-121.1572902800405
 10
72.41022269240092
 20
-121.1572902800405
 10
72.41022269240092
 20
-121.1572902800405
 10
72.60487058731754
 20
-121.1572902800405
 10
72.60487058731754
 20
-121.1572902800405
 10
72.60487058731754
 20
-121.1572902800405
 10
72.60487058731754
 20
-121.6961032139336
 10
72.60487058731754
 20
-121.6961032139336
 10
72.60487058731754
 20
-121.6961032139336
 10
73.02792831290621
 20
-121.753464053763
 10
73.02792831290621
 20
-121.753464053763
 10
72.9939941223765
 20
-121.6998928189674
 10
72.95385875997334
 20
-121.6277180685514
 10
72.95385875997334
 20
-121.5240206944454
 10
72.95385875997334
 20
-121.3018120356468
 10
73.1400661709511
 20
-121.0944172874347
 10
73.45305309578605
 20
-121.0944172874347
 10
73.77051864475182
 20
-121.0944172874347
 10
74.0053019020716
 20
-121.2906154753197
 10
74.0053019020716
 20
-121.5553710633612
 97
        0
 97
        0
 75
     2
 76
     1
 98
        0
  0
ENDBLK
  5
72
330
6F
100
AcDbEntity
  8
0
100
AcDbBlockEnd
  0
BLOCK
  5
85
330
83
100
AcDbEntity
  8
0
100
AcDbBlockBegin
  2
block 4
 70
     0
 10
0.0
 20
0.0
 30
0.0
  3
block 4
  1

  0
SPLINE
  5
87
330
83
100
AcDbEntity
  8
_U+30EC_U+30A4_U+30E4_U+30FC 1
370
     0
100
AcDbSpline
210
0.0
220
0.0
230
1.0
 70
    11
 71
     3
 72
    32
 73
    28
 74
     0
 42
0.0000000001
 43
0.0000000001
 12
1.0
 22
0.0
 32
0.0
 13
1.0
 23
0.0
 33
0.0
 40
0.0
 40
0.0
 40
0.0
 40
0.0
 40
1.0
 40
1.0
 40
1.0
 40
2.0
 40
2.0
 40
2.0
 40
3.0
 40
3.0
 40
3.0
 40
4.0
 40
4.0
 40
4.0
 40
5.0
 40
5.0
 40
5.0
 40
6.0
 40
6.0
 40
6.0
 40
7.0
 40
7.0
 40
7.0
 40
8.0
 40
8.0
 40
8.0
 40
9.0
 40
9.0
 40
9.0
 40
9.0
 10
80.56907007534384
 20
-111.3189588480383
 30
0.0
 10
80.11724580245333
 20
-111.3189588480383
 30
0.0
 10
80.10983884716005
 20
-110.7646429844616
 30
0.0
 10
80.10983884716005
 20
-110.5510470643761
 30
0.0
 10
80.10983884716005
 20
-110.3203979216387
 30
0.0
 10
80.1265475602635
 20
-109.6730644799602
 30
0.0
 10
80.60248750155077
 20
-109.6730644799602
 30
0.0
 10
80.75424395767602
 20
-109.6730644799602
 30
0.0
 10
80.96904566118135
 20
-109.7428276635365
 30
0.0
 10
81.00246308738828
 20
-110.0749348683146
 30
0.0
 10
81.00246308738828
 20
-110.0749348683146
 30
0.0
 10
80.81539440253921
 20
-110.0749348683146
 30
0.0
 10
80.81539440253921
 20
-110.0749348683146
 30
0.0
 10
80.80609264472903
 20
-110.0179185380337
 30
0.0
 10
80.77835962607277
 20
-109.869779432168
 30
0.0
 10
80.60059269903388
 20
-109.869779432168
 30
0.0
 10
80.34496661402835
 20
-109.869779432168
 30
0.0
 10
80.3098266400788
 20
-110.1977525223638
 30
0.0
 10
80.29863007975173
 20
-110.4029079585104
 30
0.0
 10
80.38027884275216
 20
-110.3247042909952
 30
0.0
 10
80.43953448509845
 20
-110.2654486486489
 30
0.0
 10
80.598697896517
 20
-110.2654486486489
 30
0.0
 10
80.75613876019291
 20
-110.2654486486489
 30
0.0
 10
81.02089434823436
 20
-110.3732801373372
 30
0.0
 10
81.02089434823436
 20
-110.7794568950482
 30
0.0
 10
81.02089434823436
 20
-111.0988172465309
 30
0.0
 10
80.84674477145498
 20
-111.3189588480383
 30
0.0
 10
80.56907007534384
 20
-111.3189588480383
 30
0.0
  0
SPLINE
  5
88
330
83
100
AcDbEntity
  8
_U+30EC_U+30A4_U+30E4_U+30FC 1
370
     0
100
AcDbSpline
210
0.0
220
0.0
230
1.0
 70
    11
 71
     3
 72
    17
 73
    13
 74
     0
 42
0.0000000001
 43
0.0000000001
 12
1.0
 22
0.0
 32
0.0
 13
1.0
 23
0.0
 33
0.0
 40
0.0
 40
0.0
 40
0.0
 40
0.0
 40
1.0
 40
1.0
 40
1.0
 40
2.0
 40
2.0
 40
2.0
 40
3.0
 40
3.0
 40
3.0
 40
4.0
 40
4.0
 40
4.0
 40
4.0
 10
80.58388398593043
 20
-110.4600965435655
 30
0.0
 10
80.35426837183851
 20
-110.4600965435655
 30
0.0
 10
80.32102320040586
 20
-110.6716254063599
 30
0.0
 10
80.32102320040586
 20
-110.7878973789871
 30
0.0
 10
80.32102320040586
 20
-110.9634249939605
 30
0.0
 10
80.40422225637464
 20
-111.1263780104129
 30
0.0
 10
80.56528047031007
 20
-111.1263780104129
 30
0.0
 10
80.67087264693298
 20
-111.1263780104129
 30
0.0
 10
80.82469616034939
 20
-111.0671223680666
 30
0.0
 10
80.82469616034939
 20
-110.7815239523393
 30
0.0
 10
80.82469616034939
 20
-110.5572482362496
 30
0.0
 10
80.70239527062301
 20
-110.4600965435655
 30
0.0
 10
80.58388398593043
 20
-110.4600965435655
 30
0.0
  0
HATCH
  5
89
330
83
100
AcDbEntity
  8
_U+30EC_U+30A4_U+30E4_U+30FC 1
 62
     7
420
 16777215
100
AcDbHatch
 10
0.0
 20
0.0
 30
0.0
210
0.0
220
0.0
230
1.0
  2
SOLID
 70
     1
 71
     0
 91
        2
 92
        1
 93
        1
 72
     4
 94
        3
 73
     0
 74
     1
 95
       32
 96
       28
 40
0.0
 40
0.0
 40
0.0
 40
0.0
 40
1.0
 40
1.0
 40
1.0
 40
2.0
 40
2.0
 40
2.0
 40
3.0
 40
3.0
 40
3.0
 40
4.0
 40
4.0
 40
4.0
 40
5.0
 40
5.0
 40
5.0
 40
6.0
 40
6.0
 40
6.0
 40
7.0
 40
7.0
 40
7.0
 40
8.0
 40
8.0
 40
8.0
 40
9.0
 40
9.0
 40
9.0
 40
9.0
 10
80.56907007534384
 20
-111.3189588480383
 10
80.11724580245333
 20
-111.3189588480383
 10
80.10983884716005
 20
-110.7646429844616
 10
80.10983884716005
 20
-110.5510470643761
 10
80.10983884716005
 20
-110.3203979216387
 10
80.1265475602635
 20
-109.6730644799602
 10
80.60248750155077
 20
-109.6730644799602
 10
80.75424395767602
 20
-109.6730644799602
 10
80.96904566118135
 20
-109.7428276635365
 10
81.00246308738828
 20
-110.0749348683146
 10
81.00246308738828
 20
-110.0749348683146
 10
80.81539440253921
 20
-110.0749348683146
 10
80.81539440253921
 20
-110.0749348683146
 10
80.80609264472903
 20
-110.0179185380337
 10
80.77835962607277
 20
-109.869779432168
 10
80.60059269903388
 20
-109.869779432168
 10
80.34496661402835
 20
-109.869779432168
 10
80.3098266400788
 20
-110.1977525223638
 10
80.29863007975173
 20
-110.4029079585104
 10
80.38027884275216
 20
-110.3247042909952
 10
80.43953448509845
 20
-110.2654486486489
 10
80.598697896517
 20
-110.2654486486489
 10
80.75613876019291
 20
-110.2654486486489
 10
81.02089434823436
 20
-110.3732801373372
 10
81.02089434823436
 20
-110.7794568950482
 10
81.02089434823436
 20
-111.0988172465309
 10
80.84674477145498
 20
-111.3189588480383
 10
80.56907007534384
 20
-111.3189588480383
 97
        0
 97
        0
 92
        1
 93
        1
 72
     4
 94
        3
 73
     0
 74
     1
 95
       17
 96
       13
 40
0.0
 40
0.0
 40
0.0
 40
0.0
 40
1.0
 40
1.0
 40
1.0
 40
2.0
 40
2.0
 40
2.0
 40
3.0
 40
3.0
 40
3.0
 40
4.0
 40
4.0
 40
4.0
 40
4.0
 10
80.58388398593043
 20
-110.4600965435655
 10
80.35426837183851
 20
-110.4600965435655
 10
80.32102320040586
 20
-110.6716254063599
 10
80.32102320040586
 20
-110.7878973789871
 10
80.32102320040586
 20
-110.9634249939605
 10
80.40422225637464
 20
-111.1263780104129
 10
80.56528047031007
 20
-111.1263780104129
 10
80.67087264693298
 20
-111.1263780104129
 10
80.82469616034939
 20
-111.0671223680666
 10
80.82469616034939
 20
-110.7815239523393
 10
80.82469616034939
 20
-110.5572482362496
 10
80.70239527062301
 20
-110.4600965435655
 10
80.58388398593043
 20
-110.4600965435655
 97
        0
 97
        0
 75
     2
 76
     1
 98
        0
  0
POLYLINE
  5
8A
330
83
100
AcDbEntity
  8
_U+30EC_U+30A4_U+30E4_U+30FC 1
370
     0
100
AcDb2dPolyline
 66
     1
 10
0.0
 20
0.0
 30
0.0
  0
VERTEX
  5
8B
330
8A
100
AcDbEntity
  8
_U+30EC_U+30A4_U+30E4_U+30FC 1
370
     0
100
AcDbVertex
100
AcDb2dVertex
 10
81.2108913642459
 20
-111.2681436896309
 30
0.0
  0
VERTEX
  5
8C
330
8A
100
AcDbEntity
  8
_U+30EC_U+30A4_U+30E4_U+30FC 1
370
     0
100
AcDbVertex
100
AcDb2dVertex
 10
81.2108913642459
 20
-111.0164794644334
 30
0.0
  0
VERTEX
  5
8D
330
8A
100
AcDbEntity
  8
_U+30EC_U+30A4_U+30E4_U+30FC 1
370
     0
100
AcDbVertex
100
AcDb2dVertex
 10
81.43137747530189
 20
-111.0164794644334
 30
0.0
  0
VERTEX
  5
8E
330
8A
100
AcDbEntity
  8
_U+30EC_U+30A4_U+30E4_U+30FC 1
370
     0
100
AcDbVertex
100
AcDb2dVertex
 10
81.43137747530189
 20
-111.2681436896309
 30
0.0
  0
VERTEX
  5
8F
330
8A
100
AcDbEntity
  8
_U+30EC_U+30A4_U+30E4_U+30FC 1
370
     0
100
AcDbVertex
100
AcDb2dVertex
 10
81.2108913642459
 20
-111.2681436896309
 30
0.0
  0
SEQEND
  5
90
330
8A
100
AcDbEntity
  8
_U+30EC_U+30A4_U+30E4_U+30FC 1
370
     0
  0
HATCH
  5
91
330
83
100
AcDbEntity
  8
_U+30EC_U+30A4_U+30E4_U+30FC 1
 62
     7
420
 16777215
100
AcDbHatch
 10
0.0
 20
0.0
 30
0.0
210
0.0
220
0.0
230
1.0
  2
SOLID
 70
     1
 71
     0
 91
        1
 92
        1
 93
        4
 72
     1
 10
81.2108913642459
 20
-111.2681436896309
 11
81.2108913642459
 21
-111.0164794644334
 72
     1
 10
81.2108913642459
 20
-111.0164794644334
 11
81.43137747530189
 21
-111.0164794644334
 72
     1
 10
81.43137747530189
 20
-111.0164794644334
 11
81.43137747530189
 21
-111.2681436896309
 72
     1
 10
81.43137747530189
 20
-111.2681436896309
 11
81.2108913642459
 21
-111.2681436896309
 97
        0
 75
     2
 76
     1
 98
        0
  0
SPLINE
  5
92
330
83
100
AcDbEntity
  8
_U+30EC_U+30A4_U+30E4_U+30FC 1
370
     0
100
AcDbSpline
210
0.0
220
0.0
230
1.0
 70
    11
 71
     3
 72
    53
 73
    49
 74
     0
 42
0.0000000001
 43
0.0000000001
 12
1.0
 22
0.0
 32
0.0
 13
1.0
 23
0.0
 33
0.0
 40
0.0
 40
0.0
 40
0.0
 40
0.0
 40
1.0
 40
1.0
 40
1.0
 40
2.0
 40
2.0
 40
2.0
 40
3.0
 40
3.0
 40
3.0
 40
4.0
 40
4.0
 40
4.0
 40
5.0
 40
5.0
 40
5.0
 40
6.0
 40
6.0
 40
6.0
 40
7.0
 40
7.0
 40
7.0
 40
8.0
 40
8.0
 40
8.0
 40
9.0
 40
9.0
 40
9.0
 40
10.0
 40
10.0
 40
10.0
 40
11.0
 40
11.0
 40
11.0
 40
12.0
 40
12.0
 40
12.0
 40
13.0
 40
13.0
 40
13.0
 40
14.0
 40
14.0
 40
14.0
 40
15.0
 40
15.0
 40
15.0
 40
16.0
 40
16.0
 40
16.0
 40
16.0
 10
82.05976289181145
 20
-111.3189588480383
 30
0.0
 10
81.99120549165498
 20
-111.3189588480383
 30
0.0
 10
81.90232202813553
 20
-111.3020778801606
 30
0.0
 10
81.81343856461609
 20
-111.2385158684577
 30
0.0
 10
81.66150985371657
 20
-111.128445067704
 30
0.0
 10
81.64307859287048
 20
-110.9973591844903
 30
0.0
 10
81.62636987976703
 20
-110.8895276958019
 30
0.0
 10
81.62636987976703
 20
-110.8895276958019
 30
0.0
 10
81.82084551990937
 20
-110.8895276958019
 30
0.0
 10
81.82084551990937
 20
-110.8895276958019
 30
0.0
 10
81.8689046019286
 20
-111.0883097053008
 30
0.0
 10
81.98018118610219
 20
-111.117937526474
 30
0.0
 10
82.06148543955408
 20
-111.117937526474
 30
0.0
 10
82.18378632928045
 20
-111.117937526474
 30
0.0
 10
82.31711152455962
 20
-111.0185465217245
 30
0.0
 10
82.31711152455962
 20
-110.7858303216959
 30
0.0
 10
82.31711152455962
 20
-110.5298597271418
 30
0.0
 10
82.15967066088369
 20
-110.4600965435655
 30
0.0
 10
82.05425073903506
 20
-110.4600965435655
 30
0.0
 10
82.02634546560454
 20
-110.4600965435655
 30
0.0
 10
81.90232202813553
 20
-110.4600965435655
 30
0.0
 10
81.82446287016889
 20
-110.5891153694881
 30
0.0
 10
81.82446287016889
 20
-110.5891153694881
 30
0.0
 10
81.67081161152674
 20
-110.569995089545
 30
0.0
 10
81.67081161152674
 20
-110.569995089545
 30
0.0
 10
81.67081161152674
 20
-110.569995089545
 30
0.0
 10
81.77640378814965
 20
-109.7238796383676
 30
0.0
 10
81.77640378814965
 20
-109.7238796383676
 30
0.0
 10
81.77640378814965
 20
-109.7238796383676
 30
0.0
 10
82.45784367513207
 20
-109.7238796383676
 30
0.0
 10
82.45784367513207
 20
-109.7238796383676
 30
0.0
 10
82.45784367513207
 20
-109.7238796383676
 30
0.0
 10
82.45784367513207
 20
-109.9185275332843
 30
0.0
 10
82.45784367513207
 20
-109.9185275332843
 30
0.0
 10
82.45784367513207
 20
-109.9185275332843
 30
0.0
 10
81.919030741239
 20
-109.9185275332843
 30
0.0
 10
81.919030741239
 20
-109.9185275332843
 30
0.0
 10
81.919030741239
 20
-109.9185275332843
 30
0.0
 10
81.86166990140958
 20
-110.3415852588729
 30
0.0
 10
81.86166990140958
 20
-110.3415852588729
 30
0.0
 10
81.91524113620522
 20
-110.3076510683432
 30
0.0
 10
81.9874158866212
 20
-110.2675157059401
 30
0.0
 10
82.09111326072723
 20
-110.2675157059401
 30
0.0
 10
82.31332191952583
 20
-110.2675157059401
 30
0.0
 10
82.52071666773789
 20
-110.4537231169178
 30
0.0
 10
82.52071666773789
 20
-110.7667100417528
 30
0.0
 10
82.52071666773789
 20
-111.0841755907185
 30
0.0
 10
82.3245184798529
 20
-111.3189588480383
 30
0.0
 10
82.05976289181145
 20
-111.3189588480383
 30
0.0
  0
HATCH
  5
93
330
83
100
AcDbEntity
  8
_U+30EC_U+30A4_U+30E4_U+30FC 1
 62
     7
420
 16777215
100
AcDbHatch
 10
0.0
 20
0.0
 30
0.0
210
0.0
220
0.0
230
1.0
  2
SOLID
 70
     1
 71
     0
 91
        1
 92
        1
 93
        1
 72
     4
 94
        3
 73
     0
 74
     1
 95
       53
 96
       49
 40
0.0
 40
0.0
 40
0.0
 40
0.0
 40
1.0
 40
1.0
 40
1.0
 40
2.0
 40
2.0
 40
2.0
 40
3.0
 40
3.0
 40
3.0
 40
4.0
 40
4.0
 40
4.0
 40
5.0
 40
5.0
 40
5.0
 40
6.0
 40
6.0
 40
6.0
 40
7.0
 40
7.0
 40
7.0
 40
8.0
 40
8.0
 40
8.0
 40
9.0
 40
9.0
 40
9.0
 40
10.0
 40
10.0
 40
10.0
 40
11.0
 40
11.0
 40
11.0
 40
12.0
 40
12.0
 40
12.0
 40
13.0
 40
13.0
 40
13.0
 40
14.0
 40
14.0
 40
14.0
 40
15.0
 40
15.0
 40
15.0
 40
16.0
 40
16.0
 40
16.0
 40
16.0
 10
82.05976289181145
 20
-111.3189588480383
 10
81.99120549165498
 20
-111.3189588480383
 10
81.90232202813553
 20
-111.3020778801606
 10
81.81343856461609
 20
-111.2385158684577
 10
81.66150985371657
 20
-111.128445067704
 10
81.64307859287048
 20
-110.9973591844903
 10
81.62636987976703
 20
-110.8895276958019
 10
81.62636987976703
 20
-110.8895276958019
 10
81.82084551990937
 20
-110.8895276958019
 10
81.82084551990937
 20
-110.8895276958019
 10
81.8689046019286
 20
-111.0883097053008
 10
81.98018118610219
 20
-111.117937526474
 10
82.06148543955408
 20
-111.117937526474
 10
82.18378632928045
 20
-111.117937526474
 10
82.31711152455962
 20
-111.0185465217245
 10
82.31711152455962
 20
-110.7858303216959
 10
82.31711152455962
 20
-110.5298597271418
 10
82.15967066088369
 20
-110.4600965435655
 10
82.05425073903506
 20
-110.4600965435655
 10
82.02634546560454
 20
-110.4600965435655
 10
81.90232202813553
 20
-110.4600965435655
 10
81.82446287016889
 20
-110.5891153694881
 10
81.82446287016889
 20
-110.5891153694881
 10
81.67081161152674
 20
-110.569995089545
 10
81.67081161152674
 20
-110.569995089545
 10
81.67081161152674
 20
-110.569995089545
 10
81.77640378814965
 20
-109.7238796383676
 10
81.77640378814965
 20
-109.7238796383676
 10
81.77640378814965
 20
-109.7238796383676
 10
82.45784367513207
 20
-109.7238796383676
 10
82.45784367513207
 20
-109.7238796383676
 10
82.45784367513207
 20
-109.7238796383676
 10
82.45784367513207
 20
-109.9185275332843
 10
82.45784367513207
 20
-109.9185275332843
 10
82.45784367513207
 20
-109.9185275332843
 10
81.919030741239
 20
-109.9185275332843
 10
81.919030741239
 20
-109.9185275332843
 10
81.919030741239
 20
-109.9185275332843
 10
81.86166990140958
 20
-110.3415852588729
 10
81.86166990140958
 20
-110.3415852588729
 10
81.91524113620522
 20
-110.3076510683432
 10
81.9874158866212
 20
-110.2675157059401
 10
82.09111326072723
 20
-110.2675157059401
 10
82.31332191952583
 20
-110.2675157059401
 10
82.52071666773789
 20
-110.4537231169178
 10
82.52071666773789
 20
-110.7667100417528
 10
82.52071666773789
 20
-111.0841755907185
 10
82.3245184798529
 20
-111.3189588480383
 10
82.05976289181145
 20
-111.3189588480383
 97
        0
 97
        0
 75
     2
 76
     1
 98
        0
  0
ENDBLK
  5
86
330
83
100
AcDbEntity
  8
0
100
AcDbBlockEnd
  0
ENDSEC
  0
SECTION
  2
ENTITIES
  0
SPLINE
  5
41
330
1F
100
AcDbEntity
  8
_U+30EC_U+30A4_U+30E4_U+30FC 1
370
     0
100
AcDbSpline
210
0.0
220
0.0
230
1.0
 70
    11
 71
     3
 72
    77
 73
    73
 74
     0
 42
0.0000000001
 43
0.0000000001
 12
1.0
 22
0.0
 32
0.0
 13
1.0
 23
0.0
 33
0.0
 40
0.0
 40
0.0
 40
0.0
 40
0.0
 40
1.0
 40
1.0
 40
1.0
 40
2.0
 40
2.0
 40
2.0
 40
3.0
 40
3.0
 40
3.0
 40
4.0
 40
4.0
 40
4.0
 40
5.0
 40
5.0
 40
5.0
 40
6.0
 40
6.0
 40
6.0
 40
7.0
 40
7.0
 40
7.0
 40
8.0
 40
8.0
 40
8.0
 40
9.0
 40
9.0
 40
9.0
 40
10.0
 40
10.0
 40
10.0
 40
11.0
 40
11.0
 40
11.0
 40
12.0
 40
12.0
 40
12.0
 40
13.0
 40
13.0
 40
13.0
 40
14.0
 40
14.0
 40
14.0
 40
15.0
 40
15.0
 40
15.0
 40
16.0
 40
16.0
 40
16.0
 40
17.0
 40
17.0
 40
17.0
 40
18.0
 40
18.0
 40
18.0
 40
19.0
 40
19.0
 40
19.0
 40
20.0
 40
20.0
 40
20.0
 40
21.0
 40
21.0
 40
21.0
 40
22.0
 40
22.0
 40
22.0
 40
23.0
 40
23.0
 40
23.0
 40
24.0
 40
24.0
 40
24.0
 40
24.0
 10
84.58725423088825
 20
-115.6088055266534
 30
0.0
 10
84.58725423088825
 20
-115.6088055266534
 30
0.0
 10
85.3369069895408
 20
-115.5867569155478
 30
0.0
 10
85.3369069895408
 20
-115.5867569155478
 30
0.0
 10
85.3369069895408
 20
-115.5867569155478
 30
0.0
 10
85.46919865283242
 20
-128.3529027456896
 30
0.0
 10
85.46919865283242
 20
-128.3529027456896
 30
0.0
 10
85.46919865283242
 20
-128.3529027456896
 30
0.0
 10
85.55739309502684
 20
-129.7860624675532
 30
0.0
 10
84.71954589417987
 20
-129.8742569119756
 30
0.0
 10
84.71954589417987
 20
-129.8742569119756
 30
0.0
 10
79.73655991019533
 20
-129.8963055230812
 30
0.0
 10
79.73655991019533
 20
-129.8963055230812
 30
0.0
 10
79.73655991019533
 20
-129.8963055230812
 30
0.0
 10
78.94280993044558
 20
-129.8742569119756
 30
0.0
 10
78.94280993044558
 20
-130.6900555228827
 30
0.0
 10
78.94280993044558
 20
-130.6900555228827
 30
0.0
 10
78.96485854099419
 20
-145.4849910747399
 30
0.0
 10
78.96485854099419
 20
-145.4849910747399
 30
0.0
 10
78.96485854099419
 20
-145.4849910747399
 30
0.0
 10
78.81051826715395
 20
-146.4771785744918
 30
0.0
 10
80.1113862895216
 20
-146.4771785744918
 30
0.0
 10
80.1113862895216
 20
-146.4771785744918
 30
0.0
 10
94.70774286158196
 20
-146.2125952412246
 30
0.0
 10
94.70774286158196
 20
-146.2125952412246
 30
0.0
 10
94.70774286158196
 20
-146.2125952412246
 30
0.0
 10
95.41329839913729
 20
-146.2125952412246
 30
0.0
 10
95.41329839913729
 20
-145.3086021858951
 30
0.0
 10
95.41329839913729
 20
-145.3086021858951
 30
0.0
 10
95.4353470096859
 20
-140.4134930204519
 30
0.0
 10
95.4353470096859
 20
-140.4134930204519
 30
0.0
 10
95.4353470096859
 20
-140.4134930204519
 30
0.0
 10
95.4353470096859
 20
-139.3331110762775
 30
0.0
 10
97.64020806454631
 20
-139.5094999651223
 30
0.0
 10
97.64020806454631
 20
-139.5094999651223
 30
0.0
 10
109.5023605396954
 20
-139.3331110762775
 30
0.0
 10
109.5023605396954
 20
-139.3331110762775
 30
0.0
 10
109.5023605396954
 20
-139.3331110762775
 30
0.0
 10
109.5464577607926
 20
-140.0827638538679
 30
0.0
 10
109.5464577607926
 20
-140.0827638538679
 30
0.0
 10
109.5464577607926
 20
-140.0827638538679
 30
0.0
 10
97.46381918015749
 20
-140.2812013538183
 30
0.0
 10
97.46381918015749
 20
-140.2812013538183
 30
0.0
 10
97.46381918015749
 20
-140.2812013538183
 30
0.0
 10
96.22909698943565
 20
-140.1930069093959
 30
0.0
 10
96.16295115778983
 20
-141.119048575831
 30
0.0
 10
96.16295115778983
 20
-141.119048575831
 30
0.0
 10
96.22909698943565
 20
-145.3306507970007
 30
0.0
 10
96.22909698943565
 20
-145.3306507970007
 30
0.0
 10
96.22909698943565
 20
-145.3306507970007
 30
0.0
 10
96.42753448437308
 20
-147.182734129871
 30
0.0
 10
94.81798591432498
 20
-147.072491074343
 30
0.0
 10
94.81798591432498
 20
-147.072491074343
 30
0.0
 10
80.1334349000702
 20
-147.1386369076598
 30
0.0
 10
80.1334349000702
 20
-147.1386369076598
 30
0.0
 10
80.1334349000702
 20
-147.1386369076598
 30
0.0
 10
78.21520578234164
 20
-147.6898521852998
 30
0.0
 10
78.25930300343884
 20
-145.9259632968519
 30
0.0
 10
78.25930300343884
 20
-145.9259632968519
 30
0.0
 10
78.08291411905002
 20
-130.4916180229324
 30
0.0
 10
78.08291411905002
 20
-130.4916180229324
 30
0.0
 10
78.08291411905002
 20
-130.4916180229324
 30
0.0
 10
77.92857384520978
 20
-128.9923124677516
 30
0.0
 10
79.84680296293834
 20
-129.0364096899628
 30
0.0
 10
79.84680296293834
 20
-129.0364096899628
 30
0.0
 10
83.8376014722357
 20
-129.1246041343852
 30
0.0
 10
83.8376014722357
 20
-129.1246041343852
 30
0.0
 10
83.8376014722357
 20
-129.1246041343852
 30
0.0
 10
84.76364311527708
 20
-128.9923124677516
 30
0.0
 10
84.74159450472848
 20
-128.1544652457392
 30
0.0
 10
84.74159450472848
 20
-128.1544652457392
 30
0.0
 10
84.58725423088825
 20
-115.6088055266534
 30
0.0
 10
84.58725423088825
 20
-115.6088055266534
 30
0.0
  0
SPLINE
  5
42
330
1F
100
AcDbEntity
  8
_U+30EC_U+30A4_U+30E4_U+30FC 1
 62
     7
420
 16777215
370
    25
100
AcDbSpline
210
0.0
220
0.0
230
1.0
 70
     8
 71
     3
 72
    20
 73
    16
 74
     0
 42
0.0000000001
 43
0.0000000001
 12
1.0
 22
0.0
 32
0.0
 13
1.0
 23
0.0
 33
0.0
 40
0.0
 40
0.0
 40
0.0
 40
0.0
 40
1.0
 40
1.0
 40
1.0
 40
2.0
 40
2.0
 40
2.0
 40
3.0
 40
3.0
 40
3.0
 40
4.0
 40
4.0
 40
4.0
 40
5.0
 40
5.0
 40
5.0
 40
5.0
 10
96.25322698882005
 20
-145.5918121858241
 30
0.0
 10
96.25322698882005
 20
-145.5918121858241
 30
0.0
 10
96.41169719811919
 20
-147.0208444076894
 30
0.0
 10
95.16801201650618
 20
-147.0208444076894
 30
0.0
 10
95.16801201650618
 20
-147.0208444076894
 30
0.0
 10
80.06040990193323
 20
-147.1262544076632
 30
0.0
 10
80.06040990193323
 20
-147.1262544076632
 30
0.0
 10
80.06040990193323
 20
-147.1262544076632
 30
0.0
 10
78.28756050271794
 20
-147.3908377409304
 30
0.0
 10
78.28756050271794
 20
-146.4386199633904
 30
0.0
 10
78.28756050271794
 20
-146.4386199633904
 30
0.0
 10
78.10256384077093
 20
-130.1929210785632
 30
0.0
 10
78.10256384077093
 20
-130.1929210785632
 30
0.0
 10
78.10256384077093
 20
-130.1929210785632
 30
0.0
 10
77.83829998054051
 20
-129.0550010788471
 30
0.0
 10
79.76965046490668
 20
-129.1342349677167
 30
0.0
  0
POLYLINE
  5
43
330
1F
100
AcDbEntity
  8
_U+30EC_U+30A4_U+30E4_U+30FC 1
 62
     7
420
 16777215
370
    25
100
AcDb2dPolyline
 66
     1
 10
0.0
 20
0.0
 30
0.0
  0
VERTEX
  5
44
330
43
100
AcDbEntity
  8
_U+30EC_U+30A4_U+30E4_U+30FC 1
 62
     7
420
 16777215
370
    25
100
AcDbVertex
100
AcDb2dVertex
 10
96.14090254724124
 20
-141.119048575831
 30
0.0
  0
VERTEX
  5
45
330
43
100
AcDbEntity
  8
_U+30EC_U+30A4_U+30E4_U+30FC 1
 62
     7
420
 16777215
370
    25
100
AcDbVertex
100
AcDb2dVertex
 10
96.25322698882005
 20
-145.5918121858241
 30
0.0
  0
SEQEND
  5
46
330
43
100
AcDbEntity
  8
_U+30EC_U+30A4_U+30E4_U+30FC 1
 62
     7
420
 16777215
370
    25
  0
SPLINE
  5
47
330
1F
100
AcDbEntity
  8
_U+30EC_U+30A4_U+30E4_U+30FC 1
 62
     7
420
 16777215
370
    25
100
AcDbSpline
210
0.0
220
0.0
230
1.0
 70
     8
 71
     3
 72
    20
 73
    16
 74
     0
 42
0.0000000001
 43
0.0000000001
 12
1.0
 22
0.0
 32
0.0
 13
1.0
 23
0.0
 33
0.0
 40
0.0
 40
0.0
 40
0.0
 40
0.0
 40
1.0
 40
1.0
 40
1.0
 40
2.0
 40
2.0
 40
2.0
 40
3.0
 40
3.0
 40
3.0
 40
4.0
 40
4.0
 40
4.0
 40
5.0
 40
5.0
 40
5.0
 40
5.0
 10
95.44568339831109
 20
-140.6322505203972
 30
0.0
 10
95.44568339831109
 20
-140.6322505203972
 30
0.0
 10
95.16801201650618
 20
-139.4416255206949
 30
0.0
 10
96.88780363929732
 20
-139.4416255206949
 30
0.0
 10
96.88780363929732
 20
-139.4416255206949
 30
0.0
 10
109.56162720485
 20
-139.3885677429309
 30
0.0
 10
109.56162720485
 20
-139.3885677429309
 30
0.0
 10
109.56162720485
 20
-139.3885677429309
 30
0.0
 10
109.56162720485
 20
-140.0765549649808
 30
0.0
 10
109.56162720485
 20
-140.0765549649808
 30
0.0
 10
109.56162720485
 20
-140.0765549649808
 30
0.0
 10
97.0469769685698
 20
-140.2353755204964
 30
0.0
 10
97.0469769685698
 20
-140.2353755204964
 30
0.0
 10
97.0469769685698
 20
-140.2353755204964
 30
0.0
 10
96.147113864852
 20
-140.2088466316144
 30
0.0
 10
96.147113864852
 20
-141.029125520298
 30
0.0
  0
POLYLINE
  5
48
330
1F
100
AcDbEntity
  8
_U+30EC_U+30A4_U+30E4_U+30FC 1
 62
     7
420
 16777215
370
    25
100
AcDb2dPolyline
 66
     1
 10
0.0
 20
0.0
 30
0.0
  0
VERTEX
  5
49
330
48
100
AcDbEntity
  8
_U+30EC_U+30A4_U+30E4_U+30FC 1
 62
     7
420
 16777215
370
    25
100
AcDbVertex
100
AcDb2dVertex
 10
95.44568339831109
 20
-145.420221074756
 30
0.0
  0
VERTEX
  5
4A
330
48
100
AcDbEntity
  8
_U+30EC_U+30A4_U+30E4_U+30FC 1
 62
     7
420
 16777215
370
    25
100
AcDbVertex
100
AcDb2dVertex
 10
95.44568339831109
 20
-140.6560277426135
 30
0.0
  0
SEQEND
  5
4B
330
48
100
AcDbEntity
  8
_U+30EC_U+30A4_U+30E4_U+30FC 1
 62
     7
420
 16777215
370
    25
  0
SPLINE
  5
4C
330
1F
100
AcDbEntity
  8
_U+30EC_U+30A4_U+30E4_U+30FC 1
 62
     7
420
 16777215
370
    25
100
AcDbSpline
210
0.0
220
0.0
230
1.0
 70
     8
 71
     3
 72
    20
 73
    16
 74
     0
 42
0.0000000001
 43
0.0000000001
 12
1.0
 22
0.0
 32
0.0
 13
1.0
 23
0.0
 33
0.0
 40
0.0
 40
0.0
 40
0.0
 40
0.0
 40
1.0
 40
1.0
 40
1.0
 40
2.0
 40
2.0
 40
2.0
 40
3.0
 40
3.0
 40
3.0
 40
4.0
 40
4.0
 40
4.0
 40
5.0
 40
5.0
 40
5.0
 40
5.0
 10
79.95464712685369
 20
-129.8487510786487
 30
0.0
 10
79.95464712685369
 20
-129.8487510786487
 30
0.0
 10
78.94901881917606
 20
-129.6902833009108
 30
0.0
 10
78.94901881917606
 20
-130.7486166339796
 30
0.0
 10
78.94901881917606
 20
-130.7486166339796
 30
0.0
 10
78.94901881917606
 20
-145.6448699635888
 30
0.0
 10
78.94901881917606
 20
-145.6448699635888
 30
0.0
 10
78.94901881917606
 20
-145.6448699635888
 30
0.0
 10
79.00207659560023
 20
-146.4386199633904
 30
0.0
 10
79.66353491205835
 20
-146.4386199633904
 30
0.0
 10
79.66353491205835
 20
-146.4386199633904
 30
0.0
 10
94.63884536333968
 20
-146.2270944078878
 30
0.0
 10
94.63884536333968
 20
-146.2270944078878
 30
0.0
 10
94.63884536333968
 20
-146.2270944078878
 30
0.0
 10
95.44568339831109
 20
-146.3325044078616
 30
0.0
 10
95.44568339831109
 20
-145.420221074756
 30
0.0
  0
POLYLINE
  5
4D
330
1F
100
AcDbEntity
  8
_U+30EC_U+30A4_U+30E4_U+30FC 1
 62
     7
420
 16777215
370
    25
100
AcDb2dPolyline
 66
     1
 10
0.0
 20
0.0
 30
0.0
  0
VERTEX
  5
4E
330
4D
100
AcDbEntity
  8
_U+30EC_U+30A4_U+30E4_U+30FC 1
 62
     7
420
 16777215
370
    25
100
AcDbVertex
100
AcDb2dVertex
 10
84.61688756346557
 20
-129.8597577453131
 30
0.0
  0
VERTEX
  5
4F
330
4D
100
AcDbEntity
  8
_U+30EC_U+30A4_U+30E4_U+30FC 1
 62
     7
420
 16777215
370
    25
100
AcDbVertex
100
AcDb2dVertex
 10
79.95464712685369
 20
-129.8487510786487
 30
0.0
  0
SEQEND
  5
50
330
4D
100
AcDbEntity
  8
_U+30EC_U+30A4_U+30E4_U+30FC 1
 62
     7
420
 16777215
370
    25
  0
SPLINE
  5
51
330
1F
100
AcDbEntity
  8
_U+30EC_U+30A4_U+30E4_U+30FC 1
 62
     7
420
 16777215
370
    25
100
AcDbSpline
210
0.0
220
0.0
230
1.0
 70
     8
 71
     3
 72
    23
 73
    19
 74
     0
 42
0.0000000001
 43
0.0000000001
 12
1.0
 22
0.0
 32
0.0
 13
1.0
 23
0.0
 33
0.0
 40
0.0
 40
0.0
 40
0.0
 40
0.0
 40
1.0
 40
1.0
 40
1.0
 40
2.0
 40
2.0
 40
2.0
 40
3.0
 40
3.0
 40
3.0
 40
4.0
 40
4.0
 40
4.0
 40
5.0
 40
5.0
 40
5.0
 40
6.0
 40
6.0
 40
6.0
 40
6.0
 10
83.67567647636676
 20
-129.0556713566251
 30
0.0
 10
83.67567647636676
 20
-129.0556713566251
 30
0.0
 10
83.7349431415214
 20
-129.0550010788471
 30
0.0
 10
83.7349431415214
 20
-129.0550010788471
 30
0.0
 10
83.7349431415214
 20
-129.0550010788471
 30
0.0
 10
84.71404256098694
 20
-129.346113300997
 30
0.0
 10
84.71404256098694
 20
-128.1027833013077
 30
0.0
 10
84.71404256098694
 20
-128.1027833013077
 30
0.0
 10
84.6082797859074
 20
-115.5612510822209
 30
0.0
 10
84.6082797859074
 20
-115.5612510822209
 30
0.0
 10
84.6082797859074
 20
-115.5612510822209
 30
0.0
 10
85.40202976565715
 20
-115.5612510822209
 30
0.0
 10
85.40202976565715
 20
-115.5612510822209
 30
0.0
 10
85.40202976565715
 20
-115.5612510822209
 30
0.0
 10
85.45473476431253
 20
-128.3673666345749
 30
0.0
 10
85.45473476431253
 20
-128.3673666345749
 30
0.0
 10
85.45473476431253
 20
-128.3673666345749
 30
0.0
 10
85.61390809358501
 20
-129.8487510786487
 30
0.0
 10
84.6082797859074
 20
-129.8487510786487
 30
0.0
  0
POLYLINE
  5
52
330
1F
100
AcDbEntity
  8
_U+30EC_U+30A4_U+30E4_U+30FC 1
 62
     7
420
 16777215
370
    25
100
AcDb2dPolyline
 66
     1
 10
0.0
 20
0.0
 30
0.0
  0
VERTEX
  5
53
330
52
100
AcDbEntity
  8
_U+30EC_U+30A4_U+30E4_U+30FC 1
 62
     7
420
 16777215
370
    25
100
AcDbVertex
100
AcDb2dVertex
 10
79.76965046490668
 20
-129.1342349677167
 30
0.0
  0
VERTEX
  5
54
330
52
100
AcDbEntity
  8
_U+30EC_U+30A4_U+30E4_U+30FC 1
 62
     7
420
 16777215
370
    25
100
AcDbVertex
100
AcDb2dVertex
 10
83.70530980894408
 20
-129.0660077455115
 30
0.0
  0
SEQEND
  5
55
330
52
100
AcDbEntity
  8
_U+30EC_U+30A4_U+30E4_U+30FC 1
 62
     7
420
 16777215
370
    25
  0
POLYLINE
  5
56
330
1F
100
AcDbEntity
  8
_U+30EC_U+30A4_U+30E4_U+30FC 1
 62
     7
420
 16777215
370
     9
100
AcDb2dPolyline
 66
     1
 10
0.0
 20
0.0
 30
0.0
  0
VERTEX
  5
57
330
56
100
AcDbEntity
  8
_U+30EC_U+30A4_U+30E4_U+30FC 1
 62
     7
420
 16777215
370
     9
100
AcDbVertex
100
AcDb2dVertex
 10
74.59648198577408
 20
-147.1772307965388
 30
0.0
  0
VERTEX
  5
58
330
56
100
AcDbEntity
  8
_U+30EC_U+30A4_U+30E4_U+30FC 1
 62
     7
420
 16777215
370
     9
100
AcDbVertex
100
AcDb2dVertex
 10
74.59648198577408
 20
-115.6769974710807
 30
0.0
  0
SEQEND
  5
59
330
56
100
AcDbEntity
  8
_U+30EC_U+30A4_U+30E4_U+30FC 1
 62
     7
420
 16777215
370
     9
  0
POLYLINE
  5
5A
330
1F
100
AcDbEntity
  8
_U+30EC_U+30A4_U+30E4_U+30FC 1
 62
     7
420
 16777215
370
     9
100
AcDb2dPolyline
 66
     1
 10
0.0
 20
0.0
 30
0.0
  0
VERTEX
  5
5B
330
5A
100
AcDbEntity
  8
_U+30EC_U+30A4_U+30E4_U+30FC 1
 62
     7
420
 16777215
370
     9
100
AcDbVertex
100
AcDb2dVertex
 10
76.45202249399085
 20
-147.1772307965388
 30
0.0
  0
VERTEX
  5
5C
330
5A
100
AcDbEntity
  8
_U+30EC_U+30A4_U+30E4_U+30FC 1
 62
     7
420
 16777215
370
     9
100
AcDbVertex
100
AcDb2dVertex
 10
73.696616453176
 20
-147.1772307965388
 30
0.0
  0
SEQEND
  5
5D
330
5A
100
AcDbEntity
  8
_U+30EC_U+30A4_U+30E4_U+30FC 1
 62
     7
420
 16777215
370
     9
  0
POLYLINE
  5
5E
330
1F
100
AcDbEntity
  8
_U+30EC_U+30A4_U+30E4_U+30FC 1
 62
     7
420
 16777215
370
     9
100
AcDb2dPolyline
 66
     1
 10
0.0
 20
0.0
 30
0.0
  0
VERTEX
  5
5F
330
5E
100
AcDbEntity
  8
_U+30EC_U+30A4_U+30E4_U+30FC 1
 62
     7
420
 16777215
370
     9
100
AcDbVertex
100
AcDb2dVertex
 10
76.27009499863222
 20
-129.2138216343634
 30
0.0
  0
VERTEX
  5
60
330
5E
100
AcDbEntity
  8
_U+30EC_U+30A4_U+30E4_U+30FC 1
 62
     7
420
 16777215
370
     9
100
AcDbVertex
100
AcDb2dVertex
 10
73.696616453176
 20
-129.2138216343634
 30
0.0
  0
SEQEND
  5
61
330
5E
100
AcDbEntity
  8
_U+30EC_U+30A4_U+30E4_U+30FC 1
 62
     7
420
 16777215
370
     9
  0
POLYLINE
  5
62
330
1F
100
AcDbEntity
  8
_U+30EC_U+30A4_U+30E4_U+30FC 1
 62
     7
420
 16777215
370
     9
100
AcDb2dPolyline
 66
     1
 10
0.0
 20
0.0
 30
0.0
  0
VERTEX
  5
63
330
62
100
AcDbEntity
  8
_U+30EC_U+30A4_U+30E4_U+30FC 1
 62
     7
420
 16777215
370
     9
100
AcDbVertex
100
AcDb2dVertex
 10
83.67602925413553
 20
-115.6673666377499
 30
0.0
  0
VERTEX
  5
64
330
62
100
AcDbEntity
  8
_U+30EC_U+30A4_U+30E4_U+30FC 1
 62
     7
420
 16777215
370
     9
100
AcDbVertex
100
AcDb2dVertex
 10
73.696616453176
 20
-115.6673666377499
 30
0.0
  0
SEQEND
  5
65
330
62
100
AcDbEntity
  8
_U+30EC_U+30A4_U+30E4_U+30FC 1
 62
     7
420
 16777215
370
     9
  0
INSERT
  5
67
330
1F
100
AcDbEntity
  8
_U+30EC_U+30A4_U+30E4_U+30FC 1
100
AcDbBlockReference
  2
block 2
 10
0.0
 20
0.0
 30
0.0
  0
INSERT
  5
70
330
1F
100
AcDbEntity
  8
_U+30EC_U+30A4_U+30E4_U+30FC 1
100
AcDbBlockReference
  2
block 3
 10
0.0
 20
0.0
 30
0.0
  0
POLYLINE
  5
77
330
1F
100
AcDbEntity
  8
_U+30EC_U+30A4_U+30E4_U+30FC 1
 62
     7
420
 16777215
370
     9
100
AcDb2dPolyline
 66
     1
 10
0.0
 20
0.0
 30
0.0
  0
VERTEX
  5
78
330
77
100
AcDbEntity
  8
_U+30EC_U+30A4_U+30E4_U+30FC 1
 62
     7
420
 16777215
370
     9
100
AcDbVertex
100
AcDb2dVertex
 10
78.07155467489537
 20
-111.9101421942446
 30
0.0
  0
VERTEX
  5
79
330
77
100
AcDbEntity
  8
_U+30EC_U+30A4_U+30E4_U+30FC 1
 62
     7
420
 16777215
370
     9
100
AcDbVertex
100
AcDb2dVertex
 10
84.57141664552367
 20
-111.9101421942446
 30
0.0
  0
SEQEND
  5
7A
330
77
100
AcDbEntity
  8
_U+30EC_U+30A4_U+30E4_U+30FC 1
 62
     7
420
 16777215
370
     9
  0
POLYLINE
  5
7B
330
1F
100
AcDbEntity
  8
_U+30EC_U+30A4_U+30E4_U+30FC 1
 62
     7
420
 16777215
370
     9
100
AcDb2dPolyline
 66
     1
 10
0.0
 20
0.0
 30
0.0
  0
VERTEX
  5
7C
330
7B
100
AcDbEntity
  8
_U+30EC_U+30A4_U+30E4_U+30FC 1
 62
     7
420
 16777215
370
     9
100
AcDbVertex
100
AcDb2dVertex
 10
78.07155467489537
 20
-110.0611633058181
 30
0.0
  0
VERTEX
  5
7D
330
7B
100
AcDbEntity
  8
_U+30EC_U+30A4_U+30E4_U+30FC 1
 62
     7
420
 16777215
370
     9
100
AcDbVertex
100
AcDb2dVertex
 10
78.07155467489537
 20
-128.1558410790721
 30
0.0
  0
SEQEND
  5
7E
330
7B
100
AcDbEntity
  8
_U+30EC_U+30A4_U+30E4_U+30FC 1
 62
     7
420
 16777215
370
     9
  0
POLYLINE
  5
7F
330
1F
100
AcDbEntity
  8
_U+30EC_U+30A4_U+30E4_U+30FC 1
 62
     7
420
 16777215
370
     9
100
AcDb2dPolyline
 66
     1
 10
0.0
 20
0.0
 30
0.0
  0
VERTEX
  5
80
330
7F
100
AcDbEntity
  8
_U+30EC_U+30A4_U+30E4_U+30FC 1
 62
     7
420
 16777215
370
     9
100
AcDbVertex
100
AcDb2dVertex
 10
84.53073923233006
 20
-110.2361763613297
 30
0.0
  0
VERTEX
  5
81
330
7F
100
AcDbEntity
  8
_U+30EC_U+30A4_U+30E4_U+30FC 1
 62
     7
420
 16777215
370
     9
100
AcDbVertex
100
AcDb2dVertex
 10
84.53073923233006
 20
-114.3975077491783
 30
0.0
  0
SEQEND
  5
82
330
7F
100
AcDbEntity
  8
_U+30EC_U+30A4_U+30E4_U+30FC 1
 62
     7
420
 16777215
370
     9
  0
INSERT
  5
84
330
1F
100
AcDbEntity
  8
_U+30EC_U+30A4_U+30E4_U+30FC 1
100
AcDbBlockReference
  2
block 4
 10
0.0
 20
0.0
 30
0.0
  0
SPLINE
  5
94
330
1F
100
AcDbEntity
  8
_U+30EC_U+30A4_U+30E4_U+30FC 1
 62
     7
420
 16777215
370
     9
100
AcDbSpline
210
0.0
220
0.0
230
1.0
 70
    11
 71
     3
 72
    17
 73
    13
 74
     0
 42
0.0000000001
 43
0.0000000001
 12
1.0
 22
0.0
 32
0.0
 13
1.0
 23
0.0
 33
0.0
 40
0.0
 40
0.0
 40
0.0
 40
0.0
 40
1.0
 40
1.0
 40
1.0
 40
2.0
 40
2.0
 40
2.0
 40
3.0
 40
3.0
 40
3.0
 40
4.0
 40
4.0
 40
4.0
 40
4.0
 10
84.67234422871742
 20
-111.8984299720254
 30
0.0
 10
84.67234422871742
 20
-111.8432908053726
 30
0.0
 10
84.62757672985954
 20
-111.7985233053837
 30
0.0
 10
84.57243756459958
 20
-111.7985233053837
 30
0.0
 10
84.51733367711651
 20
-111.7985233053837
 30
0.0
 10
84.47253090048176
 20
-111.8432908053726
 30
0.0
 10
84.47253090048176
 20
-111.8984299720254
 30
0.0
 10
84.47253090048176
 20
-111.953886638678
 30
0.0
 10
84.51733367711651
 20
-111.9986894164448
 30
0.0
 10
84.57243756459958
 20
-111.9986894164448
 30
0.0
 10
84.62757672985954
 20
-111.9986894164448
 30
0.0
 10
84.67234422871742
 20
-111.953886638678
 30
0.0
 10
84.67234422871742
 20
-111.8984299720254
 30
0.0
  0
SPLINE
  5
95
330
1F
100
AcDbEntity
  8
_U+30EC_U+30A4_U+30E4_U+30FC 1
 62
     7
420
 16777215
370
     9
100
AcDbSpline
210
0.0
220
0.0
230
1.0
 70
    11
 71
     3
 72
    17
 73
    13
 74
     0
 42
0.0000000001
 43
0.0000000001
 12
1.0
 22
0.0
 32
0.0
 13
1.0
 23
0.0
 33
0.0
 40
0.0
 40
0.0
 40
0.0
 40
0.0
 40
1.0
 40
1.0
 40
1.0
 40
2.0
 40
2.0
 40
2.0
 40
3.0
 40
3.0
 40
3.0
 40
4.0
 40
4.0
 40
4.0
 40
4.0
 10
78.19040550519657
 20
-111.8984299720254
 30
0.0
 10
78.19040550519657
 20
-111.8432908053726
 30
0.0
 10
78.1456027285618
 20
-111.7985233053837
 30
0.0
 10
78.09049884107873
 20
-111.7985233053837
 30
0.0
 10
78.03535967581878
 20
-111.7985233053837
 30
0.0
 10
77.9905921769609
 20
-111.8432908053726
 30
0.0
 10
77.9905921769609
 20
-111.8984299720254
 30
0.0
 10
77.9905921769609
 20
-111.953886638678
 30
0.0
 10
78.03535967581878
 20
-111.9986894164448
 30
0.0
 10
78.09049884107873
 20
-111.9986894164448
 30
0.0
 10
78.1456027285618
 20
-111.9986894164448
 30
0.0
 10
78.19040550519657
 20
-111.953886638678
 30
0.0
 10
78.19040550519657
 20
-111.8984299720254
 30
0.0
  0
SPLINE
  5
96
330
1F
100
AcDbEntity
  8
_U+30EC_U+30A4_U+30E4_U+30FC 1
 62
     7
420
 16777215
370
     9
100
AcDbSpline
210
0.0
220
0.0
230
1.0
 70
    11
 71
     3
 72
    17
 73
    13
 74
     0
 42
0.0000000001
 43
0.0000000001
 12
1.0
 22
0.0
 32
0.0
 13
1.0
 23
0.0
 33
0.0
 40
0.0
 40
0.0
 40
0.0
 40
0.0
 40
1.0
 40
1.0
 40
1.0
 40
2.0
 40
2.0
 40
2.0
 40
3.0
 40
3.0
 40
3.0
 40
4.0
 40
4.0
 40
4.0
 40
4.0
 10
74.73290114896041
 20
-115.6790788599691
 30
0.0
 10
74.73290114896041
 20
-115.6239396933164
 30
0.0
 10
74.68813365010251
 20
-115.5791721933275
 30
0.0
 10
74.63299448484257
 20
-115.5791721933275
 30
0.0
 10
74.5778905973595
 20
-115.5791721933275
 30
0.0
 10
74.53308782072473
 20
-115.6239396933164
 30
0.0
 10
74.53308782072473
 20
-115.6790788599691
 30
0.0
 10
74.53308782072473
 20
-115.7345355266218
 30
0.0
 10
74.5778905973595
 20
-115.7793383043885
 30
0.0
 10
74.63299448484257
 20
-115.7793383043885
 30
0.0
 10
74.68813365010251
 20
-115.7793383043885
 30
0.0
 10
74.73290114896041
 20
-115.7345355266218
 30
0.0
 10
74.73290114896041
 20
-115.6790788599691
 30
0.0
  0
SPLINE
  5
97
330
1F
100
AcDbEntity
  8
_U+30EC_U+30A4_U+30E4_U+30FC 1
 62
     7
420
 16777215
370
     9
100
AcDbSpline
210
0.0
220
0.0
230
1.0
 70
    11
 71
     3
 72
    17
 73
    13
 74
     0
 42
0.0000000001
 43
0.0000000001
 12
1.0
 22
0.0
 32
0.0
 13
1.0
 23
0.0
 33
0.0
 40
0.0
 40
0.0
 40
0.0
 40
0.0
 40
1.0
 40
1.0
 40
1.0
 40
2.0
 40
2.0
 40
2.0
 40
3.0
 40
3.0
 40
3.0
 40
4.0
 40
4.0
 40
4.0
 40
4.0
 10
74.73290114896041
 20
-129.2313899676919
 30
0.0
 10
74.73290114896041
 20
-129.1762508010395
 30
0.0
 10
74.68813365010251
 20
-129.1314833010503
 30
0.0
 10
74.63299448484257
 20
-129.1314833010503
 30
0.0
 10
74.5778905973595
 20
-129.1314833010503
 30
0.0
 10
74.53308782072473
 20
-129.1762508010395
 30
0.0
 10
74.53308782072473
 20
-129.2313899676919
 30
0.0
 10
74.53308782072473
 20
-129.2871994121224
 30
0.0
 10
74.5778905973595
 20
-129.3320021898891
 30
0.0
 10
74.63299448484257
 20
-129.3320021898891
 30
0.0
 10
74.68813365010251
 20
-129.3320021898891
 30
0.0
 10
74.73290114896041
 20
-129.2871994121224
 30
0.0
 10
74.73290114896041
 20
-129.2313899676919
 30
0.0
  0
SPLINE
  5
98
330
1F
100
AcDbEntity
  8
_U+30EC_U+30A4_U+30E4_U+30FC 1
 62
     7
420
 16777215
370
     9
100
AcDbSpline
210
0.0
220
0.0
230
1.0
 70
    11
 71
     3
 72
    17
 73
    13
 74
     0
 42
0.0000000001
 43
0.0000000001
 12
1.0
 22
0.0
 32
0.0
 13
1.0
 23
0.0
 33
0.0
 40
0.0
 40
0.0
 40
0.0
 40
0.0
 40
1.0
 40
1.0
 40
1.0
 40
2.0
 40
2.0
 40
2.0
 40
3.0
 40
3.0
 40
3.0
 40
4.0
 40
4.0
 40
4.0
 40
4.0
 10
74.73290114896041
 20
-147.1944463520902
 30
0.0
 10
74.73290114896041
 20
-147.1393424632153
 30
0.0
 10
74.68813365010251
 20
-147.0945396854486
 30
0.0
 10
74.63299448484257
 20
-147.0945396854486
 30
0.0
 10
74.5778905973595
 20
-147.0945396854486
 30
0.0
 10
74.53308782072473
 20
-147.1393424632153
 30
0.0
 10
74.53308782072473
 20
-147.1944463520902
 30
0.0
 10
74.53308782072473
 20
-147.2495855187433
 30
0.0
 10
74.5778905973595
 20
-147.2943530187319
 30
0.0
 10
74.63299448484257
 20
-147.2943530187319
 30
0.0
 10
74.68813365010251
 20
-147.2943530187319
 30
0.0
 10
74.73290114896041
 20
-147.2495855187433
 30
0.0
 10
74.73290114896041
 20
-147.1944463520902
 30
0.0
  0
ENDSEC
  0
SECTION
  2
OBJECTS
  0
DICTIONARY
  5
C
330
0
100
AcDbDictionary
281
     1
  3
ACAD_GROUP
350
D
  3
ACAD_LAYOUT
350
1A
  3
ACAD_MATERIAL
350
3B
  3
ACAD_MLEADERSTYLE
350
9A
  3
ACAD_MLINESTYLE
350
17
  3
ACAD_PLOTSETTINGS
350
19
  3
ACAD_PLOTSTYLENAME
350
E
  3
ACAD_TABLESTYLE
350
99
  3
ACAD_VISUALSTYLE
350
2A
  0
SUN
  5
3F
330
29
100
AcDbSun
 90
        1
290
     0
 63
     7
421
 16777215
 40
1.0
291
     1
 91
  2455826
 92
 54000000
292
     0
 70
     2
 71
   256
280
     1
  0
DICTIONARY
  5
D
102
{ACAD_REACTORS
330
C
102
}
330
C
100
AcDbDictionary
281
     1
  0
DICTIONARY
  5
1A
102
{ACAD_REACTORS
330
C
102
}
330
C
100
AcDbDictionary
281
     1
  3
Layout1
350
1E
  3
Layout2
350
26
  3
Model
350
22
  0
DICTIONARY
  5
3B
102
{ACAD_REACTORS
330
C
102
}
330
C
100
AcDbDictionary
281
     1
  3
ByBlock
350
3D
  3
ByLayer
350
3C
  3
Global
350
3E
  0
DICTIONARY
  5
9A
102
{ACAD_REACTORS
330
C
102
}
330
C
100
AcDbDictionary
281
     1
  0
DICTIONARY
  5
17
102
{ACAD_REACTORS
330
C
102
}
330
C
100
AcDbDictionary
281
     1
  3
Standard
350
18
  0
DICTIONARY
  5
19
102
{ACAD_REACTORS
330
C
102
}
330
C
100
AcDbDictionary
281
     1
  0
ACDBDICTIONARYWDFLT
  5
E
102
{ACAD_REACTORS
330
C
102
}
330
C
100
AcDbDictionary
281
     1
  3
Normal
350
F
100
AcDbDictionaryWithDefault
340
F
  0
DICTIONARY
  5
99
102
{ACAD_REACTORS
330
C
102
}
330
C
100
AcDbDictionary
281
     1
  0
DICTIONARY
  5
2A
102
{ACAD_REACTORS
330
C
102
}
330
C
100
AcDbDictionary
281
     1
  3
2dWireframe
350
2F
  3
3D Hidden
350
31
  3
3dWireframe
350
30
  3
Basic
350
32
  3
Brighten
350
36
  3
ColorChange
350
3A
  3
Conceptual
350
34
  3
Dim
350
35
  3
Facepattern
350
39
  3
Flat
350
2B
  3
FlatWithEdges
350
2C
  3
Gouraud
350
2D
  3
GouraudWithEdges
350
2E
  3
Linepattern
350
38
  3
Realistic
350
33
  3
Thicken
350
37
  0
LAYOUT
  5
1E
102
{ACAD_REACTORS
330
1A
102
}
330
1A
100
AcDbPlotSettings
  1

  2
none_device
  4

  6

 40
0.0
 41
0.0
 42
0.0
 43
0.0
 44
0.0
 45
0.0
 46
0.0
 47
0.0
 48
0.0
 49
0.0
140
0.0
141
0.0
142
1.0
143
1.0
 70
   688
 72
     0
 73
     0
 74
     5
  7

 75
    16
 76
     0
 77
     2
 78
   300
147
1.0
148
0.0
149
0.0
100
AcDbLayout
  1
Layout1
 70
     1
 71
     1
 10
0.0
 20
0.0
 11
12.0
 21
9.0
 12
0.0
 22
0.0
 32
0.0
 14
1.000000000000000E+20
 24
1.000000000000000E+20
 34
1.000000000000000E+20
 15
-1.000000000000000E+20
 25
-1.000000000000000E+20
 35
-1.000000000000000E+20
146
0.0
 13
0.0
 23
0.0
 33
0.0
 16
1.0
 26
0.0
 36
0.0
 17
0.0
 27
1.0
 37
0.0
 76
     0
330
1B
  0
LAYOUT
  5
26
102
{ACAD_REACTORS
330
1A
102
}
330
1A
100
AcDbPlotSettings
  1

  2
none_device
  4

  6

 40
0.0
 41
0.0
 42
0.0
 43
0.0
 44
0.0
 45
0.0
 46
0.0
 47
0.0
 48
0.0
 49
0.0
140
0.0
141
0.0
142
1.0
143
1.0
 70
   688
 72
     0
 73
     0
 74
     5
  7

 75
    16
 76
     0
 77
     2
 78
   300
147
1.0
148
0.0
149
0.0
100
AcDbLayout
  1
Layout2
 70
     1
 71
     2
 10
0.0
 20
0.0
 11
0.0
 21
0.0
 12
0.0
 22
0.0
 32
0.0
 14
0.0
 24
0.0
 34
0.0
 15
0.0
 25
0.0
 35
0.0
146
0.0
 13
0.0
 23
0.0
 33
0.0
 16
1.0
 26
0.0
 36
0.0
 17
0.0
 27
1.0
 37
0.0
 76
     0
330
23
  0
LAYOUT
  5
22
102
{ACAD_REACTORS
330
1A
102
}
330
1A
100
AcDbPlotSettings
  1

  2
none_device
  4

  6

 40
0.0
 41
0.0
 42
0.0
 43
0.0
 44
0.0
 45
0.0
 46
0.0
 47
0.0
 48
0.0
 49
0.0
140
0.0
141
0.0
142
1.0
143
1.0
 70
  1712
 72
     0
 73
     0
 74
     0
  7

 75
     0
 76
     0
 77
     2
 78
   300
147
1.0
148
0.0
149
0.0
100
AcDbLayout
  1
Model
 70
     1
 71
     0
 10
0.0
 20
0.0
 11
12.0
 21
9.0
 12
0.0
 22
0.0
 32
0.0
 14
1.000000000000000E+20
 24
1.000000000000000E+20
 34
1.000000000000000E+20
 15
-1.000000000000000E+20
 25
-1.000000000000000E+20
 35
-1.000000000000000E+20
146
0.0
 13
0.0
 23
0.0
 33
0.0
 16
1.0
 26
0.0
 36
0.0
 17
0.0
 27
1.0
 37
0.0
 76
     0
330
1F
331
29
  0
MATERIAL
  5
3D
102
{ACAD_REACTORS
330
3B
102
}
330
3B
100
AcDbMaterial
  1
ByBlock
 72
     1
 94
      127
  0
MATERIAL
  5
3C
102
{ACAD_REACTORS
330
3B
102
}
330
3B
100
AcDbMaterial
  1
ByLayer
 72
     1
 94
      127
  0
MATERIAL
  5
3E
102
{ACAD_REACTORS
330
3B
102
}
330
3B
100
AcDbMaterial
  1
Global
 72
     1
 94
      127
  0
MLINESTYLE
  5
18
102
{ACAD_REACTORS
330
17
102
}
330
17
100
AcDbMlineStyle
  2
Standard
 70
     0
  3

 62
   256
 51
90.0
 52
90.0
 71
     2
 49
0.5
 62
   256
  6
BYLAYER
 49
-0.5
 62
   256
  6
BYLAYER
  0
ACDBPLACEHOLDER
  5
F
102
{ACAD_REACTORS
330
E
102
}
330
E
  0
VISUALSTYLE
  5
2F
102
{ACAD_REACTORS
330
2A
102
}
330
2A
100
AcDbVisualStyle
  2
2dWireframe
 70
     4
177
     2
291
     0
 71
     0
176
     1
 72
     2
176
     1
 73
     0
176
     1
 90
        0
176
     1
 40
-0.6
176
     1
 41
-30.0
176
     1
 62
     5
 63
     7
421
 16777215
176
     1
 74
     1
176
     1
 91
        4
176
     1
 64
     7
176
     1
 65
   257
176
     1
 75
     1
176
     1
175
     1
176
     1
 42
1.0
176
     1
 92
        0
176
     1
 66
   257
176
     1
 43
1.0
176
     1
 76
     1
176
     1
 77
     6
176
     1
 78
     2
176
     1
 67
     7
176
     1
 79
     5
176
     1
170
     0
176
     1
171
     0
176
     1
290
     0
176
     1
 93
        1
176
     1
 44
0.0
176
     1
173
     0
176
     1
  0
VISUALSTYLE
  5
31
102
{ACAD_REACTORS
330
2A
102
}
330
2A
100
AcDbVisualStyle
  2
3D Hidden
 70
     6
177
     2
291
     0
 71
     1
176
     1
 72
     2
176
     1
 73
     2
176
     1
 90
        0
176
     1
 40
-0.6
176
     1
 41
-30.0
176
     1
 62
     5
 63
     7
421
 16777215
176
     1
 74
     2
176
     1
 91
        2
176
     1
 64
     7
176
     1
 65
   257
176
     1
 75
     2
176
     1
175
     1
176
     1
 42
40.0
176
     1
 92
        0
176
     1
 66
   257
176
     1
 43
1.0
176
     1
 76
     1
176
     1
 77
     6
176
     1
 78
     2
176
     1
 67
     7
176
     1
 79
     3
176
     1
170
     0
176
     1
171
     0
176
     1
290
     0
176
     1
 93
        1
176
     1
 44
0.0
176
     1
173
     0
176
     1
  0
VISUALSTYLE
  5
30
102
{ACAD_REACTORS
330
2A
102
}
330
2A
100
AcDbVisualStyle
  2
3dWireframe
 70
     5
177
     2
291
     0
 71
     0
176
     1
 72
     2
176
     1
 73
     0
176
     1
 90
        0
176
     1
 40
-0.6
176
     1
 41
-30.0
176
     1
 62
     5
 63
     7
421
 16777215
176
     1
 74
     1
176
     1
 91
        4
176
     1
 64
     7
176
     1
 65
   257
176
     1
 75
     1
176
     1
175
     1
176
     1
 42
1.0
176
     1
 92
        0
176
     1
 66
   257
176
     1
 43
1.0
176
     1
 76
     1
176
     1
 77
     6
176
     1
 78
     2
176
     1
 67
     7
176
     1
 79
     5
176
     1
170
     0
176
     1
171
     0
176
     1
290
     0
176
     1
 93
        1
176
     1
 44
0.0
176
     1
173
     0
176
     1
  0
VISUALSTYLE
  5
32
102
{ACAD_REACTORS
330
2A
102
}
330
2A
100
AcDbVisualStyle
  2
Basic
 70
     7
177
     2
291
     1
 71
     1
176
     1
 72
     0
176
     1
 73
     1
176
     1
 90
        0
176
     1
 40
-0.6
176
     1
 41
-30.0
176
     1
 62
     5
 63
     7
421
 16777215
176
     1
 74
     0
176
     1
 91
        4
176
     1
 64
     7
176
     1
 65
   257
176
     1
 75
     1
176
     1
175
     1
176
     1
 42
1.0
176
     1
 92
        8
176
     1
 66
     7
176
     1
 43
1.0
176
     1
 76
     1
176
     1
 77
     6
176
     1
 78
     2
176
     1
 67
     7
176
     1
 79
     5
176
     1
170
     0
176
     1
171
     0
176
     1
290
     0
176
     1
 93
        1
176
     1
 44
0.0
176
     1
173
     0
176
     1
  0
VISUALSTYLE
  5
36
102
{ACAD_REACTORS
330
2A
102
}
330
2A
100
AcDbVisualStyle
  2
Brighten
 70
    12
177
     2
291
     1
 71
     2
176
     1
 72
     2
176
     1
 73
     0
176
     1
 90
        0
176
     1
 40
-0.6
176
     1
 41
-30.0
176
     1
 62
     5
 63
     7
421
 16777215
176
     1
 74
     1
176
     1
 91
        4
176
     1
 64
     7
176
     1
 65
   257
176
     1
 75
     1
176
     1
175
     1
176
     1
 42
1.0
176
     1
 92
        8
176
     1
 66
     7
176
     1
 43
1.0
176
     1
 76
     1
176
     1
 77
     6
176
     1
 78
     2
176
     1
 67
     7
176
     1
 79
     5
176
     1
170
     0
176
     1
171
     0
176
     1
290
     0
176
     1
 93
        1
176
     1
 44
50.0
176
     1
173
     0
176
     1
  0
VISUALSTYLE
  5
3A
102
{ACAD_REACTORS
330
2A
102
}
330
2A
100
AcDbVisualStyle
  2
ColorChange
 70
    16
177
     2
291
     1
 71
     2
176
     1
 72
     2
176
     1
 73
     3
176
     1
 90
        0
176
     1
 40
-0.6
176
     1
 41
-30.0
176
     1
 62
     5
 63
     8
421
  8421504
176
     1
 74
     1
176
     1
 91
        4
176
     1
 64
     7
176
     1
 65
   257
176
     1
 75
     1
176
     1
175
     1
176
     1
 42
1.0
176
     1
 92
        8
176
     1
 66
     8
424
  8421504
176
     1
 43
1.0
176
     1
 76
     1
176
     1
 77
     6
176
     1
 78
     2
176
     1
 67
     7
176
     1
 79
     5
176
     1
170
     0
176
     1
171
     0
176
     1
290
     0
176
     1
 93
        1
176
     1
 44
0.0
176
     1
173
     0
176
     1
  0
VISUALSTYLE
  5
34
102
{ACAD_REACTORS
330
2A
102
}
330
2A
100
AcDbVisualStyle
  2
Conceptual
 70
     9
177
     2
291
     0
 71
     3
176
     1
 72
     2
176
     1
 73
     0
176
     1
 90
        0
176
     1
 40
-0.6
176
     1
 41
-30.0
176
     1
 62
     5
 63
     7
421
 16777215
176
     1
 74
     2
176
     1
 91
        2
176
     1
 64
     7
176
     1
 65
   257
176
     1
 75
     1
176
     1
175
     1
176
     1
 42
40.0
176
     1
 92
        8
176
     1
 66
     7
176
     1
 43
1.0
176
     1
 76
     1
176
     1
 77
     6
176
     1
 78
     2
176
     1
 67
     7
176
     1
 79
     3
176
     1
170
     0
176
     1
171
     0
176
     1
290
     0
176
     1
 93
        1
176
     1
 44
0.0
176
     1
173
     0
176
     1
  0
VISUALSTYLE
  5
35
102
{ACAD_REACTORS
330
2A
102
}
330
2A
100
AcDbVisualStyle
  2
Dim
 70
    11
177
     2
291
     1
 71
     2
176
     1
 72
     2
176
     1
 73
     0
176
     1
 90
        0
176
     1
 40
-0.6
176
     1
 41
-30.0
176
     1
 62
     5
 63
     7
421
 16777215
176
     1
 74
     1
176
     1
 91
        4
176
     1
 64
     7
176
     1
 65
   257
176
     1
 75
     1
176
     1
175
     1
176
     1
 42
1.0
176
     1
 92
        8
176
     1
 66
     7
176
     1
 43
1.0
176
     1
 76
     1
176
     1
 77
     6
176
     1
 78
     2
176
     1
 67
     7
176
     1
 79
     5
176
     1
170
     0
176
     1
171
     0
176
     1
290
     0
176
     1
 93
        1
176
     1
 44
-50.0
176
     1
173
     0
176
     1
  0
VISUALSTYLE
  5
39
102
{ACAD_REACTORS
330
2A
102
}
330
2A
100
AcDbVisualStyle
  2
Facepattern
 70
    15
177
     2
291
     1
 71
     2
176
     1
 72
     2
176
     1
 73
     0
176
     1
 90
        0
176
     1
 40
-0.6
176
     1
 41
-30.0
176
     1
 62
     5
 63
     7
421
 16777215
176
     1
 74
     1
176
     1
 91
        4
176
     1
 64
     7
176
     1
 65
   257
176
     1
 75
     1
176
     1
175
     1
176
     1
 42
1.0
176
     1
 92
        8
176
     1
 66
     7
176
     1
 43
1.0
176
     1
 76
     1
176
     1
 77
     6
176
     1
 78
     2
176
     1
 67
     7
176
     1
 79
     5
176
     1
170
     0
176
     1
171
     0
176
     1
290
     0
176
     1
 93
        1
176
     1
 44
0.0
176
     1
173
     0
176
     1
  0
VISUALSTYLE
  5
2B
102
{ACAD_REACTORS
330
2A
102
}
330
2A
100
AcDbVisualStyle
  2
Flat
 70
     0
177
     2
291
     1
 71
     2
176
     1
 72
     1
176
     1
 73
     1
176
     1
 90
        2
176
     1
 40
-0.6
176
     1
 41
30.0
176
     1
 62
     5
 63
     7
421
 16777215
176
     1
 74
     0
176
     1
 91
        4
176
     1
 64
     7
176
     1
 65
   257
176
     1
 75
     1
176
     1
175
     1
176
     1
 42
1.0
176
     1
 92
        8
176
     1
 66
     7
176
     1
 43
1.0
176
     1
 76
     1
176
     1
 77
     6
176
     1
 78
     2
176
     1
 67
     7
176
     1
 79
     5
176
     1
170
     0
176
     1
171
     0
176
     1
290
     0
176
     1
 93
       13
176
     1
 44
0.0
176
     1
173
     0
176
     1
  0
VISUALSTYLE
  5
2C
102
{ACAD_REACTORS
330
2A
102
}
330
2A
100
AcDbVisualStyle
  2
FlatWithEdges
 70
     1
177
     2
291
     1
 71
     2
176
     1
 72
     1
176
     1
 73
     1
176
     1
 90
        2
176
     1
 40
-0.6
176
     1
 41
30.0
176
     1
 62
     5
 63
     7
421
 16777215
176
     1
 74
     1
176
     1
 91
        4
176
     1
 64
     7
176
     1
 65
   257
176
     1
 75
     1
176
     1
175
     1
176
     1
 42
1.0
176
     1
 92
        0
176
     1
 66
   257
176
     1
 43
1.0
176
     1
 76
     1
176
     1
 77
     6
176
     1
 78
     2
176
     1
 67
     7
176
     1
 79
     5
176
     1
170
     0
176
     1
171
     0
176
     1
290
     0
176
     1
 93
       13
176
     1
 44
0.0
176
     1
173
     0
176
     1
  0
VISUALSTYLE
  5
2D
102
{ACAD_REACTORS
330
2A
102
}
330
2A
100
AcDbVisualStyle
  2
Gouraud
 70
     2
177
     2
291
     1
 71
     2
176
     1
 72
     2
176
     1
 73
     1
176
     1
 90
        2
176
     1
 40
-0.6
176
     1
 41
30.0
176
     1
 62
     5
 63
     7
421
 16777215
176
     1
 74
     0
176
     1
 91
        4
176
     1
 64
     7
176
     1
 65
   257
176
     1
 75
     1
176
     1
175
     1
176
     1
 42
1.0
176
     1
 92
        0
176
     1
 66
     7
176
     1
 43
1.0
176
     1
 76
     1
176
     1
 77
     6
176
     1
 78
     2
176
     1
 67
     7
176
     1
 79
     5
176
     1
170
     0
176
     1
171
     0
176
     1
290
     0
176
     1
 93
       13
176
     1
 44
0.0
176
     1
173
     0
176
     1
  0
VISUALSTYLE
  5
2E
102
{ACAD_REACTORS
330
2A
102
}
330
2A
100
AcDbVisualStyle
  2
GouraudWithEdges
 70
     3
177
     2
291
     1
 71
     2
176
     1
 72
     2
176
     1
 73
     1
176
     1
 90
        2
176
     1
 40
-0.6
176
     1
 41
30.0
176
     1
 62
     5
 63
     7
421
 16777215
176
     1
 74
     1
176
     1
 91
        4
176
     1
 64
     7
176
     1
 65
   257
176
     1
 75
     1
176
     1
175
     1
176
     1
 42
1.0
176
     1
 92
        0
176
     1
 66
   257
176
     1
 43
1.0
176
     1
 76
     1
176
     1
 77
     6
176
     1
 78
     2
176
     1
 67
     7
176
     1
 79
     5
176
     1
170
     0
176
     1
171
     0
176
     1
290
     0
176
     1
 93
       13
176
     1
 44
0.0
176
     1
173
     0
176
     1
  0
VISUALSTYLE
  5
38
102
{ACAD_REACTORS
330
2A
102
}
330
2A
100
AcDbVisualStyle
  2
Linepattern
 70
    14
177
     2
291
     1
 71
     2
176
     1
 72
     2
176
     1
 73
     0
176
     1
 90
        0
176
     1
 40
-0.6
176
     1
 41
-30.0
176
     1
 62
     5
 63
     7
421
 16777215
176
     1
 74
     1
176
     1
 91
        4
176
     1
 64
     7
176
     1
 65
   257
176
     1
 75
     7
176
     1
175
     7
176
     1
 42
1.0
176
     1
 92
        8
176
     1
 66
     7
176
     1
 43
1.0
176
     1
 76
     1
176
     1
 77
     6
176
     1
 78
     2
176
     1
 67
     7
176
     1
 79
     5
176
     1
170
     0
176
     1
171
     0
176
     1
290
     0
176
     1
 93
        1
176
     1
 44
0.0
176
     1
173
     0
176
     1
  0
VISUALSTYLE
  5
33
102
{ACAD_REACTORS
330
2A
102
}
330
2A
100
AcDbVisualStyle
  2
Realistic
 70
     8
177
     2
291
     0
 71
     2
176
     1
 72
     2
176
     1
 73
     0
176
     1
 90
        0
176
     1
 40
-0.6
176
     1
 41
-30.0
176
     1
 62
     5
 63
     7
421
 16777215
176
     1
 74
     1
176
     1
 91
        0
176
     1
 64
     7
176
     1
 65
   257
176
     1
 75
     1
176
     1
175
     1
176
     1
 42
1.0
176
     1
 92
        8
176
     1
 66
     8
424
  7895160
176
     1
 43
1.0
176
     1
 76
     1
176
     1
 77
     6
176
     1
 78
     2
176
     1
 67
     7
176
     1
 79
     5
176
     1
170
     0
176
     1
171
     0
176
     1
290
     0
176
     1
 93
       13
176
     1
 44
0.0
176
     1
173
     0
176
     1
  0
VISUALSTYLE
  5
37
102
{ACAD_REACTORS
330
2A
102
}
330
2A
100
AcDbVisualStyle
  2
Thicken
 70
    13
177
     2
291
     1
 71
     2
176
     1
 72
     2
176
     1
 73
     0
176
     1
 90
        0
176
     1
 40
-0.6
176
     1
 41
-30.0
176
     1
 62
     5
 63
     7
421
 16777215
176
     1
 74
     1
176
     1
 91
        4
176
     1
 64
     7
176
     1
 65
   257
176
     1
 75
     1
176
     1
175
     1
176
     1
 42
1.0
176
     1
 92
       12
176
     1
 66
     7
176
     1
 43
1.0
176
     1
 76
     1
176
     1
 77
     6
176
     1
 78
     2
176
     1
 67
     7
176
     1
 79
     5
176
     1
170
     0
176
     1
171
     0
176
     1
290
     0
176
     1
 93
        1
176
     1
 44
0.0
176
     1
173
     0
176
     1
  0
ENDSEC
  0
EOF
