  0
SECTION
  2
HEADER
  9
$ACADVER
  1
AC1024
  9
$ACADMAINTVER
 70
     6
  9
$DWGCODEPAGE
  3
UNDEFINED
  9
$INSBASE
 10
0.0
 20
0.0
 30
0.0
  9
$EXTMIN
 10
1.000000000000000E+20
 20
1.000000000000000E+20
 30
1.000000000000000E+20
  9
$EXTMAX
 10
-1.000000000000000E+20
 20
-1.000000000000000E+20
 30
-1.000000000000000E+20
  9
$LIMMIN
 10
0.0
 20
0.0
  9
$LIMMAX
 10
12.0
 20
9.0
  9
$ORTHOMODE
 70
     0
  9
$REGENMODE
 70
     1
  9
$FILLMODE
 70
     1
  9
$QTEXTMODE
 70
     0
  9
$MIRRTEXT
 70
     1
  9
$LTSCALE
 40
1.0
  9
$ATTMODE
 70
     1
  9
$TEXTSIZE
 40
0.2
  9
$TRACEWID
 40
0.05
  9
$TEXTSTYLE
  7
Standard
  9
$CLAYER
  8
0
  9
$CELTYPE
  6
ByLayer
  9
$CECOLOR
 62
   256
  9
$CELTSCALE
 40
1.0
  9
$DISPSILH
 70
     0
  9
$DIMSCALE
 40
1.0
  9
$DIMASZ
 40
0.18
  9
$DIMEXO
 40
0.0625
  9
$DIMDLI
 40
0.38
  9
$DIMRND
 40
0.0
  9
$DIMDLE
 40
0.0
  9
$DIMEXE
 40
0.18
  9
$DIMTP
 40
0.0
  9
$DIMTM
 40
0.0
  9
$DIMTXT
 40
0.18
  9
$DIMCEN
 40
0.09
  9
$DIMTSZ
 40
0.0
  9
$DIMTOL
 70
     0
  9
$DIMLIM
 70
     0
  9
$DIMTIH
 70
     1
  9
$DIMTOH
 70
     1
  9
$DIMSE1
 70
     0
  9
$DIMSE2
 70
     0
  9
$DIMTAD
 70
     0
  9
$DIMZIN
 70
     0
  9
$DIMBLK
  1

  9
$DIMASO
 70
     1
  9
$DIMSHO
 70
     1
  9
$DIMPOST
  1

  9
$DIMAPOST
  1

  9
$DIMALT
 70
     0
  9
$DIMALTD
 70
     2
  9
$DIMALTF
 40
25.4
  9
$DIMLFAC
 40
1.0
  9
$DIMTOFL
 70
     0
  9
$DIMTVP
 40
0.0
  9
$DIMTIX
 70
     0
  9
$DIMSOXD
 70
     0
  9
$DIMSAH
 70
     0
  9
$DIMBLK1
  1

  9
$DIMBLK2
  1

  9
$DIMSTYLE
  2
Standard
  9
$DIMCLRD
 70
     0
  9
$DIMCLRE
 70
     0
  9
$DIMCLRT
 70
     0
  9
$DIMTFAC
 40
1.0
  9
$DIMGAP
 40
0.09
  9
$DIMJUST
 70
     0
  9
$DIMSD1
 70
     0
  9
$DIMSD2
 70
     0
  9
$DIMTOLJ
 70
     1
  9
$DIMTZIN
 70
     0
  9
$DIMALTZ
 70
     0
  9
$DIMALTTZ
 70
     0
  9
$DIMUPT
 70
     0
  9
$DIMDEC
 70
     4
  9
$DIMTDEC
 70
     4
  9
$DIMALTU
 70
     2
  9
$DIMALTTD
 70
     2
  9
$DIMTXSTY
  7
Standard
  9
$DIMAUNIT
 70
     0
  9
$DIMADEC
 70
     0
  9
$DIMALTRND
 40
0.0
  9
$DIMAZIN
 70
     0
  9
$DIMDSEP
 70
    46
  9
$DIMATFIT
 70
     3
  9
$DIMFRAC
 70
     0
  9
$DIMLDRBLK
  1

  9
$DIMLUNIT
 70
     2
  9
$DIMLWD
 70
    -2
  9
$DIMLWE
 70
    -2
  9
$DIMTMOVE
 70
     0
  9
$DIMFXL
 40
1.0
  9
$DIMFXLON
 70
     0
  9
$DIMJOGANG
 40
0.7853981633974483
  9
$DIMTFILL
 70
     0
  9
$DIMTFILLCLR
 70
     0
  9
$DIMARCSYM
 70
     0
  9
$DIMLTYPE
  6

  9
$DIMLTEX1
  6

  9
$DIMLTEX2
  6

  9
$DIMTXTDIRECTION
 70
     0
  9
$LUNITS
 70
     2
  9
$LUPREC
 70
     4
  9
$SKETCHINC
 40
0.1
  9
$FILLETRAD
 40
0.5
  9
$AUNITS
 70
     0
  9
$AUPREC
 70
     0
  9
$MENU
  1
.
  9
$ELEVATION
 40
0.0
  9
$PELEVATION
 40
0.0
  9
$THICKNESS
 40
0.0
  9
$LIMCHECK
 70
     0
  9
$CHAMFERA
 40
0.5
  9
$CHAMFERB
 40
0.5
  9
$CHAMFERC
 40
1.0
  9
$CHAMFERD
 40
0.0
  9
$SKPOLY
 70
     0
  9
$TDCREATE
 40
2457917.584965278
  9
$TDUCREATE
 40
2457917.209965278
  9
$TDUPDATE
 40
2457917.584965278
  9
$TDUUPDATE
 40
2457917.209965278
  9
$TDINDWG
 40
0.0000000116
  9
$TDUSRTIMER
 40
0.0000000116
  9
$USRTIMER
 70
     1
  9
$ANGBASE
 50
0.0
  9
$ANGDIR
 70
     0
  9
$PDMODE
 70
     0
  9
$PDSIZE
 40
0.0
  9
$PLINEWID
 40
0.0
  9
$SPLFRAME
 70
     0
  9
$SPLINETYPE
 70
     6
  9
$SPLINESEGS
 70
     8
  9
$HANDSEED
  5
7D
  9
$SURFTAB1
 70
     6
  9
$SURFTAB2
 70
     6
  9
$SURFTYPE
 70
     6
  9
$SURFU
 70
     6
  9
$SURFV
 70
     6
  9
$UCSBASE
  2

  9
$UCSNAME
  2

  9
$UCSORG
 10
0.0
 20
0.0
 30
0.0
  9
$UCSXDIR
 10
1.0
 20
0.0
 30
0.0
  9
$UCSYDIR
 10
0.0
 20
1.0
 30
0.0
  9
$UCSORTHOREF
  2

  9
$UCSORTHOVIEW
 70
     0
  9
$UCSORGTOP
 10
0.0
 20
0.0
 30
0.0
  9
$UCSORGBOTTOM
 10
0.0
 20
0.0
 30
0.0
  9
$UCSORGLEFT
 10
0.0
 20
0.0
 30
0.0
  9
$UCSORGRIGHT
 10
0.0
 20
0.0
 30
0.0
  9
$UCSORGFRONT
 10
0.0
 20
0.0
 30
0.0
  9
$UCSORGBACK
 10
0.0
 20
0.0
 30
0.0
  9
$PUCSBASE
  2

  9
$PUCSNAME
  2

  9
$PUCSORG
 10
0.0
 20
0.0
 30
0.0
  9
$PUCSXDIR
 10
1.0
 20
0.0
 30
0.0
  9
$PUCSYDIR
 10
0.0
 20
1.0
 30
0.0
  9
$PUCSORTHOREF
  2

  9
$PUCSORTHOVIEW
 70
     0
  9
$PUCSORGTOP
 10
0.0
 20
0.0
 30
0.0
  9
$PUCSORGBOTTOM
 10
0.0
 20
0.0
 30
0.0
  9
$PUCSORGLEFT
 10
0.0
 20
0.0
 30
0.0
  9
$PUCSORGRIGHT
 10
0.0
 20
0.0
 30
0.0
  9
$PUCSORGFRONT
 10
0.0
 20
0.0
 30
0.0
  9
$PUCSORGBACK
 10
0.0
 20
0.0
 30
0.0
  9
$USERI1
 70
     0
  9
$USERI2
 70
     0
  9
$USERI3
 70
     0
  9
$USERI4
 70
     0
  9
$USERI5
 70
     0
  9
$USERR1
 40
0.0
  9
$USERR2
 40
0.0
  9
$USERR3
 40
0.0
  9
$USERR4
 40
0.0
  9
$USERR5
 40
0.0
  9
$WORLDVIEW
 70
     1
  9
$SHADEDGE
 70
     3
  9
$SHADEDIF
 70
    70
  9
$TILEMODE
 70
     1
  9
$MAXACTVP
 70
    64
  9
$PINSBASE
 10
0.0
 20
0.0
 30
0.0
  9
$PLIMCHECK
 70
     0
  9
$PEXTMIN
 10
1.000000000000000E+20
 20
1.000000000000000E+20
 30
1.000000000000000E+20
  9
$PEXTMAX
 10
-1.000000000000000E+20
 20
-1.000000000000000E+20
 30
-1.000000000000000E+20
  9
$PLIMMIN
 10
0.0
 20
0.0
  9
$PLIMMAX
 10
12.0
 20
9.0
  9
$UNITMODE
 70
     0
  9
$VISRETAIN
 70
     1
  9
$PLINEGEN
 70
     0
  9
$PSLTSCALE
 70
     1
  9
$TREEDEPTH
 70
  3020
  9
$CMLSTYLE
  2
Standard
  9
$CMLJUST
 70
     0
  9
$CMLSCALE
 40
1.0
  9
$PROXYGRAPHICS
 70
     1
  9
$MEASUREMENT
 70
     0
  9
$CELWEIGHT
370
    -1
  9
$ENDCAPS
280
     0
  9
$JOINSTYLE
280
     0
  9
$LWDISPLAY
290
     1
  9
$INSUNITS
 70
     1
  9
$HYPERLINKBASE
  1

  9
$STYLESHEET
  1

  9
$XEDIT
290
     1
  9
$CEPSNTYPE
380
     0
  9
$PSTYLEMODE
290
     1
  9
$FINGERPRINTGUID
  2
{2E3FB38D-9660-039E-F483-BC08E27D1AE1}
  9
$VERSIONGUID
  2
{FAEB1C32-E019-11D5-929B-00C0DF256EC4}
  9
$EXTNAMES
290
     1
  9
$PSVPSCALE
 40
0.0
  9
$OLESTARTUP
290
     0
  9
$SORTENTS
280
   127
  9
$INDEXCTL
280
     0
  9
$HIDETEXT
280
     1
  9
$XCLIPFRAME
280
     2
  9
$HALOGAP
280
     0
  9
$OBSCOLOR
 70
   257
  9
$OBSLTYPE
280
     0
  9
$INTERSECTIONDISPLAY
280
     0
  9
$INTERSECTIONCOLOR
 70
   257
  9
$DIMASSOC
280
     2
  9
$PROJECTNAME
  1

  9
$CAMERADISPLAY
290
     0
  9
$LENSLENGTH
 40
50.0
  9
$CAMERAHEIGHT
 40
0.0
  9
$STEPSPERSEC
 40
2.0
  9
$STEPSIZE
 40
6.0
  9
$3DDWFPREC
 40
2.0
  9
$PSOLWIDTH
 40
0.25
  9
$PSOLHEIGHT
 40
4.0
  9
$LOFTANG1
 40
1.570796326794897
  9
$LOFTANG2
 40
1.570796326794897
  9
$LOFTMAG1
 40
0.0
  9
$LOFTMAG2
 40
0.0
  9
$LOFTPARAM
 70
     7
  9
$LOFTNORMALS
280
     1
  9
$LATITUDE
 40
37.795
  9
$LONGITUDE
 40
-122.394
  9
$NORTHDIRECTION
 40
0.0
  9
$TIMEZONE
 70
 -8000
  9
$LIGHTGLYPHDISPLAY
280
     1
  9
$TILEMODELIGHTSYNCH
280
     1
  9
$CMATERIAL
347
3C
  9
$SOLIDHIST
280
     1
  9
$SHOWHIST
280
     1
  9
$DWFFRAME
280
     2
  9
$DGNFRAME
280
     2
  9
$REALWORLDSCALE
290
     1
  9
$INTERFERECOLOR
 62
   256
  9
$CSHADOW
280
     0
  9
$SHADOWPLANELOCATION
 40
0.0
  0
ENDSEC
  0
SECTION
  2
CLASSES
  0
CLASS
  1
ACDBDICTIONARYWDFLT
  2
AcDbDictionaryWithDefault
  3
ObjectDBX Classes
 90
        0
 91
        4
280
     0
281
     0
  0
CLASS
  1
VISUALSTYLE
  2
AcDbVisualStyle
  3
ObjectDBX Classes
 90
     4095
 91
        4
280
     0
281
     0
  0
CLASS
  1
MATERIAL
  2
AcDbMaterial
  3
ObjectDBX Classes
 90
     1153
 91
        4
280
     0
281
     0
  0
CLASS
  1
SUN
  2
AcDbSun
  3
SCENEOE
 90
     1024
 91
        4
280
     0
281
     0
  0
ENDSEC
  0
SECTION
  2
TABLES
  0
TABLE
  2
VPORT
  5
8
330
0
100
AcDbSymbolTable
 70
     1
  0
VPORT
  5
29
330
8
100
AcDbSymbolTableRecord
100
AcDbViewportTableRecord
  2
*Active
 70
     0
 10
0.0
 20
0.0
 11
1.0
 21
1.0
 12
0.0
 22
0.0
 13
0.0
 23
0.0
 14
0.5
 24
0.5
 15
0.5
 25
0.5
 16
0.0
 26
0.0
 36
1.0
 17
91.00082462281999
 27
-128.4993055234307
 37
0.0
 40
256.9986110468615
 41
0.7081814508812795
 42
50.0
 43
0.0
 44
0.0
 50
0.0
 51
0.0
 71
     0
 72
   100
 73
     1
 74
     3
 75
     0
 76
     0
 77
     0
 78
     0
281
     0
 65
     1
110
0.0
120
0.0
130
0.0
111
1.0
121
0.0
131
0.0
112
0.0
122
1.0
132
0.0
 79
     0
146
0.0
 60
     3
 61
     5
292
     1
282
     1
141
0.0
142
0.0
 63
   250
361
3F
  0
ENDTAB
  0
TABLE
  2
LTYPE
  5
5
330
0
100
AcDbSymbolTable
 70
     1
  0
LTYPE
  5
14
330
5
100
AcDbSymbolTableRecord
100
AcDbLinetypeTableRecord
  2
ByBlock
 70
     0
  3

 72
    65
 73
     0
 40
0.0
  0
LTYPE
  5
15
330
5
100
AcDbSymbolTableRecord
100
AcDbLinetypeTableRecord
  2
ByLayer
 70
     0
  3

 72
    65
 73
     0
 40
0.0
  0
LTYPE
  5
16
330
5
100
AcDbSymbolTableRecord
100
AcDbLinetypeTableRecord
  2
Continuous
 70
     0
  3
Solid line
 72
    65
 73
     0
 40
0.0
  0
ENDTAB
  0
TABLE
  2
LAYER
  5
2
330
0
100
AcDbSymbolTable
 70
     2
  0
LAYER
  5
10
330
2
100
AcDbSymbolTableRecord
100
AcDbLayerTableRecord
  2
0
 70
     0
 62
     7
  6
Continuous
370
    -3
390
F
347
3E
  0
LAYER
  5
40
330
2
100
AcDbSymbolTableRecord
100
AcDbLayerTableRecord
  2
_U+30EC_U+30A4_U+30E4_U+30FC 1
 70
     0
 62
     7
  6
Continuous
370
    -3
390
F
347
3E
  0
ENDTAB
  0
TABLE
  2
STYLE
  5
3
330
0
100
AcDbSymbolTable
 70
     1
  0
STYLE
  5
11
330
3
100
AcDbSymbolTableRecord
100
AcDbTextStyleTableRecord
  2
Standard
 70
     0
 40
0.0
 41
1.0
 50
0.0
 71
     0
 42
0.2
  3
txt
  4

  0
ENDTAB
  0
TABLE
  2
VIEW
  5
6
330
0
100
AcDbSymbolTable
 70
     0
  0
ENDTAB
  0
TABLE
  2
UCS
  5
7
330
0
100
AcDbSymbolTable
 70
     0
  0
ENDTAB
  0
TABLE
  2
APPID
  5
9
330
0
100
AcDbSymbolTable
 70
     1
  0
APPID
  5
12
330
9
100
AcDbSymbolTableRecord
100
AcDbRegAppTableRecord
  2
ACAD
 70
     0
  0
ENDTAB
  0
TABLE
  2
DIMSTYLE
  5
A
330
0
100
AcDbSymbolTable
 70
     1
100
AcDbDimStyleTable
  0
DIMSTYLE
105
27
330
A
100
AcDbSymbolTableRecord
100
AcDbDimStyleTableRecord
  2
Standard
 70
     0
178
     0
340
11
  0
ENDTAB
  0
TABLE
  2
BLOCK_RECORD
  5
1
330
0
100
AcDbSymbolTable
 70
     4
  0
BLOCK_RECORD
  5
1F
330
1
100
AcDbSymbolTableRecord
100
AcDbBlockTableRecord
  2
*Model_Space
340
22
 70
     0
280
     1
281
     0
  0
BLOCK_RECORD
  5
1B
330
1
100
AcDbSymbolTableRecord
100
AcDbBlockTableRecord
  2
*Paper_Space
340
1E
 70
     0
280
     1
281
     0
  0
BLOCK_RECORD
  5
23
330
1
100
AcDbSymbolTableRecord
100
AcDbBlockTableRecord
  2
*Paper_Space0
340
26
 70
     0
280
     1
281
     0
  0
BLOCK_RECORD
  5
51
330
1
100
AcDbSymbolTableRecord
100
AcDbBlockTableRecord
  2
block 2
340
0
102
{BLKREFS
331
52
102
}
 70
     0
280
     1
281
     0
  0
BLOCK_RECORD
  5
59
330
1
100
AcDbSymbolTableRecord
100
AcDbBlockTableRecord
  2
block 3
340
0
102
{BLKREFS
331
5A
102
}
 70
     0
280
     1
281
     0
  0
BLOCK_RECORD
  5
6D
330
1
100
AcDbSymbolTableRecord
100
AcDbBlockTableRecord
  2
block 4
340
0
102
{BLKREFS
331
6E
102
}
 70
     0
280
     1
281
     0
  0
ENDTAB
  0
ENDSEC
  0
SECTION
  2
BLOCKS
  0
BLOCK
  5
20
330
1F
100
AcDbEntity
  8
0
100
AcDbBlockBegin
  2
*Model_Space
 70
     0
 10
0.0
 20
0.0
 30
0.0
  3
*Model_Space
  1

  0
ENDBLK
  5
21
330
1F
100
AcDbEntity
  8
0
100
AcDbBlockEnd
  0
BLOCK
  5
1C
330
1B
100
AcDbEntity
 67
     1
  8
0
100
AcDbBlockBegin
  2
*Paper_Space
 70
     0
 10
0.0
 20
0.0
 30
0.0
  3
*Paper_Space
  1

  0
ENDBLK
  5
1D
330
1B
100
AcDbEntity
 67
     1
  8
0
100
AcDbBlockEnd
  0
BLOCK
  5
24
330
23
100
AcDbEntity
  8
0
100
AcDbBlockBegin
  2
*Paper_Space0
 70
     0
 10
0.0
 20
0.0
 30
0.0
  3
*Paper_Space0
  1

  0
ENDBLK
  5
25
330
23
100
AcDbEntity
  8
0
100
AcDbBlockEnd
  0
BLOCK
  5
53
330
51
100
AcDbEntity
  8
0
100
AcDbBlockBegin
  2
block 2
 70
     0
 10
0.0
 20
0.0
 30
0.0
  3
block 2
  1

  0
SPLINE
  5
55
330
51
100
AcDbEntity
  8
_U+30EC_U+30A4_U+30E4_U+30FC 1
370
     0
100
AcDbSpline
210
0.0
220
0.0
230
1.0
 70
    11
 71
     3
 72
    44
 73
    40
 74
     0
 42
0.0000000001
 43
0.0000000001
 12
1.0
 22
0.0
 32
0.0
 13
1.0
 23
0.0
 33
0.0
 40
0.0
 40
0.0
 40
0.0
 40
0.0
 40
1.0
 40
1.0
 40
1.0
 40
2.0
 40
2.0
 40
2.0
 40
3.0
 40
3.0
 40
3.0
 40
4.0
 40
4.0
 40
4.0
 40
5.0
 40
5.0
 40
5.0
 40
6.0
 40
6.0
 40
6.0
 40
7.0
 40
7.0
 40
7.0
 40
8.0
 40
8.0
 40
8.0
 40
9.0
 40
9.0
 40
9.0
 40
10.0
 40
10.0
 40
10.0
 40
11.0
 40
11.0
 40
11.0
 40
12.0
 40
12.0
 40
12.0
 40
13.0
 40
13.0
 40
13.0
 40
13.0
 10
71.56186792915815
 20
-138.6871418924115
 30
0.0
 10
71.72068683102816
 20
-138.8780001822944
 30
0.0
 10
71.79475638396103
 20
-138.9596489452948
 30
0.0
 10
71.93841686569596
 20
-139.0020236197634
 30
0.0
 10
71.93841686569596
 20
-139.0020236197634
 30
0.0
 10
71.93841686569596
 20
-138.320583732781
 30
0.0
 10
71.93841686569596
 20
-138.320583732781
 30
0.0
 10
71.93841686569596
 20
-138.320583732781
 30
0.0
 10
72.14374455661685
 20
-138.320583732781
 30
0.0
 10
72.14374455661685
 20
-138.320583732781
 30
0.0
 10
72.14374455661685
 20
-138.320583732781
 30
0.0
 10
72.14374455661685
 20
-139.2204426735282
 30
0.0
 10
72.14374455661685
 20
-139.2204426735282
 30
0.0
 10
71.78614364524792
 20
-139.1928819096462
 30
0.0
 10
71.70793997773274
 20
-139.1356933245911
 30
0.0
 10
71.4095947087101
 20
-138.7987629861337
 30
0.0
 10
71.21081269921119
 20
-138.5744872700439
 30
0.0
 10
71.14294431815176
 20
-138.5169541754402
 30
0.0
 10
71.0054850082903
 20
-138.5169541754402
 30
0.0
 10
70.8869737235977
 20
-138.5169541754402
 30
0.0
 10
70.7560600951582
 20
-138.5799994228203
 30
0.0
 10
70.7560600951582
 20
-138.7522541970828
 30
0.0
 10
70.7560600951582
 20
-138.9799750086578
 30
0.0
 10
70.98653698312143
 20
-138.9875542187253
 30
0.0
 10
71.10298121052287
 20
-138.9909993142106
 30
0.0
 10
71.10298121052287
 20
-138.9909993142106
 30
0.0
 10
71.10298121052287
 20
-139.1873697568698
 30
0.0
 10
71.10298121052287
 20
-139.1873697568698
 30
0.0
 10
70.97585718711716
 20
-139.1797905468023
 30
0.0
 10
70.86389158384652
 20
-139.1708332985406
 30
0.0
 10
70.74538029915394
 20
-139.1005533506415
 30
0.0
 10
70.58466659476703
 20
-139.0040906770545
 30
0.0
 10
70.55073240423732
 20
-138.8411376606022
 30
0.0
 10
70.55073240423732
 20
-138.7395073437874
 30
0.0
 10
70.55073240423732
 20
-138.4966281120772
 30
0.0
 10
70.73470050314967
 20
-138.3150715800046
 30
0.0
 10
71.00755206558145
 20
-138.3150715800046
 30
0.0
 10
71.23630640580204
 20
-138.3150715800046
 30
0.0
 10
71.33552515577723
 20
-138.417046406368
 30
0.0
 10
71.56186792915815
 20
-138.6871418924115
 30
0.0
  0
HATCH
  5
56
330
51
100
AcDbEntity
  8
_U+30EC_U+30A4_U+30E4_U+30FC 1
 62
   179
420
  2234388
100
AcDbHatch
 10
0.0
 20
0.0
 30
0.0
210
0.0
220
0.0
230
1.0
  2
SOLID
 70
     1
 71
     0
 91
        1
 92
        1
 93
        1
 72
     4
 94
        3
 73
     0
 74
     1
 95
       44
 96
       40
 40
0.0
 40
0.0
 40
0.0
 40
0.0
 40
1.0
 40
1.0
 40
1.0
 40
2.0
 40
2.0
 40
2.0
 40
3.0
 40
3.0
 40
3.0
 40
4.0
 40
4.0
 40
4.0
 40
5.0
 40
5.0
 40
5.0
 40
6.0
 40
6.0
 40
6.0
 40
7.0
 40
7.0
 40
7.0
 40
8.0
 40
8.0
 40
8.0
 40
9.0
 40
9.0
 40
9.0
 40
10.0
 40
10.0
 40
10.0
 40
11.0
 40
11.0
 40
11.0
 40
12.0
 40
12.0
 40
12.0
 40
13.0
 40
13.0
 40
13.0
 40
13.0
 10
71.56186792915815
 20
-138.6871418924115
 10
71.72068683102816
 20
-138.8780001822944
 10
71.79475638396103
 20
-138.9596489452948
 10
71.93841686569596
 20
-139.0020236197634
 10
71.93841686569596
 20
-139.0020236197634
 10
71.93841686569596
 20
-138.320583732781
 10
71.93841686569596
 20
-138.320583732781
 10
71.93841686569596
 20
-138.320583732781
 10
72.14374455661685
 20
-138.320583732781
 10
72.14374455661685
 20
-138.320583732781
 10
72.14374455661685
 20
-138.320583732781
 10
72.14374455661685
 20
-139.2204426735282
 10
72.14374455661685
 20
-139.2204426735282
 10
71.78614364524792
 20
-139.1928819096462
 10
71.70793997773274
 20
-139.1356933245911
 10
71.4095947087101
 20
-138.7987629861337
 10
71.21081269921119
 20
-138.5744872700439
 10
71.14294431815176
 20
-138.5169541754402
 10
71.0054850082903
 20
-138.5169541754402
 10
70.8869737235977
 20
-138.5169541754402
 10
70.7560600951582
 20
-138.5799994228203
 10
70.7560600951582
 20
-138.7522541970828
 10
70.7560600951582
 20
-138.9799750086578
 10
70.98653698312143
 20
-138.9875542187253
 10
71.10298121052287
 20
-138.9909993142106
 10
71.10298121052287
 20
-138.9909993142106
 10
71.10298121052287
 20
-139.1873697568698
 10
71.10298121052287
 20
-139.1873697568698
 10
70.97585718711716
 20
-139.1797905468023
 10
70.86389158384652
 20
-139.1708332985406
 10
70.74538029915394
 20
-139.1005533506415
 10
70.58466659476703
 20
-139.0040906770545
 10
70.55073240423732
 20
-138.8411376606022
 10
70.55073240423732
 20
-138.7395073437874
 10
70.55073240423732
 20
-138.4966281120772
 10
70.73470050314967
 20
-138.3150715800046
 10
71.00755206558145
 20
-138.3150715800046
 10
71.23630640580204
 20
-138.3150715800046
 10
71.33552515577723
 20
-138.417046406368
 10
71.56186792915815
 20
-138.6871418924115
 97
        0
 97
        0
 75
     2
 76
     1
 98
        0
  0
SPLINE
  5
57
330
51
100
AcDbEntity
  8
_U+30EC_U+30A4_U+30E4_U+30FC 1
370
     0
100
AcDbSpline
210
0.0
220
0.0
230
1.0
 70
    11
 71
     3
 72
    53
 73
    49
 74
     0
 42
0.0000000001
 43
0.0000000001
 12
1.0
 22
0.0
 32
0.0
 13
1.0
 23
0.0
 33
0.0
 40
0.0
 40
0.0
 40
0.0
 40
0.0
 40
1.0
 40
1.0
 40
1.0
 40
2.0
 40
2.0
 40
2.0
 40
3.0
 40
3.0
 40
3.0
 40
4.0
 40
4.0
 40
4.0
 40
5.0
 40
5.0
 40
5.0
 40
6.0
 40
6.0
 40
6.0
 40
7.0
 40
7.0
 40
7.0
 40
8.0
 40
8.0
 40
8.0
 40
9.0
 40
9.0
 40
9.0
 40
10.0
 40
10.0
 40
10.0
 40
11.0
 40
11.0
 40
11.0
 40
12.0
 40
12.0
 40
12.0
 40
13.0
 40
13.0
 40
13.0
 40
14.0
 40
14.0
 40
14.0
 40
15.0
 40
15.0
 40
15.0
 40
16.0
 40
16.0
 40
16.0
 40
16.0
 10
72.19438746025001
 20
-137.7548990541029
 30
0.0
 10
72.19438746025001
 20
-137.8231119447109
 30
0.0
 10
72.17750649237229
 20
-137.9119954082304
 30
0.0
 10
72.1141167354437
 20
-138.0008788717498
 30
0.0
 10
72.00421818946423
 20
-138.1531520921978
 30
0.0
 10
71.87296005147621
 20
-138.1714110982697
 30
0.0
 10
71.7651285627879
 20
-138.1882920661474
 30
0.0
 10
71.7651285627879
 20
-138.1882920661474
 30
0.0
 10
71.7651285627879
 20
-137.9936441712308
 30
0.0
 10
71.7651285627879
 20
-137.9936441712308
 30
0.0
 10
71.9639105722868
 20
-137.9457573439858
 30
0.0
 10
71.99353839345996
 20
-137.8341362502637
 30
0.0
 10
71.99353839345996
 20
-137.7528319968118
 30
0.0
 10
71.99353839345996
 20
-137.6308756166339
 30
0.0
 10
71.89397513393624
 20
-137.4972059118062
 30
0.0
 10
71.66143118868187
 20
-137.4972059118062
 30
0.0
 10
71.4054605941278
 20
-137.4972059118062
 30
0.0
 10
71.33552515577723
 20
-137.6549912850307
 30
0.0
 10
71.33552515577723
 20
-137.7604112068794
 30
0.0
 10
71.33552515577723
 20
-137.7879719707613
 30
0.0
 10
71.33552515577723
 20
-137.9119954082304
 30
0.0
 10
71.4647162364741
 20
-137.989854566197
 30
0.0
 10
71.4647162364741
 20
-137.989854566197
 30
0.0
 10
71.44576821130522
 20
-138.1435058248391
 30
0.0
 10
71.44576821130522
 20
-138.1435058248391
 30
0.0
 10
71.44576821130522
 20
-138.1435058248391
 30
0.0
 10
70.59930825057934
 20
-138.0380859029905
 30
0.0
 10
70.59930825057934
 20
-138.0380859029905
 30
0.0
 10
70.59930825057934
 20
-138.0380859029905
 30
0.0
 10
70.59930825057934
 20
-137.3566460160081
 30
0.0
 10
70.59930825057934
 20
-137.3566460160081
 30
0.0
 10
70.59930825057934
 20
-137.3566460160081
 30
0.0
 10
70.79395614549595
 20
-137.3566460160081
 30
0.0
 10
70.79395614549595
 20
-137.3566460160081
 30
0.0
 10
70.79395614549595
 20
-137.3566460160081
 30
0.0
 10
70.79395614549595
 20
-137.8954589499012
 30
0.0
 10
70.79395614549595
 20
-137.8954589499012
 30
0.0
 10
70.79395614549595
 20
-137.8954589499012
 30
0.0
 10
71.21701387108463
 20
-137.9526475349563
 30
0.0
 10
71.21701387108463
 20
-137.9526475349563
 30
0.0
 10
71.1832519353292
 20
-137.8992485549349
 30
0.0
 10
71.14294431815176
 20
-137.8272460592932
 30
0.0
 10
71.14294431815176
 20
-137.7232041756386
 30
0.0
 10
71.14294431815176
 20
-137.5013400263886
 30
0.0
 10
71.32932398390378
 20
-137.2939452781765
 30
0.0
 10
71.64248316351299
 20
-137.2939452781765
 30
0.0
 10
71.9597764577045
 20
-137.2939452781765
 30
0.0
 10
72.19438746025001
 20
-137.4899712112872
 30
0.0
 10
72.19438746025001
 20
-137.7548990541029
 30
0.0
  0
HATCH
  5
58
330
51
100
AcDbEntity
  8
_U+30EC_U+30A4_U+30E4_U+30FC 1
 62
   179
420
  2234388
100
AcDbHatch
 10
0.0
 20
0.0
 30
0.0
210
0.0
220
0.0
230
1.0
  2
SOLID
 70
     1
 71
     0
 91
        1
 92
        1
 93
        1
 72
     4
 94
        3
 73
     0
 74
     1
 95
       53
 96
       49
 40
0.0
 40
0.0
 40
0.0
 40
0.0
 40
1.0
 40
1.0
 40
1.0
 40
2.0
 40
2.0
 40
2.0
 40
3.0
 40
3.0
 40
3.0
 40
4.0
 40
4.0
 40
4.0
 40
5.0
 40
5.0
 40
5.0
 40
6.0
 40
6.0
 40
6.0
 40
7.0
 40
7.0
 40
7.0
 40
8.0
 40
8.0
 40
8.0
 40
9.0
 40
9.0
 40
9.0
 40
10.0
 40
10.0
 40
10.0
 40
11.0
 40
11.0
 40
11.0
 40
12.0
 40
12.0
 40
12.0
 40
13.0
 40
13.0
 40
13.0
 40
14.0
 40
14.0
 40
14.0
 40
15.0
 40
15.0
 40
15.0
 40
16.0
 40
16.0
 40
16.0
 40
16.0
 10
72.19438746025001
 20
-137.7548990541029
 10
72.19438746025001
 20
-137.8231119447109
 10
72.17750649237229
 20
-137.9119954082304
 10
72.1141167354437
 20
-138.0008788717498
 10
72.00421818946423
 20
-138.1531520921978
 10
71.87296005147621
 20
-138.1714110982697
 10
71.7651285627879
 20
-138.1882920661474
 10
71.7651285627879
 20
-138.1882920661474
 10
71.7651285627879
 20
-137.9936441712308
 10
71.7651285627879
 20
-137.9936441712308
 10
71.9639105722868
 20
-137.9457573439858
 10
71.99353839345996
 20
-137.8341362502637
 10
71.99353839345996
 20
-137.7528319968118
 10
71.99353839345996
 20
-137.6308756166339
 10
71.89397513393624
 20
-137.4972059118062
 10
71.66143118868187
 20
-137.4972059118062
 10
71.4054605941278
 20
-137.4972059118062
 10
71.33552515577723
 20
-137.6549912850307
 10
71.33552515577723
 20
-137.7604112068794
 10
71.33552515577723
 20
-137.7879719707613
 10
71.33552515577723
 20
-137.9119954082304
 10
71.4647162364741
 20
-137.989854566197
 10
71.4647162364741
 20
-137.989854566197
 10
71.44576821130522
 20
-138.1435058248391
 10
71.44576821130522
 20
-138.1435058248391
 10
71.44576821130522
 20
-138.1435058248391
 10
70.59930825057934
 20
-138.0380859029905
 10
70.59930825057934
 20
-138.0380859029905
 10
70.59930825057934
 20
-138.0380859029905
 10
70.59930825057934
 20
-137.3566460160081
 10
70.59930825057934
 20
-137.3566460160081
 10
70.59930825057934
 20
-137.3566460160081
 10
70.79395614549595
 20
-137.3566460160081
 10
70.79395614549595
 20
-137.3566460160081
 10
70.79395614549595
 20
-137.3566460160081
 10
70.79395614549595
 20
-137.8954589499012
 10
70.79395614549595
 20
-137.8954589499012
 10
70.79395614549595
 20
-137.8954589499012
 10
71.21701387108463
 20
-137.9526475349563
 10
71.21701387108463
 20
-137.9526475349563
 10
71.1832519353292
 20
-137.8992485549349
 10
71.14294431815176
 20
-137.8272460592932
 10
71.14294431815176
 20
-137.7232041756386
 10
71.14294431815176
 20
-137.5013400263886
 10
71.32932398390378
 20
-137.2939452781765
 10
71.64248316351299
 20
-137.2939452781765
 10
71.9597764577045
 20
-137.2939452781765
 10
72.19438746025001
 20
-137.4899712112872
 10
72.19438746025001
 20
-137.7548990541029
 97
        0
 97
        0
 75
     2
 76
     1
 98
        0
  0
ENDBLK
  5
54
330
51
100
AcDbEntity
  8
0
100
AcDbBlockEnd
  0
BLOCK
  5
5B
330
59
100
AcDbEntity
  8
0
100
AcDbBlockBegin
  2
block 3
 70
     0
 10
0.0
 20
0.0
 30
0.0
  3
block 3
  1

  0
SPLINE
  5
5D
330
59
100
AcDbEntity
  8
_U+30EC_U+30A4_U+30E4_U+30FC 1
370
     0
100
AcDbSpline
210
0.0
220
0.0
230
1.0
 70
    11
 71
     3
 72
    26
 73
    22
 74
     0
 42
0.0000000001
 43
0.0000000001
 12
1.0
 22
0.0
 32
0.0
 13
1.0
 23
0.0
 33
0.0
 40
0.0
 40
0.0
 40
0.0
 40
0.0
 40
1.0
 40
1.0
 40
1.0
 40
2.0
 40
2.0
 40
2.0
 40
3.0
 40
3.0
 40
3.0
 40
4.0
 40
4.0
 40
4.0
 40
5.0
 40
5.0
 40
5.0
 40
6.0
 40
6.0
 40
6.0
 40
7.0
 40
7.0
 40
7.0
 40
7.0
 10
72.14374455661685
 20
-121.2959553733218
 30
0.0
 10
72.14374455661685
 20
-121.2959553733218
 30
0.0
 10
71.03959145359427
 20
-121.2959553733218
 30
0.0
 10
71.03959145359427
 20
-121.2959553733218
 30
0.0
 10
71.03959145359427
 20
-121.2959553733218
 30
0.0
 10
71.03959145359427
 20
-121.58482662976
 30
0.0
 10
71.03959145359427
 20
-121.58482662976
 30
0.0
 10
71.03959145359427
 20
-121.58482662976
 30
0.0
 10
70.89145234772853
 20
-121.58482662976
 30
0.0
 10
70.89145234772853
 20
-121.58482662976
 30
0.0
 10
70.87663843714195
 20
-121.294060570805
 30
0.0
 10
70.71368542068964
 20
-121.253408444079
 30
0.0
 10
70.59930825057934
 20
-121.2273979731654
 30
0.0
 10
70.59930825057934
 20
-121.2273979731654
 30
0.0
 10
70.59930825057934
 20
-121.0995849306626
 30
0.0
 10
70.59930825057934
 20
-121.0995849306626
 30
0.0
 10
70.59930825057934
 20
-121.0995849306626
 30
0.0
 10
72.14374455661685
 20
-121.0995849306626
 30
0.0
 10
72.14374455661685
 20
-121.0995849306626
 30
0.0
 10
72.14374455661685
 20
-121.0995849306626
 30
0.0
 10
72.14374455661685
 20
-121.2959553733218
 30
0.0
 10
72.14374455661685
 20
-121.2959553733218
 30
0.0
  0
HATCH
  5
5E
330
59
100
AcDbEntity
  8
_U+30EC_U+30A4_U+30E4_U+30FC 1
 62
   179
420
  2234388
100
AcDbHatch
 10
0.0
 20
0.0
 30
0.0
210
0.0
220
0.0
230
1.0
  2
SOLID
 70
     1
 71
     0
 91
        1
 92
        1
 93
        1
 72
     4
 94
        3
 73
     0
 74
     1
 95
       26
 96
       22
 40
0.0
 40
0.0
 40
0.0
 40
0.0
 40
1.0
 40
1.0
 40
1.0
 40
2.0
 40
2.0
 40
2.0
 40
3.0
 40
3.0
 40
3.0
 40
4.0
 40
4.0
 40
4.0
 40
5.0
 40
5.0
 40
5.0
 40
6.0
 40
6.0
 40
6.0
 40
7.0
 40
7.0
 40
7.0
 40
7.0
 10
72.14374455661685
 20
-121.2959553733218
 10
72.14374455661685
 20
-121.2959553733218
 10
71.03959145359427
 20
-121.2959553733218
 10
71.03959145359427
 20
-121.2959553733218
 10
71.03959145359427
 20
-121.2959553733218
 10
71.03959145359427
 20
-121.58482662976
 10
71.03959145359427
 20
-121.58482662976
 10
71.03959145359427
 20
-121.58482662976
 10
70.89145234772853
 20
-121.58482662976
 10
70.89145234772853
 20
-121.58482662976
 10
70.87663843714195
 20
-121.294060570805
 10
70.71368542068964
 20
-121.253408444079
 10
70.59930825057934
 20
-121.2273979731654
 10
70.59930825057934
 20
-121.2273979731654
 10
70.59930825057934
 20
-121.0995849306626
 10
70.59930825057934
 20
-121.0995849306626
 10
70.59930825057934
 20
-121.0995849306626
 10
72.14374455661685
 20
-121.0995849306626
 10
72.14374455661685
 20
-121.0995849306626
 10
72.14374455661685
 20
-121.0995849306626
 10
72.14374455661685
 20
-121.2959553733218
 10
72.14374455661685
 20
-121.2959553733218
 97
        0
 97
        0
 75
     2
 76
     1
 98
        0
  0
SPLINE
  5
5F
330
59
100
AcDbEntity
  8
_U+30EC_U+30A4_U+30E4_U+30FC 1
370
     0
100
AcDbSpline
210
0.0
220
0.0
230
1.0
 70
    11
 71
     3
 72
    53
 73
    49
 74
     0
 42
0.0000000001
 43
0.0000000001
 12
1.0
 22
0.0
 32
0.0
 13
1.0
 23
0.0
 33
0.0
 40
0.0
 40
0.0
 40
0.0
 40
0.0
 40
1.0
 40
1.0
 40
1.0
 40
2.0
 40
2.0
 40
2.0
 40
3.0
 40
3.0
 40
3.0
 40
4.0
 40
4.0
 40
4.0
 40
5.0
 40
5.0
 40
5.0
 40
6.0
 40
6.0
 40
6.0
 40
7.0
 40
7.0
 40
7.0
 40
8.0
 40
8.0
 40
8.0
 40
9.0
 40
9.0
 40
9.0
 40
10.0
 40
10.0
 40
10.0
 40
11.0
 40
11.0
 40
11.0
 40
12.0
 40
12.0
 40
12.0
 40
13.0
 40
13.0
 40
13.0
 40
14.0
 40
14.0
 40
14.0
 40
15.0
 40
15.0
 40
15.0
 40
16.0
 40
16.0
 40
16.0
 40
16.0
 10
72.19438746025001
 20
-120.2391723332215
 30
0.0
 10
72.19438746025001
 20
-120.3077297333779
 30
0.0
 10
72.17750649237229
 20
-120.3966131968974
 30
0.0
 10
72.1141167354437
 20
-120.4854966604168
 30
0.0
 10
72.00421818946423
 20
-120.6374253713163
 30
0.0
 10
71.87296005147621
 20
-120.6558566321624
 30
0.0
 10
71.7651285627879
 20
-120.6725653452659
 30
0.0
 10
71.7651285627879
 20
-120.6725653452659
 30
0.0
 10
71.7651285627879
 20
-120.4780897051235
 30
0.0
 10
71.7651285627879
 20
-120.4780897051235
 30
0.0
 10
71.9639105722868
 20
-120.4300306231043
 30
0.0
 10
71.99353839345996
 20
-120.3187540389307
 30
0.0
 10
71.99353839345996
 20
-120.2374497854788
 30
0.0
 10
71.99353839345996
 20
-120.1151488957525
 30
0.0
 10
71.89397513393624
 20
-119.9818237004733
 30
0.0
 10
71.66143118868187
 20
-119.9818237004733
 30
0.0
 10
71.4054605941278
 20
-119.9818237004733
 30
0.0
 10
71.33552515577723
 20
-120.1392645641492
 30
0.0
 10
71.33552515577723
 20
-120.2446844859979
 30
0.0
 10
71.33552515577723
 20
-120.2725897594284
 30
0.0
 10
71.33552515577723
 20
-120.3966131968974
 30
0.0
 10
71.4647162364741
 20
-120.474472354864
 30
0.0
 10
71.4647162364741
 20
-120.474472354864
 30
0.0
 10
71.44576821130522
 20
-120.6281236135062
 30
0.0
 10
71.44576821130522
 20
-120.6281236135062
 30
0.0
 10
71.44576821130522
 20
-120.6281236135062
 30
0.0
 10
70.59930825057934
 20
-120.5225314368833
 30
0.0
 10
70.59930825057934
 20
-120.5225314368833
 30
0.0
 10
70.59930825057934
 20
-120.5225314368833
 30
0.0
 10
70.59930825057934
 20
-119.8410915499008
 30
0.0
 10
70.59930825057934
 20
-119.8410915499008
 30
0.0
 10
70.59930825057934
 20
-119.8410915499008
 30
0.0
 10
70.79395614549595
 20
-119.8410915499008
 30
0.0
 10
70.79395614549595
 20
-119.8410915499008
 30
0.0
 10
70.79395614549595
 20
-119.8410915499008
 30
0.0
 10
70.79395614549595
 20
-120.3799044837939
 30
0.0
 10
70.79395614549595
 20
-120.3799044837939
 30
0.0
 10
70.79395614549595
 20
-120.3799044837939
 30
0.0
 10
71.21701387108463
 20
-120.4372653236233
 30
0.0
 10
71.21701387108463
 20
-120.4372653236233
 30
0.0
 10
71.1832519353292
 20
-120.3836940888277
 30
0.0
 10
71.14294431815176
 20
-120.3115193384117
 30
0.0
 10
71.14294431815176
 20
-120.2078219643057
 30
0.0
 10
71.14294431815176
 20
-119.9856133055071
 30
0.0
 10
71.32932398390378
 20
-119.778218557295
 30
0.0
 10
71.64248316351299
 20
-119.778218557295
 30
0.0
 10
71.9597764577045
 20
-119.778218557295
 30
0.0
 10
72.19438746025001
 20
-119.97441674518
 30
0.0
 10
72.19438746025001
 20
-120.2391723332215
 30
0.0
  0
HATCH
  5
60
330
59
100
AcDbEntity
  8
_U+30EC_U+30A4_U+30E4_U+30FC 1
 62
   179
420
  2234388
100
AcDbHatch
 10
0.0
 20
0.0
 30
0.0
210
0.0
220
0.0
230
1.0
  2
SOLID
 70
     1
 71
     0
 91
        1
 92
        1
 93
        1
 72
     4
 94
        3
 73
     0
 74
     1
 95
       53
 96
       49
 40
0.0
 40
0.0
 40
0.0
 40
0.0
 40
1.0
 40
1.0
 40
1.0
 40
2.0
 40
2.0
 40
2.0
 40
3.0
 40
3.0
 40
3.0
 40
4.0
 40
4.0
 40
4.0
 40
5.0
 40
5.0
 40
5.0
 40
6.0
 40
6.0
 40
6.0
 40
7.0
 40
7.0
 40
7.0
 40
8.0
 40
8.0
 40
8.0
 40
9.0
 40
9.0
 40
9.0
 40
10.0
 40
10.0
 40
10.0
 40
11.0
 40
11.0
 40
11.0
 40
12.0
 40
12.0
 40
12.0
 40
13.0
 40
13.0
 40
13.0
 40
14.0
 40
14.0
 40
14.0
 40
15.0
 40
15.0
 40
15.0
 40
16.0
 40
16.0
 40
16.0
 40
16.0
 10
72.19438746025001
 20
-120.2391723332215
 10
72.19438746025001
 20
-120.3077297333779
 10
72.17750649237229
 20
-120.3966131968974
 10
72.1141167354437
 20
-120.4854966604168
 10
72.00421818946423
 20
-120.6374253713163
 10
71.87296005147621
 20
-120.6558566321624
 10
71.7651285627879
 20
-120.6725653452659
 10
71.7651285627879
 20
-120.6725653452659
 10
71.7651285627879
 20
-120.4780897051235
 10
71.7651285627879
 20
-120.4780897051235
 10
71.9639105722868
 20
-120.4300306231043
 10
71.99353839345996
 20
-120.3187540389307
 10
71.99353839345996
 20
-120.2374497854788
 10
71.99353839345996
 20
-120.1151488957525
 10
71.89397513393624
 20
-119.9818237004733
 10
71.66143118868187
 20
-119.9818237004733
 10
71.4054605941278
 20
-119.9818237004733
 10
71.33552515577723
 20
-120.1392645641492
 10
71.33552515577723
 20
-120.2446844859979
 10
71.33552515577723
 20
-120.2725897594284
 10
71.33552515577723
 20
-120.3966131968974
 10
71.4647162364741
 20
-120.474472354864
 10
71.4647162364741
 20
-120.474472354864
 10
71.44576821130522
 20
-120.6281236135062
 10
71.44576821130522
 20
-120.6281236135062
 10
71.44576821130522
 20
-120.6281236135062
 10
70.59930825057934
 20
-120.5225314368833
 10
70.59930825057934
 20
-120.5225314368833
 10
70.59930825057934
 20
-120.5225314368833
 10
70.59930825057934
 20
-119.8410915499008
 10
70.59930825057934
 20
-119.8410915499008
 10
70.59930825057934
 20
-119.8410915499008
 10
70.79395614549595
 20
-119.8410915499008
 10
70.79395614549595
 20
-119.8410915499008
 10
70.79395614549595
 20
-119.8410915499008
 10
70.79395614549595
 20
-120.3799044837939
 10
70.79395614549595
 20
-120.3799044837939
 10
70.79395614549595
 20
-120.3799044837939
 10
71.21701387108463
 20
-120.4372653236233
 10
71.21701387108463
 20
-120.4372653236233
 10
71.1832519353292
 20
-120.3836940888277
 10
71.14294431815176
 20
-120.3115193384117
 10
71.14294431815176
 20
-120.2078219643057
 10
71.14294431815176
 20
-119.9856133055071
 10
71.32932398390378
 20
-119.778218557295
 10
71.64248316351299
 20
-119.778218557295
 10
71.9597764577045
 20
-119.778218557295
 10
72.19438746025001
 20
-119.97441674518
 10
72.19438746025001
 20
-120.2391723332215
 97
        0
 97
        0
 75
     2
 76
     1
 98
        0
  0
ENDBLK
  5
5C
330
59
100
AcDbEntity
  8
0
100
AcDbBlockEnd
  0
BLOCK
  5
6F
330
6D
100
AcDbEntity
  8
0
100
AcDbBlockBegin
  2
block 4
 70
     0
 10
0.0
 20
0.0
 30
0.0
  3
block 4
  1

  0
SPLINE
  5
71
330
6D
100
AcDbEntity
  8
_U+30EC_U+30A4_U+30E4_U+30FC 1
370
     0
100
AcDbSpline
210
0.0
220
0.0
230
1.0
 70
    11
 71
     3
 72
    26
 73
    22
 74
     0
 42
0.0000000001
 43
0.0000000001
 12
1.0
 22
0.0
 32
0.0
 13
1.0
 23
0.0
 33
0.0
 40
0.0
 40
0.0
 40
0.0
 40
0.0
 40
1.0
 40
1.0
 40
1.0
 40
2.0
 40
2.0
 40
2.0
 40
3.0
 40
3.0
 40
3.0
 40
4.0
 40
4.0
 40
4.0
 40
5.0
 40
5.0
 40
5.0
 40
6.0
 40
6.0
 40
6.0
 40
7.0
 40
7.0
 40
7.0
 40
7.0
 10
81.35282929823819
 20
-109.1580227049154
 30
0.0
 10
81.35282929823819
 20
-109.1580227049154
 30
0.0
 10
81.35282929823819
 20
-108.0536973471185
 30
0.0
 10
81.35282929823819
 20
-108.0536973471185
 30
0.0
 10
81.35282929823819
 20
-108.0536973471185
 30
0.0
 10
81.06378578702572
 20
-108.0536973471185
 30
0.0
 10
81.06378578702572
 20
-108.0536973471185
 30
0.0
 10
81.06378578702572
 20
-108.0536973471185
 30
0.0
 10
81.06378578702572
 20
-107.905730496027
 30
0.0
 10
81.06378578702572
 20
-107.905730496027
 30
0.0
 10
81.35455184598081
 20
-107.8909165854405
 30
0.0
 10
81.39520397270675
 20
-107.7279635689882
 30
0.0
 10
81.42138669839466
 20
-107.6137586536521
 30
0.0
 10
81.42138669839466
 20
-107.6137586536521
 30
0.0
 10
81.5488552313489
 20
-107.6137586536521
 30
0.0
 10
81.5488552313489
 20
-107.6137586536521
 30
0.0
 10
81.5488552313489
 20
-107.6137586536521
 30
0.0
 10
81.5488552313489
 20
-109.1580227049154
 30
0.0
 10
81.5488552313489
 20
-109.1580227049154
 30
0.0
 10
81.5488552313489
 20
-109.1580227049154
 30
0.0
 10
81.35282929823819
 20
-109.1580227049154
 30
0.0
 10
81.35282929823819
 20
-109.1580227049154
 30
0.0
  0
HATCH
  5
72
330
6D
100
AcDbEntity
  8
_U+30EC_U+30A4_U+30E4_U+30FC 1
 62
   179
420
  2234388
100
AcDbHatch
 10
0.0
 20
0.0
 30
0.0
210
0.0
220
0.0
230
1.0
  2
SOLID
 70
     1
 71
     0
 91
        1
 92
        1
 93
        1
 72
     4
 94
        3
 73
     0
 74
     1
 95
       26
 96
       22
 40
0.0
 40
0.0
 40
0.0
 40
0.0
 40
1.0
 40
1.0
 40
1.0
 40
2.0
 40
2.0
 40
2.0
 40
3.0
 40
3.0
 40
3.0
 40
4.0
 40
4.0
 40
4.0
 40
5.0
 40
5.0
 40
5.0
 40
6.0
 40
6.0
 40
6.0
 40
7.0
 40
7.0
 40
7.0
 40
7.0
 10
81.35282929823819
 20
-109.1580227049154
 10
81.35282929823819
 20
-109.1580227049154
 10
81.35282929823819
 20
-108.0536973471185
 10
81.35282929823819
 20
-108.0536973471185
 10
81.35282929823819
 20
-108.0536973471185
 10
81.06378578702572
 20
-108.0536973471185
 10
81.06378578702572
 20
-108.0536973471185
 10
81.06378578702572
 20
-108.0536973471185
 10
81.06378578702572
 20
-107.905730496027
 10
81.06378578702572
 20
-107.905730496027
 10
81.35455184598081
 20
-107.8909165854405
 10
81.39520397270675
 20
-107.7279635689882
 10
81.42138669839466
 20
-107.6137586536521
 10
81.42138669839466
 20
-107.6137586536521
 10
81.5488552313489
 20
-107.6137586536521
 10
81.5488552313489
 20
-107.6137586536521
 10
81.5488552313489
 20
-107.6137586536521
 10
81.5488552313489
 20
-109.1580227049154
 10
81.5488552313489
 20
-109.1580227049154
 10
81.5488552313489
 20
-109.1580227049154
 10
81.35282929823819
 20
-109.1580227049154
 10
81.35282929823819
 20
-109.1580227049154
 97
        0
 97
        0
 75
     2
 76
     1
 98
        0
  0
SPLINE
  5
73
330
6D
100
AcDbEntity
  8
_U+30EC_U+30A4_U+30E4_U+30FC 1
370
     0
100
AcDbSpline
210
0.0
220
0.0
230
1.0
 70
    11
 71
     3
 72
    62
 73
    58
 74
     0
 42
0.0000000001
 43
0.0000000001
 12
1.0
 22
0.0
 32
0.0
 13
1.0
 23
0.0
 33
0.0
 40
0.0
 40
0.0
 40
0.0
 40
0.0
 40
1.0
 40
1.0
 40
1.0
 40
2.0
 40
2.0
 40
2.0
 40
3.0
 40
3.0
 40
3.0
 40
4.0
 40
4.0
 40
4.0
 40
5.0
 40
5.0
 40
5.0
 40
6.0
 40
6.0
 40
6.0
 40
7.0
 40
7.0
 40
7.0
 40
8.0
 40
8.0
 40
8.0
 40
9.0
 40
9.0
 40
9.0
 40
10.0
 40
10.0
 40
10.0
 40
11.0
 40
11.0
 40
11.0
 40
12.0
 40
12.0
 40
12.0
 40
13.0
 40
13.0
 40
13.0
 40
14.0
 40
14.0
 40
14.0
 40
15.0
 40
15.0
 40
15.0
 40
16.0
 40
16.0
 40
16.0
 40
17.0
 40
17.0
 40
17.0
 40
18.0
 40
18.0
 40
18.0
 40
19.0
 40
19.0
 40
19.0
 40
19.0
 10
82.41874184137448
 20
-109.2088378633228
 30
0.0
 10
82.33537053063144
 20
-109.2088378633228
 30
0.0
 10
82.1445122407486
 20
-109.1876505260885
 30
0.0
 10
82.03530271386617
 20
-109.0014431151108
 30
0.0
 10
81.97053491874348
 20
-108.8893052570659
 30
0.0
 10
81.96674531370971
 20
-108.7899142523164
 30
0.0
 10
81.96295570867593
 20
-108.7053371581535
 30
0.0
 10
81.96295570867593
 20
-108.7053371581535
 30
0.0
 10
82.15588105584992
 20
-108.7053371581535
 30
0.0
 10
82.15588105584992
 20
-108.7053371581535
 30
0.0
 10
82.15760360359255
 20
-108.7794067110864
 30
0.0
 10
82.16690536140273
 20
-109.0141899684062
 30
0.0
 10
82.41495223634071
 20
-109.0141899684062
 30
0.0
 10
82.53518606877593
 20
-109.0141899684062
 30
0.0
 10
82.6685112640551
 20
-108.9444267848299
 30
0.0
 10
82.6685112640551
 20
-108.7158446993835
 30
0.0
 10
82.6685112640551
 20
-108.5995727267564
 30
0.0
 10
82.6354383473967
 20
-108.5508246256401
 30
0.0
 10
82.60753307396618
 20
-108.5191297471758
 30
0.0
 10
82.54276527884348
 20
-108.4450601942429
 30
0.0
 10
82.44079045248009
 20
-108.4324855957217
 30
0.0
 10
82.3929036252351
 20
-108.4324855957217
 30
0.0
 10
82.37602265735738
 20
-108.4324855957217
 30
0.0
 10
82.34467228844161
 20
-108.4345526530129
 30
0.0
 10
82.32055662004487
 20
-108.4386867675952
 30
0.0
 10
82.32055662004487
 20
-108.4386867675952
 30
0.0
 10
82.32055662004487
 20
-108.2440388726786
 30
0.0
 10
82.32055662004487
 20
-108.2440388726786
 30
0.0
 10
82.35397404625179
 20
-108.2504122993263
 30
0.0
 10
82.39083656794396
 20
-108.2526516113917
 30
0.0
 10
82.39634872072035
 20
-108.2526516113917
 30
0.0
 10
82.45388181532404
 20
-108.2526516113917
 30
0.0
 10
82.62785913732915
 20
-108.2314642741574
 30
0.0
 10
82.62785913732915
 20
-107.9944417047722
 30
0.0
 10
82.62785913732915
 20
-107.8168470325076
 30
0.0
 10
82.51313745767033
 20
-107.7617255047436
 30
0.0
 10
82.41667478408334
 20
-107.7617255047436
 30
0.0
 10
82.18550887702307
 20
-107.7617255047436
 30
0.0
 10
82.17792966695552
 20
-107.9944417047722
 30
0.0
 10
82.17414006192175
 20
-108.066444200414
 30
0.0
 10
82.17414006192175
 20
-108.066444200414
 30
0.0
 10
81.99637313488286
 20
-108.066444200414
 30
0.0
 10
81.99637313488286
 20
-108.066444200414
 30
0.0
 10
82.0039523449504
 20
-107.9415594890736
 30
0.0
 10
82.02806801334715
 20
-107.5650105525358
 30
0.0
 10
82.42804359918466
 20
-107.5650105525358
 30
0.0
 10
82.62406953229538
 20
-107.5650105525358
 30
0.0
 10
82.83525388554119
 20
-107.6919623211673
 30
0.0
 10
82.83525388554119
 20
-107.9880682781245
 30
0.0
 10
82.83525388554119
 20
-108.1742756891023
 30
0.0
 10
82.75188257479815
 20
-108.256785725974
 30
0.0
 10
82.66506616856985
 20
-108.3181084256115
 30
0.0
 10
82.71880965813975
 20
-108.3456691894934
 30
0.0
 10
82.8779730695583
 20
-108.426112169074
 30
0.0
 10
82.8779730695583
 20
-108.7032701008624
 30
0.0
 10
82.8779730695583
 20
-109.0417507322882
 30
0.0
 10
82.66127656353608
 20
-109.2088378633228
 30
0.0
 10
82.41874184137448
 20
-109.2088378633228
 30
0.0
  0
HATCH
  5
74
330
6D
100
AcDbEntity
  8
_U+30EC_U+30A4_U+30E4_U+30FC 1
 62
   179
420
  2234388
100
AcDbHatch
 10
0.0
 20
0.0
 30
0.0
210
0.0
220
0.0
230
1.0
  2
SOLID
 70
     1
 71
     0
 91
        1
 92
        1
 93
        1
 72
     4
 94
        3
 73
     0
 74
     1
 95
       62
 96
       58
 40
0.0
 40
0.0
 40
0.0
 40
0.0
 40
1.0
 40
1.0
 40
1.0
 40
2.0
 40
2.0
 40
2.0
 40
3.0
 40
3.0
 40
3.0
 40
4.0
 40
4.0
 40
4.0
 40
5.0
 40
5.0
 40
5.0
 40
6.0
 40
6.0
 40
6.0
 40
7.0
 40
7.0
 40
7.0
 40
8.0
 40
8.0
 40
8.0
 40
9.0
 40
9.0
 40
9.0
 40
10.0
 40
10.0
 40
10.0
 40
11.0
 40
11.0
 40
11.0
 40
12.0
 40
12.0
 40
12.0
 40
13.0
 40
13.0
 40
13.0
 40
14.0
 40
14.0
 40
14.0
 40
15.0
 40
15.0
 40
15.0
 40
16.0
 40
16.0
 40
16.0
 40
17.0
 40
17.0
 40
17.0
 40
18.0
 40
18.0
 40
18.0
 40
19.0
 40
19.0
 40
19.0
 40
19.0
 10
82.41874184137448
 20
-109.2088378633228
 10
82.33537053063144
 20
-109.2088378633228
 10
82.1445122407486
 20
-109.1876505260885
 10
82.03530271386617
 20
-109.0014431151108
 10
81.97053491874348
 20
-108.8893052570659
 10
81.96674531370971
 20
-108.7899142523164
 10
81.96295570867593
 20
-108.7053371581535
 10
81.96295570867593
 20
-108.7053371581535
 10
82.15588105584992
 20
-108.7053371581535
 10
82.15588105584992
 20
-108.7053371581535
 10
82.15760360359255
 20
-108.7794067110864
 10
82.16690536140273
 20
-109.0141899684062
 10
82.41495223634071
 20
-109.0141899684062
 10
82.53518606877593
 20
-109.0141899684062
 10
82.6685112640551
 20
-108.9444267848299
 10
82.6685112640551
 20
-108.7158446993835
 10
82.6685112640551
 20
-108.5995727267564
 10
82.6354383473967
 20
-108.5508246256401
 10
82.60753307396618
 20
-108.5191297471758
 10
82.54276527884348
 20
-108.4450601942429
 10
82.44079045248009
 20
-108.4324855957217
 10
82.3929036252351
 20
-108.4324855957217
 10
82.37602265735738
 20
-108.4324855957217
 10
82.34467228844161
 20
-108.4345526530129
 10
82.32055662004487
 20
-108.4386867675952
 10
82.32055662004487
 20
-108.4386867675952
 10
82.32055662004487
 20
-108.2440388726786
 10
82.32055662004487
 20
-108.2440388726786
 10
82.35397404625179
 20
-108.2504122993263
 10
82.39083656794396
 20
-108.2526516113917
 10
82.39634872072035
 20
-108.2526516113917
 10
82.45388181532404
 20
-108.2526516113917
 10
82.62785913732915
 20
-108.2314642741574
 10
82.62785913732915
 20
-107.9944417047722
 10
82.62785913732915
 20
-107.8168470325076
 10
82.51313745767033
 20
-107.7617255047436
 10
82.41667478408334
 20
-107.7617255047436
 10
82.18550887702307
 20
-107.7617255047436
 10
82.17792966695552
 20
-107.9944417047722
 10
82.17414006192175
 20
-108.066444200414
 10
82.17414006192175
 20
-108.066444200414
 10
81.99637313488286
 20
-108.066444200414
 10
81.99637313488286
 20
-108.066444200414
 10
82.0039523449504
 20
-107.9415594890736
 10
82.02806801334715
 20
-107.5650105525358
 10
82.42804359918466
 20
-107.5650105525358
 10
82.62406953229538
 20
-107.5650105525358
 10
82.83525388554119
 20
-107.6919623211673
 10
82.83525388554119
 20
-107.9880682781245
 10
82.83525388554119
 20
-108.1742756891023
 10
82.75188257479815
 20
-108.256785725974
 10
82.66506616856985
 20
-108.3181084256115
 10
82.71880965813975
 20
-108.3456691894934
 10
82.8779730695583
 20
-108.426112169074
 10
82.8779730695583
 20
-108.7032701008624
 10
82.8779730695583
 20
-109.0417507322882
 10
82.66127656353608
 20
-109.2088378633228
 10
82.41874184137448
 20
-109.2088378633228
 97
        0
 97
        0
 75
     2
 76
     1
 98
        0
  0
ENDBLK
  5
70
330
6D
100
AcDbEntity
  8
0
100
AcDbBlockEnd
  0
ENDSEC
  0
SECTION
  2
ENTITIES
  0
POLYLINE
  5
41
330
1F
100
AcDbEntity
  8
_U+30EC_U+30A4_U+30E4_U+30FC 1
 62
   179
420
  2234388
370
     9
100
AcDb2dPolyline
 66
     1
 10
0.0
 20
0.0
 30
0.0
  0
VERTEX
  5
42
330
41
100
AcDbEntity
  8
_U+30EC_U+30A4_U+30E4_U+30FC 1
 62
   179
420
  2234388
370
     9
100
AcDbVertex
100
AcDb2dVertex
 10
72.78609703196085
 20
-149.6173946848181
 30
0.0
  0
VERTEX
  5
43
330
41
100
AcDbEntity
  8
_U+30EC_U+30A4_U+30E4_U+30FC 1
 62
   179
420
  2234388
370
     9
100
AcDbVertex
100
AcDb2dVertex
 10
72.78609703196085
 20
-113.6175160827069
 30
0.0
  0
SEQEND
  5
44
330
41
100
AcDbEntity
  8
_U+30EC_U+30A4_U+30E4_U+30FC 1
 62
   179
420
  2234388
370
     9
  0
POLYLINE
  5
45
330
1F
100
AcDbEntity
  8
_U+30EC_U+30A4_U+30E4_U+30FC 1
 62
   179
420
  2234388
370
     9
100
AcDb2dPolyline
 66
     1
 10
0.0
 20
0.0
 30
0.0
  0
VERTEX
  5
46
330
45
100
AcDbEntity
  8
_U+30EC_U+30A4_U+30E4_U+30FC 1
 62
   179
420
  2234388
370
     9
100
AcDbVertex
100
AcDb2dVertex
 10
74.64178053689498
 20
-149.6173946848181
 30
0.0
  0
VERTEX
  5
47
330
45
100
AcDbEntity
  8
_U+30EC_U+30A4_U+30E4_U+30FC 1
 62
   179
420
  2234388
370
     9
100
AcDbVertex
100
AcDb2dVertex
 10
71.88623331536175
 20
-149.6173946848181
 30
0.0
  0
SEQEND
  5
48
330
45
100
AcDbEntity
  8
_U+30EC_U+30A4_U+30E4_U+30FC 1
 62
   179
420
  2234388
370
     9
  0
POLYLINE
  5
49
330
1F
100
AcDbEntity
  8
_U+30EC_U+30A4_U+30E4_U+30FC 1
 62
   179
420
  2234388
370
     9
100
AcDb2dPolyline
 66
     1
 10
0.0
 20
0.0
 30
0.0
  0
VERTEX
  5
4A
330
49
100
AcDbEntity
  8
_U+30EC_U+30A4_U+30E4_U+30FC 1
 62
   179
420
  2234388
370
     9
100
AcDbVertex
100
AcDb2dVertex
 10
74.45988643370337
 20
-127.1036813571129
 30
0.0
  0
VERTEX
  5
4B
330
49
100
AcDbEntity
  8
_U+30EC_U+30A4_U+30E4_U+30FC 1
 62
   179
420
  2234388
370
     9
100
AcDbVertex
100
AcDb2dVertex
 10
71.88623331536175
 20
-127.1036813571129
 30
0.0
  0
SEQEND
  5
4C
330
49
100
AcDbEntity
  8
_U+30EC_U+30A4_U+30E4_U+30FC 1
 62
   179
420
  2234388
370
     9
  0
POLYLINE
  5
4D
330
1F
100
AcDbEntity
  8
_U+30EC_U+30A4_U+30E4_U+30FC 1
 62
   179
420
  2234388
370
     9
100
AcDb2dPolyline
 66
     1
 10
0.0
 20
0.0
 30
0.0
  0
VERTEX
  5
4E
330
4D
100
AcDbEntity
  8
_U+30EC_U+30A4_U+30E4_U+30FC 1
 62
   179
420
  2234388
370
     9
100
AcDbVertex
100
AcDb2dVertex
 10
84.52093201035805
 20
-113.6175160827069
 30
0.0
  0
VERTEX
  5
4F
330
4D
100
AcDbEntity
  8
_U+30EC_U+30A4_U+30E4_U+30FC 1
 62
   179
420
  2234388
370
     9
100
AcDbVertex
100
AcDb2dVertex
 10
71.88623331536175
 20
-113.6175160827069
 30
0.0
  0
SEQEND
  5
50
330
4D
100
AcDbEntity
  8
_U+30EC_U+30A4_U+30E4_U+30FC 1
 62
   179
420
  2234388
370
     9
  0
INSERT
  5
52
330
1F
100
AcDbEntity
  8
_U+30EC_U+30A4_U+30E4_U+30FC 1
100
AcDbBlockReference
  2
block 2
 10
0.0
 20
0.0
 30
0.0
  0
INSERT
  5
5A
330
1F
100
AcDbEntity
  8
_U+30EC_U+30A4_U+30E4_U+30FC 1
100
AcDbBlockReference
  2
block 3
 10
0.0
 20
0.0
 30
0.0
  0
POLYLINE
  5
61
330
1F
100
AcDbEntity
  8
_U+30EC_U+30A4_U+30E4_U+30FC 1
 62
   179
420
  2234388
370
     9
100
AcDb2dPolyline
 66
     1
 10
0.0
 20
0.0
 30
0.0
  0
VERTEX
  5
62
330
61
100
AcDbEntity
  8
_U+30EC_U+30A4_U+30E4_U+30FC 1
 62
   179
420
  2234388
370
     9
100
AcDbVertex
100
AcDb2dVertex
 10
75.94402250695101
 20
-109.7996844169945
 30
0.0
  0
VERTEX
  5
63
330
61
100
AcDbEntity
  8
_U+30EC_U+30A4_U+30E4_U+30FC 1
 62
   179
420
  2234388
370
     9
100
AcDbVertex
100
AcDb2dVertex
 10
87.64424998623112
 20
-109.7996844169945
 30
0.0
  0
SEQEND
  5
64
330
61
100
AcDbEntity
  8
_U+30EC_U+30A4_U+30E4_U+30FC 1
 62
   179
420
  2234388
370
     9
  0
POLYLINE
  5
65
330
1F
100
AcDbEntity
  8
_U+30EC_U+30A4_U+30E4_U+30FC 1
 62
   179
420
  2234388
370
     9
100
AcDb2dPolyline
 66
     1
 10
0.0
 20
0.0
 30
0.0
  0
VERTEX
  5
66
330
65
100
AcDbEntity
  8
_U+30EC_U+30A4_U+30E4_U+30FC 1
 62
   179
420
  2234388
370
     9
100
AcDbVertex
100
AcDb2dVertex
 10
75.94402250695101
 20
-107.9510230285679
 30
0.0
  0
VERTEX
  5
67
330
65
100
AcDbEntity
  8
_U+30EC_U+30A4_U+30E4_U+30FC 1
 62
   179
420
  2234388
370
     9
100
AcDbVertex
100
AcDb2dVertex
 10
75.94402250695101
 20
-126.0460535795996
 30
0.0
  0
SEQEND
  5
68
330
65
100
AcDbEntity
  8
_U+30EC_U+30A4_U+30E4_U+30FC 1
 62
   179
420
  2234388
370
     9
  0
POLYLINE
  5
69
330
1F
100
AcDbEntity
  8
_U+30EC_U+30A4_U+30E4_U+30FC 1
 62
   179
420
  2234388
370
     9
100
AcDb2dPolyline
 66
     1
 10
0.0
 20
0.0
 30
0.0
  0
VERTEX
  5
6A
330
69
100
AcDbEntity
  8
_U+30EC_U+30A4_U+30E4_U+30FC 1
 62
   179
420
  2234388
370
     9
100
AcDbVertex
100
AcDb2dVertex
 10
87.5540094329778
 20
-108.1260360840795
 30
0.0
  0
VERTEX
  5
6B
330
69
100
AcDbEntity
  8
_U+30EC_U+30A4_U+30E4_U+30FC 1
 62
   179
420
  2234388
370
     9
100
AcDbVertex
100
AcDb2dVertex
 10
87.5540094329778
 20
-112.2877202497059
 30
0.0
  0
SEQEND
  5
6C
330
69
100
AcDbEntity
  8
_U+30EC_U+30A4_U+30E4_U+30FC 1
 62
   179
420
  2234388
370
     9
  0
INSERT
  5
6E
330
1F
100
AcDbEntity
  8
_U+30EC_U+30A4_U+30E4_U+30FC 1
100
AcDbBlockReference
  2
block 4
 10
0.0
 20
0.0
 30
0.0
  0
SPLINE
  5
75
330
1F
100
AcDbEntity
  8
_U+30EC_U+30A4_U+30E4_U+30FC 1
 62
     7
420
 16777215
370
    25
100
AcDbSpline
210
0.0
220
0.0
230
1.0
 70
    11
 71
     3
 72
    77
 73
    73
 74
     0
 42
0.0000000001
 43
0.0000000001
 12
1.0
 22
0.0
 32
0.0
 13
1.0
 23
0.0
 33
0.0
 40
0.0
 40
0.0
 40
0.0
 40
0.0
 40
1.0
 40
1.0
 40
1.0
 40
2.0
 40
2.0
 40
2.0
 40
3.0
 40
3.0
 40
3.0
 40
4.0
 40
4.0
 40
4.0
 40
5.0
 40
5.0
 40
5.0
 40
6.0
 40
6.0
 40
6.0
 40
7.0
 40
7.0
 40
7.0
 40
8.0
 40
8.0
 40
8.0
 40
9.0
 40
9.0
 40
9.0
 40
10.0
 40
10.0
 40
10.0
 40
11.0
 40
11.0
 40
11.0
 40
12.0
 40
12.0
 40
12.0
 40
13.0
 40
13.0
 40
13.0
 40
14.0
 40
14.0
 40
14.0
 40
15.0
 40
15.0
 40
15.0
 40
16.0
 40
16.0
 40
16.0
 40
17.0
 40
17.0
 40
17.0
 40
18.0
 40
18.0
 40
18.0
 40
19.0
 40
19.0
 40
19.0
 40
20.0
 40
20.0
 40
20.0
 40
21.0
 40
21.0
 40
21.0
 40
22.0
 40
22.0
 40
22.0
 40
23.0
 40
23.0
 40
23.0
 40
24.0
 40
24.0
 40
24.0
 40
24.0
 10
87.58981637650872
 20
-113.3453480272191
 30
0.0
 10
87.58981637650872
 20
-113.3453480272191
 30
0.0
 10
88.33050857983432
 20
-113.3453480272191
 30
0.0
 10
88.33050857983432
 20
-113.3453480272191
 30
0.0
 10
88.33050857983432
 20
-113.3453480272191
 30
0.0
 10
88.40977774447866
 20
-126.4160469128403
 30
0.0
 10
88.40977774447866
 20
-126.4160469128403
 30
0.0
 10
88.40977774447866
 20
-126.4160469128403
 30
0.0
 10
88.72738356970919
 20
-127.5798255236607
 30
0.0
 10
87.4575247132171
 20
-127.5798255236607
 30
0.0
 10
87.4575247132171
 20
-127.5798255236607
 30
0.0
 10
77.58870774276937
 20
-127.7389635791763
 30
0.0
 10
77.58870774276937
 20
-127.7389635791763
 30
0.0
 10
77.58870774276937
 20
-127.7389635791763
 30
0.0
 10
76.79495776301962
 20
-127.7651396902808
 30
0.0
 10
76.79495776301962
 20
-128.4528094123312
 30
0.0
 10
76.79495776301962
 20
-128.4528094123312
 30
0.0
 10
76.97963886964399
 20
-147.7680630186136
 30
0.0
 10
76.97963886964399
 20
-147.7680630186136
 30
0.0
 10
76.97963886964399
 20
-147.7680630186136
 30
0.0
 10
76.8473472030104
 20
-148.7733385739177
 30
0.0
 10
77.69415301785702
 20
-148.7995146850226
 30
0.0
 10
77.69415301785702
 20
-148.7995146850226
 30
0.0
 10
96.92946669378995
 20
-148.3234057962522
 30
0.0
 10
96.92946669378995
 20
-148.3234057962522
 30
0.0
 10
96.92946669378995
 20
-148.3234057962522
 30
0.0
 10
97.82933222638803
 20
-148.4556974628858
 30
0.0
 10
97.82933222638803
 20
-147.8996844074698
 30
0.0
 10
97.82933222638803
 20
-147.8996844074698
 30
0.0
 10
97.82933222638803
 20
-137.7138963544604
 30
0.0
 10
97.82933222638803
 20
-137.7138963544604
 30
0.0
 10
97.82933222638803
 20
-137.7138963544604
 30
0.0
 10
97.64398278667224
 20
-136.6286813547319
 30
0.0
 10
98.59690609569448
 20
-136.6286813547319
 30
0.0
 10
98.59690609569448
 20
-136.6286813547319
 30
0.0
 10
111.9314824221678
 20
-136.6286813547319
 30
0.0
 10
111.9314824221678
 20
-136.6286813547319
 30
0.0
 10
111.9314824221678
 20
-136.6286813547319
 30
0.0
 10
111.9314824221678
 20
-137.3170213545597
 30
0.0
 10
111.9314824221678
 20
-137.3170213545597
 30
0.0
 10
111.9314824221678
 20
-137.3170213545597
 30
0.0
 10
99.7875310653191
 20
-137.3694088545464
 30
0.0
 10
99.7875310653191
 20
-137.3694088545464
 30
0.0
 10
99.7875310653191
 20
-137.3694088545464
 30
0.0
 10
98.57002442971361
 20
-137.2109057990303
 30
0.0
 10
98.57002442971361
 20
-137.8985755210807
 30
0.0
 10
98.57002442971361
 20
-137.8985755210807
 30
0.0
 10
98.57002442971361
 20
-147.8472969074825
 30
0.0
 10
98.57002442971361
 20
-147.8472969074825
 30
0.0
 10
98.57002442971361
 20
-147.8472969074825
 30
0.0
 10
98.72852748122543
 20
-149.1963896849233
 30
0.0
 10
97.6171388644843
 20
-149.1963896849233
 30
0.0
 10
97.6171388644843
 20
-149.1963896849233
 30
0.0
 10
77.48259218992105
 20
-149.5140307959545
 30
0.0
 10
77.48259218992105
 20
-149.5140307959545
 30
0.0
 10
77.48259218992105
 20
-149.5140307959545
 30
0.0
 10
76.21273333342897
 20
-149.6201463514839
 30
0.0
 10
76.21273333342897
 20
-148.667223018389
 30
0.0
 10
76.21273333342897
 20
-148.667223018389
 30
0.0
 10
75.94815000684571
 20
-128.029723023548
 30
0.0
 10
75.94815000684571
 20
-128.029723023548
 30
0.0
 10
75.94815000684571
 20
-128.029723023548
 30
0.0
 10
75.84206973177427
 20
-126.8921558016103
 30
0.0
 10
77.42956969127377
 20
-126.8921558016103
 30
0.0
 10
77.42956969127377
 20
-126.8921558016103
 30
0.0
 10
86.63759862302405
 20
-126.8921558016103
 30
0.0
 10
86.63759862302405
 20
-126.8921558016103
 30
0.0
 10
86.63759862302405
 20
-126.8921558016103
 30
0.0
 10
87.66905026337619
 20
-126.9183671904928
 30
0.0
 10
87.66905026337619
 20
-126.3099313573113
 30
0.0
 10
87.66905026337619
 20
-126.3099313573113
 30
0.0
 10
87.58981637650872
 20
-113.3453480272191
 30
0.0
 10
87.58981637650872
 20
-113.3453480272191
 30
0.0
  0
SPLINE
  5
76
330
1F
100
AcDbEntity
  8
_U+30EC_U+30A4_U+30E4_U+30FC 1
 62
   179
420
  2234388
370
     9
100
AcDbSpline
210
0.0
220
0.0
230
1.0
 70
    11
 71
     3
 72
    17
 73
    13
 74
     0
 42
0.0000000001
 43
0.0000000001
 12
1.0
 22
0.0
 32
0.0
 13
1.0
 23
0.0
 33
0.0
 40
0.0
 40
0.0
 40
0.0
 40
0.0
 40
1.0
 40
1.0
 40
1.0
 40
2.0
 40
2.0
 40
2.0
 40
3.0
 40
3.0
 40
3.0
 40
4.0
 40
4.0
 40
4.0
 40
4.0
 10
76.08527472556959
 20
-109.8134427503243
 30
0.0
 10
76.08527472556959
 20
-109.7583388614494
 30
0.0
 10
76.04050722671171
 20
-109.7135360836827
 30
0.0
 10
75.98536806145177
 20
-109.7135360836827
 30
0.0
 10
75.93026417396868
 20
-109.7135360836827
 30
0.0
 10
75.88546139733393
 20
-109.7583388614494
 30
0.0
 10
75.88546139733393
 20
-109.8134427503243
 30
0.0
 10
75.88546139733393
 20
-109.8685819169774
 30
0.0
 10
75.93026417396868
 20
-109.9133494169663
 30
0.0
 10
75.98536806145177
 20
-109.9133494169663
 30
0.0
 10
76.04050722671171
 20
-109.9133494169663
 30
0.0
 10
76.08527472556959
 20
-109.8685819169774
 30
0.0
 10
76.08527472556959
 20
-109.8134427503243
 30
0.0
  0
SPLINE
  5
77
330
1F
100
AcDbEntity
  8
_U+30EC_U+30A4_U+30E4_U+30FC 1
 62
   179
420
  2234388
370
     9
100
AcDbSpline
210
0.0
220
0.0
230
1.0
 70
    11
 71
     3
 72
    17
 73
    13
 74
     0
 42
0.0000000001
 43
0.0000000001
 12
1.0
 22
0.0
 32
0.0
 13
1.0
 23
0.0
 33
0.0
 40
0.0
 40
0.0
 40
0.0
 40
0.0
 40
1.0
 40
1.0
 40
1.0
 40
2.0
 40
2.0
 40
2.0
 40
3.0
 40
3.0
 40
3.0
 40
4.0
 40
4.0
 40
4.0
 40
4.0
 10
87.66837998561552
 20
-109.8134427503243
 30
0.0
 10
87.66837998561552
 20
-109.7583388614494
 30
0.0
 10
87.62357720898075
 20
-109.7135360836827
 30
0.0
 10
87.56847332149768
 20
-109.7135360836827
 30
0.0
 10
87.51333415623773
 20
-109.7135360836827
 30
0.0
 10
87.46856665737984
 20
-109.7583388614494
 30
0.0
 10
87.46856665737984
 20
-109.8134427503243
 30
0.0
 10
87.46856665737984
 20
-109.8685819169774
 30
0.0
 10
87.51333415623773
 20
-109.9133494169663
 30
0.0
 10
87.56847332149768
 20
-109.9133494169663
 30
0.0
 10
87.62357720898075
 20
-109.9133494169663
 30
0.0
 10
87.66837998561552
 20
-109.8685819169774
 30
0.0
 10
87.66837998561552
 20
-109.8134427503243
 30
0.0
  0
SPLINE
  5
78
330
1F
100
AcDbEntity
  8
_U+30EC_U+30A4_U+30E4_U+30FC 1
 62
   179
420
  2234388
370
     9
100
AcDbSpline
210
0.0
220
0.0
230
1.0
 70
    11
 71
     3
 72
    17
 73
    13
 74
     0
 42
0.0000000001
 43
0.0000000001
 12
1.0
 22
0.0
 32
0.0
 13
1.0
 23
0.0
 33
0.0
 40
0.0
 40
0.0
 40
0.0
 40
0.0
 40
1.0
 40
1.0
 40
1.0
 40
2.0
 40
2.0
 40
2.0
 40
3.0
 40
3.0
 40
3.0
 40
4.0
 40
4.0
 40
4.0
 40
4.0
 10
72.88117064064643
 20
-113.6423163604782
 30
0.0
 10
72.88117064064643
 20
-113.5872124716033
 30
0.0
 10
72.83636786401166
 20
-113.5424096938366
 30
0.0
 10
72.78126397652859
 20
-113.5424096938366
 30
0.0
 10
72.72612481126865
 20
-113.5424096938366
 30
0.0
 10
72.68135731241077
 20
-113.5872124716033
 30
0.0
 10
72.68135731241077
 20
-113.6423163604782
 30
0.0
 10
72.68135731241077
 20
-113.6981258049087
 30
0.0
 10
72.72612481126865
 20
-113.7429285826754
 30
0.0
 10
72.78126397652859
 20
-113.7429285826754
 30
0.0
 10
72.83636786401166
 20
-113.7429285826754
 30
0.0
 10
72.88117064064643
 20
-113.6981258049087
 30
0.0
 10
72.88117064064643
 20
-113.6423163604782
 30
0.0
  0
SPLINE
  5
79
330
1F
100
AcDbEntity
  8
_U+30EC_U+30A4_U+30E4_U+30FC 1
 62
   179
420
  2234388
370
     9
100
AcDbSpline
210
0.0
220
0.0
230
1.0
 70
    11
 71
     3
 72
    17
 73
    13
 74
     0
 42
0.0000000001
 43
0.0000000001
 12
1.0
 22
0.0
 32
0.0
 13
1.0
 23
0.0
 33
0.0
 40
0.0
 40
0.0
 40
0.0
 40
0.0
 40
1.0
 40
1.0
 40
1.0
 40
2.0
 40
2.0
 40
2.0
 40
3.0
 40
3.0
 40
3.0
 40
4.0
 40
4.0
 40
4.0
 40
4.0
 10
72.88117064064643
 20
-127.0919691348936
 30
0.0
 10
72.88117064064643
 20
-127.0368652460187
 30
0.0
 10
72.83636786401166
 20
-126.992062468252
 30
0.0
 10
72.78126397652859
 20
-126.992062468252
 30
0.0
 10
72.72612481126865
 20
-126.992062468252
 30
0.0
 10
72.68135731241077
 20
-127.0368652460187
 30
0.0
 10
72.68135731241077
 20
-127.0919691348936
 30
0.0
 10
72.68135731241077
 20
-127.1477785793241
 30
0.0
 10
72.72612481126865
 20
-127.1925813570908
 30
0.0
 10
72.78126397652859
 20
-127.1925813570908
 30
0.0
 10
72.83636786401166
 20
-127.1925813570908
 30
0.0
 10
72.88117064064643
 20
-127.1477785793241
 30
0.0
 10
72.88117064064643
 20
-127.0919691348936
 30
0.0
  0
SPLINE
  5
7A
330
1F
100
AcDbEntity
  8
_U+30EC_U+30A4_U+30E4_U+30FC 1
 62
   179
420
  2234388
370
     9
100
AcDbSpline
210
0.0
220
0.0
230
1.0
 70
    11
 71
     3
 72
    17
 73
    13
 74
     0
 42
0.0000000001
 43
0.0000000001
 12
1.0
 22
0.0
 32
0.0
 13
1.0
 23
0.0
 33
0.0
 40
0.0
 40
0.0
 40
0.0
 40
0.0
 40
1.0
 40
1.0
 40
1.0
 40
2.0
 40
2.0
 40
2.0
 40
3.0
 40
3.0
 40
3.0
 40
4.0
 40
4.0
 40
4.0
 40
4.0
 10
72.88117064064643
 20
-149.6111857959304
 30
0.0
 10
72.88117064064643
 20
-149.5560819070555
 30
0.0
 10
72.83636786401166
 20
-149.5112791292888
 30
0.0
 10
72.78126397652859
 20
-149.5112791292888
 30
0.0
 10
72.72612481126865
 20
-149.5112791292888
 30
0.0
 10
72.68135731241077
 20
-149.5560819070555
 30
0.0
 10
72.68135731241077
 20
-149.6111857959304
 30
0.0
 10
72.68135731241077
 20
-149.6663249625835
 30
0.0
 10
72.72612481126865
 20
-149.7110924625721
 30
0.0
 10
72.78126397652859
 20
-149.7110924625721
 30
0.0
 10
72.83636786401166
 20
-149.7110924625721
 30
0.0
 10
72.88117064064643
 20
-149.6663249625835
 30
0.0
 10
72.88117064064643
 20
-149.6111857959304
 30
0.0
  0
ENDSEC
  0
SECTION
  2
OBJECTS
  0
DICTIONARY
  5
C
330
0
100
AcDbDictionary
281
     1
  3
ACAD_GROUP
350
D
  3
ACAD_LAYOUT
350
1A
  3
ACAD_MATERIAL
350
3B
  3
ACAD_MLEADERSTYLE
350
7C
  3
ACAD_MLINESTYLE
350
17
  3
ACAD_PLOTSETTINGS
350
19
  3
ACAD_PLOTSTYLENAME
350
E
  3
ACAD_TABLESTYLE
350
7B
  3
ACAD_VISUALSTYLE
350
2A
  0
SUN
  5
3F
330
29
100
AcDbSun
 90
        1
290
     0
 63
     7
421
 16777215
 40
1.0
291
     1
 91
  2455826
 92
 54000000
292
     0
 70
     2
 71
   256
280
     1
  0
DICTIONARY
  5
D
102
{ACAD_REACTORS
330
C
102
}
330
C
100
AcDbDictionary
281
     1
  0
DICTIONARY
  5
1A
102
{ACAD_REACTORS
330
C
102
}
330
C
100
AcDbDictionary
281
     1
  3
Layout1
350
1E
  3
Layout2
350
26
  3
Model
350
22
  0
DICTIONARY
  5
3B
102
{ACAD_REACTORS
330
C
102
}
330
C
100
AcDbDictionary
281
     1
  3
ByBlock
350
3D
  3
ByLayer
350
3C
  3
Global
350
3E
  0
DICTIONARY
  5
7C
102
{ACAD_REACTORS
330
C
102
}
330
C
100
AcDbDictionary
281
     1
  0
DICTIONARY
  5
17
102
{ACAD_REACTORS
330
C
102
}
330
C
100
AcDbDictionary
281
     1
  3
Standard
350
18
  0
DICTIONARY
  5
19
102
{ACAD_REACTORS
330
C
102
}
330
C
100
AcDbDictionary
281
     1
  0
ACDBDICTIONARYWDFLT
  5
E
102
{ACAD_REACTORS
330
C
102
}
330
C
100
AcDbDictionary
281
     1
  3
Normal
350
F
100
AcDbDictionaryWithDefault
340
F
  0
DICTIONARY
  5
7B
102
{ACAD_REACTORS
330
C
102
}
330
C
100
AcDbDictionary
281
     1
  0
DICTIONARY
  5
2A
102
{ACAD_REACTORS
330
C
102
}
330
C
100
AcDbDictionary
281
     1
  3
2dWireframe
350
2F
  3
3D Hidden
350
31
  3
3dWireframe
350
30
  3
Basic
350
32
  3
Brighten
350
36
  3
ColorChange
350
3A
  3
Conceptual
350
34
  3
Dim
350
35
  3
Facepattern
350
39
  3
Flat
350
2B
  3
FlatWithEdges
350
2C
  3
Gouraud
350
2D
  3
GouraudWithEdges
350
2E
  3
Linepattern
350
38
  3
Realistic
350
33
  3
Thicken
350
37
  0
LAYOUT
  5
1E
102
{ACAD_REACTORS
330
1A
102
}
330
1A
100
AcDbPlotSettings
  1

  2
none_device
  4

  6

 40
0.0
 41
0.0
 42
0.0
 43
0.0
 44
0.0
 45
0.0
 46
0.0
 47
0.0
 48
0.0
 49
0.0
140
0.0
141
0.0
142
1.0
143
1.0
 70
   688
 72
     0
 73
     0
 74
     5
  7

 75
    16
 76
     0
 77
     2
 78
   300
147
1.0
148
0.0
149
0.0
100
AcDbLayout
  1
Layout1
 70
     1
 71
     1
 10
0.0
 20
0.0
 11
12.0
 21
9.0
 12
0.0
 22
0.0
 32
0.0
 14
1.000000000000000E+20
 24
1.000000000000000E+20
 34
1.000000000000000E+20
 15
-1.000000000000000E+20
 25
-1.000000000000000E+20
 35
-1.000000000000000E+20
146
0.0
 13
0.0
 23
0.0
 33
0.0
 16
1.0
 26
0.0
 36
0.0
 17
0.0
 27
1.0
 37
0.0
 76
     0
330
1B
  0
LAYOUT
  5
26
102
{ACAD_REACTORS
330
1A
102
}
330
1A
100
AcDbPlotSettings
  1

  2
none_device
  4

  6

 40
0.0
 41
0.0
 42
0.0
 43
0.0
 44
0.0
 45
0.0
 46
0.0
 47
0.0
 48
0.0
 49
0.0
140
0.0
141
0.0
142
1.0
143
1.0
 70
   688
 72
     0
 73
     0
 74
     5
  7

 75
    16
 76
     0
 77
     2
 78
   300
147
1.0
148
0.0
149
0.0
100
AcDbLayout
  1
Layout2
 70
     1
 71
     2
 10
0.0
 20
0.0
 11
0.0
 21
0.0
 12
0.0
 22
0.0
 32
0.0
 14
0.0
 24
0.0
 34
0.0
 15
0.0
 25
0.0
 35
0.0
146
0.0
 13
0.0
 23
0.0
 33
0.0
 16
1.0
 26
0.0
 36
0.0
 17
0.0
 27
1.0
 37
0.0
 76
     0
330
23
  0
LAYOUT
  5
22
102
{ACAD_REACTORS
330
1A
102
}
330
1A
100
AcDbPlotSettings
  1

  2
none_device
  4

  6

 40
0.0
 41
0.0
 42
0.0
 43
0.0
 44
0.0
 45
0.0
 46
0.0
 47
0.0
 48
0.0
 49
0.0
140
0.0
141
0.0
142
1.0
143
1.0
 70
  1712
 72
     0
 73
     0
 74
     0
  7

 75
     0
 76
     0
 77
     2
 78
   300
147
1.0
148
0.0
149
0.0
100
AcDbLayout
  1
Model
 70
     1
 71
     0
 10
0.0
 20
0.0
 11
12.0
 21
9.0
 12
0.0
 22
0.0
 32
0.0
 14
1.000000000000000E+20
 24
1.000000000000000E+20
 34
1.000000000000000E+20
 15
-1.000000000000000E+20
 25
-1.000000000000000E+20
 35
-1.000000000000000E+20
146
0.0
 13
0.0
 23
0.0
 33
0.0
 16
1.0
 26
0.0
 36
0.0
 17
0.0
 27
1.0
 37
0.0
 76
     0
330
1F
331
29
  0
MATERIAL
  5
3D
102
{ACAD_REACTORS
330
3B
102
}
330
3B
100
AcDbMaterial
  1
ByBlock
 72
     1
 94
      127
  0
MATERIAL
  5
3C
102
{ACAD_REACTORS
330
3B
102
}
330
3B
100
AcDbMaterial
  1
ByLayer
 72
     1
 94
      127
  0
MATERIAL
  5
3E
102
{ACAD_REACTORS
330
3B
102
}
330
3B
100
AcDbMaterial
  1
Global
 72
     1
 94
      127
  0
MLINESTYLE
  5
18
102
{ACAD_REACTORS
330
17
102
}
330
17
100
AcDbMlineStyle
  2
Standard
 70
     0
  3

 62
   256
 51
90.0
 52
90.0
 71
     2
 49
0.5
 62
   256
  6
BYLAYER
 49
-0.5
 62
   256
  6
BYLAYER
  0
ACDBPLACEHOLDER
  5
F
102
{ACAD_REACTORS
330
E
102
}
330
E
  0
VISUALSTYLE
  5
2F
102
{ACAD_REACTORS
330
2A
102
}
330
2A
100
AcDbVisualStyle
  2
2dWireframe
 70
     4
177
     2
291
     0
 71
     0
176
     1
 72
     2
176
     1
 73
     0
176
     1
 90
        0
176
     1
 40
-0.6
176
     1
 41
-30.0
176
     1
 62
     5
 63
     7
421
 16777215
176
     1
 74
     1
176
     1
 91
        4
176
     1
 64
     7
176
     1
 65
   257
176
     1
 75
     1
176
     1
175
     1
176
     1
 42
1.0
176
     1
 92
        0
176
     1
 66
   257
176
     1
 43
1.0
176
     1
 76
     1
176
     1
 77
     6
176
     1
 78
     2
176
     1
 67
     7
176
     1
 79
     5
176
     1
170
     0
176
     1
171
     0
176
     1
290
     0
176
     1
 93
        1
176
     1
 44
0.0
176
     1
173
     0
176
     1
  0
VISUALSTYLE
  5
31
102
{ACAD_REACTORS
330
2A
102
}
330
2A
100
AcDbVisualStyle
  2
3D Hidden
 70
     6
177
     2
291
     0
 71
     1
176
     1
 72
     2
176
     1
 73
     2
176
     1
 90
        0
176
     1
 40
-0.6
176
     1
 41
-30.0
176
     1
 62
     5
 63
     7
421
 16777215
176
     1
 74
     2
176
     1
 91
        2
176
     1
 64
     7
176
     1
 65
   257
176
     1
 75
     2
176
     1
175
     1
176
     1
 42
40.0
176
     1
 92
        0
176
     1
 66
   257
176
     1
 43
1.0
176
     1
 76
     1
176
     1
 77
     6
176
     1
 78
     2
176
     1
 67
     7
176
     1
 79
     3
176
     1
170
     0
176
     1
171
     0
176
     1
290
     0
176
     1
 93
        1
176
     1
 44
0.0
176
     1
173
     0
176
     1
  0
VISUALSTYLE
  5
30
102
{ACAD_REACTORS
330
2A
102
}
330
2A
100
AcDbVisualStyle
  2
3dWireframe
 70
     5
177
     2
291
     0
 71
     0
176
     1
 72
     2
176
     1
 73
     0
176
     1
 90
        0
176
     1
 40
-0.6
176
     1
 41
-30.0
176
     1
 62
     5
 63
     7
421
 16777215
176
     1
 74
     1
176
     1
 91
        4
176
     1
 64
     7
176
     1
 65
   257
176
     1
 75
     1
176
     1
175
     1
176
     1
 42
1.0
176
     1
 92
        0
176
     1
 66
   257
176
     1
 43
1.0
176
     1
 76
     1
176
     1
 77
     6
176
     1
 78
     2
176
     1
 67
     7
176
     1
 79
     5
176
     1
170
     0
176
     1
171
     0
176
     1
290
     0
176
     1
 93
        1
176
     1
 44
0.0
176
     1
173
     0
176
     1
  0
VISUALSTYLE
  5
32
102
{ACAD_REACTORS
330
2A
102
}
330
2A
100
AcDbVisualStyle
  2
Basic
 70
     7
177
     2
291
     1
 71
     1
176
     1
 72
     0
176
     1
 73
     1
176
     1
 90
        0
176
     1
 40
-0.6
176
     1
 41
-30.0
176
     1
 62
     5
 63
     7
421
 16777215
176
     1
 74
     0
176
     1
 91
        4
176
     1
 64
     7
176
     1
 65
   257
176
     1
 75
     1
176
     1
175
     1
176
     1
 42
1.0
176
     1
 92
        8
176
     1
 66
     7
176
     1
 43
1.0
176
     1
 76
     1
176
     1
 77
     6
176
     1
 78
     2
176
     1
 67
     7
176
     1
 79
     5
176
     1
170
     0
176
     1
171
     0
176
     1
290
     0
176
     1
 93
        1
176
     1
 44
0.0
176
     1
173
     0
176
     1
  0
VISUALSTYLE
  5
36
102
{ACAD_REACTORS
330
2A
102
}
330
2A
100
AcDbVisualStyle
  2
Brighten
 70
    12
177
     2
291
     1
 71
     2
176
     1
 72
     2
176
     1
 73
     0
176
     1
 90
        0
176
     1
 40
-0.6
176
     1
 41
-30.0
176
     1
 62
     5
 63
     7
421
 16777215
176
     1
 74
     1
176
     1
 91
        4
176
     1
 64
     7
176
     1
 65
   257
176
     1
 75
     1
176
     1
175
     1
176
     1
 42
1.0
176
     1
 92
        8
176
     1
 66
     7
176
     1
 43
1.0
176
     1
 76
     1
176
     1
 77
     6
176
     1
 78
     2
176
     1
 67
     7
176
     1
 79
     5
176
     1
170
     0
176
     1
171
     0
176
     1
290
     0
176
     1
 93
        1
176
     1
 44
50.0
176
     1
173
     0
176
     1
  0
VISUALSTYLE
  5
3A
102
{ACAD_REACTORS
330
2A
102
}
330
2A
100
AcDbVisualStyle
  2
ColorChange
 70
    16
177
     2
291
     1
 71
     2
176
     1
 72
     2
176
     1
 73
     3
176
     1
 90
        0
176
     1
 40
-0.6
176
     1
 41
-30.0
176
     1
 62
     5
 63
     8
421
  8421504
176
     1
 74
     1
176
     1
 91
        4
176
     1
 64
     7
176
     1
 65
   257
176
     1
 75
     1
176
     1
175
     1
176
     1
 42
1.0
176
     1
 92
        8
176
     1
 66
     8
424
  8421504
176
     1
 43
1.0
176
     1
 76
     1
176
     1
 77
     6
176
     1
 78
     2
176
     1
 67
     7
176
     1
 79
     5
176
     1
170
     0
176
     1
171
     0
176
     1
290
     0
176
     1
 93
        1
176
     1
 44
0.0
176
     1
173
     0
176
     1
  0
VISUALSTYLE
  5
34
102
{ACAD_REACTORS
330
2A
102
}
330
2A
100
AcDbVisualStyle
  2
Conceptual
 70
     9
177
     2
291
     0
 71
     3
176
     1
 72
     2
176
     1
 73
     0
176
     1
 90
        0
176
     1
 40
-0.6
176
     1
 41
-30.0
176
     1
 62
     5
 63
     7
421
 16777215
176
     1
 74
     2
176
     1
 91
        2
176
     1
 64
     7
176
     1
 65
   257
176
     1
 75
     1
176
     1
175
     1
176
     1
 42
40.0
176
     1
 92
        8
176
     1
 66
     7
176
     1
 43
1.0
176
     1
 76
     1
176
     1
 77
     6
176
     1
 78
     2
176
     1
 67
     7
176
     1
 79
     3
176
     1
170
     0
176
     1
171
     0
176
     1
290
     0
176
     1
 93
        1
176
     1
 44
0.0
176
     1
173
     0
176
     1
  0
VISUALSTYLE
  5
35
102
{ACAD_REACTORS
330
2A
102
}
330
2A
100
AcDbVisualStyle
  2
Dim
 70
    11
177
     2
291
     1
 71
     2
176
     1
 72
     2
176
     1
 73
     0
176
     1
 90
        0
176
     1
 40
-0.6
176
     1
 41
-30.0
176
     1
 62
     5
 63
     7
421
 16777215
176
     1
 74
     1
176
     1
 91
        4
176
     1
 64
     7
176
     1
 65
   257
176
     1
 75
     1
176
     1
175
     1
176
     1
 42
1.0
176
     1
 92
        8
176
     1
 66
     7
176
     1
 43
1.0
176
     1
 76
     1
176
     1
 77
     6
176
     1
 78
     2
176
     1
 67
     7
176
     1
 79
     5
176
     1
170
     0
176
     1
171
     0
176
     1
290
     0
176
     1
 93
        1
176
     1
 44
-50.0
176
     1
173
     0
176
     1
  0
VISUALSTYLE
  5
39
102
{ACAD_REACTORS
330
2A
102
}
330
2A
100
AcDbVisualStyle
  2
Facepattern
 70
    15
177
     2
291
     1
 71
     2
176
     1
 72
     2
176
     1
 73
     0
176
     1
 90
        0
176
     1
 40
-0.6
176
     1
 41
-30.0
176
     1
 62
     5
 63
     7
421
 16777215
176
     1
 74
     1
176
     1
 91
        4
176
     1
 64
     7
176
     1
 65
   257
176
     1
 75
     1
176
     1
175
     1
176
     1
 42
1.0
176
     1
 92
        8
176
     1
 66
     7
176
     1
 43
1.0
176
     1
 76
     1
176
     1
 77
     6
176
     1
 78
     2
176
     1
 67
     7
176
     1
 79
     5
176
     1
170
     0
176
     1
171
     0
176
     1
290
     0
176
     1
 93
        1
176
     1
 44
0.0
176
     1
173
     0
176
     1
  0
VISUALSTYLE
  5
2B
102
{ACAD_REACTORS
330
2A
102
}
330
2A
100
AcDbVisualStyle
  2
Flat
 70
     0
177
     2
291
     1
 71
     2
176
     1
 72
     1
176
     1
 73
     1
176
     1
 90
        2
176
     1
 40
-0.6
176
     1
 41
30.0
176
     1
 62
     5
 63
     7
421
 16777215
176
     1
 74
     0
176
     1
 91
        4
176
     1
 64
     7
176
     1
 65
   257
176
     1
 75
     1
176
     1
175
     1
176
     1
 42
1.0
176
     1
 92
        8
176
     1
 66
     7
176
     1
 43
1.0
176
     1
 76
     1
176
     1
 77
     6
176
     1
 78
     2
176
     1
 67
     7
176
     1
 79
     5
176
     1
170
     0
176
     1
171
     0
176
     1
290
     0
176
     1
 93
       13
176
     1
 44
0.0
176
     1
173
     0
176
     1
  0
VISUALSTYLE
  5
2C
102
{ACAD_REACTORS
330
2A
102
}
330
2A
100
AcDbVisualStyle
  2
FlatWithEdges
 70
     1
177
     2
291
     1
 71
     2
176
     1
 72
     1
176
     1
 73
     1
176
     1
 90
        2
176
     1
 40
-0.6
176
     1
 41
30.0
176
     1
 62
     5
 63
     7
421
 16777215
176
     1
 74
     1
176
     1
 91
        4
176
     1
 64
     7
176
     1
 65
   257
176
     1
 75
     1
176
     1
175
     1
176
     1
 42
1.0
176
     1
 92
        0
176
     1
 66
   257
176
     1
 43
1.0
176
     1
 76
     1
176
     1
 77
     6
176
     1
 78
     2
176
     1
 67
     7
176
     1
 79
     5
176
     1
170
     0
176
     1
171
     0
176
     1
290
     0
176
     1
 93
       13
176
     1
 44
0.0
176
     1
173
     0
176
     1
  0
VISUALSTYLE
  5
2D
102
{ACAD_REACTORS
330
2A
102
}
330
2A
100
AcDbVisualStyle
  2
Gouraud
 70
     2
177
     2
291
     1
 71
     2
176
     1
 72
     2
176
     1
 73
     1
176
     1
 90
        2
176
     1
 40
-0.6
176
     1
 41
30.0
176
     1
 62
     5
 63
     7
421
 16777215
176
     1
 74
     0
176
     1
 91
        4
176
     1
 64
     7
176
     1
 65
   257
176
     1
 75
     1
176
     1
175
     1
176
     1
 42
1.0
176
     1
 92
        0
176
     1
 66
     7
176
     1
 43
1.0
176
     1
 76
     1
176
     1
 77
     6
176
     1
 78
     2
176
     1
 67
     7
176
     1
 79
     5
176
     1
170
     0
176
     1
171
     0
176
     1
290
     0
176
     1
 93
       13
176
     1
 44
0.0
176
     1
173
     0
176
     1
  0
VISUALSTYLE
  5
2E
102
{ACAD_REACTORS
330
2A
102
}
330
2A
100
AcDbVisualStyle
  2
GouraudWithEdges
 70
     3
177
     2
291
     1
 71
     2
176
     1
 72
     2
176
     1
 73
     1
176
     1
 90
        2
176
     1
 40
-0.6
176
     1
 41
30.0
176
     1
 62
     5
 63
     7
421
 16777215
176
     1
 74
     1
176
     1
 91
        4
176
     1
 64
     7
176
     1
 65
   257
176
     1
 75
     1
176
     1
175
     1
176
     1
 42
1.0
176
     1
 92
        0
176
     1
 66
   257
176
     1
 43
1.0
176
     1
 76
     1
176
     1
 77
     6
176
     1
 78
     2
176
     1
 67
     7
176
     1
 79
     5
176
     1
170
     0
176
     1
171
     0
176
     1
290
     0
176
     1
 93
       13
176
     1
 44
0.0
176
     1
173
     0
176
     1
  0
VISUALSTYLE
  5
38
102
{ACAD_REACTORS
330
2A
102
}
330
2A
100
AcDbVisualStyle
  2
Linepattern
 70
    14
177
     2
291
     1
 71
     2
176
     1
 72
     2
176
     1
 73
     0
176
     1
 90
        0
176
     1
 40
-0.6
176
     1
 41
-30.0
176
     1
 62
     5
 63
     7
421
 16777215
176
     1
 74
     1
176
     1
 91
        4
176
     1
 64
     7
176
     1
 65
   257
176
     1
 75
     7
176
     1
175
     7
176
     1
 42
1.0
176
     1
 92
        8
176
     1
 66
     7
176
     1
 43
1.0
176
     1
 76
     1
176
     1
 77
     6
176
     1
 78
     2
176
     1
 67
     7
176
     1
 79
     5
176
     1
170
     0
176
     1
171
     0
176
     1
290
     0
176
     1
 93
        1
176
     1
 44
0.0
176
     1
173
     0
176
     1
  0
VISUALSTYLE
  5
33
102
{ACAD_REACTORS
330
2A
102
}
330
2A
100
AcDbVisualStyle
  2
Realistic
 70
     8
177
     2
291
     0
 71
     2
176
     1
 72
     2
176
     1
 73
     0
176
     1
 90
        0
176
     1
 40
-0.6
176
     1
 41
-30.0
176
     1
 62
     5
 63
     7
421
 16777215
176
     1
 74
     1
176
     1
 91
        0
176
     1
 64
     7
176
     1
 65
   257
176
     1
 75
     1
176
     1
175
     1
176
     1
 42
1.0
176
     1
 92
        8
176
     1
 66
     8
424
  7895160
176
     1
 43
1.0
176
     1
 76
     1
176
     1
 77
     6
176
     1
 78
     2
176
     1
 67
     7
176
     1
 79
     5
176
     1
170
     0
176
     1
171
     0
176
     1
290
     0
176
     1
 93
       13
176
     1
 44
0.0
176
     1
173
     0
176
     1
  0
VISUALSTYLE
  5
37
102
{ACAD_REACTORS
330
2A
102
}
330
2A
100
AcDbVisualStyle
  2
Thicken
 70
    13
177
     2
291
     1
 71
     2
176
     1
 72
     2
176
     1
 73
     0
176
     1
 90
        0
176
     1
 40
-0.6
176
     1
 41
-30.0
176
     1
 62
     5
 63
     7
421
 16777215
176
     1
 74
     1
176
     1
 91
        4
176
     1
 64
     7
176
     1
 65
   257
176
     1
 75
     1
176
     1
175
     1
176
     1
 42
1.0
176
     1
 92
       12
176
     1
 66
     7
176
     1
 43
1.0
176
     1
 76
     1
176
     1
 77
     6
176
     1
 78
     2
176
     1
 67
     7
176
     1
 79
     5
176
     1
170
     0
176
     1
171
     0
176
     1
290
     0
176
     1
 93
        1
176
     1
 44
0.0
176
     1
173
     0
176
     1
  0
ENDSEC
  0
EOF
