  0
SECTION
  2
HEADER
  9
$ACADVER
  1
AC1024
  9
$ACADMAINTVER
 70
     6
  9
$DWGCODEPAGE
  3
UNDEFINED
  9
$INSBASE
 10
0.0
 20
0.0
 30
0.0
  9
$EXTMIN
 10
1.000000000000000E+20
 20
1.000000000000000E+20
 30
1.000000000000000E+20
  9
$EXTMAX
 10
-1.000000000000000E+20
 20
-1.000000000000000E+20
 30
-1.000000000000000E+20
  9
$LIMMIN
 10
0.0
 20
0.0
  9
$LIMMAX
 10
12.0
 20
9.0
  9
$ORTHOMODE
 70
     0
  9
$REGENMODE
 70
     1
  9
$FILLMODE
 70
     1
  9
$QTEXTMODE
 70
     0
  9
$MIRRTEXT
 70
     1
  9
$LTSCALE
 40
1.0
  9
$ATTMODE
 70
     1
  9
$TEXTSIZE
 40
0.2
  9
$TRACEWID
 40
0.05
  9
$TEXTSTYLE
  7
Standard
  9
$CLAYER
  8
0
  9
$CELTYPE
  6
ByLayer
  9
$CECOLOR
 62
   256
  9
$CELTSCALE
 40
1.0
  9
$DISPSILH
 70
     0
  9
$DIMSCALE
 40
1.0
  9
$DIMASZ
 40
0.18
  9
$DIMEXO
 40
0.0625
  9
$DIMDLI
 40
0.38
  9
$DIMRND
 40
0.0
  9
$DIMDLE
 40
0.0
  9
$DIMEXE
 40
0.18
  9
$DIMTP
 40
0.0
  9
$DIMTM
 40
0.0
  9
$DIMTXT
 40
0.18
  9
$DIMCEN
 40
0.09
  9
$DIMTSZ
 40
0.0
  9
$DIMTOL
 70
     0
  9
$DIMLIM
 70
     0
  9
$DIMTIH
 70
     1
  9
$DIMTOH
 70
     1
  9
$DIMSE1
 70
     0
  9
$DIMSE2
 70
     0
  9
$DIMTAD
 70
     0
  9
$DIMZIN
 70
     0
  9
$DIMBLK
  1

  9
$DIMASO
 70
     1
  9
$DIMSHO
 70
     1
  9
$DIMPOST
  1

  9
$DIMAPOST
  1

  9
$DIMALT
 70
     0
  9
$DIMALTD
 70
     2
  9
$DIMALTF
 40
25.4
  9
$DIMLFAC
 40
1.0
  9
$DIMTOFL
 70
     0
  9
$DIMTVP
 40
0.0
  9
$DIMTIX
 70
     0
  9
$DIMSOXD
 70
     0
  9
$DIMSAH
 70
     0
  9
$DIMBLK1
  1

  9
$DIMBLK2
  1

  9
$DIMSTYLE
  2
Standard
  9
$DIMCLRD
 70
     0
  9
$DIMCLRE
 70
     0
  9
$DIMCLRT
 70
     0
  9
$DIMTFAC
 40
1.0
  9
$DIMGAP
 40
0.09
  9
$DIMJUST
 70
     0
  9
$DIMSD1
 70
     0
  9
$DIMSD2
 70
     0
  9
$DIMTOLJ
 70
     1
  9
$DIMTZIN
 70
     0
  9
$DIMALTZ
 70
     0
  9
$DIMALTTZ
 70
     0
  9
$DIMUPT
 70
     0
  9
$DIMDEC
 70
     4
  9
$DIMTDEC
 70
     4
  9
$DIMALTU
 70
     2
  9
$DIMALTTD
 70
     2
  9
$DIMTXSTY
  7
Standard
  9
$DIMAUNIT
 70
     0
  9
$DIMADEC
 70
     0
  9
$DIMALTRND
 40
0.0
  9
$DIMAZIN
 70
     0
  9
$DIMDSEP
 70
    46
  9
$DIMATFIT
 70
     3
  9
$DIMFRAC
 70
     0
  9
$DIMLDRBLK
  1

  9
$DIMLUNIT
 70
     2
  9
$DIMLWD
 70
    -2
  9
$DIMLWE
 70
    -2
  9
$DIMTMOVE
 70
     0
  9
$DIMFXL
 40
1.0
  9
$DIMFXLON
 70
     0
  9
$DIMJOGANG
 40
0.7853981633974483
  9
$DIMTFILL
 70
     0
  9
$DIMTFILLCLR
 70
     0
  9
$DIMARCSYM
 70
     0
  9
$DIMLTYPE
  6

  9
$DIMLTEX1
  6

  9
$DIMLTEX2
  6

  9
$DIMTXTDIRECTION
 70
     0
  9
$LUNITS
 70
     2
  9
$LUPREC
 70
     4
  9
$SKETCHINC
 40
0.1
  9
$FILLETRAD
 40
0.5
  9
$AUNITS
 70
     0
  9
$AUPREC
 70
     0
  9
$MENU
  1
.
  9
$ELEVATION
 40
0.0
  9
$PELEVATION
 40
0.0
  9
$THICKNESS
 40
0.0
  9
$LIMCHECK
 70
     0
  9
$CHAMFERA
 40
0.5
  9
$CHAMFERB
 40
0.5
  9
$CHAMFERC
 40
1.0
  9
$CHAMFERD
 40
0.0
  9
$SKPOLY
 70
     0
  9
$TDCREATE
 40
2457917.58491897
  9
$TDUCREATE
 40
2457917.209918981
  9
$TDUPDATE
 40
2457917.58491897
  9
$TDUUPDATE
 40
2457917.209918981
  9
$TDINDWG
 40
0.0000000116
  9
$TDUSRTIMER
 40
0.0000000116
  9
$USRTIMER
 70
     1
  9
$ANGBASE
 50
0.0
  9
$ANGDIR
 70
     0
  9
$PDMODE
 70
     0
  9
$PDSIZE
 40
0.0
  9
$PLINEWID
 40
0.0
  9
$SPLFRAME
 70
     0
  9
$SPLINETYPE
 70
     6
  9
$SPLINESEGS
 70
     8
  9
$HANDSEED
  5
94
  9
$SURFTAB1
 70
     6
  9
$SURFTAB2
 70
     6
  9
$SURFTYPE
 70
     6
  9
$SURFU
 70
     6
  9
$SURFV
 70
     6
  9
$UCSBASE
  2

  9
$UCSNAME
  2

  9
$UCSORG
 10
0.0
 20
0.0
 30
0.0
  9
$UCSXDIR
 10
1.0
 20
0.0
 30
0.0
  9
$UCSYDIR
 10
0.0
 20
1.0
 30
0.0
  9
$UCSORTHOREF
  2

  9
$UCSORTHOVIEW
 70
     0
  9
$UCSORGTOP
 10
0.0
 20
0.0
 30
0.0
  9
$UCSORGBOTTOM
 10
0.0
 20
0.0
 30
0.0
  9
$UCSORGLEFT
 10
0.0
 20
0.0
 30
0.0
  9
$UCSORGRIGHT
 10
0.0
 20
0.0
 30
0.0
  9
$UCSORGFRONT
 10
0.0
 20
0.0
 30
0.0
  9
$UCSORGBACK
 10
0.0
 20
0.0
 30
0.0
  9
$PUCSBASE
  2

  9
$PUCSNAME
  2

  9
$PUCSORG
 10
0.0
 20
0.0
 30
0.0
  9
$PUCSXDIR
 10
1.0
 20
0.0
 30
0.0
  9
$PUCSYDIR
 10
0.0
 20
1.0
 30
0.0
  9
$PUCSORTHOREF
  2

  9
$PUCSORTHOVIEW
 70
     0
  9
$PUCSORGTOP
 10
0.0
 20
0.0
 30
0.0
  9
$PUCSORGBOTTOM
 10
0.0
 20
0.0
 30
0.0
  9
$PUCSORGLEFT
 10
0.0
 20
0.0
 30
0.0
  9
$PUCSORGRIGHT
 10
0.0
 20
0.0
 30
0.0
  9
$PUCSORGFRONT
 10
0.0
 20
0.0
 30
0.0
  9
$PUCSORGBACK
 10
0.0
 20
0.0
 30
0.0
  9
$USERI1
 70
     0
  9
$USERI2
 70
     0
  9
$USERI3
 70
     0
  9
$USERI4
 70
     0
  9
$USERI5
 70
     0
  9
$USERR1
 40
0.0
  9
$USERR2
 40
0.0
  9
$USERR3
 40
0.0
  9
$USERR4
 40
0.0
  9
$USERR5
 40
0.0
  9
$WORLDVIEW
 70
     1
  9
$SHADEDGE
 70
     3
  9
$SHADEDIF
 70
    70
  9
$TILEMODE
 70
     1
  9
$MAXACTVP
 70
    64
  9
$PINSBASE
 10
0.0
 20
0.0
 30
0.0
  9
$PLIMCHECK
 70
     0
  9
$PEXTMIN
 10
1.000000000000000E+20
 20
1.000000000000000E+20
 30
1.000000000000000E+20
  9
$PEXTMAX
 10
-1.000000000000000E+20
 20
-1.000000000000000E+20
 30
-1.000000000000000E+20
  9
$PLIMMIN
 10
0.0
 20
0.0
  9
$PLIMMAX
 10
12.0
 20
9.0
  9
$UNITMODE
 70
     0
  9
$VISRETAIN
 70
     1
  9
$PLINEGEN
 70
     0
  9
$PSLTSCALE
 70
     1
  9
$TREEDEPTH
 70
  3020
  9
$CMLSTYLE
  2
Standard
  9
$CMLJUST
 70
     0
  9
$CMLSCALE
 40
1.0
  9
$PROXYGRAPHICS
 70
     1
  9
$MEASUREMENT
 70
     0
  9
$CELWEIGHT
370
    -1
  9
$ENDCAPS
280
     0
  9
$JOINSTYLE
280
     0
  9
$LWDISPLAY
290
     1
  9
$INSUNITS
 70
     1
  9
$HYPERLINKBASE
  1

  9
$STYLESHEET
  1

  9
$XEDIT
290
     1
  9
$CEPSNTYPE
380
     0
  9
$PSTYLEMODE
290
     1
  9
$FINGERPRINTGUID
  2
{535FCF75-88F5-44C7-5E87-131B1D3AB027}
  9
$VERSIONGUID
  2
{FAEB1C32-E019-11D5-929B-00C0DF256EC4}
  9
$EXTNAMES
290
     1
  9
$PSVPSCALE
 40
0.0
  9
$OLESTARTUP
290
     0
  9
$SORTENTS
280
   127
  9
$INDEXCTL
280
     0
  9
$HIDETEXT
280
     1
  9
$XCLIPFRAME
280
     2
  9
$HALOGAP
280
     0
  9
$OBSCOLOR
 70
   257
  9
$OBSLTYPE
280
     0
  9
$INTERSECTIONDISPLAY
280
     0
  9
$INTERSECTIONCOLOR
 70
   257
  9
$DIMASSOC
280
     2
  9
$PROJECTNAME
  1

  9
$CAMERADISPLAY
290
     0
  9
$LENSLENGTH
 40
50.0
  9
$CAMERAHEIGHT
 40
0.0
  9
$STEPSPERSEC
 40
2.0
  9
$STEPSIZE
 40
6.0
  9
$3DDWFPREC
 40
2.0
  9
$PSOLWIDTH
 40
0.25
  9
$PSOLHEIGHT
 40
4.0
  9
$LOFTANG1
 40
1.570796326794897
  9
$LOFTANG2
 40
1.570796326794897
  9
$LOFTMAG1
 40
0.0
  9
$LOFTMAG2
 40
0.0
  9
$LOFTPARAM
 70
     7
  9
$LOFTNORMALS
280
     1
  9
$LATITUDE
 40
37.795
  9
$LONGITUDE
 40
-122.394
  9
$NORTHDIRECTION
 40
0.0
  9
$TIMEZONE
 70
 -8000
  9
$LIGHTGLYPHDISPLAY
280
     1
  9
$TILEMODELIGHTSYNCH
280
     1
  9
$CMATERIAL
347
3C
  9
$SOLIDHIST
280
     1
  9
$SHOWHIST
280
     1
  9
$DWFFRAME
280
     2
  9
$DGNFRAME
280
     2
  9
$REALWORLDSCALE
290
     1
  9
$INTERFERECOLOR
 62
   256
  9
$CSHADOW
280
     0
  9
$SHADOWPLANELOCATION
 40
0.0
  0
ENDSEC
  0
SECTION
  2
CLASSES
  0
CLASS
  1
ACDBDICTIONARYWDFLT
  2
AcDbDictionaryWithDefault
  3
ObjectDBX Classes
 90
        0
 91
        4
280
     0
281
     0
  0
CLASS
  1
VISUALSTYLE
  2
AcDbVisualStyle
  3
ObjectDBX Classes
 90
     4095
 91
        4
280
     0
281
     0
  0
CLASS
  1
MATERIAL
  2
AcDbMaterial
  3
ObjectDBX Classes
 90
     1153
 91
        4
280
     0
281
     0
  0
CLASS
  1
SUN
  2
AcDbSun
  3
SCENEOE
 90
     1024
 91
        4
280
     0
281
     0
  0
ENDSEC
  0
SECTION
  2
TABLES
  0
TABLE
  2
VPORT
  5
8
330
0
100
AcDbSymbolTable
 70
     1
  0
VPORT
  5
29
330
8
100
AcDbSymbolTableRecord
100
AcDbViewportTableRecord
  2
*Active
 70
     0
 10
0.0
 20
0.0
 11
1.0
 21
1.0
 12
0.0
 22
0.0
 13
0.0
 23
0.0
 14
0.5
 24
0.5
 15
0.5
 25
0.5
 16
0.0
 26
0.0
 36
1.0
 17
91.00082462281999
 27
-128.4993055234307
 37
0.0
 40
256.9986110468615
 41
0.7081814508812795
 42
50.0
 43
0.0
 44
0.0
 50
0.0
 51
0.0
 71
     0
 72
   100
 73
     1
 74
     3
 75
     0
 76
     0
 77
     0
 78
     0
281
     0
 65
     1
110
0.0
120
0.0
130
0.0
111
1.0
121
0.0
131
0.0
112
0.0
122
1.0
132
0.0
 79
     0
146
0.0
 60
     3
 61
     5
292
     1
282
     1
141
0.0
142
0.0
 63
   250
361
3F
  0
ENDTAB
  0
TABLE
  2
LTYPE
  5
5
330
0
100
AcDbSymbolTable
 70
     1
  0
LTYPE
  5
14
330
5
100
AcDbSymbolTableRecord
100
AcDbLinetypeTableRecord
  2
ByBlock
 70
     0
  3

 72
    65
 73
     0
 40
0.0
  0
LTYPE
  5
15
330
5
100
AcDbSymbolTableRecord
100
AcDbLinetypeTableRecord
  2
ByLayer
 70
     0
  3

 72
    65
 73
     0
 40
0.0
  0
LTYPE
  5
16
330
5
100
AcDbSymbolTableRecord
100
AcDbLinetypeTableRecord
  2
Continuous
 70
     0
  3
Solid line
 72
    65
 73
     0
 40
0.0
  0
ENDTAB
  0
TABLE
  2
LAYER
  5
2
330
0
100
AcDbSymbolTable
 70
     2
  0
LAYER
  5
10
330
2
100
AcDbSymbolTableRecord
100
AcDbLayerTableRecord
  2
0
 70
     0
 62
     7
  6
Continuous
370
    -3
390
F
347
3E
  0
LAYER
  5
40
330
2
100
AcDbSymbolTableRecord
100
AcDbLayerTableRecord
  2
_U+30EC_U+30A4_U+30E4_U+30FC 1
 70
     0
 62
     7
  6
Continuous
370
    -3
390
F
347
3E
  0
ENDTAB
  0
TABLE
  2
STYLE
  5
3
330
0
100
AcDbSymbolTable
 70
     1
  0
STYLE
  5
11
330
3
100
AcDbSymbolTableRecord
100
AcDbTextStyleTableRecord
  2
Standard
 70
     0
 40
0.0
 41
1.0
 50
0.0
 71
     0
 42
0.2
  3
txt
  4

  0
ENDTAB
  0
TABLE
  2
VIEW
  5
6
330
0
100
AcDbSymbolTable
 70
     0
  0
ENDTAB
  0
TABLE
  2
UCS
  5
7
330
0
100
AcDbSymbolTable
 70
     0
  0
ENDTAB
  0
TABLE
  2
APPID
  5
9
330
0
100
AcDbSymbolTable
 70
     1
  0
APPID
  5
12
330
9
100
AcDbSymbolTableRecord
100
AcDbRegAppTableRecord
  2
ACAD
 70
     0
  0
ENDTAB
  0
TABLE
  2
DIMSTYLE
  5
A
330
0
100
AcDbSymbolTable
 70
     1
100
AcDbDimStyleTable
  0
DIMSTYLE
105
27
330
A
100
AcDbSymbolTableRecord
100
AcDbDimStyleTableRecord
  2
Standard
 70
     0
178
     0
340
11
  0
ENDTAB
  0
TABLE
  2
BLOCK_RECORD
  5
1
330
0
100
AcDbSymbolTable
 70
     6
  0
BLOCK_RECORD
  5
1F
330
1
100
AcDbSymbolTableRecord
100
AcDbBlockTableRecord
  2
*Model_Space
340
22
 70
     0
280
     1
281
     0
  0
BLOCK_RECORD
  5
1B
330
1
100
AcDbSymbolTableRecord
100
AcDbBlockTableRecord
  2
*Paper_Space
340
1E
 70
     0
280
     1
281
     0
  0
BLOCK_RECORD
  5
23
330
1
100
AcDbSymbolTableRecord
100
AcDbBlockTableRecord
  2
*Paper_Space0
340
26
 70
     0
280
     1
281
     0
  0
BLOCK_RECORD
  5
41
330
1
100
AcDbSymbolTableRecord
100
AcDbBlockTableRecord
  2
block 2
340
0
102
{BLKREFS
331
42
102
}
 70
     0
280
     1
281
     0
  0
BLOCK_RECORD
  5
55
330
1
100
AcDbSymbolTableRecord
100
AcDbBlockTableRecord
  2
block 3
340
0
102
{BLKREFS
331
56
102
}
 70
     0
280
     1
281
     0
  0
BLOCK_RECORD
  5
5D
330
1
100
AcDbSymbolTableRecord
100
AcDbBlockTableRecord
  2
block 4
340
0
102
{BLKREFS
331
5E
102
}
 70
     0
280
     1
281
     0
  0
BLOCK_RECORD
  5
72
330
1
100
AcDbSymbolTableRecord
100
AcDbBlockTableRecord
  2
block 5
340
0
102
{BLKREFS
331
73
102
}
 70
     0
280
     1
281
     0
  0
BLOCK_RECORD
  5
84
330
1
100
AcDbSymbolTableRecord
100
AcDbBlockTableRecord
  2
block 6
340
0
102
{BLKREFS
331
85
102
}
 70
     0
280
     1
281
     0
  0
ENDTAB
  0
ENDSEC
  0
SECTION
  2
BLOCKS
  0
BLOCK
  5
20
330
1F
100
AcDbEntity
  8
0
100
AcDbBlockBegin
  2
*Model_Space
 70
     0
 10
0.0
 20
0.0
 30
0.0
  3
*Model_Space
  1

  0
ENDBLK
  5
21
330
1F
100
AcDbEntity
  8
0
100
AcDbBlockEnd
  0
BLOCK
  5
1C
330
1B
100
AcDbEntity
 67
     1
  8
0
100
AcDbBlockBegin
  2
*Paper_Space
 70
     0
 10
0.0
 20
0.0
 30
0.0
  3
*Paper_Space
  1

  0
ENDBLK
  5
1D
330
1B
100
AcDbEntity
 67
     1
  8
0
100
AcDbBlockEnd
  0
BLOCK
  5
24
330
23
100
AcDbEntity
  8
0
100
AcDbBlockBegin
  2
*Paper_Space0
 70
     0
 10
0.0
 20
0.0
 30
0.0
  3
*Paper_Space0
  1

  0
ENDBLK
  5
25
330
23
100
AcDbEntity
  8
0
100
AcDbBlockEnd
  0
BLOCK
  5
43
330
41
100
AcDbEntity
  8
0
100
AcDbBlockBegin
  2
block 2
 70
     0
 10
0.0
 20
0.0
 30
0.0
  3
block 2
  1

  0
POLYLINE
  5
45
330
41
100
AcDbEntity
  8
_U+30EC_U+30A4_U+30E4_U+30FC 1
 62
   179
420
  2234388
370
     9
100
AcDb2dPolyline
 66
     1
 10
0.0
 20
0.0
 30
0.0
  0
VERTEX
  5
46
330
45
100
AcDbEntity
  8
_U+30EC_U+30A4_U+30E4_U+30FC 1
 62
   179
420
  2234388
370
     9
100
AcDbVertex
100
AcDb2dVertex
 10
90.87093184835605
 20
-153.4263010727546
 30
0.0
  0
VERTEX
  5
47
330
45
100
AcDbEntity
  8
_U+30EC_U+30A4_U+30E4_U+30FC 1
 62
   179
420
  2234388
370
     9
100
AcDbVertex
100
AcDb2dVertex
 10
115.7782770462501
 20
-153.4263010727546
 30
0.0
  0
SEQEND
  5
48
330
45
100
AcDbEntity
  8
_U+30EC_U+30A4_U+30E4_U+30FC 1
 62
   179
420
  2234388
370
     9
  0
POLYLINE
  5
49
330
41
100
AcDbEntity
  8
_U+30EC_U+30A4_U+30E4_U+30FC 1
 62
   179
420
  2234388
370
     9
100
AcDb2dPolyline
 66
     1
 10
0.0
 20
0.0
 30
0.0
  0
VERTEX
  5
4A
330
49
100
AcDbEntity
  8
_U+30EC_U+30A4_U+30E4_U+30FC 1
 62
   179
420
  2234388
370
     9
100
AcDbVertex
100
AcDb2dVertex
 10
90.87093184835605
 20
-151.3792021843776
 30
0.0
  0
VERTEX
  5
4B
330
49
100
AcDbEntity
  8
_U+30EC_U+30A4_U+30E4_U+30FC 1
 62
   179
420
  2234388
370
     9
100
AcDbVertex
100
AcDb2dVertex
 10
90.87093184835605
 20
-154.4222632947281
 30
0.0
  0
SEQEND
  5
4C
330
49
100
AcDbEntity
  8
_U+30EC_U+30A4_U+30E4_U+30FC 1
 62
   179
420
  2234388
370
     9
  0
POLYLINE
  5
4D
330
41
100
AcDbEntity
  8
_U+30EC_U+30A4_U+30E4_U+30FC 1
 62
   179
420
  2234388
370
     9
100
AcDb2dPolyline
 66
     1
 10
0.0
 20
0.0
 30
0.0
  0
VERTEX
  5
4E
330
4D
100
AcDbEntity
  8
_U+30EC_U+30A4_U+30E4_U+30FC 1
 62
   179
420
  2234388
370
     9
100
AcDbVertex
100
AcDb2dVertex
 10
115.6783703821322
 20
-136.4006457992329
 30
0.0
  0
VERTEX
  5
4F
330
4D
100
AcDbEntity
  8
_U+30EC_U+30A4_U+30E4_U+30FC 1
 62
   179
420
  2234388
370
     9
100
AcDbVertex
100
AcDb2dVertex
 10
115.6783703821322
 20
-154.4222632947281
 30
0.0
  0
SEQEND
  5
50
330
4D
100
AcDbEntity
  8
_U+30EC_U+30A4_U+30E4_U+30FC 1
 62
   179
420
  2234388
370
     9
  0
POLYLINE
  5
51
330
41
100
AcDbEntity
  8
_U+30EC_U+30A4_U+30E4_U+30FC 1
 62
   179
420
  2234388
370
     9
100
AcDb2dPolyline
 66
     1
 10
0.0
 20
0.0
 30
0.0
  0
VERTEX
  5
52
330
51
100
AcDbEntity
  8
_U+30EC_U+30A4_U+30E4_U+30FC 1
 62
   179
420
  2234388
370
     9
100
AcDbVertex
100
AcDb2dVertex
 10
100.741124652102
 20
-151.5724891287736
 30
0.0
  0
VERTEX
  5
53
330
51
100
AcDbEntity
  8
_U+30EC_U+30A4_U+30E4_U+30FC 1
 62
   179
420
  2234388
370
     9
100
AcDbVertex
100
AcDb2dVertex
 10
100.741124652102
 20
-154.4222632947281
 30
0.0
  0
SEQEND
  5
54
330
51
100
AcDbEntity
  8
_U+30EC_U+30A4_U+30E4_U+30FC 1
 62
   179
420
  2234388
370
     9
  0
INSERT
  5
56
330
41
100
AcDbEntity
  8
_U+30EC_U+30A4_U+30E4_U+30FC 1
100
AcDbBlockReference
  2
block 3
 10
0.0
 20
0.0
 30
0.0
  0
INSERT
  5
5E
330
41
100
AcDbEntity
  8
_U+30EC_U+30A4_U+30E4_U+30FC 1
100
AcDbBlockReference
  2
block 4
 10
0.0
 20
0.0
 30
0.0
  0
POLYLINE
  5
66
330
41
100
AcDbEntity
  8
_U+30EC_U+30A4_U+30E4_U+30FC 1
 62
   179
420
  2234388
370
     9
100
AcDb2dPolyline
 66
     1
 10
0.0
 20
0.0
 30
0.0
  0
VERTEX
  5
67
330
66
100
AcDbEntity
  8
_U+30EC_U+30A4_U+30E4_U+30FC 1
 62
   179
420
  2234388
370
     9
100
AcDbVertex
100
AcDb2dVertex
 10
66.86930829402182
 20
-130.4826574673795
 30
0.0
  0
VERTEX
  5
68
330
66
100
AcDbEntity
  8
_U+30EC_U+30A4_U+30E4_U+30FC 1
 62
   179
420
  2234388
370
     9
100
AcDbVertex
100
AcDb2dVertex
 10
88.0507910869705
 20
-151.570760517663
 30
0.0
  0
SEQEND
  5
69
330
66
100
AcDbEntity
  8
_U+30EC_U+30A4_U+30E4_U+30FC 1
 62
   179
420
  2234388
370
     9
  0
POLYLINE
  5
6A
330
41
100
AcDbEntity
  8
_U+30EC_U+30A4_U+30E4_U+30FC 1
 62
   179
420
  2234388
370
     9
100
AcDb2dPolyline
 66
     1
 10
0.0
 20
0.0
 30
0.0
  0
VERTEX
  5
6B
330
6A
100
AcDbEntity
  8
_U+30EC_U+30A4_U+30E4_U+30FC 1
 62
   179
420
  2234388
370
     9
100
AcDbVertex
100
AcDb2dVertex
 10
68.31382742383573
 20
-129.0319294121864
 30
0.0
  0
VERTEX
  5
6C
330
6A
100
AcDbEntity
  8
_U+30EC_U+30A4_U+30E4_U+30FC 1
 62
   179
420
  2234388
370
     9
100
AcDbVertex
100
AcDb2dVertex
 10
66.16650442306295
 20
-131.1885305227583
 30
0.0
  0
SEQEND
  5
6D
330
6A
100
AcDbEntity
  8
_U+30EC_U+30A4_U+30E4_U+30FC 1
 62
   179
420
  2234388
370
     9
  0
POLYLINE
  5
6E
330
41
100
AcDbEntity
  8
_U+30EC_U+30A4_U+30E4_U+30FC 1
 62
   179
420
  2234388
370
     9
100
AcDb2dPolyline
 66
     1
 10
0.0
 20
0.0
 30
0.0
  0
VERTEX
  5
6F
330
6E
100
AcDbEntity
  8
_U+30EC_U+30A4_U+30E4_U+30FC 1
 62
   179
420
  2234388
370
     9
100
AcDbVertex
100
AcDb2dVertex
 10
89.31514661026966
 20
-150.2144357957799
 30
0.0
  0
VERTEX
  5
70
330
6E
100
AcDbEntity
  8
_U+30EC_U+30A4_U+30E4_U+30FC 1
 62
   179
420
  2234388
370
     9
100
AcDbVertex
100
AcDb2dVertex
 10
87.30526582821267
 20
-152.2339474619416
 30
0.0
  0
SEQEND
  5
71
330
6E
100
AcDbEntity
  8
_U+30EC_U+30A4_U+30E4_U+30FC 1
 62
   179
420
  2234388
370
     9
  0
INSERT
  5
73
330
41
100
AcDbEntity
  8
_U+30EC_U+30A4_U+30E4_U+30FC 1
100
AcDbBlockReference
  2
block 5
 10
0.0
 20
0.0
 30
0.0
  0
SPLINE
  5
7B
330
41
100
AcDbEntity
  8
_U+30EC_U+30A4_U+30E4_U+30FC 1
 62
     7
420
 16777215
370
    25
100
AcDbSpline
210
0.0
220
0.0
230
1.0
 70
    11
 71
     3
 72
    89
 73
    85
 74
     0
 42
0.0000000001
 43
0.0000000001
 12
1.0
 22
0.0
 32
0.0
 13
1.0
 23
0.0
 33
0.0
 40
0.0
 40
0.0
 40
0.0
 40
0.0
 40
1.0
 40
1.0
 40
1.0
 40
2.0
 40
2.0
 40
2.0
 40
3.0
 40
3.0
 40
3.0
 40
4.0
 40
4.0
 40
4.0
 40
5.0
 40
5.0
 40
5.0
 40
6.0
 40
6.0
 40
6.0
 40
7.0
 40
7.0
 40
7.0
 40
8.0
 40
8.0
 40
8.0
 40
9.0
 40
9.0
 40
9.0
 40
10.0
 40
10.0
 40
10.0
 40
11.0
 40
11.0
 40
11.0
 40
12.0
 40
12.0
 40
12.0
 40
13.0
 40
13.0
 40
13.0
 40
14.0
 40
14.0
 40
14.0
 40
15.0
 40
15.0
 40
15.0
 40
16.0
 40
16.0
 40
16.0
 40
17.0
 40
17.0
 40
17.0
 40
18.0
 40
18.0
 40
18.0
 40
19.0
 40
19.0
 40
19.0
 40
20.0
 40
20.0
 40
20.0
 40
21.0
 40
21.0
 40
21.0
 40
22.0
 40
22.0
 40
22.0
 40
23.0
 40
23.0
 40
23.0
 40
24.0
 40
24.0
 40
24.0
 40
25.0
 40
25.0
 40
25.0
 40
26.0
 40
26.0
 40
26.0
 40
27.0
 40
27.0
 40
27.0
 40
28.0
 40
28.0
 40
28.0
 40
28.0
 10
82.06595151743426
 20
-102.6142360854576
 30
0.0
 10
82.06595151743426
 20
-102.6142360854576
 30
0.0
 10
82.94447399502128
 20
-102.6142360854576
 30
0.0
 10
82.94447399502128
 20
-102.6142360854576
 30
0.0
 10
82.94447399502128
 20
-102.6142360854576
 30
0.0
 10
82.94447399502128
 20
-116.8490310818988
 30
0.0
 10
82.94447399502128
 20
-116.8490310818988
 30
0.0
 10
82.94447399502128
 20
-116.8490310818988
 30
0.0
 10
83.25244898716419
 20
-118.2990535815364
 30
0.0
 10
81.80242652415734
 20
-118.3424805259699
 30
0.0
 10
81.80242652415734
 20
-118.3424805259699
 30
0.0
 10
70.99444457766971
 20
-118.3424805259699
 30
0.0
 10
70.99444457766971
 20
-118.3424805259699
 30
0.0
 10
70.99444457766971
 20
-118.3424805259699
 30
0.0
 10
70.24722776021605
 20
-118.4306749703923
 30
0.0
 10
70.24722776021605
 20
-119.0457783035718
 30
0.0
 10
70.24722776021605
 20
-119.0457783035718
 30
0.0
 10
70.24722776021605
 20
-126.5149305239268
 30
0.0
 10
70.24722776021605
 20
-126.5149305239268
 30
0.0
 10
70.24722776021605
 20
-126.5149305239268
 30
0.0
 10
70.29132498242724
 20
-127.4371974681408
 30
0.0
 10
70.95034735657251
 20
-127.9646355235645
 30
0.0
 10
70.95034735657251
 20
-127.9646355235645
 30
0.0
 10
90.36931942185211
 20
-146.8123880188522
 30
0.0
 10
90.36931942185211
 20
-146.8123880188522
 30
0.0
 10
90.36931942185211
 20
-146.8123880188522
 30
0.0
 10
90.63323018775367
 20
-147.5589363519991
 30
0.0
 10
92.17112959296303
 20
-147.5589363519991
 30
0.0
 10
92.17112959296303
 20
-147.5589363519991
 30
0.0
 10
98.80497442371954
 20
-147.5589363519991
 30
0.0
 10
98.80497442371954
 20
-147.5589363519991
 30
0.0
 10
98.80497442371954
 20
-147.5589363519991
 30
0.0
 10
99.94808022788982
 20
-147.8232021852667
 30
0.0
 10
99.94808022788982
 20
-146.6370574633407
 30
0.0
 10
99.94808022788982
 20
-146.6370574633407
 30
0.0
 10
99.77169134350099
 20
-135.4770030216864
 30
0.0
 10
99.77169134350099
 20
-135.4770030216864
 30
0.0
 10
99.77169134350099
 20
-135.4770030216864
 30
0.0
 10
99.59597273687282
 20
-134.4668944108275
 30
0.0
 10
101.2654935276131
 20
-134.4668944108275
 30
0.0
 10
101.2654935276131
 20
-134.4668944108275
 30
0.0
 10
115.4124112222508
 20
-134.3786999664051
 30
0.0
 10
115.4124112222508
 20
-134.3786999664051
 30
0.0
 10
115.4124112222508
 20
-134.3786999664051
 30
0.0
 10
115.4124112222508
 20
-135.2575399661855
 30
0.0
 10
115.4124112222508
 20
-135.2575399661855
 30
0.0
 10
115.4124112222508
 20
-135.2575399661855
 30
0.0
 10
101.6602871286522
 20
-135.2575399661855
 30
0.0
 10
101.6602871286522
 20
-135.2575399661855
 30
0.0
 10
101.6602871286522
 20
-135.2575399661855
 30
0.0
 10
100.6067868777515
 20
-135.1696982995409
 30
0.0
 10
100.6067868777515
 20
-136.1801596881769
 30
0.0
 10
100.6067868777515
 20
-136.1801596881769
 30
0.0
 10
100.6067868777515
 20
-146.6804491299964
 30
0.0
 10
100.6067868777515
 20
-146.6804491299964
 30
0.0
 10
100.6067868777515
 20
-146.6804491299964
 30
0.0
 10
100.9140915921337
 20
-148.2620930184902
 30
0.0
 10
99.42028940802155
 20
-148.2620930184902
 30
0.0
 10
99.42028940802155
 20
-148.2620930184902
 30
0.0
 10
91.8638248785808
 20
-148.2620930184902
 30
0.0
 10
91.8638248785808
 20
-148.2620930184902
 30
0.0
 10
91.8638248785808
 20
-148.2620930184902
 30
0.0
 10
90.80891351660495
 20
-148.7016894072693
 30
0.0
 10
89.79884020904072
 20
-147.427350240921
 30
0.0
 10
89.79884020904072
 20
-147.427350240921
 30
0.0
 10
70.07150737899359
 20
-128.2278430234985
 30
0.0
 10
70.07150737899359
 20
-128.2278430234985
 30
0.0
 10
70.07150737899359
 20
-128.2278430234985
 30
0.0
 10
69.54442211466286
 20
-128.0962216346426
 30
0.0
 10
69.4572507279979
 20
-126.3826388572932
 30
0.0
 10
69.4572507279979
 20
-126.3826388572932
 30
0.0
 10
69.4572507279979
 20
-118.6063583036819
 30
0.0
 10
69.4572507279979
 20
-118.6063583036819
 30
0.0
 10
69.4572507279979
 20
-118.6063583036819
 30
0.0
 10
69.28121462137786
 20
-117.6834210816902
 30
0.0
 10
70.68682236329559
 20
-117.5957558039345
 30
0.0
 10
70.68682236329559
 20
-117.5957558039345
 30
0.0
 10
81.3631476464754
 20
-117.3762927484336
 30
0.0
 10
81.3631476464754
 20
-117.3762927484336
 30
0.0
 10
81.3631476464754
 20
-117.3762927484336
 30
0.0
 10
82.28541664609531
 20
-117.5520113595011
 30
0.0
 10
82.28541664609531
 20
-116.6733124708317
 30
0.0
 10
82.28541664609531
 20
-116.6733124708317
 30
0.0
 10
82.06595151743426
 20
-102.6142360854576
 30
0.0
 10
82.06595151743426
 20
-102.6142360854576
 30
0.0
  0
POLYLINE
  5
7C
330
41
100
AcDbEntity
  8
_U+30EC_U+30A4_U+30E4_U+30FC 1
 62
   179
420
  2234388
370
     9
100
AcDb2dPolyline
 66
     1
 10
0.0
 20
0.0
 30
0.0
  0
VERTEX
  5
7D
330
7C
100
AcDbEntity
  8
_U+30EC_U+30A4_U+30E4_U+30FC 1
 62
   179
420
  2234388
370
     9
100
AcDbVertex
100
AcDb2dVertex
 10
108.0350872437953
 20
-135.3154307995044
 30
0.0
  0
VERTEX
  5
7E
330
7C
100
AcDbEntity
  8
_U+30EC_U+30A4_U+30E4_U+30FC 1
 62
   179
420
  2234388
370
     9
100
AcDbVertex
100
AcDb2dVertex
 10
108.0350872437953
 20
-148.2675963518218
 30
0.0
  0
SEQEND
  5
7F
330
7C
100
AcDbEntity
  8
_U+30EC_U+30A4_U+30E4_U+30FC 1
 62
   179
420
  2234388
370
     9
  0
POLYLINE
  5
80
330
41
100
AcDbEntity
  8
_U+30EC_U+30A4_U+30E4_U+30FC 1
 62
   179
420
  2234388
370
     9
100
AcDb2dPolyline
 66
     1
 10
0.0
 20
0.0
 30
0.0
  0
VERTEX
  5
81
330
80
100
AcDbEntity
  8
_U+30EC_U+30A4_U+30E4_U+30FC 1
 62
   179
420
  2234388
370
     9
100
AcDbVertex
100
AcDb2dVertex
 10
101.7188482382693
 20
-148.2675963518218
 30
0.0
  0
VERTEX
  5
82
330
80
100
AcDbEntity
  8
_U+30EC_U+30A4_U+30E4_U+30FC 1
 62
   179
420
  2234388
370
     9
100
AcDbVertex
100
AcDb2dVertex
 10
109.0314022183772
 20
-148.2675963518218
 30
0.0
  0
SEQEND
  5
83
330
80
100
AcDbEntity
  8
_U+30EC_U+30A4_U+30E4_U+30FC 1
 62
   179
420
  2234388
370
     9
  0
INSERT
  5
85
330
41
100
AcDbEntity
  8
_U+30EC_U+30A4_U+30E4_U+30FC 1
100
AcDbBlockReference
  2
block 6
 10
0.0
 20
0.0
 30
0.0
  0
SPLINE
  5
8C
330
41
100
AcDbEntity
  8
_U+30EC_U+30A4_U+30E4_U+30FC 1
 62
   179
420
  2234388
370
     9
100
AcDbSpline
210
0.0
220
0.0
230
1.0
 70
    11
 71
     3
 72
    17
 73
    13
 74
     0
 42
0.0000000001
 43
0.0000000001
 12
1.0
 22
0.0
 32
0.0
 13
1.0
 23
0.0
 33
0.0
 40
0.0
 40
0.0
 40
0.0
 40
0.0
 40
1.0
 40
1.0
 40
1.0
 40
2.0
 40
2.0
 40
2.0
 40
3.0
 40
3.0
 40
3.0
 40
4.0
 40
4.0
 40
4.0
 40
4.0
 10
88.00806969917153
 20
-151.6262171843156
 30
0.0
 10
88.06871219762441
 20
-151.6262171843156
 30
0.0
 10
88.11898302967523
 20
-151.5766166287723
 30
0.0
 10
88.11898302967523
 20
-151.5149510732325
 30
0.0
 10
88.11898302967523
 20
-151.4543085732473
 30
0.0
 10
88.06871219762441
 20
-151.4040377399265
 30
0.0
 10
88.00806969917153
 20
-151.4040377399265
 30
0.0
 10
87.94675692295797
 20
-151.4040377399265
 30
0.0
 10
87.89782664642851
 20
-151.4543085732473
 30
0.0
 10
87.89782664642851
 20
-151.5149510732325
 30
0.0
 10
87.89782664642851
 20
-151.5766166287723
 30
0.0
 10
87.94675692295797
 20
-151.6262171843156
 30
0.0
 10
88.00806969917153
 20
-151.6262171843156
 30
0.0
  0
SPLINE
  5
8D
330
41
100
AcDbEntity
  8
_U+30EC_U+30A4_U+30E4_U+30FC 1
 62
   179
420
  2234388
370
     9
100
AcDbSpline
210
0.0
220
0.0
230
1.0
 70
    11
 71
     3
 72
    17
 73
    13
 74
     0
 42
0.0000000001
 43
0.0000000001
 12
1.0
 22
0.0
 32
0.0
 13
1.0
 23
0.0
 33
0.0
 40
0.0
 40
0.0
 40
0.0
 40
0.0
 40
1.0
 40
1.0
 40
1.0
 40
2.0
 40
2.0
 40
2.0
 40
3.0
 40
3.0
 40
3.0
 40
4.0
 40
4.0
 40
4.0
 40
4.0
 10
90.87230768165429
 20
-153.5193285727311
 30
0.0
 10
90.93295018010717
 20
-153.5193285727311
 30
0.0
 10
90.98255073439731
 20
-153.470045517188
 30
0.0
 10
90.98255073439731
 20
-153.4087327394254
 30
0.0
 10
90.98255073439731
 20
-153.347737461663
 30
0.0
 10
90.93295018010717
 20
-153.2981369061196
 30
0.0
 10
90.87230768165429
 20
-153.2981369061196
 30
0.0
 10
90.8109971995196
 20
-153.2981369061196
 30
0.0
 10
90.76139435115059
 20
-153.347737461663
 30
0.0
 10
90.76139435115059
 20
-153.4087327394254
 30
0.0
 10
90.76139435115059
 20
-153.470045517188
 30
0.0
 10
90.8109971995196
 20
-153.5193285727311
 30
0.0
 10
90.87230768165429
 20
-153.5193285727311
 30
0.0
  0
SPLINE
  5
8E
330
41
100
AcDbEntity
  8
_U+30EC_U+30A4_U+30E4_U+30FC 1
 62
   179
420
  2234388
370
     9
100
AcDbSpline
210
0.0
220
0.0
230
1.0
 70
    11
 71
     3
 72
    17
 73
    13
 74
     0
 42
0.0000000001
 43
0.0000000001
 12
1.0
 22
0.0
 32
0.0
 13
1.0
 23
0.0
 33
0.0
 40
0.0
 40
0.0
 40
0.0
 40
0.0
 40
1.0
 40
1.0
 40
1.0
 40
2.0
 40
2.0
 40
2.0
 40
3.0
 40
3.0
 40
3.0
 40
4.0
 40
4.0
 40
4.0
 40
4.0
 10
100.7652546514864
 20
-153.5193285727311
 30
0.0
 10
100.8265674277
 20
-153.5193285727311
 30
0.0
 10
100.8761679819901
 20
-153.470045517188
 30
0.0
 10
100.8761679819901
 20
-153.4087327394254
 30
0.0
 10
100.8761679819901
 20
-153.347737461663
 30
0.0
 10
100.8265674277
 20
-153.2981369061196
 30
0.0
 10
100.7652546514864
 20
-153.2981369061196
 30
0.0
 10
100.7046121530335
 20
-153.2981369061196
 30
0.0
 10
100.6550115987434
 20
-153.347737461663
 30
0.0
 10
100.6550115987434
 20
-153.4087327394254
 30
0.0
 10
100.6550115987434
 20
-153.470045517188
 30
0.0
 10
100.7046121530335
 20
-153.5193285727311
 30
0.0
 10
100.7652546514864
 20
-153.5193285727311
 30
0.0
  0
SPLINE
  5
8F
330
41
100
AcDbEntity
  8
_U+30EC_U+30A4_U+30E4_U+30FC 1
 62
   179
420
  2234388
370
     9
100
AcDbSpline
210
0.0
220
0.0
230
1.0
 70
    11
 71
     3
 72
    17
 73
    13
 74
     0
 42
0.0000000001
 43
0.0000000001
 12
1.0
 22
0.0
 32
0.0
 13
1.0
 23
0.0
 33
0.0
 40
0.0
 40
0.0
 40
0.0
 40
0.0
 40
1.0
 40
1.0
 40
1.0
 40
2.0
 40
2.0
 40
2.0
 40
3.0
 40
3.0
 40
3.0
 40
4.0
 40
4.0
 40
4.0
 40
4.0
 10
115.7031706592773
 20
-153.5193285727311
 30
0.0
 10
115.7645187132677
 20
-153.5193285727311
 30
0.0
 10
115.8141221932685
 20
-153.470045517188
 30
0.0
 10
115.8141221932685
 20
-153.4087327394254
 30
0.0
 10
115.8141221932685
 20
-153.347737461663
 30
0.0
 10
115.7645187132677
 20
-153.2981369061196
 30
0.0
 10
115.7031706592773
 20
-153.2981369061196
 30
0.0
 10
115.6425634386013
 20
-153.2981369061196
 30
0.0
 10
115.5929305266576
 20
-153.347737461663
 30
0.0
 10
115.5929305266576
 20
-153.4087327394254
 30
0.0
 10
115.5929305266576
 20
-153.470045517188
 30
0.0
 10
115.6425634386013
 20
-153.5193285727311
 30
0.0
 10
115.7031706592773
 20
-153.5193285727311
 30
0.0
  0
SPLINE
  5
90
330
41
100
AcDbEntity
  8
_U+30EC_U+30A4_U+30E4_U+30FC 1
 62
   179
420
  2234388
370
     9
100
AcDbSpline
210
0.0
220
0.0
230
1.0
 70
    11
 71
     3
 72
    17
 73
    13
 74
     0
 42
0.0000000001
 43
0.0000000001
 12
1.0
 22
0.0
 32
0.0
 13
1.0
 23
0.0
 33
0.0
 40
0.0
 40
0.0
 40
0.0
 40
0.0
 40
1.0
 40
1.0
 40
1.0
 40
2.0
 40
2.0
 40
2.0
 40
3.0
 40
3.0
 40
3.0
 40
4.0
 40
4.0
 40
4.0
 40
4.0
 10
108.0557600210457
 20
-148.3451369073582
 30
0.0
 10
108.1164025194985
 20
-148.3451369073582
 30
0.0
 10
108.1667086293263
 20
-148.2955010740373
 30
0.0
 10
108.1667086293263
 20
-148.2341882962747
 30
0.0
 10
108.1667086293263
 20
-148.1732282962898
 30
0.0
 10
108.1164025194985
 20
-148.1232749629693
 30
0.0
 10
108.0557600210457
 20
-148.1232749629693
 30
0.0
 10
107.9944499730015
 20
-148.1232749629693
 30
0.0
 10
107.944846690542
 20
-148.1732282962898
 30
0.0
 10
107.944846690542
 20
-148.2341882962747
 30
0.0
 10
107.944846690542
 20
-148.2955010740373
 30
0.0
 10
107.9944499730015
 20
-148.3451369073582
 30
0.0
 10
108.0557600210457
 20
-148.3451369073582
 30
0.0
  0
SPLINE
  5
91
330
41
100
AcDbEntity
  8
_U+30EC_U+30A4_U+30E4_U+30FC 1
 62
   179
420
  2234388
370
     9
100
AcDbSpline
210
0.0
220
0.0
230
1.0
 70
    11
 71
     3
 72
    17
 73
    13
 74
     0
 42
0.0000000001
 43
0.0000000001
 12
1.0
 22
0.0
 32
0.0
 13
1.0
 23
0.0
 33
0.0
 40
0.0
 40
0.0
 40
0.0
 40
0.0
 40
1.0
 40
1.0
 40
1.0
 40
2.0
 40
2.0
 40
2.0
 40
3.0
 40
3.0
 40
3.0
 40
4.0
 40
4.0
 40
4.0
 40
4.0
 10
66.88722940467572
 20
-130.6349163562303
 30
0.0
 10
66.94783662535173
 20
-130.6349163562303
 30
0.0
 10
66.9977916499172
 20
-130.5853158006869
 30
0.0
 10
66.9977916499172
 20
-130.5240030229243
 30
0.0
 10
66.9977916499172
 20
-130.4630077451619
 30
0.0
 10
66.94783662535173
 20
-130.4134071896192
 30
0.0
 10
66.88722940467572
 20
-130.4134071896192
 30
0.0
 10
66.82623412845406
 20
-130.4134071896192
 30
0.0
 10
66.77628079639514
 20
-130.4630077451619
 30
0.0
 10
66.77628079639514
 20
-130.5240030229243
 30
0.0
 10
66.77628079639514
 20
-130.5853158006869
 30
0.0
 10
66.82623412845406
 20
-130.6349163562303
 30
0.0
 10
66.88722940467572
 20
-130.6349163562303
 30
0.0
  0
ENDBLK
  5
44
330
41
100
AcDbEntity
  8
0
100
AcDbBlockEnd
  0
BLOCK
  5
57
330
55
100
AcDbEntity
  8
0
100
AcDbBlockBegin
  2
block 3
 70
     0
 10
0.0
 20
0.0
 30
0.0
  3
block 3
  1

  0
SPLINE
  5
59
330
55
100
AcDbEntity
  8
_U+30EC_U+30A4_U+30E4_U+30FC 1
370
     0
100
AcDbSpline
210
0.0
220
0.0
230
1.0
 70
    11
 71
     3
 72
    26
 73
    22
 74
     0
 42
0.0000000001
 43
0.0000000001
 12
1.0
 22
0.0
 32
0.0
 13
1.0
 23
0.0
 33
0.0
 40
0.0
 40
0.0
 40
0.0
 40
0.0
 40
1.0
 40
1.0
 40
1.0
 40
2.0
 40
2.0
 40
2.0
 40
3.0
 40
3.0
 40
3.0
 40
4.0
 40
4.0
 40
4.0
 40
5.0
 40
5.0
 40
5.0
 40
6.0
 40
6.0
 40
6.0
 40
7.0
 40
7.0
 40
7.0
 40
7.0
 10
108.2025254720813
 20
-152.7148816892519
 30
0.0
 10
108.2025254720813
 20
-152.7148816892519
 30
0.0
 10
108.2025254720813
 20
-151.6107285862293
 30
0.0
 10
108.2025254720813
 20
-151.6107285862293
 30
0.0
 10
108.2025254720813
 20
-151.6107285862293
 30
0.0
 10
107.9134819608689
 20
-151.6107285862293
 30
0.0
 10
107.9134819608689
 20
-151.6107285862293
 30
0.0
 10
107.9134819608689
 20
-151.6107285862293
 30
0.0
 10
107.9134819608689
 20
-151.4625894803635
 30
0.0
 10
107.9134819608689
 20
-151.4625894803635
 30
0.0
 10
108.2042480198239
 20
-151.447775569777
 30
0.0
 10
108.2449001465499
 20
-151.2848225533246
 30
0.0
 10
108.2710828722378
 20
-151.1704453832143
 30
0.0
 10
108.2710828722378
 20
-151.1704453832143
 30
0.0
 10
108.398551405192
 20
-151.1704453832143
 30
0.0
 10
108.398551405192
 20
-151.1704453832143
 30
0.0
 10
108.398551405192
 20
-151.1704453832143
 30
0.0
 10
108.398551405192
 20
-152.7148816892519
 30
0.0
 10
108.398551405192
 20
-152.7148816892519
 30
0.0
 10
108.398551405192
 20
-152.7148816892519
 30
0.0
 10
108.2025254720813
 20
-152.7148816892519
 30
0.0
 10
108.2025254720813
 20
-152.7148816892519
 30
0.0
  0
HATCH
  5
5A
330
55
100
AcDbEntity
  8
_U+30EC_U+30A4_U+30E4_U+30FC 1
 62
   179
420
  2234388
100
AcDbHatch
 10
0.0
 20
0.0
 30
0.0
210
0.0
220
0.0
230
1.0
  2
SOLID
 70
     1
 71
     0
 91
        1
 92
        1
 93
        1
 72
     4
 94
        3
 73
     0
 74
     1
 95
       26
 96
       22
 40
0.0
 40
0.0
 40
0.0
 40
0.0
 40
1.0
 40
1.0
 40
1.0
 40
2.0
 40
2.0
 40
2.0
 40
3.0
 40
3.0
 40
3.0
 40
4.0
 40
4.0
 40
4.0
 40
5.0
 40
5.0
 40
5.0
 40
6.0
 40
6.0
 40
6.0
 40
7.0
 40
7.0
 40
7.0
 40
7.0
 10
108.2025254720813
 20
-152.7148816892519
 10
108.2025254720813
 20
-152.7148816892519
 10
108.2025254720813
 20
-151.6107285862293
 10
108.2025254720813
 20
-151.6107285862293
 10
108.2025254720813
 20
-151.6107285862293
 10
107.9134819608689
 20
-151.6107285862293
 10
107.9134819608689
 20
-151.6107285862293
 10
107.9134819608689
 20
-151.6107285862293
 10
107.9134819608689
 20
-151.4625894803635
 10
107.9134819608689
 20
-151.4625894803635
 10
108.2042480198239
 20
-151.447775569777
 10
108.2449001465499
 20
-151.2848225533246
 10
108.2710828722378
 20
-151.1704453832143
 10
108.2710828722378
 20
-151.1704453832143
 10
108.398551405192
 20
-151.1704453832143
 10
108.398551405192
 20
-151.1704453832143
 10
108.398551405192
 20
-151.1704453832143
 10
108.398551405192
 20
-152.7148816892519
 10
108.398551405192
 20
-152.7148816892519
 10
108.398551405192
 20
-152.7148816892519
 10
108.2025254720813
 20
-152.7148816892519
 10
108.2025254720813
 20
-152.7148816892519
 97
        0
 97
        0
 75
     2
 76
     1
 98
        0
  0
SPLINE
  5
5B
330
55
100
AcDbEntity
  8
_U+30EC_U+30A4_U+30E4_U+30FC 1
370
     0
100
AcDbSpline
210
0.0
220
0.0
230
1.0
 70
    11
 71
     3
 72
    53
 73
    49
 74
     0
 42
0.0000000001
 43
0.0000000001
 12
1.0
 22
0.0
 32
0.0
 13
1.0
 23
0.0
 33
0.0
 40
0.0
 40
0.0
 40
0.0
 40
0.0
 40
1.0
 40
1.0
 40
1.0
 40
2.0
 40
2.0
 40
2.0
 40
3.0
 40
3.0
 40
3.0
 40
4.0
 40
4.0
 40
4.0
 40
5.0
 40
5.0
 40
5.0
 40
6.0
 40
6.0
 40
6.0
 40
7.0
 40
7.0
 40
7.0
 40
8.0
 40
8.0
 40
8.0
 40
9.0
 40
9.0
 40
9.0
 40
10.0
 40
10.0
 40
10.0
 40
11.0
 40
11.0
 40
11.0
 40
12.0
 40
12.0
 40
12.0
 40
13.0
 40
13.0
 40
13.0
 40
14.0
 40
14.0
 40
14.0
 40
15.0
 40
15.0
 40
15.0
 40
16.0
 40
16.0
 40
16.0
 40
16.0
 10
109.2591362574074
 20
-152.765524592885
 30
0.0
 10
109.190578857251
 20
-152.765524592885
 30
0.0
 10
109.1016953937315
 20
-152.7486436250073
 30
0.0
 10
109.0128119302121
 20
-152.6852538680787
 30
0.0
 10
108.8608832193126
 20
-152.5753553220992
 30
0.0
 10
108.8422797036922
 20
-152.4440971841112
 30
0.0
 10
108.825743245363
 20
-152.3362656954229
 30
0.0
 10
108.825743245363
 20
-152.3362656954229
 30
0.0
 10
109.0200466307311
 20
-152.3362656954229
 30
0.0
 10
109.0200466307311
 20
-152.3362656954229
 30
0.0
 10
109.0682779675246
 20
-152.5350477049218
 30
0.0
 10
109.1795545516982
 20
-152.564675526095
 30
0.0
 10
109.2608588051501
 20
-152.564675526095
 30
0.0
 10
109.3831596948764
 20
-152.564675526095
 30
0.0
 10
109.5164848901556
 20
-152.4651122665712
 30
0.0
 10
109.5164848901556
 20
-152.2325683213169
 30
0.0
 10
109.5164848901556
 20
-151.9765977267628
 30
0.0
 10
109.3590440264797
 20
-151.9066622884122
 30
0.0
 10
109.253624104631
 20
-151.9066622884122
 30
0.0
 10
109.2257188312005
 20
-151.9066622884122
 30
0.0
 10
109.1016953937315
 20
-151.9066622884122
 30
0.0
 10
109.0238362357649
 20
-152.0358533691091
 30
0.0
 10
109.0238362357649
 20
-152.0358533691091
 30
0.0
 10
108.8701849771227
 20
-152.0169053439402
 30
0.0
 10
108.8701849771227
 20
-152.0169053439402
 30
0.0
 10
108.8701849771227
 20
-152.0169053439402
 30
0.0
 10
108.9759494085199
 20
-151.1704453832143
 30
0.0
 10
108.9759494085199
 20
-151.1704453832143
 30
0.0
 10
108.9759494085199
 20
-151.1704453832143
 30
0.0
 10
109.6573892955023
 20
-151.1704453832143
 30
0.0
 10
109.6573892955023
 20
-151.1704453832143
 30
0.0
 10
109.6573892955023
 20
-151.1704453832143
 30
0.0
 10
109.6573892955023
 20
-151.365093278131
 30
0.0
 10
109.6573892955023
 20
-151.365093278131
 30
0.0
 10
109.6573892955023
 20
-151.365093278131
 30
0.0
 10
109.1182318520607
 20
-151.365093278131
 30
0.0
 10
109.1182318520607
 20
-151.365093278131
 30
0.0
 10
109.1182318520607
 20
-151.365093278131
 30
0.0
 10
109.0610432670056
 20
-151.7881510037196
 30
0.0
 10
109.0610432670056
 20
-151.7881510037196
 30
0.0
 10
109.1147867565755
 20
-151.7543890679642
 30
0.0
 10
109.1867892522172
 20
-151.7140814507868
 30
0.0
 10
109.2904866263232
 20
-151.7140814507868
 30
0.0
 10
109.5126952851218
 20
-151.7140814507868
 30
0.0
 10
109.7200900333339
 20
-151.9004611165388
 30
0.0
 10
109.7200900333339
 20
-152.213620296148
 30
0.0
 10
109.7200900333339
 20
-152.5309135903395
 30
0.0
 10
109.5237195906746
 20
-152.765524592885
 30
0.0
 10
109.2591362574074
 20
-152.765524592885
 30
0.0
  0
HATCH
  5
5C
330
55
100
AcDbEntity
  8
_U+30EC_U+30A4_U+30E4_U+30FC 1
 62
   179
420
  2234388
100
AcDbHatch
 10
0.0
 20
0.0
 30
0.0
210
0.0
220
0.0
230
1.0
  2
SOLID
 70
     1
 71
     0
 91
        1
 92
        1
 93
        1
 72
     4
 94
        3
 73
     0
 74
     1
 95
       53
 96
       49
 40
0.0
 40
0.0
 40
0.0
 40
0.0
 40
1.0
 40
1.0
 40
1.0
 40
2.0
 40
2.0
 40
2.0
 40
3.0
 40
3.0
 40
3.0
 40
4.0
 40
4.0
 40
4.0
 40
5.0
 40
5.0
 40
5.0
 40
6.0
 40
6.0
 40
6.0
 40
7.0
 40
7.0
 40
7.0
 40
8.0
 40
8.0
 40
8.0
 40
9.0
 40
9.0
 40
9.0
 40
10.0
 40
10.0
 40
10.0
 40
11.0
 40
11.0
 40
11.0
 40
12.0
 40
12.0
 40
12.0
 40
13.0
 40
13.0
 40
13.0
 40
14.0
 40
14.0
 40
14.0
 40
15.0
 40
15.0
 40
15.0
 40
16.0
 40
16.0
 40
16.0
 40
16.0
 10
109.2591362574074
 20
-152.765524592885
 10
109.190578857251
 20
-152.765524592885
 10
109.1016953937315
 20
-152.7486436250073
 10
109.0128119302121
 20
-152.6852538680787
 10
108.8608832193126
 20
-152.5753553220992
 10
108.8422797036922
 20
-152.4440971841112
 10
108.825743245363
 20
-152.3362656954229
 10
108.825743245363
 20
-152.3362656954229
 10
109.0200466307311
 20
-152.3362656954229
 10
109.0200466307311
 20
-152.3362656954229
 10
109.0682779675246
 20
-152.5350477049218
 10
109.1795545516982
 20
-152.564675526095
 10
109.2608588051501
 20
-152.564675526095
 10
109.3831596948764
 20
-152.564675526095
 10
109.5164848901556
 20
-152.4651122665712
 10
109.5164848901556
 20
-152.2325683213169
 10
109.5164848901556
 20
-151.9765977267628
 10
109.3590440264797
 20
-151.9066622884122
 10
109.253624104631
 20
-151.9066622884122
 10
109.2257188312005
 20
-151.9066622884122
 10
109.1016953937315
 20
-151.9066622884122
 10
109.0238362357649
 20
-152.0358533691091
 10
109.0238362357649
 20
-152.0358533691091
 10
108.8701849771227
 20
-152.0169053439402
 10
108.8701849771227
 20
-152.0169053439402
 10
108.8701849771227
 20
-152.0169053439402
 10
108.9759494085199
 20
-151.1704453832143
 10
108.9759494085199
 20
-151.1704453832143
 10
108.9759494085199
 20
-151.1704453832143
 10
109.6573892955023
 20
-151.1704453832143
 10
109.6573892955023
 20
-151.1704453832143
 10
109.6573892955023
 20
-151.1704453832143
 10
109.6573892955023
 20
-151.365093278131
 10
109.6573892955023
 20
-151.365093278131
 10
109.6573892955023
 20
-151.365093278131
 10
109.1182318520607
 20
-151.365093278131
 10
109.1182318520607
 20
-151.365093278131
 10
109.1182318520607
 20
-151.365093278131
 10
109.0610432670056
 20
-151.7881510037196
 10
109.0610432670056
 20
-151.7881510037196
 10
109.1147867565755
 20
-151.7543890679642
 10
109.1867892522172
 20
-151.7140814507868
 10
109.2904866263232
 20
-151.7140814507868
 10
109.5126952851218
 20
-151.7140814507868
 10
109.7200900333339
 20
-151.9004611165388
 10
109.7200900333339
 20
-152.213620296148
 10
109.7200900333339
 20
-152.5309135903395
 10
109.5237195906746
 20
-152.765524592885
 10
109.2591362574074
 20
-152.765524592885
 97
        0
 97
        0
 75
     2
 76
     1
 98
        0
  0
ENDBLK
  5
58
330
55
100
AcDbEntity
  8
0
100
AcDbBlockEnd
  0
BLOCK
  5
5F
330
5D
100
AcDbEntity
  8
0
100
AcDbBlockBegin
  2
block 4
 70
     0
 10
0.0
 20
0.0
 30
0.0
  3
block 4
  1

  0
SPLINE
  5
61
330
5D
100
AcDbEntity
  8
_U+30EC_U+30A4_U+30E4_U+30FC 1
370
     0
100
AcDbSpline
210
0.0
220
0.0
230
1.0
 70
    11
 71
     3
 72
    26
 73
    22
 74
     0
 42
0.0000000001
 43
0.0000000001
 12
1.0
 22
0.0
 32
0.0
 13
1.0
 23
0.0
 33
0.0
 40
0.0
 40
0.0
 40
0.0
 40
0.0
 40
1.0
 40
1.0
 40
1.0
 40
2.0
 40
2.0
 40
2.0
 40
3.0
 40
3.0
 40
3.0
 40
4.0
 40
4.0
 40
4.0
 40
5.0
 40
5.0
 40
5.0
 40
6.0
 40
6.0
 40
6.0
 40
7.0
 40
7.0
 40
7.0
 40
7.0
 10
95.43224552735722
 20
-152.7148816892519
 30
0.0
 10
95.43224552735722
 20
-152.7148816892519
 30
0.0
 10
95.43224552735722
 20
-151.6107285862293
 30
0.0
 10
95.43224552735722
 20
-151.6107285862293
 30
0.0
 10
95.43224552735722
 20
-151.6107285862293
 30
0.0
 10
95.14320201614476
 20
-151.6107285862293
 30
0.0
 10
95.14320201614476
 20
-151.6107285862293
 30
0.0
 10
95.14320201614476
 20
-151.6107285862293
 30
0.0
 10
95.14320201614476
 20
-151.4625894803635
 30
0.0
 10
95.14320201614476
 20
-151.4625894803635
 30
0.0
 10
95.43396807509984
 20
-151.447775569777
 30
0.0
 10
95.4746202018258
 20
-151.2848225533246
 30
0.0
 10
95.50080292751369
 20
-151.1704453832143
 30
0.0
 10
95.50080292751369
 20
-151.1704453832143
 30
0.0
 10
95.62827146046794
 20
-151.1704453832143
 30
0.0
 10
95.62827146046794
 20
-151.1704453832143
 30
0.0
 10
95.62827146046794
 20
-151.1704453832143
 30
0.0
 10
95.62827146046794
 20
-152.7148816892519
 30
0.0
 10
95.62827146046794
 20
-152.7148816892519
 30
0.0
 10
95.62827146046794
 20
-152.7148816892519
 30
0.0
 10
95.43224552735722
 20
-152.7148816892519
 30
0.0
 10
95.43224552735722
 20
-152.7148816892519
 30
0.0
  0
HATCH
  5
62
330
5D
100
AcDbEntity
  8
_U+30EC_U+30A4_U+30E4_U+30FC 1
 62
   179
420
  2234388
100
AcDbHatch
 10
0.0
 20
0.0
 30
0.0
210
0.0
220
0.0
230
1.0
  2
SOLID
 70
     1
 71
     0
 91
        1
 92
        1
 93
        1
 72
     4
 94
        3
 73
     0
 74
     1
 95
       26
 96
       22
 40
0.0
 40
0.0
 40
0.0
 40
0.0
 40
1.0
 40
1.0
 40
1.0
 40
2.0
 40
2.0
 40
2.0
 40
3.0
 40
3.0
 40
3.0
 40
4.0
 40
4.0
 40
4.0
 40
5.0
 40
5.0
 40
5.0
 40
6.0
 40
6.0
 40
6.0
 40
7.0
 40
7.0
 40
7.0
 40
7.0
 10
95.43224552735722
 20
-152.7148816892519
 10
95.43224552735722
 20
-152.7148816892519
 10
95.43224552735722
 20
-151.6107285862293
 10
95.43224552735722
 20
-151.6107285862293
 10
95.43224552735722
 20
-151.6107285862293
 10
95.14320201614476
 20
-151.6107285862293
 10
95.14320201614476
 20
-151.6107285862293
 10
95.14320201614476
 20
-151.6107285862293
 10
95.14320201614476
 20
-151.4625894803635
 10
95.14320201614476
 20
-151.4625894803635
 10
95.43396807509984
 20
-151.447775569777
 10
95.4746202018258
 20
-151.2848225533246
 10
95.50080292751369
 20
-151.1704453832143
 10
95.50080292751369
 20
-151.1704453832143
 10
95.62827146046794
 20
-151.1704453832143
 10
95.62827146046794
 20
-151.1704453832143
 10
95.62827146046794
 20
-151.1704453832143
 10
95.62827146046794
 20
-152.7148816892519
 10
95.62827146046794
 20
-152.7148816892519
 10
95.62827146046794
 20
-152.7148816892519
 10
95.43224552735722
 20
-152.7148816892519
 10
95.43224552735722
 20
-152.7148816892519
 97
        0
 97
        0
 75
     2
 76
     1
 98
        0
  0
SPLINE
  5
63
330
5D
100
AcDbEntity
  8
_U+30EC_U+30A4_U+30E4_U+30FC 1
370
     0
100
AcDbSpline
210
0.0
220
0.0
230
1.0
 70
    11
 71
     3
 72
    29
 73
    25
 74
     0
 42
0.0000000001
 43
0.0000000001
 12
1.0
 22
0.0
 32
0.0
 13
1.0
 23
0.0
 33
0.0
 40
0.0
 40
0.0
 40
0.0
 40
0.0
 40
1.0
 40
1.0
 40
1.0
 40
2.0
 40
2.0
 40
2.0
 40
3.0
 40
3.0
 40
3.0
 40
4.0
 40
4.0
 40
4.0
 40
5.0
 40
5.0
 40
5.0
 40
6.0
 40
6.0
 40
6.0
 40
7.0
 40
7.0
 40
7.0
 40
8.0
 40
8.0
 40
8.0
 40
8.0
 10
96.85369192457131
 20
-152.537114762213
 30
0.0
 10
96.75929630827545
 20
-152.7465765677161
 30
0.0
 10
96.60736759737594
 20
-152.765524592885
 30
0.0
 10
96.50539277101255
 20
-152.765524592885
 30
0.0
 10
96.36483287521435
 20
-152.765524592885
 30
0.0
 10
96.24080943774536
 20
-152.7190158038341
 30
0.0
 10
96.15743812700231
 20
-152.537114762213
 30
0.0
 10
96.06648760619171
 20
-152.3424668672963
 30
0.0
 10
96.04995114786252
 20
-152.1054442979111
 30
0.0
 10
96.04995114786252
 20
-151.9428357910074
 30
0.0
 10
96.04995114786252
 20
-151.7988307997239
 30
0.0
 10
96.0647650584491
 20
-151.5469943197521
 30
0.0
 10
96.15743812700231
 20
-151.3482123102532
 30
0.0
 10
96.25183374329816
 20
-151.145296186172
 30
0.0
 10
96.39239363909635
 20
-151.1218695368723
 30
0.0
 10
96.50539277101255
 20
-151.1218695368723
 30
0.0
 10
96.64423011906811
 20
-151.1218695368723
 30
0.0
 10
96.77032061382826
 20
-151.166311268632
 30
0.0
 10
96.85369192457131
 20
-151.3482123102532
 30
0.0
 10
96.9405083307996
 20
-151.5407931478787
 30
0.0
 10
96.96083439416257
 20
-151.7692029785508
 30
0.0
 10
96.96083439416257
 20
-151.9428357910074
 30
0.0
 10
96.96083439416257
 20
-152.1140570366243
 30
0.0
 10
96.94257538809075
 20
-152.3445339245875
 30
0.0
 10
96.85369192457131
 20
-152.537114762213
 30
0.0
  0
SPLINE
  5
64
330
5D
100
AcDbEntity
  8
_U+30EC_U+30A4_U+30E4_U+30FC 1
370
     0
100
AcDbSpline
210
0.0
220
0.0
230
1.0
 70
    11
 71
     3
 72
    17
 73
    13
 74
     0
 42
0.0000000001
 43
0.0000000001
 12
1.0
 22
0.0
 32
0.0
 13
1.0
 23
0.0
 33
0.0
 40
0.0
 40
0.0
 40
0.0
 40
0.0
 40
1.0
 40
1.0
 40
1.0
 40
2.0
 40
2.0
 40
2.0
 40
3.0
 40
3.0
 40
3.0
 40
4.0
 40
4.0
 40
4.0
 40
4.0
 10
96.50539277101255
 20
-151.3144503744978
 30
0.0
 10
96.2869737172477
 20
-151.3144503744978
 30
0.0
 10
96.24632159052176
 20
-151.5979817329338
 30
0.0
 10
96.24632159052176
 20
-151.9428357910074
 30
0.0
 10
96.24632159052176
 20
-152.26219614249
 30
0.0
 10
96.27767195943753
 20
-152.5708766979684
 30
0.0
 10
96.50539277101255
 20
-152.5708766979684
 30
0.0
 10
96.72208927703475
 20
-152.5708766979684
 30
0.0
 10
96.76480846105186
 20
-152.289756906372
 30
0.0
 10
96.76480846105186
 20
-151.9428357910074
 30
0.0
 10
96.76480846105186
 20
-151.6231309299762
 30
0.0
 10
96.73139103484493
 20
-151.3144503744978
 30
0.0
 10
96.50539277101255
 20
-151.3144503744978
 30
0.0
  0
HATCH
  5
65
330
5D
100
AcDbEntity
  8
_U+30EC_U+30A4_U+30E4_U+30FC 1
 62
   179
420
  2234388
100
AcDbHatch
 10
0.0
 20
0.0
 30
0.0
210
0.0
220
0.0
230
1.0
  2
SOLID
 70
     1
 71
     0
 91
        2
 92
        1
 93
        1
 72
     4
 94
        3
 73
     0
 74
     1
 95
       29
 96
       25
 40
0.0
 40
0.0
 40
0.0
 40
0.0
 40
1.0
 40
1.0
 40
1.0
 40
2.0
 40
2.0
 40
2.0
 40
3.0
 40
3.0
 40
3.0
 40
4.0
 40
4.0
 40
4.0
 40
5.0
 40
5.0
 40
5.0
 40
6.0
 40
6.0
 40
6.0
 40
7.0
 40
7.0
 40
7.0
 40
8.0
 40
8.0
 40
8.0
 40
8.0
 10
96.85369192457131
 20
-152.537114762213
 10
96.75929630827545
 20
-152.7465765677161
 10
96.60736759737594
 20
-152.765524592885
 10
96.50539277101255
 20
-152.765524592885
 10
96.36483287521435
 20
-152.765524592885
 10
96.24080943774536
 20
-152.7190158038341
 10
96.15743812700231
 20
-152.537114762213
 10
96.06648760619171
 20
-152.3424668672963
 10
96.04995114786252
 20
-152.1054442979111
 10
96.04995114786252
 20
-151.9428357910074
 10
96.04995114786252
 20
-151.7988307997239
 10
96.0647650584491
 20
-151.5469943197521
 10
96.15743812700231
 20
-151.3482123102532
 10
96.25183374329816
 20
-151.145296186172
 10
96.39239363909635
 20
-151.1218695368723
 10
96.50539277101255
 20
-151.1218695368723
 10
96.64423011906811
 20
-151.1218695368723
 10
96.77032061382826
 20
-151.166311268632
 10
96.85369192457131
 20
-151.3482123102532
 10
96.9405083307996
 20
-151.5407931478787
 10
96.96083439416257
 20
-151.7692029785508
 10
96.96083439416257
 20
-151.9428357910074
 10
96.96083439416257
 20
-152.1140570366243
 10
96.94257538809075
 20
-152.3445339245875
 10
96.85369192457131
 20
-152.537114762213
 97
        0
 97
        0
 92
        1
 93
        1
 72
     4
 94
        3
 73
     0
 74
     1
 95
       17
 96
       13
 40
0.0
 40
0.0
 40
0.0
 40
0.0
 40
1.0
 40
1.0
 40
1.0
 40
2.0
 40
2.0
 40
2.0
 40
3.0
 40
3.0
 40
3.0
 40
4.0
 40
4.0
 40
4.0
 40
4.0
 10
96.50539277101255
 20
-151.3144503744978
 10
96.2869737172477
 20
-151.3144503744978
 10
96.24632159052176
 20
-151.5979817329338
 10
96.24632159052176
 20
-151.9428357910074
 10
96.24632159052176
 20
-152.26219614249
 10
96.27767195943753
 20
-152.5708766979684
 10
96.50539277101255
 20
-152.5708766979684
 10
96.72208927703475
 20
-152.5708766979684
 10
96.76480846105186
 20
-152.289756906372
 10
96.76480846105186
 20
-151.9428357910074
 10
96.76480846105186
 20
-151.6231309299762
 10
96.73139103484493
 20
-151.3144503744978
 10
96.50539277101255
 20
-151.3144503744978
 97
        0
 97
        0
 75
     2
 76
     1
 98
        0
  0
ENDBLK
  5
60
330
5D
100
AcDbEntity
  8
0
100
AcDbBlockEnd
  0
BLOCK
  5
74
330
72
100
AcDbEntity
  8
0
100
AcDbBlockBegin
  2
block 5
 70
     0
 10
0.0
 20
0.0
 30
0.0
  3
block 5
  1

  0
SPLINE
  5
76
330
72
100
AcDbEntity
  8
_U+30EC_U+30A4_U+30E4_U+30FC 1
370
     0
100
AcDbSpline
210
0.0
220
0.0
230
1.0
 70
    11
 71
     3
 72
    62
 73
    58
 74
     0
 42
0.0000000001
 43
0.0000000001
 12
1.0
 22
0.0
 32
0.0
 13
1.0
 23
0.0
 33
0.0
 40
0.0
 40
0.0
 40
0.0
 40
0.0
 40
1.0
 40
1.0
 40
1.0
 40
2.0
 40
2.0
 40
2.0
 40
3.0
 40
3.0
 40
3.0
 40
4.0
 40
4.0
 40
4.0
 40
5.0
 40
5.0
 40
5.0
 40
6.0
 40
6.0
 40
6.0
 40
7.0
 40
7.0
 40
7.0
 40
8.0
 40
8.0
 40
8.0
 40
9.0
 40
9.0
 40
9.0
 40
10.0
 40
10.0
 40
10.0
 40
11.0
 40
11.0
 40
11.0
 40
12.0
 40
12.0
 40
12.0
 40
13.0
 40
13.0
 40
13.0
 40
14.0
 40
14.0
 40
14.0
 40
15.0
 40
15.0
 40
15.0
 40
16.0
 40
16.0
 40
16.0
 40
17.0
 40
17.0
 40
17.0
 40
18.0
 40
18.0
 40
18.0
 40
19.0
 40
19.0
 40
19.0
 40
19.0
 10
77.76062823576818
 20
-140.417268845104
 30
0.0
 10
77.7017171029704
 20
-140.3583577123063
 30
0.0
 10
77.58113876098666
 20
-140.2088405682464
 30
0.0
 10
77.63522676010508
 20
-139.9997232722917
 30
0.0
 10
77.66829967676348
 20
-139.8746663061772
 30
0.0
 10
77.73582354827438
 20
-139.8012857723413
 30
0.0
 10
77.79301213332953
 20
-139.7389295440583
 30
0.0
 10
77.79301213332953
 20
-139.7389295440583
 30
0.0
 10
77.92943791454542
 20
-139.8746663061772
 30
0.0
 10
77.92943791454542
 20
-139.8746663061772
 30
0.0
 10
77.87879501091226
 20
-139.9287543052956
 30
0.0
 10
77.71963159949371
 20
-140.1016980986551
 30
0.0
 10
77.89533146924146
 20
-140.2767089493058
 30
0.0
 10
77.98076983727564
 20
-140.3618028077915
 30
0.0
 10
78.12443031901056
 20
-140.4062445395512
 30
0.0
 10
78.28566078772026
 20
-140.2443250517445
 30
0.0
 10
78.3676540602692
 20
-140.161987269647
 30
0.0
 10
78.37833385627347
 20
-140.1041096654948
 30
0.0
 10
78.38074542311315
 20
-140.0617349910262
 30
0.0
 10
78.38729110453512
 20
-139.9635497696966
 30
0.0
 10
78.32390134760652
 20
-139.8825900257932
 30
0.0
 10
78.28979490230256
 20
-139.8488280900378
 30
0.0
 10
78.2780815776527
 20
-139.837114765388
 30
0.0
 10
78.254654928353
 20
-139.8160996829279
 30
0.0
 10
78.23432886499003
 20
-139.8023193009869
 30
0.0
 10
78.23432886499003
 20
-139.8023193009869
 30
0.0
 10
78.3717881748515
 20
-139.6645154815769
 30
0.0
 10
78.3717881748515
 20
-139.6645154815769
 30
0.0
 10
78.3910807095689
 20
-139.692765264556
 30
0.0
 10
78.41554088751417
 20
-139.7199815188895
 30
0.0
 10
78.41933049254794
 20
-139.7237711239232
 30
0.0
 10
78.4599826192739
 20
-139.7644232506492
 30
0.0
 10
78.59847545778094
 20
-139.871910229789
 30
0.0
 10
78.76556258881556
 20
-139.7041340796573
 30
0.0
 10
78.89096406447865
 20
-139.5783880944457
 30
0.0
 10
78.84824488046155
 20
-139.4581542620105
 30
0.0
 10
78.78003198985361
 20
-139.390285880951
 30
0.0
 10
78.61604544475571
 20
-139.2269883549502
 30
0.0
 10
78.44689125642995
 20
-139.3868407854658
 30
0.0
 10
78.39349227640858
 20
-139.4350721222593
 30
0.0
 10
78.39349227640858
 20
-139.4350721222593
 30
0.0
 10
78.26740178164843
 20
-139.3096706465962
 30
0.0
 10
78.26740178164843
 20
-139.3096706465962
 30
0.0
 10
78.36076386929871
 20
-139.2266438454017
 30
0.0
 10
78.6432616990892
 20
-138.9768744227211
 30
0.0
 10
78.92679305752524
 20
-139.259027742963
 30
0.0
 10
79.06563040558082
 20
-139.3975205814701
 30
0.0
 10
79.12591957657268
 20
-139.6362656985979
 30
0.0
 10
78.91714679016656
 20
-139.8460720136496
 30
0.0
 10
78.78588865217853
 20
-139.9780191707347
 30
0.0
 10
78.66841089613152
 20
-139.9776746611861
 30
0.0
 10
78.56367999337992
 20
-139.9601046742114
 30
0.0
 10
78.58228350900026
 20
-140.016948749718
 30
0.0
 10
78.63843856540984
 20
-140.1867919571408
 30
0.0
 10
78.44275714184765
 20
-140.3831623998001
 30
0.0
 10
78.20401202471983
 20
-140.6229410455734
 30
0.0
 10
77.93253850048215
 20
-140.5884900907209
 30
0.0
 10
77.76062823576818
 20
-140.417268845104
 30
0.0
  0
HATCH
  5
77
330
72
100
AcDbEntity
  8
_U+30EC_U+30A4_U+30E4_U+30FC 1
 62
   179
420
  2234388
100
AcDbHatch
 10
0.0
 20
0.0
 30
0.0
210
0.0
220
0.0
230
1.0
  2
SOLID
 70
     1
 71
     0
 91
        1
 92
        1
 93
        1
 72
     4
 94
        3
 73
     0
 74
     1
 95
       62
 96
       58
 40
0.0
 40
0.0
 40
0.0
 40
0.0
 40
1.0
 40
1.0
 40
1.0
 40
2.0
 40
2.0
 40
2.0
 40
3.0
 40
3.0
 40
3.0
 40
4.0
 40
4.0
 40
4.0
 40
5.0
 40
5.0
 40
5.0
 40
6.0
 40
6.0
 40
6.0
 40
7.0
 40
7.0
 40
7.0
 40
8.0
 40
8.0
 40
8.0
 40
9.0
 40
9.0
 40
9.0
 40
10.0
 40
10.0
 40
10.0
 40
11.0
 40
11.0
 40
11.0
 40
12.0
 40
12.0
 40
12.0
 40
13.0
 40
13.0
 40
13.0
 40
14.0
 40
14.0
 40
14.0
 40
15.0
 40
15.0
 40
15.0
 40
16.0
 40
16.0
 40
16.0
 40
17.0
 40
17.0
 40
17.0
 40
18.0
 40
18.0
 40
18.0
 40
19.0
 40
19.0
 40
19.0
 40
19.0
 10
77.76062823576818
 20
-140.417268845104
 10
77.7017171029704
 20
-140.3583577123063
 10
77.58113876098666
 20
-140.2088405682464
 10
77.63522676010508
 20
-139.9997232722917
 10
77.66829967676348
 20
-139.8746663061772
 10
77.73582354827438
 20
-139.8012857723413
 10
77.79301213332953
 20
-139.7389295440583
 10
77.79301213332953
 20
-139.7389295440583
 10
77.92943791454542
 20
-139.8746663061772
 10
77.92943791454542
 20
-139.8746663061772
 10
77.87879501091226
 20
-139.9287543052956
 10
77.71963159949371
 20
-140.1016980986551
 10
77.89533146924146
 20
-140.2767089493058
 10
77.98076983727564
 20
-140.3618028077915
 10
78.12443031901056
 20
-140.4062445395512
 10
78.28566078772026
 20
-140.2443250517445
 10
78.3676540602692
 20
-140.161987269647
 10
78.37833385627347
 20
-140.1041096654948
 10
78.38074542311315
 20
-140.0617349910262
 10
78.38729110453512
 20
-139.9635497696966
 10
78.32390134760652
 20
-139.8825900257932
 10
78.28979490230256
 20
-139.8488280900378
 10
78.2780815776527
 20
-139.837114765388
 10
78.254654928353
 20
-139.8160996829279
 10
78.23432886499003
 20
-139.8023193009869
 10
78.23432886499003
 20
-139.8023193009869
 10
78.3717881748515
 20
-139.6645154815769
 10
78.3717881748515
 20
-139.6645154815769
 10
78.3910807095689
 20
-139.692765264556
 10
78.41554088751417
 20
-139.7199815188895
 10
78.41933049254794
 20
-139.7237711239232
 10
78.4599826192739
 20
-139.7644232506492
 10
78.59847545778094
 20
-139.871910229789
 10
78.76556258881556
 20
-139.7041340796573
 10
78.89096406447865
 20
-139.5783880944457
 10
78.84824488046155
 20
-139.4581542620105
 10
78.78003198985361
 20
-139.390285880951
 10
78.61604544475571
 20
-139.2269883549502
 10
78.44689125642995
 20
-139.3868407854658
 10
78.39349227640858
 20
-139.4350721222593
 10
78.39349227640858
 20
-139.4350721222593
 10
78.26740178164843
 20
-139.3096706465962
 10
78.26740178164843
 20
-139.3096706465962
 10
78.36076386929871
 20
-139.2266438454017
 10
78.6432616990892
 20
-138.9768744227211
 10
78.92679305752524
 20
-139.259027742963
 10
79.06563040558082
 20
-139.3975205814701
 10
79.12591957657268
 20
-139.6362656985979
 10
78.91714679016656
 20
-139.8460720136496
 10
78.78588865217853
 20
-139.9780191707347
 10
78.66841089613152
 20
-139.9776746611861
 10
78.56367999337992
 20
-139.9601046742114
 10
78.58228350900026
 20
-140.016948749718
 10
78.63843856540984
 20
-140.1867919571408
 10
78.44275714184765
 20
-140.3831623998001
 10
78.20401202471983
 20
-140.6229410455734
 10
77.93253850048215
 20
-140.5884900907209
 10
77.76062823576818
 20
-140.417268845104
 97
        0
 97
        0
 75
     2
 76
     1
 98
        0
  0
SPLINE
  5
78
330
72
100
AcDbEntity
  8
_U+30EC_U+30A4_U+30E4_U+30FC 1
370
     0
100
AcDbSpline
210
0.0
220
0.0
230
1.0
 70
    11
 71
     3
 72
    29
 73
    25
 74
     0
 42
0.0000000001
 43
0.0000000001
 12
1.0
 22
0.0
 32
0.0
 13
1.0
 23
0.0
 33
0.0
 40
0.0
 40
0.0
 40
0.0
 40
0.0
 40
1.0
 40
1.0
 40
1.0
 40
2.0
 40
2.0
 40
2.0
 40
3.0
 40
3.0
 40
3.0
 40
4.0
 40
4.0
 40
4.0
 40
5.0
 40
5.0
 40
5.0
 40
6.0
 40
6.0
 40
6.0
 40
7.0
 40
7.0
 40
7.0
 40
8.0
 40
8.0
 40
8.0
 40
8.0
 10
78.90439993687113
 20
-141.2334119655597
 30
0.0
 10
78.68977048814006
 20
-141.3154052381087
 30
0.0
 10
78.56850312705927
 20
-141.2216986409099
 30
0.0
 10
78.49615612186902
 20
-141.1496961452681
 30
0.0
 10
78.3965928623453
 20
-141.0504773952929
 30
0.0
 10
78.3414713345813
 20
-140.9298990533092
 30
0.0
 10
78.41106226338334
 20
-140.7421413493631
 30
0.0
 10
78.48375377812212
 20
-140.5402587539274
 30
0.0
 10
78.6391275845069
 20
-140.3604247695974
 30
0.0
 10
78.75384926416571
 20
-140.2450140708415
 30
0.0
 10
78.85547958098057
 20
-140.1430392444781
 30
0.0
 10
79.04392630402374
 20
-139.9752630943465
 30
0.0
 10
79.24994301404169
 20
-139.899470993671
 30
0.0
 10
79.46009383864192
 20
-139.8226453643499
 30
0.0
 10
79.57584904694632
 20
-139.9053276559959
 30
0.0
 10
79.65577526220412
 20
-139.9849093617052
 30
0.0
 10
79.75430499308226
 20
-140.0827500734863
 30
0.0
 10
79.81218259723445
 20
-140.20332841547
 30
0.0
 10
79.74328068752946
 20
-140.3907416098676
 30
0.0
 10
79.66886662504807
 20
-140.5884900907209
 30
0.0
 10
79.52245006692495
 20
-140.7648789795657
 30
0.0
 10
79.39980466765006
 20
-140.8878688883892
 30
0.0
 10
79.27888181611779
 20
-141.0094807590185
 30
0.0
 10
79.10318194637004
 20
-141.1596869221754
 30
0.0
 10
78.90439993687113
 20
-141.2334119655597
 30
0.0
  0
SPLINE
  5
79
330
72
100
AcDbEntity
  8
_U+30EC_U+30A4_U+30E4_U+30FC 1
370
     0
100
AcDbSpline
210
0.0
220
0.0
230
1.0
 70
    11
 71
     3
 72
    17
 73
    13
 74
     0
 42
0.0000000001
 43
0.0000000001
 12
1.0
 22
0.0
 32
0.0
 13
1.0
 23
0.0
 33
0.0
 40
0.0
 40
0.0
 40
0.0
 40
0.0
 40
1.0
 40
1.0
 40
1.0
 40
2.0
 40
2.0
 40
2.0
 40
3.0
 40
3.0
 40
3.0
 40
4.0
 40
4.0
 40
4.0
 40
4.0
 10
79.52003850008528
 20
-140.1213351429211
 30
0.0
 10
79.36535371279756
 20
-139.9673393747304
 30
0.0
 10
79.13659937257697
 20
-140.1392496394444
 30
0.0
 10
78.8930311217698
 20
-140.3835069093486
 30
0.0
 10
78.66772187703447
 20
-140.6098496827295
 30
0.0
 10
78.4723849630208
 20
-140.8513508762455
 30
0.0
 10
78.63361543173049
 20
-141.0118923258582
 30
0.0
 10
78.78726669037263
 20
-141.1648545654032
 30
0.0
 10
79.01602103059322
 20
-140.995355867529
 30
0.0
 10
79.26062281004596
 20
-140.7493760498821
 30
0.0
 10
79.48627656432983
 20
-140.5230332765012
 30
0.0
 10
79.68023544014939
 20
-140.2808430638881
 30
0.0
 10
79.52003850008528
 20
-140.1213351429211
 30
0.0
  0
HATCH
  5
7A
330
72
100
AcDbEntity
  8
_U+30EC_U+30A4_U+30E4_U+30FC 1
 62
   179
420
  2234388
100
AcDbHatch
 10
0.0
 20
0.0
 30
0.0
210
0.0
220
0.0
230
1.0
  2
SOLID
 70
     1
 71
     0
 91
        2
 92
        1
 93
        1
 72
     4
 94
        3
 73
     0
 74
     1
 95
       29
 96
       25
 40
0.0
 40
0.0
 40
0.0
 40
0.0
 40
1.0
 40
1.0
 40
1.0
 40
2.0
 40
2.0
 40
2.0
 40
3.0
 40
3.0
 40
3.0
 40
4.0
 40
4.0
 40
4.0
 40
5.0
 40
5.0
 40
5.0
 40
6.0
 40
6.0
 40
6.0
 40
7.0
 40
7.0
 40
7.0
 40
8.0
 40
8.0
 40
8.0
 40
8.0
 10
78.90439993687113
 20
-141.2334119655597
 10
78.68977048814006
 20
-141.3154052381087
 10
78.56850312705927
 20
-141.2216986409099
 10
78.49615612186902
 20
-141.1496961452681
 10
78.3965928623453
 20
-141.0504773952929
 10
78.3414713345813
 20
-140.9298990533092
 10
78.41106226338334
 20
-140.7421413493631
 10
78.48375377812212
 20
-140.5402587539274
 10
78.6391275845069
 20
-140.3604247695974
 10
78.75384926416571
 20
-140.2450140708415
 10
78.85547958098057
 20
-140.1430392444781
 10
79.04392630402374
 20
-139.9752630943465
 10
79.24994301404169
 20
-139.899470993671
 10
79.46009383864192
 20
-139.8226453643499
 10
79.57584904694632
 20
-139.9053276559959
 10
79.65577526220412
 20
-139.9849093617052
 10
79.75430499308226
 20
-140.0827500734863
 10
79.81218259723445
 20
-140.20332841547
 10
79.74328068752946
 20
-140.3907416098676
 10
79.66886662504807
 20
-140.5884900907209
 10
79.52245006692495
 20
-140.7648789795657
 10
79.39980466765006
 20
-140.8878688883892
 10
79.27888181611779
 20
-141.0094807590185
 10
79.10318194637004
 20
-141.1596869221754
 10
78.90439993687113
 20
-141.2334119655597
 97
        0
 97
        0
 92
        1
 93
        1
 72
     4
 94
        3
 73
     0
 74
     1
 95
       17
 96
       13
 40
0.0
 40
0.0
 40
0.0
 40
0.0
 40
1.0
 40
1.0
 40
1.0
 40
2.0
 40
2.0
 40
2.0
 40
3.0
 40
3.0
 40
3.0
 40
4.0
 40
4.0
 40
4.0
 40
4.0
 10
79.52003850008528
 20
-140.1213351429211
 10
79.36535371279756
 20
-139.9673393747304
 10
79.13659937257697
 20
-140.1392496394444
 10
78.8930311217698
 20
-140.3835069093486
 10
78.66772187703447
 20
-140.6098496827295
 10
78.4723849630208
 20
-140.8513508762455
 10
78.63361543173049
 20
-141.0118923258582
 10
78.78726669037263
 20
-141.1648545654032
 10
79.01602103059322
 20
-140.995355867529
 10
79.26062281004596
 20
-140.7493760498821
 10
79.48627656432983
 20
-140.5230332765012
 10
79.68023544014939
 20
-140.2808430638881
 10
79.52003850008528
 20
-140.1213351429211
 97
        0
 97
        0
 75
     2
 76
     1
 98
        0
  0
ENDBLK
  5
75
330
72
100
AcDbEntity
  8
0
100
AcDbBlockEnd
  0
BLOCK
  5
86
330
84
100
AcDbEntity
  8
0
100
AcDbBlockBegin
  2
block 6
 70
     0
 10
0.0
 20
0.0
 30
0.0
  3
block 6
  1

  0
SPLINE
  5
88
330
84
100
AcDbEntity
  8
_U+30EC_U+30A4_U+30E4_U+30FC 1
370
     0
100
AcDbSpline
210
0.0
220
0.0
230
1.0
 70
    11
 71
     3
 72
    26
 73
    22
 74
     0
 42
0.0000000001
 43
0.0000000001
 12
1.0
 22
0.0
 32
0.0
 13
1.0
 23
0.0
 33
0.0
 40
0.0
 40
0.0
 40
0.0
 40
0.0
 40
1.0
 40
1.0
 40
1.0
 40
2.0
 40
2.0
 40
2.0
 40
3.0
 40
3.0
 40
3.0
 40
4.0
 40
4.0
 40
4.0
 40
5.0
 40
5.0
 40
5.0
 40
6.0
 40
6.0
 40
6.0
 40
7.0
 40
7.0
 40
7.0
 40
7.0
 10
107.3264376901823
 20
-142.7148030242171
 30
0.0
 10
107.3264376901823
 20
-142.7148030242171
 30
0.0
 10
106.2222845871597
 20
-142.7148030242171
 30
0.0
 10
106.2222845871597
 20
-142.7148030242171
 30
0.0
 10
106.2222845871597
 20
-142.7148030242171
 30
0.0
 10
106.2222845871597
 20
-143.0035020258811
 30
0.0
 10
106.2222845871597
 20
-143.0035020258811
 30
0.0
 10
106.2222845871597
 20
-143.0035020258811
 30
0.0
 10
106.074145481294
 20
-143.0035020258811
 30
0.0
 10
106.074145481294
 20
-143.0035020258811
 30
0.0
 10
106.0593315707074
 20
-142.712735966926
 30
0.0
 10
105.8963785542551
 20
-142.6720838402
 30
0.0
 10
105.7820013841448
 20
-142.6462456240607
 30
0.0
 10
105.7820013841448
 20
-142.6462456240607
 30
0.0
 10
105.7820013841448
 20
-142.5184325815579
 30
0.0
 10
105.7820013841448
 20
-142.5184325815579
 30
0.0
 10
105.7820013841448
 20
-142.5184325815579
 30
0.0
 10
107.3264376901823
 20
-142.5184325815579
 30
0.0
 10
107.3264376901823
 20
-142.5184325815579
 30
0.0
 10
107.3264376901823
 20
-142.5184325815579
 30
0.0
 10
107.3264376901823
 20
-142.7148030242171
 30
0.0
 10
107.3264376901823
 20
-142.7148030242171
 30
0.0
  0
HATCH
  5
89
330
84
100
AcDbEntity
  8
_U+30EC_U+30A4_U+30E4_U+30FC 1
 62
   179
420
  2234388
100
AcDbHatch
 10
0.0
 20
0.0
 30
0.0
210
0.0
220
0.0
230
1.0
  2
SOLID
 70
     1
 71
     0
 91
        1
 92
        1
 93
        1
 72
     4
 94
        3
 73
     0
 74
     1
 95
       26
 96
       22
 40
0.0
 40
0.0
 40
0.0
 40
0.0
 40
1.0
 40
1.0
 40
1.0
 40
2.0
 40
2.0
 40
2.0
 40
3.0
 40
3.0
 40
3.0
 40
4.0
 40
4.0
 40
4.0
 40
5.0
 40
5.0
 40
5.0
 40
6.0
 40
6.0
 40
6.0
 40
7.0
 40
7.0
 40
7.0
 40
7.0
 10
107.3264376901823
 20
-142.7148030242171
 10
107.3264376901823
 20
-142.7148030242171
 10
106.2222845871597
 20
-142.7148030242171
 10
106.2222845871597
 20
-142.7148030242171
 10
106.2222845871597
 20
-142.7148030242171
 10
106.2222845871597
 20
-143.0035020258811
 10
106.2222845871597
 20
-143.0035020258811
 10
106.2222845871597
 20
-143.0035020258811
 10
106.074145481294
 20
-143.0035020258811
 10
106.074145481294
 20
-143.0035020258811
 10
106.0593315707074
 20
-142.712735966926
 10
105.8963785542551
 20
-142.6720838402
 10
105.7820013841448
 20
-142.6462456240607
 10
105.7820013841448
 20
-142.6462456240607
 10
105.7820013841448
 20
-142.5184325815579
 10
105.7820013841448
 20
-142.5184325815579
 10
105.7820013841448
 20
-142.5184325815579
 10
107.3264376901823
 20
-142.5184325815579
 10
107.3264376901823
 20
-142.5184325815579
 10
107.3264376901823
 20
-142.5184325815579
 10
107.3264376901823
 20
-142.7148030242171
 10
107.3264376901823
 20
-142.7148030242171
 97
        0
 97
        0
 75
     2
 76
     1
 98
        0
  0
SPLINE
  5
8A
330
84
100
AcDbEntity
  8
_U+30EC_U+30A4_U+30E4_U+30FC 1
370
     0
100
AcDbSpline
210
0.0
220
0.0
230
1.0
 70
    11
 71
     3
 72
    62
 73
    58
 74
     0
 42
0.0000000001
 43
0.0000000001
 12
1.0
 22
0.0
 32
0.0
 13
1.0
 23
0.0
 33
0.0
 40
0.0
 40
0.0
 40
0.0
 40
0.0
 40
1.0
 40
1.0
 40
1.0
 40
2.0
 40
2.0
 40
2.0
 40
3.0
 40
3.0
 40
3.0
 40
4.0
 40
4.0
 40
4.0
 40
5.0
 40
5.0
 40
5.0
 40
6.0
 40
6.0
 40
6.0
 40
7.0
 40
7.0
 40
7.0
 40
8.0
 40
8.0
 40
8.0
 40
9.0
 40
9.0
 40
9.0
 40
10.0
 40
10.0
 40
10.0
 40
11.0
 40
11.0
 40
11.0
 40
12.0
 40
12.0
 40
12.0
 40
13.0
 40
13.0
 40
13.0
 40
14.0
 40
14.0
 40
14.0
 40
15.0
 40
15.0
 40
15.0
 40
16.0
 40
16.0
 40
16.0
 40
17.0
 40
17.0
 40
17.0
 40
18.0
 40
18.0
 40
18.0
 40
19.0
 40
19.0
 40
19.0
 40
19.0
 10
107.3770805938155
 20
-141.6485459715323
 30
0.0
 10
107.3770805938155
 20
-141.7319172822754
 30
0.0
 10
107.3560655113554
 20
-141.9227755721582
 30
0.0
 10
107.1700303551519
 20
-142.0319850990406
 30
0.0
 10
107.0577202423328
 20
-142.0967528941633
 30
0.0
 10
106.9585014923576
 20
-142.1005424991971
 30
0.0
 10
106.8737521434205
 20
-142.1043321042309
 30
0.0
 10
106.8737521434205
 20
-142.1043321042309
 30
0.0
 10
106.8737521434205
 20
-141.9117512666054
 30
0.0
 10
106.8737521434205
 20
-141.9117512666054
 30
0.0
 10
106.9478216963533
 20
-141.9096842093143
 30
0.0
 10
107.1824326988988
 20
-141.9003824515041
 30
0.0
 10
107.1824326988988
 20
-141.6523355765661
 30
0.0
 10
107.1824326988988
 20
-141.5321017441309
 30
0.0
 10
107.1128417700968
 20
-141.3987765488517
 30
0.0
 10
106.8844319394247
 20
-141.3987765488517
 30
0.0
 10
106.7679877120233
 20
-141.3987765488517
 30
0.0
 10
106.7194118656813
 20
-141.4321939750586
 30
0.0
 10
106.687716987217
 20
-141.4597547389406
 30
0.0
 10
106.6136474342841
 20
-141.5245225340633
 30
0.0
 10
106.6009005809887
 20
-141.6264973604267
 30
0.0
 10
106.6009005809887
 20
-141.6747286972202
 30
0.0
 10
106.6009005809887
 20
-141.6912651555494
 30
0.0
 10
106.6029676382798
 20
-141.7226155244652
 30
0.0
 10
106.6071017528621
 20
-141.7467311928619
 30
0.0
 10
106.6071017528621
 20
-141.7467311928619
 30
0.0
 10
106.4124538579455
 20
-141.7467311928619
 30
0.0
 10
106.4124538579455
 20
-141.7467311928619
 30
0.0
 10
106.4189995393675
 20
-141.7136582762035
 30
0.0
 10
106.4210665966586
 20
-141.6764512449628
 30
0.0
 10
106.4210665966586
 20
-141.6709390921864
 30
0.0
 10
106.4210665966586
 20
-141.6134059975828
 30
0.0
 10
106.3997070046501
 20
-141.4394286755777
 30
0.0
 10
106.1630289448134
 20
-141.4394286755777
 30
0.0
 10
105.9852620177745
 20
-141.4394286755777
 30
0.0
 10
105.9301404900105
 20
-141.5541503552365
 30
0.0
 10
105.9301404900105
 20
-141.6506130288235
 30
0.0
 10
105.9301404900105
 20
-141.8821234454323
 30
0.0
 10
106.1630289448134
 20
-141.8893581459513
 30
0.0
 10
106.2346869309066
 20
-141.8931477509851
 30
0.0
 10
106.2346869309066
 20
-141.8931477509851
 30
0.0
 10
106.2346869309066
 20
-142.0709146780239
 30
0.0
 10
106.2346869309066
 20
-142.0709146780239
 30
0.0
 10
106.1099744743406
 20
-142.0633354679564
 30
0.0
 10
105.7334255378028
 20
-142.0395643091082
 30
0.0
 10
105.7334255378028
 20
-141.6395887232707
 30
0.0
 10
105.7334255378028
 20
-141.4432182806114
 30
0.0
 10
105.8605495612085
 20
-141.2320339273656
 30
0.0
 10
106.1564832633914
 20
-141.2320339273656
 30
0.0
 10
106.3428629291435
 20
-141.2320339273656
 30
0.0
 10
106.4252007112409
 20
-141.3154052381087
 30
0.0
 10
106.4865234108784
 20
-141.4025661538855
 30
0.0
 10
106.5140841747604
 20
-141.3488226643156
 30
0.0
 10
106.5943548995667
 20
-141.1893147433485
 30
0.0
 10
106.8716850861293
 20
-141.1893147433485
 30
0.0
 10
107.2099934627808
 20
-141.1893147433485
 30
0.0
 10
107.3770805938155
 20
-141.4060112493707
 30
0.0
 10
107.3770805938155
 20
-141.6485459715323
 30
0.0
  0
HATCH
  5
8B
330
84
100
AcDbEntity
  8
_U+30EC_U+30A4_U+30E4_U+30FC 1
 62
   179
420
  2234388
100
AcDbHatch
 10
0.0
 20
0.0
 30
0.0
210
0.0
220
0.0
230
1.0
  2
SOLID
 70
     1
 71
     0
 91
        1
 92
        1
 93
        1
 72
     4
 94
        3
 73
     0
 74
     1
 95
       62
 96
       58
 40
0.0
 40
0.0
 40
0.0
 40
0.0
 40
1.0
 40
1.0
 40
1.0
 40
2.0
 40
2.0
 40
2.0
 40
3.0
 40
3.0
 40
3.0
 40
4.0
 40
4.0
 40
4.0
 40
5.0
 40
5.0
 40
5.0
 40
6.0
 40
6.0
 40
6.0
 40
7.0
 40
7.0
 40
7.0
 40
8.0
 40
8.0
 40
8.0
 40
9.0
 40
9.0
 40
9.0
 40
10.0
 40
10.0
 40
10.0
 40
11.0
 40
11.0
 40
11.0
 40
12.0
 40
12.0
 40
12.0
 40
13.0
 40
13.0
 40
13.0
 40
14.0
 40
14.0
 40
14.0
 40
15.0
 40
15.0
 40
15.0
 40
16.0
 40
16.0
 40
16.0
 40
17.0
 40
17.0
 40
17.0
 40
18.0
 40
18.0
 40
18.0
 40
19.0
 40
19.0
 40
19.0
 40
19.0
 10
107.3770805938155
 20
-141.6485459715323
 10
107.3770805938155
 20
-141.7319172822754
 10
107.3560655113554
 20
-141.9227755721582
 10
107.1700303551519
 20
-142.0319850990406
 10
107.0577202423328
 20
-142.0967528941633
 10
106.9585014923576
 20
-142.1005424991971
 10
106.8737521434205
 20
-142.1043321042309
 10
106.8737521434205
 20
-142.1043321042309
 10
106.8737521434205
 20
-141.9117512666054
 10
106.8737521434205
 20
-141.9117512666054
 10
106.9478216963533
 20
-141.9096842093143
 10
107.1824326988988
 20
-141.9003824515041
 10
107.1824326988988
 20
-141.6523355765661
 10
107.1824326988988
 20
-141.5321017441309
 10
107.1128417700968
 20
-141.3987765488517
 10
106.8844319394247
 20
-141.3987765488517
 10
106.7679877120233
 20
-141.3987765488517
 10
106.7194118656813
 20
-141.4321939750586
 10
106.687716987217
 20
-141.4597547389406
 10
106.6136474342841
 20
-141.5245225340633
 10
106.6009005809887
 20
-141.6264973604267
 10
106.6009005809887
 20
-141.6747286972202
 10
106.6009005809887
 20
-141.6912651555494
 10
106.6029676382798
 20
-141.7226155244652
 10
106.6071017528621
 20
-141.7467311928619
 10
106.6071017528621
 20
-141.7467311928619
 10
106.4124538579455
 20
-141.7467311928619
 10
106.4124538579455
 20
-141.7467311928619
 10
106.4189995393675
 20
-141.7136582762035
 10
106.4210665966586
 20
-141.6764512449628
 10
106.4210665966586
 20
-141.6709390921864
 10
106.4210665966586
 20
-141.6134059975828
 10
106.3997070046501
 20
-141.4394286755777
 10
106.1630289448134
 20
-141.4394286755777
 10
105.9852620177745
 20
-141.4394286755777
 10
105.9301404900105
 20
-141.5541503552365
 10
105.9301404900105
 20
-141.6506130288235
 10
105.9301404900105
 20
-141.8821234454323
 10
106.1630289448134
 20
-141.8893581459513
 10
106.2346869309066
 20
-141.8931477509851
 10
106.2346869309066
 20
-141.8931477509851
 10
106.2346869309066
 20
-142.0709146780239
 10
106.2346869309066
 20
-142.0709146780239
 10
106.1099744743406
 20
-142.0633354679564
 10
105.7334255378028
 20
-142.0395643091082
 10
105.7334255378028
 20
-141.6395887232707
 10
105.7334255378028
 20
-141.4432182806114
 10
105.8605495612085
 20
-141.2320339273656
 10
106.1564832633914
 20
-141.2320339273656
 10
106.3428629291435
 20
-141.2320339273656
 10
106.4252007112409
 20
-141.3154052381087
 10
106.4865234108784
 20
-141.4025661538855
 10
106.5140841747604
 20
-141.3488226643156
 10
106.5943548995667
 20
-141.1893147433485
 10
106.8716850861293
 20
-141.1893147433485
 10
107.2099934627808
 20
-141.1893147433485
 10
107.3770805938155
 20
-141.4060112493707
 10
107.3770805938155
 20
-141.6485459715323
 97
        0
 97
        0
 75
     2
 76
     1
 98
        0
  0
ENDBLK
  5
87
330
84
100
AcDbEntity
  8
0
100
AcDbBlockEnd
  0
ENDSEC
  0
SECTION
  2
ENTITIES
  0
INSERT
  5
42
330
1F
100
AcDbEntity
  8
_U+30EC_U+30A4_U+30E4_U+30FC 1
100
AcDbBlockReference
  2
block 2
 10
0.0
 20
0.0
 30
0.0
  0
ENDSEC
  0
SECTION
  2
OBJECTS
  0
DICTIONARY
  5
C
330
0
100
AcDbDictionary
281
     1
  3
ACAD_GROUP
350
D
  3
ACAD_LAYOUT
350
1A
  3
ACAD_MATERIAL
350
3B
  3
ACAD_MLEADERSTYLE
350
93
  3
ACAD_MLINESTYLE
350
17
  3
ACAD_PLOTSETTINGS
350
19
  3
ACAD_PLOTSTYLENAME
350
E
  3
ACAD_TABLESTYLE
350
92
  3
ACAD_VISUALSTYLE
350
2A
  0
SUN
  5
3F
330
29
100
AcDbSun
 90
        1
290
     0
 63
     7
421
 16777215
 40
1.0
291
     1
 91
  2455826
 92
 54000000
292
     0
 70
     2
 71
   256
280
     1
  0
DICTIONARY
  5
D
102
{ACAD_REACTORS
330
C
102
}
330
C
100
AcDbDictionary
281
     1
  0
DICTIONARY
  5
1A
102
{ACAD_REACTORS
330
C
102
}
330
C
100
AcDbDictionary
281
     1
  3
Layout1
350
1E
  3
Layout2
350
26
  3
Model
350
22
  0
DICTIONARY
  5
3B
102
{ACAD_REACTORS
330
C
102
}
330
C
100
AcDbDictionary
281
     1
  3
ByBlock
350
3D
  3
ByLayer
350
3C
  3
Global
350
3E
  0
DICTIONARY
  5
93
102
{ACAD_REACTORS
330
C
102
}
330
C
100
AcDbDictionary
281
     1
  0
DICTIONARY
  5
17
102
{ACAD_REACTORS
330
C
102
}
330
C
100
AcDbDictionary
281
     1
  3
Standard
350
18
  0
DICTIONARY
  5
19
102
{ACAD_REACTORS
330
C
102
}
330
C
100
AcDbDictionary
281
     1
  0
ACDBDICTIONARYWDFLT
  5
E
102
{ACAD_REACTORS
330
C
102
}
330
C
100
AcDbDictionary
281
     1
  3
Normal
350
F
100
AcDbDictionaryWithDefault
340
F
  0
DICTIONARY
  5
92
102
{ACAD_REACTORS
330
C
102
}
330
C
100
AcDbDictionary
281
     1
  0
DICTIONARY
  5
2A
102
{ACAD_REACTORS
330
C
102
}
330
C
100
AcDbDictionary
281
     1
  3
2dWireframe
350
2F
  3
3D Hidden
350
31
  3
3dWireframe
350
30
  3
Basic
350
32
  3
Brighten
350
36
  3
ColorChange
350
3A
  3
Conceptual
350
34
  3
Dim
350
35
  3
Facepattern
350
39
  3
Flat
350
2B
  3
FlatWithEdges
350
2C
  3
Gouraud
350
2D
  3
GouraudWithEdges
350
2E
  3
Linepattern
350
38
  3
Realistic
350
33
  3
Thicken
350
37
  0
LAYOUT
  5
1E
102
{ACAD_REACTORS
330
1A
102
}
330
1A
100
AcDbPlotSettings
  1

  2
none_device
  4

  6

 40
0.0
 41
0.0
 42
0.0
 43
0.0
 44
0.0
 45
0.0
 46
0.0
 47
0.0
 48
0.0
 49
0.0
140
0.0
141
0.0
142
1.0
143
1.0
 70
   688
 72
     0
 73
     0
 74
     5
  7

 75
    16
 76
     0
 77
     2
 78
   300
147
1.0
148
0.0
149
0.0
100
AcDbLayout
  1
Layout1
 70
     1
 71
     1
 10
0.0
 20
0.0
 11
12.0
 21
9.0
 12
0.0
 22
0.0
 32
0.0
 14
1.000000000000000E+20
 24
1.000000000000000E+20
 34
1.000000000000000E+20
 15
-1.000000000000000E+20
 25
-1.000000000000000E+20
 35
-1.000000000000000E+20
146
0.0
 13
0.0
 23
0.0
 33
0.0
 16
1.0
 26
0.0
 36
0.0
 17
0.0
 27
1.0
 37
0.0
 76
     0
330
1B
  0
LAYOUT
  5
26
102
{ACAD_REACTORS
330
1A
102
}
330
1A
100
AcDbPlotSettings
  1

  2
none_device
  4

  6

 40
0.0
 41
0.0
 42
0.0
 43
0.0
 44
0.0
 45
0.0
 46
0.0
 47
0.0
 48
0.0
 49
0.0
140
0.0
141
0.0
142
1.0
143
1.0
 70
   688
 72
     0
 73
     0
 74
     5
  7

 75
    16
 76
     0
 77
     2
 78
   300
147
1.0
148
0.0
149
0.0
100
AcDbLayout
  1
Layout2
 70
     1
 71
     2
 10
0.0
 20
0.0
 11
0.0
 21
0.0
 12
0.0
 22
0.0
 32
0.0
 14
0.0
 24
0.0
 34
0.0
 15
0.0
 25
0.0
 35
0.0
146
0.0
 13
0.0
 23
0.0
 33
0.0
 16
1.0
 26
0.0
 36
0.0
 17
0.0
 27
1.0
 37
0.0
 76
     0
330
23
  0
LAYOUT
  5
22
102
{ACAD_REACTORS
330
1A
102
}
330
1A
100
AcDbPlotSettings
  1

  2
none_device
  4

  6

 40
0.0
 41
0.0
 42
0.0
 43
0.0
 44
0.0
 45
0.0
 46
0.0
 47
0.0
 48
0.0
 49
0.0
140
0.0
141
0.0
142
1.0
143
1.0
 70
  1712
 72
     0
 73
     0
 74
     0
  7

 75
     0
 76
     0
 77
     2
 78
   300
147
1.0
148
0.0
149
0.0
100
AcDbLayout
  1
Model
 70
     1
 71
     0
 10
0.0
 20
0.0
 11
12.0
 21
9.0
 12
0.0
 22
0.0
 32
0.0
 14
1.000000000000000E+20
 24
1.000000000000000E+20
 34
1.000000000000000E+20
 15
-1.000000000000000E+20
 25
-1.000000000000000E+20
 35
-1.000000000000000E+20
146
0.0
 13
0.0
 23
0.0
 33
0.0
 16
1.0
 26
0.0
 36
0.0
 17
0.0
 27
1.0
 37
0.0
 76
     0
330
1F
331
29
  0
MATERIAL
  5
3D
102
{ACAD_REACTORS
330
3B
102
}
330
3B
100
AcDbMaterial
  1
ByBlock
 72
     1
 94
      127
  0
MATERIAL
  5
3C
102
{ACAD_REACTORS
330
3B
102
}
330
3B
100
AcDbMaterial
  1
ByLayer
 72
     1
 94
      127
  0
MATERIAL
  5
3E
102
{ACAD_REACTORS
330
3B
102
}
330
3B
100
AcDbMaterial
  1
Global
 72
     1
 94
      127
  0
MLINESTYLE
  5
18
102
{ACAD_REACTORS
330
17
102
}
330
17
100
AcDbMlineStyle
  2
Standard
 70
     0
  3

 62
   256
 51
90.0
 52
90.0
 71
     2
 49
0.5
 62
   256
  6
BYLAYER
 49
-0.5
 62
   256
  6
BYLAYER
  0
ACDBPLACEHOLDER
  5
F
102
{ACAD_REACTORS
330
E
102
}
330
E
  0
VISUALSTYLE
  5
2F
102
{ACAD_REACTORS
330
2A
102
}
330
2A
100
AcDbVisualStyle
  2
2dWireframe
 70
     4
177
     2
291
     0
 71
     0
176
     1
 72
     2
176
     1
 73
     0
176
     1
 90
        0
176
     1
 40
-0.6
176
     1
 41
-30.0
176
     1
 62
     5
 63
     7
421
 16777215
176
     1
 74
     1
176
     1
 91
        4
176
     1
 64
     7
176
     1
 65
   257
176
     1
 75
     1
176
     1
175
     1
176
     1
 42
1.0
176
     1
 92
        0
176
     1
 66
   257
176
     1
 43
1.0
176
     1
 76
     1
176
     1
 77
     6
176
     1
 78
     2
176
     1
 67
     7
176
     1
 79
     5
176
     1
170
     0
176
     1
171
     0
176
     1
290
     0
176
     1
 93
        1
176
     1
 44
0.0
176
     1
173
     0
176
     1
  0
VISUALSTYLE
  5
31
102
{ACAD_REACTORS
330
2A
102
}
330
2A
100
AcDbVisualStyle
  2
3D Hidden
 70
     6
177
     2
291
     0
 71
     1
176
     1
 72
     2
176
     1
 73
     2
176
     1
 90
        0
176
     1
 40
-0.6
176
     1
 41
-30.0
176
     1
 62
     5
 63
     7
421
 16777215
176
     1
 74
     2
176
     1
 91
        2
176
     1
 64
     7
176
     1
 65
   257
176
     1
 75
     2
176
     1
175
     1
176
     1
 42
40.0
176
     1
 92
        0
176
     1
 66
   257
176
     1
 43
1.0
176
     1
 76
     1
176
     1
 77
     6
176
     1
 78
     2
176
     1
 67
     7
176
     1
 79
     3
176
     1
170
     0
176
     1
171
     0
176
     1
290
     0
176
     1
 93
        1
176
     1
 44
0.0
176
     1
173
     0
176
     1
  0
VISUALSTYLE
  5
30
102
{ACAD_REACTORS
330
2A
102
}
330
2A
100
AcDbVisualStyle
  2
3dWireframe
 70
     5
177
     2
291
     0
 71
     0
176
     1
 72
     2
176
     1
 73
     0
176
     1
 90
        0
176
     1
 40
-0.6
176
     1
 41
-30.0
176
     1
 62
     5
 63
     7
421
 16777215
176
     1
 74
     1
176
     1
 91
        4
176
     1
 64
     7
176
     1
 65
   257
176
     1
 75
     1
176
     1
175
     1
176
     1
 42
1.0
176
     1
 92
        0
176
     1
 66
   257
176
     1
 43
1.0
176
     1
 76
     1
176
     1
 77
     6
176
     1
 78
     2
176
     1
 67
     7
176
     1
 79
     5
176
     1
170
     0
176
     1
171
     0
176
     1
290
     0
176
     1
 93
        1
176
     1
 44
0.0
176
     1
173
     0
176
     1
  0
VISUALSTYLE
  5
32
102
{ACAD_REACTORS
330
2A
102
}
330
2A
100
AcDbVisualStyle
  2
Basic
 70
     7
177
     2
291
     1
 71
     1
176
     1
 72
     0
176
     1
 73
     1
176
     1
 90
        0
176
     1
 40
-0.6
176
     1
 41
-30.0
176
     1
 62
     5
 63
     7
421
 16777215
176
     1
 74
     0
176
     1
 91
        4
176
     1
 64
     7
176
     1
 65
   257
176
     1
 75
     1
176
     1
175
     1
176
     1
 42
1.0
176
     1
 92
        8
176
     1
 66
     7
176
     1
 43
1.0
176
     1
 76
     1
176
     1
 77
     6
176
     1
 78
     2
176
     1
 67
     7
176
     1
 79
     5
176
     1
170
     0
176
     1
171
     0
176
     1
290
     0
176
     1
 93
        1
176
     1
 44
0.0
176
     1
173
     0
176
     1
  0
VISUALSTYLE
  5
36
102
{ACAD_REACTORS
330
2A
102
}
330
2A
100
AcDbVisualStyle
  2
Brighten
 70
    12
177
     2
291
     1
 71
     2
176
     1
 72
     2
176
     1
 73
     0
176
     1
 90
        0
176
     1
 40
-0.6
176
     1
 41
-30.0
176
     1
 62
     5
 63
     7
421
 16777215
176
     1
 74
     1
176
     1
 91
        4
176
     1
 64
     7
176
     1
 65
   257
176
     1
 75
     1
176
     1
175
     1
176
     1
 42
1.0
176
     1
 92
        8
176
     1
 66
     7
176
     1
 43
1.0
176
     1
 76
     1
176
     1
 77
     6
176
     1
 78
     2
176
     1
 67
     7
176
     1
 79
     5
176
     1
170
     0
176
     1
171
     0
176
     1
290
     0
176
     1
 93
        1
176
     1
 44
50.0
176
     1
173
     0
176
     1
  0
VISUALSTYLE
  5
3A
102
{ACAD_REACTORS
330
2A
102
}
330
2A
100
AcDbVisualStyle
  2
ColorChange
 70
    16
177
     2
291
     1
 71
     2
176
     1
 72
     2
176
     1
 73
     3
176
     1
 90
        0
176
     1
 40
-0.6
176
     1
 41
-30.0
176
     1
 62
     5
 63
     8
421
  8421504
176
     1
 74
     1
176
     1
 91
        4
176
     1
 64
     7
176
     1
 65
   257
176
     1
 75
     1
176
     1
175
     1
176
     1
 42
1.0
176
     1
 92
        8
176
     1
 66
     8
424
  8421504
176
     1
 43
1.0
176
     1
 76
     1
176
     1
 77
     6
176
     1
 78
     2
176
     1
 67
     7
176
     1
 79
     5
176
     1
170
     0
176
     1
171
     0
176
     1
290
     0
176
     1
 93
        1
176
     1
 44
0.0
176
     1
173
     0
176
     1
  0
VISUALSTYLE
  5
34
102
{ACAD_REACTORS
330
2A
102
}
330
2A
100
AcDbVisualStyle
  2
Conceptual
 70
     9
177
     2
291
     0
 71
     3
176
     1
 72
     2
176
     1
 73
     0
176
     1
 90
        0
176
     1
 40
-0.6
176
     1
 41
-30.0
176
     1
 62
     5
 63
     7
421
 16777215
176
     1
 74
     2
176
     1
 91
        2
176
     1
 64
     7
176
     1
 65
   257
176
     1
 75
     1
176
     1
175
     1
176
     1
 42
40.0
176
     1
 92
        8
176
     1
 66
     7
176
     1
 43
1.0
176
     1
 76
     1
176
     1
 77
     6
176
     1
 78
     2
176
     1
 67
     7
176
     1
 79
     3
176
     1
170
     0
176
     1
171
     0
176
     1
290
     0
176
     1
 93
        1
176
     1
 44
0.0
176
     1
173
     0
176
     1
  0
VISUALSTYLE
  5
35
102
{ACAD_REACTORS
330
2A
102
}
330
2A
100
AcDbVisualStyle
  2
Dim
 70
    11
177
     2
291
     1
 71
     2
176
     1
 72
     2
176
     1
 73
     0
176
     1
 90
        0
176
     1
 40
-0.6
176
     1
 41
-30.0
176
     1
 62
     5
 63
     7
421
 16777215
176
     1
 74
     1
176
     1
 91
        4
176
     1
 64
     7
176
     1
 65
   257
176
     1
 75
     1
176
     1
175
     1
176
     1
 42
1.0
176
     1
 92
        8
176
     1
 66
     7
176
     1
 43
1.0
176
     1
 76
     1
176
     1
 77
     6
176
     1
 78
     2
176
     1
 67
     7
176
     1
 79
     5
176
     1
170
     0
176
     1
171
     0
176
     1
290
     0
176
     1
 93
        1
176
     1
 44
-50.0
176
     1
173
     0
176
     1
  0
VISUALSTYLE
  5
39
102
{ACAD_REACTORS
330
2A
102
}
330
2A
100
AcDbVisualStyle
  2
Facepattern
 70
    15
177
     2
291
     1
 71
     2
176
     1
 72
     2
176
     1
 73
     0
176
     1
 90
        0
176
     1
 40
-0.6
176
     1
 41
-30.0
176
     1
 62
     5
 63
     7
421
 16777215
176
     1
 74
     1
176
     1
 91
        4
176
     1
 64
     7
176
     1
 65
   257
176
     1
 75
     1
176
     1
175
     1
176
     1
 42
1.0
176
     1
 92
        8
176
     1
 66
     7
176
     1
 43
1.0
176
     1
 76
     1
176
     1
 77
     6
176
     1
 78
     2
176
     1
 67
     7
176
     1
 79
     5
176
     1
170
     0
176
     1
171
     0
176
     1
290
     0
176
     1
 93
        1
176
     1
 44
0.0
176
     1
173
     0
176
     1
  0
VISUALSTYLE
  5
2B
102
{ACAD_REACTORS
330
2A
102
}
330
2A
100
AcDbVisualStyle
  2
Flat
 70
     0
177
     2
291
     1
 71
     2
176
     1
 72
     1
176
     1
 73
     1
176
     1
 90
        2
176
     1
 40
-0.6
176
     1
 41
30.0
176
     1
 62
     5
 63
     7
421
 16777215
176
     1
 74
     0
176
     1
 91
        4
176
     1
 64
     7
176
     1
 65
   257
176
     1
 75
     1
176
     1
175
     1
176
     1
 42
1.0
176
     1
 92
        8
176
     1
 66
     7
176
     1
 43
1.0
176
     1
 76
     1
176
     1
 77
     6
176
     1
 78
     2
176
     1
 67
     7
176
     1
 79
     5
176
     1
170
     0
176
     1
171
     0
176
     1
290
     0
176
     1
 93
       13
176
     1
 44
0.0
176
     1
173
     0
176
     1
  0
VISUALSTYLE
  5
2C
102
{ACAD_REACTORS
330
2A
102
}
330
2A
100
AcDbVisualStyle
  2
FlatWithEdges
 70
     1
177
     2
291
     1
 71
     2
176
     1
 72
     1
176
     1
 73
     1
176
     1
 90
        2
176
     1
 40
-0.6
176
     1
 41
30.0
176
     1
 62
     5
 63
     7
421
 16777215
176
     1
 74
     1
176
     1
 91
        4
176
     1
 64
     7
176
     1
 65
   257
176
     1
 75
     1
176
     1
175
     1
176
     1
 42
1.0
176
     1
 92
        0
176
     1
 66
   257
176
     1
 43
1.0
176
     1
 76
     1
176
     1
 77
     6
176
     1
 78
     2
176
     1
 67
     7
176
     1
 79
     5
176
     1
170
     0
176
     1
171
     0
176
     1
290
     0
176
     1
 93
       13
176
     1
 44
0.0
176
     1
173
     0
176
     1
  0
VISUALSTYLE
  5
2D
102
{ACAD_REACTORS
330
2A
102
}
330
2A
100
AcDbVisualStyle
  2
Gouraud
 70
     2
177
     2
291
     1
 71
     2
176
     1
 72
     2
176
     1
 73
     1
176
     1
 90
        2
176
     1
 40
-0.6
176
     1
 41
30.0
176
     1
 62
     5
 63
     7
421
 16777215
176
     1
 74
     0
176
     1
 91
        4
176
     1
 64
     7
176
     1
 65
   257
176
     1
 75
     1
176
     1
175
     1
176
     1
 42
1.0
176
     1
 92
        0
176
     1
 66
     7
176
     1
 43
1.0
176
     1
 76
     1
176
     1
 77
     6
176
     1
 78
     2
176
     1
 67
     7
176
     1
 79
     5
176
     1
170
     0
176
     1
171
     0
176
     1
290
     0
176
     1
 93
       13
176
     1
 44
0.0
176
     1
173
     0
176
     1
  0
VISUALSTYLE
  5
2E
102
{ACAD_REACTORS
330
2A
102
}
330
2A
100
AcDbVisualStyle
  2
GouraudWithEdges
 70
     3
177
     2
291
     1
 71
     2
176
     1
 72
     2
176
     1
 73
     1
176
     1
 90
        2
176
     1
 40
-0.6
176
     1
 41
30.0
176
     1
 62
     5
 63
     7
421
 16777215
176
     1
 74
     1
176
     1
 91
        4
176
     1
 64
     7
176
     1
 65
   257
176
     1
 75
     1
176
     1
175
     1
176
     1
 42
1.0
176
     1
 92
        0
176
     1
 66
   257
176
     1
 43
1.0
176
     1
 76
     1
176
     1
 77
     6
176
     1
 78
     2
176
     1
 67
     7
176
     1
 79
     5
176
     1
170
     0
176
     1
171
     0
176
     1
290
     0
176
     1
 93
       13
176
     1
 44
0.0
176
     1
173
     0
176
     1
  0
VISUALSTYLE
  5
38
102
{ACAD_REACTORS
330
2A
102
}
330
2A
100
AcDbVisualStyle
  2
Linepattern
 70
    14
177
     2
291
     1
 71
     2
176
     1
 72
     2
176
     1
 73
     0
176
     1
 90
        0
176
     1
 40
-0.6
176
     1
 41
-30.0
176
     1
 62
     5
 63
     7
421
 16777215
176
     1
 74
     1
176
     1
 91
        4
176
     1
 64
     7
176
     1
 65
   257
176
     1
 75
     7
176
     1
175
     7
176
     1
 42
1.0
176
     1
 92
        8
176
     1
 66
     7
176
     1
 43
1.0
176
     1
 76
     1
176
     1
 77
     6
176
     1
 78
     2
176
     1
 67
     7
176
     1
 79
     5
176
     1
170
     0
176
     1
171
     0
176
     1
290
     0
176
     1
 93
        1
176
     1
 44
0.0
176
     1
173
     0
176
     1
  0
VISUALSTYLE
  5
33
102
{ACAD_REACTORS
330
2A
102
}
330
2A
100
AcDbVisualStyle
  2
Realistic
 70
     8
177
     2
291
     0
 71
     2
176
     1
 72
     2
176
     1
 73
     0
176
     1
 90
        0
176
     1
 40
-0.6
176
     1
 41
-30.0
176
     1
 62
     5
 63
     7
421
 16777215
176
     1
 74
     1
176
     1
 91
        0
176
     1
 64
     7
176
     1
 65
   257
176
     1
 75
     1
176
     1
175
     1
176
     1
 42
1.0
176
     1
 92
        8
176
     1
 66
     8
424
  7895160
176
     1
 43
1.0
176
     1
 76
     1
176
     1
 77
     6
176
     1
 78
     2
176
     1
 67
     7
176
     1
 79
     5
176
     1
170
     0
176
     1
171
     0
176
     1
290
     0
176
     1
 93
       13
176
     1
 44
0.0
176
     1
173
     0
176
     1
  0
VISUALSTYLE
  5
37
102
{ACAD_REACTORS
330
2A
102
}
330
2A
100
AcDbVisualStyle
  2
Thicken
 70
    13
177
     2
291
     1
 71
     2
176
     1
 72
     2
176
     1
 73
     0
176
     1
 90
        0
176
     1
 40
-0.6
176
     1
 41
-30.0
176
     1
 62
     5
 63
     7
421
 16777215
176
     1
 74
     1
176
     1
 91
        4
176
     1
 64
     7
176
     1
 65
   257
176
     1
 75
     1
176
     1
175
     1
176
     1
 42
1.0
176
     1
 92
       12
176
     1
 66
     7
176
     1
 43
1.0
176
     1
 76
     1
176
     1
 77
     6
176
     1
 78
     2
176
     1
 67
     7
176
     1
 79
     5
176
     1
170
     0
176
     1
171
     0
176
     1
290
     0
176
     1
 93
        1
176
     1
 44
0.0
176
     1
173
     0
176
     1
  0
ENDSEC
  0
EOF
