  0
SECTION
  2
HEADER
  9
$ACADVER
  1
AC1024
  9
$ACADMAINTVER
 70
     6
  9
$DWGCODEPAGE
  3
UNDEFINED
  9
$INSBASE
 10
0.0
 20
0.0
 30
0.0
  9
$EXTMIN
 10
1.000000000000000E+20
 20
1.000000000000000E+20
 30
1.000000000000000E+20
  9
$EXTMAX
 10
-1.000000000000000E+20
 20
-1.000000000000000E+20
 30
-1.000000000000000E+20
  9
$LIMMIN
 10
0.0
 20
0.0
  9
$LIMMAX
 10
12.0
 20
9.0
  9
$ORTHOMODE
 70
     0
  9
$REGENMODE
 70
     1
  9
$FILLMODE
 70
     1
  9
$QTEXTMODE
 70
     0
  9
$MIRRTEXT
 70
     1
  9
$LTSCALE
 40
1.0
  9
$ATTMODE
 70
     1
  9
$TEXTSIZE
 40
0.2
  9
$TRACEWID
 40
0.05
  9
$TEXTSTYLE
  7
Standard
  9
$CLAYER
  8
0
  9
$CELTYPE
  6
ByLayer
  9
$CECOLOR
 62
   256
  9
$CELTSCALE
 40
1.0
  9
$DISPSILH
 70
     0
  9
$DIMSCALE
 40
1.0
  9
$DIMASZ
 40
0.18
  9
$DIMEXO
 40
0.0625
  9
$DIMDLI
 40
0.38
  9
$DIMRND
 40
0.0
  9
$DIMDLE
 40
0.0
  9
$DIMEXE
 40
0.18
  9
$DIMTP
 40
0.0
  9
$DIMTM
 40
0.0
  9
$DIMTXT
 40
0.18
  9
$DIMCEN
 40
0.09
  9
$DIMTSZ
 40
0.0
  9
$DIMTOL
 70
     0
  9
$DIMLIM
 70
     0
  9
$DIMTIH
 70
     1
  9
$DIMTOH
 70
     1
  9
$DIMSE1
 70
     0
  9
$DIMSE2
 70
     0
  9
$DIMTAD
 70
     0
  9
$DIMZIN
 70
     0
  9
$DIMBLK
  1

  9
$DIMASO
 70
     1
  9
$DIMSHO
 70
     1
  9
$DIMPOST
  1

  9
$DIMAPOST
  1

  9
$DIMALT
 70
     0
  9
$DIMALTD
 70
     2
  9
$DIMALTF
 40
25.4
  9
$DIMLFAC
 40
1.0
  9
$DIMTOFL
 70
     0
  9
$DIMTVP
 40
0.0
  9
$DIMTIX
 70
     0
  9
$DIMSOXD
 70
     0
  9
$DIMSAH
 70
     0
  9
$DIMBLK1
  1

  9
$DIMBLK2
  1

  9
$DIMSTYLE
  2
Standard
  9
$DIMCLRD
 70
     0
  9
$DIMCLRE
 70
     0
  9
$DIMCLRT
 70
     0
  9
$DIMTFAC
 40
1.0
  9
$DIMGAP
 40
0.09
  9
$DIMJUST
 70
     0
  9
$DIMSD1
 70
     0
  9
$DIMSD2
 70
     0
  9
$DIMTOLJ
 70
     1
  9
$DIMTZIN
 70
     0
  9
$DIMALTZ
 70
     0
  9
$DIMALTTZ
 70
     0
  9
$DIMUPT
 70
     0
  9
$DIMDEC
 70
     4
  9
$DIMTDEC
 70
     4
  9
$DIMALTU
 70
     2
  9
$DIMALTTD
 70
     2
  9
$DIMTXSTY
  7
Standard
  9
$DIMAUNIT
 70
     0
  9
$DIMADEC
 70
     0
  9
$DIMALTRND
 40
0.0
  9
$DIMAZIN
 70
     0
  9
$DIMDSEP
 70
    46
  9
$DIMATFIT
 70
     3
  9
$DIMFRAC
 70
     0
  9
$DIMLDRBLK
  1

  9
$DIMLUNIT
 70
     2
  9
$DIMLWD
 70
    -2
  9
$DIMLWE
 70
    -2
  9
$DIMTMOVE
 70
     0
  9
$DIMFXL
 40
1.0
  9
$DIMFXLON
 70
     0
  9
$DIMJOGANG
 40
0.7853981633974483
  9
$DIMTFILL
 70
     0
  9
$DIMTFILLCLR
 70
     0
  9
$DIMARCSYM
 70
     0
  9
$DIMLTYPE
  6

  9
$DIMLTEX1
  6

  9
$DIMLTEX2
  6

  9
$DIMTXTDIRECTION
 70
     0
  9
$LUNITS
 70
     2
  9
$LUPREC
 70
     4
  9
$SKETCHINC
 40
0.1
  9
$FILLETRAD
 40
0.5
  9
$AUNITS
 70
     0
  9
$AUPREC
 70
     0
  9
$MENU
  1
.
  9
$ELEVATION
 40
0.0
  9
$PELEVATION
 40
0.0
  9
$THICKNESS
 40
0.0
  9
$LIMCHECK
 70
     0
  9
$CHAMFERA
 40
0.5
  9
$CHAMFERB
 40
0.5
  9
$CHAMFERC
 40
1.0
  9
$CHAMFERD
 40
0.0
  9
$SKPOLY
 70
     0
  9
$TDCREATE
 40
2457917.584907396
  9
$TDUCREATE
 40
2457917.209907407
  9
$TDUPDATE
 40
2457917.584907396
  9
$TDUUPDATE
 40
2457917.209907407
  9
$TDINDWG
 40
0.0000000116
  9
$TDUSRTIMER
 40
0.0000000116
  9
$USRTIMER
 70
     1
  9
$ANGBASE
 50
0.0
  9
$ANGDIR
 70
     0
  9
$PDMODE
 70
     0
  9
$PDSIZE
 40
0.0
  9
$PLINEWID
 40
0.0
  9
$SPLFRAME
 70
     0
  9
$SPLINETYPE
 70
     6
  9
$SPLINESEGS
 70
     8
  9
$HANDSEED
  5
A1
  9
$SURFTAB1
 70
     6
  9
$SURFTAB2
 70
     6
  9
$SURFTYPE
 70
     6
  9
$SURFU
 70
     6
  9
$SURFV
 70
     6
  9
$UCSBASE
  2

  9
$UCSNAME
  2

  9
$UCSORG
 10
0.0
 20
0.0
 30
0.0
  9
$UCSXDIR
 10
1.0
 20
0.0
 30
0.0
  9
$UCSYDIR
 10
0.0
 20
1.0
 30
0.0
  9
$UCSORTHOREF
  2

  9
$UCSORTHOVIEW
 70
     0
  9
$UCSORGTOP
 10
0.0
 20
0.0
 30
0.0
  9
$UCSORGBOTTOM
 10
0.0
 20
0.0
 30
0.0
  9
$UCSORGLEFT
 10
0.0
 20
0.0
 30
0.0
  9
$UCSORGRIGHT
 10
0.0
 20
0.0
 30
0.0
  9
$UCSORGFRONT
 10
0.0
 20
0.0
 30
0.0
  9
$UCSORGBACK
 10
0.0
 20
0.0
 30
0.0
  9
$PUCSBASE
  2

  9
$PUCSNAME
  2

  9
$PUCSORG
 10
0.0
 20
0.0
 30
0.0
  9
$PUCSXDIR
 10
1.0
 20
0.0
 30
0.0
  9
$PUCSYDIR
 10
0.0
 20
1.0
 30
0.0
  9
$PUCSORTHOREF
  2

  9
$PUCSORTHOVIEW
 70
     0
  9
$PUCSORGTOP
 10
0.0
 20
0.0
 30
0.0
  9
$PUCSORGBOTTOM
 10
0.0
 20
0.0
 30
0.0
  9
$PUCSORGLEFT
 10
0.0
 20
0.0
 30
0.0
  9
$PUCSORGRIGHT
 10
0.0
 20
0.0
 30
0.0
  9
$PUCSORGFRONT
 10
0.0
 20
0.0
 30
0.0
  9
$PUCSORGBACK
 10
0.0
 20
0.0
 30
0.0
  9
$USERI1
 70
     0
  9
$USERI2
 70
     0
  9
$USERI3
 70
     0
  9
$USERI4
 70
     0
  9
$USERI5
 70
     0
  9
$USERR1
 40
0.0
  9
$USERR2
 40
0.0
  9
$USERR3
 40
0.0
  9
$USERR4
 40
0.0
  9
$USERR5
 40
0.0
  9
$WORLDVIEW
 70
     1
  9
$SHADEDGE
 70
     3
  9
$SHADEDIF
 70
    70
  9
$TILEMODE
 70
     1
  9
$MAXACTVP
 70
    64
  9
$PINSBASE
 10
0.0
 20
0.0
 30
0.0
  9
$PLIMCHECK
 70
     0
  9
$PEXTMIN
 10
1.000000000000000E+20
 20
1.000000000000000E+20
 30
1.000000000000000E+20
  9
$PEXTMAX
 10
-1.000000000000000E+20
 20
-1.000000000000000E+20
 30
-1.000000000000000E+20
  9
$PLIMMIN
 10
0.0
 20
0.0
  9
$PLIMMAX
 10
12.0
 20
9.0
  9
$UNITMODE
 70
     0
  9
$VISRETAIN
 70
     1
  9
$PLINEGEN
 70
     0
  9
$PSLTSCALE
 70
     1
  9
$TREEDEPTH
 70
  3020
  9
$CMLSTYLE
  2
Standard
  9
$CMLJUST
 70
     0
  9
$CMLSCALE
 40
1.0
  9
$PROXYGRAPHICS
 70
     1
  9
$MEASUREMENT
 70
     0
  9
$CELWEIGHT
370
    -1
  9
$ENDCAPS
280
     0
  9
$JOINSTYLE
280
     0
  9
$LWDISPLAY
290
     1
  9
$INSUNITS
 70
     1
  9
$HYPERLINKBASE
  1

  9
$STYLESHEET
  1

  9
$XEDIT
290
     1
  9
$CEPSNTYPE
380
     0
  9
$PSTYLEMODE
290
     1
  9
$FINGERPRINTGUID
  2
{C6B7AAF8-F642-7181-5119-F7EDE2BCE325}
  9
$VERSIONGUID
  2
{FAEB1C32-E019-11D5-929B-00C0DF256EC4}
  9
$EXTNAMES
290
     1
  9
$PSVPSCALE
 40
0.0
  9
$OLESTARTUP
290
     0
  9
$SORTENTS
280
   127
  9
$INDEXCTL
280
     0
  9
$HIDETEXT
280
     1
  9
$XCLIPFRAME
280
     2
  9
$HALOGAP
280
     0
  9
$OBSCOLOR
 70
   257
  9
$OBSLTYPE
280
     0
  9
$INTERSECTIONDISPLAY
280
     0
  9
$INTERSECTIONCOLOR
 70
   257
  9
$DIMASSOC
280
     2
  9
$PROJECTNAME
  1

  9
$CAMERADISPLAY
290
     0
  9
$LENSLENGTH
 40
50.0
  9
$CAMERAHEIGHT
 40
0.0
  9
$STEPSPERSEC
 40
2.0
  9
$STEPSIZE
 40
6.0
  9
$3DDWFPREC
 40
2.0
  9
$PSOLWIDTH
 40
0.25
  9
$PSOLHEIGHT
 40
4.0
  9
$LOFTANG1
 40
1.570796326794897
  9
$LOFTANG2
 40
1.570796326794897
  9
$LOFTMAG1
 40
0.0
  9
$LOFTMAG2
 40
0.0
  9
$LOFTPARAM
 70
     7
  9
$LOFTNORMALS
280
     1
  9
$LATITUDE
 40
37.795
  9
$LONGITUDE
 40
-122.394
  9
$NORTHDIRECTION
 40
0.0
  9
$TIMEZONE
 70
 -8000
  9
$LIGHTGLYPHDISPLAY
280
     1
  9
$TILEMODELIGHTSYNCH
280
     1
  9
$CMATERIAL
347
3C
  9
$SOLIDHIST
280
     1
  9
$SHOWHIST
280
     1
  9
$DWFFRAME
280
     2
  9
$DGNFRAME
280
     2
  9
$REALWORLDSCALE
290
     1
  9
$INTERFERECOLOR
 62
   256
  9
$CSHADOW
280
     0
  9
$SHADOWPLANELOCATION
 40
0.0
  0
ENDSEC
  0
SECTION
  2
CLASSES
  0
CLASS
  1
ACDBDICTIONARYWDFLT
  2
AcDbDictionaryWithDefault
  3
ObjectDBX Classes
 90
        0
 91
        4
280
     0
281
     0
  0
CLASS
  1
VISUALSTYLE
  2
AcDbVisualStyle
  3
ObjectDBX Classes
 90
     4095
 91
        4
280
     0
281
     0
  0
CLASS
  1
MATERIAL
  2
AcDbMaterial
  3
ObjectDBX Classes
 90
     1153
 91
        4
280
     0
281
     0
  0
CLASS
  1
SUN
  2
AcDbSun
  3
SCENEOE
 90
     1024
 91
        4
280
     0
281
     0
  0
ENDSEC
  0
SECTION
  2
TABLES
  0
TABLE
  2
VPORT
  5
8
330
0
100
AcDbSymbolTable
 70
     1
  0
VPORT
  5
29
330
8
100
AcDbSymbolTableRecord
100
AcDbViewportTableRecord
  2
*Active
 70
     0
 10
0.0
 20
0.0
 11
1.0
 21
1.0
 12
0.0
 22
0.0
 13
0.0
 23
0.0
 14
0.5
 24
0.5
 15
0.5
 25
0.5
 16
0.0
 26
0.0
 36
1.0
 17
91.00082462281999
 27
-128.4993055234307
 37
0.0
 40
256.9986110468615
 41
0.7081814508812795
 42
50.0
 43
0.0
 44
0.0
 50
0.0
 51
0.0
 71
     0
 72
   100
 73
     1
 74
     3
 75
     0
 76
     0
 77
     0
 78
     0
281
     0
 65
     1
110
0.0
120
0.0
130
0.0
111
1.0
121
0.0
131
0.0
112
0.0
122
1.0
132
0.0
 79
     0
146
0.0
 60
     3
 61
     5
292
     1
282
     1
141
0.0
142
0.0
 63
   250
361
3F
  0
ENDTAB
  0
TABLE
  2
LTYPE
  5
5
330
0
100
AcDbSymbolTable
 70
     1
  0
LTYPE
  5
14
330
5
100
AcDbSymbolTableRecord
100
AcDbLinetypeTableRecord
  2
ByBlock
 70
     0
  3

 72
    65
 73
     0
 40
0.0
  0
LTYPE
  5
15
330
5
100
AcDbSymbolTableRecord
100
AcDbLinetypeTableRecord
  2
ByLayer
 70
     0
  3

 72
    65
 73
     0
 40
0.0
  0
LTYPE
  5
16
330
5
100
AcDbSymbolTableRecord
100
AcDbLinetypeTableRecord
  2
Continuous
 70
     0
  3
Solid line
 72
    65
 73
     0
 40
0.0
  0
ENDTAB
  0
TABLE
  2
LAYER
  5
2
330
0
100
AcDbSymbolTable
 70
     2
  0
LAYER
  5
10
330
2
100
AcDbSymbolTableRecord
100
AcDbLayerTableRecord
  2
0
 70
     0
 62
     7
  6
Continuous
370
    -3
390
F
347
3E
  0
LAYER
  5
40
330
2
100
AcDbSymbolTableRecord
100
AcDbLayerTableRecord
  2
_U+30EC_U+30A4_U+30E4_U+30FC 1
 70
     0
 62
     7
  6
Continuous
370
    -3
390
F
347
3E
  0
ENDTAB
  0
TABLE
  2
STYLE
  5
3
330
0
100
AcDbSymbolTable
 70
     1
  0
STYLE
  5
11
330
3
100
AcDbSymbolTableRecord
100
AcDbTextStyleTableRecord
  2
Standard
 70
     0
 40
0.0
 41
1.0
 50
0.0
 71
     0
 42
0.2
  3
txt
  4

  0
ENDTAB
  0
TABLE
  2
VIEW
  5
6
330
0
100
AcDbSymbolTable
 70
     0
  0
ENDTAB
  0
TABLE
  2
UCS
  5
7
330
0
100
AcDbSymbolTable
 70
     0
  0
ENDTAB
  0
TABLE
  2
APPID
  5
9
330
0
100
AcDbSymbolTable
 70
     1
  0
APPID
  5
12
330
9
100
AcDbSymbolTableRecord
100
AcDbRegAppTableRecord
  2
ACAD
 70
     0
  0
ENDTAB
  0
TABLE
  2
DIMSTYLE
  5
A
330
0
100
AcDbSymbolTable
 70
     1
100
AcDbDimStyleTable
  0
DIMSTYLE
105
27
330
A
100
AcDbSymbolTableRecord
100
AcDbDimStyleTableRecord
  2
Standard
 70
     0
178
     0
340
11
  0
ENDTAB
  0
TABLE
  2
BLOCK_RECORD
  5
1
330
0
100
AcDbSymbolTable
 70
     6
  0
BLOCK_RECORD
  5
1F
330
1
100
AcDbSymbolTableRecord
100
AcDbBlockTableRecord
  2
*Model_Space
340
22
 70
     0
280
     1
281
     0
  0
BLOCK_RECORD
  5
1B
330
1
100
AcDbSymbolTableRecord
100
AcDbBlockTableRecord
  2
*Paper_Space
340
1E
 70
     0
280
     1
281
     0
  0
BLOCK_RECORD
  5
23
330
1
100
AcDbSymbolTableRecord
100
AcDbBlockTableRecord
  2
*Paper_Space0
340
26
 70
     0
280
     1
281
     0
  0
BLOCK_RECORD
  5
41
330
1
100
AcDbSymbolTableRecord
100
AcDbBlockTableRecord
  2
block 2
340
0
102
{BLKREFS
331
42
102
}
 70
     0
280
     1
281
     0
  0
BLOCK_RECORD
  5
51
330
1
100
AcDbSymbolTableRecord
100
AcDbBlockTableRecord
  2
block 3
340
0
102
{BLKREFS
331
52
102
}
 70
     0
280
     1
281
     0
  0
BLOCK_RECORD
  5
6A
330
1
100
AcDbSymbolTableRecord
100
AcDbBlockTableRecord
  2
block 4
340
0
102
{BLKREFS
331
6B
102
}
 70
     0
280
     1
281
     0
  0
BLOCK_RECORD
  5
72
330
1
100
AcDbSymbolTableRecord
100
AcDbBlockTableRecord
  2
block 5
340
0
102
{BLKREFS
331
73
102
}
 70
     0
280
     1
281
     0
  0
BLOCK_RECORD
  5
83
330
1
100
AcDbSymbolTableRecord
100
AcDbBlockTableRecord
  2
block 6
340
0
102
{BLKREFS
331
84
102
}
 70
     0
280
     1
281
     0
  0
ENDTAB
  0
ENDSEC
  0
SECTION
  2
BLOCKS
  0
BLOCK
  5
20
330
1F
100
AcDbEntity
  8
0
100
AcDbBlockBegin
  2
*Model_Space
 70
     0
 10
0.0
 20
0.0
 30
0.0
  3
*Model_Space
  1

  0
ENDBLK
  5
21
330
1F
100
AcDbEntity
  8
0
100
AcDbBlockEnd
  0
BLOCK
  5
1C
330
1B
100
AcDbEntity
 67
     1
  8
0
100
AcDbBlockBegin
  2
*Paper_Space
 70
     0
 10
0.0
 20
0.0
 30
0.0
  3
*Paper_Space
  1

  0
ENDBLK
  5
1D
330
1B
100
AcDbEntity
 67
     1
  8
0
100
AcDbBlockEnd
  0
BLOCK
  5
24
330
23
100
AcDbEntity
  8
0
100
AcDbBlockBegin
  2
*Paper_Space0
 70
     0
 10
0.0
 20
0.0
 30
0.0
  3
*Paper_Space0
  1

  0
ENDBLK
  5
25
330
23
100
AcDbEntity
  8
0
100
AcDbBlockEnd
  0
BLOCK
  5
43
330
41
100
AcDbEntity
  8
0
100
AcDbBlockBegin
  2
block 2
 70
     0
 10
0.0
 20
0.0
 30
0.0
  3
block 2
  1

  0
POLYLINE
  5
45
330
41
100
AcDbEntity
  8
_U+30EC_U+30A4_U+30E4_U+30FC 1
 62
   179
420
  2234388
370
     9
100
AcDb2dPolyline
 66
     1
 10
0.0
 20
0.0
 30
0.0
  0
VERTEX
  5
46
330
45
100
AcDbEntity
  8
_U+30EC_U+30A4_U+30E4_U+30FC 1
 62
   179
420
  2234388
370
     9
100
AcDbVertex
100
AcDb2dVertex
 10
66.59576441211162
 20
-130.6524846895588
 30
0.0
  0
VERTEX
  5
47
330
45
100
AcDbEntity
  8
_U+30EC_U+30A4_U+30E4_U+30FC 1
 62
   179
420
  2234388
370
     9
100
AcDbVertex
100
AcDb2dVertex
 10
87.87302636928344
 20
-151.8374252398185
 30
0.0
  0
SEQEND
  5
48
330
45
100
AcDbEntity
  8
_U+30EC_U+30A4_U+30E4_U+30FC 1
 62
   179
420
  2234388
370
     9
  0
POLYLINE
  5
49
330
41
100
AcDbEntity
  8
_U+30EC_U+30A4_U+30E4_U+30FC 1
 62
   179
420
  2234388
370
     9
100
AcDb2dPolyline
 66
     1
 10
0.0
 20
0.0
 30
0.0
  0
VERTEX
  5
4A
330
49
100
AcDbEntity
  8
_U+30EC_U+30A4_U+30E4_U+30FC 1
 62
   179
420
  2234388
370
     9
100
AcDbVertex
100
AcDb2dVertex
 10
68.04578687511847
 20
-129.1955477454787
 30
0.0
  0
VERTEX
  5
4B
330
49
100
AcDbEntity
  8
_U+30EC_U+30A4_U+30E4_U+30FC 1
 62
   179
420
  2234388
370
     9
100
AcDbVertex
100
AcDb2dVertex
 10
65.88883304125805
 20
-131.3618502449371
 30
0.0
  0
SEQEND
  5
4C
330
49
100
AcDbEntity
  8
_U+30EC_U+30A4_U+30E4_U+30FC 1
 62
   179
420
  2234388
370
     9
  0
POLYLINE
  5
4D
330
41
100
AcDbEntity
  8
_U+30EC_U+30A4_U+30E4_U+30FC 1
 62
   179
420
  2234388
370
     9
100
AcDb2dPolyline
 66
     1
 10
0.0
 20
0.0
 30
0.0
  0
VERTEX
  5
4E
330
4D
100
AcDbEntity
  8
_U+30EC_U+30A4_U+30E4_U+30FC 1
 62
   179
420
  2234388
370
     9
100
AcDbVertex
100
AcDb2dVertex
 10
89.1435555035362
 20
-150.4752091290481
 30
0.0
  0
VERTEX
  5
4F
330
4D
100
AcDbEntity
  8
_U+30EC_U+30A4_U+30E4_U+30FC 1
 62
   179
420
  2234388
370
     9
100
AcDbVertex
100
AcDb2dVertex
 10
87.12404388839157
 20
-152.5030110729852
 30
0.0
  0
SEQEND
  5
50
330
4D
100
AcDbEntity
  8
_U+30EC_U+30A4_U+30E4_U+30FC 1
 62
   179
420
  2234388
370
     9
  0
INSERT
  5
52
330
41
100
AcDbEntity
  8
_U+30EC_U+30A4_U+30E4_U+30FC 1
100
AcDbBlockReference
  2
block 3
 10
0.0
 20
0.0
 30
0.0
  0
POLYLINE
  5
5A
330
41
100
AcDbEntity
  8
_U+30EC_U+30A4_U+30E4_U+30FC 1
 62
   179
420
  2234388
370
     9
100
AcDb2dPolyline
 66
     1
 10
0.0
 20
0.0
 30
0.0
  0
VERTEX
  5
5B
330
5A
100
AcDbEntity
  8
_U+30EC_U+30A4_U+30E4_U+30FC 1
 62
   179
420
  2234388
370
     9
100
AcDbVertex
100
AcDb2dVertex
 10
90.8237301828936
 20
-152.9353755173214
 30
0.0
  0
VERTEX
  5
5C
330
5A
100
AcDbEntity
  8
_U+30EC_U+30A4_U+30E4_U+30FC 1
 62
   179
420
  2234388
370
     9
100
AcDbVertex
100
AcDb2dVertex
 10
115.8451284334334
 20
-152.9353755173214
 30
0.0
  0
SEQEND
  5
5D
330
5A
100
AcDbEntity
  8
_U+30EC_U+30A4_U+30E4_U+30FC 1
 62
   179
420
  2234388
370
     9
  0
POLYLINE
  5
5E
330
41
100
AcDbEntity
  8
_U+30EC_U+30A4_U+30E4_U+30FC 1
 62
   179
420
  2234388
370
     9
100
AcDb2dPolyline
 66
     1
 10
0.0
 20
0.0
 30
0.0
  0
VERTEX
  5
5F
330
5E
100
AcDbEntity
  8
_U+30EC_U+30A4_U+30E4_U+30FC 1
 62
   179
420
  2234388
370
     9
100
AcDbVertex
100
AcDb2dVertex
 10
90.8237301828936
 20
-150.8796688511688
 30
0.0
  0
VERTEX
  5
60
330
5E
100
AcDbEntity
  8
_U+30EC_U+30A4_U+30E4_U+30FC 1
 62
   179
420
  2234388
370
     9
100
AcDbVertex
100
AcDb2dVertex
 10
90.8237301828936
 20
-153.9368410726271
 30
0.0
  0
SEQEND
  5
61
330
5E
100
AcDbEntity
  8
_U+30EC_U+30A4_U+30E4_U+30FC 1
 62
   179
420
  2234388
370
     9
  0
POLYLINE
  5
62
330
41
100
AcDbEntity
  8
_U+30EC_U+30A4_U+30E4_U+30FC 1
 62
   179
420
  2234388
370
     9
100
AcDb2dPolyline
 66
     1
 10
0.0
 20
0.0
 30
0.0
  0
VERTEX
  5
63
330
62
100
AcDbEntity
  8
_U+30EC_U+30A4_U+30E4_U+30FC 1
 62
   179
420
  2234388
370
     9
100
AcDbVertex
100
AcDb2dVertex
 10
115.7452217693156
 20
-139.7751063539453
 30
0.0
  0
VERTEX
  5
64
330
62
100
AcDbEntity
  8
_U+30EC_U+30A4_U+30E4_U+30FC 1
 62
   179
420
  2234388
370
     9
100
AcDbVertex
100
AcDb2dVertex
 10
115.7452217693156
 20
-153.9368410726271
 30
0.0
  0
SEQEND
  5
65
330
62
100
AcDbEntity
  8
_U+30EC_U+30A4_U+30E4_U+30FC 1
 62
   179
420
  2234388
370
     9
  0
POLYLINE
  5
66
330
41
100
AcDbEntity
  8
_U+30EC_U+30A4_U+30E4_U+30FC 1
 62
   179
420
  2234388
370
     9
100
AcDb2dPolyline
 66
     1
 10
0.0
 20
0.0
 30
0.0
  0
VERTEX
  5
67
330
66
100
AcDbEntity
  8
_U+30EC_U+30A4_U+30E4_U+30FC 1
 62
   179
420
  2234388
370
     9
100
AcDbVertex
100
AcDb2dVertex
 10
100.7390785410431
 20
-151.0746844066761
 30
0.0
  0
VERTEX
  5
68
330
66
100
AcDbEntity
  8
_U+30EC_U+30A4_U+30E4_U+30FC 1
 62
   179
420
  2234388
370
     9
100
AcDbVertex
100
AcDb2dVertex
 10
100.7390785410431
 20
-153.9368410726271
 30
0.0
  0
SEQEND
  5
69
330
66
100
AcDbEntity
  8
_U+30EC_U+30A4_U+30E4_U+30FC 1
 62
   179
420
  2234388
370
     9
  0
INSERT
  5
6B
330
41
100
AcDbEntity
  8
_U+30EC_U+30A4_U+30E4_U+30FC 1
100
AcDbBlockReference
  2
block 4
 10
0.0
 20
0.0
 30
0.0
  0
INSERT
  5
73
330
41
100
AcDbEntity
  8
_U+30EC_U+30A4_U+30E4_U+30FC 1
100
AcDbBlockReference
  2
block 5
 10
0.0
 20
0.0
 30
0.0
  0
POLYLINE
  5
7B
330
41
100
AcDbEntity
  8
_U+30EC_U+30A4_U+30E4_U+30FC 1
 62
   179
420
  2234388
370
     9
100
AcDb2dPolyline
 66
     1
 10
0.0
 20
0.0
 30
0.0
  0
VERTEX
  5
7C
330
7B
100
AcDbEntity
  8
_U+30EC_U+30A4_U+30E4_U+30FC 1
 62
   179
420
  2234388
370
     9
100
AcDbVertex
100
AcDb2dVertex
 10
108.1842769622114
 20
-138.6275555208984
 30
0.0
  0
VERTEX
  5
7D
330
7B
100
AcDbEntity
  8
_U+30EC_U+30A4_U+30E4_U+30FC 1
 62
   179
420
  2234388
370
     9
100
AcDbVertex
100
AcDb2dVertex
 10
108.1842769622114
 20
-148.6355435739525
 30
0.0
  0
SEQEND
  5
7E
330
7B
100
AcDbEntity
  8
_U+30EC_U+30A4_U+30E4_U+30FC 1
 62
   179
420
  2234388
370
     9
  0
POLYLINE
  5
7F
330
41
100
AcDbEntity
  8
_U+30EC_U+30A4_U+30E4_U+30FC 1
 62
   179
420
  2234388
370
     9
100
AcDb2dPolyline
 66
     1
 10
0.0
 20
0.0
 30
0.0
  0
VERTEX
  5
80
330
7F
100
AcDbEntity
  8
_U+30EC_U+30A4_U+30E4_U+30FC 1
 62
   179
420
  2234388
370
     9
100
AcDbVertex
100
AcDb2dVertex
 10
101.8384046241081
 20
-148.6355435739525
 30
0.0
  0
VERTEX
  5
81
330
7F
100
AcDbEntity
  8
_U+30EC_U+30A4_U+30E4_U+30FC 1
 62
   179
420
  2234388
370
     9
100
AcDbVertex
100
AcDb2dVertex
 10
109.1850749727038
 20
-148.6355435739525
 30
0.0
  0
SEQEND
  5
82
330
7F
100
AcDbEntity
  8
_U+30EC_U+30A4_U+30E4_U+30FC 1
 62
   179
420
  2234388
370
     9
  0
INSERT
  5
84
330
41
100
AcDbEntity
  8
_U+30EC_U+30A4_U+30E4_U+30FC 1
100
AcDbBlockReference
  2
block 6
 10
0.0
 20
0.0
 30
0.0
  0
POLYLINE
  5
8C
330
41
100
AcDbEntity
  8
_U+30EC_U+30A4_U+30E4_U+30FC 1
 62
   179
420
  2234388
370
     9
100
AcDb2dPolyline
 66
     1
 10
0.0
 20
0.0
 30
0.0
  0
VERTEX
  5
8D
330
8C
100
AcDbEntity
  8
_U+30EC_U+30A4_U+30E4_U+30FC 1
 62
   179
420
  2234388
370
     9
100
AcDbVertex
100
AcDb2dVertex
 10
66.59576441211162
 20
-130.6524846895588
 30
0.0
  0
VERTEX
  5
8E
330
8C
100
AcDbEntity
  8
_U+30EC_U+30A4_U+30E4_U+30FC 1
 62
   179
420
  2234388
370
     9
100
AcDbVertex
100
AcDb2dVertex
 10
87.87302636928344
 20
-151.8374252398185
 30
0.0
  0
SEQEND
  5
8F
330
8C
100
AcDbEntity
  8
_U+30EC_U+30A4_U+30E4_U+30FC 1
 62
   179
420
  2234388
370
     9
  0
POLYLINE
  5
90
330
41
100
AcDbEntity
  8
_U+30EC_U+30A4_U+30E4_U+30FC 1
 62
   179
420
  2234388
370
     9
100
AcDb2dPolyline
 66
     1
 10
0.0
 20
0.0
 30
0.0
  0
VERTEX
  5
91
330
90
100
AcDbEntity
  8
_U+30EC_U+30A4_U+30E4_U+30FC 1
 62
   179
420
  2234388
370
     9
100
AcDbVertex
100
AcDb2dVertex
 10
68.04578687511847
 20
-129.1955477454787
 30
0.0
  0
VERTEX
  5
92
330
90
100
AcDbEntity
  8
_U+30EC_U+30A4_U+30E4_U+30FC 1
 62
   179
420
  2234388
370
     9
100
AcDbVertex
100
AcDb2dVertex
 10
65.88883304125805
 20
-131.3618502449371
 30
0.0
  0
SEQEND
  5
93
330
90
100
AcDbEntity
  8
_U+30EC_U+30A4_U+30E4_U+30FC 1
 62
   179
420
  2234388
370
     9
  0
POLYLINE
  5
94
330
41
100
AcDbEntity
  8
_U+30EC_U+30A4_U+30E4_U+30FC 1
 62
   179
420
  2234388
370
     9
100
AcDb2dPolyline
 66
     1
 10
0.0
 20
0.0
 30
0.0
  0
VERTEX
  5
95
330
94
100
AcDbEntity
  8
_U+30EC_U+30A4_U+30E4_U+30FC 1
 62
   179
420
  2234388
370
     9
100
AcDbVertex
100
AcDb2dVertex
 10
89.1435555035362
 20
-150.4752091290481
 30
0.0
  0
VERTEX
  5
96
330
94
100
AcDbEntity
  8
_U+30EC_U+30A4_U+30E4_U+30FC 1
 62
   179
420
  2234388
370
     9
100
AcDbVertex
100
AcDb2dVertex
 10
87.12404388839157
 20
-152.5030110729852
 30
0.0
  0
SEQEND
  5
97
330
94
100
AcDbEntity
  8
_U+30EC_U+30A4_U+30E4_U+30FC 1
 62
   179
420
  2234388
370
     9
  0
SPLINE
  5
98
330
41
100
AcDbEntity
  8
_U+30EC_U+30A4_U+30E4_U+30FC 1
 62
     7
420
 16777215
370
    25
100
AcDbSpline
210
0.0
220
0.0
230
1.0
 70
    11
 71
     3
 72
    89
 73
    85
 74
     0
 42
0.0000000001
 43
0.0000000001
 12
1.0
 22
0.0
 32
0.0
 13
1.0
 23
0.0
 33
0.0
 40
0.0
 40
0.0
 40
0.0
 40
0.0
 40
1.0
 40
1.0
 40
1.0
 40
2.0
 40
2.0
 40
2.0
 40
3.0
 40
3.0
 40
3.0
 40
4.0
 40
4.0
 40
4.0
 40
5.0
 40
5.0
 40
5.0
 40
6.0
 40
6.0
 40
6.0
 40
7.0
 40
7.0
 40
7.0
 40
8.0
 40
8.0
 40
8.0
 40
9.0
 40
9.0
 40
9.0
 40
10.0
 40
10.0
 40
10.0
 40
11.0
 40
11.0
 40
11.0
 40
12.0
 40
12.0
 40
12.0
 40
13.0
 40
13.0
 40
13.0
 40
14.0
 40
14.0
 40
14.0
 40
15.0
 40
15.0
 40
15.0
 40
16.0
 40
16.0
 40
16.0
 40
17.0
 40
17.0
 40
17.0
 40
18.0
 40
18.0
 40
18.0
 40
19.0
 40
19.0
 40
19.0
 40
20.0
 40
20.0
 40
20.0
 40
21.0
 40
21.0
 40
21.0
 40
22.0
 40
22.0
 40
22.0
 40
23.0
 40
23.0
 40
23.0
 40
24.0
 40
24.0
 40
24.0
 40
25.0
 40
25.0
 40
25.0
 40
26.0
 40
26.0
 40
26.0
 40
27.0
 40
27.0
 40
27.0
 40
28.0
 40
28.0
 40
28.0
 40
28.0
 10
79.00705275802613
 20
-102.6867671965506
 30
0.0
 10
79.00705275802613
 20
-102.6867671965506
 30
0.0
 10
79.8015083133829
 20
-102.6867671965506
 30
0.0
 10
79.8015083133829
 20
-102.6867671965506
 30
0.0
 10
79.8015083133829
 20
-102.6867671965506
 30
0.0
 10
80.09537220219852
 20
-116.9866496929757
 30
0.0
 10
80.09537220219852
 20
-116.9866496929757
 30
0.0
 10
80.09537220219852
 20
-116.9866496929757
 30
0.0
 10
80.41886942433968
 20
-118.4287699703928
 30
0.0
 10
78.88957775805531
 20
-118.4868371926005
 30
0.0
 10
78.88957775805531
 20
-118.4868371926005
 30
0.0
 10
70.8859301359937
 20
-118.6048060814598
 30
0.0
 10
70.8859301359937
 20
-118.6048060814598
 30
0.0
 10
70.8859301359937
 20
-118.6048060814598
 30
0.0
 10
70.1800218206696
 20
-118.5458921925858
 30
0.0
 10
70.15042376586915
 20
-119.1345019146608
 30
0.0
 10
70.15042376586915
 20
-119.1345019146608
 30
0.0
 10
70.23861820806356
 20
-126.6665191349999
 30
0.0
 10
70.23861820806356
 20
-126.6665191349999
 30
0.0
 10
70.23861820806356
 20
-126.6665191349999
 30
0.0
 10
70.09182737847517
 20
-127.4609394125792
 30
0.0
 10
70.68026069679632
 20
-127.9322505235725
 30
0.0
 10
70.68026069679632
 20
-127.9322505235725
 30
0.0
 10
90.39344713831548
 20
-147.263379129851
 30
0.0
 10
90.39344713831548
 20
-147.263379129851
 30
0.0
 10
90.39344713831548
 20
-147.263379129851
 30
0.0
 10
91.24713406098056
 20
-147.9696049630075
 30
0.0
 10
91.77700626968462
 20
-147.9696049630075
 30
0.0
 10
91.77700626968462
 20
-147.9696049630075
 30
0.0
 10
99.10335386055169
 20
-147.9696049630075
 30
0.0
 10
99.10335386055169
 20
-147.9696049630075
 30
0.0
 10
99.10335386055169
 20
-147.9696049630075
 30
0.0
 10
99.83818995291557
 20
-147.9696049630075
 30
0.0
 10
99.83818995291557
 20
-147.5282799631178
 30
0.0
 10
99.83818995291557
 20
-147.5282799631178
 30
0.0
 10
99.83818995291557
 20
-138.9951499652514
 30
0.0
 10
99.83818995291557
 20
-138.9951499652514
 30
0.0
 10
99.83818995291557
 20
-138.9951499652514
 30
0.0
 10
99.60288718114087
 20
-137.6711749655821
 30
0.0
 10
101.310261026471
 20
-137.6711749655821
 30
0.0
 10
101.310261026471
 20
-137.6711749655821
 30
0.0
 10
115.5795249711053
 20
-137.6119435767079
 30
0.0
 10
115.5795249711053
 20
-137.6119435767079
 30
0.0
 10
115.5795249711053
 20
-137.6119435767079
 30
0.0
 10
115.5795249711053
 20
-138.4656305209392
 30
0.0
 10
115.5795249711053
 20
-138.4656305209392
 30
0.0
 10
115.5795249711053
 20
-138.4656305209392
 30
0.0
 10
101.5152601879077
 20
-138.58310552091
 30
0.0
 10
101.5152601879077
 20
-138.58310552091
 30
0.0
 10
101.5152601879077
 20
-138.58310552091
 30
0.0
 10
100.6329629881948
 20
-138.5534721875838
 30
0.0
 10
100.6329629881948
 20
-139.1122721874444
 30
0.0
 10
100.6329629881948
 20
-139.1122721874444
 30
0.0
 10
100.6329629881948
 20
-147.3515735742734
 30
0.0
 10
100.6329629881948
 20
-147.3515735742734
 30
0.0
 10
100.6329629881948
 20
-147.3515735742734
 30
0.0
 10
100.8982165925387
 20
-148.587318851742
 30
0.0
 10
99.39753524193539
 20
-148.587318851742
 30
0.0
 10
99.39753524193539
 20
-148.587318851742
 30
0.0
 10
91.3649618357523
 20
-148.7640605183646
 30
0.0
 10
91.3649618357523
 20
-148.7640605183646
 30
0.0
 10
91.3649618357523
 20
-148.7640605183646
 30
0.0
 10
90.62874991009019
 20
-148.7633549628091
 30
0.0
 10
90.33453325092961
 20
-148.3805910740162
 30
0.0
 10
90.33453325092961
 20
-148.3805910740162
 30
0.0
 10
69.94475432667177
 20
-128.3732227456845
 30
0.0
 10
69.94475432667177
 20
-128.3732227456845
 30
0.0
 10
69.94475432667177
 20
-128.3732227456845
 30
0.0
 10
69.41523489573649
 20
-128.0493727457653
 30
0.0
 10
69.38524878539039
 20
-127.4609394125792
 30
0.0
 10
69.38524878539039
 20
-127.4609394125792
 30
0.0
 10
69.38524878539039
 20
-118.8692130258384
 30
0.0
 10
69.38524878539039
 20
-118.8692130258384
 30
0.0
 10
69.38524878539039
 20
-118.8692130258384
 30
0.0
 10
69.20850712323278
 20
-117.7512955261177
 30
0.0
 10
70.23861820806356
 20
-117.7512955261177
 30
0.0
 10
70.23861820806356
 20
-117.7512955261177
 30
0.0
 10
78.3304582794013
 20
-117.7512955261177
 30
0.0
 10
78.3304582794013
 20
-117.7512955261177
 30
0.0
 10
78.3304582794013
 20
-117.7512955261177
 30
0.0
 10
79.21272220241903
 20
-117.8398427483178
 30
0.0
 10
79.21272220241903
 20
-116.810084415242
 30
0.0
 10
79.21272220241903
 20
-116.810084415242
 30
0.0
 10
79.00705275802613
 20
-102.6867671965506
 30
0.0
 10
79.00705275802613
 20
-102.6867671965506
 30
0.0
  0
SPLINE
  5
99
330
41
100
AcDbEntity
  8
_U+30EC_U+30A4_U+30E4_U+30FC 1
 62
   179
420
  2234388
370
     9
100
AcDbSpline
210
0.0
220
0.0
230
1.0
 70
    11
 71
     3
 72
    17
 73
    13
 74
     0
 42
0.0000000001
 43
0.0000000001
 12
1.0
 22
0.0
 32
0.0
 13
1.0
 23
0.0
 33
0.0
 40
0.0
 40
0.0
 40
0.0
 40
0.0
 40
1.0
 40
1.0
 40
1.0
 40
2.0
 40
2.0
 40
2.0
 40
3.0
 40
3.0
 40
3.0
 40
4.0
 40
4.0
 40
4.0
 40
4.0
 10
108.1604997405958
 20
-148.7289238517069
 30
0.0
 10
108.2214597390405
 20
-148.7289238517069
 30
0.0
 10
108.2714130710995
 20
-148.6789352406082
 30
0.0
 10
108.2714130710995
 20
-148.6172696850678
 30
0.0
 10
108.2714130710995
 20
-148.5556041295281
 30
0.0
 10
108.2214597390405
 20
-148.5063563517625
 30
0.0
 10
108.1604997405958
 20
-148.5063563517625
 30
0.0
 10
108.0988341866134
 20
-148.5063563517625
 30
0.0
 10
108.0492336323233
 20
-148.5556041295281
 30
0.0
 10
108.0492336323233
 20
-148.6172696850678
 30
0.0
 10
108.0492336323233
 20
-148.6789352406082
 30
0.0
 10
108.0988341866134
 20
-148.7289238517069
 30
0.0
 10
108.1604997405958
 20
-148.7289238517069
 30
0.0
  0
SPLINE
  5
9A
330
41
100
AcDbEntity
  8
_U+30EC_U+30A4_U+30E4_U+30FC 1
 62
   179
420
  2234388
370
     9
100
AcDbSpline
210
0.0
220
0.0
230
1.0
 70
    11
 71
     3
 72
    17
 73
    13
 74
     0
 42
0.0000000001
 43
0.0000000001
 12
1.0
 22
0.0
 32
0.0
 13
1.0
 23
0.0
 33
0.0
 40
0.0
 40
0.0
 40
0.0
 40
0.0
 40
1.0
 40
1.0
 40
1.0
 40
2.0
 40
2.0
 40
2.0
 40
3.0
 40
3.0
 40
3.0
 40
4.0
 40
4.0
 40
4.0
 40
4.0
 10
115.7600384356043
 20
-153.0201127395225
 30
0.0
 10
115.8213512118178
 20
-153.0201127395225
 30
0.0
 10
115.870951766108
 20
-152.9705121839798
 30
0.0
 10
115.870951766108
 20
-152.9091994062172
 30
0.0
 10
115.870951766108
 20
-152.8475338506768
 30
0.0
 10
115.8213512118178
 20
-152.7978980173559
 30
0.0
 10
115.7600384356043
 20
-152.7978980173559
 30
0.0
 10
115.6986903816138
 20
-152.7978980173559
 30
0.0
 10
115.6487370495549
 20
-152.8475338506768
 30
0.0
 10
115.6487370495549
 20
-152.9091994062172
 30
0.0
 10
115.6487370495549
 20
-152.9705121839798
 30
0.0
 10
115.6986903816138
 20
-153.0201127395225
 30
0.0
 10
115.7600384356043
 20
-153.0201127395225
 30
0.0
  0
SPLINE
  5
9B
330
41
100
AcDbEntity
  8
_U+30EC_U+30A4_U+30E4_U+30FC 1
 62
   179
420
  2234388
370
     9
100
AcDbSpline
210
0.0
220
0.0
230
1.0
 70
    11
 71
     3
 72
    17
 73
    13
 74
     0
 42
0.0000000001
 43
0.0000000001
 12
1.0
 22
0.0
 32
0.0
 13
1.0
 23
0.0
 33
0.0
 40
0.0
 40
0.0
 40
0.0
 40
0.0
 40
1.0
 40
1.0
 40
1.0
 40
2.0
 40
2.0
 40
2.0
 40
3.0
 40
3.0
 40
3.0
 40
4.0
 40
4.0
 40
4.0
 40
4.0
 10
100.746310485303
 20
-153.0201127395225
 30
0.0
 10
100.8076232615166
 20
-153.0201127395225
 30
0.0
 10
100.8569063158148
 20
-152.9705121839798
 30
0.0
 10
100.8569063158148
 20
-152.9091994062172
 30
0.0
 10
100.8569063158148
 20
-152.8475338506768
 30
0.0
 10
100.8076232615166
 20
-152.7978980173559
 30
0.0
 10
100.746310485303
 20
-152.7978980173559
 30
0.0
 10
100.6846449313207
 20
-152.7978980173559
 30
0.0
 10
100.6346915992618
 20
-152.8475338506768
 30
0.0
 10
100.6346915992618
 20
-152.9091994062172
 30
0.0
 10
100.6346915992618
 20
-152.9705121839798
 30
0.0
 10
100.6846449313207
 20
-153.0201127395225
 30
0.0
 10
100.746310485303
 20
-153.0201127395225
 30
0.0
  0
SPLINE
  5
9C
330
41
100
AcDbEntity
  8
_U+30EC_U+30A4_U+30E4_U+30FC 1
 62
   179
420
  2234388
370
     9
100
AcDbSpline
210
0.0
220
0.0
230
1.0
 70
    11
 71
     3
 72
    17
 73
    13
 74
     0
 42
0.0000000001
 43
0.0000000001
 12
1.0
 22
0.0
 32
0.0
 13
1.0
 23
0.0
 33
0.0
 40
0.0
 40
0.0
 40
0.0
 40
0.0
 40
1.0
 40
1.0
 40
1.0
 40
2.0
 40
2.0
 40
2.0
 40
3.0
 40
3.0
 40
3.0
 40
4.0
 40
4.0
 40
4.0
 40
4.0
 10
90.81339379426842
 20
-153.0201127395225
 30
0.0
 10
90.87474184825885
 20
-153.0201127395225
 30
0.0
 10
90.92469518031777
 20
-152.9705121839798
 30
0.0
 10
90.92469518031777
 20
-152.9091994062172
 30
0.0
 10
90.92469518031777
 20
-152.8475338506768
 30
0.0
 10
90.87474184825885
 20
-152.7978980173559
 30
0.0
 10
90.81339379426842
 20
-152.7978980173559
 30
0.0
 10
90.75243608842308
 20
-152.7978980173559
 30
0.0
 10
90.70248046376472
 20
-152.8475338506768
 30
0.0
 10
90.70248046376472
 20
-152.9091994062172
 30
0.0
 10
90.70248046376472
 20
-152.9705121839798
 30
0.0
 10
90.75243608842308
 20
-153.0201127395225
 30
0.0
 10
90.81339379426842
 20
-153.0201127395225
 30
0.0
  0
SPLINE
  5
9D
330
41
100
AcDbEntity
  8
_U+30EC_U+30A4_U+30E4_U+30FC 1
 62
   179
420
  2234388
370
     9
100
AcDbSpline
210
0.0
220
0.0
230
1.0
 70
    11
 71
     3
 72
    17
 73
    13
 74
     0
 42
0.0000000001
 43
0.0000000001
 12
1.0
 22
0.0
 32
0.0
 13
1.0
 23
0.0
 33
0.0
 40
0.0
 40
0.0
 40
0.0
 40
0.0
 40
1.0
 40
1.0
 40
1.0
 40
2.0
 40
2.0
 40
2.0
 40
3.0
 40
3.0
 40
3.0
 40
4.0
 40
4.0
 40
4.0
 40
4.0
 10
87.83926553681141
 20
-151.8918588509161
 30
0.0
 10
87.90022775580279
 20
-151.8918588509161
 30
0.0
 10
87.95017886731512
 20
-151.841905517595
 30
0.0
 10
87.95017886731512
 20
-151.7802399620552
 30
0.0
 10
87.95017886731512
 20
-151.7188919065144
 30
0.0
 10
87.90022775580279
 20
-151.6692913509717
 30
0.0
 10
87.83926553681141
 20
-151.6692913509717
 30
0.0
 10
87.77759998282909
 20
-151.6692913509717
 30
0.0
 10
87.72796415076206
 20
-151.7188919065144
 30
0.0
 10
87.72796415076206
 20
-151.7802399620552
 30
0.0
 10
87.72796415076206
 20
-151.841905517595
 30
0.0
 10
87.77759998282909
 20
-151.8918588509161
 30
0.0
 10
87.83926553681141
 20
-151.8918588509161
 30
0.0
  0
SPLINE
  5
9E
330
41
100
AcDbEntity
  8
_U+30EC_U+30A4_U+30E4_U+30FC 1
 62
   179
420
  2234388
370
     9
100
AcDbSpline
210
0.0
220
0.0
230
1.0
 70
    11
 71
     3
 72
    17
 73
    13
 74
     0
 42
0.0000000001
 43
0.0000000001
 12
1.0
 22
0.0
 32
0.0
 13
1.0
 23
0.0
 33
0.0
 40
0.0
 40
0.0
 40
0.0
 40
0.0
 40
1.0
 40
1.0
 40
1.0
 40
2.0
 40
2.0
 40
2.0
 40
3.0
 40
3.0
 40
3.0
 40
4.0
 40
4.0
 40
4.0
 40
4.0
 10
66.619894411496
 20
-130.7820246895267
 30
0.0
 10
66.68085440994079
 20
-130.7820246895267
 30
0.0
 10
66.73080774199971
 20
-130.7320713562062
 30
0.0
 10
66.73080774199971
 20
-130.6707585784436
 30
0.0
 10
66.73080774199971
 20
-130.6094105229034
 30
0.0
 10
66.68085440994079
 20
-130.5594571895823
 30
0.0
 10
66.619894411496
 20
-130.5594571895823
 30
0.0
 10
66.5581935797368
 20
-130.5594571895823
 30
0.0
 10
66.50859302544666
 20
-130.6094105229034
 30
0.0
 10
66.50859302544666
 20
-130.6707585784436
 30
0.0
 10
66.50859302544666
 20
-130.7320713562062
 30
0.0
 10
66.5581935797368
 20
-130.7820246895267
 30
0.0
 10
66.619894411496
 20
-130.7820246895267
 30
0.0
  0
ENDBLK
  5
44
330
41
100
AcDbEntity
  8
0
100
AcDbBlockEnd
  0
BLOCK
  5
53
330
51
100
AcDbEntity
  8
0
100
AcDbBlockBegin
  2
block 3
 70
     0
 10
0.0
 20
0.0
 30
0.0
  3
block 3
  1

  0
SPLINE
  5
55
330
51
100
AcDbEntity
  8
_U+30EC_U+30A4_U+30E4_U+30FC 1
370
     0
100
AcDbSpline
210
0.0
220
0.0
230
1.0
 70
    11
 71
     3
 72
    62
 73
    58
 74
     0
 42
0.0000000001
 43
0.0000000001
 12
1.0
 22
0.0
 32
0.0
 13
1.0
 23
0.0
 33
0.0
 40
0.0
 40
0.0
 40
0.0
 40
0.0
 40
1.0
 40
1.0
 40
1.0
 40
2.0
 40
2.0
 40
2.0
 40
3.0
 40
3.0
 40
3.0
 40
4.0
 40
4.0
 40
4.0
 40
5.0
 40
5.0
 40
5.0
 40
6.0
 40
6.0
 40
6.0
 40
7.0
 40
7.0
 40
7.0
 40
8.0
 40
8.0
 40
8.0
 40
9.0
 40
9.0
 40
9.0
 40
10.0
 40
10.0
 40
10.0
 40
11.0
 40
11.0
 40
11.0
 40
12.0
 40
12.0
 40
12.0
 40
13.0
 40
13.0
 40
13.0
 40
14.0
 40
14.0
 40
14.0
 40
15.0
 40
15.0
 40
15.0
 40
16.0
 40
16.0
 40
16.0
 40
17.0
 40
17.0
 40
17.0
 40
18.0
 40
18.0
 40
18.0
 40
19.0
 40
19.0
 40
19.0
 40
19.0
 10
77.53359644329022
 20
-140.631209274738
 30
0.0
 10
77.47434080094392
 20
-140.5722981419403
 30
0.0
 10
77.35376245896018
 20
-140.4224364883319
 30
0.0
 10
77.40819496762713
 20
-140.2136637019258
 30
0.0
 10
77.44126788428552
 20
-140.0886067358112
 30
0.0
 10
77.50879175579642
 20
-140.0152262019754
 30
0.0
 10
77.56563583130304
 20
-139.9525254641438
 30
0.0
 10
77.56563583130304
 20
-139.9525254641438
 30
0.0
 10
77.70240612206746
 20
-140.0886067358112
 30
0.0
 10
77.70240612206746
 20
-140.0886067358112
 30
0.0
 10
77.65141870888576
 20
-140.1423502253811
 30
0.0
 10
77.49259980701574
 20
-140.3152940187406
 30
0.0
 10
77.66829967676348
 20
-140.4903048693913
 30
0.0
 10
77.75339353524916
 20
-140.5750542183285
 30
0.0
 10
77.89705401698407
 20
-140.6198404596367
 30
0.0
 10
78.05828448569376
 20
-140.45792097183
 30
0.0
 10
78.14027775824272
 20
-140.3755831897325
 30
0.0
 10
78.15130206379551
 20
-140.3177055855803
 30
0.0
 10
78.15405814018371
 20
-140.2753309111117
 30
0.0
 10
78.16025931205716
 20
-140.1774901993306
 30
0.0
 10
78.09686955512856
 20
-140.0965304554273
 30
0.0
 10
78.06276310982459
 20
-140.0627685196718
 30
0.0
 10
78.05104978517474
 20
-140.0507106854734
 30
0.0
 10
78.02727862632652
 20
-140.0300401125619
 30
0.0
 10
78.00729707251207
 20
-140.0162597306209
 30
0.0
 10
78.00729707251207
 20
-140.0162597306209
 30
0.0
 10
78.14475638237354
 20
-139.8781114016624
 30
0.0
 10
78.14475638237354
 20
-139.8781114016624
 30
0.0
 10
78.16370440754241
 20
-139.9063611846415
 30
0.0
 10
78.18816458548768
 20
-139.9339219485235
 30
0.0
 10
78.19229870006998
 20
-139.9377115535572
 30
0.0
 10
78.23295082679593
 20
-139.9783636802832
 30
0.0
 10
78.37144366530298
 20
-140.085850659423
 30
0.0
 10
78.5385307963376
 20
-139.9180745092913
 30
0.0
 10
78.6639322720007
 20
-139.7919840145312
 30
0.0
 10
78.62155759753212
 20
-139.6720946916445
 30
0.0
 10
78.55300019737564
 20
-139.6042263105851
 30
0.0
 10
78.38935816182628
 20
-139.4409287845842
 30
0.0
 10
78.21951495440346
 20
-139.6007812150998
 30
0.0
 10
78.16611597438208
 20
-139.6490125518933
 30
0.0
 10
78.16611597438208
 20
-139.6490125518933
 30
0.0
 10
78.04036998917047
 20
-139.5236110762302
 30
0.0
 10
78.04036998917047
 20
-139.5236110762302
 30
0.0
 10
78.13338756727221
 20
-139.4402397654872
 30
0.0
 10
78.41657441615975
 20
-139.1908148523551
 30
0.0
 10
78.70010577459581
 20
-139.472968172597
 30
0.0
 10
78.83894312265137
 20
-139.6111165015556
 30
0.0
 10
78.89888778409473
 20
-139.8502061282319
 30
0.0
 10
78.68977048814006
 20
-140.0600124432836
 30
0.0
 10
78.55851235015204
 20
-140.1919596003687
 30
0.0
 10
78.44137910365355
 20
-140.1916150908202
 30
0.0
 10
78.33630369135342
 20
-140.1737005942969
 30
0.0
 10
78.3552517165223
 20
-140.230889179352
 30
0.0
 10
78.41106226338334
 20
-140.4003878772263
 30
0.0
 10
78.21572534936968
 20
-140.5967583198855
 30
0.0
 10
77.97663572269335
 20
-140.8365369656589
 30
0.0
 10
77.70516219845565
 20
-140.802430520355
 30
0.0
 10
77.53359644329022
 20
-140.631209274738
 30
0.0
  0
HATCH
  5
56
330
51
100
AcDbEntity
  8
_U+30EC_U+30A4_U+30E4_U+30FC 1
 62
   179
420
  2234388
100
AcDbHatch
 10
0.0
 20
0.0
 30
0.0
210
0.0
220
0.0
230
1.0
  2
SOLID
 70
     1
 71
     0
 91
        1
 92
        1
 93
        1
 72
     4
 94
        3
 73
     0
 74
     1
 95
       62
 96
       58
 40
0.0
 40
0.0
 40
0.0
 40
0.0
 40
1.0
 40
1.0
 40
1.0
 40
2.0
 40
2.0
 40
2.0
 40
3.0
 40
3.0
 40
3.0
 40
4.0
 40
4.0
 40
4.0
 40
5.0
 40
5.0
 40
5.0
 40
6.0
 40
6.0
 40
6.0
 40
7.0
 40
7.0
 40
7.0
 40
8.0
 40
8.0
 40
8.0
 40
9.0
 40
9.0
 40
9.0
 40
10.0
 40
10.0
 40
10.0
 40
11.0
 40
11.0
 40
11.0
 40
12.0
 40
12.0
 40
12.0
 40
13.0
 40
13.0
 40
13.0
 40
14.0
 40
14.0
 40
14.0
 40
15.0
 40
15.0
 40
15.0
 40
16.0
 40
16.0
 40
16.0
 40
17.0
 40
17.0
 40
17.0
 40
18.0
 40
18.0
 40
18.0
 40
19.0
 40
19.0
 40
19.0
 40
19.0
 10
77.53359644329022
 20
-140.631209274738
 10
77.47434080094392
 20
-140.5722981419403
 10
77.35376245896018
 20
-140.4224364883319
 10
77.40819496762713
 20
-140.2136637019258
 10
77.44126788428552
 20
-140.0886067358112
 10
77.50879175579642
 20
-140.0152262019754
 10
77.56563583130304
 20
-139.9525254641438
 10
77.56563583130304
 20
-139.9525254641438
 10
77.70240612206746
 20
-140.0886067358112
 10
77.70240612206746
 20
-140.0886067358112
 10
77.65141870888576
 20
-140.1423502253811
 10
77.49259980701574
 20
-140.3152940187406
 10
77.66829967676348
 20
-140.4903048693913
 10
77.75339353524916
 20
-140.5750542183285
 10
77.89705401698407
 20
-140.6198404596367
 10
78.05828448569376
 20
-140.45792097183
 10
78.14027775824272
 20
-140.3755831897325
 10
78.15130206379551
 20
-140.3177055855803
 10
78.15405814018371
 20
-140.2753309111117
 10
78.16025931205716
 20
-140.1774901993306
 10
78.09686955512856
 20
-140.0965304554273
 10
78.06276310982459
 20
-140.0627685196718
 10
78.05104978517474
 20
-140.0507106854734
 10
78.02727862632652
 20
-140.0300401125619
 10
78.00729707251207
 20
-140.0162597306209
 10
78.00729707251207
 20
-140.0162597306209
 10
78.14475638237354
 20
-139.8781114016624
 10
78.14475638237354
 20
-139.8781114016624
 10
78.16370440754241
 20
-139.9063611846415
 10
78.18816458548768
 20
-139.9339219485235
 10
78.19229870006998
 20
-139.9377115535572
 10
78.23295082679593
 20
-139.9783636802832
 10
78.37144366530298
 20
-140.085850659423
 10
78.5385307963376
 20
-139.9180745092913
 10
78.6639322720007
 20
-139.7919840145312
 10
78.62155759753212
 20
-139.6720946916445
 10
78.55300019737564
 20
-139.6042263105851
 10
78.38935816182628
 20
-139.4409287845842
 10
78.21951495440346
 20
-139.6007812150998
 10
78.16611597438208
 20
-139.6490125518933
 10
78.16611597438208
 20
-139.6490125518933
 10
78.04036998917047
 20
-139.5236110762302
 10
78.04036998917047
 20
-139.5236110762302
 10
78.13338756727221
 20
-139.4402397654872
 10
78.41657441615975
 20
-139.1908148523551
 10
78.70010577459581
 20
-139.472968172597
 10
78.83894312265137
 20
-139.6111165015556
 10
78.89888778409473
 20
-139.8502061282319
 10
78.68977048814006
 20
-140.0600124432836
 10
78.55851235015204
 20
-140.1919596003687
 10
78.44137910365355
 20
-140.1916150908202
 10
78.33630369135342
 20
-140.1737005942969
 10
78.3552517165223
 20
-140.230889179352
 10
78.41106226338334
 20
-140.4003878772263
 10
78.21572534936968
 20
-140.5967583198855
 10
77.97663572269335
 20
-140.8365369656589
 10
77.70516219845565
 20
-140.802430520355
 10
77.53359644329022
 20
-140.631209274738
 97
        0
 97
        0
 75
     2
 76
     1
 98
        0
  0
SPLINE
  5
57
330
51
100
AcDbEntity
  8
_U+30EC_U+30A4_U+30E4_U+30FC 1
370
     0
100
AcDbSpline
210
0.0
220
0.0
230
1.0
 70
    11
 71
     3
 72
    29
 73
    25
 74
     0
 42
0.0000000001
 43
0.0000000001
 12
1.0
 22
0.0
 32
0.0
 13
1.0
 23
0.0
 33
0.0
 40
0.0
 40
0.0
 40
0.0
 40
0.0
 40
1.0
 40
1.0
 40
1.0
 40
2.0
 40
2.0
 40
2.0
 40
3.0
 40
3.0
 40
3.0
 40
4.0
 40
4.0
 40
4.0
 40
5.0
 40
5.0
 40
5.0
 40
6.0
 40
6.0
 40
6.0
 40
7.0
 40
7.0
 40
7.0
 40
8.0
 40
8.0
 40
8.0
 40
8.0
 10
78.67702363484463
 20
-141.4473523951937
 30
0.0
 10
78.46239418611357
 20
-141.5293456677427
 30
0.0
 10
78.3414713345813
 20
-141.4352945609953
 30
0.0
 10
78.26912432939106
 20
-141.3636365749022
 30
0.0
 10
78.16956106986734
 20
-141.264417824927
 30
0.0
 10
78.11443954210334
 20
-141.1438394829432
 30
0.0
 10
78.18368596135686
 20
-140.9560817789971
 30
0.0
 10
78.25672198564416
 20
-140.7541991835615
 30
0.0
 10
78.41209579202892
 20
-140.5743651992314
 30
0.0
 10
78.52716198123626
 20
-140.4589545004756
 30
0.0
 10
78.62844778850261
 20
-140.3569796741122
 30
0.0
 10
78.81655000199726
 20
-140.188859014432
 30
0.0
 10
79.02256671201519
 20
-140.113411423305
 30
0.0
 10
79.23271753661544
 20
-140.0358967748869
 30
0.0
 10
79.34881725446836
 20
-140.1189235760814
 30
0.0
 10
79.42908797927467
 20
-140.1988497913392
 30
0.0
 10
79.5272732006043
 20
-140.2966905031203
 30
0.0
 10
79.58549531430502
 20
-140.4169243355555
 30
0.0
 10
79.51590438550298
 20
-140.6046820395016
 30
0.0
 10
79.4418348325701
 20
-140.802430520355
 30
0.0
 10
79.29507376489846
 20
-140.9784748996512
 30
0.0
 10
79.17277287517209
 20
-141.1014648084746
 30
0.0
 10
79.05185002363982
 20
-141.223076679104
 30
0.0
 10
78.87580564434356
 20
-141.3736273518094
 30
0.0
 10
78.67702363484463
 20
-141.4473523951937
 30
0.0
  0
SPLINE
  5
58
330
51
100
AcDbEntity
  8
_U+30EC_U+30A4_U+30E4_U+30FC 1
370
     0
100
AcDbSpline
210
0.0
220
0.0
230
1.0
 70
    11
 71
     3
 72
    17
 73
    13
 74
     0
 42
0.0000000001
 43
0.0000000001
 12
1.0
 22
0.0
 32
0.0
 13
1.0
 23
0.0
 33
0.0
 40
0.0
 40
0.0
 40
0.0
 40
0.0
 40
1.0
 40
1.0
 40
1.0
 40
2.0
 40
2.0
 40
2.0
 40
3.0
 40
3.0
 40
3.0
 40
4.0
 40
4.0
 40
4.0
 40
4.0
 10
79.2930067076073
 20
-140.3352755725551
 30
0.0
 10
79.13797741077107
 20
-140.1809352948159
 30
0.0
 10
78.909567580099
 20
-140.3531900690784
 30
0.0
 10
78.66634383884036
 20
-140.5974473389826
 30
0.0
 10
78.4406900845565
 20
-140.8237901123635
 30
0.0
 10
78.2450086609943
 20
-141.0646022867825
 30
0.0
 10
78.40658363925253
 20
-141.2254882459436
 30
0.0
 10
78.56023489789467
 20
-141.3781059759402
 30
0.0
 10
78.78864472856674
 20
-141.209296297163
 30
0.0
 10
79.033591017568
 20
-140.9633164795161
 30
0.0
 10
79.25890026230333
 20
-140.7369737061352
 30
0.0
 10
79.45320364767143
 20
-140.4944389839736
 30
0.0
 10
79.2930067076073
 20
-140.3352755725551
 30
0.0
  0
HATCH
  5
59
330
51
100
AcDbEntity
  8
_U+30EC_U+30A4_U+30E4_U+30FC 1
 62
   179
420
  2234388
100
AcDbHatch
 10
0.0
 20
0.0
 30
0.0
210
0.0
220
0.0
230
1.0
  2
SOLID
 70
     1
 71
     0
 91
        2
 92
        1
 93
        1
 72
     4
 94
        3
 73
     0
 74
     1
 95
       29
 96
       25
 40
0.0
 40
0.0
 40
0.0
 40
0.0
 40
1.0
 40
1.0
 40
1.0
 40
2.0
 40
2.0
 40
2.0
 40
3.0
 40
3.0
 40
3.0
 40
4.0
 40
4.0
 40
4.0
 40
5.0
 40
5.0
 40
5.0
 40
6.0
 40
6.0
 40
6.0
 40
7.0
 40
7.0
 40
7.0
 40
8.0
 40
8.0
 40
8.0
 40
8.0
 10
78.67702363484463
 20
-141.4473523951937
 10
78.46239418611357
 20
-141.5293456677427
 10
78.3414713345813
 20
-141.4352945609953
 10
78.26912432939106
 20
-141.3636365749022
 10
78.16956106986734
 20
-141.264417824927
 10
78.11443954210334
 20
-141.1438394829432
 10
78.18368596135686
 20
-140.9560817789971
 10
78.25672198564416
 20
-140.7541991835615
 10
78.41209579202892
 20
-140.5743651992314
 10
78.52716198123626
 20
-140.4589545004756
 10
78.62844778850261
 20
-140.3569796741122
 10
78.81655000199726
 20
-140.188859014432
 10
79.02256671201519
 20
-140.113411423305
 10
79.23271753661544
 20
-140.0358967748869
 10
79.34881725446836
 20
-140.1189235760814
 10
79.42908797927467
 20
-140.1988497913392
 10
79.5272732006043
 20
-140.2966905031203
 10
79.58549531430502
 20
-140.4169243355555
 10
79.51590438550298
 20
-140.6046820395016
 10
79.4418348325701
 20
-140.802430520355
 10
79.29507376489846
 20
-140.9784748996512
 10
79.17277287517209
 20
-141.1014648084746
 10
79.05185002363982
 20
-141.223076679104
 10
78.87580564434356
 20
-141.3736273518094
 10
78.67702363484463
 20
-141.4473523951937
 97
        0
 97
        0
 92
        1
 93
        1
 72
     4
 94
        3
 73
     0
 74
     1
 95
       17
 96
       13
 40
0.0
 40
0.0
 40
0.0
 40
0.0
 40
1.0
 40
1.0
 40
1.0
 40
2.0
 40
2.0
 40
2.0
 40
3.0
 40
3.0
 40
3.0
 40
4.0
 40
4.0
 40
4.0
 40
4.0
 10
79.2930067076073
 20
-140.3352755725551
 10
79.13797741077107
 20
-140.1809352948159
 10
78.909567580099
 20
-140.3531900690784
 10
78.66634383884036
 20
-140.5974473389826
 10
78.4406900845565
 20
-140.8237901123635
 10
78.2450086609943
 20
-141.0646022867825
 10
78.40658363925253
 20
-141.2254882459436
 10
78.56023489789467
 20
-141.3781059759402
 10
78.78864472856674
 20
-141.209296297163
 10
79.033591017568
 20
-140.9633164795161
 10
79.25890026230333
 20
-140.7369737061352
 10
79.45320364767143
 20
-140.4944389839736
 10
79.2930067076073
 20
-140.3352755725551
 97
        0
 97
        0
 75
     2
 76
     1
 98
        0
  0
ENDBLK
  5
54
330
51
100
AcDbEntity
  8
0
100
AcDbBlockEnd
  0
BLOCK
  5
6C
330
6A
100
AcDbEntity
  8
0
100
AcDbBlockBegin
  2
block 4
 70
     0
 10
0.0
 20
0.0
 30
0.0
  3
block 4
  1

  0
SPLINE
  5
6E
330
6A
100
AcDbEntity
  8
_U+30EC_U+30A4_U+30E4_U+30FC 1
370
     0
100
AcDbSpline
210
0.0
220
0.0
230
1.0
 70
    11
 71
     3
 72
    26
 73
    22
 74
     0
 42
0.0000000001
 43
0.0000000001
 12
1.0
 22
0.0
 32
0.0
 13
1.0
 23
0.0
 33
0.0
 40
0.0
 40
0.0
 40
0.0
 40
0.0
 40
1.0
 40
1.0
 40
1.0
 40
2.0
 40
2.0
 40
2.0
 40
3.0
 40
3.0
 40
3.0
 40
4.0
 40
4.0
 40
4.0
 40
5.0
 40
5.0
 40
5.0
 40
6.0
 40
6.0
 40
6.0
 40
7.0
 40
7.0
 40
7.0
 40
7.0
 10
108.2318087837059
 20
-152.2222330348611
 30
0.0
 10
108.2318087837059
 20
-152.2222330348611
 30
0.0
 10
108.2318087837059
 20
-151.1180799318385
 30
0.0
 10
108.2318087837059
 20
-151.1180799318385
 30
0.0
 10
108.2318087837059
 20
-151.1180799318385
 30
0.0
 10
107.9427652724935
 20
-151.1180799318385
 30
0.0
 10
107.9427652724935
 20
-151.1180799318385
 30
0.0
 10
107.9427652724935
 20
-151.1180799318385
 30
0.0
 10
107.9427652724935
 20
-150.9699408259728
 30
0.0
 10
107.9427652724935
 20
-150.9699408259728
 30
0.0
 10
108.2335313314486
 20
-150.9551269153862
 30
0.0
 10
108.2741834581745
 20
-150.7921738989339
 30
0.0
 10
108.3000216743139
 20
-150.6777967288236
 30
0.0
 10
108.3000216743139
 20
-150.6777967288236
 30
0.0
 10
108.4278347168167
 20
-150.6777967288236
 30
0.0
 10
108.4278347168167
 20
-150.6777967288236
 30
0.0
 10
108.4278347168167
 20
-150.6777967288236
 30
0.0
 10
108.4278347168167
 20
-152.2222330348611
 30
0.0
 10
108.4278347168167
 20
-152.2222330348611
 30
0.0
 10
108.4278347168167
 20
-152.2222330348611
 30
0.0
 10
108.2318087837059
 20
-152.2222330348611
 30
0.0
 10
108.2318087837059
 20
-152.2222330348611
 30
0.0
  0
HATCH
  5
6F
330
6A
100
AcDbEntity
  8
_U+30EC_U+30A4_U+30E4_U+30FC 1
 62
   179
420
  2234388
100
AcDbHatch
 10
0.0
 20
0.0
 30
0.0
210
0.0
220
0.0
230
1.0
  2
SOLID
 70
     1
 71
     0
 91
        1
 92
        1
 93
        1
 72
     4
 94
        3
 73
     0
 74
     1
 95
       26
 96
       22
 40
0.0
 40
0.0
 40
0.0
 40
0.0
 40
1.0
 40
1.0
 40
1.0
 40
2.0
 40
2.0
 40
2.0
 40
3.0
 40
3.0
 40
3.0
 40
4.0
 40
4.0
 40
4.0
 40
5.0
 40
5.0
 40
5.0
 40
6.0
 40
6.0
 40
6.0
 40
7.0
 40
7.0
 40
7.0
 40
7.0
 10
108.2318087837059
 20
-152.2222330348611
 10
108.2318087837059
 20
-152.2222330348611
 10
108.2318087837059
 20
-151.1180799318385
 10
108.2318087837059
 20
-151.1180799318385
 10
108.2318087837059
 20
-151.1180799318385
 10
107.9427652724935
 20
-151.1180799318385
 10
107.9427652724935
 20
-151.1180799318385
 10
107.9427652724935
 20
-151.1180799318385
 10
107.9427652724935
 20
-150.9699408259728
 10
107.9427652724935
 20
-150.9699408259728
 10
108.2335313314486
 20
-150.9551269153862
 10
108.2741834581745
 20
-150.7921738989339
 10
108.3000216743139
 20
-150.6777967288236
 10
108.3000216743139
 20
-150.6777967288236
 10
108.4278347168167
 20
-150.6777967288236
 10
108.4278347168167
 20
-150.6777967288236
 10
108.4278347168167
 20
-150.6777967288236
 10
108.4278347168167
 20
-152.2222330348611
 10
108.4278347168167
 20
-152.2222330348611
 10
108.4278347168167
 20
-152.2222330348611
 10
108.2318087837059
 20
-152.2222330348611
 10
108.2318087837059
 20
-152.2222330348611
 97
        0
 97
        0
 75
     2
 76
     1
 98
        0
  0
SPLINE
  5
70
330
6A
100
AcDbEntity
  8
_U+30EC_U+30A4_U+30E4_U+30FC 1
370
     0
100
AcDbSpline
210
0.0
220
0.0
230
1.0
 70
    11
 71
     3
 72
    53
 73
    49
 74
     0
 42
0.0000000001
 43
0.0000000001
 12
1.0
 22
0.0
 32
0.0
 13
1.0
 23
0.0
 33
0.0
 40
0.0
 40
0.0
 40
0.0
 40
0.0
 40
1.0
 40
1.0
 40
1.0
 40
2.0
 40
2.0
 40
2.0
 40
3.0
 40
3.0
 40
3.0
 40
4.0
 40
4.0
 40
4.0
 40
5.0
 40
5.0
 40
5.0
 40
6.0
 40
6.0
 40
6.0
 40
7.0
 40
7.0
 40
7.0
 40
8.0
 40
8.0
 40
8.0
 40
9.0
 40
9.0
 40
9.0
 40
10.0
 40
10.0
 40
10.0
 40
11.0
 40
11.0
 40
11.0
 40
12.0
 40
12.0
 40
12.0
 40
13.0
 40
13.0
 40
13.0
 40
14.0
 40
14.0
 40
14.0
 40
15.0
 40
15.0
 40
15.0
 40
16.0
 40
16.0
 40
16.0
 40
16.0
 10
109.2884195690321
 20
-152.2728759384943
 30
0.0
 10
109.2198621688756
 20
-152.2728759384943
 30
0.0
 10
109.1309787053561
 20
-152.2559949706166
 30
0.0
 10
109.0420952418367
 20
-152.192605213688
 30
0.0
 10
108.8901665309372
 20
-152.0827066677085
 30
0.0
 10
108.8719075248654
 20
-151.9514485297205
 30
0.0
 10
108.8550265569876
 20
-151.8436170410322
 30
0.0
 10
108.8550265569876
 20
-151.8436170410322
 30
0.0
 10
109.0496744519043
 20
-151.8436170410322
 30
0.0
 10
109.0496744519043
 20
-151.8436170410322
 30
0.0
 10
109.0975612791492
 20
-152.0423990505311
 30
0.0
 10
109.2088378633228
 20
-152.0720268717042
 30
0.0
 10
109.2901421167747
 20
-152.0720268717042
 30
0.0
 10
109.4124430065011
 20
-152.0720268717042
 30
0.0
 10
109.5457682017802
 20
-151.9724636121805
 30
0.0
 10
109.5457682017802
 20
-151.7399196669261
 30
0.0
 10
109.5457682017802
 20
-151.4839490723721
 30
0.0
 10
109.3883273381043
 20
-151.4140136340215
 30
0.0
 10
109.2829074162557
 20
-151.4140136340215
 30
0.0
 10
109.2550021428251
 20
-151.4140136340215
 30
0.0
 10
109.1309787053561
 20
-151.4140136340215
 30
0.0
 10
109.0531195473895
 20
-151.5432047147184
 30
0.0
 10
109.0531195473895
 20
-151.5432047147184
 30
0.0
 10
108.8994682887474
 20
-151.5242566895495
 30
0.0
 10
108.8994682887474
 20
-151.5242566895495
 30
0.0
 10
108.8994682887474
 20
-151.5242566895495
 30
0.0
 10
109.004888210596
 20
-150.6777967288236
 30
0.0
 10
109.004888210596
 20
-150.6777967288236
 30
0.0
 10
109.004888210596
 20
-150.6777967288236
 30
0.0
 10
109.6863280975784
 20
-150.6777967288236
 30
0.0
 10
109.6863280975784
 20
-150.6777967288236
 30
0.0
 10
109.6863280975784
 20
-150.6777967288236
 30
0.0
 10
109.6863280975784
 20
-150.8724446237402
 30
0.0
 10
109.6863280975784
 20
-150.8724446237402
 30
0.0
 10
109.6863280975784
 20
-150.8724446237402
 30
0.0
 10
109.1475151636854
 20
-150.8724446237402
 30
0.0
 10
109.1475151636854
 20
-150.8724446237402
 30
0.0
 10
109.1475151636854
 20
-150.8724446237402
 30
0.0
 10
109.0903265786302
 20
-151.2955023493289
 30
0.0
 10
109.0903265786302
 20
-151.2955023493289
 30
0.0
 10
109.1440700682001
 20
-151.2617404135734
 30
0.0
 10
109.2160725638418
 20
-151.221432796396
 30
0.0
 10
109.3197699379478
 20
-151.221432796396
 30
0.0
 10
109.5419785967465
 20
-151.221432796396
 30
0.0
 10
109.7493733449585
 20
-151.4078124621481
 30
0.0
 10
109.7493733449585
 20
-151.7209716417573
 30
0.0
 10
109.7493733449585
 20
-152.0382649359488
 30
0.0
 10
109.5533474118478
 20
-152.2728759384943
 30
0.0
 10
109.2884195690321
 20
-152.2728759384943
 30
0.0
  0
HATCH
  5
71
330
6A
100
AcDbEntity
  8
_U+30EC_U+30A4_U+30E4_U+30FC 1
 62
   179
420
  2234388
100
AcDbHatch
 10
0.0
 20
0.0
 30
0.0
210
0.0
220
0.0
230
1.0
  2
SOLID
 70
     1
 71
     0
 91
        1
 92
        1
 93
        1
 72
     4
 94
        3
 73
     0
 74
     1
 95
       53
 96
       49
 40
0.0
 40
0.0
 40
0.0
 40
0.0
 40
1.0
 40
1.0
 40
1.0
 40
2.0
 40
2.0
 40
2.0
 40
3.0
 40
3.0
 40
3.0
 40
4.0
 40
4.0
 40
4.0
 40
5.0
 40
5.0
 40
5.0
 40
6.0
 40
6.0
 40
6.0
 40
7.0
 40
7.0
 40
7.0
 40
8.0
 40
8.0
 40
8.0
 40
9.0
 40
9.0
 40
9.0
 40
10.0
 40
10.0
 40
10.0
 40
11.0
 40
11.0
 40
11.0
 40
12.0
 40
12.0
 40
12.0
 40
13.0
 40
13.0
 40
13.0
 40
14.0
 40
14.0
 40
14.0
 40
15.0
 40
15.0
 40
15.0
 40
16.0
 40
16.0
 40
16.0
 40
16.0
 10
109.2884195690321
 20
-152.2728759384943
 10
109.2198621688756
 20
-152.2728759384943
 10
109.1309787053561
 20
-152.2559949706166
 10
109.0420952418367
 20
-152.192605213688
 10
108.8901665309372
 20
-152.0827066677085
 10
108.8719075248654
 20
-151.9514485297205
 10
108.8550265569876
 20
-151.8436170410322
 10
108.8550265569876
 20
-151.8436170410322
 10
109.0496744519043
 20
-151.8436170410322
 10
109.0496744519043
 20
-151.8436170410322
 10
109.0975612791492
 20
-152.0423990505311
 10
109.2088378633228
 20
-152.0720268717042
 10
109.2901421167747
 20
-152.0720268717042
 10
109.4124430065011
 20
-152.0720268717042
 10
109.5457682017802
 20
-151.9724636121805
 10
109.5457682017802
 20
-151.7399196669261
 10
109.5457682017802
 20
-151.4839490723721
 10
109.3883273381043
 20
-151.4140136340215
 10
109.2829074162557
 20
-151.4140136340215
 10
109.2550021428251
 20
-151.4140136340215
 10
109.1309787053561
 20
-151.4140136340215
 10
109.0531195473895
 20
-151.5432047147184
 10
109.0531195473895
 20
-151.5432047147184
 10
108.8994682887474
 20
-151.5242566895495
 10
108.8994682887474
 20
-151.5242566895495
 10
108.8994682887474
 20
-151.5242566895495
 10
109.004888210596
 20
-150.6777967288236
 10
109.004888210596
 20
-150.6777967288236
 10
109.004888210596
 20
-150.6777967288236
 10
109.6863280975784
 20
-150.6777967288236
 10
109.6863280975784
 20
-150.6777967288236
 10
109.6863280975784
 20
-150.6777967288236
 10
109.6863280975784
 20
-150.8724446237402
 10
109.6863280975784
 20
-150.8724446237402
 10
109.6863280975784
 20
-150.8724446237402
 10
109.1475151636854
 20
-150.8724446237402
 10
109.1475151636854
 20
-150.8724446237402
 10
109.1475151636854
 20
-150.8724446237402
 10
109.0903265786302
 20
-151.2955023493289
 10
109.0903265786302
 20
-151.2955023493289
 10
109.1440700682001
 20
-151.2617404135734
 10
109.2160725638418
 20
-151.221432796396
 10
109.3197699379478
 20
-151.221432796396
 10
109.5419785967465
 20
-151.221432796396
 10
109.7493733449585
 20
-151.4078124621481
 10
109.7493733449585
 20
-151.7209716417573
 10
109.7493733449585
 20
-152.0382649359488
 10
109.5533474118478
 20
-152.2728759384943
 10
109.2884195690321
 20
-152.2728759384943
 97
        0
 97
        0
 75
     2
 76
     1
 98
        0
  0
ENDBLK
  5
6D
330
6A
100
AcDbEntity
  8
0
100
AcDbBlockEnd
  0
BLOCK
  5
74
330
72
100
AcDbEntity
  8
0
100
AcDbBlockBegin
  2
block 5
 70
     0
 10
0.0
 20
0.0
 30
0.0
  3
block 5
  1

  0
SPLINE
  5
76
330
72
100
AcDbEntity
  8
_U+30EC_U+30A4_U+30E4_U+30FC 1
370
     0
100
AcDbSpline
210
0.0
220
0.0
230
1.0
 70
    11
 71
     3
 72
    26
 73
    22
 74
     0
 42
0.0000000001
 43
0.0000000001
 12
1.0
 22
0.0
 32
0.0
 13
1.0
 23
0.0
 33
0.0
 40
0.0
 40
0.0
 40
0.0
 40
0.0
 40
1.0
 40
1.0
 40
1.0
 40
2.0
 40
2.0
 40
2.0
 40
3.0
 40
3.0
 40
3.0
 40
4.0
 40
4.0
 40
4.0
 40
5.0
 40
5.0
 40
5.0
 40
6.0
 40
6.0
 40
6.0
 40
7.0
 40
7.0
 40
7.0
 40
7.0
 10
95.4029622157326
 20
-152.2222330348611
 30
0.0
 10
95.4029622157326
 20
-152.2222330348611
 30
0.0
 10
95.4029622157326
 20
-151.1180799318385
 30
0.0
 10
95.4029622157326
 20
-151.1180799318385
 30
0.0
 10
95.4029622157326
 20
-151.1180799318385
 30
0.0
 10
95.11391870452013
 20
-151.1180799318385
 30
0.0
 10
95.11391870452013
 20
-151.1180799318385
 30
0.0
 10
95.11391870452013
 20
-151.1180799318385
 30
0.0
 10
95.11391870452013
 20
-150.9699408259728
 30
0.0
 10
95.11391870452013
 20
-150.9699408259728
 30
0.0
 10
95.40468476347522
 20
-150.9551269153862
 30
0.0
 10
95.44533689020118
 20
-150.7921738989339
 30
0.0
 10
95.47117510634054
 20
-150.6777967288236
 30
0.0
 10
95.47117510634054
 20
-150.6777967288236
 30
0.0
 10
95.59898814884332
 20
-150.6777967288236
 30
0.0
 10
95.59898814884332
 20
-150.6777967288236
 30
0.0
 10
95.59898814884332
 20
-150.6777967288236
 30
0.0
 10
95.59898814884332
 20
-152.2222330348611
 30
0.0
 10
95.59898814884332
 20
-152.2222330348611
 30
0.0
 10
95.59898814884332
 20
-152.2222330348611
 30
0.0
 10
95.4029622157326
 20
-152.2222330348611
 30
0.0
 10
95.4029622157326
 20
-152.2222330348611
 30
0.0
  0
HATCH
  5
77
330
72
100
AcDbEntity
  8
_U+30EC_U+30A4_U+30E4_U+30FC 1
 62
   179
420
  2234388
100
AcDbHatch
 10
0.0
 20
0.0
 30
0.0
210
0.0
220
0.0
230
1.0
  2
SOLID
 70
     1
 71
     0
 91
        1
 92
        1
 93
        1
 72
     4
 94
        3
 73
     0
 74
     1
 95
       26
 96
       22
 40
0.0
 40
0.0
 40
0.0
 40
0.0
 40
1.0
 40
1.0
 40
1.0
 40
2.0
 40
2.0
 40
2.0
 40
3.0
 40
3.0
 40
3.0
 40
4.0
 40
4.0
 40
4.0
 40
5.0
 40
5.0
 40
5.0
 40
6.0
 40
6.0
 40
6.0
 40
7.0
 40
7.0
 40
7.0
 40
7.0
 10
95.4029622157326
 20
-152.2222330348611
 10
95.4029622157326
 20
-152.2222330348611
 10
95.4029622157326
 20
-151.1180799318385
 10
95.4029622157326
 20
-151.1180799318385
 10
95.4029622157326
 20
-151.1180799318385
 10
95.11391870452013
 20
-151.1180799318385
 10
95.11391870452013
 20
-151.1180799318385
 10
95.11391870452013
 20
-151.1180799318385
 10
95.11391870452013
 20
-150.9699408259728
 10
95.11391870452013
 20
-150.9699408259728
 10
95.40468476347522
 20
-150.9551269153862
 10
95.44533689020118
 20
-150.7921738989339
 10
95.47117510634054
 20
-150.6777967288236
 10
95.47117510634054
 20
-150.6777967288236
 10
95.59898814884332
 20
-150.6777967288236
 10
95.59898814884332
 20
-150.6777967288236
 10
95.59898814884332
 20
-150.6777967288236
 10
95.59898814884332
 20
-152.2222330348611
 10
95.59898814884332
 20
-152.2222330348611
 10
95.59898814884332
 20
-152.2222330348611
 10
95.4029622157326
 20
-152.2222330348611
 10
95.4029622157326
 20
-152.2222330348611
 97
        0
 97
        0
 75
     2
 76
     1
 98
        0
  0
SPLINE
  5
78
330
72
100
AcDbEntity
  8
_U+30EC_U+30A4_U+30E4_U+30FC 1
370
     0
100
AcDbSpline
210
0.0
220
0.0
230
1.0
 70
    11
 71
     3
 72
    29
 73
    25
 74
     0
 42
0.0000000001
 43
0.0000000001
 12
1.0
 22
0.0
 32
0.0
 13
1.0
 23
0.0
 33
0.0
 40
0.0
 40
0.0
 40
0.0
 40
0.0
 40
1.0
 40
1.0
 40
1.0
 40
2.0
 40
2.0
 40
2.0
 40
3.0
 40
3.0
 40
3.0
 40
4.0
 40
4.0
 40
4.0
 40
5.0
 40
5.0
 40
5.0
 40
6.0
 40
6.0
 40
6.0
 40
7.0
 40
7.0
 40
7.0
 40
8.0
 40
8.0
 40
8.0
 40
8.0
 10
96.82440861294668
 20
-152.0444661078222
 30
0.0
 10
96.73001299665083
 20
-152.2539279133254
 30
0.0
 10
96.57808428575132
 20
-152.2728759384943
 30
0.0
 10
96.47610945938793
 20
-152.2728759384943
 30
0.0
 10
96.33554956358972
 20
-152.2728759384943
 30
0.0
 10
96.21152612612073
 20
-152.2263671494434
 30
0.0
 10
96.12815481537768
 20
-152.0444661078222
 30
0.0
 10
96.03720429456709
 20
-151.8498182129056
 30
0.0
 10
96.02066783623789
 20
-151.6127956435204
 30
0.0
 10
96.02066783623789
 20
-151.4501871366166
 30
0.0
 10
96.02066783623789
 20
-151.3061821453332
 30
0.0
 10
96.03548174682447
 20
-151.0543456653614
 30
0.0
 10
96.12815481537768
 20
-150.8555636558625
 30
0.0
 10
96.22255043167354
 20
-150.6526475317813
 30
0.0
 10
96.36311032747173
 20
-150.6292208824816
 30
0.0
 10
96.47610945938793
 20
-150.6292208824816
 30
0.0
 10
96.61494680744349
 20
-150.6292208824816
 30
0.0
 10
96.74103730220364
 20
-150.6736626142413
 30
0.0
 10
96.82440861294668
 20
-150.8555636558625
 30
0.0
 10
96.91122501917498
 20
-151.048144493488
 30
0.0
 10
96.93189559208648
 20
-151.27655432416
 30
0.0
 10
96.93189559208648
 20
-151.4501871366166
 30
0.0
 10
96.93189559208648
 20
-151.6214083822335
 30
0.0
 10
96.91329207646612
 20
-151.8518852701968
 30
0.0
 10
96.82440861294668
 20
-152.0444661078222
 30
0.0
  0
SPLINE
  5
79
330
72
100
AcDbEntity
  8
_U+30EC_U+30A4_U+30E4_U+30FC 1
370
     0
100
AcDbSpline
210
0.0
220
0.0
230
1.0
 70
    11
 71
     3
 72
    17
 73
    13
 74
     0
 42
0.0000000001
 43
0.0000000001
 12
1.0
 22
0.0
 32
0.0
 13
1.0
 23
0.0
 33
0.0
 40
0.0
 40
0.0
 40
0.0
 40
0.0
 40
1.0
 40
1.0
 40
1.0
 40
2.0
 40
2.0
 40
2.0
 40
3.0
 40
3.0
 40
3.0
 40
4.0
 40
4.0
 40
4.0
 40
4.0
 10
96.47610945938793
 20
-150.8218017201071
 30
0.0
 10
96.25769040562308
 20
-150.8218017201071
 30
0.0
 10
96.21703827889714
 20
-151.1053330785431
 30
0.0
 10
96.21703827889714
 20
-151.4501871366166
 30
0.0
 10
96.21703827889714
 20
-151.7695474880993
 30
0.0
 10
96.2483886478129
 20
-152.0782280435777
 30
0.0
 10
96.47610945938793
 20
-152.0782280435777
 30
0.0
 10
96.69280596541013
 20
-152.0782280435777
 30
0.0
 10
96.73552514942723
 20
-151.7971082519813
 30
0.0
 10
96.73552514942723
 20
-151.4501871366166
 30
0.0
 10
96.73552514942723
 20
-151.1304822755855
 30
0.0
 10
96.70210772322031
 20
-150.8218017201071
 30
0.0
 10
96.47610945938793
 20
-150.8218017201071
 30
0.0
  0
HATCH
  5
7A
330
72
100
AcDbEntity
  8
_U+30EC_U+30A4_U+30E4_U+30FC 1
 62
   179
420
  2234388
100
AcDbHatch
 10
0.0
 20
0.0
 30
0.0
210
0.0
220
0.0
230
1.0
  2
SOLID
 70
     1
 71
     0
 91
        2
 92
        1
 93
        1
 72
     4
 94
        3
 73
     0
 74
     1
 95
       29
 96
       25
 40
0.0
 40
0.0
 40
0.0
 40
0.0
 40
1.0
 40
1.0
 40
1.0
 40
2.0
 40
2.0
 40
2.0
 40
3.0
 40
3.0
 40
3.0
 40
4.0
 40
4.0
 40
4.0
 40
5.0
 40
5.0
 40
5.0
 40
6.0
 40
6.0
 40
6.0
 40
7.0
 40
7.0
 40
7.0
 40
8.0
 40
8.0
 40
8.0
 40
8.0
 10
96.82440861294668
 20
-152.0444661078222
 10
96.73001299665083
 20
-152.2539279133254
 10
96.57808428575132
 20
-152.2728759384943
 10
96.47610945938793
 20
-152.2728759384943
 10
96.33554956358972
 20
-152.2728759384943
 10
96.21152612612073
 20
-152.2263671494434
 10
96.12815481537768
 20
-152.0444661078222
 10
96.03720429456709
 20
-151.8498182129056
 10
96.02066783623789
 20
-151.6127956435204
 10
96.02066783623789
 20
-151.4501871366166
 10
96.02066783623789
 20
-151.3061821453332
 10
96.03548174682447
 20
-151.0543456653614
 10
96.12815481537768
 20
-150.8555636558625
 10
96.22255043167354
 20
-150.6526475317813
 10
96.36311032747173
 20
-150.6292208824816
 10
96.47610945938793
 20
-150.6292208824816
 10
96.61494680744349
 20
-150.6292208824816
 10
96.74103730220364
 20
-150.6736626142413
 10
96.82440861294668
 20
-150.8555636558625
 10
96.91122501917498
 20
-151.048144493488
 10
96.93189559208648
 20
-151.27655432416
 10
96.93189559208648
 20
-151.4501871366166
 10
96.93189559208648
 20
-151.6214083822335
 10
96.91329207646612
 20
-151.8518852701968
 10
96.82440861294668
 20
-152.0444661078222
 97
        0
 97
        0
 92
        1
 93
        1
 72
     4
 94
        3
 73
     0
 74
     1
 95
       17
 96
       13
 40
0.0
 40
0.0
 40
0.0
 40
0.0
 40
1.0
 40
1.0
 40
1.0
 40
2.0
 40
2.0
 40
2.0
 40
3.0
 40
3.0
 40
3.0
 40
4.0
 40
4.0
 40
4.0
 40
4.0
 10
96.47610945938793
 20
-150.8218017201071
 10
96.25769040562308
 20
-150.8218017201071
 10
96.21703827889714
 20
-151.1053330785431
 10
96.21703827889714
 20
-151.4501871366166
 10
96.21703827889714
 20
-151.7695474880993
 10
96.2483886478129
 20
-152.0782280435777
 10
96.47610945938793
 20
-152.0782280435777
 10
96.69280596541013
 20
-152.0782280435777
 10
96.73552514942723
 20
-151.7971082519813
 10
96.73552514942723
 20
-151.4501871366166
 10
96.73552514942723
 20
-151.1304822755855
 10
96.70210772322031
 20
-150.8218017201071
 10
96.47610945938793
 20
-150.8218017201071
 97
        0
 97
        0
 75
     2
 76
     1
 98
        0
  0
ENDBLK
  5
75
330
72
100
AcDbEntity
  8
0
100
AcDbBlockEnd
  0
BLOCK
  5
85
330
83
100
AcDbEntity
  8
0
100
AcDbBlockBegin
  2
block 6
 70
     0
 10
0.0
 20
0.0
 30
0.0
  3
block 6
  1

  0
SPLINE
  5
87
330
83
100
AcDbEntity
  8
_U+30EC_U+30A4_U+30E4_U+30FC 1
370
     0
100
AcDbSpline
210
0.0
220
0.0
230
1.0
 70
    11
 71
     3
 72
    26
 73
    22
 74
     0
 42
0.0000000001
 43
0.0000000001
 12
1.0
 22
0.0
 32
0.0
 13
1.0
 23
0.0
 33
0.0
 40
0.0
 40
0.0
 40
0.0
 40
0.0
 40
1.0
 40
1.0
 40
1.0
 40
2.0
 40
2.0
 40
2.0
 40
3.0
 40
3.0
 40
3.0
 40
4.0
 40
4.0
 40
4.0
 40
5.0
 40
5.0
 40
5.0
 40
6.0
 40
6.0
 40
6.0
 40
7.0
 40
7.0
 40
7.0
 40
7.0
 10
107.4707871910143
 20
-144.4135796079938
 30
0.0
 10
107.4707871910143
 20
-144.4135796079938
 30
0.0
 10
106.3666340879917
 20
-144.4135796079938
 30
0.0
 10
106.3666340879917
 20
-144.4135796079938
 30
0.0
 10
106.3666340879917
 20
-144.4135796079938
 30
0.0
 10
106.3666340879917
 20
-144.7026231192063
 30
0.0
 10
106.3666340879917
 20
-144.7026231192063
 30
0.0
 10
106.3666340879917
 20
-144.7026231192063
 30
0.0
 10
106.2184949821259
 20
-144.7026231192063
 30
0.0
 10
106.2184949821259
 20
-144.7026231192063
 30
0.0
 10
106.2036810715394
 20
-144.4118570602512
 30
0.0
 10
106.040728055087
 20
-144.3712049335253
 30
0.0
 10
105.9263508849768
 20
-144.3450222078374
 30
0.0
 10
105.9263508849768
 20
-144.3450222078374
 30
0.0
 10
105.9263508849768
 20
-144.2175536748831
 30
0.0
 10
105.9263508849768
 20
-144.2175536748831
 30
0.0
 10
105.9263508849768
 20
-144.2175536748831
 30
0.0
 10
107.4707871910143
 20
-144.2175536748831
 30
0.0
 10
107.4707871910143
 20
-144.2175536748831
 30
0.0
 10
107.4707871910143
 20
-144.2175536748831
 30
0.0
 10
107.4707871910143
 20
-144.4135796079938
 30
0.0
 10
107.4707871910143
 20
-144.4135796079938
 30
0.0
  0
HATCH
  5
88
330
83
100
AcDbEntity
  8
_U+30EC_U+30A4_U+30E4_U+30FC 1
 62
   179
420
  2234388
100
AcDbHatch
 10
0.0
 20
0.0
 30
0.0
210
0.0
220
0.0
230
1.0
  2
SOLID
 70
     1
 71
     0
 91
        1
 92
        1
 93
        1
 72
     4
 94
        3
 73
     0
 74
     1
 95
       26
 96
       22
 40
0.0
 40
0.0
 40
0.0
 40
0.0
 40
1.0
 40
1.0
 40
1.0
 40
2.0
 40
2.0
 40
2.0
 40
3.0
 40
3.0
 40
3.0
 40
4.0
 40
4.0
 40
4.0
 40
5.0
 40
5.0
 40
5.0
 40
6.0
 40
6.0
 40
6.0
 40
7.0
 40
7.0
 40
7.0
 40
7.0
 10
107.4707871910143
 20
-144.4135796079938
 10
107.4707871910143
 20
-144.4135796079938
 10
106.3666340879917
 20
-144.4135796079938
 10
106.3666340879917
 20
-144.4135796079938
 10
106.3666340879917
 20
-144.4135796079938
 10
106.3666340879917
 20
-144.7026231192063
 10
106.3666340879917
 20
-144.7026231192063
 10
106.3666340879917
 20
-144.7026231192063
 10
106.2184949821259
 20
-144.7026231192063
 10
106.2184949821259
 20
-144.7026231192063
 10
106.2036810715394
 20
-144.4118570602512
 10
106.040728055087
 20
-144.3712049335253
 10
105.9263508849768
 20
-144.3450222078374
 10
105.9263508849768
 20
-144.3450222078374
 10
105.9263508849768
 20
-144.2175536748831
 10
105.9263508849768
 20
-144.2175536748831
 10
105.9263508849768
 20
-144.2175536748831
 10
107.4707871910143
 20
-144.2175536748831
 10
107.4707871910143
 20
-144.2175536748831
 10
107.4707871910143
 20
-144.2175536748831
 10
107.4707871910143
 20
-144.4135796079938
 10
107.4707871910143
 20
-144.4135796079938
 97
        0
 97
        0
 75
     2
 76
     1
 98
        0
  0
SPLINE
  5
89
330
83
100
AcDbEntity
  8
_U+30EC_U+30A4_U+30E4_U+30FC 1
370
     0
100
AcDbSpline
210
0.0
220
0.0
230
1.0
 70
    11
 71
     3
 72
    29
 73
    25
 74
     0
 42
0.0000000001
 43
0.0000000001
 12
1.0
 22
0.0
 32
0.0
 13
1.0
 23
0.0
 33
0.0
 40
0.0
 40
0.0
 40
0.0
 40
0.0
 40
1.0
 40
1.0
 40
1.0
 40
2.0
 40
2.0
 40
2.0
 40
3.0
 40
3.0
 40
3.0
 40
4.0
 40
4.0
 40
4.0
 40
5.0
 40
5.0
 40
5.0
 40
6.0
 40
6.0
 40
6.0
 40
7.0
 40
7.0
 40
7.0
 40
8.0
 40
8.0
 40
8.0
 40
8.0
 10
107.2930202639754
 20
-142.9921332107797
 30
0.0
 10
107.5024820694785
 20
-143.0865288270756
 30
0.0
 10
107.5214300946474
 20
-143.2384575379751
 30
0.0
 10
107.5214300946474
 20
-143.3404323643385
 30
0.0
 10
107.5214300946474
 20
-143.4809922601367
 30
0.0
 10
107.4749213055966
 20
-143.6050156976057
 30
0.0
 10
107.2930202639754
 20
-143.6883870083487
 30
0.0
 10
107.0983723690588
 20
-143.7793375291593
 30
0.0
 10
106.8613497996736
 20
-143.7958739874885
 30
0.0
 10
106.6987412927698
 20
-143.7958739874885
 30
0.0
 10
106.5547363014863
 20
-143.7958739874885
 30
0.0
 10
106.3028998215146
 20
-143.781060076902
 30
0.0
 10
106.1041178120156
 20
-143.6883870083487
 30
0.0
 10
105.9012016879344
 20
-143.5939913920529
 30
0.0
 10
105.8777750386347
 20
-143.4534314962547
 30
0.0
 10
105.8777750386347
 20
-143.3404323643385
 30
0.0
 10
105.8777750386347
 20
-143.2015950162829
 30
0.0
 10
105.9222167703945
 20
-143.0755045215228
 30
0.0
 10
106.1041178120156
 20
-142.9921332107797
 30
0.0
 10
106.2966986496411
 20
-142.9053168045515
 30
0.0
 10
106.5251084803132
 20
-142.8849907411885
 30
0.0
 10
106.6987412927698
 20
-142.8849907411885
 30
0.0
 10
106.8699625383867
 20
-142.8849907411885
 30
0.0
 10
107.1004394263499
 20
-142.9032497472603
 30
0.0
 10
107.2930202639754
 20
-142.9921332107797
 30
0.0
  0
SPLINE
  5
8A
330
83
100
AcDbEntity
  8
_U+30EC_U+30A4_U+30E4_U+30FC 1
370
     0
100
AcDbSpline
210
0.0
220
0.0
230
1.0
 70
    11
 71
     3
 72
    17
 73
    13
 74
     0
 42
0.0000000001
 43
0.0000000001
 12
1.0
 22
0.0
 32
0.0
 13
1.0
 23
0.0
 33
0.0
 40
0.0
 40
0.0
 40
0.0
 40
0.0
 40
1.0
 40
1.0
 40
1.0
 40
2.0
 40
2.0
 40
2.0
 40
3.0
 40
3.0
 40
3.0
 40
4.0
 40
4.0
 40
4.0
 40
4.0
 10
106.0703558762602
 20
-143.3404323643385
 30
0.0
 10
106.0703558762602
 20
-143.5588514181034
 30
0.0
 10
106.3538872346963
 20
-143.5995035448293
 30
0.0
 10
106.6987412927698
 20
-143.5995035448293
 30
0.0
 10
107.0181016442524
 20
-143.5995035448293
 30
0.0
 10
107.3267821997308
 20
-143.5681531759135
 30
0.0
 10
107.3267821997308
 20
-143.3404323643385
 30
0.0
 10
107.3267821997308
 20
-143.1237358583163
 30
0.0
 10
107.0456624081344
 20
-143.0810166742992
 30
0.0
 10
106.6987412927698
 20
-143.0810166742992
 30
0.0
 10
106.3790364317386
 20
-143.0810166742992
 30
0.0
 10
106.0703558762602
 20
-143.1144341005061
 30
0.0
 10
106.0703558762602
 20
-143.3404323643385
 30
0.0
  0
HATCH
  5
8B
330
83
100
AcDbEntity
  8
_U+30EC_U+30A4_U+30E4_U+30FC 1
 62
   179
420
  2234388
100
AcDbHatch
 10
0.0
 20
0.0
 30
0.0
210
0.0
220
0.0
230
1.0
  2
SOLID
 70
     1
 71
     0
 91
        2
 92
        1
 93
        1
 72
     4
 94
        3
 73
     0
 74
     1
 95
       29
 96
       25
 40
0.0
 40
0.0
 40
0.0
 40
0.0
 40
1.0
 40
1.0
 40
1.0
 40
2.0
 40
2.0
 40
2.0
 40
3.0
 40
3.0
 40
3.0
 40
4.0
 40
4.0
 40
4.0
 40
5.0
 40
5.0
 40
5.0
 40
6.0
 40
6.0
 40
6.0
 40
7.0
 40
7.0
 40
7.0
 40
8.0
 40
8.0
 40
8.0
 40
8.0
 10
107.2930202639754
 20
-142.9921332107797
 10
107.5024820694785
 20
-143.0865288270756
 10
107.5214300946474
 20
-143.2384575379751
 10
107.5214300946474
 20
-143.3404323643385
 10
107.5214300946474
 20
-143.4809922601367
 10
107.4749213055966
 20
-143.6050156976057
 10
107.2930202639754
 20
-143.6883870083487
 10
107.0983723690588
 20
-143.7793375291593
 10
106.8613497996736
 20
-143.7958739874885
 10
106.6987412927698
 20
-143.7958739874885
 10
106.5547363014863
 20
-143.7958739874885
 10
106.3028998215146
 20
-143.781060076902
 10
106.1041178120156
 20
-143.6883870083487
 10
105.9012016879344
 20
-143.5939913920529
 10
105.8777750386347
 20
-143.4534314962547
 10
105.8777750386347
 20
-143.3404323643385
 10
105.8777750386347
 20
-143.2015950162829
 10
105.9222167703945
 20
-143.0755045215228
 10
106.1041178120156
 20
-142.9921332107797
 10
106.2966986496411
 20
-142.9053168045515
 10
106.5251084803132
 20
-142.8849907411885
 10
106.6987412927698
 20
-142.8849907411885
 10
106.8699625383867
 20
-142.8849907411885
 10
107.1004394263499
 20
-142.9032497472603
 10
107.2930202639754
 20
-142.9921332107797
 97
        0
 97
        0
 92
        1
 93
        1
 72
     4
 94
        3
 73
     0
 74
     1
 95
       17
 96
       13
 40
0.0
 40
0.0
 40
0.0
 40
0.0
 40
1.0
 40
1.0
 40
1.0
 40
2.0
 40
2.0
 40
2.0
 40
3.0
 40
3.0
 40
3.0
 40
4.0
 40
4.0
 40
4.0
 40
4.0
 10
106.0703558762602
 20
-143.3404323643385
 10
106.0703558762602
 20
-143.5588514181034
 10
106.3538872346963
 20
-143.5995035448293
 10
106.6987412927698
 20
-143.5995035448293
 10
107.0181016442524
 20
-143.5995035448293
 10
107.3267821997308
 20
-143.5681531759135
 10
107.3267821997308
 20
-143.3404323643385
 10
107.3267821997308
 20
-143.1237358583163
 10
107.0456624081344
 20
-143.0810166742992
 10
106.6987412927698
 20
-143.0810166742992
 10
106.3790364317386
 20
-143.0810166742992
 10
106.0703558762602
 20
-143.1144341005061
 10
106.0703558762602
 20
-143.3404323643385
 97
        0
 97
        0
 75
     2
 76
     1
 98
        0
  0
ENDBLK
  5
86
330
83
100
AcDbEntity
  8
0
100
AcDbBlockEnd
  0
ENDSEC
  0
SECTION
  2
ENTITIES
  0
INSERT
  5
42
330
1F
100
AcDbEntity
  8
_U+30EC_U+30A4_U+30E4_U+30FC 1
100
AcDbBlockReference
  2
block 2
 10
0.0
 20
0.0
 30
0.0
  0
ENDSEC
  0
SECTION
  2
OBJECTS
  0
DICTIONARY
  5
C
330
0
100
AcDbDictionary
281
     1
  3
ACAD_GROUP
350
D
  3
ACAD_LAYOUT
350
1A
  3
ACAD_MATERIAL
350
3B
  3
ACAD_MLEADERSTYLE
350
A0
  3
ACAD_MLINESTYLE
350
17
  3
ACAD_PLOTSETTINGS
350
19
  3
ACAD_PLOTSTYLENAME
350
E
  3
ACAD_TABLESTYLE
350
9F
  3
ACAD_VISUALSTYLE
350
2A
  0
SUN
  5
3F
330
29
100
AcDbSun
 90
        1
290
     0
 63
     7
421
 16777215
 40
1.0
291
     1
 91
  2455826
 92
 54000000
292
     0
 70
     2
 71
   256
280
     1
  0
DICTIONARY
  5
D
102
{ACAD_REACTORS
330
C
102
}
330
C
100
AcDbDictionary
281
     1
  0
DICTIONARY
  5
1A
102
{ACAD_REACTORS
330
C
102
}
330
C
100
AcDbDictionary
281
     1
  3
Layout1
350
1E
  3
Layout2
350
26
  3
Model
350
22
  0
DICTIONARY
  5
3B
102
{ACAD_REACTORS
330
C
102
}
330
C
100
AcDbDictionary
281
     1
  3
ByBlock
350
3D
  3
ByLayer
350
3C
  3
Global
350
3E
  0
DICTIONARY
  5
A0
102
{ACAD_REACTORS
330
C
102
}
330
C
100
AcDbDictionary
281
     1
  0
DICTIONARY
  5
17
102
{ACAD_REACTORS
330
C
102
}
330
C
100
AcDbDictionary
281
     1
  3
Standard
350
18
  0
DICTIONARY
  5
19
102
{ACAD_REACTORS
330
C
102
}
330
C
100
AcDbDictionary
281
     1
  0
ACDBDICTIONARYWDFLT
  5
E
102
{ACAD_REACTORS
330
C
102
}
330
C
100
AcDbDictionary
281
     1
  3
Normal
350
F
100
AcDbDictionaryWithDefault
340
F
  0
DICTIONARY
  5
9F
102
{ACAD_REACTORS
330
C
102
}
330
C
100
AcDbDictionary
281
     1
  0
DICTIONARY
  5
2A
102
{ACAD_REACTORS
330
C
102
}
330
C
100
AcDbDictionary
281
     1
  3
2dWireframe
350
2F
  3
3D Hidden
350
31
  3
3dWireframe
350
30
  3
Basic
350
32
  3
Brighten
350
36
  3
ColorChange
350
3A
  3
Conceptual
350
34
  3
Dim
350
35
  3
Facepattern
350
39
  3
Flat
350
2B
  3
FlatWithEdges
350
2C
  3
Gouraud
350
2D
  3
GouraudWithEdges
350
2E
  3
Linepattern
350
38
  3
Realistic
350
33
  3
Thicken
350
37
  0
LAYOUT
  5
1E
102
{ACAD_REACTORS
330
1A
102
}
330
1A
100
AcDbPlotSettings
  1

  2
none_device
  4

  6

 40
0.0
 41
0.0
 42
0.0
 43
0.0
 44
0.0
 45
0.0
 46
0.0
 47
0.0
 48
0.0
 49
0.0
140
0.0
141
0.0
142
1.0
143
1.0
 70
   688
 72
     0
 73
     0
 74
     5
  7

 75
    16
 76
     0
 77
     2
 78
   300
147
1.0
148
0.0
149
0.0
100
AcDbLayout
  1
Layout1
 70
     1
 71
     1
 10
0.0
 20
0.0
 11
12.0
 21
9.0
 12
0.0
 22
0.0
 32
0.0
 14
1.000000000000000E+20
 24
1.000000000000000E+20
 34
1.000000000000000E+20
 15
-1.000000000000000E+20
 25
-1.000000000000000E+20
 35
-1.000000000000000E+20
146
0.0
 13
0.0
 23
0.0
 33
0.0
 16
1.0
 26
0.0
 36
0.0
 17
0.0
 27
1.0
 37
0.0
 76
     0
330
1B
  0
LAYOUT
  5
26
102
{ACAD_REACTORS
330
1A
102
}
330
1A
100
AcDbPlotSettings
  1

  2
none_device
  4

  6

 40
0.0
 41
0.0
 42
0.0
 43
0.0
 44
0.0
 45
0.0
 46
0.0
 47
0.0
 48
0.0
 49
0.0
140
0.0
141
0.0
142
1.0
143
1.0
 70
   688
 72
     0
 73
     0
 74
     5
  7

 75
    16
 76
     0
 77
     2
 78
   300
147
1.0
148
0.0
149
0.0
100
AcDbLayout
  1
Layout2
 70
     1
 71
     2
 10
0.0
 20
0.0
 11
0.0
 21
0.0
 12
0.0
 22
0.0
 32
0.0
 14
0.0
 24
0.0
 34
0.0
 15
0.0
 25
0.0
 35
0.0
146
0.0
 13
0.0
 23
0.0
 33
0.0
 16
1.0
 26
0.0
 36
0.0
 17
0.0
 27
1.0
 37
0.0
 76
     0
330
23
  0
LAYOUT
  5
22
102
{ACAD_REACTORS
330
1A
102
}
330
1A
100
AcDbPlotSettings
  1

  2
none_device
  4

  6

 40
0.0
 41
0.0
 42
0.0
 43
0.0
 44
0.0
 45
0.0
 46
0.0
 47
0.0
 48
0.0
 49
0.0
140
0.0
141
0.0
142
1.0
143
1.0
 70
  1712
 72
     0
 73
     0
 74
     0
  7

 75
     0
 76
     0
 77
     2
 78
   300
147
1.0
148
0.0
149
0.0
100
AcDbLayout
  1
Model
 70
     1
 71
     0
 10
0.0
 20
0.0
 11
12.0
 21
9.0
 12
0.0
 22
0.0
 32
0.0
 14
1.000000000000000E+20
 24
1.000000000000000E+20
 34
1.000000000000000E+20
 15
-1.000000000000000E+20
 25
-1.000000000000000E+20
 35
-1.000000000000000E+20
146
0.0
 13
0.0
 23
0.0
 33
0.0
 16
1.0
 26
0.0
 36
0.0
 17
0.0
 27
1.0
 37
0.0
 76
     0
330
1F
331
29
  0
MATERIAL
  5
3D
102
{ACAD_REACTORS
330
3B
102
}
330
3B
100
AcDbMaterial
  1
ByBlock
 72
     1
 94
      127
  0
MATERIAL
  5
3C
102
{ACAD_REACTORS
330
3B
102
}
330
3B
100
AcDbMaterial
  1
ByLayer
 72
     1
 94
      127
  0
MATERIAL
  5
3E
102
{ACAD_REACTORS
330
3B
102
}
330
3B
100
AcDbMaterial
  1
Global
 72
     1
 94
      127
  0
MLINESTYLE
  5
18
102
{ACAD_REACTORS
330
17
102
}
330
17
100
AcDbMlineStyle
  2
Standard
 70
     0
  3

 62
   256
 51
90.0
 52
90.0
 71
     2
 49
0.5
 62
   256
  6
BYLAYER
 49
-0.5
 62
   256
  6
BYLAYER
  0
ACDBPLACEHOLDER
  5
F
102
{ACAD_REACTORS
330
E
102
}
330
E
  0
VISUALSTYLE
  5
2F
102
{ACAD_REACTORS
330
2A
102
}
330
2A
100
AcDbVisualStyle
  2
2dWireframe
 70
     4
177
     2
291
     0
 71
     0
176
     1
 72
     2
176
     1
 73
     0
176
     1
 90
        0
176
     1
 40
-0.6
176
     1
 41
-30.0
176
     1
 62
     5
 63
     7
421
 16777215
176
     1
 74
     1
176
     1
 91
        4
176
     1
 64
     7
176
     1
 65
   257
176
     1
 75
     1
176
     1
175
     1
176
     1
 42
1.0
176
     1
 92
        0
176
     1
 66
   257
176
     1
 43
1.0
176
     1
 76
     1
176
     1
 77
     6
176
     1
 78
     2
176
     1
 67
     7
176
     1
 79
     5
176
     1
170
     0
176
     1
171
     0
176
     1
290
     0
176
     1
 93
        1
176
     1
 44
0.0
176
     1
173
     0
176
     1
  0
VISUALSTYLE
  5
31
102
{ACAD_REACTORS
330
2A
102
}
330
2A
100
AcDbVisualStyle
  2
3D Hidden
 70
     6
177
     2
291
     0
 71
     1
176
     1
 72
     2
176
     1
 73
     2
176
     1
 90
        0
176
     1
 40
-0.6
176
     1
 41
-30.0
176
     1
 62
     5
 63
     7
421
 16777215
176
     1
 74
     2
176
     1
 91
        2
176
     1
 64
     7
176
     1
 65
   257
176
     1
 75
     2
176
     1
175
     1
176
     1
 42
40.0
176
     1
 92
        0
176
     1
 66
   257
176
     1
 43
1.0
176
     1
 76
     1
176
     1
 77
     6
176
     1
 78
     2
176
     1
 67
     7
176
     1
 79
     3
176
     1
170
     0
176
     1
171
     0
176
     1
290
     0
176
     1
 93
        1
176
     1
 44
0.0
176
     1
173
     0
176
     1
  0
VISUALSTYLE
  5
30
102
{ACAD_REACTORS
330
2A
102
}
330
2A
100
AcDbVisualStyle
  2
3dWireframe
 70
     5
177
     2
291
     0
 71
     0
176
     1
 72
     2
176
     1
 73
     0
176
     1
 90
        0
176
     1
 40
-0.6
176
     1
 41
-30.0
176
     1
 62
     5
 63
     7
421
 16777215
176
     1
 74
     1
176
     1
 91
        4
176
     1
 64
     7
176
     1
 65
   257
176
     1
 75
     1
176
     1
175
     1
176
     1
 42
1.0
176
     1
 92
        0
176
     1
 66
   257
176
     1
 43
1.0
176
     1
 76
     1
176
     1
 77
     6
176
     1
 78
     2
176
     1
 67
     7
176
     1
 79
     5
176
     1
170
     0
176
     1
171
     0
176
     1
290
     0
176
     1
 93
        1
176
     1
 44
0.0
176
     1
173
     0
176
     1
  0
VISUALSTYLE
  5
32
102
{ACAD_REACTORS
330
2A
102
}
330
2A
100
AcDbVisualStyle
  2
Basic
 70
     7
177
     2
291
     1
 71
     1
176
     1
 72
     0
176
     1
 73
     1
176
     1
 90
        0
176
     1
 40
-0.6
176
     1
 41
-30.0
176
     1
 62
     5
 63
     7
421
 16777215
176
     1
 74
     0
176
     1
 91
        4
176
     1
 64
     7
176
     1
 65
   257
176
     1
 75
     1
176
     1
175
     1
176
     1
 42
1.0
176
     1
 92
        8
176
     1
 66
     7
176
     1
 43
1.0
176
     1
 76
     1
176
     1
 77
     6
176
     1
 78
     2
176
     1
 67
     7
176
     1
 79
     5
176
     1
170
     0
176
     1
171
     0
176
     1
290
     0
176
     1
 93
        1
176
     1
 44
0.0
176
     1
173
     0
176
     1
  0
VISUALSTYLE
  5
36
102
{ACAD_REACTORS
330
2A
102
}
330
2A
100
AcDbVisualStyle
  2
Brighten
 70
    12
177
     2
291
     1
 71
     2
176
     1
 72
     2
176
     1
 73
     0
176
     1
 90
        0
176
     1
 40
-0.6
176
     1
 41
-30.0
176
     1
 62
     5
 63
     7
421
 16777215
176
     1
 74
     1
176
     1
 91
        4
176
     1
 64
     7
176
     1
 65
   257
176
     1
 75
     1
176
     1
175
     1
176
     1
 42
1.0
176
     1
 92
        8
176
     1
 66
     7
176
     1
 43
1.0
176
     1
 76
     1
176
     1
 77
     6
176
     1
 78
     2
176
     1
 67
     7
176
     1
 79
     5
176
     1
170
     0
176
     1
171
     0
176
     1
290
     0
176
     1
 93
        1
176
     1
 44
50.0
176
     1
173
     0
176
     1
  0
VISUALSTYLE
  5
3A
102
{ACAD_REACTORS
330
2A
102
}
330
2A
100
AcDbVisualStyle
  2
ColorChange
 70
    16
177
     2
291
     1
 71
     2
176
     1
 72
     2
176
     1
 73
     3
176
     1
 90
        0
176
     1
 40
-0.6
176
     1
 41
-30.0
176
     1
 62
     5
 63
     8
421
  8421504
176
     1
 74
     1
176
     1
 91
        4
176
     1
 64
     7
176
     1
 65
   257
176
     1
 75
     1
176
     1
175
     1
176
     1
 42
1.0
176
     1
 92
        8
176
     1
 66
     8
424
  8421504
176
     1
 43
1.0
176
     1
 76
     1
176
     1
 77
     6
176
     1
 78
     2
176
     1
 67
     7
176
     1
 79
     5
176
     1
170
     0
176
     1
171
     0
176
     1
290
     0
176
     1
 93
        1
176
     1
 44
0.0
176
     1
173
     0
176
     1
  0
VISUALSTYLE
  5
34
102
{ACAD_REACTORS
330
2A
102
}
330
2A
100
AcDbVisualStyle
  2
Conceptual
 70
     9
177
     2
291
     0
 71
     3
176
     1
 72
     2
176
     1
 73
     0
176
     1
 90
        0
176
     1
 40
-0.6
176
     1
 41
-30.0
176
     1
 62
     5
 63
     7
421
 16777215
176
     1
 74
     2
176
     1
 91
        2
176
     1
 64
     7
176
     1
 65
   257
176
     1
 75
     1
176
     1
175
     1
176
     1
 42
40.0
176
     1
 92
        8
176
     1
 66
     7
176
     1
 43
1.0
176
     1
 76
     1
176
     1
 77
     6
176
     1
 78
     2
176
     1
 67
     7
176
     1
 79
     3
176
     1
170
     0
176
     1
171
     0
176
     1
290
     0
176
     1
 93
        1
176
     1
 44
0.0
176
     1
173
     0
176
     1
  0
VISUALSTYLE
  5
35
102
{ACAD_REACTORS
330
2A
102
}
330
2A
100
AcDbVisualStyle
  2
Dim
 70
    11
177
     2
291
     1
 71
     2
176
     1
 72
     2
176
     1
 73
     0
176
     1
 90
        0
176
     1
 40
-0.6
176
     1
 41
-30.0
176
     1
 62
     5
 63
     7
421
 16777215
176
     1
 74
     1
176
     1
 91
        4
176
     1
 64
     7
176
     1
 65
   257
176
     1
 75
     1
176
     1
175
     1
176
     1
 42
1.0
176
     1
 92
        8
176
     1
 66
     7
176
     1
 43
1.0
176
     1
 76
     1
176
     1
 77
     6
176
     1
 78
     2
176
     1
 67
     7
176
     1
 79
     5
176
     1
170
     0
176
     1
171
     0
176
     1
290
     0
176
     1
 93
        1
176
     1
 44
-50.0
176
     1
173
     0
176
     1
  0
VISUALSTYLE
  5
39
102
{ACAD_REACTORS
330
2A
102
}
330
2A
100
AcDbVisualStyle
  2
Facepattern
 70
    15
177
     2
291
     1
 71
     2
176
     1
 72
     2
176
     1
 73
     0
176
     1
 90
        0
176
     1
 40
-0.6
176
     1
 41
-30.0
176
     1
 62
     5
 63
     7
421
 16777215
176
     1
 74
     1
176
     1
 91
        4
176
     1
 64
     7
176
     1
 65
   257
176
     1
 75
     1
176
     1
175
     1
176
     1
 42
1.0
176
     1
 92
        8
176
     1
 66
     7
176
     1
 43
1.0
176
     1
 76
     1
176
     1
 77
     6
176
     1
 78
     2
176
     1
 67
     7
176
     1
 79
     5
176
     1
170
     0
176
     1
171
     0
176
     1
290
     0
176
     1
 93
        1
176
     1
 44
0.0
176
     1
173
     0
176
     1
  0
VISUALSTYLE
  5
2B
102
{ACAD_REACTORS
330
2A
102
}
330
2A
100
AcDbVisualStyle
  2
Flat
 70
     0
177
     2
291
     1
 71
     2
176
     1
 72
     1
176
     1
 73
     1
176
     1
 90
        2
176
     1
 40
-0.6
176
     1
 41
30.0
176
     1
 62
     5
 63
     7
421
 16777215
176
     1
 74
     0
176
     1
 91
        4
176
     1
 64
     7
176
     1
 65
   257
176
     1
 75
     1
176
     1
175
     1
176
     1
 42
1.0
176
     1
 92
        8
176
     1
 66
     7
176
     1
 43
1.0
176
     1
 76
     1
176
     1
 77
     6
176
     1
 78
     2
176
     1
 67
     7
176
     1
 79
     5
176
     1
170
     0
176
     1
171
     0
176
     1
290
     0
176
     1
 93
       13
176
     1
 44
0.0
176
     1
173
     0
176
     1
  0
VISUALSTYLE
  5
2C
102
{ACAD_REACTORS
330
2A
102
}
330
2A
100
AcDbVisualStyle
  2
FlatWithEdges
 70
     1
177
     2
291
     1
 71
     2
176
     1
 72
     1
176
     1
 73
     1
176
     1
 90
        2
176
     1
 40
-0.6
176
     1
 41
30.0
176
     1
 62
     5
 63
     7
421
 16777215
176
     1
 74
     1
176
     1
 91
        4
176
     1
 64
     7
176
     1
 65
   257
176
     1
 75
     1
176
     1
175
     1
176
     1
 42
1.0
176
     1
 92
        0
176
     1
 66
   257
176
     1
 43
1.0
176
     1
 76
     1
176
     1
 77
     6
176
     1
 78
     2
176
     1
 67
     7
176
     1
 79
     5
176
     1
170
     0
176
     1
171
     0
176
     1
290
     0
176
     1
 93
       13
176
     1
 44
0.0
176
     1
173
     0
176
     1
  0
VISUALSTYLE
  5
2D
102
{ACAD_REACTORS
330
2A
102
}
330
2A
100
AcDbVisualStyle
  2
Gouraud
 70
     2
177
     2
291
     1
 71
     2
176
     1
 72
     2
176
     1
 73
     1
176
     1
 90
        2
176
     1
 40
-0.6
176
     1
 41
30.0
176
     1
 62
     5
 63
     7
421
 16777215
176
     1
 74
     0
176
     1
 91
        4
176
     1
 64
     7
176
     1
 65
   257
176
     1
 75
     1
176
     1
175
     1
176
     1
 42
1.0
176
     1
 92
        0
176
     1
 66
     7
176
     1
 43
1.0
176
     1
 76
     1
176
     1
 77
     6
176
     1
 78
     2
176
     1
 67
     7
176
     1
 79
     5
176
     1
170
     0
176
     1
171
     0
176
     1
290
     0
176
     1
 93
       13
176
     1
 44
0.0
176
     1
173
     0
176
     1
  0
VISUALSTYLE
  5
2E
102
{ACAD_REACTORS
330
2A
102
}
330
2A
100
AcDbVisualStyle
  2
GouraudWithEdges
 70
     3
177
     2
291
     1
 71
     2
176
     1
 72
     2
176
     1
 73
     1
176
     1
 90
        2
176
     1
 40
-0.6
176
     1
 41
30.0
176
     1
 62
     5
 63
     7
421
 16777215
176
     1
 74
     1
176
     1
 91
        4
176
     1
 64
     7
176
     1
 65
   257
176
     1
 75
     1
176
     1
175
     1
176
     1
 42
1.0
176
     1
 92
        0
176
     1
 66
   257
176
     1
 43
1.0
176
     1
 76
     1
176
     1
 77
     6
176
     1
 78
     2
176
     1
 67
     7
176
     1
 79
     5
176
     1
170
     0
176
     1
171
     0
176
     1
290
     0
176
     1
 93
       13
176
     1
 44
0.0
176
     1
173
     0
176
     1
  0
VISUALSTYLE
  5
38
102
{ACAD_REACTORS
330
2A
102
}
330
2A
100
AcDbVisualStyle
  2
Linepattern
 70
    14
177
     2
291
     1
 71
     2
176
     1
 72
     2
176
     1
 73
     0
176
     1
 90
        0
176
     1
 40
-0.6
176
     1
 41
-30.0
176
     1
 62
     5
 63
     7
421
 16777215
176
     1
 74
     1
176
     1
 91
        4
176
     1
 64
     7
176
     1
 65
   257
176
     1
 75
     7
176
     1
175
     7
176
     1
 42
1.0
176
     1
 92
        8
176
     1
 66
     7
176
     1
 43
1.0
176
     1
 76
     1
176
     1
 77
     6
176
     1
 78
     2
176
     1
 67
     7
176
     1
 79
     5
176
     1
170
     0
176
     1
171
     0
176
     1
290
     0
176
     1
 93
        1
176
     1
 44
0.0
176
     1
173
     0
176
     1
  0
VISUALSTYLE
  5
33
102
{ACAD_REACTORS
330
2A
102
}
330
2A
100
AcDbVisualStyle
  2
Realistic
 70
     8
177
     2
291
     0
 71
     2
176
     1
 72
     2
176
     1
 73
     0
176
     1
 90
        0
176
     1
 40
-0.6
176
     1
 41
-30.0
176
     1
 62
     5
 63
     7
421
 16777215
176
     1
 74
     1
176
     1
 91
        0
176
     1
 64
     7
176
     1
 65
   257
176
     1
 75
     1
176
     1
175
     1
176
     1
 42
1.0
176
     1
 92
        8
176
     1
 66
     8
424
  7895160
176
     1
 43
1.0
176
     1
 76
     1
176
     1
 77
     6
176
     1
 78
     2
176
     1
 67
     7
176
     1
 79
     5
176
     1
170
     0
176
     1
171
     0
176
     1
290
     0
176
     1
 93
       13
176
     1
 44
0.0
176
     1
173
     0
176
     1
  0
VISUALSTYLE
  5
37
102
{ACAD_REACTORS
330
2A
102
}
330
2A
100
AcDbVisualStyle
  2
Thicken
 70
    13
177
     2
291
     1
 71
     2
176
     1
 72
     2
176
     1
 73
     0
176
     1
 90
        0
176
     1
 40
-0.6
176
     1
 41
-30.0
176
     1
 62
     5
 63
     7
421
 16777215
176
     1
 74
     1
176
     1
 91
        4
176
     1
 64
     7
176
     1
 65
   257
176
     1
 75
     1
176
     1
175
     1
176
     1
 42
1.0
176
     1
 92
       12
176
     1
 66
     7
176
     1
 43
1.0
176
     1
 76
     1
176
     1
 77
     6
176
     1
 78
     2
176
     1
 67
     7
176
     1
 79
     5
176
     1
170
     0
176
     1
171
     0
176
     1
290
     0
176
     1
 93
        1
176
     1
 44
0.0
176
     1
173
     0
176
     1
  0
ENDSEC
  0
EOF
