  0
SECTION
  2
HEADER
  9
$ACADVER
  1
AC1024
  9
$ACADMAINTVER
 70
     6
  9
$DWGCODEPAGE
  3
UNDEFINED
  9
$INSBASE
 10
0.0
 20
0.0
 30
0.0
  9
$EXTMIN
 10
1.000000000000000E+20
 20
1.000000000000000E+20
 30
1.000000000000000E+20
  9
$EXTMAX
 10
-1.000000000000000E+20
 20
-1.000000000000000E+20
 30
-1.000000000000000E+20
  9
$LIMMIN
 10
0.0
 20
0.0
  9
$LIMMAX
 10
12.0
 20
9.0
  9
$ORTHOMODE
 70
     0
  9
$REGENMODE
 70
     1
  9
$FILLMODE
 70
     1
  9
$QTEXTMODE
 70
     0
  9
$MIRRTEXT
 70
     1
  9
$LTSCALE
 40
1.0
  9
$ATTMODE
 70
     1
  9
$TEXTSIZE
 40
0.2
  9
$TRACEWID
 40
0.05
  9
$TEXTSTYLE
  7
Standard
  9
$CLAYER
  8
0
  9
$CELTYPE
  6
ByLayer
  9
$CECOLOR
 62
   256
  9
$CELTSCALE
 40
1.0
  9
$DISPSILH
 70
     0
  9
$DIMSCALE
 40
1.0
  9
$DIMASZ
 40
0.18
  9
$DIMEXO
 40
0.0625
  9
$DIMDLI
 40
0.38
  9
$DIMRND
 40
0.0
  9
$DIMDLE
 40
0.0
  9
$DIMEXE
 40
0.18
  9
$DIMTP
 40
0.0
  9
$DIMTM
 40
0.0
  9
$DIMTXT
 40
0.18
  9
$DIMCEN
 40
0.09
  9
$DIMTSZ
 40
0.0
  9
$DIMTOL
 70
     0
  9
$DIMLIM
 70
     0
  9
$DIMTIH
 70
     1
  9
$DIMTOH
 70
     1
  9
$DIMSE1
 70
     0
  9
$DIMSE2
 70
     0
  9
$DIMTAD
 70
     0
  9
$DIMZIN
 70
     0
  9
$DIMBLK
  1

  9
$DIMASO
 70
     1
  9
$DIMSHO
 70
     1
  9
$DIMPOST
  1

  9
$DIMAPOST
  1

  9
$DIMALT
 70
     0
  9
$DIMALTD
 70
     2
  9
$DIMALTF
 40
25.4
  9
$DIMLFAC
 40
1.0
  9
$DIMTOFL
 70
     0
  9
$DIMTVP
 40
0.0
  9
$DIMTIX
 70
     0
  9
$DIMSOXD
 70
     0
  9
$DIMSAH
 70
     0
  9
$DIMBLK1
  1

  9
$DIMBLK2
  1

  9
$DIMSTYLE
  2
Standard
  9
$DIMCLRD
 70
     0
  9
$DIMCLRE
 70
     0
  9
$DIMCLRT
 70
     0
  9
$DIMTFAC
 40
1.0
  9
$DIMGAP
 40
0.09
  9
$DIMJUST
 70
     0
  9
$DIMSD1
 70
     0
  9
$DIMSD2
 70
     0
  9
$DIMTOLJ
 70
     1
  9
$DIMTZIN
 70
     0
  9
$DIMALTZ
 70
     0
  9
$DIMALTTZ
 70
     0
  9
$DIMUPT
 70
     0
  9
$DIMDEC
 70
     4
  9
$DIMTDEC
 70
     4
  9
$DIMALTU
 70
     2
  9
$DIMALTTD
 70
     2
  9
$DIMTXSTY
  7
Standard
  9
$DIMAUNIT
 70
     0
  9
$DIMADEC
 70
     0
  9
$DIMALTRND
 40
0.0
  9
$DIMAZIN
 70
     0
  9
$DIMDSEP
 70
    46
  9
$DIMATFIT
 70
     3
  9
$DIMFRAC
 70
     0
  9
$DIMLDRBLK
  1

  9
$DIMLUNIT
 70
     2
  9
$DIMLWD
 70
    -2
  9
$DIMLWE
 70
    -2
  9
$DIMTMOVE
 70
     0
  9
$DIMFXL
 40
1.0
  9
$DIMFXLON
 70
     0
  9
$DIMJOGANG
 40
0.7853981633974483
  9
$DIMTFILL
 70
     0
  9
$DIMTFILLCLR
 70
     0
  9
$DIMARCSYM
 70
     0
  9
$DIMLTYPE
  6

  9
$DIMLTEX1
  6

  9
$DIMLTEX2
  6

  9
$DIMTXTDIRECTION
 70
     0
  9
$LUNITS
 70
     2
  9
$LUPREC
 70
     4
  9
$SKETCHINC
 40
0.1
  9
$FILLETRAD
 40
0.5
  9
$AUNITS
 70
     0
  9
$AUPREC
 70
     0
  9
$MENU
  1
.
  9
$ELEVATION
 40
0.0
  9
$PELEVATION
 40
0.0
  9
$THICKNESS
 40
0.0
  9
$LIMCHECK
 70
     0
  9
$CHAMFERA
 40
0.5
  9
$CHAMFERB
 40
0.5
  9
$CHAMFERC
 40
1.0
  9
$CHAMFERD
 40
0.0
  9
$SKPOLY
 70
     0
  9
$TDCREATE
 40
2457917.584884259
  9
$TDUCREATE
 40
2457917.209884259
  9
$TDUPDATE
 40
2457917.584884259
  9
$TDUUPDATE
 40
2457917.209884259
  9
$TDINDWG
 40
0.0000000116
  9
$TDUSRTIMER
 40
0.0000000116
  9
$USRTIMER
 70
     1
  9
$ANGBASE
 50
0.0
  9
$ANGDIR
 70
     0
  9
$PDMODE
 70
     0
  9
$PDSIZE
 40
0.0
  9
$PLINEWID
 40
0.0
  9
$SPLFRAME
 70
     0
  9
$SPLINETYPE
 70
     6
  9
$SPLINESEGS
 70
     8
  9
$HANDSEED
  5
92
  9
$SURFTAB1
 70
     6
  9
$SURFTAB2
 70
     6
  9
$SURFTYPE
 70
     6
  9
$SURFU
 70
     6
  9
$SURFV
 70
     6
  9
$UCSBASE
  2

  9
$UCSNAME
  2

  9
$UCSORG
 10
0.0
 20
0.0
 30
0.0
  9
$UCSXDIR
 10
1.0
 20
0.0
 30
0.0
  9
$UCSYDIR
 10
0.0
 20
1.0
 30
0.0
  9
$UCSORTHOREF
  2

  9
$UCSORTHOVIEW
 70
     0
  9
$UCSORGTOP
 10
0.0
 20
0.0
 30
0.0
  9
$UCSORGBOTTOM
 10
0.0
 20
0.0
 30
0.0
  9
$UCSORGLEFT
 10
0.0
 20
0.0
 30
0.0
  9
$UCSORGRIGHT
 10
0.0
 20
0.0
 30
0.0
  9
$UCSORGFRONT
 10
0.0
 20
0.0
 30
0.0
  9
$UCSORGBACK
 10
0.0
 20
0.0
 30
0.0
  9
$PUCSBASE
  2

  9
$PUCSNAME
  2

  9
$PUCSORG
 10
0.0
 20
0.0
 30
0.0
  9
$PUCSXDIR
 10
1.0
 20
0.0
 30
0.0
  9
$PUCSYDIR
 10
0.0
 20
1.0
 30
0.0
  9
$PUCSORTHOREF
  2

  9
$PUCSORTHOVIEW
 70
     0
  9
$PUCSORGTOP
 10
0.0
 20
0.0
 30
0.0
  9
$PUCSORGBOTTOM
 10
0.0
 20
0.0
 30
0.0
  9
$PUCSORGLEFT
 10
0.0
 20
0.0
 30
0.0
  9
$PUCSORGRIGHT
 10
0.0
 20
0.0
 30
0.0
  9
$PUCSORGFRONT
 10
0.0
 20
0.0
 30
0.0
  9
$PUCSORGBACK
 10
0.0
 20
0.0
 30
0.0
  9
$USERI1
 70
     0
  9
$USERI2
 70
     0
  9
$USERI3
 70
     0
  9
$USERI4
 70
     0
  9
$USERI5
 70
     0
  9
$USERR1
 40
0.0
  9
$USERR2
 40
0.0
  9
$USERR3
 40
0.0
  9
$USERR4
 40
0.0
  9
$USERR5
 40
0.0
  9
$WORLDVIEW
 70
     1
  9
$SHADEDGE
 70
     3
  9
$SHADEDIF
 70
    70
  9
$TILEMODE
 70
     1
  9
$MAXACTVP
 70
    64
  9
$PINSBASE
 10
0.0
 20
0.0
 30
0.0
  9
$PLIMCHECK
 70
     0
  9
$PEXTMIN
 10
1.000000000000000E+20
 20
1.000000000000000E+20
 30
1.000000000000000E+20
  9
$PEXTMAX
 10
-1.000000000000000E+20
 20
-1.000000000000000E+20
 30
-1.000000000000000E+20
  9
$PLIMMIN
 10
0.0
 20
0.0
  9
$PLIMMAX
 10
12.0
 20
9.0
  9
$UNITMODE
 70
     0
  9
$VISRETAIN
 70
     1
  9
$PLINEGEN
 70
     0
  9
$PSLTSCALE
 70
     1
  9
$TREEDEPTH
 70
  3020
  9
$CMLSTYLE
  2
Standard
  9
$CMLJUST
 70
     0
  9
$CMLSCALE
 40
1.0
  9
$PROXYGRAPHICS
 70
     1
  9
$MEASUREMENT
 70
     0
  9
$CELWEIGHT
370
    -1
  9
$ENDCAPS
280
     0
  9
$JOINSTYLE
280
     0
  9
$LWDISPLAY
290
     1
  9
$INSUNITS
 70
     1
  9
$HYPERLINKBASE
  1

  9
$STYLESHEET
  1

  9
$XEDIT
290
     1
  9
$CEPSNTYPE
380
     0
  9
$PSTYLEMODE
290
     1
  9
$FINGERPRINTGUID
  2
{E8951598-D685-04A8-FA64-12A43EA26B8D}
  9
$VERSIONGUID
  2
{FAEB1C32-E019-11D5-929B-00C0DF256EC4}
  9
$EXTNAMES
290
     1
  9
$PSVPSCALE
 40
0.0
  9
$OLESTARTUP
290
     0
  9
$SORTENTS
280
   127
  9
$INDEXCTL
280
     0
  9
$HIDETEXT
280
     1
  9
$XCLIPFRAME
280
     2
  9
$HALOGAP
280
     0
  9
$OBSCOLOR
 70
   257
  9
$OBSLTYPE
280
     0
  9
$INTERSECTIONDISPLAY
280
     0
  9
$INTERSECTIONCOLOR
 70
   257
  9
$DIMASSOC
280
     2
  9
$PROJECTNAME
  1

  9
$CAMERADISPLAY
290
     0
  9
$LENSLENGTH
 40
50.0
  9
$CAMERAHEIGHT
 40
0.0
  9
$STEPSPERSEC
 40
2.0
  9
$STEPSIZE
 40
6.0
  9
$3DDWFPREC
 40
2.0
  9
$PSOLWIDTH
 40
0.25
  9
$PSOLHEIGHT
 40
4.0
  9
$LOFTANG1
 40
1.570796326794897
  9
$LOFTANG2
 40
1.570796326794897
  9
$LOFTMAG1
 40
0.0
  9
$LOFTMAG2
 40
0.0
  9
$LOFTPARAM
 70
     7
  9
$LOFTNORMALS
280
     1
  9
$LATITUDE
 40
37.795
  9
$LONGITUDE
 40
-122.394
  9
$NORTHDIRECTION
 40
0.0
  9
$TIMEZONE
 70
 -8000
  9
$LIGHTGLYPHDISPLAY
280
     1
  9
$TILEMODELIGHTSYNCH
280
     1
  9
$CMATERIAL
347
3C
  9
$SOLIDHIST
280
     1
  9
$SHOWHIST
280
     1
  9
$DWFFRAME
280
     2
  9
$DGNFRAME
280
     2
  9
$REALWORLDSCALE
290
     1
  9
$INTERFERECOLOR
 62
   256
  9
$CSHADOW
280
     0
  9
$SHADOWPLANELOCATION
 40
0.0
  0
ENDSEC
  0
SECTION
  2
CLASSES
  0
CLASS
  1
ACDBDICTIONARYWDFLT
  2
AcDbDictionaryWithDefault
  3
ObjectDBX Classes
 90
        0
 91
        4
280
     0
281
     0
  0
CLASS
  1
VISUALSTYLE
  2
AcDbVisualStyle
  3
ObjectDBX Classes
 90
     4095
 91
        4
280
     0
281
     0
  0
CLASS
  1
MATERIAL
  2
AcDbMaterial
  3
ObjectDBX Classes
 90
     1153
 91
        4
280
     0
281
     0
  0
CLASS
  1
SUN
  2
AcDbSun
  3
SCENEOE
 90
     1024
 91
        4
280
     0
281
     0
  0
ENDSEC
  0
SECTION
  2
TABLES
  0
TABLE
  2
VPORT
  5
8
330
0
100
AcDbSymbolTable
 70
     1
  0
VPORT
  5
29
330
8
100
AcDbSymbolTableRecord
100
AcDbViewportTableRecord
  2
*Active
 70
     0
 10
0.0
 20
0.0
 11
1.0
 21
1.0
 12
0.0
 22
0.0
 13
0.0
 23
0.0
 14
0.5
 24
0.5
 15
0.5
 25
0.5
 16
0.0
 26
0.0
 36
1.0
 17
91.00082462281999
 27
-128.4993055234307
 37
0.0
 40
256.9986110468615
 41
0.7081814508812795
 42
50.0
 43
0.0
 44
0.0
 50
0.0
 51
0.0
 71
     0
 72
   100
 73
     1
 74
     3
 75
     0
 76
     0
 77
     0
 78
     0
281
     0
 65
     1
110
0.0
120
0.0
130
0.0
111
1.0
121
0.0
131
0.0
112
0.0
122
1.0
132
0.0
 79
     0
146
0.0
 60
     3
 61
     5
292
     1
282
     1
141
0.0
142
0.0
 63
   250
361
3F
  0
ENDTAB
  0
TABLE
  2
LTYPE
  5
5
330
0
100
AcDbSymbolTable
 70
     1
  0
LTYPE
  5
14
330
5
100
AcDbSymbolTableRecord
100
AcDbLinetypeTableRecord
  2
ByBlock
 70
     0
  3

 72
    65
 73
     0
 40
0.0
  0
LTYPE
  5
15
330
5
100
AcDbSymbolTableRecord
100
AcDbLinetypeTableRecord
  2
ByLayer
 70
     0
  3

 72
    65
 73
     0
 40
0.0
  0
LTYPE
  5
16
330
5
100
AcDbSymbolTableRecord
100
AcDbLinetypeTableRecord
  2
Continuous
 70
     0
  3
Solid line
 72
    65
 73
     0
 40
0.0
  0
ENDTAB
  0
TABLE
  2
LAYER
  5
2
330
0
100
AcDbSymbolTable
 70
     2
  0
LAYER
  5
10
330
2
100
AcDbSymbolTableRecord
100
AcDbLayerTableRecord
  2
0
 70
     0
 62
     7
  6
Continuous
370
    -3
390
F
347
3E
  0
LAYER
  5
40
330
2
100
AcDbSymbolTableRecord
100
AcDbLayerTableRecord
  2
_U+30EC_U+30A4_U+30E4_U+30FC 1
 70
     0
 62
     7
  6
Continuous
370
    -3
390
F
347
3E
  0
ENDTAB
  0
TABLE
  2
STYLE
  5
3
330
0
100
AcDbSymbolTable
 70
     1
  0
STYLE
  5
11
330
3
100
AcDbSymbolTableRecord
100
AcDbTextStyleTableRecord
  2
Standard
 70
     0
 40
0.0
 41
1.0
 50
0.0
 71
     0
 42
0.2
  3
txt
  4

  0
ENDTAB
  0
TABLE
  2
VIEW
  5
6
330
0
100
AcDbSymbolTable
 70
     0
  0
ENDTAB
  0
TABLE
  2
UCS
  5
7
330
0
100
AcDbSymbolTable
 70
     0
  0
ENDTAB
  0
TABLE
  2
APPID
  5
9
330
0
100
AcDbSymbolTable
 70
     1
  0
APPID
  5
12
330
9
100
AcDbSymbolTableRecord
100
AcDbRegAppTableRecord
  2
ACAD
 70
     0
  0
ENDTAB
  0
TABLE
  2
DIMSTYLE
  5
A
330
0
100
AcDbSymbolTable
 70
     1
100
AcDbDimStyleTable
  0
DIMSTYLE
105
27
330
A
100
AcDbSymbolTableRecord
100
AcDbDimStyleTableRecord
  2
Standard
 70
     0
178
     0
340
11
  0
ENDTAB
  0
TABLE
  2
BLOCK_RECORD
  5
1
330
0
100
AcDbSymbolTable
 70
     6
  0
BLOCK_RECORD
  5
1F
330
1
100
AcDbSymbolTableRecord
100
AcDbBlockTableRecord
  2
*Model_Space
340
22
 70
     0
280
     1
281
     0
  0
BLOCK_RECORD
  5
1B
330
1
100
AcDbSymbolTableRecord
100
AcDbBlockTableRecord
  2
*Paper_Space
340
1E
 70
     0
280
     1
281
     0
  0
BLOCK_RECORD
  5
23
330
1
100
AcDbSymbolTableRecord
100
AcDbBlockTableRecord
  2
*Paper_Space0
340
26
 70
     0
280
     1
281
     0
  0
BLOCK_RECORD
  5
41
330
1
100
AcDbSymbolTableRecord
100
AcDbBlockTableRecord
  2
block 2
340
0
102
{BLKREFS
331
42
102
}
 70
     0
280
     1
281
     0
  0
BLOCK_RECORD
  5
51
330
1
100
AcDbSymbolTableRecord
100
AcDbBlockTableRecord
  2
block 3
340
0
102
{BLKREFS
331
52
102
}
 70
     0
280
     1
281
     0
  0
BLOCK_RECORD
  5
6A
330
1
100
AcDbSymbolTableRecord
100
AcDbBlockTableRecord
  2
block 4
340
0
102
{BLKREFS
331
6B
102
}
 70
     0
280
     1
281
     0
  0
BLOCK_RECORD
  5
72
330
1
100
AcDbSymbolTableRecord
100
AcDbBlockTableRecord
  2
block 5
340
0
102
{BLKREFS
331
73
102
}
 70
     0
280
     1
281
     0
  0
BLOCK_RECORD
  5
81
330
1
100
AcDbSymbolTableRecord
100
AcDbBlockTableRecord
  2
block 6
340
0
102
{BLKREFS
331
82
102
}
 70
     0
280
     1
281
     0
  0
ENDTAB
  0
ENDSEC
  0
SECTION
  2
BLOCKS
  0
BLOCK
  5
20
330
1F
100
AcDbEntity
  8
0
100
AcDbBlockBegin
  2
*Model_Space
 70
     0
 10
0.0
 20
0.0
 30
0.0
  3
*Model_Space
  1

  0
ENDBLK
  5
21
330
1F
100
AcDbEntity
  8
0
100
AcDbBlockEnd
  0
BLOCK
  5
1C
330
1B
100
AcDbEntity
 67
     1
  8
0
100
AcDbBlockBegin
  2
*Paper_Space
 70
     0
 10
0.0
 20
0.0
 30
0.0
  3
*Paper_Space
  1

  0
ENDBLK
  5
1D
330
1B
100
AcDbEntity
 67
     1
  8
0
100
AcDbBlockEnd
  0
BLOCK
  5
24
330
23
100
AcDbEntity
  8
0
100
AcDbBlockBegin
  2
*Paper_Space0
 70
     0
 10
0.0
 20
0.0
 30
0.0
  3
*Paper_Space0
  1

  0
ENDBLK
  5
25
330
23
100
AcDbEntity
  8
0
100
AcDbBlockEnd
  0
BLOCK
  5
43
330
41
100
AcDbEntity
  8
0
100
AcDbBlockBegin
  2
block 2
 70
     0
 10
0.0
 20
0.0
 30
0.0
  3
block 2
  1

  0
POLYLINE
  5
45
330
41
100
AcDbEntity
  8
_U+30EC_U+30A4_U+30E4_U+30FC 1
 62
   179
420
  2234388
370
     9
100
AcDb2dPolyline
 66
     1
 10
0.0
 20
0.0
 30
0.0
  0
VERTEX
  5
46
330
45
100
AcDbEntity
  8
_U+30EC_U+30A4_U+30E4_U+30FC 1
 62
   179
420
  2234388
370
     9
100
AcDbVertex
100
AcDb2dVertex
 10
71.80886733466984
 20
-132.711966077933
 30
0.0
  0
VERTEX
  5
47
330
45
100
AcDbEntity
  8
_U+30EC_U+30A4_U+30E4_U+30FC 1
 62
   179
420
  2234388
370
     9
100
AcDbVertex
100
AcDb2dVertex
 10
86.0247178053266
 20
-146.7765810744172
 30
0.0
  0
SEQEND
  5
48
330
45
100
AcDbEntity
  8
_U+30EC_U+30A4_U+30E4_U+30FC 1
 62
   179
420
  2234388
370
     9
  0
POLYLINE
  5
49
330
41
100
AcDbEntity
  8
_U+30EC_U+30A4_U+30E4_U+30FC 1
 62
   179
420
  2234388
370
     9
100
AcDb2dPolyline
 66
     1
 10
0.0
 20
0.0
 30
0.0
  0
VERTEX
  5
4A
330
49
100
AcDbEntity
  8
_U+30EC_U+30A4_U+30E4_U+30FC 1
 62
   179
420
  2234388
370
     9
100
AcDbVertex
100
AcDb2dVertex
 10
73.25342174226063
 20
-131.2512544116319
 30
0.0
  0
VERTEX
  5
4B
330
49
100
AcDbEntity
  8
_U+30EC_U+30A4_U+30E4_U+30FC 1
 62
   179
420
  2234388
370
     9
100
AcDbVertex
100
AcDb2dVertex
 10
71.10539318595029
 20
-133.4223546888664
 30
0.0
  0
SEQEND
  5
4C
330
49
100
AcDbEntity
  8
_U+30EC_U+30A4_U+30E4_U+30FC 1
 62
   179
420
  2234388
370
     9
  0
POLYLINE
  5
4D
330
41
100
AcDbEntity
  8
_U+30EC_U+30A4_U+30E4_U+30FC 1
 62
   179
420
  2234388
370
     9
100
AcDb2dPolyline
 66
     1
 10
0.0
 20
0.0
 30
0.0
  0
VERTEX
  5
4E
330
4D
100
AcDbEntity
  8
_U+30EC_U+30A4_U+30E4_U+30FC 1
 62
   179
420
  2234388
370
     9
100
AcDbVertex
100
AcDb2dVertex
 10
87.3262913832318
 20
-145.4478082969713
 30
0.0
  0
VERTEX
  5
4F
330
4D
100
AcDbEntity
  8
_U+30EC_U+30A4_U+30E4_U+30FC 1
 62
   179
420
  2234388
370
     9
100
AcDbVertex
100
AcDb2dVertex
 10
85.31503476787658
 20
-147.4804080186857
 30
0.0
  0
SEQEND
  5
50
330
4D
100
AcDbEntity
  8
_U+30EC_U+30A4_U+30E4_U+30FC 1
 62
   179
420
  2234388
370
     9
  0
INSERT
  5
52
330
41
100
AcDbEntity
  8
_U+30EC_U+30A4_U+30E4_U+30FC 1
100
AcDbBlockReference
  2
block 3
 10
0.0
 20
0.0
 30
0.0
  0
POLYLINE
  5
5A
330
41
100
AcDbEntity
  8
_U+30EC_U+30A4_U+30E4_U+30FC 1
 62
   179
420
  2234388
370
     9
100
AcDb2dPolyline
 66
     1
 10
0.0
 20
0.0
 30
0.0
  0
VERTEX
  5
5B
330
5A
100
AcDbEntity
  8
_U+30EC_U+30A4_U+30E4_U+30FC 1
 62
   179
420
  2234388
370
     9
100
AcDbVertex
100
AcDb2dVertex
 10
88.86934134386533
 20
-147.6468132964219
 30
0.0
  0
VERTEX
  5
5C
330
5A
100
AcDbEntity
  8
_U+30EC_U+30A4_U+30E4_U+30FC 1
 62
   179
420
  2234388
370
     9
100
AcDbVertex
100
AcDb2dVertex
 10
110.8683513381794
 20
-147.6468132964219
 30
0.0
  0
SEQEND
  5
5D
330
5A
100
AcDbEntity
  8
_U+30EC_U+30A4_U+30E4_U+30FC 1
 62
   179
420
  2234388
370
     9
  0
POLYLINE
  5
5E
330
41
100
AcDbEntity
  8
_U+30EC_U+30A4_U+30E4_U+30FC 1
 62
   179
420
  2234388
370
     9
100
AcDb2dPolyline
 66
     1
 10
0.0
 20
0.0
 30
0.0
  0
VERTEX
  5
5F
330
5E
100
AcDbEntity
  8
_U+30EC_U+30A4_U+30E4_U+30FC 1
 62
   179
420
  2234388
370
     9
100
AcDbVertex
100
AcDb2dVertex
 10
88.86934134386533
 20
-145.5928352413799
 30
0.0
  0
VERTEX
  5
60
330
5E
100
AcDbEntity
  8
_U+30EC_U+30A4_U+30E4_U+30FC 1
 62
   179
420
  2234388
370
     9
100
AcDbVertex
100
AcDb2dVertex
 10
88.86934134386533
 20
-148.6472557961718
 30
0.0
  0
SEQEND
  5
61
330
5E
100
AcDbEntity
  8
_U+30EC_U+30A4_U+30E4_U+30FC 1
 62
   179
420
  2234388
370
     9
  0
POLYLINE
  5
62
330
41
100
AcDbEntity
  8
_U+30EC_U+30A4_U+30E4_U+30FC 1
 62
   179
420
  2234388
370
     9
100
AcDb2dPolyline
 66
     1
 10
0.0
 20
0.0
 30
0.0
  0
VERTEX
  5
63
330
62
100
AcDbEntity
  8
_U+30EC_U+30A4_U+30E4_U+30FC 1
 62
   179
420
  2234388
370
     9
100
AcDbVertex
100
AcDb2dVertex
 10
110.767739118524
 20
-134.4992794108194
 30
0.0
  0
VERTEX
  5
64
330
62
100
AcDbEntity
  8
_U+30EC_U+30A4_U+30E4_U+30FC 1
 62
   179
420
  2234388
370
     9
100
AcDbVertex
100
AcDb2dVertex
 10
110.767739118524
 20
-148.6472557961718
 30
0.0
  0
SEQEND
  5
65
330
62
100
AcDbEntity
  8
_U+30EC_U+30A4_U+30E4_U+30FC 1
 62
   179
420
  2234388
370
     9
  0
POLYLINE
  5
66
330
41
100
AcDbEntity
  8
_U+30EC_U+30A4_U+30E4_U+30FC 1
 62
   179
420
  2234388
370
     9
100
AcDb2dPolyline
 66
     1
 10
0.0
 20
0.0
 30
0.0
  0
VERTEX
  5
67
330
66
100
AcDbEntity
  8
_U+30EC_U+30A4_U+30E4_U+30FC 1
 62
   179
420
  2234388
370
     9
100
AcDbVertex
100
AcDb2dVertex
 10
95.74850783502984
 20
-145.7874980191087
 30
0.0
  0
VERTEX
  5
68
330
66
100
AcDbEntity
  8
_U+30EC_U+30A4_U+30E4_U+30FC 1
 62
   179
420
  2234388
370
     9
100
AcDbVertex
100
AcDb2dVertex
 10
95.74850783502984
 20
-148.6472557961718
 30
0.0
  0
SEQEND
  5
69
330
66
100
AcDbEntity
  8
_U+30EC_U+30A4_U+30E4_U+30FC 1
 62
   179
420
  2234388
370
     9
  0
INSERT
  5
6B
330
41
100
AcDbEntity
  8
_U+30EC_U+30A4_U+30E4_U+30FC 1
100
AcDbBlockReference
  2
block 4
 10
0.0
 20
0.0
 30
0.0
  0
INSERT
  5
73
330
41
100
AcDbEntity
  8
_U+30EC_U+30A4_U+30E4_U+30FC 1
100
AcDbBlockReference
  2
block 5
 10
0.0
 20
0.0
 30
0.0
  0
SPLINE
  5
78
330
41
100
AcDbEntity
  8
_U+30EC_U+30A4_U+30E4_U+30FC 1
 62
   179
420
  2234388
370
     9
100
AcDbSpline
210
0.0
220
0.0
230
1.0
 70
    11
 71
     3
 72
    17
 73
    13
 74
     0
 42
0.0000000001
 43
0.0000000001
 12
1.0
 22
0.0
 32
0.0
 13
1.0
 23
0.0
 33
0.0
 40
0.0
 40
0.0
 40
0.0
 40
0.0
 40
1.0
 40
1.0
 40
1.0
 40
2.0
 40
2.0
 40
2.0
 40
3.0
 40
3.0
 40
3.0
 40
4.0
 40
4.0
 40
4.0
 40
4.0
 10
103.355948752059
 20
-130.7806488561938
 30
0.0
 10
103.355948752059
 20
-130.7248394117634
 30
0.0
 10
103.3111812532011
 20
-130.6803894117744
 30
0.0
 10
103.2553718101804
 20
-130.6803894117744
 30
0.0
 10
103.2002326449205
 20
-130.6803894117744
 30
0.0
 10
103.1547595905251
 20
-130.7248394117634
 30
0.0
 10
103.1547595905251
 20
-130.7806488561938
 30
0.0
 10
103.1547595905251
 20
-130.8357527450687
 30
0.0
 10
103.2002326449205
 20
-130.8805555228354
 30
0.0
 10
103.2553718101804
 20
-130.8805555228354
 30
0.0
 10
103.3111812532011
 20
-130.8805555228354
 30
0.0
 10
103.355948752059
 20
-130.8357527450687
 30
0.0
 10
103.355948752059
 20
-130.7806488561938
 30
0.0
  0
POLYLINE
  5
79
330
41
100
AcDbEntity
  8
_U+30EC_U+30A4_U+30E4_U+30FC 1
 62
   179
420
  2234388
370
     9
100
AcDb2dPolyline
 66
     1
 10
0.0
 20
0.0
 30
0.0
  0
VERTEX
  5
7A
330
79
100
AcDbEntity
  8
_U+30EC_U+30A4_U+30E4_U+30FC 1
 62
   179
420
  2234388
370
     9
100
AcDbVertex
100
AcDb2dVertex
 10
103.2553718101804
 20
-130.4850563562675
 30
0.0
  0
VERTEX
  5
7B
330
79
100
AcDbEntity
  8
_U+30EC_U+30A4_U+30E4_U+30FC 1
 62
   179
420
  2234388
370
     9
100
AcDbVertex
100
AcDb2dVertex
 10
103.2553718101804
 20
-143.4834005196846
 30
0.0
  0
SEQEND
  5
7C
330
79
100
AcDbEntity
  8
_U+30EC_U+30A4_U+30E4_U+30FC 1
 62
   179
420
  2234388
370
     9
  0
POLYLINE
  5
7D
330
41
100
AcDbEntity
  8
_U+30EC_U+30A4_U+30E4_U+30FC 1
 62
   179
420
  2234388
370
     9
100
AcDb2dPolyline
 66
     1
 10
0.0
 20
0.0
 30
0.0
  0
VERTEX
  5
7E
330
7D
100
AcDbEntity
  8
_U+30EC_U+30A4_U+30E4_U+30FC 1
 62
   179
420
  2234388
370
     9
100
AcDbVertex
100
AcDb2dVertex
 10
96.9163786385683
 20
-143.4834005196846
 30
0.0
  0
VERTEX
  5
7F
330
7D
100
AcDbEntity
  8
_U+30EC_U+30A4_U+30E4_U+30FC 1
 62
   179
420
  2234388
370
     9
100
AcDbVertex
100
AcDb2dVertex
 10
104.255814284657
 20
-143.4834005196846
 30
0.0
  0
SEQEND
  5
80
330
7D
100
AcDbEntity
  8
_U+30EC_U+30A4_U+30E4_U+30FC 1
 62
   179
420
  2234388
370
     9
  0
INSERT
  5
82
330
41
100
AcDbEntity
  8
_U+30EC_U+30A4_U+30E4_U+30FC 1
100
AcDbBlockReference
  2
block 6
 10
0.0
 20
0.0
 30
0.0
  0
SPLINE
  5
89
330
41
100
AcDbEntity
  8
_U+30EC_U+30A4_U+30E4_U+30FC 1
 62
     7
420
 16777215
370
    25
100
AcDbSpline
210
0.0
220
0.0
230
1.0
 70
    11
 71
     3
 72
    89
 73
    85
 74
     0
 42
0.0000000001
 43
0.0000000001
 12
1.0
 22
0.0
 32
0.0
 13
1.0
 23
0.0
 33
0.0
 40
0.0
 40
0.0
 40
0.0
 40
0.0
 40
1.0
 40
1.0
 40
1.0
 40
2.0
 40
2.0
 40
2.0
 40
3.0
 40
3.0
 40
3.0
 40
4.0
 40
4.0
 40
4.0
 40
5.0
 40
5.0
 40
5.0
 40
6.0
 40
6.0
 40
6.0
 40
7.0
 40
7.0
 40
7.0
 40
8.0
 40
8.0
 40
8.0
 40
9.0
 40
9.0
 40
9.0
 40
10.0
 40
10.0
 40
10.0
 40
11.0
 40
11.0
 40
11.0
 40
12.0
 40
12.0
 40
12.0
 40
13.0
 40
13.0
 40
13.0
 40
14.0
 40
14.0
 40
14.0
 40
15.0
 40
15.0
 40
15.0
 40
16.0
 40
16.0
 40
16.0
 40
17.0
 40
17.0
 40
17.0
 40
18.0
 40
18.0
 40
18.0
 40
19.0
 40
19.0
 40
19.0
 40
20.0
 40
20.0
 40
20.0
 40
21.0
 40
21.0
 40
21.0
 40
22.0
 40
22.0
 40
22.0
 40
23.0
 40
23.0
 40
23.0
 40
24.0
 40
24.0
 40
24.0
 40
25.0
 40
25.0
 40
25.0
 40
26.0
 40
26.0
 40
26.0
 40
27.0
 40
27.0
 40
27.0
 40
28.0
 40
28.0
 40
28.0
 40
28.0
 10
87.26494332924138
 20
-107.9109121952444
 30
0.0
 10
87.26494332924138
 20
-107.9109121952444
 30
0.0
 10
88.11693691861632
 20
-107.9109121952444
 30
0.0
 10
88.11693691861632
 20
-107.9109121952444
 30
0.0
 10
88.11693691861632
 20
-107.9109121952444
 30
0.0
 10
88.29332580300515
 20
-121.7856621917757
 30
0.0
 10
88.29332580300515
 20
-121.7856621917757
 30
0.0
 10
88.29332580300515
 20
-121.7856621917757
 30
0.0
 10
88.85212578874898
 20
-123.637745524646
 30
0.0
 10
87.02932305747477
 20
-123.7257988579573
 30
0.0
 10
87.02932305747477
 20
-123.7257988579573
 30
0.0
 10
76.18207694532218
 20
-123.8136405246023
 30
0.0
 10
76.18207694532218
 20
-123.8136405246023
 30
0.0
 10
76.18207694532218
 20
-123.8136405246023
 30
0.0
 10
75.38832696557243
 20
-123.6958127468537
 30
0.0
 10
75.3304714114929
 20
-124.431001635559
 30
0.0
 10
75.3304714114929
 20
-124.431001635559
 30
0.0
 10
75.47687418553564
 20
-128.9871266344197
 30
0.0
 10
75.47687418553564
 20
-128.9871266344197
 30
0.0
 10
75.47687418553564
 20
-128.9871266344197
 30
0.0
 10
75.38832696557243
 20
-129.2813433010131
 30
0.0
 10
75.7710908446962
 20
-129.6337683009249
 30
0.0
 10
75.7710908446962
 20
-129.6337683009249
 30
0.0
 10
88.52827579701108
 20
-142.4205869088394
 30
0.0
 10
88.52827579701108
 20
-142.4205869088394
 30
0.0
 10
88.52827579701108
 20
-142.4205869088394
 30
0.0
 10
88.96991828574384
 20
-142.9786813531444
 30
0.0
 10
89.85119242992734
 20
-143.0086674642477
 30
0.0
 10
89.85119242992734
 20
-143.0086674642477
 30
0.0
 10
94.02525899010469
 20
-142.8908396864998
 30
0.0
 10
94.02525899010469
 20
-142.8908396864998
 30
0.0
 10
94.02525899010469
 20
-142.8908396864998
 30
0.0
 10
94.99539785424327
 20
-143.0675813531217
 30
0.0
 10
95.0250311868206
 20
-142.3620257977425
 30
0.0
 10
95.0250311868206
 20
-142.3620257977425
 30
0.0
 10
94.87827563500909
 20
-131.1037933005572
 30
0.0
 10
94.87827563500909
 20
-131.1037933005572
 30
0.0
 10
94.87827563500909
 20
-131.1037933005572
 30
0.0
 10
94.81900896985444
 20
-129.8987044119698
 30
0.0
 10
95.90697560876477
 20
-129.8394377453181
 30
0.0
 10
95.90697560876477
 20
-129.8394377453181
 30
0.0
 10
110.6333660663966
 20
-129.6630488564733
 30
0.0
 10
110.6333660663966
 20
-129.6630488564733
 30
0.0
 10
110.6333660663966
 20
-129.6630488564733
 30
0.0
 10
110.6333660663966
 20
-130.5746266340228
 30
0.0
 10
110.6333660663966
 20
-130.5746266340228
 30
0.0
 10
110.6333660663966
 20
-130.5746266340228
 30
0.0
 10
96.46577559450859
 20
-130.7213821895421
 30
0.0
 10
96.46577559450859
 20
-130.7213821895421
 30
0.0
 10
96.46577559450859
 20
-130.7213821895421
 30
0.0
 10
95.72991644661525
 20
-130.5746266340228
 30
0.0
 10
95.72991644661525
 20
-131.397304411595
 30
0.0
 10
95.72991644661525
 20
-131.397304411595
 30
0.0
 10
95.87734227618743
 20
-142.2445507977723
 30
0.0
 10
95.87734227618743
 20
-142.2445507977723
 30
0.0
 10
95.87734227618743
 20
-142.2445507977723
 30
0.0
 10
96.17088865758734
 20
-143.6260285752045
 30
0.0
 10
94.73152008319758
 20
-143.7142230196269
 30
0.0
 10
94.73152008319758
 20
-143.7142230196269
 30
0.0
 10
89.5576813263043
 20
-143.8024174640493
 30
0.0
 10
89.5576813263043
 20
-143.8024174640493
 30
0.0
 10
89.5576813263043
 20
-143.8024174640493
 30
0.0
 10
88.67640718212083
 20
-143.8320507973755
 30
0.0
 10
88.29332580300515
 20
-143.3025313530634
 30
0.0
 10
88.29332580300515
 20
-143.3025313530634
 30
0.0
 10
75.0951686397182
 20
-130.398237745178
 30
0.0
 10
75.0951686397182
 20
-130.398237745178
 30
0.0
 10
75.0951686397182
 20
-130.398237745178
 30
0.0
 10
74.6541964287461
 20
-130.0747405230369
 30
0.0
 10
74.62456309616879
 20
-129.3695377454355
 30
0.0
 10
74.62456309616879
 20
-129.3695377454355
 30
0.0
 10
74.59492976359147
 20
-124.0196627467729
 30
0.0
 10
74.59492976359147
 20
-124.0196627467729
 30
0.0
 10
74.59492976359147
 20
-124.0196627467729
 30
0.0
 10
74.44817421177996
 20
-122.9318724692672
 30
0.0
 10
76.18207694532218
 20
-122.9318724692672
 30
0.0
 10
76.18207694532218
 20
-122.9318724692672
 30
0.0
 10
86.64726473388856
 20
-122.7847641359705
 30
0.0
 10
86.64726473388856
 20
-122.7847641359705
 30
0.0
 10
86.64726473388856
 20
-122.7847641359705
 30
0.0
 10
87.41138138106099
 20
-122.8729585803929
 30
0.0
 10
87.41138138106099
 20
-122.2850544138731
 30
0.0
 10
87.41138138106099
 20
-122.2850544138731
 30
0.0
 10
87.26494332924138
 20
-107.9109121952444
 30
0.0
 10
87.26494332924138
 20
-107.9109121952444
 30
0.0
  0
SPLINE
  5
8A
330
41
100
AcDbEntity
  8
_U+30EC_U+30A4_U+30E4_U+30FC 1
 62
   179
420
  2234388
370
     9
100
AcDbSpline
210
0.0
220
0.0
230
1.0
 70
    11
 71
     3
 72
    17
 73
    13
 74
     0
 42
0.0000000001
 43
0.0000000001
 12
1.0
 22
0.0
 32
0.0
 13
1.0
 23
0.0
 33
0.0
 40
0.0
 40
0.0
 40
0.0
 40
0.0
 40
1.0
 40
1.0
 40
1.0
 40
2.0
 40
2.0
 40
2.0
 40
3.0
 40
3.0
 40
3.0
 40
4.0
 40
4.0
 40
4.0
 40
4.0
 10
86.01508697223898
 20
-146.8681974632827
 30
0.0
 10
86.07639974845253
 20
-146.8681974632827
 30
0.0
 10
86.12600030274268
 20
-146.8182441299622
 30
0.0
 10
86.12600030274268
 20
-146.7569313521996
 30
0.0
 10
86.12600030274268
 20
-146.6956185744369
 30
0.0
 10
86.07639974845253
 20
-146.6456652411164
 30
0.0
 10
86.01508697223898
 20
-146.6456652411164
 30
0.0
 10
85.95409169601731
 20
-146.6456652411164
 30
0.0
 10
85.9041383639584
 20
-146.6956185744369
 30
0.0
 10
85.9041383639584
 20
-146.7569313521996
 30
0.0
 10
85.9041383639584
 20
-146.8182441299622
 30
0.0
 10
85.95409169601731
 20
-146.8681974632827
 30
0.0
 10
86.01508697223898
 20
-146.8681974632827
 30
0.0
  0
SPLINE
  5
8B
330
41
100
AcDbEntity
  8
_U+30EC_U+30A4_U+30E4_U+30FC 1
 62
   179
420
  2234388
370
     9
100
AcDbSpline
210
0.0
220
0.0
230
1.0
 70
    11
 71
     3
 72
    17
 73
    13
 74
     0
 42
0.0000000001
 43
0.0000000001
 12
1.0
 22
0.0
 32
0.0
 13
1.0
 23
0.0
 33
0.0
 40
0.0
 40
0.0
 40
0.0
 40
0.0
 40
1.0
 40
1.0
 40
1.0
 40
2.0
 40
2.0
 40
2.0
 40
3.0
 40
3.0
 40
3.0
 40
4.0
 40
4.0
 40
4.0
 40
4.0
 10
71.81370039010208
 20
-132.8566755223414
 30
0.0
 10
71.87469566632375
 20
-132.8566755223414
 30
0.0
 10
71.92464899838266
 20
-132.8067221890202
 30
0.0
 10
71.92464899838266
 20
-132.7450566334805
 30
0.0
 10
71.92464899838266
 20
-132.6840613557181
 30
0.0
 10
71.87469566632375
 20
-132.634108022397
 30
0.0
 10
71.81370039010208
 20
-132.634108022397
 30
0.0
 10
71.75238761388853
 20
-132.634108022397
 30
0.0
 10
71.70278887096333
 20
-132.6840613557181
 30
0.0
 10
71.70278887096333
 20
-132.7450566334805
 30
0.0
 10
71.70278887096333
 20
-132.8067221890202
 30
0.0
 10
71.75238761388853
 20
-132.8566755223414
 30
0.0
 10
71.81370039010208
 20
-132.8566755223414
 30
0.0
  0
SPLINE
  5
8C
330
41
100
AcDbEntity
  8
_U+30EC_U+30A4_U+30E4_U+30FC 1
 62
   179
420
  2234388
370
     9
100
AcDbSpline
210
0.0
220
0.0
230
1.0
 70
    11
 71
     3
 72
    17
 73
    13
 74
     0
 42
0.0000000001
 43
0.0000000001
 12
1.0
 22
0.0
 32
0.0
 13
1.0
 23
0.0
 33
0.0
 40
0.0
 40
0.0
 40
0.0
 40
0.0
 40
1.0
 40
1.0
 40
1.0
 40
2.0
 40
2.0
 40
2.0
 40
3.0
 40
3.0
 40
3.0
 40
4.0
 40
4.0
 40
4.0
 40
4.0
 10
110.7594841187346
 20
-147.7632299630594
 30
0.0
 10
110.8207968949481
 20
-147.7632299630594
 30
0.0
 10
110.8703974492383
 20
-147.7132766297383
 30
0.0
 10
110.8703974492383
 20
-147.6519638519756
 30
0.0
 10
110.8703974492383
 20
-147.5906510742137
 30
0.0
 10
110.8207968949481
 20
-147.5406977408925
 30
0.0
 10
110.7594841187346
 20
-147.5406977408925
 30
0.0
 10
110.6981388612147
 20
-147.5406977408925
 30
0.0
 10
110.6478652326933
 20
-147.5906510742137
 30
0.0
 10
110.6478652326933
 20
-147.6519638519756
 30
0.0
 10
110.6478652326933
 20
-147.7132766297383
 30
0.0
 10
110.6981388612147
 20
-147.7632299630594
 30
0.0
 10
110.7594841187346
 20
-147.7632299630594
 30
0.0
  0
SPLINE
  5
8D
330
41
100
AcDbEntity
  8
_U+30EC_U+30A4_U+30E4_U+30FC 1
 62
   179
420
  2234388
370
     9
100
AcDbSpline
210
0.0
220
0.0
230
1.0
 70
    11
 71
     3
 72
    17
 73
    13
 74
     0
 42
0.0000000001
 43
0.0000000001
 12
1.0
 22
0.0
 32
0.0
 13
1.0
 23
0.0
 33
0.0
 40
0.0
 40
0.0
 40
0.0
 40
0.0
 40
1.0
 40
1.0
 40
1.0
 40
2.0
 40
2.0
 40
2.0
 40
3.0
 40
3.0
 40
3.0
 40
4.0
 40
4.0
 40
4.0
 40
4.0
 10
88.86934134386533
 20
-147.7632299630594
 30
0.0
 10
88.93135967561643
 20
-147.7632299630594
 30
0.0
 10
88.98025467436902
 20
-147.7132766297383
 30
0.0
 10
88.98025467436902
 20
-147.6519638519756
 30
0.0
 10
88.98025467436902
 20
-147.5906510742137
 30
0.0
 10
88.93135967561643
 20
-147.5406977408925
 30
0.0
 10
88.86934134386533
 20
-147.5406977408925
 30
0.0
 10
88.80869884541245
 20
-147.5406977408925
 30
0.0
 10
88.75839273558475
 20
-147.5906510742137
 30
0.0
 10
88.75839273558475
 20
-147.6519638519756
 30
0.0
 10
88.75839273558475
 20
-147.7132766297383
 30
0.0
 10
88.80869884541245
 20
-147.7632299630594
 30
0.0
 10
88.86934134386533
 20
-147.7632299630594
 30
0.0
  0
SPLINE
  5
8E
330
41
100
AcDbEntity
  8
_U+30EC_U+30A4_U+30E4_U+30FC 1
 62
   179
420
  2234388
370
     9
100
AcDbSpline
210
0.0
220
0.0
230
1.0
 70
    11
 71
     3
 72
    17
 73
    13
 74
     0
 42
0.0000000001
 43
0.0000000001
 12
1.0
 22
0.0
 32
0.0
 13
1.0
 23
0.0
 33
0.0
 40
0.0
 40
0.0
 40
0.0
 40
0.0
 40
1.0
 40
1.0
 40
1.0
 40
2.0
 40
2.0
 40
2.0
 40
3.0
 40
3.0
 40
3.0
 40
4.0
 40
4.0
 40
4.0
 40
4.0
 10
95.76780477898197
 20
-147.7632299630594
 30
0.0
 10
95.82911755519554
 20
-147.7632299630594
 30
0.0
 10
95.87871810948567
 20
-147.7132766297383
 30
0.0
 10
95.87871810948567
 20
-147.6519638519756
 30
0.0
 10
95.87871810948567
 20
-147.5906510742137
 30
0.0
 10
95.82911755519554
 20
-147.5406977408925
 30
0.0
 10
95.76780477898197
 20
-147.5406977408925
 30
0.0
 10
95.70645672499154
 20
-147.5406977408925
 30
0.0
 10
95.6568561707014
 20
-147.5906510742137
 30
0.0
 10
95.6568561707014
 20
-147.6519638519756
 30
0.0
 10
95.6568561707014
 20
-147.7132766297383
 30
0.0
 10
95.70645672499154
 20
-147.7632299630594
 30
0.0
 10
95.76780477898197
 20
-147.7632299630594
 30
0.0
  0
SPLINE
  5
8F
330
41
100
AcDbEntity
  8
_U+30EC_U+30A4_U+30E4_U+30FC 1
 62
   179
420
  2234388
370
     9
100
AcDbSpline
210
0.0
220
0.0
230
1.0
 70
    11
 71
     3
 72
    17
 73
    13
 74
     0
 42
0.0000000001
 43
0.0000000001
 12
1.0
 22
0.0
 32
0.0
 13
1.0
 23
0.0
 33
0.0
 40
0.0
 40
0.0
 40
0.0
 40
0.0
 40
1.0
 40
1.0
 40
1.0
 40
2.0
 40
2.0
 40
2.0
 40
3.0
 40
3.0
 40
3.0
 40
4.0
 40
4.0
 40
4.0
 40
4.0
 10
103.2477870881517
 20
-143.5822841307711
 30
0.0
 10
103.3084295866046
 20
-143.5822841307711
 30
0.0
 10
103.3587356964323
 20
-143.5326835752277
 30
0.0
 10
103.3587356964323
 20
-143.471018019688
 30
0.0
 10
103.3587356964323
 20
-143.4096699641478
 30
0.0
 10
103.3084295866046
 20
-143.3597166308267
 30
0.0
 10
103.2477870881517
 20
-143.3597166308267
 30
0.0
 10
103.1857687564006
 20
-143.3597166308267
 30
0.0
 10
103.1361682021105
 20
-143.4096699641478
 30
0.0
 10
103.1361682021105
 20
-143.471018019688
 30
0.0
 10
103.1361682021105
 20
-143.5326835752277
 30
0.0
 10
103.1857687564006
 20
-143.5822841307711
 30
0.0
 10
103.2477870881517
 20
-143.5822841307711
 30
0.0
  0
ENDBLK
  5
44
330
41
100
AcDbEntity
  8
0
100
AcDbBlockEnd
  0
BLOCK
  5
53
330
51
100
AcDbEntity
  8
0
100
AcDbBlockBegin
  2
block 3
 70
     0
 10
0.0
 20
0.0
 30
0.0
  3
block 3
  1

  0
SPLINE
  5
55
330
51
100
AcDbEntity
  8
_U+30EC_U+30A4_U+30E4_U+30FC 1
370
     0
100
AcDbSpline
210
0.0
220
0.0
230
1.0
 70
    11
 71
     3
 72
    44
 73
    40
 74
     0
 42
0.0000000001
 43
0.0000000001
 12
1.0
 22
0.0
 32
0.0
 13
1.0
 23
0.0
 33
0.0
 40
0.0
 40
0.0
 40
0.0
 40
0.0
 40
1.0
 40
1.0
 40
1.0
 40
2.0
 40
2.0
 40
2.0
 40
3.0
 40
3.0
 40
3.0
 40
4.0
 40
4.0
 40
4.0
 40
5.0
 40
5.0
 40
5.0
 40
6.0
 40
6.0
 40
6.0
 40
7.0
 40
7.0
 40
7.0
 40
8.0
 40
8.0
 40
8.0
 40
9.0
 40
9.0
 40
9.0
 40
10.0
 40
10.0
 40
10.0
 40
11.0
 40
11.0
 40
11.0
 40
12.0
 40
12.0
 40
12.0
 40
13.0
 40
13.0
 40
13.0
 40
13.0
 10
79.40772838726613
 20
-138.4294487501149
 30
0.0
 10
79.16037053142519
 20
-138.4080891581063
 30
0.0
 10
79.05047198544572
 20
-138.403266024427
 30
0.0
 10
78.91886933790917
 20
-138.4756130296172
 30
0.0
 10
78.91886933790917
 20
-138.4756130296172
 30
0.0
 10
79.4032497631353
 20
-138.9548258116155
 30
0.0
 10
79.4032497631353
 20
-138.9548258116155
 30
0.0
 10
79.4032497631353
 20
-138.9548258116155
 30
0.0
 10
79.25890026230333
 20
-139.1005533506415
 30
0.0
 10
79.25890026230333
 20
-139.1005533506415
 30
0.0
 10
79.25890026230333
 20
-139.1005533506415
 30
0.0
 10
78.61914603069243
 20
-138.4680338195497
 30
0.0
 10
78.61914603069243
 20
-138.4680338195497
 30
0.0
 10
78.8902750453816
 20
-138.2330783074556
 30
0.0
 10
78.98639320942007
 20
-138.2179198873205
 30
0.0
 10
79.43563366069665
 20
-138.2430690843628
 30
0.0
 10
79.73501245836486
 20
-138.2592610331435
 30
0.0
 10
79.82320690278726
 20
-138.2509928039789
 30
0.0
 10
79.91966957637425
 20
-138.1534966017464
 30
0.0
 10
80.0030408871173
 20
-138.0690917623577
 30
0.0
 10
80.05092771436227
 20
-137.9319769620448
 30
0.0
 10
79.92828231508737
 20
-137.8110541105125
 30
0.0
 10
79.7660183177321
 20
-137.6505126608999
 30
0.0
 10
79.5989311866975
 20
-137.8093315627699
 30
0.0
 10
79.51452634730887
 20
-137.8896022875762
 30
0.0
 10
79.51452634730887
 20
-137.8896022875762
 30
0.0
 10
79.37499998015625
 20
-137.7514539586177
 30
0.0
 10
79.37499998015625
 20
-137.7514539586177
 30
0.0
 10
79.4693955964521
 20
-137.666360100132
 30
0.0
 10
79.55483396448629
 20
-137.5929795662962
 30
0.0
 10
79.68815915976546
 20
-137.5585286114437
 30
0.0
 10
79.86971569183812
 20
-137.5123643319414
 30
0.0
 10
80.00958656853928
 20
-137.6026258336549
 30
0.0
 10
80.08158906418099
 20
-137.6742838197481
 30
0.0
 10
80.25418834799201
 20
-137.8444715367195
 30
0.0
 10
80.25349932889496
 20
-138.1031982076617
 30
0.0
 10
80.06160751036654
 20
-138.2971570834813
 30
0.0
 10
79.9010660607539
 20
-138.4597655903851
 30
0.0
 10
79.75878361721308
 20
-138.458387552191
 30
0.0
 10
79.40772838726613
 20
-138.4294487501149
 30
0.0
  0
HATCH
  5
56
330
51
100
AcDbEntity
  8
_U+30EC_U+30A4_U+30E4_U+30FC 1
 62
   179
420
  2234388
100
AcDbHatch
 10
0.0
 20
0.0
 30
0.0
210
0.0
220
0.0
230
1.0
  2
SOLID
 70
     1
 71
     0
 91
        1
 92
        1
 93
        1
 72
     4
 94
        3
 73
     0
 74
     1
 95
       44
 96
       40
 40
0.0
 40
0.0
 40
0.0
 40
0.0
 40
1.0
 40
1.0
 40
1.0
 40
2.0
 40
2.0
 40
2.0
 40
3.0
 40
3.0
 40
3.0
 40
4.0
 40
4.0
 40
4.0
 40
5.0
 40
5.0
 40
5.0
 40
6.0
 40
6.0
 40
6.0
 40
7.0
 40
7.0
 40
7.0
 40
8.0
 40
8.0
 40
8.0
 40
9.0
 40
9.0
 40
9.0
 40
10.0
 40
10.0
 40
10.0
 40
11.0
 40
11.0
 40
11.0
 40
12.0
 40
12.0
 40
12.0
 40
13.0
 40
13.0
 40
13.0
 40
13.0
 10
79.40772838726613
 20
-138.4294487501149
 10
79.16037053142519
 20
-138.4080891581063
 10
79.05047198544572
 20
-138.403266024427
 10
78.91886933790917
 20
-138.4756130296172
 10
78.91886933790917
 20
-138.4756130296172
 10
79.4032497631353
 20
-138.9548258116155
 10
79.4032497631353
 20
-138.9548258116155
 10
79.4032497631353
 20
-138.9548258116155
 10
79.25890026230333
 20
-139.1005533506415
 10
79.25890026230333
 20
-139.1005533506415
 10
79.25890026230333
 20
-139.1005533506415
 10
78.61914603069243
 20
-138.4680338195497
 10
78.61914603069243
 20
-138.4680338195497
 10
78.8902750453816
 20
-138.2330783074556
 10
78.98639320942007
 20
-138.2179198873205
 10
79.43563366069665
 20
-138.2430690843628
 10
79.73501245836486
 20
-138.2592610331435
 10
79.82320690278726
 20
-138.2509928039789
 10
79.91966957637425
 20
-138.1534966017464
 10
80.0030408871173
 20
-138.0690917623577
 10
80.05092771436227
 20
-137.9319769620448
 10
79.92828231508737
 20
-137.8110541105125
 10
79.7660183177321
 20
-137.6505126608999
 10
79.5989311866975
 20
-137.8093315627699
 10
79.51452634730887
 20
-137.8896022875762
 10
79.51452634730887
 20
-137.8896022875762
 10
79.37499998015625
 20
-137.7514539586177
 10
79.37499998015625
 20
-137.7514539586177
 10
79.4693955964521
 20
-137.666360100132
 10
79.55483396448629
 20
-137.5929795662962
 10
79.68815915976546
 20
-137.5585286114437
 10
79.86971569183812
 20
-137.5123643319414
 10
80.00958656853928
 20
-137.6026258336549
 10
80.08158906418099
 20
-137.6742838197481
 10
80.25418834799201
 20
-137.8444715367195
 10
80.25349932889496
 20
-138.1031982076617
 10
80.06160751036654
 20
-138.2971570834813
 10
79.9010660607539
 20
-138.4597655903851
 10
79.75878361721308
 20
-138.458387552191
 10
79.40772838726613
 20
-138.4294487501149
 97
        0
 97
        0
 75
     2
 76
     1
 98
        0
  0
SPLINE
  5
57
330
51
100
AcDbEntity
  8
_U+30EC_U+30A4_U+30E4_U+30FC 1
370
     0
100
AcDbSpline
210
0.0
220
0.0
230
1.0
 70
    11
 71
     3
 72
    29
 73
    25
 74
     0
 42
0.0000000001
 43
0.0000000001
 12
1.0
 22
0.0
 32
0.0
 13
1.0
 23
0.0
 33
0.0
 40
0.0
 40
0.0
 40
0.0
 40
0.0
 40
1.0
 40
1.0
 40
1.0
 40
2.0
 40
2.0
 40
2.0
 40
3.0
 40
3.0
 40
3.0
 40
4.0
 40
4.0
 40
4.0
 40
5.0
 40
5.0
 40
5.0
 40
6.0
 40
6.0
 40
6.0
 40
7.0
 40
7.0
 40
7.0
 40
8.0
 40
8.0
 40
8.0
 40
8.0
 10
80.0457600711344
 20
-139.6293755076274
 30
0.0
 10
79.83113062240334
 20
-139.7117132897249
 30
0.0
 10
79.70986326132254
 20
-139.6183512020746
 30
0.0
 10
79.63717174658376
 20
-139.5466932159814
 30
0.0
 10
79.53726397751151
 20
-139.4478189755547
 30
0.0
 10
79.481797940199
 20
-139.327240633571
 30
0.0
 10
79.55069984990399
 20
-139.1394829296248
 30
0.0
 10
79.62304685509424
 20
-138.9372558246407
 30
0.0
 10
79.77773164238197
 20
-138.7574218403107
 30
0.0
 10
79.89210881249225
 20
-138.6413221224577
 30
0.0
 10
79.9933946197586
 20
-138.5390027865458
 30
0.0
 10
80.18115232370472
 20
-138.3705376173171
 30
0.0
 10
80.38682452417413
 20
-138.2944010070931
 30
0.0
 10
80.59697534877436
 20
-138.2165418491264
 30
0.0
 10
80.7130750666273
 20
-138.2985351216754
 30
0.0
 10
80.79334579143361
 20
-138.3784613369332
 30
0.0
 10
80.89222003186028
 20
-138.4756130296172
 30
0.0
 10
80.950442145561
 20
-138.5958468620524
 30
0.0
 10
80.88188474540453
 20
-138.7842935850956
 30
0.0
 10
80.80815970202019
 20
-138.9820420659489
 30
0.0
 10
80.6620876534456
 20
-139.1587754643423
 30
0.0
 10
80.54013127326775
 20
-139.2821098827142
 30
0.0
 10
80.419552931284
 20
-139.4040662628921
 30
0.0
 10
80.24419757108478
 20
-139.5546169355975
 30
0.0
 10
80.0457600711344
 20
-139.6293755076274
 30
0.0
  0
SPLINE
  5
58
330
51
100
AcDbEntity
  8
_U+30EC_U+30A4_U+30E4_U+30FC 1
370
     0
100
AcDbSpline
210
0.0
220
0.0
230
1.0
 70
    11
 71
     3
 72
    17
 73
    13
 74
     0
 42
0.0000000001
 43
0.0000000001
 12
1.0
 22
0.0
 32
0.0
 13
1.0
 23
0.0
 33
0.0
 40
0.0
 40
0.0
 40
0.0
 40
0.0
 40
1.0
 40
1.0
 40
1.0
 40
2.0
 40
2.0
 40
2.0
 40
3.0
 40
3.0
 40
3.0
 40
4.0
 40
4.0
 40
4.0
 40
4.0
 10
80.6579535388633
 20
-138.5148871181491
 30
0.0
 10
80.50257973247852
 20
-138.3612358595069
 30
0.0
 10
80.27451441135499
 20
-138.5341796528665
 30
0.0
 10
80.03197968919339
 20
-138.7794704514162
 30
0.0
 10
79.8073594635551
 20
-139.0068467534427
 30
0.0
 10
79.61236705908996
 20
-139.2480034374102
 30
0.0
 10
79.7742865468967
 20
-139.4085448870229
 30
0.0
 10
79.92828231508737
 20
-139.5608181074709
 30
0.0
 10
80.15634763621091
 20
-139.3906303904996
 30
0.0
 10
80.40026039656661
 20
-139.1439615537557
 30
0.0
 10
80.6248806222049
 20
-138.9169297612777
 30
0.0
 10
80.81849498847593
 20
-138.6740505295676
 30
0.0
 10
80.6579535388633
 20
-138.5148871181491
 30
0.0
  0
HATCH
  5
59
330
51
100
AcDbEntity
  8
_U+30EC_U+30A4_U+30E4_U+30FC 1
 62
   179
420
  2234388
100
AcDbHatch
 10
0.0
 20
0.0
 30
0.0
210
0.0
220
0.0
230
1.0
  2
SOLID
 70
     1
 71
     0
 91
        2
 92
        1
 93
        1
 72
     4
 94
        3
 73
     0
 74
     1
 95
       29
 96
       25
 40
0.0
 40
0.0
 40
0.0
 40
0.0
 40
1.0
 40
1.0
 40
1.0
 40
2.0
 40
2.0
 40
2.0
 40
3.0
 40
3.0
 40
3.0
 40
4.0
 40
4.0
 40
4.0
 40
5.0
 40
5.0
 40
5.0
 40
6.0
 40
6.0
 40
6.0
 40
7.0
 40
7.0
 40
7.0
 40
8.0
 40
8.0
 40
8.0
 40
8.0
 10
80.0457600711344
 20
-139.6293755076274
 10
79.83113062240334
 20
-139.7117132897249
 10
79.70986326132254
 20
-139.6183512020746
 10
79.63717174658376
 20
-139.5466932159814
 10
79.53726397751151
 20
-139.4478189755547
 10
79.481797940199
 20
-139.327240633571
 10
79.55069984990399
 20
-139.1394829296248
 10
79.62304685509424
 20
-138.9372558246407
 10
79.77773164238197
 20
-138.7574218403107
 10
79.89210881249225
 20
-138.6413221224577
 10
79.9933946197586
 20
-138.5390027865458
 10
80.18115232370472
 20
-138.3705376173171
 10
80.38682452417413
 20
-138.2944010070931
 10
80.59697534877436
 20
-138.2165418491264
 10
80.7130750666273
 20
-138.2985351216754
 10
80.79334579143361
 20
-138.3784613369332
 10
80.89222003186028
 20
-138.4756130296172
 10
80.950442145561
 20
-138.5958468620524
 10
80.88188474540453
 20
-138.7842935850956
 10
80.80815970202019
 20
-138.9820420659489
 10
80.6620876534456
 20
-139.1587754643423
 10
80.54013127326775
 20
-139.2821098827142
 10
80.419552931284
 20
-139.4040662628921
 10
80.24419757108478
 20
-139.5546169355975
 10
80.0457600711344
 20
-139.6293755076274
 97
        0
 97
        0
 92
        1
 93
        1
 72
     4
 94
        3
 73
     0
 74
     1
 95
       17
 96
       13
 40
0.0
 40
0.0
 40
0.0
 40
0.0
 40
1.0
 40
1.0
 40
1.0
 40
2.0
 40
2.0
 40
2.0
 40
3.0
 40
3.0
 40
3.0
 40
4.0
 40
4.0
 40
4.0
 40
4.0
 10
80.6579535388633
 20
-138.5148871181491
 10
80.50257973247852
 20
-138.3612358595069
 10
80.27451441135499
 20
-138.5341796528665
 10
80.03197968919339
 20
-138.7794704514162
 10
79.8073594635551
 20
-139.0068467534427
 10
79.61236705908996
 20
-139.2480034374102
 10
79.7742865468967
 20
-139.4085448870229
 10
79.92828231508737
 20
-139.5608181074709
 10
80.15634763621091
 20
-139.3906303904996
 10
80.40026039656661
 20
-139.1439615537557
 10
80.6248806222049
 20
-138.9169297612777
 10
80.81849498847593
 20
-138.6740505295676
 10
80.6579535388633
 20
-138.5148871181491
 97
        0
 97
        0
 75
     2
 76
     1
 98
        0
  0
ENDBLK
  5
54
330
51
100
AcDbEntity
  8
0
100
AcDbBlockEnd
  0
BLOCK
  5
6C
330
6A
100
AcDbEntity
  8
0
100
AcDbBlockBegin
  2
block 4
 70
     0
 10
0.0
 20
0.0
 30
0.0
  3
block 4
  1

  0
SPLINE
  5
6E
330
6A
100
AcDbEntity
  8
_U+30EC_U+30A4_U+30E4_U+30FC 1
370
     0
100
AcDbSpline
210
0.0
220
0.0
230
1.0
 70
    11
 71
     3
 72
    26
 73
    22
 74
     0
 42
0.0000000001
 43
0.0000000001
 12
1.0
 22
0.0
 32
0.0
 13
1.0
 23
0.0
 33
0.0
 40
0.0
 40
0.0
 40
0.0
 40
0.0
 40
1.0
 40
1.0
 40
1.0
 40
2.0
 40
2.0
 40
2.0
 40
3.0
 40
3.0
 40
3.0
 40
4.0
 40
4.0
 40
4.0
 40
5.0
 40
5.0
 40
5.0
 40
6.0
 40
6.0
 40
6.0
 40
7.0
 40
7.0
 40
7.0
 40
7.0
 10
102.8226643623152
 20
-146.9336669554541
 30
0.0
 10
102.8226643623152
 20
-146.9336669554541
 30
0.0
 10
102.8226643623152
 20
-145.8295138524315
 30
0.0
 10
102.8226643623152
 20
-145.8295138524315
 30
0.0
 10
102.8226643623152
 20
-145.8295138524315
 30
0.0
 10
102.5336208511027
 20
-145.8295138524315
 30
0.0
 10
102.5336208511027
 20
-145.8295138524315
 30
0.0
 10
102.5336208511027
 20
-145.8295138524315
 30
0.0
 10
102.5336208511027
 20
-145.6813747465658
 30
0.0
 10
102.5336208511027
 20
-145.6813747465658
 30
0.0
 10
102.8243869100578
 20
-145.6665608359792
 30
0.0
 10
102.8650390367837
 20
-145.5036078195269
 30
0.0
 10
102.8912217624716
 20
-145.3892306494166
 30
0.0
 10
102.8912217624716
 20
-145.3892306494166
 30
0.0
 10
103.0186902954259
 20
-145.3892306494166
 30
0.0
 10
103.0186902954259
 20
-145.3892306494166
 30
0.0
 10
103.0186902954259
 20
-145.3892306494166
 30
0.0
 10
103.0186902954259
 20
-146.9336669554541
 30
0.0
 10
103.0186902954259
 20
-146.9336669554541
 30
0.0
 10
103.0186902954259
 20
-146.9336669554541
 30
0.0
 10
102.8226643623152
 20
-146.9336669554541
 30
0.0
 10
102.8226643623152
 20
-146.9336669554541
 30
0.0
  0
HATCH
  5
6F
330
6A
100
AcDbEntity
  8
_U+30EC_U+30A4_U+30E4_U+30FC 1
 62
   179
420
  2234388
100
AcDbHatch
 10
0.0
 20
0.0
 30
0.0
210
0.0
220
0.0
230
1.0
  2
SOLID
 70
     1
 71
     0
 91
        1
 92
        1
 93
        1
 72
     4
 94
        3
 73
     0
 74
     1
 95
       26
 96
       22
 40
0.0
 40
0.0
 40
0.0
 40
0.0
 40
1.0
 40
1.0
 40
1.0
 40
2.0
 40
2.0
 40
2.0
 40
3.0
 40
3.0
 40
3.0
 40
4.0
 40
4.0
 40
4.0
 40
5.0
 40
5.0
 40
5.0
 40
6.0
 40
6.0
 40
6.0
 40
7.0
 40
7.0
 40
7.0
 40
7.0
 10
102.8226643623152
 20
-146.9336669554541
 10
102.8226643623152
 20
-146.9336669554541
 10
102.8226643623152
 20
-145.8295138524315
 10
102.8226643623152
 20
-145.8295138524315
 10
102.8226643623152
 20
-145.8295138524315
 10
102.5336208511027
 20
-145.8295138524315
 10
102.5336208511027
 20
-145.8295138524315
 10
102.5336208511027
 20
-145.8295138524315
 10
102.5336208511027
 20
-145.6813747465658
 10
102.5336208511027
 20
-145.6813747465658
 10
102.8243869100578
 20
-145.6665608359792
 10
102.8650390367837
 20
-145.5036078195269
 10
102.8912217624716
 20
-145.3892306494166
 10
102.8912217624716
 20
-145.3892306494166
 10
103.0186902954259
 20
-145.3892306494166
 10
103.0186902954259
 20
-145.3892306494166
 10
103.0186902954259
 20
-145.3892306494166
 10
103.0186902954259
 20
-146.9336669554541
 10
103.0186902954259
 20
-146.9336669554541
 10
103.0186902954259
 20
-146.9336669554541
 10
102.8226643623152
 20
-146.9336669554541
 10
102.8226643623152
 20
-146.9336669554541
 97
        0
 97
        0
 75
     2
 76
     1
 98
        0
  0
SPLINE
  5
70
330
6A
100
AcDbEntity
  8
_U+30EC_U+30A4_U+30E4_U+30FC 1
370
     0
100
AcDbSpline
210
0.0
220
0.0
230
1.0
 70
    11
 71
     3
 72
    53
 73
    49
 74
     0
 42
0.0000000001
 43
0.0000000001
 12
1.0
 22
0.0
 32
0.0
 13
1.0
 23
0.0
 33
0.0
 40
0.0
 40
0.0
 40
0.0
 40
0.0
 40
1.0
 40
1.0
 40
1.0
 40
2.0
 40
2.0
 40
2.0
 40
3.0
 40
3.0
 40
3.0
 40
4.0
 40
4.0
 40
4.0
 40
5.0
 40
5.0
 40
5.0
 40
6.0
 40
6.0
 40
6.0
 40
7.0
 40
7.0
 40
7.0
 40
8.0
 40
8.0
 40
8.0
 40
9.0
 40
9.0
 40
9.0
 40
10.0
 40
10.0
 40
10.0
 40
11.0
 40
11.0
 40
11.0
 40
12.0
 40
12.0
 40
12.0
 40
13.0
 40
13.0
 40
13.0
 40
14.0
 40
14.0
 40
14.0
 40
15.0
 40
15.0
 40
15.0
 40
16.0
 40
16.0
 40
16.0
 40
16.0
 10
103.8792751476413
 20
-146.9843098590873
 30
0.0
 10
103.8107177474848
 20
-146.9843098590873
 30
0.0
 10
103.7218342839654
 20
-146.9674288912096
 30
0.0
 10
103.6329508204459
 20
-146.9040391342809
 30
0.0
 10
103.4810221095464
 20
-146.7941405883015
 30
0.0
 10
103.4624185939261
 20
-146.6628824503134
 30
0.0
 10
103.4458821355969
 20
-146.5550509616251
 30
0.0
 10
103.4458821355969
 20
-146.5550509616251
 30
0.0
 10
103.640185520965
 20
-146.5550509616251
 30
0.0
 10
103.640185520965
 20
-146.5550509616251
 30
0.0
 10
103.6884168577585
 20
-146.753832971124
 30
0.0
 10
103.799693441932
 20
-146.7834607922972
 30
0.0
 10
103.8809976953839
 20
-146.7834607922972
 30
0.0
 10
104.0032985851103
 20
-146.7834607922972
 30
0.0
 10
104.1366237803895
 20
-146.6838975327735
 30
0.0
 10
104.1366237803895
 20
-146.4513535875191
 30
0.0
 10
104.1366237803895
 20
-146.1953829929651
 30
0.0
 10
103.9791829167135
 20
-146.125792064163
 30
0.0
 10
103.8737629948649
 20
-146.125792064163
 30
0.0
 10
103.8458577214344
 20
-146.125792064163
 30
0.0
 10
103.7218342839654
 20
-146.125792064163
 30
0.0
 10
103.6439751259987
 20
-146.2546386353114
 30
0.0
 10
103.6439751259987
 20
-146.2546386353114
 30
0.0
 10
103.4903238673566
 20
-146.2353461005939
 30
0.0
 10
103.4903238673566
 20
-146.2353461005939
 30
0.0
 10
103.4903238673566
 20
-146.2353461005939
 30
0.0
 10
103.5960882987538
 20
-145.3892306494166
 30
0.0
 10
103.5960882987538
 20
-145.3892306494166
 30
0.0
 10
103.5960882987538
 20
-145.3892306494166
 30
0.0
 10
104.2775281857362
 20
-145.3892306494166
 30
0.0
 10
104.2775281857362
 20
-145.3892306494166
 30
0.0
 10
104.2775281857362
 20
-145.3892306494166
 30
0.0
 10
104.2775281857362
 20
-145.5842230538817
 30
0.0
 10
104.2775281857362
 20
-145.5842230538817
 30
0.0
 10
104.2775281857362
 20
-145.5842230538817
 30
0.0
 10
103.7383707422946
 20
-145.5842230538817
 30
0.0
 10
103.7383707422946
 20
-145.5842230538817
 30
0.0
 10
103.7383707422946
 20
-145.5842230538817
 30
0.0
 10
103.6811821572394
 20
-146.0072807794704
 30
0.0
 10
103.6811821572394
 20
-146.0072807794704
 30
0.0
 10
103.7349256468093
 20
-145.9731743341664
 30
0.0
 10
103.8069281424511
 20
-145.932866716989
 30
0.0
 10
103.9106255165571
 20
-145.932866716989
 30
0.0
 10
104.1328341753557
 20
-145.932866716989
 30
0.0
 10
104.3402289235677
 20
-146.119246382741
 30
0.0
 10
104.3402289235677
 20
-146.4324055623502
 30
0.0
 10
104.3402289235677
 20
-146.7496988565418
 30
0.0
 10
104.1438584809085
 20
-146.9843098590873
 30
0.0
 10
103.8792751476413
 20
-146.9843098590873
 30
0.0
  0
HATCH
  5
71
330
6A
100
AcDbEntity
  8
_U+30EC_U+30A4_U+30E4_U+30FC 1
 62
   179
420
  2234388
100
AcDbHatch
 10
0.0
 20
0.0
 30
0.0
210
0.0
220
0.0
230
1.0
  2
SOLID
 70
     1
 71
     0
 91
        1
 92
        1
 93
        1
 72
     4
 94
        3
 73
     0
 74
     1
 95
       53
 96
       49
 40
0.0
 40
0.0
 40
0.0
 40
0.0
 40
1.0
 40
1.0
 40
1.0
 40
2.0
 40
2.0
 40
2.0
 40
3.0
 40
3.0
 40
3.0
 40
4.0
 40
4.0
 40
4.0
 40
5.0
 40
5.0
 40
5.0
 40
6.0
 40
6.0
 40
6.0
 40
7.0
 40
7.0
 40
7.0
 40
8.0
 40
8.0
 40
8.0
 40
9.0
 40
9.0
 40
9.0
 40
10.0
 40
10.0
 40
10.0
 40
11.0
 40
11.0
 40
11.0
 40
12.0
 40
12.0
 40
12.0
 40
13.0
 40
13.0
 40
13.0
 40
14.0
 40
14.0
 40
14.0
 40
15.0
 40
15.0
 40
15.0
 40
16.0
 40
16.0
 40
16.0
 40
16.0
 10
103.8792751476413
 20
-146.9843098590873
 10
103.8107177474848
 20
-146.9843098590873
 10
103.7218342839654
 20
-146.9674288912096
 10
103.6329508204459
 20
-146.9040391342809
 10
103.4810221095464
 20
-146.7941405883015
 10
103.4624185939261
 20
-146.6628824503134
 10
103.4458821355969
 20
-146.5550509616251
 10
103.4458821355969
 20
-146.5550509616251
 10
103.640185520965
 20
-146.5550509616251
 10
103.640185520965
 20
-146.5550509616251
 10
103.6884168577585
 20
-146.753832971124
 10
103.799693441932
 20
-146.7834607922972
 10
103.8809976953839
 20
-146.7834607922972
 10
104.0032985851103
 20
-146.7834607922972
 10
104.1366237803895
 20
-146.6838975327735
 10
104.1366237803895
 20
-146.4513535875191
 10
104.1366237803895
 20
-146.1953829929651
 10
103.9791829167135
 20
-146.125792064163
 10
103.8737629948649
 20
-146.125792064163
 10
103.8458577214344
 20
-146.125792064163
 10
103.7218342839654
 20
-146.125792064163
 10
103.6439751259987
 20
-146.2546386353114
 10
103.6439751259987
 20
-146.2546386353114
 10
103.4903238673566
 20
-146.2353461005939
 10
103.4903238673566
 20
-146.2353461005939
 10
103.4903238673566
 20
-146.2353461005939
 10
103.5960882987538
 20
-145.3892306494166
 10
103.5960882987538
 20
-145.3892306494166
 10
103.5960882987538
 20
-145.3892306494166
 10
104.2775281857362
 20
-145.3892306494166
 10
104.2775281857362
 20
-145.3892306494166
 10
104.2775281857362
 20
-145.3892306494166
 10
104.2775281857362
 20
-145.5842230538817
 10
104.2775281857362
 20
-145.5842230538817
 10
104.2775281857362
 20
-145.5842230538817
 10
103.7383707422946
 20
-145.5842230538817
 10
103.7383707422946
 20
-145.5842230538817
 10
103.7383707422946
 20
-145.5842230538817
 10
103.6811821572394
 20
-146.0072807794704
 10
103.6811821572394
 20
-146.0072807794704
 10
103.7349256468093
 20
-145.9731743341664
 10
103.8069281424511
 20
-145.932866716989
 10
103.9106255165571
 20
-145.932866716989
 10
104.1328341753557
 20
-145.932866716989
 10
104.3402289235677
 20
-146.119246382741
 10
104.3402289235677
 20
-146.4324055623502
 10
104.3402289235677
 20
-146.7496988565418
 10
104.1438584809085
 20
-146.9843098590873
 10
103.8792751476413
 20
-146.9843098590873
 97
        0
 97
        0
 75
     2
 76
     1
 98
        0
  0
ENDBLK
  5
6D
330
6A
100
AcDbEntity
  8
0
100
AcDbBlockEnd
  0
BLOCK
  5
74
330
72
100
AcDbEntity
  8
0
100
AcDbBlockBegin
  2
block 5
 70
     0
 10
0.0
 20
0.0
 30
0.0
  3
block 5
  1

  0
SPLINE
  5
76
330
72
100
AcDbEntity
  8
_U+30EC_U+30A4_U+30E4_U+30FC 1
370
     0
100
AcDbSpline
210
0.0
220
0.0
230
1.0
 70
    11
 71
     3
 72
    26
 73
    22
 74
     0
 42
0.0000000001
 43
0.0000000001
 12
1.0
 22
0.0
 32
0.0
 13
1.0
 23
0.0
 33
0.0
 40
0.0
 40
0.0
 40
0.0
 40
0.0
 40
1.0
 40
1.0
 40
1.0
 40
2.0
 40
2.0
 40
2.0
 40
3.0
 40
3.0
 40
3.0
 40
4.0
 40
4.0
 40
4.0
 40
5.0
 40
5.0
 40
5.0
 40
6.0
 40
6.0
 40
6.0
 40
7.0
 40
7.0
 40
7.0
 40
7.0
 10
92.26379120957294
 20
-146.9336669554541
 30
0.0
 10
92.26379120957294
 20
-146.9336669554541
 30
0.0
 10
92.0563964613609
 20
-146.9336669554541
 30
0.0
 10
92.0563964613609
 20
-146.9336669554541
 30
0.0
 10
92.07878958201503
 20
-146.6246418904272
 30
0.0
 10
92.24725475124374
 20
-146.1064995294456
 30
0.0
 10
92.60278860532154
 20
-145.6007595122109
 30
0.0
 10
92.60278860532154
 20
-145.6007595122109
 30
0.0
 10
91.86967228606036
 20
-145.6007595122109
 30
0.0
 10
91.86967228606036
 20
-145.6007595122109
 30
0.0
 10
91.86967228606036
 20
-145.6007595122109
 30
0.0
 10
91.86967228606036
 20
-145.3892306494166
 30
0.0
 10
91.86967228606036
 20
-145.3892306494166
 30
0.0
 10
91.86967228606036
 20
-145.3892306494166
 30
0.0
 10
92.81018335353357
 20
-145.3892306494166
 30
0.0
 10
92.81018335353357
 20
-145.3892306494166
 30
0.0
 10
92.81018335353357
 20
-145.3892306494166
 30
0.0
 10
92.81018335353357
 20
-145.6007595122109
 30
0.0
 10
92.81018335353357
 20
-145.6007595122109
 30
0.0
 10
92.52699650464604
 20
-145.890836552069
 30
0.0
 10
92.2934190307461
 20
-146.4830484659834
 30
0.0
 10
92.26379120957294
 20
-146.9336669554541
 30
0.0
  0
HATCH
  5
77
330
72
100
AcDbEntity
  8
_U+30EC_U+30A4_U+30E4_U+30FC 1
 62
   179
420
  2234388
100
AcDbHatch
 10
0.0
 20
0.0
 30
0.0
210
0.0
220
0.0
230
1.0
  2
SOLID
 70
     1
 71
     0
 91
        1
 92
        1
 93
        1
 72
     4
 94
        3
 73
     0
 74
     1
 95
       26
 96
       22
 40
0.0
 40
0.0
 40
0.0
 40
0.0
 40
1.0
 40
1.0
 40
1.0
 40
2.0
 40
2.0
 40
2.0
 40
3.0
 40
3.0
 40
3.0
 40
4.0
 40
4.0
 40
4.0
 40
5.0
 40
5.0
 40
5.0
 40
6.0
 40
6.0
 40
6.0
 40
7.0
 40
7.0
 40
7.0
 40
7.0
 10
92.26379120957294
 20
-146.9336669554541
 10
92.26379120957294
 20
-146.9336669554541
 10
92.0563964613609
 20
-146.9336669554541
 10
92.0563964613609
 20
-146.9336669554541
 10
92.07878958201503
 20
-146.6246418904272
 10
92.24725475124374
 20
-146.1064995294456
 10
92.60278860532154
 20
-145.6007595122109
 10
92.60278860532154
 20
-145.6007595122109
 10
91.86967228606036
 20
-145.6007595122109
 10
91.86967228606036
 20
-145.6007595122109
 10
91.86967228606036
 20
-145.6007595122109
 10
91.86967228606036
 20
-145.3892306494166
 10
91.86967228606036
 20
-145.3892306494166
 10
91.86967228606036
 20
-145.3892306494166
 10
92.81018335353357
 20
-145.3892306494166
 10
92.81018335353357
 20
-145.3892306494166
 10
92.81018335353357
 20
-145.3892306494166
 10
92.81018335353357
 20
-145.6007595122109
 10
92.81018335353357
 20
-145.6007595122109
 10
92.52699650464604
 20
-145.890836552069
 10
92.2934190307461
 20
-146.4830484659834
 10
92.26379120957294
 20
-146.9336669554541
 97
        0
 97
        0
 75
     2
 76
     1
 98
        0
  0
ENDBLK
  5
75
330
72
100
AcDbEntity
  8
0
100
AcDbBlockEnd
  0
BLOCK
  5
83
330
81
100
AcDbEntity
  8
0
100
AcDbBlockBegin
  2
block 6
 70
     0
 10
0.0
 20
0.0
 30
0.0
  3
block 6
  1

  0
SPLINE
  5
85
330
81
100
AcDbEntity
  8
_U+30EC_U+30A4_U+30E4_U+30FC 1
370
     0
100
AcDbSpline
210
0.0
220
0.0
230
1.0
 70
    11
 71
     3
 72
    26
 73
    22
 74
     0
 42
0.0000000001
 43
0.0000000001
 12
1.0
 22
0.0
 32
0.0
 13
1.0
 23
0.0
 33
0.0
 40
0.0
 40
0.0
 40
0.0
 40
0.0
 40
1.0
 40
1.0
 40
1.0
 40
2.0
 40
2.0
 40
2.0
 40
3.0
 40
3.0
 40
3.0
 40
4.0
 40
4.0
 40
4.0
 40
5.0
 40
5.0
 40
5.0
 40
6.0
 40
6.0
 40
6.0
 40
7.0
 40
7.0
 40
7.0
 40
7.0
 10
102.4443928780347
 20
-138.1331705383834
 30
0.0
 10
102.4443928780347
 20
-138.1331705383834
 30
0.0
 10
101.3402397750122
 20
-138.1331705383834
 30
0.0
 10
101.3402397750122
 20
-138.1331705383834
 30
0.0
 10
101.3402397750122
 20
-138.1331705383834
 30
0.0
 10
101.3402397750122
 20
-138.4218695400473
 30
0.0
 10
101.3402397750122
 20
-138.4218695400473
 30
0.0
 10
101.3402397750122
 20
-138.4218695400473
 30
0.0
 10
101.1921006691464
 20
-138.4218695400473
 30
0.0
 10
101.1921006691464
 20
-138.4218695400473
 30
0.0
 10
101.1772867585598
 20
-138.1311034810922
 30
0.0
 10
101.0143337421075
 20
-138.0904513543663
 30
0.0
 10
100.8999565719972
 20
-138.0642686286784
 30
0.0
 10
100.8999565719972
 20
-138.0642686286784
 30
0.0
 10
100.8999565719972
 20
-137.9368000957242
 30
0.0
 10
100.8999565719972
 20
-137.9368000957242
 30
0.0
 10
100.8999565719972
 20
-137.9368000957242
 30
0.0
 10
102.4443928780347
 20
-137.9368000957242
 30
0.0
 10
102.4443928780347
 20
-137.9368000957242
 30
0.0
 10
102.4443928780347
 20
-137.9368000957242
 30
0.0
 10
102.4443928780347
 20
-138.1331705383834
 30
0.0
 10
102.4443928780347
 20
-138.1331705383834
 30
0.0
  0
HATCH
  5
86
330
81
100
AcDbEntity
  8
_U+30EC_U+30A4_U+30E4_U+30FC 1
 62
   179
420
  2234388
100
AcDbHatch
 10
0.0
 20
0.0
 30
0.0
210
0.0
220
0.0
230
1.0
  2
SOLID
 70
     1
 71
     0
 91
        1
 92
        1
 93
        1
 72
     4
 94
        3
 73
     0
 74
     1
 95
       26
 96
       22
 40
0.0
 40
0.0
 40
0.0
 40
0.0
 40
1.0
 40
1.0
 40
1.0
 40
2.0
 40
2.0
 40
2.0
 40
3.0
 40
3.0
 40
3.0
 40
4.0
 40
4.0
 40
4.0
 40
5.0
 40
5.0
 40
5.0
 40
6.0
 40
6.0
 40
6.0
 40
7.0
 40
7.0
 40
7.0
 40
7.0
 10
102.4443928780347
 20
-138.1331705383834
 10
102.4443928780347
 20
-138.1331705383834
 10
101.3402397750122
 20
-138.1331705383834
 10
101.3402397750122
 20
-138.1331705383834
 10
101.3402397750122
 20
-138.1331705383834
 10
101.3402397750122
 20
-138.4218695400473
 10
101.3402397750122
 20
-138.4218695400473
 10
101.3402397750122
 20
-138.4218695400473
 10
101.1921006691464
 20
-138.4218695400473
 10
101.1921006691464
 20
-138.4218695400473
 10
101.1772867585598
 20
-138.1311034810922
 10
101.0143337421075
 20
-138.0904513543663
 10
100.8999565719972
 20
-138.0642686286784
 10
100.8999565719972
 20
-138.0642686286784
 10
100.8999565719972
 20
-137.9368000957242
 10
100.8999565719972
 20
-137.9368000957242
 10
100.8999565719972
 20
-137.9368000957242
 10
102.4443928780347
 20
-137.9368000957242
 10
102.4443928780347
 20
-137.9368000957242
 10
102.4443928780347
 20
-137.9368000957242
 10
102.4443928780347
 20
-138.1331705383834
 10
102.4443928780347
 20
-138.1331705383834
 97
        0
 97
        0
 75
     2
 76
     1
 98
        0
  0
SPLINE
  5
87
330
81
100
AcDbEntity
  8
_U+30EC_U+30A4_U+30E4_U+30FC 1
370
     0
100
AcDbSpline
210
0.0
220
0.0
230
1.0
 70
    11
 71
     3
 72
    62
 73
    58
 74
     0
 42
0.0000000001
 43
0.0000000001
 12
1.0
 22
0.0
 32
0.0
 13
1.0
 23
0.0
 33
0.0
 40
0.0
 40
0.0
 40
0.0
 40
0.0
 40
1.0
 40
1.0
 40
1.0
 40
2.0
 40
2.0
 40
2.0
 40
3.0
 40
3.0
 40
3.0
 40
4.0
 40
4.0
 40
4.0
 40
5.0
 40
5.0
 40
5.0
 40
6.0
 40
6.0
 40
6.0
 40
7.0
 40
7.0
 40
7.0
 40
8.0
 40
8.0
 40
8.0
 40
9.0
 40
9.0
 40
9.0
 40
10.0
 40
10.0
 40
10.0
 40
11.0
 40
11.0
 40
11.0
 40
12.0
 40
12.0
 40
12.0
 40
13.0
 40
13.0
 40
13.0
 40
14.0
 40
14.0
 40
14.0
 40
15.0
 40
15.0
 40
15.0
 40
16.0
 40
16.0
 40
16.0
 40
17.0
 40
17.0
 40
17.0
 40
18.0
 40
18.0
 40
18.0
 40
19.0
 40
19.0
 40
19.0
 40
19.0
 10
102.4950357816679
 20
-137.0669134856986
 30
0.0
 10
102.4950357816679
 20
-137.1502847964416
 30
0.0
 10
102.4740206992079
 20
-137.3411430863245
 30
0.0
 10
102.2879855430044
 20
-137.4503526132069
 30
0.0
 10
102.1756754301853
 20
-137.5151204083296
 30
0.0
 10
102.0764566802101
 20
-137.5189100133633
 30
0.0
 10
101.9917073312729
 20
-137.5226996183971
 30
0.0
 10
101.9917073312729
 20
-137.5226996183971
 30
0.0
 10
101.9917073312729
 20
-137.3297742712231
 30
0.0
 10
101.9917073312729
 20
-137.3297742712231
 30
0.0
 10
102.0657768842058
 20
-137.3280517234805
 30
0.0
 10
102.3003878867513
 20
-137.3187499656703
 30
0.0
 10
102.3003878867513
 20
-137.0707030907323
 30
0.0
 10
102.3003878867513
 20
-136.9501247487486
 30
0.0
 10
102.2307969579493
 20
-136.8171440630179
 30
0.0
 10
102.0023871272772
 20
-136.8171440630179
 30
0.0
 10
101.8859428998757
 20
-136.8171440630179
 30
0.0
 10
101.8373670535337
 20
-136.8502169796763
 30
0.0
 10
101.8056721750694
 20
-136.8781222531069
 30
0.0
 10
101.7316026221365
 20
-136.9428900482296
 30
0.0
 10
101.7188557688411
 20
-137.0448648745929
 30
0.0
 10
101.7188557688411
 20
-137.0927517018379
 30
0.0
 10
101.7188557688411
 20
-137.1096326697157
 30
0.0
 10
101.7209228261323
 20
-137.1409830386314
 30
0.0
 10
101.7250569407146
 20
-137.1650987070282
 30
0.0
 10
101.7250569407146
 20
-137.1650987070282
 30
0.0
 10
101.530409045798
 20
-137.1650987070282
 30
0.0
 10
101.530409045798
 20
-137.1650987070282
 30
0.0
 10
101.5369547272199
 20
-137.1320257903698
 30
0.0
 10
101.5390217845111
 20
-137.0948187591291
 30
0.0
 10
101.5390217845111
 20
-137.0893066063527
 30
0.0
 10
101.5390217845111
 20
-137.031773511749
 30
0.0
 10
101.5176621925025
 20
-136.8577961897439
 30
0.0
 10
101.2809841326659
 20
-136.8577961897439
 30
0.0
 10
101.103217205627
 20
-136.8577961897439
 30
0.0
 10
101.048095677863
 20
-136.9725178694027
 30
0.0
 10
101.048095677863
 20
-137.0686360334412
 30
0.0
 10
101.048095677863
 20
-137.30014645005
 30
0.0
 10
101.2809841326659
 20
-137.3077256601175
 30
0.0
 10
101.3526421187591
 20
-137.3115152651513
 30
0.0
 10
101.3526421187591
 20
-137.3115152651513
 30
0.0
 10
101.3526421187591
 20
-137.4892821921902
 30
0.0
 10
101.3526421187591
 20
-137.4892821921902
 30
0.0
 10
101.227929662193
 20
-137.4817029821226
 30
0.0
 10
100.8513807256552
 20
-137.4579318232744
 30
0.0
 10
100.8513807256552
 20
-137.0576117278884
 30
0.0
 10
100.8513807256552
 20
-136.8612412852291
 30
0.0
 10
100.9785047490609
 20
-136.6504014415318
 30
0.0
 10
101.2744384512439
 20
-136.6504014415318
 30
0.0
 10
101.4608181169959
 20
-136.6504014415318
 30
0.0
 10
101.5431558990934
 20
-136.7337727522749
 30
0.0
 10
101.6044785987308
 20
-136.8205891585032
 30
0.0
 10
101.6320393626128
 20
-136.7668456689333
 30
0.0
 10
101.7123100874192
 20
-136.6076822575147
 30
0.0
 10
101.9896402739818
 20
-136.6076822575147
 30
0.0
 10
102.3279486506333
 20
-136.6076822575147
 30
0.0
 10
102.4950357816679
 20
-136.824378763537
 30
0.0
 10
102.4950357816679
 20
-137.0669134856986
 30
0.0
  0
HATCH
  5
88
330
81
100
AcDbEntity
  8
_U+30EC_U+30A4_U+30E4_U+30FC 1
 62
   179
420
  2234388
100
AcDbHatch
 10
0.0
 20
0.0
 30
0.0
210
0.0
220
0.0
230
1.0
  2
SOLID
 70
     1
 71
     0
 91
        1
 92
        1
 93
        1
 72
     4
 94
        3
 73
     0
 74
     1
 95
       62
 96
       58
 40
0.0
 40
0.0
 40
0.0
 40
0.0
 40
1.0
 40
1.0
 40
1.0
 40
2.0
 40
2.0
 40
2.0
 40
3.0
 40
3.0
 40
3.0
 40
4.0
 40
4.0
 40
4.0
 40
5.0
 40
5.0
 40
5.0
 40
6.0
 40
6.0
 40
6.0
 40
7.0
 40
7.0
 40
7.0
 40
8.0
 40
8.0
 40
8.0
 40
9.0
 40
9.0
 40
9.0
 40
10.0
 40
10.0
 40
10.0
 40
11.0
 40
11.0
 40
11.0
 40
12.0
 40
12.0
 40
12.0
 40
13.0
 40
13.0
 40
13.0
 40
14.0
 40
14.0
 40
14.0
 40
15.0
 40
15.0
 40
15.0
 40
16.0
 40
16.0
 40
16.0
 40
17.0
 40
17.0
 40
17.0
 40
18.0
 40
18.0
 40
18.0
 40
19.0
 40
19.0
 40
19.0
 40
19.0
 10
102.4950357816679
 20
-137.0669134856986
 10
102.4950357816679
 20
-137.1502847964416
 10
102.4740206992079
 20
-137.3411430863245
 10
102.2879855430044
 20
-137.4503526132069
 10
102.1756754301853
 20
-137.5151204083296
 10
102.0764566802101
 20
-137.5189100133633
 10
101.9917073312729
 20
-137.5226996183971
 10
101.9917073312729
 20
-137.5226996183971
 10
101.9917073312729
 20
-137.3297742712231
 10
101.9917073312729
 20
-137.3297742712231
 10
102.0657768842058
 20
-137.3280517234805
 10
102.3003878867513
 20
-137.3187499656703
 10
102.3003878867513
 20
-137.0707030907323
 10
102.3003878867513
 20
-136.9501247487486
 10
102.2307969579493
 20
-136.8171440630179
 10
102.0023871272772
 20
-136.8171440630179
 10
101.8859428998757
 20
-136.8171440630179
 10
101.8373670535337
 20
-136.8502169796763
 10
101.8056721750694
 20
-136.8781222531069
 10
101.7316026221365
 20
-136.9428900482296
 10
101.7188557688411
 20
-137.0448648745929
 10
101.7188557688411
 20
-137.0927517018379
 10
101.7188557688411
 20
-137.1096326697157
 10
101.7209228261323
 20
-137.1409830386314
 10
101.7250569407146
 20
-137.1650987070282
 10
101.7250569407146
 20
-137.1650987070282
 10
101.530409045798
 20
-137.1650987070282
 10
101.530409045798
 20
-137.1650987070282
 10
101.5369547272199
 20
-137.1320257903698
 10
101.5390217845111
 20
-137.0948187591291
 10
101.5390217845111
 20
-137.0893066063527
 10
101.5390217845111
 20
-137.031773511749
 10
101.5176621925025
 20
-136.8577961897439
 10
101.2809841326659
 20
-136.8577961897439
 10
101.103217205627
 20
-136.8577961897439
 10
101.048095677863
 20
-136.9725178694027
 10
101.048095677863
 20
-137.0686360334412
 10
101.048095677863
 20
-137.30014645005
 10
101.2809841326659
 20
-137.3077256601175
 10
101.3526421187591
 20
-137.3115152651513
 10
101.3526421187591
 20
-137.3115152651513
 10
101.3526421187591
 20
-137.4892821921902
 10
101.3526421187591
 20
-137.4892821921902
 10
101.227929662193
 20
-137.4817029821226
 10
100.8513807256552
 20
-137.4579318232744
 10
100.8513807256552
 20
-137.0576117278884
 10
100.8513807256552
 20
-136.8612412852291
 10
100.9785047490609
 20
-136.6504014415318
 10
101.2744384512439
 20
-136.6504014415318
 10
101.4608181169959
 20
-136.6504014415318
 10
101.5431558990934
 20
-136.7337727522749
 10
101.6044785987308
 20
-136.8205891585032
 10
101.6320393626128
 20
-136.7668456689333
 10
101.7123100874192
 20
-136.6076822575147
 10
101.9896402739818
 20
-136.6076822575147
 10
102.3279486506333
 20
-136.6076822575147
 10
102.4950357816679
 20
-136.824378763537
 10
102.4950357816679
 20
-137.0669134856986
 97
        0
 97
        0
 75
     2
 76
     1
 98
        0
  0
ENDBLK
  5
84
330
81
100
AcDbEntity
  8
0
100
AcDbBlockEnd
  0
ENDSEC
  0
SECTION
  2
ENTITIES
  0
INSERT
  5
42
330
1F
100
AcDbEntity
  8
_U+30EC_U+30A4_U+30E4_U+30FC 1
100
AcDbBlockReference
  2
block 2
 10
0.0
 20
0.0
 30
0.0
  0
ENDSEC
  0
SECTION
  2
OBJECTS
  0
DICTIONARY
  5
C
330
0
100
AcDbDictionary
281
     1
  3
ACAD_GROUP
350
D
  3
ACAD_LAYOUT
350
1A
  3
ACAD_MATERIAL
350
3B
  3
ACAD_MLEADERSTYLE
350
91
  3
ACAD_MLINESTYLE
350
17
  3
ACAD_PLOTSETTINGS
350
19
  3
ACAD_PLOTSTYLENAME
350
E
  3
ACAD_TABLESTYLE
350
90
  3
ACAD_VISUALSTYLE
350
2A
  0
SUN
  5
3F
330
29
100
AcDbSun
 90
        1
290
     0
 63
     7
421
 16777215
 40
1.0
291
     1
 91
  2455826
 92
 54000000
292
     0
 70
     2
 71
   256
280
     1
  0
DICTIONARY
  5
D
102
{ACAD_REACTORS
330
C
102
}
330
C
100
AcDbDictionary
281
     1
  0
DICTIONARY
  5
1A
102
{ACAD_REACTORS
330
C
102
}
330
C
100
AcDbDictionary
281
     1
  3
Layout1
350
1E
  3
Layout2
350
26
  3
Model
350
22
  0
DICTIONARY
  5
3B
102
{ACAD_REACTORS
330
C
102
}
330
C
100
AcDbDictionary
281
     1
  3
ByBlock
350
3D
  3
ByLayer
350
3C
  3
Global
350
3E
  0
DICTIONARY
  5
91
102
{ACAD_REACTORS
330
C
102
}
330
C
100
AcDbDictionary
281
     1
  0
DICTIONARY
  5
17
102
{ACAD_REACTORS
330
C
102
}
330
C
100
AcDbDictionary
281
     1
  3
Standard
350
18
  0
DICTIONARY
  5
19
102
{ACAD_REACTORS
330
C
102
}
330
C
100
AcDbDictionary
281
     1
  0
ACDBDICTIONARYWDFLT
  5
E
102
{ACAD_REACTORS
330
C
102
}
330
C
100
AcDbDictionary
281
     1
  3
Normal
350
F
100
AcDbDictionaryWithDefault
340
F
  0
DICTIONARY
  5
90
102
{ACAD_REACTORS
330
C
102
}
330
C
100
AcDbDictionary
281
     1
  0
DICTIONARY
  5
2A
102
{ACAD_REACTORS
330
C
102
}
330
C
100
AcDbDictionary
281
     1
  3
2dWireframe
350
2F
  3
3D Hidden
350
31
  3
3dWireframe
350
30
  3
Basic
350
32
  3
Brighten
350
36
  3
ColorChange
350
3A
  3
Conceptual
350
34
  3
Dim
350
35
  3
Facepattern
350
39
  3
Flat
350
2B
  3
FlatWithEdges
350
2C
  3
Gouraud
350
2D
  3
GouraudWithEdges
350
2E
  3
Linepattern
350
38
  3
Realistic
350
33
  3
Thicken
350
37
  0
LAYOUT
  5
1E
102
{ACAD_REACTORS
330
1A
102
}
330
1A
100
AcDbPlotSettings
  1

  2
none_device
  4

  6

 40
0.0
 41
0.0
 42
0.0
 43
0.0
 44
0.0
 45
0.0
 46
0.0
 47
0.0
 48
0.0
 49
0.0
140
0.0
141
0.0
142
1.0
143
1.0
 70
   688
 72
     0
 73
     0
 74
     5
  7

 75
    16
 76
     0
 77
     2
 78
   300
147
1.0
148
0.0
149
0.0
100
AcDbLayout
  1
Layout1
 70
     1
 71
     1
 10
0.0
 20
0.0
 11
12.0
 21
9.0
 12
0.0
 22
0.0
 32
0.0
 14
1.000000000000000E+20
 24
1.000000000000000E+20
 34
1.000000000000000E+20
 15
-1.000000000000000E+20
 25
-1.000000000000000E+20
 35
-1.000000000000000E+20
146
0.0
 13
0.0
 23
0.0
 33
0.0
 16
1.0
 26
0.0
 36
0.0
 17
0.0
 27
1.0
 37
0.0
 76
     0
330
1B
  0
LAYOUT
  5
26
102
{ACAD_REACTORS
330
1A
102
}
330
1A
100
AcDbPlotSettings
  1

  2
none_device
  4

  6

 40
0.0
 41
0.0
 42
0.0
 43
0.0
 44
0.0
 45
0.0
 46
0.0
 47
0.0
 48
0.0
 49
0.0
140
0.0
141
0.0
142
1.0
143
1.0
 70
   688
 72
     0
 73
     0
 74
     5
  7

 75
    16
 76
     0
 77
     2
 78
   300
147
1.0
148
0.0
149
0.0
100
AcDbLayout
  1
Layout2
 70
     1
 71
     2
 10
0.0
 20
0.0
 11
0.0
 21
0.0
 12
0.0
 22
0.0
 32
0.0
 14
0.0
 24
0.0
 34
0.0
 15
0.0
 25
0.0
 35
0.0
146
0.0
 13
0.0
 23
0.0
 33
0.0
 16
1.0
 26
0.0
 36
0.0
 17
0.0
 27
1.0
 37
0.0
 76
     0
330
23
  0
LAYOUT
  5
22
102
{ACAD_REACTORS
330
1A
102
}
330
1A
100
AcDbPlotSettings
  1

  2
none_device
  4

  6

 40
0.0
 41
0.0
 42
0.0
 43
0.0
 44
0.0
 45
0.0
 46
0.0
 47
0.0
 48
0.0
 49
0.0
140
0.0
141
0.0
142
1.0
143
1.0
 70
  1712
 72
     0
 73
     0
 74
     0
  7

 75
     0
 76
     0
 77
     2
 78
   300
147
1.0
148
0.0
149
0.0
100
AcDbLayout
  1
Model
 70
     1
 71
     0
 10
0.0
 20
0.0
 11
12.0
 21
9.0
 12
0.0
 22
0.0
 32
0.0
 14
1.000000000000000E+20
 24
1.000000000000000E+20
 34
1.000000000000000E+20
 15
-1.000000000000000E+20
 25
-1.000000000000000E+20
 35
-1.000000000000000E+20
146
0.0
 13
0.0
 23
0.0
 33
0.0
 16
1.0
 26
0.0
 36
0.0
 17
0.0
 27
1.0
 37
0.0
 76
     0
330
1F
331
29
  0
MATERIAL
  5
3D
102
{ACAD_REACTORS
330
3B
102
}
330
3B
100
AcDbMaterial
  1
ByBlock
 72
     1
 94
      127
  0
MATERIAL
  5
3C
102
{ACAD_REACTORS
330
3B
102
}
330
3B
100
AcDbMaterial
  1
ByLayer
 72
     1
 94
      127
  0
MATERIAL
  5
3E
102
{ACAD_REACTORS
330
3B
102
}
330
3B
100
AcDbMaterial
  1
Global
 72
     1
 94
      127
  0
MLINESTYLE
  5
18
102
{ACAD_REACTORS
330
17
102
}
330
17
100
AcDbMlineStyle
  2
Standard
 70
     0
  3

 62
   256
 51
90.0
 52
90.0
 71
     2
 49
0.5
 62
   256
  6
BYLAYER
 49
-0.5
 62
   256
  6
BYLAYER
  0
ACDBPLACEHOLDER
  5
F
102
{ACAD_REACTORS
330
E
102
}
330
E
  0
VISUALSTYLE
  5
2F
102
{ACAD_REACTORS
330
2A
102
}
330
2A
100
AcDbVisualStyle
  2
2dWireframe
 70
     4
177
     2
291
     0
 71
     0
176
     1
 72
     2
176
     1
 73
     0
176
     1
 90
        0
176
     1
 40
-0.6
176
     1
 41
-30.0
176
     1
 62
     5
 63
     7
421
 16777215
176
     1
 74
     1
176
     1
 91
        4
176
     1
 64
     7
176
     1
 65
   257
176
     1
 75
     1
176
     1
175
     1
176
     1
 42
1.0
176
     1
 92
        0
176
     1
 66
   257
176
     1
 43
1.0
176
     1
 76
     1
176
     1
 77
     6
176
     1
 78
     2
176
     1
 67
     7
176
     1
 79
     5
176
     1
170
     0
176
     1
171
     0
176
     1
290
     0
176
     1
 93
        1
176
     1
 44
0.0
176
     1
173
     0
176
     1
  0
VISUALSTYLE
  5
31
102
{ACAD_REACTORS
330
2A
102
}
330
2A
100
AcDbVisualStyle
  2
3D Hidden
 70
     6
177
     2
291
     0
 71
     1
176
     1
 72
     2
176
     1
 73
     2
176
     1
 90
        0
176
     1
 40
-0.6
176
     1
 41
-30.0
176
     1
 62
     5
 63
     7
421
 16777215
176
     1
 74
     2
176
     1
 91
        2
176
     1
 64
     7
176
     1
 65
   257
176
     1
 75
     2
176
     1
175
     1
176
     1
 42
40.0
176
     1
 92
        0
176
     1
 66
   257
176
     1
 43
1.0
176
     1
 76
     1
176
     1
 77
     6
176
     1
 78
     2
176
     1
 67
     7
176
     1
 79
     3
176
     1
170
     0
176
     1
171
     0
176
     1
290
     0
176
     1
 93
        1
176
     1
 44
0.0
176
     1
173
     0
176
     1
  0
VISUALSTYLE
  5
30
102
{ACAD_REACTORS
330
2A
102
}
330
2A
100
AcDbVisualStyle
  2
3dWireframe
 70
     5
177
     2
291
     0
 71
     0
176
     1
 72
     2
176
     1
 73
     0
176
     1
 90
        0
176
     1
 40
-0.6
176
     1
 41
-30.0
176
     1
 62
     5
 63
     7
421
 16777215
176
     1
 74
     1
176
     1
 91
        4
176
     1
 64
     7
176
     1
 65
   257
176
     1
 75
     1
176
     1
175
     1
176
     1
 42
1.0
176
     1
 92
        0
176
     1
 66
   257
176
     1
 43
1.0
176
     1
 76
     1
176
     1
 77
     6
176
     1
 78
     2
176
     1
 67
     7
176
     1
 79
     5
176
     1
170
     0
176
     1
171
     0
176
     1
290
     0
176
     1
 93
        1
176
     1
 44
0.0
176
     1
173
     0
176
     1
  0
VISUALSTYLE
  5
32
102
{ACAD_REACTORS
330
2A
102
}
330
2A
100
AcDbVisualStyle
  2
Basic
 70
     7
177
     2
291
     1
 71
     1
176
     1
 72
     0
176
     1
 73
     1
176
     1
 90
        0
176
     1
 40
-0.6
176
     1
 41
-30.0
176
     1
 62
     5
 63
     7
421
 16777215
176
     1
 74
     0
176
     1
 91
        4
176
     1
 64
     7
176
     1
 65
   257
176
     1
 75
     1
176
     1
175
     1
176
     1
 42
1.0
176
     1
 92
        8
176
     1
 66
     7
176
     1
 43
1.0
176
     1
 76
     1
176
     1
 77
     6
176
     1
 78
     2
176
     1
 67
     7
176
     1
 79
     5
176
     1
170
     0
176
     1
171
     0
176
     1
290
     0
176
     1
 93
        1
176
     1
 44
0.0
176
     1
173
     0
176
     1
  0
VISUALSTYLE
  5
36
102
{ACAD_REACTORS
330
2A
102
}
330
2A
100
AcDbVisualStyle
  2
Brighten
 70
    12
177
     2
291
     1
 71
     2
176
     1
 72
     2
176
     1
 73
     0
176
     1
 90
        0
176
     1
 40
-0.6
176
     1
 41
-30.0
176
     1
 62
     5
 63
     7
421
 16777215
176
     1
 74
     1
176
     1
 91
        4
176
     1
 64
     7
176
     1
 65
   257
176
     1
 75
     1
176
     1
175
     1
176
     1
 42
1.0
176
     1
 92
        8
176
     1
 66
     7
176
     1
 43
1.0
176
     1
 76
     1
176
     1
 77
     6
176
     1
 78
     2
176
     1
 67
     7
176
     1
 79
     5
176
     1
170
     0
176
     1
171
     0
176
     1
290
     0
176
     1
 93
        1
176
     1
 44
50.0
176
     1
173
     0
176
     1
  0
VISUALSTYLE
  5
3A
102
{ACAD_REACTORS
330
2A
102
}
330
2A
100
AcDbVisualStyle
  2
ColorChange
 70
    16
177
     2
291
     1
 71
     2
176
     1
 72
     2
176
     1
 73
     3
176
     1
 90
        0
176
     1
 40
-0.6
176
     1
 41
-30.0
176
     1
 62
     5
 63
     8
421
  8421504
176
     1
 74
     1
176
     1
 91
        4
176
     1
 64
     7
176
     1
 65
   257
176
     1
 75
     1
176
     1
175
     1
176
     1
 42
1.0
176
     1
 92
        8
176
     1
 66
     8
424
  8421504
176
     1
 43
1.0
176
     1
 76
     1
176
     1
 77
     6
176
     1
 78
     2
176
     1
 67
     7
176
     1
 79
     5
176
     1
170
     0
176
     1
171
     0
176
     1
290
     0
176
     1
 93
        1
176
     1
 44
0.0
176
     1
173
     0
176
     1
  0
VISUALSTYLE
  5
34
102
{ACAD_REACTORS
330
2A
102
}
330
2A
100
AcDbVisualStyle
  2
Conceptual
 70
     9
177
     2
291
     0
 71
     3
176
     1
 72
     2
176
     1
 73
     0
176
     1
 90
        0
176
     1
 40
-0.6
176
     1
 41
-30.0
176
     1
 62
     5
 63
     7
421
 16777215
176
     1
 74
     2
176
     1
 91
        2
176
     1
 64
     7
176
     1
 65
   257
176
     1
 75
     1
176
     1
175
     1
176
     1
 42
40.0
176
     1
 92
        8
176
     1
 66
     7
176
     1
 43
1.0
176
     1
 76
     1
176
     1
 77
     6
176
     1
 78
     2
176
     1
 67
     7
176
     1
 79
     3
176
     1
170
     0
176
     1
171
     0
176
     1
290
     0
176
     1
 93
        1
176
     1
 44
0.0
176
     1
173
     0
176
     1
  0
VISUALSTYLE
  5
35
102
{ACAD_REACTORS
330
2A
102
}
330
2A
100
AcDbVisualStyle
  2
Dim
 70
    11
177
     2
291
     1
 71
     2
176
     1
 72
     2
176
     1
 73
     0
176
     1
 90
        0
176
     1
 40
-0.6
176
     1
 41
-30.0
176
     1
 62
     5
 63
     7
421
 16777215
176
     1
 74
     1
176
     1
 91
        4
176
     1
 64
     7
176
     1
 65
   257
176
     1
 75
     1
176
     1
175
     1
176
     1
 42
1.0
176
     1
 92
        8
176
     1
 66
     7
176
     1
 43
1.0
176
     1
 76
     1
176
     1
 77
     6
176
     1
 78
     2
176
     1
 67
     7
176
     1
 79
     5
176
     1
170
     0
176
     1
171
     0
176
     1
290
     0
176
     1
 93
        1
176
     1
 44
-50.0
176
     1
173
     0
176
     1
  0
VISUALSTYLE
  5
39
102
{ACAD_REACTORS
330
2A
102
}
330
2A
100
AcDbVisualStyle
  2
Facepattern
 70
    15
177
     2
291
     1
 71
     2
176
     1
 72
     2
176
     1
 73
     0
176
     1
 90
        0
176
     1
 40
-0.6
176
     1
 41
-30.0
176
     1
 62
     5
 63
     7
421
 16777215
176
     1
 74
     1
176
     1
 91
        4
176
     1
 64
     7
176
     1
 65
   257
176
     1
 75
     1
176
     1
175
     1
176
     1
 42
1.0
176
     1
 92
        8
176
     1
 66
     7
176
     1
 43
1.0
176
     1
 76
     1
176
     1
 77
     6
176
     1
 78
     2
176
     1
 67
     7
176
     1
 79
     5
176
     1
170
     0
176
     1
171
     0
176
     1
290
     0
176
     1
 93
        1
176
     1
 44
0.0
176
     1
173
     0
176
     1
  0
VISUALSTYLE
  5
2B
102
{ACAD_REACTORS
330
2A
102
}
330
2A
100
AcDbVisualStyle
  2
Flat
 70
     0
177
     2
291
     1
 71
     2
176
     1
 72
     1
176
     1
 73
     1
176
     1
 90
        2
176
     1
 40
-0.6
176
     1
 41
30.0
176
     1
 62
     5
 63
     7
421
 16777215
176
     1
 74
     0
176
     1
 91
        4
176
     1
 64
     7
176
     1
 65
   257
176
     1
 75
     1
176
     1
175
     1
176
     1
 42
1.0
176
     1
 92
        8
176
     1
 66
     7
176
     1
 43
1.0
176
     1
 76
     1
176
     1
 77
     6
176
     1
 78
     2
176
     1
 67
     7
176
     1
 79
     5
176
     1
170
     0
176
     1
171
     0
176
     1
290
     0
176
     1
 93
       13
176
     1
 44
0.0
176
     1
173
     0
176
     1
  0
VISUALSTYLE
  5
2C
102
{ACAD_REACTORS
330
2A
102
}
330
2A
100
AcDbVisualStyle
  2
FlatWithEdges
 70
     1
177
     2
291
     1
 71
     2
176
     1
 72
     1
176
     1
 73
     1
176
     1
 90
        2
176
     1
 40
-0.6
176
     1
 41
30.0
176
     1
 62
     5
 63
     7
421
 16777215
176
     1
 74
     1
176
     1
 91
        4
176
     1
 64
     7
176
     1
 65
   257
176
     1
 75
     1
176
     1
175
     1
176
     1
 42
1.0
176
     1
 92
        0
176
     1
 66
   257
176
     1
 43
1.0
176
     1
 76
     1
176
     1
 77
     6
176
     1
 78
     2
176
     1
 67
     7
176
     1
 79
     5
176
     1
170
     0
176
     1
171
     0
176
     1
290
     0
176
     1
 93
       13
176
     1
 44
0.0
176
     1
173
     0
176
     1
  0
VISUALSTYLE
  5
2D
102
{ACAD_REACTORS
330
2A
102
}
330
2A
100
AcDbVisualStyle
  2
Gouraud
 70
     2
177
     2
291
     1
 71
     2
176
     1
 72
     2
176
     1
 73
     1
176
     1
 90
        2
176
     1
 40
-0.6
176
     1
 41
30.0
176
     1
 62
     5
 63
     7
421
 16777215
176
     1
 74
     0
176
     1
 91
        4
176
     1
 64
     7
176
     1
 65
   257
176
     1
 75
     1
176
     1
175
     1
176
     1
 42
1.0
176
     1
 92
        0
176
     1
 66
     7
176
     1
 43
1.0
176
     1
 76
     1
176
     1
 77
     6
176
     1
 78
     2
176
     1
 67
     7
176
     1
 79
     5
176
     1
170
     0
176
     1
171
     0
176
     1
290
     0
176
     1
 93
       13
176
     1
 44
0.0
176
     1
173
     0
176
     1
  0
VISUALSTYLE
  5
2E
102
{ACAD_REACTORS
330
2A
102
}
330
2A
100
AcDbVisualStyle
  2
GouraudWithEdges
 70
     3
177
     2
291
     1
 71
     2
176
     1
 72
     2
176
     1
 73
     1
176
     1
 90
        2
176
     1
 40
-0.6
176
     1
 41
30.0
176
     1
 62
     5
 63
     7
421
 16777215
176
     1
 74
     1
176
     1
 91
        4
176
     1
 64
     7
176
     1
 65
   257
176
     1
 75
     1
176
     1
175
     1
176
     1
 42
1.0
176
     1
 92
        0
176
     1
 66
   257
176
     1
 43
1.0
176
     1
 76
     1
176
     1
 77
     6
176
     1
 78
     2
176
     1
 67
     7
176
     1
 79
     5
176
     1
170
     0
176
     1
171
     0
176
     1
290
     0
176
     1
 93
       13
176
     1
 44
0.0
176
     1
173
     0
176
     1
  0
VISUALSTYLE
  5
38
102
{ACAD_REACTORS
330
2A
102
}
330
2A
100
AcDbVisualStyle
  2
Linepattern
 70
    14
177
     2
291
     1
 71
     2
176
     1
 72
     2
176
     1
 73
     0
176
     1
 90
        0
176
     1
 40
-0.6
176
     1
 41
-30.0
176
     1
 62
     5
 63
     7
421
 16777215
176
     1
 74
     1
176
     1
 91
        4
176
     1
 64
     7
176
     1
 65
   257
176
     1
 75
     7
176
     1
175
     7
176
     1
 42
1.0
176
     1
 92
        8
176
     1
 66
     7
176
     1
 43
1.0
176
     1
 76
     1
176
     1
 77
     6
176
     1
 78
     2
176
     1
 67
     7
176
     1
 79
     5
176
     1
170
     0
176
     1
171
     0
176
     1
290
     0
176
     1
 93
        1
176
     1
 44
0.0
176
     1
173
     0
176
     1
  0
VISUALSTYLE
  5
33
102
{ACAD_REACTORS
330
2A
102
}
330
2A
100
AcDbVisualStyle
  2
Realistic
 70
     8
177
     2
291
     0
 71
     2
176
     1
 72
     2
176
     1
 73
     0
176
     1
 90
        0
176
     1
 40
-0.6
176
     1
 41
-30.0
176
     1
 62
     5
 63
     7
421
 16777215
176
     1
 74
     1
176
     1
 91
        0
176
     1
 64
     7
176
     1
 65
   257
176
     1
 75
     1
176
     1
175
     1
176
     1
 42
1.0
176
     1
 92
        8
176
     1
 66
     8
424
  7895160
176
     1
 43
1.0
176
     1
 76
     1
176
     1
 77
     6
176
     1
 78
     2
176
     1
 67
     7
176
     1
 79
     5
176
     1
170
     0
176
     1
171
     0
176
     1
290
     0
176
     1
 93
       13
176
     1
 44
0.0
176
     1
173
     0
176
     1
  0
VISUALSTYLE
  5
37
102
{ACAD_REACTORS
330
2A
102
}
330
2A
100
AcDbVisualStyle
  2
Thicken
 70
    13
177
     2
291
     1
 71
     2
176
     1
 72
     2
176
     1
 73
     0
176
     1
 90
        0
176
     1
 40
-0.6
176
     1
 41
-30.0
176
     1
 62
     5
 63
     7
421
 16777215
176
     1
 74
     1
176
     1
 91
        4
176
     1
 64
     7
176
     1
 65
   257
176
     1
 75
     1
176
     1
175
     1
176
     1
 42
1.0
176
     1
 92
       12
176
     1
 66
     7
176
     1
 43
1.0
176
     1
 76
     1
176
     1
 77
     6
176
     1
 78
     2
176
     1
 67
     7
176
     1
 79
     5
176
     1
170
     0
176
     1
171
     0
176
     1
290
     0
176
     1
 93
        1
176
     1
 44
0.0
176
     1
173
     0
176
     1
  0
ENDSEC
  0
EOF
