  0
SECTION
  2
HEADER
  9
$ACADVER
  1
AC1024
  9
$ACADMAINTVER
 70
     6
  9
$DWGCODEPAGE
  3
UNDEFINED
  9
$INSBASE
 10
0.0
 20
0.0
 30
0.0
  9
$EXTMIN
 10
1.000000000000000E+20
 20
1.000000000000000E+20
 30
1.000000000000000E+20
  9
$EXTMAX
 10
-1.000000000000000E+20
 20
-1.000000000000000E+20
 30
-1.000000000000000E+20
  9
$LIMMIN
 10
0.0
 20
0.0
  9
$LIMMAX
 10
12.0
 20
9.0
  9
$ORTHOMODE
 70
     0
  9
$REGENMODE
 70
     1
  9
$FILLMODE
 70
     1
  9
$QTEXTMODE
 70
     0
  9
$MIRRTEXT
 70
     1
  9
$LTSCALE
 40
1.0
  9
$ATTMODE
 70
     1
  9
$TEXTSIZE
 40
0.2
  9
$TRACEWID
 40
0.05
  9
$TEXTSTYLE
  7
Standard
  9
$CLAYER
  8
0
  9
$CELTYPE
  6
ByLayer
  9
$CECOLOR
 62
   256
  9
$CELTSCALE
 40
1.0
  9
$DISPSILH
 70
     0
  9
$DIMSCALE
 40
1.0
  9
$DIMASZ
 40
0.18
  9
$DIMEXO
 40
0.0625
  9
$DIMDLI
 40
0.38
  9
$DIMRND
 40
0.0
  9
$DIMDLE
 40
0.0
  9
$DIMEXE
 40
0.18
  9
$DIMTP
 40
0.0
  9
$DIMTM
 40
0.0
  9
$DIMTXT
 40
0.18
  9
$DIMCEN
 40
0.09
  9
$DIMTSZ
 40
0.0
  9
$DIMTOL
 70
     0
  9
$DIMLIM
 70
     0
  9
$DIMTIH
 70
     1
  9
$DIMTOH
 70
     1
  9
$DIMSE1
 70
     0
  9
$DIMSE2
 70
     0
  9
$DIMTAD
 70
     0
  9
$DIMZIN
 70
     0
  9
$DIMBLK
  1

  9
$DIMASO
 70
     1
  9
$DIMSHO
 70
     1
  9
$DIMPOST
  1

  9
$DIMAPOST
  1

  9
$DIMALT
 70
     0
  9
$DIMALTD
 70
     2
  9
$DIMALTF
 40
25.4
  9
$DIMLFAC
 40
1.0
  9
$DIMTOFL
 70
     0
  9
$DIMTVP
 40
0.0
  9
$DIMTIX
 70
     0
  9
$DIMSOXD
 70
     0
  9
$DIMSAH
 70
     0
  9
$DIMBLK1
  1

  9
$DIMBLK2
  1

  9
$DIMSTYLE
  2
Standard
  9
$DIMCLRD
 70
     0
  9
$DIMCLRE
 70
     0
  9
$DIMCLRT
 70
     0
  9
$DIMTFAC
 40
1.0
  9
$DIMGAP
 40
0.09
  9
$DIMJUST
 70
     0
  9
$DIMSD1
 70
     0
  9
$DIMSD2
 70
     0
  9
$DIMTOLJ
 70
     1
  9
$DIMTZIN
 70
     0
  9
$DIMALTZ
 70
     0
  9
$DIMALTTZ
 70
     0
  9
$DIMUPT
 70
     0
  9
$DIMDEC
 70
     4
  9
$DIMTDEC
 70
     4
  9
$DIMALTU
 70
     2
  9
$DIMALTTD
 70
     2
  9
$DIMTXSTY
  7
Standard
  9
$DIMAUNIT
 70
     0
  9
$DIMADEC
 70
     0
  9
$DIMALTRND
 40
0.0
  9
$DIMAZIN
 70
     0
  9
$DIMDSEP
 70
    46
  9
$DIMATFIT
 70
     3
  9
$DIMFRAC
 70
     0
  9
$DIMLDRBLK
  1

  9
$DIMLUNIT
 70
     2
  9
$DIMLWD
 70
    -2
  9
$DIMLWE
 70
    -2
  9
$DIMTMOVE
 70
     0
  9
$DIMFXL
 40
1.0
  9
$DIMFXLON
 70
     0
  9
$DIMJOGANG
 40
0.7853981633974483
  9
$DIMTFILL
 70
     0
  9
$DIMTFILLCLR
 70
     0
  9
$DIMARCSYM
 70
     0
  9
$DIMLTYPE
  6

  9
$DIMLTEX1
  6

  9
$DIMLTEX2
  6

  9
$DIMTXTDIRECTION
 70
     0
  9
$LUNITS
 70
     2
  9
$LUPREC
 70
     4
  9
$SKETCHINC
 40
0.1
  9
$FILLETRAD
 40
0.5
  9
$AUNITS
 70
     0
  9
$AUPREC
 70
     0
  9
$MENU
  1
.
  9
$ELEVATION
 40
0.0
  9
$PELEVATION
 40
0.0
  9
$THICKNESS
 40
0.0
  9
$LIMCHECK
 70
     0
  9
$CHAMFERA
 40
0.5
  9
$CHAMFERB
 40
0.5
  9
$CHAMFERC
 40
1.0
  9
$CHAMFERD
 40
0.0
  9
$SKPOLY
 70
     0
  9
$TDCREATE
 40
2457917.584872685
  9
$TDUCREATE
 40
2457917.209872685
  9
$TDUPDATE
 40
2457917.584872685
  9
$TDUUPDATE
 40
2457917.209872685
  9
$TDINDWG
 40
0.0000000116
  9
$TDUSRTIMER
 40
0.0000000116
  9
$USRTIMER
 70
     1
  9
$ANGBASE
 50
0.0
  9
$ANGDIR
 70
     0
  9
$PDMODE
 70
     0
  9
$PDSIZE
 40
0.0
  9
$PLINEWID
 40
0.0
  9
$SPLFRAME
 70
     0
  9
$SPLINETYPE
 70
     6
  9
$SPLINESEGS
 70
     8
  9
$HANDSEED
  5
93
  9
$SURFTAB1
 70
     6
  9
$SURFTAB2
 70
     6
  9
$SURFTYPE
 70
     6
  9
$SURFU
 70
     6
  9
$SURFV
 70
     6
  9
$UCSBASE
  2

  9
$UCSNAME
  2

  9
$UCSORG
 10
0.0
 20
0.0
 30
0.0
  9
$UCSXDIR
 10
1.0
 20
0.0
 30
0.0
  9
$UCSYDIR
 10
0.0
 20
1.0
 30
0.0
  9
$UCSORTHOREF
  2

  9
$UCSORTHOVIEW
 70
     0
  9
$UCSORGTOP
 10
0.0
 20
0.0
 30
0.0
  9
$UCSORGBOTTOM
 10
0.0
 20
0.0
 30
0.0
  9
$UCSORGLEFT
 10
0.0
 20
0.0
 30
0.0
  9
$UCSORGRIGHT
 10
0.0
 20
0.0
 30
0.0
  9
$UCSORGFRONT
 10
0.0
 20
0.0
 30
0.0
  9
$UCSORGBACK
 10
0.0
 20
0.0
 30
0.0
  9
$PUCSBASE
  2

  9
$PUCSNAME
  2

  9
$PUCSORG
 10
0.0
 20
0.0
 30
0.0
  9
$PUCSXDIR
 10
1.0
 20
0.0
 30
0.0
  9
$PUCSYDIR
 10
0.0
 20
1.0
 30
0.0
  9
$PUCSORTHOREF
  2

  9
$PUCSORTHOVIEW
 70
     0
  9
$PUCSORGTOP
 10
0.0
 20
0.0
 30
0.0
  9
$PUCSORGBOTTOM
 10
0.0
 20
0.0
 30
0.0
  9
$PUCSORGLEFT
 10
0.0
 20
0.0
 30
0.0
  9
$PUCSORGRIGHT
 10
0.0
 20
0.0
 30
0.0
  9
$PUCSORGFRONT
 10
0.0
 20
0.0
 30
0.0
  9
$PUCSORGBACK
 10
0.0
 20
0.0
 30
0.0
  9
$USERI1
 70
     0
  9
$USERI2
 70
     0
  9
$USERI3
 70
     0
  9
$USERI4
 70
     0
  9
$USERI5
 70
     0
  9
$USERR1
 40
0.0
  9
$USERR2
 40
0.0
  9
$USERR3
 40
0.0
  9
$USERR4
 40
0.0
  9
$USERR5
 40
0.0
  9
$WORLDVIEW
 70
     1
  9
$SHADEDGE
 70
     3
  9
$SHADEDIF
 70
    70
  9
$TILEMODE
 70
     1
  9
$MAXACTVP
 70
    64
  9
$PINSBASE
 10
0.0
 20
0.0
 30
0.0
  9
$PLIMCHECK
 70
     0
  9
$PEXTMIN
 10
1.000000000000000E+20
 20
1.000000000000000E+20
 30
1.000000000000000E+20
  9
$PEXTMAX
 10
-1.000000000000000E+20
 20
-1.000000000000000E+20
 30
-1.000000000000000E+20
  9
$PLIMMIN
 10
0.0
 20
0.0
  9
$PLIMMAX
 10
12.0
 20
9.0
  9
$UNITMODE
 70
     0
  9
$VISRETAIN
 70
     1
  9
$PLINEGEN
 70
     0
  9
$PSLTSCALE
 70
     1
  9
$TREEDEPTH
 70
  3020
  9
$CMLSTYLE
  2
Standard
  9
$CMLJUST
 70
     0
  9
$CMLSCALE
 40
1.0
  9
$PROXYGRAPHICS
 70
     1
  9
$MEASUREMENT
 70
     0
  9
$CELWEIGHT
370
    -1
  9
$ENDCAPS
280
     0
  9
$JOINSTYLE
280
     0
  9
$LWDISPLAY
290
     1
  9
$INSUNITS
 70
     1
  9
$HYPERLINKBASE
  1

  9
$STYLESHEET
  1

  9
$XEDIT
290
     1
  9
$CEPSNTYPE
380
     0
  9
$PSTYLEMODE
290
     1
  9
$FINGERPRINTGUID
  2
{27A1E43B-D9B7-10A9-5BA2-A9C211F30786}
  9
$VERSIONGUID
  2
{FAEB1C32-E019-11D5-929B-00C0DF256EC4}
  9
$EXTNAMES
290
     1
  9
$PSVPSCALE
 40
0.0
  9
$OLESTARTUP
290
     0
  9
$SORTENTS
280
   127
  9
$INDEXCTL
280
     0
  9
$HIDETEXT
280
     1
  9
$XCLIPFRAME
280
     2
  9
$HALOGAP
280
     0
  9
$OBSCOLOR
 70
   257
  9
$OBSLTYPE
280
     0
  9
$INTERSECTIONDISPLAY
280
     0
  9
$INTERSECTIONCOLOR
 70
   257
  9
$DIMASSOC
280
     2
  9
$PROJECTNAME
  1

  9
$CAMERADISPLAY
290
     0
  9
$LENSLENGTH
 40
50.0
  9
$CAMERAHEIGHT
 40
0.0
  9
$STEPSPERSEC
 40
2.0
  9
$STEPSIZE
 40
6.0
  9
$3DDWFPREC
 40
2.0
  9
$PSOLWIDTH
 40
0.25
  9
$PSOLHEIGHT
 40
4.0
  9
$LOFTANG1
 40
1.570796326794897
  9
$LOFTANG2
 40
1.570796326794897
  9
$LOFTMAG1
 40
0.0
  9
$LOFTMAG2
 40
0.0
  9
$LOFTPARAM
 70
     7
  9
$LOFTNORMALS
280
     1
  9
$LATITUDE
 40
37.795
  9
$LONGITUDE
 40
-122.394
  9
$NORTHDIRECTION
 40
0.0
  9
$TIMEZONE
 70
 -8000
  9
$LIGHTGLYPHDISPLAY
280
     1
  9
$TILEMODELIGHTSYNCH
280
     1
  9
$CMATERIAL
347
3C
  9
$SOLIDHIST
280
     1
  9
$SHOWHIST
280
     1
  9
$DWFFRAME
280
     2
  9
$DGNFRAME
280
     2
  9
$REALWORLDSCALE
290
     1
  9
$INTERFERECOLOR
 62
   256
  9
$CSHADOW
280
     0
  9
$SHADOWPLANELOCATION
 40
0.0
  0
ENDSEC
  0
SECTION
  2
CLASSES
  0
CLASS
  1
ACDBDICTIONARYWDFLT
  2
AcDbDictionaryWithDefault
  3
ObjectDBX Classes
 90
        0
 91
        4
280
     0
281
     0
  0
CLASS
  1
VISUALSTYLE
  2
AcDbVisualStyle
  3
ObjectDBX Classes
 90
     4095
 91
        4
280
     0
281
     0
  0
CLASS
  1
MATERIAL
  2
AcDbMaterial
  3
ObjectDBX Classes
 90
     1153
 91
        4
280
     0
281
     0
  0
CLASS
  1
SUN
  2
AcDbSun
  3
SCENEOE
 90
     1024
 91
        4
280
     0
281
     0
  0
ENDSEC
  0
SECTION
  2
TABLES
  0
TABLE
  2
VPORT
  5
8
330
0
100
AcDbSymbolTable
 70
     1
  0
VPORT
  5
29
330
8
100
AcDbSymbolTableRecord
100
AcDbViewportTableRecord
  2
*Active
 70
     0
 10
0.0
 20
0.0
 11
1.0
 21
1.0
 12
0.0
 22
0.0
 13
0.0
 23
0.0
 14
0.5
 24
0.5
 15
0.5
 25
0.5
 16
0.0
 26
0.0
 36
1.0
 17
91.00082462281999
 27
-128.4993055234307
 37
0.0
 40
256.9986110468615
 41
0.7081814508812795
 42
50.0
 43
0.0
 44
0.0
 50
0.0
 51
0.0
 71
     0
 72
   100
 73
     1
 74
     3
 75
     0
 76
     0
 77
     0
 78
     0
281
     0
 65
     1
110
0.0
120
0.0
130
0.0
111
1.0
121
0.0
131
0.0
112
0.0
122
1.0
132
0.0
 79
     0
146
0.0
 60
     3
 61
     5
292
     1
282
     1
141
0.0
142
0.0
 63
   250
361
3F
  0
ENDTAB
  0
TABLE
  2
LTYPE
  5
5
330
0
100
AcDbSymbolTable
 70
     1
  0
LTYPE
  5
14
330
5
100
AcDbSymbolTableRecord
100
AcDbLinetypeTableRecord
  2
ByBlock
 70
     0
  3

 72
    65
 73
     0
 40
0.0
  0
LTYPE
  5
15
330
5
100
AcDbSymbolTableRecord
100
AcDbLinetypeTableRecord
  2
ByLayer
 70
     0
  3

 72
    65
 73
     0
 40
0.0
  0
LTYPE
  5
16
330
5
100
AcDbSymbolTableRecord
100
AcDbLinetypeTableRecord
  2
Continuous
 70
     0
  3
Solid line
 72
    65
 73
     0
 40
0.0
  0
ENDTAB
  0
TABLE
  2
LAYER
  5
2
330
0
100
AcDbSymbolTable
 70
     2
  0
LAYER
  5
10
330
2
100
AcDbSymbolTableRecord
100
AcDbLayerTableRecord
  2
0
 70
     0
 62
     7
  6
Continuous
370
    -3
390
F
347
3E
  0
LAYER
  5
40
330
2
100
AcDbSymbolTableRecord
100
AcDbLayerTableRecord
  2
_U+30EC_U+30A4_U+30E4_U+30FC 1
 70
     0
 62
     7
  6
Continuous
370
    -3
390
F
347
3E
  0
ENDTAB
  0
TABLE
  2
STYLE
  5
3
330
0
100
AcDbSymbolTable
 70
     1
  0
STYLE
  5
11
330
3
100
AcDbSymbolTableRecord
100
AcDbTextStyleTableRecord
  2
Standard
 70
     0
 40
0.0
 41
1.0
 50
0.0
 71
     0
 42
0.2
  3
txt
  4

  0
ENDTAB
  0
TABLE
  2
VIEW
  5
6
330
0
100
AcDbSymbolTable
 70
     0
  0
ENDTAB
  0
TABLE
  2
UCS
  5
7
330
0
100
AcDbSymbolTable
 70
     0
  0
ENDTAB
  0
TABLE
  2
APPID
  5
9
330
0
100
AcDbSymbolTable
 70
     1
  0
APPID
  5
12
330
9
100
AcDbSymbolTableRecord
100
AcDbRegAppTableRecord
  2
ACAD
 70
     0
  0
ENDTAB
  0
TABLE
  2
DIMSTYLE
  5
A
330
0
100
AcDbSymbolTable
 70
     1
100
AcDbDimStyleTable
  0
DIMSTYLE
105
27
330
A
100
AcDbSymbolTableRecord
100
AcDbDimStyleTableRecord
  2
Standard
 70
     0
178
     0
340
11
  0
ENDTAB
  0
TABLE
  2
BLOCK_RECORD
  5
1
330
0
100
AcDbSymbolTable
 70
     6
  0
BLOCK_RECORD
  5
1F
330
1
100
AcDbSymbolTableRecord
100
AcDbBlockTableRecord
  2
*Model_Space
340
22
 70
     0
280
     1
281
     0
  0
BLOCK_RECORD
  5
1B
330
1
100
AcDbSymbolTableRecord
100
AcDbBlockTableRecord
  2
*Paper_Space
340
1E
 70
     0
280
     1
281
     0
  0
BLOCK_RECORD
  5
23
330
1
100
AcDbSymbolTableRecord
100
AcDbBlockTableRecord
  2
*Paper_Space0
340
26
 70
     0
280
     1
281
     0
  0
BLOCK_RECORD
  5
41
330
1
100
AcDbSymbolTableRecord
100
AcDbBlockTableRecord
  2
block 2
340
0
102
{BLKREFS
331
42
102
}
 70
     0
280
     1
281
     0
  0
BLOCK_RECORD
  5
4F
330
1
100
AcDbSymbolTableRecord
100
AcDbBlockTableRecord
  2
block 3
340
0
102
{BLKREFS
331
50
102
}
 70
     0
280
     1
281
     0
  0
BLOCK_RECORD
  5
68
330
1
100
AcDbSymbolTableRecord
100
AcDbBlockTableRecord
  2
block 4
340
0
102
{BLKREFS
331
69
102
}
 70
     0
280
     1
281
     0
  0
BLOCK_RECORD
  5
70
330
1
100
AcDbSymbolTableRecord
100
AcDbBlockTableRecord
  2
block 5
340
0
102
{BLKREFS
331
71
102
}
 70
     0
280
     1
281
     0
  0
BLOCK_RECORD
  5
82
330
1
100
AcDbSymbolTableRecord
100
AcDbBlockTableRecord
  2
block 6
340
0
102
{BLKREFS
331
83
102
}
 70
     0
280
     1
281
     0
  0
ENDTAB
  0
ENDSEC
  0
SECTION
  2
BLOCKS
  0
BLOCK
  5
20
330
1F
100
AcDbEntity
  8
0
100
AcDbBlockBegin
  2
*Model_Space
 70
     0
 10
0.0
 20
0.0
 30
0.0
  3
*Model_Space
  1

  0
ENDBLK
  5
21
330
1F
100
AcDbEntity
  8
0
100
AcDbBlockEnd
  0
BLOCK
  5
1C
330
1B
100
AcDbEntity
 67
     1
  8
0
100
AcDbBlockBegin
  2
*Paper_Space
 70
     0
 10
0.0
 20
0.0
 30
0.0
  3
*Paper_Space
  1

  0
ENDBLK
  5
1D
330
1B
100
AcDbEntity
 67
     1
  8
0
100
AcDbBlockEnd
  0
BLOCK
  5
24
330
23
100
AcDbEntity
  8
0
100
AcDbBlockBegin
  2
*Paper_Space0
 70
     0
 10
0.0
 20
0.0
 30
0.0
  3
*Paper_Space0
  1

  0
ENDBLK
  5
25
330
23
100
AcDbEntity
  8
0
100
AcDbBlockEnd
  0
BLOCK
  5
43
330
41
100
AcDbEntity
  8
0
100
AcDbBlockBegin
  2
block 2
 70
     0
 10
0.0
 20
0.0
 30
0.0
  3
block 2
  1

  0
SPLINE
  5
45
330
41
100
AcDbEntity
  8
_U+30EC_U+30A4_U+30E4_U+30FC 1
 62
     7
420
 16777215
370
    25
100
AcDbSpline
210
0.0
220
0.0
230
1.0
 70
    11
 71
     3
 72
    89
 73
    85
 74
     0
 42
0.0000000001
 43
0.0000000001
 12
1.0
 22
0.0
 32
0.0
 13
1.0
 23
0.0
 33
0.0
 40
0.0
 40
0.0
 40
0.0
 40
0.0
 40
1.0
 40
1.0
 40
1.0
 40
2.0
 40
2.0
 40
2.0
 40
3.0
 40
3.0
 40
3.0
 40
4.0
 40
4.0
 40
4.0
 40
5.0
 40
5.0
 40
5.0
 40
6.0
 40
6.0
 40
6.0
 40
7.0
 40
7.0
 40
7.0
 40
8.0
 40
8.0
 40
8.0
 40
9.0
 40
9.0
 40
9.0
 40
10.0
 40
10.0
 40
10.0
 40
11.0
 40
11.0
 40
11.0
 40
12.0
 40
12.0
 40
12.0
 40
13.0
 40
13.0
 40
13.0
 40
14.0
 40
14.0
 40
14.0
 40
15.0
 40
15.0
 40
15.0
 40
16.0
 40
16.0
 40
16.0
 40
17.0
 40
17.0
 40
17.0
 40
18.0
 40
18.0
 40
18.0
 40
19.0
 40
19.0
 40
19.0
 40
20.0
 40
20.0
 40
20.0
 40
21.0
 40
21.0
 40
21.0
 40
22.0
 40
22.0
 40
22.0
 40
23.0
 40
23.0
 40
23.0
 40
24.0
 40
24.0
 40
24.0
 40
25.0
 40
25.0
 40
25.0
 40
26.0
 40
26.0
 40
26.0
 40
27.0
 40
27.0
 40
27.0
 40
28.0
 40
28.0
 40
28.0
 40
28.0
 10
83.74856036339622
 20
-108.2504255284929
 30
0.0
 10
83.74856036339622
 20
-108.2504255284929
 30
0.0
 10
84.80654089196045
 20
-108.2504255284929
 30
0.0
 10
84.80654089196045
 20
-108.2504255284929
 30
0.0
 10
84.80654089196045
 20
-108.2504255284929
 30
0.0
 10
84.92401588896341
 20
-122.2955671916484
 30
0.0
 10
84.92401588896341
 20
-122.2955671916484
 30
0.0
 10
84.92401588896341
 20
-122.2955671916484
 30
0.0
 10
85.21787977035521
 20
-124.0587505245408
 30
0.0
 10
83.51325759162152
 20
-124.0587505245408
 30
0.0
 10
83.51325759162152
 20
-124.0587505245408
 30
0.0
 10
75.69736029102167
 20
-124.1762255245116
 30
0.0
 10
75.69736029102167
 20
-124.1762255245116
 30
0.0
 10
75.69736029102167
 20
-124.1762255245116
 30
0.0
 10
74.87468253423215
 20
-123.9998366356668
 30
0.0
 10
74.93359642161802
 20
-124.8230435799053
 30
0.0
 10
74.93359642161802
 20
-124.8230435799053
 30
0.0
 10
74.99215753123511
 20
-129.230684412137
 30
0.0
 10
74.99215753123511
 20
-129.230684412137
 30
0.0
 10
74.99215753123511
 20
-129.230684412137
 30
0.0
 10
74.81608614683819
 20
-129.7002669120194
 30
0.0
 10
75.22746030300982
 20
-130.1701669119021
 30
0.0
 10
75.22746030300982
 20
-130.1701669119021
 30
0.0
 10
88.03907886504709
 20
-142.5704469088015
 30
0.0
 10
88.03907886504709
 20
-142.5704469088015
 30
0.0
 10
88.03907886504709
 20
-142.5704469088015
 30
0.0
 10
88.39079830051843
 20
-143.2170885753067
 30
0.0
 10
89.33165660984847
 20
-143.1581746864327
 30
0.0
 10
89.33165660984847
 20
-143.1581746864327
 30
0.0
 10
93.44511594934981
 20
-143.0989432975585
 30
0.0
 10
93.44511594934981
 20
-143.0989432975585
 30
0.0
 10
93.44511594934981
 20
-143.0989432975585
 30
0.0
 10
94.3852687031423
 20
-143.3349163530553
 30
0.0
 10
94.44453536829694
 20
-142.5115330199276
 30
0.0
 10
94.44453536829694
 20
-142.5115330199276
 30
0.0
 10
94.32706037129398
 20
-134.34289302197
 30
0.0
 10
94.32706037129398
 20
-134.34289302197
 30
0.0
 10
94.32706037129398
 20
-134.34289302197
 30
0.0
 10
94.32706037129398
 20
-133.1674021889307
 30
0.0
 10
95.85427061010938
 20
-133.1674021889307
 30
0.0
 10
95.85427061010938
 20
-133.1674021889307
 30
0.0
 10
110.1348910791137
 20
-133.1091938556116
 30
0.0
 10
110.1348910791137
 20
-133.1091938556116
 30
0.0
 10
110.1348910791137
 20
-133.1091938556116
 30
0.0
 10
110.1348910791137
 20
-133.9312013554058
 30
0.0
 10
110.1348910791137
 20
-133.9312013554058
 30
0.0
 10
110.1348910791137
 20
-133.9312013554058
 30
0.0
 10
96.26631504404169
 20
-134.0493466331546
 30
0.0
 10
96.26631504404169
 20
-134.0493466331546
 30
0.0
 10
96.26631504404169
 20
-134.0493466331546
 30
0.0
 10
95.26689562509456
 20
-133.814396633213
 30
0.0
 10
95.26689562509456
 20
-134.6956707996596
 30
0.0
 10
95.26689562509456
 20
-134.6956707996596
 30
0.0
 10
95.32612701247234
 20
-142.4533246866091
 30
0.0
 10
95.32612701247234
 20
-142.4533246866091
 30
0.0
 10
95.32612701247234
 20
-142.4533246866091
 30
0.0
 10
95.67855200348123
 20
-143.9808877417825
 30
0.0
 10
94.32706037129398
 20
-143.9808877417825
 30
0.0
 10
94.32706037129398
 20
-143.9808877417825
 30
0.0
 10
89.38990021947366
 20
-143.9808877417825
 30
0.0
 10
89.38990021947366
 20
-143.9808877417825
 30
0.0
 10
89.38990021947366
 20
-143.9808877417825
 30
0.0
 10
88.39079830051843
 20
-144.3333127416943
 30
0.0
 10
87.45099832449472
 20
-143.1581746864327
 30
0.0
 10
87.45099832449472
 20
-143.1581746864327
 30
0.0
 10
74.75720753722919
 20
-130.9339660783779
 30
0.0
 10
74.75720753722919
 20
-130.9339660783779
 30
0.0
 10
74.75720753722919
 20
-130.9339660783779
 30
0.0
 10
74.05196949966576
 20
-130.7578946895327
 30
0.0
 10
74.11088338705163
 20
-128.995064134418
 30
0.0
 10
74.11088338705163
 20
-128.995064134418
 30
0.0
 10
74.11088338705163
 20
-124.5873880244088
 30
0.0
 10
74.11088338705163
 20
-124.5873880244088
 30
0.0
 10
74.11088338705163
 20
-124.5873880244088
 30
0.0
 10
73.93484728043157
 20
-123.2944574691765
 30
0.0
 10
75.81483528802464
 20
-123.2944574691765
 30
0.0
 10
75.81483528802464
 20
-123.2944574691765
 30
0.0
 10
83.04367510360157
 20
-123.1771588580946
 30
0.0
 10
83.04367510360157
 20
-123.1771588580946
 30
0.0
 10
83.04367510360157
 20
-123.1771588580946
 30
0.0
 10
83.98351035740215
 20
-123.4121088580359
 30
0.0
 10
84.04274174477992
 20
-122.824381080405
 30
0.0
 10
84.04274174477992
 20
-122.824381080405
 30
0.0
 10
83.74856036339622
 20
-108.2504255284929
 30
0.0
 10
83.74856036339622
 20
-108.2504255284929
 30
0.0
  0
SPLINE
  5
46
330
41
100
AcDbEntity
  8
_U+30EC_U+30A4_U+30E4_U+30FC 1
 62
   179
420
  2234388
370
     9
100
AcDbSpline
210
0.0
220
0.0
230
1.0
 70
    11
 71
     3
 72
    17
 73
    13
 74
     0
 42
0.0000000001
 43
0.0000000001
 12
1.0
 22
0.0
 32
0.0
 13
1.0
 23
0.0
 33
0.0
 40
0.0
 40
0.0
 40
0.0
 40
0.0
 40
1.0
 40
1.0
 40
1.0
 40
2.0
 40
2.0
 40
2.0
 40
3.0
 40
3.0
 40
3.0
 40
4.0
 40
4.0
 40
4.0
 40
4.0
 10
102.878466640947
 20
-134.0645160775952
 30
0.0
 10
102.878466640947
 20
-134.0093769109421
 30
0.0
 10
102.8333437653917
 20
-133.9642566331758
 30
0.0
 10
102.7778871001399
 20
-133.9642566331758
 30
0.0
 10
102.7227479348799
 20
-133.9642566331758
 30
0.0
 10
102.6776276582533
 20
-134.0093769109421
 30
0.0
 10
102.6776276582533
 20
-134.0645160775952
 30
0.0
 10
102.6776276582533
 20
-134.1196199664701
 30
0.0
 10
102.7227479348799
 20
-134.1647755220145
 30
0.0
 10
102.7778871001399
 20
-134.1647755220145
 30
0.0
 10
102.8333437653917
 20
-134.1647755220145
 30
0.0
 10
102.878466640947
 20
-134.1196199664701
 30
0.0
 10
102.878466640947
 20
-134.0645160775952
 30
0.0
  0
POLYLINE
  5
47
330
41
100
AcDbEntity
  8
_U+30EC_U+30A4_U+30E4_U+30FC 1
 62
   179
420
  2234388
370
     9
100
AcDb2dPolyline
 66
     1
 10
0.0
 20
0.0
 30
0.0
  0
VERTEX
  5
48
330
47
100
AcDbEntity
  8
_U+30EC_U+30A4_U+30E4_U+30FC 1
 62
   179
420
  2234388
370
     9
100
AcDbVertex
100
AcDb2dVertex
 10
102.7778871001399
 20
-134.0645160775952
 30
0.0
  0
VERTEX
  5
49
330
47
100
AcDbEntity
  8
_U+30EC_U+30A4_U+30E4_U+30FC 1
 62
   179
420
  2234388
370
     9
100
AcDbVertex
100
AcDb2dVertex
 10
102.7778871001399
 20
-144.0597688528736
 30
0.0
  0
SEQEND
  5
4A
330
47
100
AcDbEntity
  8
_U+30EC_U+30A4_U+30E4_U+30FC 1
 62
   179
420
  2234388
370
     9
  0
POLYLINE
  5
4B
330
41
100
AcDbEntity
  8
_U+30EC_U+30A4_U+30E4_U+30FC 1
 62
   179
420
  2234388
370
     9
100
AcDb2dPolyline
 66
     1
 10
0.0
 20
0.0
 30
0.0
  0
VERTEX
  5
4C
330
4B
100
AcDbEntity
  8
_U+30EC_U+30A4_U+30E4_U+30FC 1
 62
   179
420
  2234388
370
     9
100
AcDbVertex
100
AcDb2dVertex
 10
96.4416455951242
 20
-144.0597688528736
 30
0.0
  0
VERTEX
  5
4D
330
4B
100
AcDbEntity
  8
_U+30EC_U+30A4_U+30E4_U+30FC 1
 62
   179
420
  2234388
370
     9
100
AcDbVertex
100
AcDb2dVertex
 10
103.777306519087
 20
-144.0597688528736
 30
0.0
  0
SEQEND
  5
4E
330
4B
100
AcDbEntity
  8
_U+30EC_U+30A4_U+30E4_U+30FC 1
 62
   179
420
  2234388
370
     9
  0
INSERT
  5
50
330
41
100
AcDbEntity
  8
_U+30EC_U+30A4_U+30E4_U+30FC 1
100
AcDbBlockReference
  2
block 3
 10
0.0
 20
0.0
 30
0.0
  0
POLYLINE
  5
58
330
41
100
AcDbEntity
  8
_U+30EC_U+30A4_U+30E4_U+30FC 1
 62
   179
420
  2234388
370
     9
100
AcDb2dPolyline
 66
     1
 10
0.0
 20
0.0
 30
0.0
  0
VERTEX
  5
59
330
58
100
AcDbEntity
  8
_U+30EC_U+30A4_U+30E4_U+30FC 1
 62
   179
420
  2234388
370
     9
100
AcDbVertex
100
AcDb2dVertex
 10
88.52619440817529
 20
-148.0002613518888
 30
0.0
  0
VERTEX
  5
5A
330
58
100
AcDbEntity
  8
_U+30EC_U+30A4_U+30E4_U+30FC 1
 62
   179
420
  2234388
370
     9
100
AcDbVertex
100
AcDb2dVertex
 10
110.5155735694017
 20
-148.0002613518888
 30
0.0
  0
SEQEND
  5
5B
330
58
100
AcDbEntity
  8
_U+30EC_U+30A4_U+30E4_U+30FC 1
 62
   179
420
  2234388
370
     9
  0
POLYLINE
  5
5C
330
41
100
AcDbEntity
  8
_U+30EC_U+30A4_U+30E4_U+30FC 1
 62
   179
420
  2234388
370
     9
100
AcDb2dPolyline
 66
     1
 10
0.0
 20
0.0
 30
0.0
  0
VERTEX
  5
5D
330
5C
100
AcDbEntity
  8
_U+30EC_U+30A4_U+30E4_U+30FC 1
 62
   179
420
  2234388
370
     9
100
AcDbVertex
100
AcDb2dVertex
 10
88.52619440817529
 20
-145.9473416301801
 30
0.0
  0
VERTEX
  5
5E
330
5C
100
AcDbEntity
  8
_U+30EC_U+30A4_U+30E4_U+30FC 1
 62
   179
420
  2234388
370
     9
100
AcDbVertex
100
AcDb2dVertex
 10
88.52619440817529
 20
-149.0000335738613
 30
0.0
  0
SEQEND
  5
5F
330
5C
100
AcDbEntity
  8
_U+30EC_U+30A4_U+30E4_U+30FC 1
 62
   179
420
  2234388
370
     9
  0
POLYLINE
  5
60
330
41
100
AcDbEntity
  8
_U+30EC_U+30A4_U+30E4_U+30FC 1
 62
   179
420
  2234388
370
     9
100
AcDb2dPolyline
 66
     1
 10
0.0
 20
0.0
 30
0.0
  0
VERTEX
  5
61
330
60
100
AcDbEntity
  8
_U+30EC_U+30A4_U+30E4_U+30FC 1
 62
   179
420
  2234388
370
     9
100
AcDbVertex
100
AcDb2dVertex
 10
110.4153141275151
 20
-134.857913299619
 30
0.0
  0
VERTEX
  5
62
330
60
100
AcDbEntity
  8
_U+30EC_U+30A4_U+30E4_U+30FC 1
 62
   179
420
  2234388
370
     9
100
AcDbVertex
100
AcDb2dVertex
 10
110.4153141275151
 20
-149.0000335738613
 30
0.0
  0
SEQEND
  5
63
330
60
100
AcDbEntity
  8
_U+30EC_U+30A4_U+30E4_U+30FC 1
 62
   179
420
  2234388
370
     9
  0
POLYLINE
  5
64
330
41
100
AcDbEntity
  8
_U+30EC_U+30A4_U+30E4_U+30FC 1
 62
   179
420
  2234388
370
     9
100
AcDb2dPolyline
 66
     1
 10
0.0
 20
0.0
 30
0.0
  0
VERTEX
  5
65
330
64
100
AcDbEntity
  8
_U+30EC_U+30A4_U+30E4_U+30FC 1
 62
   179
420
  2234388
370
     9
100
AcDbVertex
100
AcDb2dVertex
 10
95.40225645497456
 20
-146.1412988523534
 30
0.0
  0
VERTEX
  5
66
330
64
100
AcDbEntity
  8
_U+30EC_U+30A4_U+30E4_U+30FC 1
 62
   179
420
  2234388
370
     9
100
AcDbVertex
100
AcDb2dVertex
 10
95.40225645497456
 20
-149.0000335738613
 30
0.0
  0
SEQEND
  5
67
330
64
100
AcDbEntity
  8
_U+30EC_U+30A4_U+30E4_U+30FC 1
 62
   179
420
  2234388
370
     9
  0
INSERT
  5
69
330
41
100
AcDbEntity
  8
_U+30EC_U+30A4_U+30E4_U+30FC 1
100
AcDbBlockReference
  2
block 4
 10
0.0
 20
0.0
 30
0.0
  0
INSERT
  5
71
330
41
100
AcDbEntity
  8
_U+30EC_U+30A4_U+30E4_U+30FC 1
100
AcDbBlockReference
  2
block 5
 10
0.0
 20
0.0
 30
0.0
  0
POLYLINE
  5
76
330
41
100
AcDbEntity
  8
_U+30EC_U+30A4_U+30E4_U+30FC 1
 62
   179
420
  2234388
370
     9
100
AcDb2dPolyline
 66
     1
 10
0.0
 20
0.0
 30
0.0
  0
VERTEX
  5
77
330
76
100
AcDbEntity
  8
_U+30EC_U+30A4_U+30E4_U+30FC 1
 62
   179
420
  2234388
370
     9
100
AcDbVertex
100
AcDb2dVertex
 10
71.53119595286493
 20
-133.1295138556065
 30
0.0
  0
VERTEX
  5
78
330
76
100
AcDbEntity
  8
_U+30EC_U+30A4_U+30E4_U+30FC 1
 62
   179
420
  2234388
370
     9
100
AcDbVertex
100
AcDb2dVertex
 10
85.74083753479123
 20
-147.1889430187581
 30
0.0
  0
SEQEND
  5
79
330
76
100
AcDbEntity
  8
_U+30EC_U+30A4_U+30E4_U+30FC 1
 62
   179
420
  2234388
370
     9
  0
POLYLINE
  5
7A
330
41
100
AcDbEntity
  8
_U+30EC_U+30A4_U+30E4_U+30FC 1
 62
   179
420
  2234388
370
     9
100
AcDb2dPolyline
 66
     1
 10
0.0
 20
0.0
 30
0.0
  0
VERTEX
  5
7B
330
7A
100
AcDbEntity
  8
_U+30EC_U+30A4_U+30E4_U+30FC 1
 62
   179
420
  2234388
370
     9
100
AcDbVertex
100
AcDb2dVertex
 10
72.97469202714939
 20
-131.6694724670828
 30
0.0
  0
VERTEX
  5
7C
330
7A
100
AcDbEntity
  8
_U+30EC_U+30A4_U+30E4_U+30FC 1
 62
   179
420
  2234388
370
     9
100
AcDbVertex
100
AcDb2dVertex
 10
70.82772180414538
 20
-133.8391969109843
 30
0.0
  0
SEQEND
  5
7D
330
7A
100
AcDbEntity
  8
_U+30EC_U+30A4_U+30E4_U+30FC 1
 62
   179
420
  2234388
370
     9
  0
POLYLINE
  5
7E
330
41
100
AcDbEntity
  8
_U+30EC_U+30A4_U+30E4_U+30FC 1
 62
   179
420
  2234388
370
     9
100
AcDb2dPolyline
 66
     1
 10
0.0
 20
0.0
 30
0.0
  0
VERTEX
  5
7F
330
7E
100
AcDbEntity
  8
_U+30EC_U+30A4_U+30E4_U+30FC 1
 62
   179
420
  2234388
370
     9
100
AcDbVertex
100
AcDb2dVertex
 10
87.04170555715886
 20
-145.8608757968684
 30
0.0
  0
VERTEX
  5
80
330
7E
100
AcDbEntity
  8
_U+30EC_U+30A4_U+30E4_U+30FC 1
 62
   179
420
  2234388
370
     9
100
AcDbVertex
100
AcDb2dVertex
 10
85.03115449734119
 20
-147.8931227408044
 30
0.0
  0
SEQEND
  5
81
330
7E
100
AcDbEntity
  8
_U+30EC_U+30A4_U+30E4_U+30FC 1
 62
   179
420
  2234388
370
     9
  0
INSERT
  5
83
330
41
100
AcDbEntity
  8
_U+30EC_U+30A4_U+30E4_U+30FC 1
100
AcDbBlockReference
  2
block 6
 10
0.0
 20
0.0
 30
0.0
  0
SPLINE
  5
8B
330
41
100
AcDbEntity
  8
_U+30EC_U+30A4_U+30E4_U+30FC 1
 62
   179
420
  2234388
370
     9
100
AcDbSpline
210
0.0
220
0.0
230
1.0
 70
    11
 71
     3
 72
    17
 73
    13
 74
     0
 42
0.0000000001
 43
0.0000000001
 12
1.0
 22
0.0
 32
0.0
 13
1.0
 23
0.0
 33
0.0
 40
0.0
 40
0.0
 40
0.0
 40
0.0
 40
1.0
 40
1.0
 40
1.0
 40
2.0
 40
2.0
 40
2.0
 40
3.0
 40
3.0
 40
3.0
 40
4.0
 40
4.0
 40
4.0
 40
4.0
 10
71.55980622991281
 20
-133.2500933000209
 30
0.0
 10
71.62147178389515
 20
-133.2500933000209
 30
0.0
 10
71.67107233818528
 20
-133.2004927444775
 30
0.0
 10
71.67107233818528
 20
-133.13847441116
 30
0.0
 10
71.67107233818528
 20
-133.0774791333976
 30
0.0
 10
71.62147178389515
 20
-133.0275258000765
 30
0.0
 10
71.55980622991281
 20
-133.0275258000765
 30
0.0
 10
71.49881095369115
 20
-133.0275258000765
 30
0.0
 10
71.44956317716978
 20
-133.0774791333976
 30
0.0
 10
71.44956317716978
 20
-133.13847441116
 30
0.0
 10
71.44956317716978
 20
-133.2004927444775
 30
0.0
 10
71.49881095369115
 20
-133.2500933000209
 30
0.0
 10
71.55980622991281
 20
-133.2500933000209
 30
0.0
  0
SPLINE
  5
8C
330
41
100
AcDbEntity
  8
_U+30EC_U+30A4_U+30E4_U+30FC 1
 62
   179
420
  2234388
370
     9
100
AcDbSpline
210
0.0
220
0.0
230
1.0
 70
    11
 71
     3
 72
    17
 73
    13
 74
     0
 42
0.0000000001
 43
0.0000000001
 12
1.0
 22
0.0
 32
0.0
 13
1.0
 23
0.0
 33
0.0
 40
0.0
 40
0.0
 40
0.0
 40
0.0
 40
1.0
 40
1.0
 40
1.0
 40
2.0
 40
2.0
 40
2.0
 40
3.0
 40
3.0
 40
3.0
 40
4.0
 40
4.0
 40
4.0
 40
4.0
 10
85.7332528127625
 20
-147.2671538520719
 30
0.0
 10
85.79460086675293
 20
-147.2671538520719
 30
0.0
 10
85.8438486432743
 20
-147.2175532965291
 30
0.0
 10
85.8438486432743
 20
-147.1558877409888
 30
0.0
 10
85.8438486432743
 20
-147.0945396854486
 30
0.0
 10
85.79460086675293
 20
-147.0449391299052
 30
0.0
 10
85.7332528127625
 20
-147.0449391299052
 30
0.0
 10
85.67229281431771
 20
-147.0449391299052
 30
0.0
 10
85.62198886748327
 20
-147.0945396854486
 30
0.0
 10
85.62198886748327
 20
-147.1558877409888
 30
0.0
 10
85.62198886748327
 20
-147.2175532965291
 30
0.0
 10
85.67229281431771
 20
-147.2671538520719
 30
0.0
 10
85.7332528127625
 20
-147.2671538520719
 30
0.0
  0
SPLINE
  5
8D
330
41
100
AcDbEntity
  8
_U+30EC_U+30A4_U+30E4_U+30FC 1
 62
   179
420
  2234388
370
     9
100
AcDbSpline
210
0.0
220
0.0
230
1.0
 70
    11
 71
     3
 72
    17
 73
    13
 74
     0
 42
0.0000000001
 43
0.0000000001
 12
1.0
 22
0.0
 32
0.0
 13
1.0
 23
0.0
 33
0.0
 40
0.0
 40
0.0
 40
0.0
 40
0.0
 40
1.0
 40
1.0
 40
1.0
 40
2.0
 40
2.0
 40
2.0
 40
3.0
 40
3.0
 40
3.0
 40
4.0
 40
4.0
 40
4.0
 40
4.0
 10
88.52481857487706
 20
-148.1242980185245
 30
0.0
 10
88.58581385109872
 20
-148.1242980185245
 30
0.0
 10
88.63576942228558
 20
-148.074344685204
 30
0.0
 10
88.63576942228558
 20
-148.0130319074413
 30
0.0
 10
88.63576942228558
 20
-147.9516838519012
 30
0.0
 10
88.58581385109872
 20
-147.9020832963578
 30
0.0
 10
88.52481857487706
 20
-147.9020832963578
 30
0.0
 10
88.4635057986635
 20
-147.9020832963578
 30
0.0
 10
88.41355246660459
 20
-147.9516838519012
 30
0.0
 10
88.41355246660459
 20
-148.0130319074413
 30
0.0
 10
88.41355246660459
 20
-148.074344685204
 30
0.0
 10
88.4635057986635
 20
-148.1242980185245
 30
0.0
 10
88.52481857487706
 20
-148.1242980185245
 30
0.0
  0
SPLINE
  5
8E
330
41
100
AcDbEntity
  8
_U+30EC_U+30A4_U+30E4_U+30FC 1
 62
   179
420
  2234388
370
     9
100
AcDbSpline
210
0.0
220
0.0
230
1.0
 70
    11
 71
     3
 72
    17
 73
    13
 74
     0
 42
0.0000000001
 43
0.0000000001
 12
1.0
 22
0.0
 32
0.0
 13
1.0
 23
0.0
 33
0.0
 40
0.0
 40
0.0
 40
0.0
 40
0.0
 40
1.0
 40
1.0
 40
1.0
 40
2.0
 40
2.0
 40
2.0
 40
3.0
 40
3.0
 40
3.0
 40
4.0
 40
4.0
 40
4.0
 40
4.0
 10
95.3809133999635
 20
-148.1242980185245
 30
0.0
 10
95.44222617617706
 20
-148.1242980185245
 30
0.0
 10
95.4915092304753
 20
-148.074344685204
 30
0.0
 10
95.4915092304753
 20
-148.0130319074413
 30
0.0
 10
95.4915092304753
 20
-147.9516838519012
 30
0.0
 10
95.44222617617706
 20
-147.9020832963578
 30
0.0
 10
95.3809133999635
 20
-147.9020832963578
 30
0.0
 10
95.31960062374995
 20
-147.9020832963578
 30
0.0
 10
95.26964729169103
 20
-147.9516838519012
 30
0.0
 10
95.26964729169103
 20
-148.0130319074413
 30
0.0
 10
95.26964729169103
 20
-148.074344685204
 30
0.0
 10
95.31960062374995
 20
-148.1242980185245
 30
0.0
 10
95.3809133999635
 20
-148.1242980185245
 30
0.0
  0
SPLINE
  5
8F
330
41
100
AcDbEntity
  8
_U+30EC_U+30A4_U+30E4_U+30FC 1
 62
   179
420
  2234388
370
     9
100
AcDbSpline
210
0.0
220
0.0
230
1.0
 70
    11
 71
     3
 72
    17
 73
    13
 74
     0
 42
0.0000000001
 43
0.0000000001
 12
1.0
 22
0.0
 32
0.0
 13
1.0
 23
0.0
 33
0.0
 40
0.0
 40
0.0
 40
0.0
 40
0.0
 40
1.0
 40
1.0
 40
1.0
 40
2.0
 40
2.0
 40
2.0
 40
3.0
 40
3.0
 40
3.0
 40
4.0
 40
4.0
 40
4.0
 40
4.0
 10
110.4201499723951
 20
-148.1242980185245
 30
0.0
 10
110.4814599591609
 20
-148.1242980185245
 30
0.0
 10
110.5310605134511
 20
-148.074344685204
 30
0.0
 10
110.5310605134511
 20
-148.0130319074413
 30
0.0
 10
110.5310605134511
 20
-147.9516838519012
 30
0.0
 10
110.4814599591609
 20
-147.9020832963578
 30
0.0
 10
110.4201499723951
 20
-147.9020832963578
 30
0.0
 10
110.3587991289569
 20
-147.9020832963578
 30
0.0
 10
110.3091985746668
 20
-147.9516838519012
 30
0.0
 10
110.3091985746668
 20
-148.0130319074413
 30
0.0
 10
110.3091985746668
 20
-148.074344685204
 30
0.0
 10
110.3587991289569
 20
-148.1242980185245
 30
0.0
 10
110.4201499723951
 20
-148.1242980185245
 30
0.0
  0
SPLINE
  5
90
330
41
100
AcDbEntity
  8
_U+30EC_U+30A4_U+30E4_U+30FC 1
 62
   179
420
  2234388
370
     9
100
AcDbSpline
210
0.0
220
0.0
230
1.0
 70
    11
 71
     3
 72
    17
 73
    13
 74
     0
 42
0.0000000001
 43
0.0000000001
 12
1.0
 22
0.0
 32
0.0
 13
1.0
 23
0.0
 33
0.0
 40
0.0
 40
0.0
 40
0.0
 40
0.0
 40
1.0
 40
1.0
 40
1.0
 40
2.0
 40
2.0
 40
2.0
 40
3.0
 40
3.0
 40
3.0
 40
4.0
 40
4.0
 40
4.0
 40
4.0
 10
102.7802859889676
 20
-144.1710349639574
 30
0.0
 10
102.8415987651811
 20
-144.1710349639574
 30
0.0
 10
102.8912345972481
 20
-144.1210816306363
 30
0.0
 10
102.8912345972481
 20
-144.0597688528736
 30
0.0
 10
102.8912345972481
 20
-143.9981032973339
 30
0.0
 10
102.8415987651811
 20
-143.9485027417905
 30
0.0
 10
102.7802859889676
 20
-143.9485027417905
 30
0.0
 10
102.7193259905228
 20
-143.9485027417905
 30
0.0
 10
102.6693726584639
 20
-143.9981032973339
 30
0.0
 10
102.6693726584639
 20
-144.0597688528736
 30
0.0
 10
102.6693726584639
 20
-144.1210816306363
 30
0.0
 10
102.7193259905228
 20
-144.1710349639574
 30
0.0
 10
102.7802859889676
 20
-144.1710349639574
 30
0.0
  0
ENDBLK
  5
44
330
41
100
AcDbEntity
  8
0
100
AcDbBlockEnd
  0
BLOCK
  5
51
330
4F
100
AcDbEntity
  8
0
100
AcDbBlockBegin
  2
block 3
 70
     0
 10
0.0
 20
0.0
 30
0.0
  3
block 3
  1

  0
SPLINE
  5
53
330
4F
100
AcDbEntity
  8
_U+30EC_U+30A4_U+30E4_U+30FC 1
370
     0
100
AcDbSpline
210
0.0
220
0.0
230
1.0
 70
    11
 71
     3
 72
    26
 73
    22
 74
     0
 42
0.0000000001
 43
0.0000000001
 12
1.0
 22
0.0
 32
0.0
 13
1.0
 23
0.0
 33
0.0
 40
0.0
 40
0.0
 40
0.0
 40
0.0
 40
1.0
 40
1.0
 40
1.0
 40
2.0
 40
2.0
 40
2.0
 40
3.0
 40
3.0
 40
3.0
 40
4.0
 40
4.0
 40
4.0
 40
5.0
 40
5.0
 40
5.0
 40
6.0
 40
6.0
 40
6.0
 40
7.0
 40
7.0
 40
7.0
 40
7.0
 10
102.0661213937543
 20
-139.8412488799702
 30
0.0
 10
102.0661213937543
 20
-139.8412488799702
 30
0.0
 10
100.9619682907317
 20
-139.8412488799702
 30
0.0
 10
100.9619682907317
 20
-139.8412488799702
 30
0.0
 10
100.9619682907317
 20
-139.8412488799702
 30
0.0
 10
100.9619682907317
 20
-140.1299478816342
 30
0.0
 10
100.9619682907317
 20
-140.1299478816342
 30
0.0
 10
100.9619682907317
 20
-140.1299478816342
 30
0.0
 10
100.813829184866
 20
-140.1299478816342
 30
0.0
 10
100.813829184866
 20
-140.1299478816342
 30
0.0
 10
100.7990152742794
 20
-139.8391818226791
 30
0.0
 10
100.6360622578271
 20
-139.7985296959532
 30
0.0
 10
100.5216850877168
 20
-139.7726914798138
 30
0.0
 10
100.5216850877168
 20
-139.7726914798138
 30
0.0
 10
100.5216850877168
 20
-139.644878437311
 30
0.0
 10
100.5216850877168
 20
-139.644878437311
 30
0.0
 10
100.5216850877168
 20
-139.644878437311
 30
0.0
 10
102.0661213937543
 20
-139.644878437311
 30
0.0
 10
102.0661213937543
 20
-139.644878437311
 30
0.0
 10
102.0661213937543
 20
-139.644878437311
 30
0.0
 10
102.0661213937543
 20
-139.8412488799702
 30
0.0
 10
102.0661213937543
 20
-139.8412488799702
 30
0.0
  0
HATCH
  5
54
330
4F
100
AcDbEntity
  8
_U+30EC_U+30A4_U+30E4_U+30FC 1
 62
   179
420
  2234388
100
AcDbHatch
 10
0.0
 20
0.0
 30
0.0
210
0.0
220
0.0
230
1.0
  2
SOLID
 70
     1
 71
     0
 91
        1
 92
        1
 93
        1
 72
     4
 94
        3
 73
     0
 74
     1
 95
       26
 96
       22
 40
0.0
 40
0.0
 40
0.0
 40
0.0
 40
1.0
 40
1.0
 40
1.0
 40
2.0
 40
2.0
 40
2.0
 40
3.0
 40
3.0
 40
3.0
 40
4.0
 40
4.0
 40
4.0
 40
5.0
 40
5.0
 40
5.0
 40
6.0
 40
6.0
 40
6.0
 40
7.0
 40
7.0
 40
7.0
 40
7.0
 10
102.0661213937543
 20
-139.8412488799702
 10
102.0661213937543
 20
-139.8412488799702
 10
100.9619682907317
 20
-139.8412488799702
 10
100.9619682907317
 20
-139.8412488799702
 10
100.9619682907317
 20
-139.8412488799702
 10
100.9619682907317
 20
-140.1299478816342
 10
100.9619682907317
 20
-140.1299478816342
 10
100.9619682907317
 20
-140.1299478816342
 10
100.813829184866
 20
-140.1299478816342
 10
100.813829184866
 20
-140.1299478816342
 10
100.7990152742794
 20
-139.8391818226791
 10
100.6360622578271
 20
-139.7985296959532
 10
100.5216850877168
 20
-139.7726914798138
 10
100.5216850877168
 20
-139.7726914798138
 10
100.5216850877168
 20
-139.644878437311
 10
100.5216850877168
 20
-139.644878437311
 10
100.5216850877168
 20
-139.644878437311
 10
102.0661213937543
 20
-139.644878437311
 10
102.0661213937543
 20
-139.644878437311
 10
102.0661213937543
 20
-139.644878437311
 10
102.0661213937543
 20
-139.8412488799702
 10
102.0661213937543
 20
-139.8412488799702
 97
        0
 97
        0
 75
     2
 76
     1
 98
        0
  0
SPLINE
  5
55
330
4F
100
AcDbEntity
  8
_U+30EC_U+30A4_U+30E4_U+30FC 1
370
     0
100
AcDbSpline
210
0.0
220
0.0
230
1.0
 70
    11
 71
     3
 72
    29
 73
    25
 74
     0
 42
0.0000000001
 43
0.0000000001
 12
1.0
 22
0.0
 32
0.0
 13
1.0
 23
0.0
 33
0.0
 40
0.0
 40
0.0
 40
0.0
 40
0.0
 40
1.0
 40
1.0
 40
1.0
 40
2.0
 40
2.0
 40
2.0
 40
3.0
 40
3.0
 40
3.0
 40
4.0
 40
4.0
 40
4.0
 40
5.0
 40
5.0
 40
5.0
 40
6.0
 40
6.0
 40
6.0
 40
7.0
 40
7.0
 40
7.0
 40
8.0
 40
8.0
 40
8.0
 40
8.0
 10
101.8883544667154
 20
-138.4198024827562
 30
0.0
 10
102.0978162722186
 20
-138.514198099052
 30
0.0
 10
102.1167642973875
 20
-138.665782300403
 30
0.0
 10
102.1167642973875
 20
-138.7677571267664
 30
0.0
 10
102.1167642973875
 20
-138.9086615321131
 30
0.0
 10
102.0702555083366
 20
-139.0326849695821
 30
0.0
 10
101.8883544667154
 20
-139.1160562803252
 30
0.0
 10
101.6937065717988
 20
-139.2066622915872
 30
0.0
 10
101.4566840024136
 20
-139.2231987499164
 30
0.0
 10
101.2940754955098
 20
-139.2231987499164
 30
0.0
 10
101.1500705042264
 20
-139.2231987499164
 30
0.0
 10
100.8982340242546
 20
-139.2087293488784
 30
0.0
 10
100.6994520147557
 20
-139.1160562803252
 30
0.0
 10
100.4965358906745
 20
-139.0213161544808
 30
0.0
 10
100.4731092413748
 20
-138.8807562586826
 30
0.0
 10
100.4731092413748
 20
-138.7677571267664
 30
0.0
 10
100.4731092413748
 20
-138.6289197787108
 30
0.0
 10
100.5175509731345
 20
-138.5031737934992
 30
0.0
 10
100.6994520147557
 20
-138.4198024827562
 30
0.0
 10
100.8920328523812
 20
-138.3326415669793
 30
0.0
 10
101.1204426830532
 20
-138.3123155036164
 30
0.0
 10
101.2940754955098
 20
-138.3123155036164
 30
0.0
 10
101.4652967411267
 20
-138.3123155036164
 30
0.0
 10
101.69577362909
 20
-138.3309190192367
 30
0.0
 10
101.8883544667154
 20
-138.4198024827562
 30
0.0
  0
SPLINE
  5
56
330
4F
100
AcDbEntity
  8
_U+30EC_U+30A4_U+30E4_U+30FC 1
370
     0
100
AcDbSpline
210
0.0
220
0.0
230
1.0
 70
    11
 71
     3
 72
    17
 73
    13
 74
     0
 42
0.0000000001
 43
0.0000000001
 12
1.0
 22
0.0
 32
0.0
 13
1.0
 23
0.0
 33
0.0
 40
0.0
 40
0.0
 40
0.0
 40
0.0
 40
1.0
 40
1.0
 40
1.0
 40
2.0
 40
2.0
 40
2.0
 40
3.0
 40
3.0
 40
3.0
 40
4.0
 40
4.0
 40
4.0
 40
4.0
 10
100.6656900790002
 20
-138.7677571267664
 30
0.0
 10
100.6656900790002
 20
-138.9861761805312
 30
0.0
 10
100.9492214374363
 20
-139.0271728168057
 30
0.0
 10
101.2940754955098
 20
-139.0271728168057
 30
0.0
 10
101.6134358469925
 20
-139.0271728168057
 30
0.0
 10
101.9221164024709
 20
-138.9958224478899
 30
0.0
 10
101.9221164024709
 20
-138.7677571267664
 30
0.0
 10
101.9221164024709
 20
-138.5514051302927
 30
0.0
 10
101.6409966108745
 20
-138.5086859462756
 30
0.0
 10
101.2940754955098
 20
-138.5086859462756
 30
0.0
 10
100.9743706344786
 20
-138.5086859462756
 30
0.0
 10
100.6656900790002
 20
-138.541758862934
 30
0.0
 10
100.6656900790002
 20
-138.7677571267664
 30
0.0
  0
HATCH
  5
57
330
4F
100
AcDbEntity
  8
_U+30EC_U+30A4_U+30E4_U+30FC 1
 62
   179
420
  2234388
100
AcDbHatch
 10
0.0
 20
0.0
 30
0.0
210
0.0
220
0.0
230
1.0
  2
SOLID
 70
     1
 71
     0
 91
        2
 92
        1
 93
        1
 72
     4
 94
        3
 73
     0
 74
     1
 95
       29
 96
       25
 40
0.0
 40
0.0
 40
0.0
 40
0.0
 40
1.0
 40
1.0
 40
1.0
 40
2.0
 40
2.0
 40
2.0
 40
3.0
 40
3.0
 40
3.0
 40
4.0
 40
4.0
 40
4.0
 40
5.0
 40
5.0
 40
5.0
 40
6.0
 40
6.0
 40
6.0
 40
7.0
 40
7.0
 40
7.0
 40
8.0
 40
8.0
 40
8.0
 40
8.0
 10
101.8883544667154
 20
-138.4198024827562
 10
102.0978162722186
 20
-138.514198099052
 10
102.1167642973875
 20
-138.665782300403
 10
102.1167642973875
 20
-138.7677571267664
 10
102.1167642973875
 20
-138.9086615321131
 10
102.0702555083366
 20
-139.0326849695821
 10
101.8883544667154
 20
-139.1160562803252
 10
101.6937065717988
 20
-139.2066622915872
 10
101.4566840024136
 20
-139.2231987499164
 10
101.2940754955098
 20
-139.2231987499164
 10
101.1500705042264
 20
-139.2231987499164
 10
100.8982340242546
 20
-139.2087293488784
 10
100.6994520147557
 20
-139.1160562803252
 10
100.4965358906745
 20
-139.0213161544808
 10
100.4731092413748
 20
-138.8807562586826
 10
100.4731092413748
 20
-138.7677571267664
 10
100.4731092413748
 20
-138.6289197787108
 10
100.5175509731345
 20
-138.5031737934992
 10
100.6994520147557
 20
-138.4198024827562
 10
100.8920328523812
 20
-138.3326415669793
 10
101.1204426830532
 20
-138.3123155036164
 10
101.2940754955098
 20
-138.3123155036164
 10
101.4652967411267
 20
-138.3123155036164
 10
101.69577362909
 20
-138.3309190192367
 10
101.8883544667154
 20
-138.4198024827562
 97
        0
 97
        0
 92
        1
 93
        1
 72
     4
 94
        3
 73
     0
 74
     1
 95
       17
 96
       13
 40
0.0
 40
0.0
 40
0.0
 40
0.0
 40
1.0
 40
1.0
 40
1.0
 40
2.0
 40
2.0
 40
2.0
 40
3.0
 40
3.0
 40
3.0
 40
4.0
 40
4.0
 40
4.0
 40
4.0
 10
100.6656900790002
 20
-138.7677571267664
 10
100.6656900790002
 20
-138.9861761805312
 10
100.9492214374363
 20
-139.0271728168057
 10
101.2940754955098
 20
-139.0271728168057
 10
101.6134358469925
 20
-139.0271728168057
 10
101.9221164024709
 20
-138.9958224478899
 10
101.9221164024709
 20
-138.7677571267664
 10
101.9221164024709
 20
-138.5514051302927
 10
101.6409966108745
 20
-138.5086859462756
 10
101.2940754955098
 20
-138.5086859462756
 10
100.9743706344786
 20
-138.5086859462756
 10
100.6656900790002
 20
-138.541758862934
 10
100.6656900790002
 20
-138.7677571267664
 97
        0
 97
        0
 75
     2
 76
     1
 98
        0
  0
ENDBLK
  5
52
330
4F
100
AcDbEntity
  8
0
100
AcDbBlockEnd
  0
BLOCK
  5
6A
330
68
100
AcDbEntity
  8
0
100
AcDbBlockBegin
  2
block 4
 70
     0
 10
0.0
 20
0.0
 30
0.0
  3
block 4
  1

  0
SPLINE
  5
6C
330
68
100
AcDbEntity
  8
_U+30EC_U+30A4_U+30E4_U+30FC 1
370
     0
100
AcDbSpline
210
0.0
220
0.0
230
1.0
 70
    11
 71
     3
 72
    26
 73
    22
 74
     0
 42
0.0000000001
 43
0.0000000001
 12
1.0
 22
0.0
 32
0.0
 13
1.0
 23
0.0
 33
0.0
 40
0.0
 40
0.0
 40
0.0
 40
0.0
 40
1.0
 40
1.0
 40
1.0
 40
2.0
 40
2.0
 40
2.0
 40
3.0
 40
3.0
 40
3.0
 40
4.0
 40
4.0
 40
4.0
 40
5.0
 40
5.0
 40
5.0
 40
6.0
 40
6.0
 40
6.0
 40
7.0
 40
7.0
 40
7.0
 40
7.0
 10
102.4740206992079
 20
-147.2874782617893
 30
0.0
 10
102.4740206992079
 20
-147.2874782617893
 30
0.0
 10
102.4740206992079
 20
-146.1829806492181
 30
0.0
 10
102.4740206992079
 20
-146.1829806492181
 30
0.0
 10
102.4740206992079
 20
-146.1829806492181
 30
0.0
 10
102.1849771879954
 20
-146.1829806492181
 30
0.0
 10
102.1849771879954
 20
-146.1829806492181
 30
0.0
 10
102.1849771879954
 20
-146.1829806492181
 30
0.0
 10
102.1849771879954
 20
-146.0351860529009
 30
0.0
 10
102.1849771879954
 20
-146.0351860529009
 30
0.0
 10
102.4757432469505
 20
-146.0203721423144
 30
0.0
 10
102.5163953736765
 20
-145.857419125862
 30
0.0
 10
102.5425780993644
 20
-145.7433864653003
 30
0.0
 10
102.5425780993644
 20
-145.7433864653003
 30
0.0
 10
102.6700466323186
 20
-145.7433864653003
 30
0.0
 10
102.6700466323186
 20
-145.7433864653003
 30
0.0
 10
102.6700466323186
 20
-145.7433864653003
 30
0.0
 10
102.6700466323186
 20
-147.2874782617893
 30
0.0
 10
102.6700466323186
 20
-147.2874782617893
 30
0.0
 10
102.6700466323186
 20
-147.2874782617893
 30
0.0
 10
102.4740206992079
 20
-147.2874782617893
 30
0.0
 10
102.4740206992079
 20
-147.2874782617893
 30
0.0
  0
HATCH
  5
6D
330
68
100
AcDbEntity
  8
_U+30EC_U+30A4_U+30E4_U+30FC 1
 62
   179
420
  2234388
100
AcDbHatch
 10
0.0
 20
0.0
 30
0.0
210
0.0
220
0.0
230
1.0
  2
SOLID
 70
     1
 71
     0
 91
        1
 92
        1
 93
        1
 72
     4
 94
        3
 73
     0
 74
     1
 95
       26
 96
       22
 40
0.0
 40
0.0
 40
0.0
 40
0.0
 40
1.0
 40
1.0
 40
1.0
 40
2.0
 40
2.0
 40
2.0
 40
3.0
 40
3.0
 40
3.0
 40
4.0
 40
4.0
 40
4.0
 40
5.0
 40
5.0
 40
5.0
 40
6.0
 40
6.0
 40
6.0
 40
7.0
 40
7.0
 40
7.0
 40
7.0
 10
102.4740206992079
 20
-147.2874782617893
 10
102.4740206992079
 20
-147.2874782617893
 10
102.4740206992079
 20
-146.1829806492181
 10
102.4740206992079
 20
-146.1829806492181
 10
102.4740206992079
 20
-146.1829806492181
 10
102.1849771879954
 20
-146.1829806492181
 10
102.1849771879954
 20
-146.1829806492181
 10
102.1849771879954
 20
-146.1829806492181
 10
102.1849771879954
 20
-146.0351860529009
 10
102.1849771879954
 20
-146.0351860529009
 10
102.4757432469505
 20
-146.0203721423144
 10
102.5163953736765
 20
-145.857419125862
 10
102.5425780993644
 20
-145.7433864653003
 10
102.5425780993644
 20
-145.7433864653003
 10
102.6700466323186
 20
-145.7433864653003
 10
102.6700466323186
 20
-145.7433864653003
 10
102.6700466323186
 20
-145.7433864653003
 10
102.6700466323186
 20
-147.2874782617893
 10
102.6700466323186
 20
-147.2874782617893
 10
102.6700466323186
 20
-147.2874782617893
 10
102.4740206992079
 20
-147.2874782617893
 10
102.4740206992079
 20
-147.2874782617893
 97
        0
 97
        0
 75
     2
 76
     1
 98
        0
  0
SPLINE
  5
6E
330
68
100
AcDbEntity
  8
_U+30EC_U+30A4_U+30E4_U+30FC 1
370
     0
100
AcDbSpline
210
0.0
220
0.0
230
1.0
 70
    11
 71
     3
 72
    53
 73
    49
 74
     0
 42
0.0000000001
 43
0.0000000001
 12
1.0
 22
0.0
 32
0.0
 13
1.0
 23
0.0
 33
0.0
 40
0.0
 40
0.0
 40
0.0
 40
0.0
 40
1.0
 40
1.0
 40
1.0
 40
2.0
 40
2.0
 40
2.0
 40
3.0
 40
3.0
 40
3.0
 40
4.0
 40
4.0
 40
4.0
 40
5.0
 40
5.0
 40
5.0
 40
6.0
 40
6.0
 40
6.0
 40
7.0
 40
7.0
 40
7.0
 40
8.0
 40
8.0
 40
8.0
 40
9.0
 40
9.0
 40
9.0
 40
10.0
 40
10.0
 40
10.0
 40
11.0
 40
11.0
 40
11.0
 40
12.0
 40
12.0
 40
12.0
 40
13.0
 40
13.0
 40
13.0
 40
14.0
 40
14.0
 40
14.0
 40
15.0
 40
15.0
 40
15.0
 40
16.0
 40
16.0
 40
16.0
 40
16.0
 10
103.530631484534
 20
-147.3384656749709
 30
0.0
 10
103.4620740843775
 20
-147.3384656749709
 30
0.0
 10
103.3731906208581
 20
-147.3212401975447
 30
0.0
 10
103.2843071573386
 20
-147.2578504406161
 30
0.0
 10
103.1323784464391
 20
-147.1476073850881
 30
0.0
 10
103.1137749308188
 20
-147.0166937566486
 30
0.0
 10
103.0972384724896
 20
-146.9088622679603
 30
0.0
 10
103.0972384724896
 20
-146.9088622679603
 30
0.0
 10
103.2915418578577
 20
-146.9088622679603
 30
0.0
 10
103.2915418578577
 20
-146.9088622679603
 30
0.0
 10
103.3397731946512
 20
-147.1076442774592
 30
0.0
 10
103.4510497788247
 20
-147.1372720986324
 30
0.0
 10
103.5323540322766
 20
-147.1372720986324
 30
0.0
 10
103.654654922003
 20
-147.1372720986324
 30
0.0
 10
103.7879801172822
 20
-147.0380533486572
 30
0.0
 10
103.7879801172822
 20
-146.8051648938543
 30
0.0
 10
103.7879801172822
 20
-146.5491942993002
 30
0.0
 10
103.6305392536063
 20
-146.4792588609496
 30
0.0
 10
103.5251193317576
 20
-146.4792588609496
 30
0.0
 10
103.4972140583271
 20
-146.4792588609496
 30
0.0
 10
103.3731906208581
 20
-146.4792588609496
 30
0.0
 10
103.2953314628915
 20
-146.6084499416465
 30
0.0
 10
103.2953314628915
 20
-146.6084499416465
 30
0.0
 10
103.1416802042493
 20
-146.5895019164776
 30
0.0
 10
103.1416802042493
 20
-146.5895019164776
 30
0.0
 10
103.1416802042493
 20
-146.5895019164776
 30
0.0
 10
103.2474446356465
 20
-145.7433864653003
 30
0.0
 10
103.2474446356465
 20
-145.7433864653003
 30
0.0
 10
103.2474446356465
 20
-145.7433864653003
 30
0.0
 10
103.9288845226289
 20
-145.7433864653003
 30
0.0
 10
103.9288845226289
 20
-145.7433864653003
 30
0.0
 10
103.9288845226289
 20
-145.7433864653003
 30
0.0
 10
103.9288845226289
 20
-145.9376898506684
 30
0.0
 10
103.9288845226289
 20
-145.9376898506684
 30
0.0
 10
103.9288845226289
 20
-145.9376898506684
 30
0.0
 10
103.3897270791873
 20
-145.9376898506684
 30
0.0
 10
103.3897270791873
 20
-145.9376898506684
 30
0.0
 10
103.3897270791873
 20
-145.9376898506684
 30
0.0
 10
103.3325384941322
 20
-146.360747576257
 30
0.0
 10
103.3325384941322
 20
-146.360747576257
 30
0.0
 10
103.386281983702
 20
-146.3269856405016
 30
0.0
 10
103.4582844793438
 20
-146.2870225328727
 30
0.0
 10
103.5619818534498
 20
-146.2870225328727
 30
0.0
 10
103.7841905122484
 20
-146.2870225328727
 30
0.0
 10
103.9915852604604
 20
-146.4730576890762
 30
0.0
 10
103.9915852604604
 20
-146.7858723591369
 30
0.0
 10
103.9915852604604
 20
-147.1035101628769
 30
0.0
 10
103.7952148178012
 20
-147.3384656749709
 30
0.0
 10
103.530631484534
 20
-147.3384656749709
 30
0.0
  0
HATCH
  5
6F
330
68
100
AcDbEntity
  8
_U+30EC_U+30A4_U+30E4_U+30FC 1
 62
   179
420
  2234388
100
AcDbHatch
 10
0.0
 20
0.0
 30
0.0
210
0.0
220
0.0
230
1.0
  2
SOLID
 70
     1
 71
     0
 91
        1
 92
        1
 93
        1
 72
     4
 94
        3
 73
     0
 74
     1
 95
       53
 96
       49
 40
0.0
 40
0.0
 40
0.0
 40
0.0
 40
1.0
 40
1.0
 40
1.0
 40
2.0
 40
2.0
 40
2.0
 40
3.0
 40
3.0
 40
3.0
 40
4.0
 40
4.0
 40
4.0
 40
5.0
 40
5.0
 40
5.0
 40
6.0
 40
6.0
 40
6.0
 40
7.0
 40
7.0
 40
7.0
 40
8.0
 40
8.0
 40
8.0
 40
9.0
 40
9.0
 40
9.0
 40
10.0
 40
10.0
 40
10.0
 40
11.0
 40
11.0
 40
11.0
 40
12.0
 40
12.0
 40
12.0
 40
13.0
 40
13.0
 40
13.0
 40
14.0
 40
14.0
 40
14.0
 40
15.0
 40
15.0
 40
15.0
 40
16.0
 40
16.0
 40
16.0
 40
16.0
 10
103.530631484534
 20
-147.3384656749709
 10
103.4620740843775
 20
-147.3384656749709
 10
103.3731906208581
 20
-147.3212401975447
 10
103.2843071573386
 20
-147.2578504406161
 10
103.1323784464391
 20
-147.1476073850881
 10
103.1137749308188
 20
-147.0166937566486
 10
103.0972384724896
 20
-146.9088622679603
 10
103.0972384724896
 20
-146.9088622679603
 10
103.2915418578577
 20
-146.9088622679603
 10
103.2915418578577
 20
-146.9088622679603
 10
103.3397731946512
 20
-147.1076442774592
 10
103.4510497788247
 20
-147.1372720986324
 10
103.5323540322766
 20
-147.1372720986324
 10
103.654654922003
 20
-147.1372720986324
 10
103.7879801172822
 20
-147.0380533486572
 10
103.7879801172822
 20
-146.8051648938543
 10
103.7879801172822
 20
-146.5491942993002
 10
103.6305392536063
 20
-146.4792588609496
 10
103.5251193317576
 20
-146.4792588609496
 10
103.4972140583271
 20
-146.4792588609496
 10
103.3731906208581
 20
-146.4792588609496
 10
103.2953314628915
 20
-146.6084499416465
 10
103.2953314628915
 20
-146.6084499416465
 10
103.1416802042493
 20
-146.5895019164776
 10
103.1416802042493
 20
-146.5895019164776
 10
103.1416802042493
 20
-146.5895019164776
 10
103.2474446356465
 20
-145.7433864653003
 10
103.2474446356465
 20
-145.7433864653003
 10
103.2474446356465
 20
-145.7433864653003
 10
103.9288845226289
 20
-145.7433864653003
 10
103.9288845226289
 20
-145.7433864653003
 10
103.9288845226289
 20
-145.7433864653003
 10
103.9288845226289
 20
-145.9376898506684
 10
103.9288845226289
 20
-145.9376898506684
 10
103.9288845226289
 20
-145.9376898506684
 10
103.3897270791873
 20
-145.9376898506684
 10
103.3897270791873
 20
-145.9376898506684
 10
103.3897270791873
 20
-145.9376898506684
 10
103.3325384941322
 20
-146.360747576257
 10
103.3325384941322
 20
-146.360747576257
 10
103.386281983702
 20
-146.3269856405016
 10
103.4582844793438
 20
-146.2870225328727
 10
103.5619818534498
 20
-146.2870225328727
 10
103.7841905122484
 20
-146.2870225328727
 10
103.9915852604604
 20
-146.4730576890762
 10
103.9915852604604
 20
-146.7858723591369
 10
103.9915852604604
 20
-147.1035101628769
 10
103.7952148178012
 20
-147.3384656749709
 10
103.530631484534
 20
-147.3384656749709
 97
        0
 97
        0
 75
     2
 76
     1
 98
        0
  0
ENDBLK
  5
6B
330
68
100
AcDbEntity
  8
0
100
AcDbBlockEnd
  0
BLOCK
  5
72
330
70
100
AcDbEntity
  8
0
100
AcDbBlockBegin
  2
block 5
 70
     0
 10
0.0
 20
0.0
 30
0.0
  3
block 5
  1

  0
SPLINE
  5
74
330
70
100
AcDbEntity
  8
_U+30EC_U+30A4_U+30E4_U+30FC 1
370
     0
100
AcDbSpline
210
0.0
220
0.0
230
1.0
 70
    11
 71
     3
 72
    26
 73
    22
 74
     0
 42
0.0000000001
 43
0.0000000001
 12
1.0
 22
0.0
 32
0.0
 13
1.0
 23
0.0
 33
0.0
 40
0.0
 40
0.0
 40
0.0
 40
0.0
 40
1.0
 40
1.0
 40
1.0
 40
2.0
 40
2.0
 40
2.0
 40
3.0
 40
3.0
 40
3.0
 40
4.0
 40
4.0
 40
4.0
 40
5.0
 40
5.0
 40
5.0
 40
6.0
 40
6.0
 40
6.0
 40
7.0
 40
7.0
 40
7.0
 40
7.0
 10
91.91928166104796
 20
-147.2874782617893
 30
0.0
 10
91.91928166104796
 20
-147.2874782617893
 30
0.0
 10
91.71188691283592
 20
-147.2874782617893
 30
0.0
 10
91.71188691283592
 20
-147.2874782617893
 30
0.0
 10
91.73393552394153
 20
-146.9787977063109
 30
0.0
 10
91.90240069317024
 20
-146.4603108357808
 30
0.0
 10
92.25793454724803
 20
-145.9549153280946
 30
0.0
 10
92.25793454724803
 20
-145.9549153280946
 30
0.0
 10
91.52481822798686
 20
-145.9549153280946
 30
0.0
 10
91.52481822798686
 20
-145.9549153280946
 30
0.0
 10
91.52481822798686
 20
-145.9549153280946
 30
0.0
 10
91.52481822798686
 20
-145.7433864653003
 30
0.0
 10
91.52481822798686
 20
-145.7433864653003
 30
0.0
 10
91.52481822798686
 20
-145.7433864653003
 30
0.0
 10
92.46532929546007
 20
-145.7433864653003
 30
0.0
 10
92.46532929546007
 20
-145.7433864653003
 30
0.0
 10
92.46532929546007
 20
-145.7433864653003
 30
0.0
 10
92.46532929546007
 20
-145.9549153280946
 30
0.0
 10
92.46532929546007
 20
-145.9549153280946
 30
0.0
 10
92.18214244657253
 20
-146.2443033488556
 30
0.0
 10
91.94890948222111
 20
-146.8368597723186
 30
0.0
 10
91.91928166104796
 20
-147.2874782617893
 30
0.0
  0
HATCH
  5
75
330
70
100
AcDbEntity
  8
_U+30EC_U+30A4_U+30E4_U+30FC 1
 62
   179
420
  2234388
100
AcDbHatch
 10
0.0
 20
0.0
 30
0.0
210
0.0
220
0.0
230
1.0
  2
SOLID
 70
     1
 71
     0
 91
        1
 92
        1
 93
        1
 72
     4
 94
        3
 73
     0
 74
     1
 95
       26
 96
       22
 40
0.0
 40
0.0
 40
0.0
 40
0.0
 40
1.0
 40
1.0
 40
1.0
 40
2.0
 40
2.0
 40
2.0
 40
3.0
 40
3.0
 40
3.0
 40
4.0
 40
4.0
 40
4.0
 40
5.0
 40
5.0
 40
5.0
 40
6.0
 40
6.0
 40
6.0
 40
7.0
 40
7.0
 40
7.0
 40
7.0
 10
91.91928166104796
 20
-147.2874782617893
 10
91.91928166104796
 20
-147.2874782617893
 10
91.71188691283592
 20
-147.2874782617893
 10
91.71188691283592
 20
-147.2874782617893
 10
91.73393552394153
 20
-146.9787977063109
 10
91.90240069317024
 20
-146.4603108357808
 10
92.25793454724803
 20
-145.9549153280946
 10
92.25793454724803
 20
-145.9549153280946
 10
91.52481822798686
 20
-145.9549153280946
 10
91.52481822798686
 20
-145.9549153280946
 10
91.52481822798686
 20
-145.9549153280946
 10
91.52481822798686
 20
-145.7433864653003
 10
91.52481822798686
 20
-145.7433864653003
 10
91.52481822798686
 20
-145.7433864653003
 10
92.46532929546007
 20
-145.7433864653003
 10
92.46532929546007
 20
-145.7433864653003
 10
92.46532929546007
 20
-145.7433864653003
 10
92.46532929546007
 20
-145.9549153280946
 10
92.46532929546007
 20
-145.9549153280946
 10
92.18214244657253
 20
-146.2443033488556
 10
91.94890948222111
 20
-146.8368597723186
 10
91.91928166104796
 20
-147.2874782617893
 97
        0
 97
        0
 75
     2
 76
     1
 98
        0
  0
ENDBLK
  5
73
330
70
100
AcDbEntity
  8
0
100
AcDbBlockEnd
  0
BLOCK
  5
84
330
82
100
AcDbEntity
  8
0
100
AcDbBlockBegin
  2
block 6
 70
     0
 10
0.0
 20
0.0
 30
0.0
  3
block 6
  1

  0
SPLINE
  5
86
330
82
100
AcDbEntity
  8
_U+30EC_U+30A4_U+30E4_U+30FC 1
370
     0
100
AcDbSpline
210
0.0
220
0.0
230
1.0
 70
    11
 71
     3
 72
    44
 73
    40
 74
     0
 42
0.0000000001
 43
0.0000000001
 12
1.0
 22
0.0
 32
0.0
 13
1.0
 23
0.0
 33
0.0
 40
0.0
 40
0.0
 40
0.0
 40
0.0
 40
1.0
 40
1.0
 40
1.0
 40
2.0
 40
2.0
 40
2.0
 40
3.0
 40
3.0
 40
3.0
 40
4.0
 40
4.0
 40
4.0
 40
5.0
 40
5.0
 40
5.0
 40
6.0
 40
6.0
 40
6.0
 40
7.0
 40
7.0
 40
7.0
 40
8.0
 40
8.0
 40
8.0
 40
9.0
 40
9.0
 40
9.0
 40
10.0
 40
10.0
 40
10.0
 40
11.0
 40
11.0
 40
11.0
 40
12.0
 40
12.0
 40
12.0
 40
13.0
 40
13.0
 40
13.0
 40
13.0
 10
79.12626408612121
 20
-138.845616284733
 30
0.0
 10
78.87890623028028
 20
-138.8242566927245
 30
0.0
 10
78.76935219384933
 20
-138.8197780685937
 30
0.0
 10
78.63740503676426
 20
-138.8917805642354
 30
0.0
 10
78.63740503676426
 20
-138.8917805642354
 30
0.0
 10
79.12212997153891
 20
-139.3713378557822
 30
0.0
 10
79.12212997153891
 20
-139.3713378557822
 30
0.0
 10
79.12212997153891
 20
-139.3713378557822
 30
0.0
 10
78.97778047070695
 20
-139.5170653948082
 30
0.0
 10
78.97778047070695
 20
-139.5170653948082
 30
0.0
 10
78.97778047070695
 20
-139.5170653948082
 30
0.0
 10
78.33802623909605
 20
-138.8842013541679
 30
0.0
 10
78.33802623909605
 20
-138.8842013541679
 30
0.0
 10
78.60915525378522
 20
-138.6492458420738
 30
0.0
 10
78.70492890827516
 20
-138.6340874219387
 30
0.0
 10
79.15451386910027
 20
-138.659236618981
 30
0.0
 10
79.45354815721996
 20
-138.6754285677617
 30
0.0
 10
79.54174260164234
 20
-138.6678493576942
 30
0.0
 10
79.63820527522934
 20
-138.570008645913
 30
0.0
 10
79.72157658597239
 20
-138.4859483160729
 30
0.0
 10
79.76946341321737
 20
-138.348144496663
 30
0.0
 10
79.64716252349099
 20
-138.2272216451307
 30
0.0
 10
79.48489852613572
 20
-138.066680195518
 30
0.0
 10
79.31746688555258
 20
-138.2254990973881
 30
0.0
 10
79.23306204616397
 20
-138.3054253126459
 30
0.0
 10
79.23306204616397
 20
-138.3054253126459
 30
0.0
 10
79.09353567901134
 20
-138.1676214932359
 30
0.0
 10
79.09353567901134
 20
-138.1676214932359
 30
0.0
 10
79.1882758048557
 20
-138.0828721442987
 30
0.0
 10
79.27371417288991
 20
-138.0094916104629
 30
0.0
 10
79.40703936816908
 20
-137.9746961460619
 30
0.0
 10
79.58859590024174
 20
-137.928187357011
 30
0.0
 10
79.72812226739437
 20
-138.0187933682731
 30
0.0
 10
79.8004692725846
 20
-138.0904513543663
 30
0.0
 10
79.9727240468471
 20
-138.2606390713376
 30
0.0
 10
79.97237953729858
 20
-138.5193657422799
 30
0.0
 10
79.78048771877016
 20
-138.7133246180994
 30
0.0
 10
79.61994626915752
 20
-138.8759331250033
 30
0.0
 10
79.4776638256167
 20
-138.8745550868092
 30
0.0
 10
79.12626408612121
 20
-138.845616284733
 30
0.0
  0
HATCH
  5
87
330
82
100
AcDbEntity
  8
_U+30EC_U+30A4_U+30E4_U+30FC 1
 62
   179
420
  2234388
100
AcDbHatch
 10
0.0
 20
0.0
 30
0.0
210
0.0
220
0.0
230
1.0
  2
SOLID
 70
     1
 71
     0
 91
        1
 92
        1
 93
        1
 72
     4
 94
        3
 73
     0
 74
     1
 95
       44
 96
       40
 40
0.0
 40
0.0
 40
0.0
 40
0.0
 40
1.0
 40
1.0
 40
1.0
 40
2.0
 40
2.0
 40
2.0
 40
3.0
 40
3.0
 40
3.0
 40
4.0
 40
4.0
 40
4.0
 40
5.0
 40
5.0
 40
5.0
 40
6.0
 40
6.0
 40
6.0
 40
7.0
 40
7.0
 40
7.0
 40
8.0
 40
8.0
 40
8.0
 40
9.0
 40
9.0
 40
9.0
 40
10.0
 40
10.0
 40
10.0
 40
11.0
 40
11.0
 40
11.0
 40
12.0
 40
12.0
 40
12.0
 40
13.0
 40
13.0
 40
13.0
 40
13.0
 10
79.12626408612121
 20
-138.845616284733
 10
78.87890623028028
 20
-138.8242566927245
 10
78.76935219384933
 20
-138.8197780685937
 10
78.63740503676426
 20
-138.8917805642354
 10
78.63740503676426
 20
-138.8917805642354
 10
79.12212997153891
 20
-139.3713378557822
 10
79.12212997153891
 20
-139.3713378557822
 10
79.12212997153891
 20
-139.3713378557822
 10
78.97778047070695
 20
-139.5170653948082
 10
78.97778047070695
 20
-139.5170653948082
 10
78.97778047070695
 20
-139.5170653948082
 10
78.33802623909605
 20
-138.8842013541679
 10
78.33802623909605
 20
-138.8842013541679
 10
78.60915525378522
 20
-138.6492458420738
 10
78.70492890827516
 20
-138.6340874219387
 10
79.15451386910027
 20
-138.659236618981
 10
79.45354815721996
 20
-138.6754285677617
 10
79.54174260164234
 20
-138.6678493576942
 10
79.63820527522934
 20
-138.570008645913
 10
79.72157658597239
 20
-138.4859483160729
 10
79.76946341321737
 20
-138.348144496663
 10
79.64716252349099
 20
-138.2272216451307
 10
79.48489852613572
 20
-138.066680195518
 10
79.31746688555258
 20
-138.2254990973881
 10
79.23306204616397
 20
-138.3054253126459
 10
79.23306204616397
 20
-138.3054253126459
 10
79.09353567901134
 20
-138.1676214932359
 10
79.09353567901134
 20
-138.1676214932359
 10
79.1882758048557
 20
-138.0828721442987
 10
79.27371417288991
 20
-138.0094916104629
 10
79.40703936816908
 20
-137.9746961460619
 10
79.58859590024174
 20
-137.928187357011
 10
79.72812226739437
 20
-138.0187933682731
 10
79.8004692725846
 20
-138.0904513543663
 10
79.9727240468471
 20
-138.2606390713376
 10
79.97237953729858
 20
-138.5193657422799
 10
79.78048771877016
 20
-138.7133246180994
 10
79.61994626915752
 20
-138.8759331250033
 10
79.4776638256167
 20
-138.8745550868092
 10
79.12626408612121
 20
-138.845616284733
 97
        0
 97
        0
 75
     2
 76
     1
 98
        0
  0
SPLINE
  5
88
330
82
100
AcDbEntity
  8
_U+30EC_U+30A4_U+30E4_U+30FC 1
370
     0
100
AcDbSpline
210
0.0
220
0.0
230
1.0
 70
    11
 71
     3
 72
    29
 73
    25
 74
     0
 42
0.0000000001
 43
0.0000000001
 12
1.0
 22
0.0
 32
0.0
 13
1.0
 23
0.0
 33
0.0
 40
0.0
 40
0.0
 40
0.0
 40
0.0
 40
1.0
 40
1.0
 40
1.0
 40
2.0
 40
2.0
 40
2.0
 40
3.0
 40
3.0
 40
3.0
 40
4.0
 40
4.0
 40
4.0
 40
5.0
 40
5.0
 40
5.0
 40
6.0
 40
6.0
 40
6.0
 40
7.0
 40
7.0
 40
7.0
 40
8.0
 40
8.0
 40
8.0
 40
8.0
 10
79.76429576998949
 20
-140.0455430422456
 30
0.0
 10
79.55001083080694
 20
-140.127880824343
 30
0.0
 10
79.42839896017763
 20
-140.0348632462413
 30
0.0
 10
79.35605195498738
 20
-139.9628607505996
 30
0.0
 10
79.25614418591513
 20
-139.8639865101729
 30
0.0
 10
79.2006781486026
 20
-139.7437526777377
 30
0.0
 10
79.26958005830761
 20
-139.5559949737916
 30
0.0
 10
79.34158255394934
 20
-139.3534233592589
 30
0.0
 10
79.49661185078557
 20
-139.1735893749288
 30
0.0
 10
79.61098902089587
 20
-139.0578341666244
 30
0.0
 10
79.71227482816221
 20
-138.955170321164
 30
0.0
 10
79.8996880225598
 20
-138.7867051519353
 30
0.0
 10
80.10570473257775
 20
-138.7105685417112
 30
0.0
 10
80.31551104762946
 20
-138.6327093837446
 30
0.0
 10
80.43161076548238
 20
-138.7147026562936
 30
0.0
 10
80.51222599983723
 20
-138.7942843620028
 30
0.0
 10
80.61075573071537
 20
-138.8917805642354
 30
0.0
 10
80.66897784441609
 20
-139.0123589062191
 30
0.0
 10
80.60042044425963
 20
-139.2004611197138
 30
0.0
 10
80.52669540087527
 20
-139.3982096005671
 30
0.0
 10
80.38062335230069
 20
-139.5752875085089
 30
0.0
 10
80.25866697212284
 20
-139.6986219268809
 30
0.0
 10
80.13843313968762
 20
-139.8202337975102
 30
0.0
 10
79.9630777794884
 20
-139.9714734893127
 30
0.0
 10
79.76429576998949
 20
-140.0455430422456
 30
0.0
  0
SPLINE
  5
89
330
82
100
AcDbEntity
  8
_U+30EC_U+30A4_U+30E4_U+30FC 1
370
     0
100
AcDbSpline
210
0.0
220
0.0
230
1.0
 70
    11
 71
     3
 72
    17
 73
    13
 74
     0
 42
0.0000000001
 43
0.0000000001
 12
1.0
 22
0.0
 32
0.0
 13
1.0
 23
0.0
 33
0.0
 40
0.0
 40
0.0
 40
0.0
 40
0.0
 40
1.0
 40
1.0
 40
1.0
 40
2.0
 40
2.0
 40
2.0
 40
3.0
 40
3.0
 40
3.0
 40
4.0
 40
4.0
 40
4.0
 40
4.0
 10
80.3768337472669
 20
-138.9310546527672
 30
0.0
 10
80.22145994088214
 20
-138.7777479036736
 30
0.0
 10
79.99305011021008
 20
-138.9506916970332
 30
0.0
 10
79.75051538804848
 20
-139.1956379860344
 30
0.0
 10
79.5258951624102
 20
-139.4230142880609
 30
0.0
 10
79.33124726749358
 20
-139.6645154815769
 30
0.0
 10
79.49316675530032
 20
-139.824712421641
 30
0.0
 10
79.64716252349099
 20
-139.9769856420891
 30
0.0
 10
79.87522784461453
 20
-139.8071424346663
 30
0.0
 10
80.11914060497021
 20
-139.5604735979224
 30
0.0
 10
80.3437608306085
 20
-139.3334418054444
 30
0.0
 10
80.53737519687955
 20
-139.0902180641858
 30
0.0
 10
80.3768337472669
 20
-138.9310546527672
 30
0.0
  0
HATCH
  5
8A
330
82
100
AcDbEntity
  8
_U+30EC_U+30A4_U+30E4_U+30FC 1
 62
   179
420
  2234388
100
AcDbHatch
 10
0.0
 20
0.0
 30
0.0
210
0.0
220
0.0
230
1.0
  2
SOLID
 70
     1
 71
     0
 91
        2
 92
        1
 93
        1
 72
     4
 94
        3
 73
     0
 74
     1
 95
       29
 96
       25
 40
0.0
 40
0.0
 40
0.0
 40
0.0
 40
1.0
 40
1.0
 40
1.0
 40
2.0
 40
2.0
 40
2.0
 40
3.0
 40
3.0
 40
3.0
 40
4.0
 40
4.0
 40
4.0
 40
5.0
 40
5.0
 40
5.0
 40
6.0
 40
6.0
 40
6.0
 40
7.0
 40
7.0
 40
7.0
 40
8.0
 40
8.0
 40
8.0
 40
8.0
 10
79.76429576998949
 20
-140.0455430422456
 10
79.55001083080694
 20
-140.127880824343
 10
79.42839896017763
 20
-140.0348632462413
 10
79.35605195498738
 20
-139.9628607505996
 10
79.25614418591513
 20
-139.8639865101729
 10
79.2006781486026
 20
-139.7437526777377
 10
79.26958005830761
 20
-139.5559949737916
 10
79.34158255394934
 20
-139.3534233592589
 10
79.49661185078557
 20
-139.1735893749288
 10
79.61098902089587
 20
-139.0578341666244
 10
79.71227482816221
 20
-138.955170321164
 10
79.8996880225598
 20
-138.7867051519353
 10
80.10570473257775
 20
-138.7105685417112
 10
80.31551104762946
 20
-138.6327093837446
 10
80.43161076548238
 20
-138.7147026562936
 10
80.51222599983723
 20
-138.7942843620028
 10
80.61075573071537
 20
-138.8917805642354
 10
80.66897784441609
 20
-139.0123589062191
 10
80.60042044425963
 20
-139.2004611197138
 10
80.52669540087527
 20
-139.3982096005671
 10
80.38062335230069
 20
-139.5752875085089
 10
80.25866697212284
 20
-139.6986219268809
 10
80.13843313968762
 20
-139.8202337975102
 10
79.9630777794884
 20
-139.9714734893127
 10
79.76429576998949
 20
-140.0455430422456
 97
        0
 97
        0
 92
        1
 93
        1
 72
     4
 94
        3
 73
     0
 74
     1
 95
       17
 96
       13
 40
0.0
 40
0.0
 40
0.0
 40
0.0
 40
1.0
 40
1.0
 40
1.0
 40
2.0
 40
2.0
 40
2.0
 40
3.0
 40
3.0
 40
3.0
 40
4.0
 40
4.0
 40
4.0
 40
4.0
 10
80.3768337472669
 20
-138.9310546527672
 10
80.22145994088214
 20
-138.7777479036736
 10
79.99305011021008
 20
-138.9506916970332
 10
79.75051538804848
 20
-139.1956379860344
 10
79.5258951624102
 20
-139.4230142880609
 10
79.33124726749358
 20
-139.6645154815769
 10
79.49316675530032
 20
-139.824712421641
 10
79.64716252349099
 20
-139.9769856420891
 10
79.87522784461453
 20
-139.8071424346663
 10
80.11914060497021
 20
-139.5604735979224
 10
80.3437608306085
 20
-139.3334418054444
 10
80.53737519687955
 20
-139.0902180641858
 10
80.3768337472669
 20
-138.9310546527672
 97
        0
 97
        0
 75
     2
 76
     1
 98
        0
  0
ENDBLK
  5
85
330
82
100
AcDbEntity
  8
0
100
AcDbBlockEnd
  0
ENDSEC
  0
SECTION
  2
ENTITIES
  0
INSERT
  5
42
330
1F
100
AcDbEntity
  8
_U+30EC_U+30A4_U+30E4_U+30FC 1
100
AcDbBlockReference
  2
block 2
 10
0.0
 20
0.0
 30
0.0
  0
ENDSEC
  0
SECTION
  2
OBJECTS
  0
DICTIONARY
  5
C
330
0
100
AcDbDictionary
281
     1
  3
ACAD_GROUP
350
D
  3
ACAD_LAYOUT
350
1A
  3
ACAD_MATERIAL
350
3B
  3
ACAD_MLEADERSTYLE
350
92
  3
ACAD_MLINESTYLE
350
17
  3
ACAD_PLOTSETTINGS
350
19
  3
ACAD_PLOTSTYLENAME
350
E
  3
ACAD_TABLESTYLE
350
91
  3
ACAD_VISUALSTYLE
350
2A
  0
SUN
  5
3F
330
29
100
AcDbSun
 90
        1
290
     0
 63
     7
421
 16777215
 40
1.0
291
     1
 91
  2455826
 92
 54000000
292
     0
 70
     2
 71
   256
280
     1
  0
DICTIONARY
  5
D
102
{ACAD_REACTORS
330
C
102
}
330
C
100
AcDbDictionary
281
     1
  0
DICTIONARY
  5
1A
102
{ACAD_REACTORS
330
C
102
}
330
C
100
AcDbDictionary
281
     1
  3
Layout1
350
1E
  3
Layout2
350
26
  3
Model
350
22
  0
DICTIONARY
  5
3B
102
{ACAD_REACTORS
330
C
102
}
330
C
100
AcDbDictionary
281
     1
  3
ByBlock
350
3D
  3
ByLayer
350
3C
  3
Global
350
3E
  0
DICTIONARY
  5
92
102
{ACAD_REACTORS
330
C
102
}
330
C
100
AcDbDictionary
281
     1
  0
DICTIONARY
  5
17
102
{ACAD_REACTORS
330
C
102
}
330
C
100
AcDbDictionary
281
     1
  3
Standard
350
18
  0
DICTIONARY
  5
19
102
{ACAD_REACTORS
330
C
102
}
330
C
100
AcDbDictionary
281
     1
  0
ACDBDICTIONARYWDFLT
  5
E
102
{ACAD_REACTORS
330
C
102
}
330
C
100
AcDbDictionary
281
     1
  3
Normal
350
F
100
AcDbDictionaryWithDefault
340
F
  0
DICTIONARY
  5
91
102
{ACAD_REACTORS
330
C
102
}
330
C
100
AcDbDictionary
281
     1
  0
DICTIONARY
  5
2A
102
{ACAD_REACTORS
330
C
102
}
330
C
100
AcDbDictionary
281
     1
  3
2dWireframe
350
2F
  3
3D Hidden
350
31
  3
3dWireframe
350
30
  3
Basic
350
32
  3
Brighten
350
36
  3
ColorChange
350
3A
  3
Conceptual
350
34
  3
Dim
350
35
  3
Facepattern
350
39
  3
Flat
350
2B
  3
FlatWithEdges
350
2C
  3
Gouraud
350
2D
  3
GouraudWithEdges
350
2E
  3
Linepattern
350
38
  3
Realistic
350
33
  3
Thicken
350
37
  0
LAYOUT
  5
1E
102
{ACAD_REACTORS
330
1A
102
}
330
1A
100
AcDbPlotSettings
  1

  2
none_device
  4

  6

 40
0.0
 41
0.0
 42
0.0
 43
0.0
 44
0.0
 45
0.0
 46
0.0
 47
0.0
 48
0.0
 49
0.0
140
0.0
141
0.0
142
1.0
143
1.0
 70
   688
 72
     0
 73
     0
 74
     5
  7

 75
    16
 76
     0
 77
     2
 78
   300
147
1.0
148
0.0
149
0.0
100
AcDbLayout
  1
Layout1
 70
     1
 71
     1
 10
0.0
 20
0.0
 11
12.0
 21
9.0
 12
0.0
 22
0.0
 32
0.0
 14
1.000000000000000E+20
 24
1.000000000000000E+20
 34
1.000000000000000E+20
 15
-1.000000000000000E+20
 25
-1.000000000000000E+20
 35
-1.000000000000000E+20
146
0.0
 13
0.0
 23
0.0
 33
0.0
 16
1.0
 26
0.0
 36
0.0
 17
0.0
 27
1.0
 37
0.0
 76
     0
330
1B
  0
LAYOUT
  5
26
102
{ACAD_REACTORS
330
1A
102
}
330
1A
100
AcDbPlotSettings
  1

  2
none_device
  4

  6

 40
0.0
 41
0.0
 42
0.0
 43
0.0
 44
0.0
 45
0.0
 46
0.0
 47
0.0
 48
0.0
 49
0.0
140
0.0
141
0.0
142
1.0
143
1.0
 70
   688
 72
     0
 73
     0
 74
     5
  7

 75
    16
 76
     0
 77
     2
 78
   300
147
1.0
148
0.0
149
0.0
100
AcDbLayout
  1
Layout2
 70
     1
 71
     2
 10
0.0
 20
0.0
 11
0.0
 21
0.0
 12
0.0
 22
0.0
 32
0.0
 14
0.0
 24
0.0
 34
0.0
 15
0.0
 25
0.0
 35
0.0
146
0.0
 13
0.0
 23
0.0
 33
0.0
 16
1.0
 26
0.0
 36
0.0
 17
0.0
 27
1.0
 37
0.0
 76
     0
330
23
  0
LAYOUT
  5
22
102
{ACAD_REACTORS
330
1A
102
}
330
1A
100
AcDbPlotSettings
  1

  2
none_device
  4

  6

 40
0.0
 41
0.0
 42
0.0
 43
0.0
 44
0.0
 45
0.0
 46
0.0
 47
0.0
 48
0.0
 49
0.0
140
0.0
141
0.0
142
1.0
143
1.0
 70
  1712
 72
     0
 73
     0
 74
     0
  7

 75
     0
 76
     0
 77
     2
 78
   300
147
1.0
148
0.0
149
0.0
100
AcDbLayout
  1
Model
 70
     1
 71
     0
 10
0.0
 20
0.0
 11
12.0
 21
9.0
 12
0.0
 22
0.0
 32
0.0
 14
1.000000000000000E+20
 24
1.000000000000000E+20
 34
1.000000000000000E+20
 15
-1.000000000000000E+20
 25
-1.000000000000000E+20
 35
-1.000000000000000E+20
146
0.0
 13
0.0
 23
0.0
 33
0.0
 16
1.0
 26
0.0
 36
0.0
 17
0.0
 27
1.0
 37
0.0
 76
     0
330
1F
331
29
  0
MATERIAL
  5
3D
102
{ACAD_REACTORS
330
3B
102
}
330
3B
100
AcDbMaterial
  1
ByBlock
 72
     1
 94
      127
  0
MATERIAL
  5
3C
102
{ACAD_REACTORS
330
3B
102
}
330
3B
100
AcDbMaterial
  1
ByLayer
 72
     1
 94
      127
  0
MATERIAL
  5
3E
102
{ACAD_REACTORS
330
3B
102
}
330
3B
100
AcDbMaterial
  1
Global
 72
     1
 94
      127
  0
MLINESTYLE
  5
18
102
{ACAD_REACTORS
330
17
102
}
330
17
100
AcDbMlineStyle
  2
Standard
 70
     0
  3

 62
   256
 51
90.0
 52
90.0
 71
     2
 49
0.5
 62
   256
  6
BYLAYER
 49
-0.5
 62
   256
  6
BYLAYER
  0
ACDBPLACEHOLDER
  5
F
102
{ACAD_REACTORS
330
E
102
}
330
E
  0
VISUALSTYLE
  5
2F
102
{ACAD_REACTORS
330
2A
102
}
330
2A
100
AcDbVisualStyle
  2
2dWireframe
 70
     4
177
     2
291
     0
 71
     0
176
     1
 72
     2
176
     1
 73
     0
176
     1
 90
        0
176
     1
 40
-0.6
176
     1
 41
-30.0
176
     1
 62
     5
 63
     7
421
 16777215
176
     1
 74
     1
176
     1
 91
        4
176
     1
 64
     7
176
     1
 65
   257
176
     1
 75
     1
176
     1
175
     1
176
     1
 42
1.0
176
     1
 92
        0
176
     1
 66
   257
176
     1
 43
1.0
176
     1
 76
     1
176
     1
 77
     6
176
     1
 78
     2
176
     1
 67
     7
176
     1
 79
     5
176
     1
170
     0
176
     1
171
     0
176
     1
290
     0
176
     1
 93
        1
176
     1
 44
0.0
176
     1
173
     0
176
     1
  0
VISUALSTYLE
  5
31
102
{ACAD_REACTORS
330
2A
102
}
330
2A
100
AcDbVisualStyle
  2
3D Hidden
 70
     6
177
     2
291
     0
 71
     1
176
     1
 72
     2
176
     1
 73
     2
176
     1
 90
        0
176
     1
 40
-0.6
176
     1
 41
-30.0
176
     1
 62
     5
 63
     7
421
 16777215
176
     1
 74
     2
176
     1
 91
        2
176
     1
 64
     7
176
     1
 65
   257
176
     1
 75
     2
176
     1
175
     1
176
     1
 42
40.0
176
     1
 92
        0
176
     1
 66
   257
176
     1
 43
1.0
176
     1
 76
     1
176
     1
 77
     6
176
     1
 78
     2
176
     1
 67
     7
176
     1
 79
     3
176
     1
170
     0
176
     1
171
     0
176
     1
290
     0
176
     1
 93
        1
176
     1
 44
0.0
176
     1
173
     0
176
     1
  0
VISUALSTYLE
  5
30
102
{ACAD_REACTORS
330
2A
102
}
330
2A
100
AcDbVisualStyle
  2
3dWireframe
 70
     5
177
     2
291
     0
 71
     0
176
     1
 72
     2
176
     1
 73
     0
176
     1
 90
        0
176
     1
 40
-0.6
176
     1
 41
-30.0
176
     1
 62
     5
 63
     7
421
 16777215
176
     1
 74
     1
176
     1
 91
        4
176
     1
 64
     7
176
     1
 65
   257
176
     1
 75
     1
176
     1
175
     1
176
     1
 42
1.0
176
     1
 92
        0
176
     1
 66
   257
176
     1
 43
1.0
176
     1
 76
     1
176
     1
 77
     6
176
     1
 78
     2
176
     1
 67
     7
176
     1
 79
     5
176
     1
170
     0
176
     1
171
     0
176
     1
290
     0
176
     1
 93
        1
176
     1
 44
0.0
176
     1
173
     0
176
     1
  0
VISUALSTYLE
  5
32
102
{ACAD_REACTORS
330
2A
102
}
330
2A
100
AcDbVisualStyle
  2
Basic
 70
     7
177
     2
291
     1
 71
     1
176
     1
 72
     0
176
     1
 73
     1
176
     1
 90
        0
176
     1
 40
-0.6
176
     1
 41
-30.0
176
     1
 62
     5
 63
     7
421
 16777215
176
     1
 74
     0
176
     1
 91
        4
176
     1
 64
     7
176
     1
 65
   257
176
     1
 75
     1
176
     1
175
     1
176
     1
 42
1.0
176
     1
 92
        8
176
     1
 66
     7
176
     1
 43
1.0
176
     1
 76
     1
176
     1
 77
     6
176
     1
 78
     2
176
     1
 67
     7
176
     1
 79
     5
176
     1
170
     0
176
     1
171
     0
176
     1
290
     0
176
     1
 93
        1
176
     1
 44
0.0
176
     1
173
     0
176
     1
  0
VISUALSTYLE
  5
36
102
{ACAD_REACTORS
330
2A
102
}
330
2A
100
AcDbVisualStyle
  2
Brighten
 70
    12
177
     2
291
     1
 71
     2
176
     1
 72
     2
176
     1
 73
     0
176
     1
 90
        0
176
     1
 40
-0.6
176
     1
 41
-30.0
176
     1
 62
     5
 63
     7
421
 16777215
176
     1
 74
     1
176
     1
 91
        4
176
     1
 64
     7
176
     1
 65
   257
176
     1
 75
     1
176
     1
175
     1
176
     1
 42
1.0
176
     1
 92
        8
176
     1
 66
     7
176
     1
 43
1.0
176
     1
 76
     1
176
     1
 77
     6
176
     1
 78
     2
176
     1
 67
     7
176
     1
 79
     5
176
     1
170
     0
176
     1
171
     0
176
     1
290
     0
176
     1
 93
        1
176
     1
 44
50.0
176
     1
173
     0
176
     1
  0
VISUALSTYLE
  5
3A
102
{ACAD_REACTORS
330
2A
102
}
330
2A
100
AcDbVisualStyle
  2
ColorChange
 70
    16
177
     2
291
     1
 71
     2
176
     1
 72
     2
176
     1
 73
     3
176
     1
 90
        0
176
     1
 40
-0.6
176
     1
 41
-30.0
176
     1
 62
     5
 63
     8
421
  8421504
176
     1
 74
     1
176
     1
 91
        4
176
     1
 64
     7
176
     1
 65
   257
176
     1
 75
     1
176
     1
175
     1
176
     1
 42
1.0
176
     1
 92
        8
176
     1
 66
     8
424
  8421504
176
     1
 43
1.0
176
     1
 76
     1
176
     1
 77
     6
176
     1
 78
     2
176
     1
 67
     7
176
     1
 79
     5
176
     1
170
     0
176
     1
171
     0
176
     1
290
     0
176
     1
 93
        1
176
     1
 44
0.0
176
     1
173
     0
176
     1
  0
VISUALSTYLE
  5
34
102
{ACAD_REACTORS
330
2A
102
}
330
2A
100
AcDbVisualStyle
  2
Conceptual
 70
     9
177
     2
291
     0
 71
     3
176
     1
 72
     2
176
     1
 73
     0
176
     1
 90
        0
176
     1
 40
-0.6
176
     1
 41
-30.0
176
     1
 62
     5
 63
     7
421
 16777215
176
     1
 74
     2
176
     1
 91
        2
176
     1
 64
     7
176
     1
 65
   257
176
     1
 75
     1
176
     1
175
     1
176
     1
 42
40.0
176
     1
 92
        8
176
     1
 66
     7
176
     1
 43
1.0
176
     1
 76
     1
176
     1
 77
     6
176
     1
 78
     2
176
     1
 67
     7
176
     1
 79
     3
176
     1
170
     0
176
     1
171
     0
176
     1
290
     0
176
     1
 93
        1
176
     1
 44
0.0
176
     1
173
     0
176
     1
  0
VISUALSTYLE
  5
35
102
{ACAD_REACTORS
330
2A
102
}
330
2A
100
AcDbVisualStyle
  2
Dim
 70
    11
177
     2
291
     1
 71
     2
176
     1
 72
     2
176
     1
 73
     0
176
     1
 90
        0
176
     1
 40
-0.6
176
     1
 41
-30.0
176
     1
 62
     5
 63
     7
421
 16777215
176
     1
 74
     1
176
     1
 91
        4
176
     1
 64
     7
176
     1
 65
   257
176
     1
 75
     1
176
     1
175
     1
176
     1
 42
1.0
176
     1
 92
        8
176
     1
 66
     7
176
     1
 43
1.0
176
     1
 76
     1
176
     1
 77
     6
176
     1
 78
     2
176
     1
 67
     7
176
     1
 79
     5
176
     1
170
     0
176
     1
171
     0
176
     1
290
     0
176
     1
 93
        1
176
     1
 44
-50.0
176
     1
173
     0
176
     1
  0
VISUALSTYLE
  5
39
102
{ACAD_REACTORS
330
2A
102
}
330
2A
100
AcDbVisualStyle
  2
Facepattern
 70
    15
177
     2
291
     1
 71
     2
176
     1
 72
     2
176
     1
 73
     0
176
     1
 90
        0
176
     1
 40
-0.6
176
     1
 41
-30.0
176
     1
 62
     5
 63
     7
421
 16777215
176
     1
 74
     1
176
     1
 91
        4
176
     1
 64
     7
176
     1
 65
   257
176
     1
 75
     1
176
     1
175
     1
176
     1
 42
1.0
176
     1
 92
        8
176
     1
 66
     7
176
     1
 43
1.0
176
     1
 76
     1
176
     1
 77
     6
176
     1
 78
     2
176
     1
 67
     7
176
     1
 79
     5
176
     1
170
     0
176
     1
171
     0
176
     1
290
     0
176
     1
 93
        1
176
     1
 44
0.0
176
     1
173
     0
176
     1
  0
VISUALSTYLE
  5
2B
102
{ACAD_REACTORS
330
2A
102
}
330
2A
100
AcDbVisualStyle
  2
Flat
 70
     0
177
     2
291
     1
 71
     2
176
     1
 72
     1
176
     1
 73
     1
176
     1
 90
        2
176
     1
 40
-0.6
176
     1
 41
30.0
176
     1
 62
     5
 63
     7
421
 16777215
176
     1
 74
     0
176
     1
 91
        4
176
     1
 64
     7
176
     1
 65
   257
176
     1
 75
     1
176
     1
175
     1
176
     1
 42
1.0
176
     1
 92
        8
176
     1
 66
     7
176
     1
 43
1.0
176
     1
 76
     1
176
     1
 77
     6
176
     1
 78
     2
176
     1
 67
     7
176
     1
 79
     5
176
     1
170
     0
176
     1
171
     0
176
     1
290
     0
176
     1
 93
       13
176
     1
 44
0.0
176
     1
173
     0
176
     1
  0
VISUALSTYLE
  5
2C
102
{ACAD_REACTORS
330
2A
102
}
330
2A
100
AcDbVisualStyle
  2
FlatWithEdges
 70
     1
177
     2
291
     1
 71
     2
176
     1
 72
     1
176
     1
 73
     1
176
     1
 90
        2
176
     1
 40
-0.6
176
     1
 41
30.0
176
     1
 62
     5
 63
     7
421
 16777215
176
     1
 74
     1
176
     1
 91
        4
176
     1
 64
     7
176
     1
 65
   257
176
     1
 75
     1
176
     1
175
     1
176
     1
 42
1.0
176
     1
 92
        0
176
     1
 66
   257
176
     1
 43
1.0
176
     1
 76
     1
176
     1
 77
     6
176
     1
 78
     2
176
     1
 67
     7
176
     1
 79
     5
176
     1
170
     0
176
     1
171
     0
176
     1
290
     0
176
     1
 93
       13
176
     1
 44
0.0
176
     1
173
     0
176
     1
  0
VISUALSTYLE
  5
2D
102
{ACAD_REACTORS
330
2A
102
}
330
2A
100
AcDbVisualStyle
  2
Gouraud
 70
     2
177
     2
291
     1
 71
     2
176
     1
 72
     2
176
     1
 73
     1
176
     1
 90
        2
176
     1
 40
-0.6
176
     1
 41
30.0
176
     1
 62
     5
 63
     7
421
 16777215
176
     1
 74
     0
176
     1
 91
        4
176
     1
 64
     7
176
     1
 65
   257
176
     1
 75
     1
176
     1
175
     1
176
     1
 42
1.0
176
     1
 92
        0
176
     1
 66
     7
176
     1
 43
1.0
176
     1
 76
     1
176
     1
 77
     6
176
     1
 78
     2
176
     1
 67
     7
176
     1
 79
     5
176
     1
170
     0
176
     1
171
     0
176
     1
290
     0
176
     1
 93
       13
176
     1
 44
0.0
176
     1
173
     0
176
     1
  0
VISUALSTYLE
  5
2E
102
{ACAD_REACTORS
330
2A
102
}
330
2A
100
AcDbVisualStyle
  2
GouraudWithEdges
 70
     3
177
     2
291
     1
 71
     2
176
     1
 72
     2
176
     1
 73
     1
176
     1
 90
        2
176
     1
 40
-0.6
176
     1
 41
30.0
176
     1
 62
     5
 63
     7
421
 16777215
176
     1
 74
     1
176
     1
 91
        4
176
     1
 64
     7
176
     1
 65
   257
176
     1
 75
     1
176
     1
175
     1
176
     1
 42
1.0
176
     1
 92
        0
176
     1
 66
   257
176
     1
 43
1.0
176
     1
 76
     1
176
     1
 77
     6
176
     1
 78
     2
176
     1
 67
     7
176
     1
 79
     5
176
     1
170
     0
176
     1
171
     0
176
     1
290
     0
176
     1
 93
       13
176
     1
 44
0.0
176
     1
173
     0
176
     1
  0
VISUALSTYLE
  5
38
102
{ACAD_REACTORS
330
2A
102
}
330
2A
100
AcDbVisualStyle
  2
Linepattern
 70
    14
177
     2
291
     1
 71
     2
176
     1
 72
     2
176
     1
 73
     0
176
     1
 90
        0
176
     1
 40
-0.6
176
     1
 41
-30.0
176
     1
 62
     5
 63
     7
421
 16777215
176
     1
 74
     1
176
     1
 91
        4
176
     1
 64
     7
176
     1
 65
   257
176
     1
 75
     7
176
     1
175
     7
176
     1
 42
1.0
176
     1
 92
        8
176
     1
 66
     7
176
     1
 43
1.0
176
     1
 76
     1
176
     1
 77
     6
176
     1
 78
     2
176
     1
 67
     7
176
     1
 79
     5
176
     1
170
     0
176
     1
171
     0
176
     1
290
     0
176
     1
 93
        1
176
     1
 44
0.0
176
     1
173
     0
176
     1
  0
VISUALSTYLE
  5
33
102
{ACAD_REACTORS
330
2A
102
}
330
2A
100
AcDbVisualStyle
  2
Realistic
 70
     8
177
     2
291
     0
 71
     2
176
     1
 72
     2
176
     1
 73
     0
176
     1
 90
        0
176
     1
 40
-0.6
176
     1
 41
-30.0
176
     1
 62
     5
 63
     7
421
 16777215
176
     1
 74
     1
176
     1
 91
        0
176
     1
 64
     7
176
     1
 65
   257
176
     1
 75
     1
176
     1
175
     1
176
     1
 42
1.0
176
     1
 92
        8
176
     1
 66
     8
424
  7895160
176
     1
 43
1.0
176
     1
 76
     1
176
     1
 77
     6
176
     1
 78
     2
176
     1
 67
     7
176
     1
 79
     5
176
     1
170
     0
176
     1
171
     0
176
     1
290
     0
176
     1
 93
       13
176
     1
 44
0.0
176
     1
173
     0
176
     1
  0
VISUALSTYLE
  5
37
102
{ACAD_REACTORS
330
2A
102
}
330
2A
100
AcDbVisualStyle
  2
Thicken
 70
    13
177
     2
291
     1
 71
     2
176
     1
 72
     2
176
     1
 73
     0
176
     1
 90
        0
176
     1
 40
-0.6
176
     1
 41
-30.0
176
     1
 62
     5
 63
     7
421
 16777215
176
     1
 74
     1
176
     1
 91
        4
176
     1
 64
     7
176
     1
 65
   257
176
     1
 75
     1
176
     1
175
     1
176
     1
 42
1.0
176
     1
 92
       12
176
     1
 66
     7
176
     1
 43
1.0
176
     1
 76
     1
176
     1
 77
     6
176
     1
 78
     2
176
     1
 67
     7
176
     1
 79
     5
176
     1
170
     0
176
     1
171
     0
176
     1
290
     0
176
     1
 93
        1
176
     1
 44
0.0
176
     1
173
     0
176
     1
  0
ENDSEC
  0
EOF
