  0
SECTION
  2
HEADER
  9
$ACADVER
  1
AC1024
  9
$ACADMAINTVER
 70
     6
  9
$DWGCODEPAGE
  3
UNDEFINED
  9
$INSBASE
 10
0.0
 20
0.0
 30
0.0
  9
$EXTMIN
 10
1.000000000000000E+20
 20
1.000000000000000E+20
 30
1.000000000000000E+20
  9
$EXTMAX
 10
-1.000000000000000E+20
 20
-1.000000000000000E+20
 30
-1.000000000000000E+20
  9
$LIMMIN
 10
0.0
 20
0.0
  9
$LIMMAX
 10
12.0
 20
9.0
  9
$ORTHOMODE
 70
     0
  9
$REGENMODE
 70
     1
  9
$FILLMODE
 70
     1
  9
$QTEXTMODE
 70
     0
  9
$MIRRTEXT
 70
     1
  9
$LTSCALE
 40
1.0
  9
$ATTMODE
 70
     1
  9
$TEXTSIZE
 40
0.2
  9
$TRACEWID
 40
0.05
  9
$TEXTSTYLE
  7
Standard
  9
$CLAYER
  8
0
  9
$CELTYPE
  6
ByLayer
  9
$CECOLOR
 62
   256
  9
$CELTSCALE
 40
1.0
  9
$DISPSILH
 70
     0
  9
$DIMSCALE
 40
1.0
  9
$DIMASZ
 40
0.18
  9
$DIMEXO
 40
0.0625
  9
$DIMDLI
 40
0.38
  9
$DIMRND
 40
0.0
  9
$DIMDLE
 40
0.0
  9
$DIMEXE
 40
0.18
  9
$DIMTP
 40
0.0
  9
$DIMTM
 40
0.0
  9
$DIMTXT
 40
0.18
  9
$DIMCEN
 40
0.09
  9
$DIMTSZ
 40
0.0
  9
$DIMTOL
 70
     0
  9
$DIMLIM
 70
     0
  9
$DIMTIH
 70
     1
  9
$DIMTOH
 70
     1
  9
$DIMSE1
 70
     0
  9
$DIMSE2
 70
     0
  9
$DIMTAD
 70
     0
  9
$DIMZIN
 70
     0
  9
$DIMBLK
  1

  9
$DIMASO
 70
     1
  9
$DIMSHO
 70
     1
  9
$DIMPOST
  1

  9
$DIMAPOST
  1

  9
$DIMALT
 70
     0
  9
$DIMALTD
 70
     2
  9
$DIMALTF
 40
25.4
  9
$DIMLFAC
 40
1.0
  9
$DIMTOFL
 70
     0
  9
$DIMTVP
 40
0.0
  9
$DIMTIX
 70
     0
  9
$DIMSOXD
 70
     0
  9
$DIMSAH
 70
     0
  9
$DIMBLK1
  1

  9
$DIMBLK2
  1

  9
$DIMSTYLE
  2
Standard
  9
$DIMCLRD
 70
     0
  9
$DIMCLRE
 70
     0
  9
$DIMCLRT
 70
     0
  9
$DIMTFAC
 40
1.0
  9
$DIMGAP
 40
0.09
  9
$DIMJUST
 70
     0
  9
$DIMSD1
 70
     0
  9
$DIMSD2
 70
     0
  9
$DIMTOLJ
 70
     1
  9
$DIMTZIN
 70
     0
  9
$DIMALTZ
 70
     0
  9
$DIMALTTZ
 70
     0
  9
$DIMUPT
 70
     0
  9
$DIMDEC
 70
     4
  9
$DIMTDEC
 70
     4
  9
$DIMALTU
 70
     2
  9
$DIMALTTD
 70
     2
  9
$DIMTXSTY
  7
Standard
  9
$DIMAUNIT
 70
     0
  9
$DIMADEC
 70
     0
  9
$DIMALTRND
 40
0.0
  9
$DIMAZIN
 70
     0
  9
$DIMDSEP
 70
    46
  9
$DIMATFIT
 70
     3
  9
$DIMFRAC
 70
     0
  9
$DIMLDRBLK
  1

  9
$DIMLUNIT
 70
     2
  9
$DIMLWD
 70
    -2
  9
$DIMLWE
 70
    -2
  9
$DIMTMOVE
 70
     0
  9
$DIMFXL
 40
1.0
  9
$DIMFXLON
 70
     0
  9
$DIMJOGANG
 40
0.7853981633974483
  9
$DIMTFILL
 70
     0
  9
$DIMTFILLCLR
 70
     0
  9
$DIMARCSYM
 70
     0
  9
$DIMLTYPE
  6

  9
$DIMLTEX1
  6

  9
$DIMLTEX2
  6

  9
$DIMTXTDIRECTION
 70
     0
  9
$LUNITS
 70
     2
  9
$LUPREC
 70
     4
  9
$SKETCHINC
 40
0.1
  9
$FILLETRAD
 40
0.5
  9
$AUNITS
 70
     0
  9
$AUPREC
 70
     0
  9
$MENU
  1
.
  9
$ELEVATION
 40
0.0
  9
$PELEVATION
 40
0.0
  9
$THICKNESS
 40
0.0
  9
$LIMCHECK
 70
     0
  9
$CHAMFERA
 40
0.5
  9
$CHAMFERB
 40
0.5
  9
$CHAMFERC
 40
1.0
  9
$CHAMFERD
 40
0.0
  9
$SKPOLY
 70
     0
  9
$TDCREATE
 40
2457917.584849525
  9
$TDUCREATE
 40
2457917.209849537
  9
$TDUPDATE
 40
2457917.584849525
  9
$TDUUPDATE
 40
2457917.209849537
  9
$TDINDWG
 40
0.0000000116
  9
$TDUSRTIMER
 40
0.0000000116
  9
$USRTIMER
 70
     1
  9
$ANGBASE
 50
0.0
  9
$ANGDIR
 70
     0
  9
$PDMODE
 70
     0
  9
$PDSIZE
 40
0.0
  9
$PLINEWID
 40
0.0
  9
$SPLFRAME
 70
     0
  9
$SPLINETYPE
 70
     6
  9
$SPLINESEGS
 70
     8
  9
$HANDSEED
  5
B4
  9
$SURFTAB1
 70
     6
  9
$SURFTAB2
 70
     6
  9
$SURFTYPE
 70
     6
  9
$SURFU
 70
     6
  9
$SURFV
 70
     6
  9
$UCSBASE
  2

  9
$UCSNAME
  2

  9
$UCSORG
 10
0.0
 20
0.0
 30
0.0
  9
$UCSXDIR
 10
1.0
 20
0.0
 30
0.0
  9
$UCSYDIR
 10
0.0
 20
1.0
 30
0.0
  9
$UCSORTHOREF
  2

  9
$UCSORTHOVIEW
 70
     0
  9
$UCSORGTOP
 10
0.0
 20
0.0
 30
0.0
  9
$UCSORGBOTTOM
 10
0.0
 20
0.0
 30
0.0
  9
$UCSORGLEFT
 10
0.0
 20
0.0
 30
0.0
  9
$UCSORGRIGHT
 10
0.0
 20
0.0
 30
0.0
  9
$UCSORGFRONT
 10
0.0
 20
0.0
 30
0.0
  9
$UCSORGBACK
 10
0.0
 20
0.0
 30
0.0
  9
$PUCSBASE
  2

  9
$PUCSNAME
  2

  9
$PUCSORG
 10
0.0
 20
0.0
 30
0.0
  9
$PUCSXDIR
 10
1.0
 20
0.0
 30
0.0
  9
$PUCSYDIR
 10
0.0
 20
1.0
 30
0.0
  9
$PUCSORTHOREF
  2

  9
$PUCSORTHOVIEW
 70
     0
  9
$PUCSORGTOP
 10
0.0
 20
0.0
 30
0.0
  9
$PUCSORGBOTTOM
 10
0.0
 20
0.0
 30
0.0
  9
$PUCSORGLEFT
 10
0.0
 20
0.0
 30
0.0
  9
$PUCSORGRIGHT
 10
0.0
 20
0.0
 30
0.0
  9
$PUCSORGFRONT
 10
0.0
 20
0.0
 30
0.0
  9
$PUCSORGBACK
 10
0.0
 20
0.0
 30
0.0
  9
$USERI1
 70
     0
  9
$USERI2
 70
     0
  9
$USERI3
 70
     0
  9
$USERI4
 70
     0
  9
$USERI5
 70
     0
  9
$USERR1
 40
0.0
  9
$USERR2
 40
0.0
  9
$USERR3
 40
0.0
  9
$USERR4
 40
0.0
  9
$USERR5
 40
0.0
  9
$WORLDVIEW
 70
     1
  9
$SHADEDGE
 70
     3
  9
$SHADEDIF
 70
    70
  9
$TILEMODE
 70
     1
  9
$MAXACTVP
 70
    64
  9
$PINSBASE
 10
0.0
 20
0.0
 30
0.0
  9
$PLIMCHECK
 70
     0
  9
$PEXTMIN
 10
1.000000000000000E+20
 20
1.000000000000000E+20
 30
1.000000000000000E+20
  9
$PEXTMAX
 10
-1.000000000000000E+20
 20
-1.000000000000000E+20
 30
-1.000000000000000E+20
  9
$PLIMMIN
 10
0.0
 20
0.0
  9
$PLIMMAX
 10
12.0
 20
9.0
  9
$UNITMODE
 70
     0
  9
$VISRETAIN
 70
     1
  9
$PLINEGEN
 70
     0
  9
$PSLTSCALE
 70
     1
  9
$TREEDEPTH
 70
  3020
  9
$CMLSTYLE
  2
Standard
  9
$CMLJUST
 70
     0
  9
$CMLSCALE
 40
1.0
  9
$PROXYGRAPHICS
 70
     1
  9
$MEASUREMENT
 70
     0
  9
$CELWEIGHT
370
    -1
  9
$ENDCAPS
280
     0
  9
$JOINSTYLE
280
     0
  9
$LWDISPLAY
290
     1
  9
$INSUNITS
 70
     1
  9
$HYPERLINKBASE
  1

  9
$STYLESHEET
  1

  9
$XEDIT
290
     1
  9
$CEPSNTYPE
380
     0
  9
$PSTYLEMODE
290
     1
  9
$FINGERPRINTGUID
  2
{F95AAA41-433D-7728-73DF-6F805F6E92AB}
  9
$VERSIONGUID
  2
{FAEB1C32-E019-11D5-929B-00C0DF256EC4}
  9
$EXTNAMES
290
     1
  9
$PSVPSCALE
 40
0.0
  9
$OLESTARTUP
290
     0
  9
$SORTENTS
280
   127
  9
$INDEXCTL
280
     0
  9
$HIDETEXT
280
     1
  9
$XCLIPFRAME
280
     2
  9
$HALOGAP
280
     0
  9
$OBSCOLOR
 70
   257
  9
$OBSLTYPE
280
     0
  9
$INTERSECTIONDISPLAY
280
     0
  9
$INTERSECTIONCOLOR
 70
   257
  9
$DIMASSOC
280
     2
  9
$PROJECTNAME
  1

  9
$CAMERADISPLAY
290
     0
  9
$LENSLENGTH
 40
50.0
  9
$CAMERAHEIGHT
 40
0.0
  9
$STEPSPERSEC
 40
2.0
  9
$STEPSIZE
 40
6.0
  9
$3DDWFPREC
 40
2.0
  9
$PSOLWIDTH
 40
0.25
  9
$PSOLHEIGHT
 40
4.0
  9
$LOFTANG1
 40
1.570796326794897
  9
$LOFTANG2
 40
1.570796326794897
  9
$LOFTMAG1
 40
0.0
  9
$LOFTMAG2
 40
0.0
  9
$LOFTPARAM
 70
     7
  9
$LOFTNORMALS
280
     1
  9
$LATITUDE
 40
37.795
  9
$LONGITUDE
 40
-122.394
  9
$NORTHDIRECTION
 40
0.0
  9
$TIMEZONE
 70
 -8000
  9
$LIGHTGLYPHDISPLAY
280
     1
  9
$TILEMODELIGHTSYNCH
280
     1
  9
$CMATERIAL
347
3C
  9
$SOLIDHIST
280
     1
  9
$SHOWHIST
280
     1
  9
$DWFFRAME
280
     2
  9
$DGNFRAME
280
     2
  9
$REALWORLDSCALE
290
     1
  9
$INTERFERECOLOR
 62
   256
  9
$CSHADOW
280
     0
  9
$SHADOWPLANELOCATION
 40
0.0
  0
ENDSEC
  0
SECTION
  2
CLASSES
  0
CLASS
  1
ACDBDICTIONARYWDFLT
  2
AcDbDictionaryWithDefault
  3
ObjectDBX Classes
 90
        0
 91
        4
280
     0
281
     0
  0
CLASS
  1
VISUALSTYLE
  2
AcDbVisualStyle
  3
ObjectDBX Classes
 90
     4095
 91
        4
280
     0
281
     0
  0
CLASS
  1
MATERIAL
  2
AcDbMaterial
  3
ObjectDBX Classes
 90
     1153
 91
        4
280
     0
281
     0
  0
CLASS
  1
SUN
  2
AcDbSun
  3
SCENEOE
 90
     1024
 91
        4
280
     0
281
     0
  0
ENDSEC
  0
SECTION
  2
TABLES
  0
TABLE
  2
VPORT
  5
8
330
0
100
AcDbSymbolTable
 70
     1
  0
VPORT
  5
29
330
8
100
AcDbSymbolTableRecord
100
AcDbViewportTableRecord
  2
*Active
 70
     0
 10
0.0
 20
0.0
 11
1.0
 21
1.0
 12
0.0
 22
0.0
 13
0.0
 23
0.0
 14
0.5
 24
0.5
 15
0.5
 25
0.5
 16
0.0
 26
0.0
 36
1.0
 17
91.00082462281999
 27
-128.4993055234307
 37
0.0
 40
256.9986110468615
 41
0.7081814508812795
 42
50.0
 43
0.0
 44
0.0
 50
0.0
 51
0.0
 71
     0
 72
   100
 73
     1
 74
     3
 75
     0
 76
     0
 77
     0
 78
     0
281
     0
 65
     1
110
0.0
120
0.0
130
0.0
111
1.0
121
0.0
131
0.0
112
0.0
122
1.0
132
0.0
 79
     0
146
0.0
 60
     3
 61
     5
292
     1
282
     1
141
0.0
142
0.0
 63
   250
361
3F
  0
ENDTAB
  0
TABLE
  2
LTYPE
  5
5
330
0
100
AcDbSymbolTable
 70
     1
  0
LTYPE
  5
14
330
5
100
AcDbSymbolTableRecord
100
AcDbLinetypeTableRecord
  2
ByBlock
 70
     0
  3

 72
    65
 73
     0
 40
0.0
  0
LTYPE
  5
15
330
5
100
AcDbSymbolTableRecord
100
AcDbLinetypeTableRecord
  2
ByLayer
 70
     0
  3

 72
    65
 73
     0
 40
0.0
  0
LTYPE
  5
16
330
5
100
AcDbSymbolTableRecord
100
AcDbLinetypeTableRecord
  2
Continuous
 70
     0
  3
Solid line
 72
    65
 73
     0
 40
0.0
  0
ENDTAB
  0
TABLE
  2
LAYER
  5
2
330
0
100
AcDbSymbolTable
 70
     2
  0
LAYER
  5
10
330
2
100
AcDbSymbolTableRecord
100
AcDbLayerTableRecord
  2
0
 70
     0
 62
     7
  6
Continuous
370
    -3
390
F
347
3E
  0
LAYER
  5
40
330
2
100
AcDbSymbolTableRecord
100
AcDbLayerTableRecord
  2
_U+30EC_U+30A4_U+30E4_U+30FC 1
 70
     0
 62
     7
  6
Continuous
370
    -3
390
F
347
3E
  0
ENDTAB
  0
TABLE
  2
STYLE
  5
3
330
0
100
AcDbSymbolTable
 70
     1
  0
STYLE
  5
11
330
3
100
AcDbSymbolTableRecord
100
AcDbTextStyleTableRecord
  2
Standard
 70
     0
 40
0.0
 41
1.0
 50
0.0
 71
     0
 42
0.2
  3
txt
  4

  0
ENDTAB
  0
TABLE
  2
VIEW
  5
6
330
0
100
AcDbSymbolTable
 70
     0
  0
ENDTAB
  0
TABLE
  2
UCS
  5
7
330
0
100
AcDbSymbolTable
 70
     0
  0
ENDTAB
  0
TABLE
  2
APPID
  5
9
330
0
100
AcDbSymbolTable
 70
     1
  0
APPID
  5
12
330
9
100
AcDbSymbolTableRecord
100
AcDbRegAppTableRecord
  2
ACAD
 70
     0
  0
ENDTAB
  0
TABLE
  2
DIMSTYLE
  5
A
330
0
100
AcDbSymbolTable
 70
     1
100
AcDbDimStyleTable
  0
DIMSTYLE
105
27
330
A
100
AcDbSymbolTableRecord
100
AcDbDimStyleTableRecord
  2
Standard
 70
     0
178
     0
340
11
  0
ENDTAB
  0
TABLE
  2
BLOCK_RECORD
  5
1
330
0
100
AcDbSymbolTable
 70
     4
  0
BLOCK_RECORD
  5
1F
330
1
100
AcDbSymbolTableRecord
100
AcDbBlockTableRecord
  2
*Model_Space
340
22
 70
     0
280
     1
281
     0
  0
BLOCK_RECORD
  5
1B
330
1
100
AcDbSymbolTableRecord
100
AcDbBlockTableRecord
  2
*Paper_Space
340
1E
 70
     0
280
     1
281
     0
  0
BLOCK_RECORD
  5
23
330
1
100
AcDbSymbolTableRecord
100
AcDbBlockTableRecord
  2
*Paper_Space0
340
26
 70
     0
280
     1
281
     0
  0
BLOCK_RECORD
  5
4A
330
1
100
AcDbSymbolTableRecord
100
AcDbBlockTableRecord
  2
block 2
340
0
102
{BLKREFS
331
4B
102
}
 70
     0
280
     1
281
     0
  0
BLOCK_RECORD
  5
5A
330
1
100
AcDbSymbolTableRecord
100
AcDbBlockTableRecord
  2
block 3
340
0
102
{BLKREFS
331
5B
102
}
 70
     0
280
     1
281
     0
  0
BLOCK_RECORD
  5
74
330
1
100
AcDbSymbolTableRecord
100
AcDbBlockTableRecord
  2
block 4
340
0
102
{BLKREFS
331
75
102
}
 70
     0
280
     1
281
     0
  0
ENDTAB
  0
ENDSEC
  0
SECTION
  2
BLOCKS
  0
BLOCK
  5
20
330
1F
100
AcDbEntity
  8
0
100
AcDbBlockBegin
  2
*Model_Space
 70
     0
 10
0.0
 20
0.0
 30
0.0
  3
*Model_Space
  1

  0
ENDBLK
  5
21
330
1F
100
AcDbEntity
  8
0
100
AcDbBlockEnd
  0
BLOCK
  5
1C
330
1B
100
AcDbEntity
 67
     1
  8
0
100
AcDbBlockBegin
  2
*Paper_Space
 70
     0
 10
0.0
 20
0.0
 30
0.0
  3
*Paper_Space
  1

  0
ENDBLK
  5
1D
330
1B
100
AcDbEntity
 67
     1
  8
0
100
AcDbBlockEnd
  0
BLOCK
  5
24
330
23
100
AcDbEntity
  8
0
100
AcDbBlockBegin
  2
*Paper_Space0
 70
     0
 10
0.0
 20
0.0
 30
0.0
  3
*Paper_Space0
  1

  0
ENDBLK
  5
25
330
23
100
AcDbEntity
  8
0
100
AcDbBlockEnd
  0
BLOCK
  5
4C
330
4A
100
AcDbEntity
  8
0
100
AcDbBlockBegin
  2
block 2
 70
     0
 10
0.0
 20
0.0
 30
0.0
  3
block 2
  1

  0
SPLINE
  5
4E
330
4A
100
AcDbEntity
  8
_U+30EC_U+30A4_U+30E4_U+30FC 1
370
     0
100
AcDbSpline
210
0.0
220
0.0
230
1.0
 70
    11
 71
     3
 72
    26
 73
    22
 74
     0
 42
0.0000000001
 43
0.0000000001
 12
1.0
 22
0.0
 32
0.0
 13
1.0
 23
0.0
 33
0.0
 40
0.0
 40
0.0
 40
0.0
 40
0.0
 40
1.0
 40
1.0
 40
1.0
 40
2.0
 40
2.0
 40
2.0
 40
3.0
 40
3.0
 40
3.0
 40
4.0
 40
4.0
 40
4.0
 40
5.0
 40
5.0
 40
5.0
 40
6.0
 40
6.0
 40
6.0
 40
7.0
 40
7.0
 40
7.0
 40
7.0
 10
110.5882540956168
 20
-144.8628200592704
 30
0.0
 10
110.5882540956168
 20
-144.8628200592704
 30
0.0
 10
109.4837564830457
 20
-144.8628200592704
 30
0.0
 10
109.4837564830457
 20
-144.8628200592704
 30
0.0
 10
109.4837564830457
 20
-144.8628200592704
 30
0.0
 10
109.4837564830457
 20
-145.1928602067574
 30
0.0
 10
109.4837564830457
 20
-145.1928602067574
 30
0.0
 10
109.4837564830457
 20
-145.1928602067574
 30
0.0
 10
109.3359618867285
 20
-145.1928602067574
 30
0.0
 10
109.3359618867285
 20
-145.1928602067574
 30
0.0
 10
109.3211479761419
 20
-144.8607530019793
 30
0.0
 10
109.1581949596896
 20
-144.8142442129284
 30
0.0
 10
109.0441622991278
 20
-144.7846163917552
 30
0.0
 10
109.0441622991278
 20
-144.7846163917552
 30
0.0
 10
109.0441622991278
 20
-144.6385443431807
 30
0.0
 10
109.0441622991278
 20
-144.6385443431807
 30
0.0
 10
109.0441622991278
 20
-144.6385443431807
 30
0.0
 10
110.5882540956168
 20
-144.6385443431807
 30
0.0
 10
110.5882540956168
 20
-144.6385443431807
 30
0.0
 10
110.5882540956168
 20
-144.6385443431807
 30
0.0
 10
110.5882540956168
 20
-144.8628200592704
 30
0.0
 10
110.5882540956168
 20
-144.8628200592704
 30
0.0
  0
HATCH
  5
4F
330
4A
100
AcDbEntity
  8
_U+30EC_U+30A4_U+30E4_U+30FC 1
 62
   179
420
  2234388
100
AcDbHatch
 10
0.0
 20
0.0
 30
0.0
210
0.0
220
0.0
230
1.0
  2
SOLID
 70
     1
 71
     0
 91
        1
 92
        1
 93
        1
 72
     4
 94
        3
 73
     0
 74
     1
 95
       26
 96
       22
 40
0.0
 40
0.0
 40
0.0
 40
0.0
 40
1.0
 40
1.0
 40
1.0
 40
2.0
 40
2.0
 40
2.0
 40
3.0
 40
3.0
 40
3.0
 40
4.0
 40
4.0
 40
4.0
 40
5.0
 40
5.0
 40
5.0
 40
6.0
 40
6.0
 40
6.0
 40
7.0
 40
7.0
 40
7.0
 40
7.0
 10
110.5882540956168
 20
-144.8628200592704
 10
110.5882540956168
 20
-144.8628200592704
 10
109.4837564830457
 20
-144.8628200592704
 10
109.4837564830457
 20
-144.8628200592704
 10
109.4837564830457
 20
-144.8628200592704
 10
109.4837564830457
 20
-145.1928602067574
 10
109.4837564830457
 20
-145.1928602067574
 10
109.4837564830457
 20
-145.1928602067574
 10
109.3359618867285
 20
-145.1928602067574
 10
109.3359618867285
 20
-145.1928602067574
 10
109.3211479761419
 20
-144.8607530019793
 10
109.1581949596896
 20
-144.8142442129284
 10
109.0441622991278
 20
-144.7846163917552
 10
109.0441622991278
 20
-144.7846163917552
 10
109.0441622991278
 20
-144.6385443431807
 10
109.0441622991278
 20
-144.6385443431807
 10
109.0441622991278
 20
-144.6385443431807
 10
110.5882540956168
 20
-144.6385443431807
 10
110.5882540956168
 20
-144.6385443431807
 10
110.5882540956168
 20
-144.6385443431807
 10
110.5882540956168
 20
-144.8628200592704
 10
110.5882540956168
 20
-144.8628200592704
 97
        0
 97
        0
 75
     2
 76
     1
 98
        0
  0
SPLINE
  5
50
330
4A
100
AcDbEntity
  8
_U+30EC_U+30A4_U+30E4_U+30FC 1
370
     0
100
AcDbSpline
210
0.0
220
0.0
230
1.0
 70
    11
 71
     3
 72
    62
 73
    58
 74
     0
 42
0.0000000001
 43
0.0000000001
 12
1.0
 22
0.0
 32
0.0
 13
1.0
 23
0.0
 33
0.0
 40
0.0
 40
0.0
 40
0.0
 40
0.0
 40
1.0
 40
1.0
 40
1.0
 40
2.0
 40
2.0
 40
2.0
 40
3.0
 40
3.0
 40
3.0
 40
4.0
 40
4.0
 40
4.0
 40
5.0
 40
5.0
 40
5.0
 40
6.0
 40
6.0
 40
6.0
 40
7.0
 40
7.0
 40
7.0
 40
8.0
 40
8.0
 40
8.0
 40
9.0
 40
9.0
 40
9.0
 40
10.0
 40
10.0
 40
10.0
 40
11.0
 40
11.0
 40
11.0
 40
12.0
 40
12.0
 40
12.0
 40
13.0
 40
13.0
 40
13.0
 40
14.0
 40
14.0
 40
14.0
 40
15.0
 40
15.0
 40
15.0
 40
16.0
 40
16.0
 40
16.0
 40
17.0
 40
17.0
 40
17.0
 40
18.0
 40
18.0
 40
18.0
 40
19.0
 40
19.0
 40
19.0
 40
19.0
 10
110.6392415087985
 20
-143.6456678243316
 30
0.0
 10
110.6392415087985
 20
-143.7410969692731
 30
0.0
 10
110.61788191679
 20
-143.9588270039409
 30
0.0
 10
110.4318467605865
 20
-144.0838839700554
 30
0.0
 10
110.3195366477673
 20
-144.1579535229883
 30
0.0
 10
110.2203178977921
 20
-144.1620876375706
 30
0.0
 10
110.135568548855
 20
-144.1662217521529
 30
0.0
 10
110.135568548855
 20
-144.1662217521529
 30
0.0
 10
110.135568548855
 20
-143.9460801506454
 30
0.0
 10
110.135568548855
 20
-143.9460801506454
 30
0.0
 10
110.2096381017879
 20
-143.9440130933543
 30
0.0
 10
110.4442491043334
 20
-143.9336778068985
 30
0.0
 10
110.4442491043334
 20
-143.6501464484625
 30
0.0
 10
110.4442491043334
 20
-143.512687138601
 30
0.0
 10
110.3746581755313
 20
-143.3600694086044
 30
0.0
 10
110.1459038353107
 20
-143.3600694086044
 30
0.0
 10
110.0298041174578
 20
-143.3600694086044
 30
0.0
 10
109.9812282711158
 20
-143.3983099684907
 30
0.0
 10
109.9495333926515
 20
-143.430004846955
 30
0.0
 10
109.8751193301701
 20
-143.5040743998879
 30
0.0
 10
109.8627169864232
 20
-143.6205186272893
 30
0.0
 10
109.8627169864232
 20
-143.6752956455048
 30
0.0
 10
109.8627169864232
 20
-143.6945881802222
 30
0.0
 10
109.8647840437144
 20
-143.7304171732688
 30
0.0
 10
109.8689181582967
 20
-143.7579779371508
 30
0.0
 10
109.8689181582967
 20
-143.7579779371508
 30
0.0
 10
109.6742702633801
 20
-143.7579779371508
 30
0.0
 10
109.6742702633801
 20
-143.7579779371508
 30
0.0
 10
109.680815944802
 20
-143.7197373772645
 30
0.0
 10
109.6828830020932
 20
-143.6777072123445
 30
0.0
 10
109.6828830020932
 20
-143.6711615309225
 30
0.0
 10
109.6828830020932
 20
-143.6057047167027
 30
0.0
 10
109.6615234100846
 20
-143.4069227072038
 30
0.0
 10
109.4245008406994
 20
-143.4069227072038
 30
0.0
 10
109.2470784232091
 20
-143.4069227072038
 30
0.0
 10
109.1919568954451
 20
-143.5378363356433
 30
0.0
 10
109.1919568954451
 20
-143.6480793911713
 30
0.0
 10
109.1919568954451
 20
-143.91231821489
 30
0.0
 10
109.4245008406994
 20
-143.9209309536031
 30
0.0
 10
109.4968478458897
 20
-143.9250650681854
 30
0.0
 10
109.4968478458897
 20
-143.9250650681854
 30
0.0
 10
109.4968478458897
 20
-144.1283257018152
 30
0.0
 10
109.4968478458897
 20
-144.1283257018152
 30
0.0
 10
109.3717908797751
 20
-144.119712963102
 30
0.0
 10
108.9952419432373
 20
-144.09215219922
 30
0.0
 10
108.9952419432373
 20
-143.6353325378759
 30
0.0
 10
108.9952419432373
 20
-143.4110568217861
 30
0.0
 10
109.1220214570945
 20
-143.1699001378186
 30
0.0
 10
109.418299668826
 20
-143.1699001378186
 30
0.0
 10
109.6043348250295
 20
-143.1699001378186
 30
0.0
 10
109.6870171166755
 20
-143.2649847732116
 30
0.0
 10
109.7483398163129
 20
-143.3645480327353
 30
0.0
 10
109.7759005801949
 20
-143.3032253330978
 30
0.0
 10
109.8565158145498
 20
-143.1213242914766
 30
0.0
 10
110.1335014915638
 20
-143.1213242914766
 30
0.0
 10
110.4718098682154
 20
-143.1213242914766
 30
0.0
 10
110.6392415087985
 20
-143.3686821473176
 30
0.0
 10
110.6392415087985
 20
-143.6456678243316
 30
0.0
  0
HATCH
  5
51
330
4A
100
AcDbEntity
  8
_U+30EC_U+30A4_U+30E4_U+30FC 1
 62
   179
420
  2234388
100
AcDbHatch
 10
0.0
 20
0.0
 30
0.0
210
0.0
220
0.0
230
1.0
  2
SOLID
 70
     1
 71
     0
 91
        1
 92
        1
 93
        1
 72
     4
 94
        3
 73
     0
 74
     1
 95
       62
 96
       58
 40
0.0
 40
0.0
 40
0.0
 40
0.0
 40
1.0
 40
1.0
 40
1.0
 40
2.0
 40
2.0
 40
2.0
 40
3.0
 40
3.0
 40
3.0
 40
4.0
 40
4.0
 40
4.0
 40
5.0
 40
5.0
 40
5.0
 40
6.0
 40
6.0
 40
6.0
 40
7.0
 40
7.0
 40
7.0
 40
8.0
 40
8.0
 40
8.0
 40
9.0
 40
9.0
 40
9.0
 40
10.0
 40
10.0
 40
10.0
 40
11.0
 40
11.0
 40
11.0
 40
12.0
 40
12.0
 40
12.0
 40
13.0
 40
13.0
 40
13.0
 40
14.0
 40
14.0
 40
14.0
 40
15.0
 40
15.0
 40
15.0
 40
16.0
 40
16.0
 40
16.0
 40
17.0
 40
17.0
 40
17.0
 40
18.0
 40
18.0
 40
18.0
 40
19.0
 40
19.0
 40
19.0
 40
19.0
 10
110.6392415087985
 20
-143.6456678243316
 10
110.6392415087985
 20
-143.7410969692731
 10
110.61788191679
 20
-143.9588270039409
 10
110.4318467605865
 20
-144.0838839700554
 10
110.3195366477673
 20
-144.1579535229883
 10
110.2203178977921
 20
-144.1620876375706
 10
110.135568548855
 20
-144.1662217521529
 10
110.135568548855
 20
-144.1662217521529
 10
110.135568548855
 20
-143.9460801506454
 10
110.135568548855
 20
-143.9460801506454
 10
110.2096381017879
 20
-143.9440130933543
 10
110.4442491043334
 20
-143.9336778068985
 10
110.4442491043334
 20
-143.6501464484625
 10
110.4442491043334
 20
-143.512687138601
 10
110.3746581755313
 20
-143.3600694086044
 10
110.1459038353107
 20
-143.3600694086044
 10
110.0298041174578
 20
-143.3600694086044
 10
109.9812282711158
 20
-143.3983099684907
 10
109.9495333926515
 20
-143.430004846955
 10
109.8751193301701
 20
-143.5040743998879
 10
109.8627169864232
 20
-143.6205186272893
 10
109.8627169864232
 20
-143.6752956455048
 10
109.8627169864232
 20
-143.6945881802222
 10
109.8647840437144
 20
-143.7304171732688
 10
109.8689181582967
 20
-143.7579779371508
 10
109.8689181582967
 20
-143.7579779371508
 10
109.6742702633801
 20
-143.7579779371508
 10
109.6742702633801
 20
-143.7579779371508
 10
109.680815944802
 20
-143.7197373772645
 10
109.6828830020932
 20
-143.6777072123445
 10
109.6828830020932
 20
-143.6711615309225
 10
109.6828830020932
 20
-143.6057047167027
 10
109.6615234100846
 20
-143.4069227072038
 10
109.4245008406994
 20
-143.4069227072038
 10
109.2470784232091
 20
-143.4069227072038
 10
109.1919568954451
 20
-143.5378363356433
 10
109.1919568954451
 20
-143.6480793911713
 10
109.1919568954451
 20
-143.91231821489
 10
109.4245008406994
 20
-143.9209309536031
 10
109.4968478458897
 20
-143.9250650681854
 10
109.4968478458897
 20
-143.9250650681854
 10
109.4968478458897
 20
-144.1283257018152
 10
109.4968478458897
 20
-144.1283257018152
 10
109.3717908797751
 20
-144.119712963102
 10
108.9952419432373
 20
-144.09215219922
 10
108.9952419432373
 20
-143.6353325378759
 10
108.9952419432373
 20
-143.4110568217861
 10
109.1220214570945
 20
-143.1699001378186
 10
109.418299668826
 20
-143.1699001378186
 10
109.6043348250295
 20
-143.1699001378186
 10
109.6870171166755
 20
-143.2649847732116
 10
109.7483398163129
 20
-143.3645480327353
 10
109.7759005801949
 20
-143.3032253330978
 10
109.8565158145498
 20
-143.1213242914766
 10
110.1335014915638
 20
-143.1213242914766
 10
110.4718098682154
 20
-143.1213242914766
 10
110.6392415087985
 20
-143.3686821473176
 10
110.6392415087985
 20
-143.6456678243316
 97
        0
 97
        0
 75
     2
 76
     1
 98
        0
  0
ENDBLK
  5
4D
330
4A
100
AcDbEntity
  8
0
100
AcDbBlockEnd
  0
BLOCK
  5
5C
330
5A
100
AcDbEntity
  8
0
100
AcDbBlockBegin
  2
block 3
 70
     0
 10
0.0
 20
0.0
 30
0.0
  3
block 3
  1

  0
SPLINE
  5
5E
330
5A
100
AcDbEntity
  8
_U+30EC_U+30A4_U+30E4_U+30FC 1
370
     0
100
AcDbSpline
210
0.0
220
0.0
230
1.0
 70
    11
 71
     3
 72
    44
 73
    40
 74
     0
 42
0.0000000001
 43
0.0000000001
 12
1.0
 22
0.0
 32
0.0
 13
1.0
 23
0.0
 33
0.0
 40
0.0
 40
0.0
 40
0.0
 40
0.0
 40
1.0
 40
1.0
 40
1.0
 40
2.0
 40
2.0
 40
2.0
 40
3.0
 40
3.0
 40
3.0
 40
4.0
 40
4.0
 40
4.0
 40
5.0
 40
5.0
 40
5.0
 40
6.0
 40
6.0
 40
6.0
 40
7.0
 40
7.0
 40
7.0
 40
8.0
 40
8.0
 40
8.0
 40
9.0
 40
9.0
 40
9.0
 40
10.0
 40
10.0
 40
10.0
 40
11.0
 40
11.0
 40
11.0
 40
12.0
 40
12.0
 40
12.0
 40
13.0
 40
13.0
 40
13.0
 40
13.0
 10
105.7947482374402
 20
-152.2894123968235
 30
0.0
 10
105.5770182027724
 20
-152.4482312986935
 30
0.0
 10
105.4840006246707
 20
-152.5223008516264
 30
0.0
 10
105.4350802687801
 20
-152.6659613333613
 30
0.0
 10
105.4350802687801
 20
-152.6659613333613
 30
0.0
 10
106.2136718484466
 20
-152.6659613333613
 30
0.0
 10
106.2136718484466
 20
-152.6659613333613
 30
0.0
 10
106.2136718484466
 20
-152.6659613333613
 30
0.0
 10
106.2136718484466
 20
-152.8712890242822
 30
0.0
 10
106.2136718484466
 20
-152.8712890242822
 30
0.0
 10
106.2136718484466
 20
-152.8712890242822
 30
0.0
 10
105.185655355648
 20
-152.8712890242822
 30
0.0
 10
105.185655355648
 20
-152.8712890242822
 30
0.0
 10
105.2173502341123
 20
-152.5136881129133
 30
0.0
 10
105.2828070483321
 20
-152.4354844453981
 30
0.0
 10
105.667968723583
 20
-152.1371391763755
 30
0.0
 10
105.9235948085885
 20
-151.9383571668765
 30
0.0
 10
105.9890516228083
 20
-151.8704887858171
 30
0.0
 10
105.9890516228083
 20
-151.7330294759556
 30
0.0
 10
105.9890516228083
 20
-151.614518191263
 30
0.0
 10
105.9173936367151
 20
-151.4836045628236
 30
0.0
 10
105.7203341749588
 20
-151.4836045628236
 30
0.0
 10
105.460573975371
 20
-151.4836045628236
 30
0.0
 10
105.4516167271093
 20
-151.7140814507868
 30
0.0
 10
105.447482612527
 20
-151.8305256781882
 30
0.0
 10
105.447482612527
 20
-151.8305256781882
 30
0.0
 10
105.2235514059858
 20
-151.8305256781882
 30
0.0
 10
105.2235514059858
 20
-151.8305256781882
 30
0.0
 10
105.2318196351504
 20
-151.7034016547825
 30
0.0
 10
105.2428439407032
 20
-151.5914360515119
 30
0.0
 10
105.322770155961
 20
-151.4729247668193
 30
0.0
 10
105.433013211489
 20
-151.3120388076581
 30
0.0
 10
105.6190483676925
 20
-151.2782768719026
 30
0.0
 10
105.7354925950939
 20
-151.2782768719026
 30
0.0
 10
106.012478272108
 20
-151.2782768719026
 30
0.0
 10
106.21987302032
 20
-151.462244970815
 30
0.0
 10
106.21987302032
 20
-151.7350965332468
 30
0.0
 10
106.21987302032
 20
-151.9638508734674
 30
0.0
 10
106.1034287929186
 20
-152.0630696234426
 30
0.0
 10
105.7947482374402
 20
-152.2894123968235
 30
0.0
  0
HATCH
  5
5F
330
5A
100
AcDbEntity
  8
_U+30EC_U+30A4_U+30E4_U+30FC 1
 62
   179
420
  2234388
100
AcDbHatch
 10
0.0
 20
0.0
 30
0.0
210
0.0
220
0.0
230
1.0
  2
SOLID
 70
     1
 71
     0
 91
        1
 92
        1
 93
        1
 72
     4
 94
        3
 73
     0
 74
     1
 95
       44
 96
       40
 40
0.0
 40
0.0
 40
0.0
 40
0.0
 40
1.0
 40
1.0
 40
1.0
 40
2.0
 40
2.0
 40
2.0
 40
3.0
 40
3.0
 40
3.0
 40
4.0
 40
4.0
 40
4.0
 40
5.0
 40
5.0
 40
5.0
 40
6.0
 40
6.0
 40
6.0
 40
7.0
 40
7.0
 40
7.0
 40
8.0
 40
8.0
 40
8.0
 40
9.0
 40
9.0
 40
9.0
 40
10.0
 40
10.0
 40
10.0
 40
11.0
 40
11.0
 40
11.0
 40
12.0
 40
12.0
 40
12.0
 40
13.0
 40
13.0
 40
13.0
 40
13.0
 10
105.7947482374402
 20
-152.2894123968235
 10
105.5770182027724
 20
-152.4482312986935
 10
105.4840006246707
 20
-152.5223008516264
 10
105.4350802687801
 20
-152.6659613333613
 10
105.4350802687801
 20
-152.6659613333613
 10
106.2136718484466
 20
-152.6659613333613
 10
106.2136718484466
 20
-152.6659613333613
 10
106.2136718484466
 20
-152.6659613333613
 10
106.2136718484466
 20
-152.8712890242822
 10
106.2136718484466
 20
-152.8712890242822
 10
106.2136718484466
 20
-152.8712890242822
 10
105.185655355648
 20
-152.8712890242822
 10
105.185655355648
 20
-152.8712890242822
 10
105.2173502341123
 20
-152.5136881129133
 10
105.2828070483321
 20
-152.4354844453981
 10
105.667968723583
 20
-152.1371391763755
 10
105.9235948085885
 20
-151.9383571668765
 10
105.9890516228083
 20
-151.8704887858171
 10
105.9890516228083
 20
-151.7330294759556
 10
105.9890516228083
 20
-151.614518191263
 10
105.9173936367151
 20
-151.4836045628236
 10
105.7203341749588
 20
-151.4836045628236
 10
105.460573975371
 20
-151.4836045628236
 10
105.4516167271093
 20
-151.7140814507868
 10
105.447482612527
 20
-151.8305256781882
 10
105.447482612527
 20
-151.8305256781882
 10
105.2235514059858
 20
-151.8305256781882
 10
105.2235514059858
 20
-151.8305256781882
 10
105.2318196351504
 20
-151.7034016547825
 10
105.2428439407032
 20
-151.5914360515119
 10
105.322770155961
 20
-151.4729247668193
 10
105.433013211489
 20
-151.3120388076581
 10
105.6190483676925
 20
-151.2782768719026
 10
105.7354925950939
 20
-151.2782768719026
 10
106.012478272108
 20
-151.2782768719026
 10
106.21987302032
 20
-151.462244970815
 10
106.21987302032
 20
-151.7350965332468
 10
106.21987302032
 20
-151.9638508734674
 10
106.1034287929186
 20
-152.0630696234426
 10
105.7947482374402
 20
-152.2894123968235
 97
        0
 97
        0
 75
     2
 76
     1
 98
        0
  0
SPLINE
  5
60
330
5A
100
AcDbEntity
  8
_U+30EC_U+30A4_U+30E4_U+30FC 1
370
     0
100
AcDbSpline
210
0.0
220
0.0
230
1.0
 70
    11
 71
     3
 72
    29
 73
    25
 74
     0
 42
0.0000000001
 43
0.0000000001
 12
1.0
 22
0.0
 32
0.0
 13
1.0
 23
0.0
 33
0.0
 40
0.0
 40
0.0
 40
0.0
 40
0.0
 40
1.0
 40
1.0
 40
1.0
 40
2.0
 40
2.0
 40
2.0
 40
3.0
 40
3.0
 40
3.0
 40
4.0
 40
4.0
 40
4.0
 40
5.0
 40
5.0
 40
5.0
 40
6.0
 40
6.0
 40
6.0
 40
7.0
 40
7.0
 40
7.0
 40
8.0
 40
8.0
 40
8.0
 40
8.0
 10
107.2761392960976
 20
-152.6935220972433
 30
0.0
 10
107.1679632978608
 20
-152.9029839027465
 30
0.0
 10
106.9950195045012
 20
-152.9219319279154
 30
0.0
 10
106.8785752770998
 20
-152.9219319279154
 30
0.0
 10
106.7173448083901
 20
-152.9219319279154
 30
0.0
 10
106.5760958934949
 20
-152.8754231388645
 30
0.0
 10
106.481011258102
 20
-152.6935220972433
 30
0.0
 10
106.3769693744474
 20
-152.4988742023267
 30
0.0
 10
106.35767683973
 20
-152.26219614249
 30
0.0
 10
106.35767683973
 20
-152.0992431260377
 30
0.0
 10
106.35767683973
 20
-151.9552381347542
 30
0.0
 10
106.3749023171563
 20
-151.7034016547825
 30
0.0
 10
106.481011258102
 20
-151.5046196452836
 30
0.0
 10
106.5884982372418
 20
-151.3017035212024
 30
0.0
 10
106.7497287059515
 20
-151.2782768719026
 30
0.0
 10
106.8785752770998
 20
-151.2782768719026
 30
0.0
 10
107.0370496694213
 20
-151.2782768719026
 30
0.0
 10
107.1810546607047
 20
-151.3227186036624
 30
0.0
 10
107.2761392960976
 20
-151.5046196452836
 30
0.0
 10
107.3753580460728
 20
-151.697200482909
 30
0.0
 10
107.3987846953725
 20
-151.9256103135811
 30
0.0
 10
107.3987846953725
 20
-152.0992431260377
 30
0.0
 10
107.3987846953725
 20
-152.2704643716546
 30
0.0
 10
107.377425103364
 20
-152.5009412596178
 30
0.0
 10
107.2761392960976
 20
-152.6935220972433
 30
0.0
  0
SPLINE
  5
61
330
5A
100
AcDbEntity
  8
_U+30EC_U+30A4_U+30E4_U+30FC 1
370
     0
100
AcDbSpline
210
0.0
220
0.0
230
1.0
 70
    11
 71
     3
 72
    17
 73
    13
 74
     0
 42
0.0000000001
 43
0.0000000001
 12
1.0
 22
0.0
 32
0.0
 13
1.0
 23
0.0
 33
0.0
 40
0.0
 40
0.0
 40
0.0
 40
0.0
 40
1.0
 40
1.0
 40
1.0
 40
2.0
 40
2.0
 40
2.0
 40
3.0
 40
3.0
 40
3.0
 40
4.0
 40
4.0
 40
4.0
 40
4.0
 10
106.8785752770998
 20
-151.4708577095281
 30
0.0
 10
106.6284613448707
 20
-151.4708577095281
 30
0.0
 10
106.5822970653683
 20
-151.7543890679642
 30
0.0
 10
106.5822970653683
 20
-152.0992431260377
 30
0.0
 10
106.5822970653683
 20
-152.4186034775203
 30
0.0
 10
106.6181260584149
 20
-152.7272840329987
 30
0.0
 10
106.8785752770998
 20
-152.7272840329987
 30
0.0
 10
107.1259331329407
 20
-152.7272840329987
 30
0.0
 10
107.1748534888313
 20
-152.4461642414024
 30
0.0
 10
107.1748534888313
 20
-152.0992431260377
 30
0.0
 10
107.1748534888313
 20
-151.7795382650065
 30
0.0
 10
107.1362684193965
 20
-151.4708577095281
 30
0.0
 10
106.8785752770998
 20
-151.4708577095281
 30
0.0
  0
HATCH
  5
62
330
5A
100
AcDbEntity
  8
_U+30EC_U+30A4_U+30E4_U+30FC 1
 62
   179
420
  2234388
100
AcDbHatch
 10
0.0
 20
0.0
 30
0.0
210
0.0
220
0.0
230
1.0
  2
SOLID
 70
     1
 71
     0
 91
        2
 92
        1
 93
        1
 72
     4
 94
        3
 73
     0
 74
     1
 95
       29
 96
       25
 40
0.0
 40
0.0
 40
0.0
 40
0.0
 40
1.0
 40
1.0
 40
1.0
 40
2.0
 40
2.0
 40
2.0
 40
3.0
 40
3.0
 40
3.0
 40
4.0
 40
4.0
 40
4.0
 40
5.0
 40
5.0
 40
5.0
 40
6.0
 40
6.0
 40
6.0
 40
7.0
 40
7.0
 40
7.0
 40
8.0
 40
8.0
 40
8.0
 40
8.0
 10
107.2761392960976
 20
-152.6935220972433
 10
107.1679632978608
 20
-152.9029839027465
 10
106.9950195045012
 20
-152.9219319279154
 10
106.8785752770998
 20
-152.9219319279154
 10
106.7173448083901
 20
-152.9219319279154
 10
106.5760958934949
 20
-152.8754231388645
 10
106.481011258102
 20
-152.6935220972433
 10
106.3769693744474
 20
-152.4988742023267
 10
106.35767683973
 20
-152.26219614249
 10
106.35767683973
 20
-152.0992431260377
 10
106.35767683973
 20
-151.9552381347542
 10
106.3749023171563
 20
-151.7034016547825
 10
106.481011258102
 20
-151.5046196452836
 10
106.5884982372418
 20
-151.3017035212024
 10
106.7497287059515
 20
-151.2782768719026
 10
106.8785752770998
 20
-151.2782768719026
 10
107.0370496694213
 20
-151.2782768719026
 10
107.1810546607047
 20
-151.3227186036624
 10
107.2761392960976
 20
-151.5046196452836
 10
107.3753580460728
 20
-151.697200482909
 10
107.3987846953725
 20
-151.9256103135811
 10
107.3987846953725
 20
-152.0992431260377
 10
107.3987846953725
 20
-152.2704643716546
 10
107.377425103364
 20
-152.5009412596178
 10
107.2761392960976
 20
-152.6935220972433
 97
        0
 97
        0
 92
        1
 93
        1
 72
     4
 94
        3
 73
     0
 74
     1
 95
       17
 96
       13
 40
0.0
 40
0.0
 40
0.0
 40
0.0
 40
1.0
 40
1.0
 40
1.0
 40
2.0
 40
2.0
 40
2.0
 40
3.0
 40
3.0
 40
3.0
 40
4.0
 40
4.0
 40
4.0
 40
4.0
 10
106.8785752770998
 20
-151.4708577095281
 10
106.6284613448707
 20
-151.4708577095281
 10
106.5822970653683
 20
-151.7543890679642
 10
106.5822970653683
 20
-152.0992431260377
 10
106.5822970653683
 20
-152.4186034775203
 10
106.6181260584149
 20
-152.7272840329987
 10
106.8785752770998
 20
-152.7272840329987
 10
107.1259331329407
 20
-152.7272840329987
 10
107.1748534888313
 20
-152.4461642414024
 10
107.1748534888313
 20
-152.0992431260377
 10
107.1748534888313
 20
-151.7795382650065
 10
107.1362684193965
 20
-151.4708577095281
 10
106.8785752770998
 20
-151.4708577095281
 97
        0
 97
        0
 75
     2
 76
     1
 98
        0
  0
ENDBLK
  5
5D
330
5A
100
AcDbEntity
  8
0
100
AcDbBlockEnd
  0
BLOCK
  5
76
330
74
100
AcDbEntity
  8
0
100
AcDbBlockBegin
  2
block 4
 70
     0
 10
0.0
 20
0.0
 30
0.0
  3
block 4
  1

  0
SPLINE
  5
78
330
74
100
AcDbEntity
  8
_U+30EC_U+30A4_U+30E4_U+30FC 1
370
     0
100
AcDbSpline
210
0.0
220
0.0
230
1.0
 70
    11
 71
     3
 72
    44
 73
    40
 74
     0
 42
0.0000000001
 43
0.0000000001
 12
1.0
 22
0.0
 32
0.0
 13
1.0
 23
0.0
 33
0.0
 40
0.0
 40
0.0
 40
0.0
 40
0.0
 40
1.0
 40
1.0
 40
1.0
 40
2.0
 40
2.0
 40
2.0
 40
3.0
 40
3.0
 40
3.0
 40
4.0
 40
4.0
 40
4.0
 40
5.0
 40
5.0
 40
5.0
 40
6.0
 40
6.0
 40
6.0
 40
7.0
 40
7.0
 40
7.0
 40
8.0
 40
8.0
 40
8.0
 40
9.0
 40
9.0
 40
9.0
 40
10.0
 40
10.0
 40
10.0
 40
11.0
 40
11.0
 40
11.0
 40
12.0
 40
12.0
 40
12.0
 40
13.0
 40
13.0
 40
13.0
 40
13.0
 10
88.02477346974729
 20
-124.6656032674447
 30
0.0
 10
88.0016913299961
 20
-124.621161535685
 30
0.0
 10
87.98033173798756
 20
-124.5682793199864
 30
0.0
 10
87.97826468069641
 20
-124.3376301772489
 30
0.0
 10
87.97413056611411
 20
-124.0944064359903
 30
0.0
 10
87.91487492376781
 20
-124.024643252414
 30
0.0
 10
87.73710799672892
 20
-124.024643252414
 30
0.0
 10
87.73710799672892
 20
-124.024643252414
 30
0.0
 10
87.32886418172681
 20
-124.024643252414
 30
0.0
 10
87.32886418172681
 20
-124.024643252414
 30
0.0
 10
87.32886418172681
 20
-124.024643252414
 30
0.0
 10
87.32886418172681
 20
-124.6656032674447
 30
0.0
 10
87.32886418172681
 20
-124.6656032674447
 30
0.0
 10
87.32886418172681
 20
-124.6656032674447
 30
0.0
 10
87.09390866963278
 20
-124.6656032674447
 30
0.0
 10
87.09390866963278
 20
-124.6656032674447
 30
0.0
 10
87.09390866963278
 20
-124.6656032674447
 30
0.0
 10
87.09390866963278
 20
-123.1213392161815
 30
0.0
 10
87.09390866963278
 20
-123.1213392161815
 30
0.0
 10
87.09390866963278
 20
-123.1213392161815
 30
0.0
 10
87.76880287519322
 20
-123.1213392161815
 30
0.0
 10
87.76880287519322
 20
-123.1213392161815
 30
0.0
 10
88.07576088292898
 20
-123.1213392161815
 30
0.0
 10
88.2428480139636
 20
-123.2925604617984
 30
0.0
 10
88.2428480139636
 20
-123.5487033111267
 30
0.0
 10
88.2428480139636
 20
-123.5993462147599
 30
0.0
 10
88.23423527525047
 20
-123.6818562516316
 30
0.0
 10
88.18979354349075
 20
-123.7622992312122
 30
0.0
 10
88.13053790114445
 20
-123.8659966053182
 30
0.0
 10
88.0650810869247
 20
-123.8849446304871
 30
0.0
 10
88.00375838728726
 20
-123.9018255983648
 30
0.0
 10
88.14121769714873
 20
-123.9442002728334
 30
0.0
 10
88.20908607820814
 20
-123.9929483739497
 30
0.0
 10
88.21322019279044
 20
-124.3080023560758
 30
0.0
 10
88.21735430737274
 20
-124.5787868612164
 30
0.0
 10
88.25318330041935
 20
-124.610653994455
 30
0.0
 10
88.32105168147876
 20
-124.6656032674447
 30
0.0
 10
88.32105168147876
 20
-124.6656032674447
 30
0.0
 10
88.02477346974729
 20
-124.6656032674447
 30
0.0
 10
88.02477346974729
 20
-124.6656032674447
 30
0.0
  0
SPLINE
  5
79
330
74
100
AcDbEntity
  8
_U+30EC_U+30A4_U+30E4_U+30FC 1
370
     0
100
AcDbSpline
210
0.0
220
0.0
230
1.0
 70
    11
 71
     3
 72
    20
 73
    16
 74
     0
 42
0.0000000001
 43
0.0000000001
 12
1.0
 22
0.0
 32
0.0
 13
1.0
 23
0.0
 33
0.0
 40
0.0
 40
0.0
 40
0.0
 40
0.0
 40
1.0
 40
1.0
 40
1.0
 40
2.0
 40
2.0
 40
2.0
 40
3.0
 40
3.0
 40
3.0
 40
4.0
 40
4.0
 40
4.0
 40
5.0
 40
5.0
 40
5.0
 40
5.0
 10
87.77328149932404
 20
-123.3328680789758
 30
0.0
 10
87.77328149932404
 20
-123.3328680789758
 30
0.0
 10
87.32886418172681
 20
-123.3328680789758
 30
0.0
 10
87.32886418172681
 20
-123.3328680789758
 30
0.0
 10
87.32886418172681
 20
-123.3328680789758
 30
0.0
 10
87.32886418172681
 20
-123.8131143896196
 30
0.0
 10
87.32886418172681
 20
-123.8131143896196
 30
0.0
 10
87.32886418172681
 20
-123.8131143896196
 30
0.0
 10
87.77086993248437
 20
-123.8131143896196
 30
0.0
 10
87.77086993248437
 20
-123.8131143896196
 30
0.0
 10
87.8704331920081
 20
-123.8131143896196
 30
0.0
 10
88.0058254445784
 20
-123.7369777793956
 30
0.0
 10
88.0058254445784
 20
-123.5655842790044
 30
0.0
 10
88.0058254445784
 20
-123.487208356715
 30
0.0
 10
87.97206350882296
 20
-123.3328680789758
 30
0.0
 10
87.77328149932404
 20
-123.3328680789758
 30
0.0
  0
HATCH
  5
7A
330
74
100
AcDbEntity
  8
_U+30EC_U+30A4_U+30E4_U+30FC 1
 62
   179
420
  2234388
100
AcDbHatch
 10
0.0
 20
0.0
 30
0.0
210
0.0
220
0.0
230
1.0
  2
SOLID
 70
     1
 71
     0
 91
        2
 92
        1
 93
        1
 72
     4
 94
        3
 73
     0
 74
     1
 95
       44
 96
       40
 40
0.0
 40
0.0
 40
0.0
 40
0.0
 40
1.0
 40
1.0
 40
1.0
 40
2.0
 40
2.0
 40
2.0
 40
3.0
 40
3.0
 40
3.0
 40
4.0
 40
4.0
 40
4.0
 40
5.0
 40
5.0
 40
5.0
 40
6.0
 40
6.0
 40
6.0
 40
7.0
 40
7.0
 40
7.0
 40
8.0
 40
8.0
 40
8.0
 40
9.0
 40
9.0
 40
9.0
 40
10.0
 40
10.0
 40
10.0
 40
11.0
 40
11.0
 40
11.0
 40
12.0
 40
12.0
 40
12.0
 40
13.0
 40
13.0
 40
13.0
 40
13.0
 10
88.02477346974729
 20
-124.6656032674447
 10
88.0016913299961
 20
-124.621161535685
 10
87.98033173798756
 20
-124.5682793199864
 10
87.97826468069641
 20
-124.3376301772489
 10
87.97413056611411
 20
-124.0944064359903
 10
87.91487492376781
 20
-124.024643252414
 10
87.73710799672892
 20
-124.024643252414
 10
87.73710799672892
 20
-124.024643252414
 10
87.32886418172681
 20
-124.024643252414
 10
87.32886418172681
 20
-124.024643252414
 10
87.32886418172681
 20
-124.024643252414
 10
87.32886418172681
 20
-124.6656032674447
 10
87.32886418172681
 20
-124.6656032674447
 10
87.32886418172681
 20
-124.6656032674447
 10
87.09390866963278
 20
-124.6656032674447
 10
87.09390866963278
 20
-124.6656032674447
 10
87.09390866963278
 20
-124.6656032674447
 10
87.09390866963278
 20
-123.1213392161815
 10
87.09390866963278
 20
-123.1213392161815
 10
87.09390866963278
 20
-123.1213392161815
 10
87.76880287519322
 20
-123.1213392161815
 10
87.76880287519322
 20
-123.1213392161815
 10
88.07576088292898
 20
-123.1213392161815
 10
88.2428480139636
 20
-123.2925604617984
 10
88.2428480139636
 20
-123.5487033111267
 10
88.2428480139636
 20
-123.5993462147599
 10
88.23423527525047
 20
-123.6818562516316
 10
88.18979354349075
 20
-123.7622992312122
 10
88.13053790114445
 20
-123.8659966053182
 10
88.0650810869247
 20
-123.8849446304871
 10
88.00375838728726
 20
-123.9018255983648
 10
88.14121769714873
 20
-123.9442002728334
 10
88.20908607820814
 20
-123.9929483739497
 10
88.21322019279044
 20
-124.3080023560758
 10
88.21735430737274
 20
-124.5787868612164
 10
88.25318330041935
 20
-124.610653994455
 10
88.32105168147876
 20
-124.6656032674447
 10
88.32105168147876
 20
-124.6656032674447
 10
88.02477346974729
 20
-124.6656032674447
 10
88.02477346974729
 20
-124.6656032674447
 97
        0
 97
        0
 92
        1
 93
        1
 72
     4
 94
        3
 73
     0
 74
     1
 95
       20
 96
       16
 40
0.0
 40
0.0
 40
0.0
 40
0.0
 40
1.0
 40
1.0
 40
1.0
 40
2.0
 40
2.0
 40
2.0
 40
3.0
 40
3.0
 40
3.0
 40
4.0
 40
4.0
 40
4.0
 40
5.0
 40
5.0
 40
5.0
 40
5.0
 10
87.77328149932404
 20
-123.3328680789758
 10
87.77328149932404
 20
-123.3328680789758
 10
87.32886418172681
 20
-123.3328680789758
 10
87.32886418172681
 20
-123.3328680789758
 10
87.32886418172681
 20
-123.3328680789758
 10
87.32886418172681
 20
-123.8131143896196
 10
87.32886418172681
 20
-123.8131143896196
 10
87.32886418172681
 20
-123.8131143896196
 10
87.77086993248437
 20
-123.8131143896196
 10
87.77086993248437
 20
-123.8131143896196
 10
87.8704331920081
 20
-123.8131143896196
 10
88.0058254445784
 20
-123.7369777793956
 10
88.0058254445784
 20
-123.5655842790044
 10
88.0058254445784
 20
-123.487208356715
 10
87.97206350882296
 20
-123.3328680789758
 10
87.77328149932404
 20
-123.3328680789758
 97
        0
 97
        0
 75
     2
 76
     1
 98
        0
  0
SPLINE
  5
7B
330
74
100
AcDbEntity
  8
_U+30EC_U+30A4_U+30E4_U+30FC 1
370
     0
100
AcDbSpline
210
0.0
220
0.0
230
1.0
 70
    11
 71
     3
 72
    62
 73
    58
 74
     0
 42
0.0000000001
 43
0.0000000001
 12
1.0
 22
0.0
 32
0.0
 13
1.0
 23
0.0
 33
0.0
 40
0.0
 40
0.0
 40
0.0
 40
0.0
 40
1.0
 40
1.0
 40
1.0
 40
2.0
 40
2.0
 40
2.0
 40
3.0
 40
3.0
 40
3.0
 40
4.0
 40
4.0
 40
4.0
 40
5.0
 40
5.0
 40
5.0
 40
6.0
 40
6.0
 40
6.0
 40
7.0
 40
7.0
 40
7.0
 40
8.0
 40
8.0
 40
8.0
 40
9.0
 40
9.0
 40
9.0
 40
10.0
 40
10.0
 40
10.0
 40
11.0
 40
11.0
 40
11.0
 40
12.0
 40
12.0
 40
12.0
 40
13.0
 40
13.0
 40
13.0
 40
14.0
 40
14.0
 40
14.0
 40
15.0
 40
15.0
 40
15.0
 40
16.0
 40
16.0
 40
16.0
 40
17.0
 40
17.0
 40
17.0
 40
18.0
 40
18.0
 40
18.0
 40
19.0
 40
19.0
 40
19.0
 40
19.0
 10
88.95253768392506
 20
-124.7164184258522
 30
0.0
 10
88.85710853898364
 20
-124.7164184258522
 30
0.0
 10
88.63937850431586
 20
-124.6952310886179
 30
0.0
 10
88.51432153820129
 20
-124.5090236776401
 30
0.0
 10
88.44059649481694
 20
-124.3968858195952
 30
0.0
 10
88.43611787068612
 20
-124.2974948148458
 30
0.0
 10
88.43198375610382
 20
-124.2129177206829
 30
0.0
 10
88.43198375610382
 20
-124.2129177206829
 30
0.0
 10
88.65212535761128
 20
-124.2129177206829
 30
0.0
 10
88.65212535761128
 20
-124.2129177206829
 30
0.0
 10
88.65419241490243
 20
-124.2869872736158
 30
0.0
 10
88.66452770135818
 20
-124.5217705309355
 30
0.0
 10
88.94805905979423
 20
-124.5217705309355
 30
0.0
 10
89.0855183696557
 20
-124.5217705309355
 30
0.0
 10
89.23813609965228
 20
-124.4520073473592
 30
0.0
 10
89.23813609965228
 20
-124.2234252619129
 30
0.0
 10
89.23813609965228
 20
-124.1071532892857
 30
0.0
 10
89.199895539766
 20
-124.0584051881694
 30
0.0
 10
89.16820066130171
 20
-124.0267103097051
 30
0.0
 10
89.09413110836883
 20
-123.9526407567723
 30
0.0
 10
88.97768688096738
 20
-123.9400661582511
 30
0.0
 10
88.92290986275192
 20
-123.9400661582511
 30
0.0
 10
88.90361732803451
 20
-123.9400661582511
 30
0.0
 10
88.86778833498792
 20
-123.9421332155423
 30
0.0
 10
88.84022757110591
 20
-123.9462673301246
 30
0.0
 10
88.84022757110591
 20
-123.9462673301246
 30
0.0
 10
88.84022757110591
 20
-123.7516194352079
 30
0.0
 10
88.84022757110591
 20
-123.7516194352079
 30
0.0
 10
88.87846813099219
 20
-123.7579928618556
 30
0.0
 10
88.92049829591224
 20
-123.7602321739211
 30
0.0
 10
88.92704397733422
 20
-123.7602321739211
 30
0.0
 10
88.99250079155397
 20
-123.7602321739211
 30
0.0
 10
89.19128280105288
 20
-123.7390448366868
 30
0.0
 10
89.19128280105288
 20
-123.5020222673016
 30
0.0
 10
89.19128280105288
 20
-123.324427595037
 30
0.0
 10
89.06036917261338
 20
-123.269306067273
 30
0.0
 10
88.95012611708539
 20
-123.269306067273
 30
0.0
 10
88.68588729336673
 20
-123.269306067273
 30
0.0
 10
88.67727455465361
 20
-123.5020222673016
 30
0.0
 10
88.67314044007131
 20
-123.5740247629433
 30
0.0
 10
88.67314044007131
 20
-123.5740247629433
 30
0.0
 10
88.46987980644157
 20
-123.5740247629433
 30
0.0
 10
88.46987980644157
 20
-123.5740247629433
 30
0.0
 10
88.47849254515468
 20
-123.449140051603
 30
0.0
 10
88.50605330903669
 20
-123.0725911150652
 30
0.0
 10
88.96287297038081
 20
-123.0725911150652
 30
0.0
 10
89.18714868647058
 20
-123.0725911150652
 30
0.0
 10
89.42830537043807
 20
-123.1995428836967
 30
0.0
 10
89.42830537043807
 20
-123.4956488406539
 30
0.0
 10
89.42830537043807
 20
-123.6818562516316
 30
0.0
 10
89.33322073504517
 20
-123.7643662885034
 30
0.0
 10
89.23365747552145
 20
-123.8256889881408
 30
0.0
 10
89.2949801751589
 20
-123.8532497520228
 30
0.0
 10
89.47688121678009
 20
-123.9336927316034
 30
0.0
 10
89.47688121678009
 20
-124.2108506633917
 30
0.0
 10
89.47688121678009
 20
-124.5493312948175
 30
0.0
 10
89.22952336093915
 20
-124.7164184258522
 30
0.0
 10
88.95253768392506
 20
-124.7164184258522
 30
0.0
  0
HATCH
  5
7C
330
74
100
AcDbEntity
  8
_U+30EC_U+30A4_U+30E4_U+30FC 1
 62
   179
420
  2234388
100
AcDbHatch
 10
0.0
 20
0.0
 30
0.0
210
0.0
220
0.0
230
1.0
  2
SOLID
 70
     1
 71
     0
 91
        1
 92
        1
 93
        1
 72
     4
 94
        3
 73
     0
 74
     1
 95
       62
 96
       58
 40
0.0
 40
0.0
 40
0.0
 40
0.0
 40
1.0
 40
1.0
 40
1.0
 40
2.0
 40
2.0
 40
2.0
 40
3.0
 40
3.0
 40
3.0
 40
4.0
 40
4.0
 40
4.0
 40
5.0
 40
5.0
 40
5.0
 40
6.0
 40
6.0
 40
6.0
 40
7.0
 40
7.0
 40
7.0
 40
8.0
 40
8.0
 40
8.0
 40
9.0
 40
9.0
 40
9.0
 40
10.0
 40
10.0
 40
10.0
 40
11.0
 40
11.0
 40
11.0
 40
12.0
 40
12.0
 40
12.0
 40
13.0
 40
13.0
 40
13.0
 40
14.0
 40
14.0
 40
14.0
 40
15.0
 40
15.0
 40
15.0
 40
16.0
 40
16.0
 40
16.0
 40
17.0
 40
17.0
 40
17.0
 40
18.0
 40
18.0
 40
18.0
 40
19.0
 40
19.0
 40
19.0
 40
19.0
 10
88.95253768392506
 20
-124.7164184258522
 10
88.85710853898364
 20
-124.7164184258522
 10
88.63937850431586
 20
-124.6952310886179
 10
88.51432153820129
 20
-124.5090236776401
 10
88.44059649481694
 20
-124.3968858195952
 10
88.43611787068612
 20
-124.2974948148458
 10
88.43198375610382
 20
-124.2129177206829
 10
88.43198375610382
 20
-124.2129177206829
 10
88.65212535761128
 20
-124.2129177206829
 10
88.65212535761128
 20
-124.2129177206829
 10
88.65419241490243
 20
-124.2869872736158
 10
88.66452770135818
 20
-124.5217705309355
 10
88.94805905979423
 20
-124.5217705309355
 10
89.0855183696557
 20
-124.5217705309355
 10
89.23813609965228
 20
-124.4520073473592
 10
89.23813609965228
 20
-124.2234252619129
 10
89.23813609965228
 20
-124.1071532892857
 10
89.199895539766
 20
-124.0584051881694
 10
89.16820066130171
 20
-124.0267103097051
 10
89.09413110836883
 20
-123.9526407567723
 10
88.97768688096738
 20
-123.9400661582511
 10
88.92290986275192
 20
-123.9400661582511
 10
88.90361732803451
 20
-123.9400661582511
 10
88.86778833498792
 20
-123.9421332155423
 10
88.84022757110591
 20
-123.9462673301246
 10
88.84022757110591
 20
-123.9462673301246
 10
88.84022757110591
 20
-123.7516194352079
 10
88.84022757110591
 20
-123.7516194352079
 10
88.87846813099219
 20
-123.7579928618556
 10
88.92049829591224
 20
-123.7602321739211
 10
88.92704397733422
 20
-123.7602321739211
 10
88.99250079155397
 20
-123.7602321739211
 10
89.19128280105288
 20
-123.7390448366868
 10
89.19128280105288
 20
-123.5020222673016
 10
89.19128280105288
 20
-123.324427595037
 10
89.06036917261338
 20
-123.269306067273
 10
88.95012611708539
 20
-123.269306067273
 10
88.68588729336673
 20
-123.269306067273
 10
88.67727455465361
 20
-123.5020222673016
 10
88.67314044007131
 20
-123.5740247629433
 10
88.67314044007131
 20
-123.5740247629433
 10
88.46987980644157
 20
-123.5740247629433
 10
88.46987980644157
 20
-123.5740247629433
 10
88.47849254515468
 20
-123.449140051603
 10
88.50605330903669
 20
-123.0725911150652
 10
88.96287297038081
 20
-123.0725911150652
 10
89.18714868647058
 20
-123.0725911150652
 10
89.42830537043807
 20
-123.1995428836967
 10
89.42830537043807
 20
-123.4956488406539
 10
89.42830537043807
 20
-123.6818562516316
 10
89.33322073504517
 20
-123.7643662885034
 10
89.23365747552145
 20
-123.8256889881408
 10
89.2949801751589
 20
-123.8532497520228
 10
89.47688121678009
 20
-123.9336927316034
 10
89.47688121678009
 20
-124.2108506633917
 10
89.47688121678009
 20
-124.5493312948175
 10
89.22952336093915
 20
-124.7164184258522
 10
88.95253768392506
 20
-124.7164184258522
 97
        0
 97
        0
 75
     2
 76
     1
 98
        0
  0
SPLINE
  5
7D
330
74
100
AcDbEntity
  8
_U+30EC_U+30A4_U+30E4_U+30FC 1
370
     0
100
AcDbSpline
210
0.0
220
0.0
230
1.0
 70
    11
 71
     3
 72
    29
 73
    25
 74
     0
 42
0.0000000001
 43
0.0000000001
 12
1.0
 22
0.0
 32
0.0
 13
1.0
 23
0.0
 33
0.0
 40
0.0
 40
0.0
 40
0.0
 40
0.0
 40
1.0
 40
1.0
 40
1.0
 40
2.0
 40
2.0
 40
2.0
 40
3.0
 40
3.0
 40
3.0
 40
4.0
 40
4.0
 40
4.0
 40
5.0
 40
5.0
 40
5.0
 40
6.0
 40
6.0
 40
6.0
 40
7.0
 40
7.0
 40
7.0
 40
8.0
 40
8.0
 40
8.0
 40
8.0
 10
90.53555905939736
 20
-124.4878363404058
 30
0.0
 10
90.42738306116053
 20
-124.697298145909
 30
0.0
 10
90.25409475825245
 20
-124.7164184258522
 30
0.0
 10
90.137650530851
 20
-124.7164184258522
 30
0.0
 10
89.97676457168984
 20
-124.7164184258522
 30
0.0
 10
89.83517114724607
 20
-124.6699096368013
 30
0.0
 10
89.74008651185318
 20
-124.4878363404058
 30
0.0
 10
89.63638913774716
 20
-124.2931884454892
 30
0.0
 10
89.61744111257828
 20
-124.0563381308783
 30
0.0
 10
89.61744111257828
 20
-123.893385114426
 30
0.0
 10
89.61744111257828
 20
-123.7495523779168
 30
0.0
 10
89.634322080456
 20
-123.4978881527193
 30
0.0
 10
89.74008651185318
 20
-123.2989338884461
 30
0.0
 10
89.8479180005415
 20
-123.0958455095906
 30
0.0
 10
90.00880395970266
 20
-123.0725911150652
 30
0.0
 10
90.137650530851
 20
-123.0725911150652
 30
0.0
 10
90.29646943272103
 20
-123.0725911150652
 30
0.0
 10
90.44012991445594
 20
-123.1170328468249
 30
0.0
 10
90.53555905939736
 20
-123.2989338884461
 30
0.0
 10
90.63477780937257
 20
-123.4915147260716
 30
0.0
 10
90.65820445867226
 20
-123.7199245567436
 30
0.0
 10
90.65820445867226
 20
-123.893385114426
 30
0.0
 10
90.65820445867226
 20
-124.0647786148171
 30
0.0
 10
90.63684486666371
 20
-124.2954277575546
 30
0.0
 10
90.53555905939736
 20
-124.4878363404058
 30
0.0
  0
SPLINE
  5
7E
330
74
100
AcDbEntity
  8
_U+30EC_U+30A4_U+30E4_U+30FC 1
370
     0
100
AcDbSpline
210
0.0
220
0.0
230
1.0
 70
    11
 71
     3
 72
    17
 73
    13
 74
     0
 42
0.0000000001
 43
0.0000000001
 12
1.0
 22
0.0
 32
0.0
 13
1.0
 23
0.0
 33
0.0
 40
0.0
 40
0.0
 40
0.0
 40
0.0
 40
1.0
 40
1.0
 40
1.0
 40
2.0
 40
2.0
 40
2.0
 40
3.0
 40
3.0
 40
3.0
 40
4.0
 40
4.0
 40
4.0
 40
4.0
 10
90.137650530851
 20
-123.2651719526907
 30
0.0
 10
89.88822561771892
 20
-123.2651719526907
 30
0.0
 10
89.84137231911953
 20
-123.5487033111267
 30
0.0
 10
89.84137231911953
 20
-123.893385114426
 30
0.0
 10
89.84137231911953
 20
-124.2129177206829
 30
0.0
 10
89.87754582171465
 20
-124.5217705309355
 30
0.0
 10
90.137650530851
 20
-124.5217705309355
 30
0.0
 10
90.38535289624048
 20
-124.5217705309355
 30
0.0
 10
90.4339287425825
 20
-124.2403062297906
 30
0.0
 10
90.4339287425825
 20
-123.893385114426
 30
0.0
 10
90.4339287425825
 20
-123.5740247629433
 30
0.0
 10
90.39568818269622
 20
-123.2651719526907
 30
0.0
 10
90.137650530851
 20
-123.2651719526907
 30
0.0
  0
HATCH
  5
7F
330
74
100
AcDbEntity
  8
_U+30EC_U+30A4_U+30E4_U+30FC 1
 62
   179
420
  2234388
100
AcDbHatch
 10
0.0
 20
0.0
 30
0.0
210
0.0
220
0.0
230
1.0
  2
SOLID
 70
     1
 71
     0
 91
        2
 92
        1
 93
        1
 72
     4
 94
        3
 73
     0
 74
     1
 95
       29
 96
       25
 40
0.0
 40
0.0
 40
0.0
 40
0.0
 40
1.0
 40
1.0
 40
1.0
 40
2.0
 40
2.0
 40
2.0
 40
3.0
 40
3.0
 40
3.0
 40
4.0
 40
4.0
 40
4.0
 40
5.0
 40
5.0
 40
5.0
 40
6.0
 40
6.0
 40
6.0
 40
7.0
 40
7.0
 40
7.0
 40
8.0
 40
8.0
 40
8.0
 40
8.0
 10
90.53555905939736
 20
-124.4878363404058
 10
90.42738306116053
 20
-124.697298145909
 10
90.25409475825245
 20
-124.7164184258522
 10
90.137650530851
 20
-124.7164184258522
 10
89.97676457168984
 20
-124.7164184258522
 10
89.83517114724607
 20
-124.6699096368013
 10
89.74008651185318
 20
-124.4878363404058
 10
89.63638913774716
 20
-124.2931884454892
 10
89.61744111257828
 20
-124.0563381308783
 10
89.61744111257828
 20
-123.893385114426
 10
89.61744111257828
 20
-123.7495523779168
 10
89.634322080456
 20
-123.4978881527193
 10
89.74008651185318
 20
-123.2989338884461
 10
89.8479180005415
 20
-123.0958455095906
 10
90.00880395970266
 20
-123.0725911150652
 10
90.137650530851
 20
-123.0725911150652
 10
90.29646943272103
 20
-123.0725911150652
 10
90.44012991445594
 20
-123.1170328468249
 10
90.53555905939736
 20
-123.2989338884461
 10
90.63477780937257
 20
-123.4915147260716
 10
90.65820445867226
 20
-123.7199245567436
 10
90.65820445867226
 20
-123.893385114426
 10
90.65820445867226
 20
-124.0647786148171
 10
90.63684486666371
 20
-124.2954277575546
 10
90.53555905939736
 20
-124.4878363404058
 97
        0
 97
        0
 92
        1
 93
        1
 72
     4
 94
        3
 73
     0
 74
     1
 95
       17
 96
       13
 40
0.0
 40
0.0
 40
0.0
 40
0.0
 40
1.0
 40
1.0
 40
1.0
 40
2.0
 40
2.0
 40
2.0
 40
3.0
 40
3.0
 40
3.0
 40
4.0
 40
4.0
 40
4.0
 40
4.0
 10
90.137650530851
 20
-123.2651719526907
 10
89.88822561771892
 20
-123.2651719526907
 10
89.84137231911953
 20
-123.5487033111267
 10
89.84137231911953
 20
-123.893385114426
 10
89.84137231911953
 20
-124.2129177206829
 10
89.87754582171465
 20
-124.5217705309355
 10
90.137650530851
 20
-124.5217705309355
 10
90.38535289624048
 20
-124.5217705309355
 10
90.4339287425825
 20
-124.2403062297906
 10
90.4339287425825
 20
-123.893385114426
 10
90.4339287425825
 20
-123.5740247629433
 10
90.39568818269622
 20
-123.2651719526907
 10
90.137650530851
 20
-123.2651719526907
 97
        0
 97
        0
 75
     2
 76
     1
 98
        0
  0
ENDBLK
  5
77
330
74
100
AcDbEntity
  8
0
100
AcDbBlockEnd
  0
ENDSEC
  0
SECTION
  2
ENTITIES
  0
SPLINE
  5
41
330
1F
100
AcDbEntity
  8
_U+30EC_U+30A4_U+30E4_U+30FC 1
 62
   179
420
  2234388
370
     9
100
AcDbSpline
210
0.0
220
0.0
230
1.0
 70
    11
 71
     3
 72
    17
 73
    13
 74
     0
 42
0.0000000001
 43
0.0000000001
 12
1.0
 22
0.0
 32
0.0
 13
1.0
 23
0.0
 33
0.0
 40
0.0
 40
0.0
 40
0.0
 40
0.0
 40
1.0
 40
1.0
 40
1.0
 40
2.0
 40
2.0
 40
2.0
 40
3.0
 40
3.0
 40
3.0
 40
4.0
 40
4.0
 40
4.0
 40
4.0
 10
111.4884641001368
 20
-138.3343619098607
 30
0.0
 10
111.4381579903091
 20
-138.3343619098607
 30
0.0
 10
111.3975179913459
 20
-138.3743316320733
 30
0.0
 10
111.3975179913459
 20
-138.423932187616
 30
0.0
 10
111.3975179913459
 20
-138.4735327431594
 30
0.0
 10
111.4381579903091
 20
-138.5142080209268
 30
0.0
 10
111.4884641001368
 20
-138.5142080209268
 30
0.0
 10
111.5380646544269
 20
-138.5142080209268
 30
0.0
 10
111.5780343756294
 20
-138.4735327431594
 30
0.0
 10
111.5780343756294
 20
-138.423932187616
 30
0.0
 10
111.5780343756294
 20
-138.3743316320733
 30
0.0
 10
111.5380646544269
 20
-138.3343619098607
 30
0.0
 10
111.4884641001368
 20
-138.3343619098607
 30
0.0
  0
POLYLINE
  5
42
330
1F
100
AcDbEntity
  8
_U+30EC_U+30A4_U+30E4_U+30FC 1
 62
   179
420
  2234388
370
     9
100
AcDb2dPolyline
 66
     1
 10
0.0
 20
0.0
 30
0.0
  0
VERTEX
  5
43
330
42
100
AcDbEntity
  8
_U+30EC_U+30A4_U+30E4_U+30FC 1
 62
   179
420
  2234388
370
     9
100
AcDbVertex
100
AcDb2dVertex
 10
111.4884641001368
 20
-138.3757074654062
 30
0.0
  0
VERTEX
  5
44
330
42
100
AcDbEntity
  8
_U+30EC_U+30A4_U+30E4_U+30FC 1
 62
   179
420
  2234388
370
     9
100
AcDbVertex
100
AcDb2dVertex
 10
111.4884641001368
 20
-150.0762880180364
 30
0.0
  0
SEQEND
  5
45
330
42
100
AcDbEntity
  8
_U+30EC_U+30A4_U+30E4_U+30FC 1
 62
   179
420
  2234388
370
     9
  0
POLYLINE
  5
46
330
1F
100
AcDbEntity
  8
_U+30EC_U+30A4_U+30E4_U+30FC 1
 62
   179
420
  2234388
370
     9
100
AcDb2dPolyline
 66
     1
 10
0.0
 20
0.0
 30
0.0
  0
VERTEX
  5
47
330
46
100
AcDbEntity
  8
_U+30EC_U+30A4_U+30E4_U+30FC 1
 62
   179
420
  2234388
370
     9
100
AcDbVertex
100
AcDb2dVertex
 10
96.67384392253366
 20
-150.0762880180364
 30
0.0
  0
VERTEX
  5
48
330
46
100
AcDbEntity
  8
_U+30EC_U+30A4_U+30E4_U+30FC 1
 62
   179
420
  2234388
370
     9
100
AcDbVertex
100
AcDb2dVertex
 10
112.3876240771973
 20
-150.0762880180364
 30
0.0
  0
SEQEND
  5
49
330
46
100
AcDbEntity
  8
_U+30EC_U+30A4_U+30E4_U+30FC 1
 62
   179
420
  2234388
370
     9
  0
INSERT
  5
4B
330
1F
100
AcDbEntity
  8
_U+30EC_U+30A4_U+30E4_U+30FC 1
100
AcDbBlockReference
  2
block 2
 10
0.0
 20
0.0
 30
0.0
  0
POLYLINE
  5
52
330
1F
100
AcDbEntity
  8
_U+30EC_U+30A4_U+30E4_U+30FC 1
 62
   179
420
  2234388
370
     9
100
AcDb2dPolyline
 66
     1
 10
0.0
 20
0.0
 30
0.0
  0
VERTEX
  5
53
330
52
100
AcDbEntity
  8
_U+30EC_U+30A4_U+30E4_U+30FC 1
 62
   179
420
  2234388
370
     9
100
AcDbVertex
100
AcDb2dVertex
 10
114.9101262350651
 20
-153.4076744060927
 30
0.0
  0
VERTEX
  5
54
330
52
100
AcDbEntity
  8
_U+30EC_U+30A4_U+30E4_U+30FC 1
 62
   179
420
  2234388
370
     9
100
AcDbVertex
100
AcDb2dVertex
 10
96.90949947207714
 20
-153.4076744060927
 30
0.0
  0
SEQEND
  5
55
330
52
100
AcDbEntity
  8
_U+30EC_U+30A4_U+30E4_U+30FC 1
 62
   179
420
  2234388
370
     9
  0
POLYLINE
  5
56
330
1F
100
AcDbEntity
  8
_U+30EC_U+30A4_U+30E4_U+30FC 1
 62
   179
420
  2234388
370
     9
100
AcDb2dPolyline
 66
     1
 10
0.0
 20
0.0
 30
0.0
  0
VERTEX
  5
57
330
56
100
AcDbEntity
  8
_U+30EC_U+30A4_U+30E4_U+30FC 1
 62
   179
420
  2234388
370
     9
100
AcDbVertex
100
AcDb2dVertex
 10
96.90949947207714
 20
-154.8029457946325
 30
0.0
  0
VERTEX
  5
58
330
56
100
AcDbEntity
  8
_U+30EC_U+30A4_U+30E4_U+30FC 1
 62
   179
420
  2234388
370
     9
100
AcDbVertex
100
AcDb2dVertex
 10
96.90949947207714
 20
-152.50784412854
 30
0.0
  0
SEQEND
  5
59
330
56
100
AcDbEntity
  8
_U+30EC_U+30A4_U+30E4_U+30FC 1
 62
   179
420
  2234388
370
     9
  0
INSERT
  5
5B
330
1F
100
AcDbEntity
  8
_U+30EC_U+30A4_U+30E4_U+30FC 1
100
AcDbBlockReference
  2
block 3
 10
0.0
 20
0.0
 30
0.0
  0
POLYLINE
  5
63
330
1F
100
AcDbEntity
  8
_U+30EC_U+30A4_U+30E4_U+30FC 1
 62
   179
420
  2234388
370
     9
100
AcDb2dPolyline
 66
     1
 10
0.0
 20
0.0
 30
0.0
  0
VERTEX
  5
64
330
63
100
AcDbEntity
  8
_U+30EC_U+30A4_U+30E4_U+30FC 1
 62
   179
420
  2234388
370
     9
100
AcDbVertex
100
AcDb2dVertex
 10
114.8742840137573
 20
-154.8029457946325
 30
0.0
  0
VERTEX
  5
65
330
63
100
AcDbEntity
  8
_U+30EC_U+30A4_U+30E4_U+30FC 1
 62
   179
420
  2234388
370
     9
100
AcDbVertex
100
AcDb2dVertex
 10
114.8742840137573
 20
-138.4156771876181
 30
0.0
  0
SEQEND
  5
66
330
63
100
AcDbEntity
  8
_U+30EC_U+30A4_U+30E4_U+30FC 1
 62
   179
420
  2234388
370
     9
  0
SPLINE
  5
67
330
1F
100
AcDbEntity
  8
_U+30EC_U+30A4_U+30E4_U+30FC 1
370
     0
100
AcDbSpline
210
0.0
220
0.0
230
1.0
 70
    11
 71
     3
 72
    71
 73
    67
 74
     0
 42
0.0000000001
 43
0.0000000001
 12
1.0
 22
0.0
 32
0.0
 13
1.0
 23
0.0
 33
0.0
 40
0.0
 40
0.0
 40
0.0
 40
0.0
 40
1.0
 40
1.0
 40
1.0
 40
2.0
 40
2.0
 40
2.0
 40
3.0
 40
3.0
 40
3.0
 40
4.0
 40
4.0
 40
4.0
 40
5.0
 40
5.0
 40
5.0
 40
6.0
 40
6.0
 40
6.0
 40
7.0
 40
7.0
 40
7.0
 40
8.0
 40
8.0
 40
8.0
 40
9.0
 40
9.0
 40
9.0
 40
10.0
 40
10.0
 40
10.0
 40
11.0
 40
11.0
 40
11.0
 40
12.0
 40
12.0
 40
12.0
 40
13.0
 40
13.0
 40
13.0
 40
14.0
 40
14.0
 40
14.0
 40
15.0
 40
15.0
 40
15.0
 40
16.0
 40
16.0
 40
16.0
 40
17.0
 40
17.0
 40
17.0
 40
18.0
 40
18.0
 40
18.0
 40
19.0
 40
19.0
 40
19.0
 40
20.0
 40
20.0
 40
20.0
 40
21.0
 40
21.0
 40
21.0
 40
22.0
 40
22.0
 40
22.0
 40
22.0
 10
78.92196076431081
 20
-120.118081636637
 30
0.0
 10
78.92196076431081
 20
-120.118081636637
 30
0.0
 10
78.88682409854056
 20
-102.2056488633375
 30
0.0
 10
78.88682409854056
 20
-102.2056488633375
 30
0.0
 10
78.88682409854056
 20
-102.2056488633375
 30
0.0
 10
79.44562408428439
 20
-102.2752519188756
 30
0.0
 10
79.44562408428439
 20
-102.2752519188756
 30
0.0
 10
79.44562408428439
 20
-102.2752519188756
 30
0.0
 10
79.5158974158249
 20
-120.6424152476172
 30
0.0
 10
79.5158974158249
 20
-120.6424152476172
 30
0.0
 10
79.5158974158249
 20
-120.6424152476172
 30
0.0
 10
79.48146630559219
 20
-121.2356816363578
 30
0.0
 10
78.67805021497793
 20
-121.1660785808198
 30
0.0
 10
78.67805021497793
 20
-121.1660785808198
 30
0.0
 10
67.783284937371
 20
-121.200509691922
 30
0.0
 10
67.783284937371
 20
-121.200509691922
 30
0.0
 10
67.783284937371
 20
-121.200509691922
 30
0.0
 10
67.08531412184439
 20
-129.754700523117
 30
0.0
 10
73.1252575788637
 20
-137.8210349655449
 30
0.0
 10
73.1252575788637
 20
-137.8210349655449
 30
0.0
 10
77.63005329727012
 20
-144.5258941305354
 30
0.0
 10
87.05789805674576
 20
-147.7735663519458
 30
0.0
 10
87.05789805674576
 20
-147.7735663519458
 30
0.0
 10
93.02823845998525
 20
-149.7641502403367
 30
0.0
 10
96.03168255002767
 20
-148.9607694072043
 30
0.0
 10
96.03168255002767
 20
-148.9607694072043
 30
0.0
 10
95.99654588425742
 20
-138.4501082987209
 30
0.0
 10
95.99654588425742
 20
-138.4501082987209
 30
0.0
 10
95.99654588425742
 20
-138.4501082987209
 30
0.0
 10
95.99654588425742
 20
-137.5771244100505
 30
0.0
 10
97.63780917571863
 20
-137.6818641322463
 30
0.0
 10
97.63780917571863
 20
-137.6818641322463
 30
0.0
 10
114.9218384569885
 20
-137.6825696878018
 30
0.0
 10
114.9218384569885
 20
-137.6825696878018
 30
0.0
 10
114.9218384569885
 20
-137.6825696878018
 30
0.0
 10
114.9218384569885
 20
-138.2758007987645
 30
0.0
 10
114.9218384569885
 20
-138.2758007987645
 30
0.0
 10
114.9218384569885
 20
-138.2758007987645
 30
0.0
 10
96.76479003132454
 20
-138.3454038543026
 30
0.0
 10
96.76479003132454
 20
-138.3454038543026
 30
0.0
 10
96.76479003132454
 20
-138.3454038543026
 30
0.0
 10
96.76479003132454
 20
-149.1357824627162
 30
0.0
 10
96.76479003132454
 20
-149.1357824627162
 30
0.0
 10
96.76479003132454
 20
-149.1357824627162
 30
0.0
 10
96.90466641664489
 20
-150.1479371846854
 30
0.0
 10
96.20602775372596
 20
-150.1830738513431
 30
0.0
 10
96.20602775372596
 20
-150.1830738513431
 30
0.0
 10
90.61876629923378
 20
-150.2878135735389
 30
0.0
 10
86.32408501991134
 20
-148.6121191295134
 30
0.0
 10
86.32408501991134
 20
-148.6121191295134
 30
0.0
 10
76.79153581866248
 20
-145.3640941303259
 30
0.0
 10
71.9725209416058
 20
-137.6473977433659
 30
0.0
 10
71.9725209416058
 20
-137.6473977433659
 30
0.0
 10
67.08393828854615
 20
-130.0358291341576
 30
0.0
 10
66.9440619032258
 20
-123.4012433024832
 30
0.0
 10
66.9440619032258
 20
-123.4012433024832
 30
0.0
 10
66.9440619032258
 20
-121.2012152474775
 30
0.0
 10
66.9440619032258
 20
-121.2012152474775
 30
0.0
 10
66.9440619032258
 20
-121.2012152474775
 30
0.0
 10
66.80489107344302
 20
-120.4681077476609
 30
0.0
 10
67.92245576715379
 20
-120.4681077476609
 30
0.0
 10
67.92245576715379
 20
-120.4681077476609
 30
0.0
 10
78.60707132789987
 20
-120.4336413587805
 30
0.0
 10
78.60707132789987
 20
-120.4336413587805
 30
0.0
 10
78.60707132789987
 20
-120.4336413587805
 30
0.0
 10
78.92333659760905
 20
-120.3971288587896
 30
0.0
 10
78.92196076431081
 20
-120.118081636637
 30
0.0
  0
POLYLINE
  5
68
330
1F
100
AcDbEntity
  8
_U+30EC_U+30A4_U+30E4_U+30FC 1
 62
   179
420
  2234388
370
     9
100
AcDb2dPolyline
 66
     1
 10
0.0
 20
0.0
 30
0.0
  0
VERTEX
  5
69
330
68
100
AcDbEntity
  8
_U+30EC_U+30A4_U+30E4_U+30FC 1
 62
   179
420
  2234388
370
     9
100
AcDbVertex
100
AcDb2dVertex
 10
76.78670276323022
 20
-140.4503582982209
 30
0.0
  0
VERTEX
  5
6A
330
68
100
AcDbEntity
  8
_U+30EC_U+30A4_U+30E4_U+30FC 1
 62
   179
420
  2234388
370
     9
100
AcDbVertex
100
AcDb2dVertex
 10
77.5659888544601
 20
-140.0004255205554
 30
0.0
  0
SEQEND
  5
6B
330
68
100
AcDbEntity
  8
_U+30EC_U+30A4_U+30E4_U+30FC 1
 62
   179
420
  2234388
370
     9
  0
POLYLINE
  5
6C
330
1F
100
AcDbEntity
  8
_U+30EC_U+30A4_U+30E4_U+30FC 1
 62
   179
420
  2234388
370
     9
100
AcDb2dPolyline
 66
     1
 10
0.0
 20
0.0
 30
0.0
  0
VERTEX
  5
6D
330
6C
100
AcDbEntity
  8
_U+30EC_U+30A4_U+30E4_U+30FC 1
 62
   179
420
  2234388
370
     9
100
AcDbVertex
100
AcDb2dVertex
 10
76.78670276323022
 20
-140.4510285759983
 30
0.0
  0
VERTEX
  5
6E
330
6C
100
AcDbEntity
  8
_U+30EC_U+30A4_U+30E4_U+30FC 1
 62
   179
420
  2234388
370
     9
100
AcDbVertex
100
AcDb2dVertex
 10
96.03305838332591
 20
-121.3383399696656
 30
0.0
  0
SEQEND
  5
6F
330
6C
100
AcDbEntity
  8
_U+30EC_U+30A4_U+30E4_U+30FC 1
 62
   179
420
  2234388
370
     9
  0
POLYLINE
  5
70
330
1F
100
AcDbEntity
  8
_U+30EC_U+30A4_U+30E4_U+30FC 1
 62
   179
420
  2234388
370
     9
100
AcDb2dPolyline
 66
     1
 10
0.0
 20
0.0
 30
0.0
  0
VERTEX
  5
71
330
70
100
AcDbEntity
  8
_U+30EC_U+30A4_U+30E4_U+30FC 1
 62
   179
420
  2234388
370
     9
100
AcDbVertex
100
AcDb2dVertex
 10
76.78670276323022
 20
-140.4503582982209
 30
0.0
  0
VERTEX
  5
72
330
70
100
AcDbEntity
  8
_U+30EC_U+30A4_U+30E4_U+30FC 1
 62
   179
420
  2234388
370
     9
100
AcDbVertex
100
AcDb2dVertex
 10
77.23663552952927
 20
-139.6710721873043
 30
0.0
  0
SEQEND
  5
73
330
70
100
AcDbEntity
  8
_U+30EC_U+30A4_U+30E4_U+30FC 1
 62
   179
420
  2234388
370
     9
  0
INSERT
  5
75
330
1F
100
AcDbEntity
  8
_U+30EC_U+30A4_U+30E4_U+30FC 1
100
AcDbBlockReference
  2
block 4
 10
0.0
 20
0.0
 30
0.0
  0
POLYLINE
  5
80
330
1F
100
AcDbEntity
  8
_U+30EC_U+30A4_U+30E4_U+30FC 1
 62
   179
420
  2234388
370
    25
100
AcDb2dPolyline
 66
     1
 10
0.0
 20
0.0
 30
0.0
  0
VERTEX
  5
81
330
80
100
AcDbEntity
  8
_U+30EC_U+30A4_U+30E4_U+30FC 1
 62
   179
420
  2234388
370
    25
100
AcDbVertex
100
AcDb2dVertex
 10
78.91095409792496
 20
-120.1284180255234
 30
0.0
  0
VERTEX
  5
82
330
80
100
AcDbEntity
  8
_U+30EC_U+30A4_U+30E4_U+30FC 1
 62
   179
420
  2234388
370
    25
100
AcDbVertex
100
AcDb2dVertex
 10
78.86752715458842
 20
-102.2669616410998
 30
0.0
  0
SEQEND
  5
83
330
80
100
AcDbEntity
  8
_U+30EC_U+30A4_U+30E4_U+30FC 1
 62
   179
420
  2234388
370
    25
  0
POLYLINE
  5
84
330
1F
100
AcDbEntity
  8
_U+30EC_U+30A4_U+30E4_U+30FC 1
 62
   179
420
  2234388
370
    25
100
AcDb2dPolyline
 66
     1
 10
0.0
 20
0.0
 30
0.0
  0
VERTEX
  5
85
330
84
100
AcDbEntity
  8
_U+30EC_U+30A4_U+30E4_U+30FC 1
 62
   179
420
  2234388
370
    25
100
AcDbVertex
100
AcDb2dVertex
 10
78.89165715397282
 20
-102.200815807783
 30
0.0
  0
VERTEX
  5
86
330
84
100
AcDbEntity
  8
_U+30EC_U+30A4_U+30E4_U+30FC 1
 62
   179
420
  2234388
370
    25
100
AcDbVertex
100
AcDb2dVertex
 10
79.53519435977704
 20
-102.200815807783
 30
0.0
  0
SEQEND
  5
87
330
84
100
AcDbEntity
  8
_U+30EC_U+30A4_U+30E4_U+30FC 1
 62
   179
420
  2234388
370
    25
  0
POLYLINE
  5
88
330
1F
100
AcDbEntity
  8
_U+30EC_U+30A4_U+30E4_U+30FC 1
 62
   179
420
  2234388
370
    25
100
AcDb2dPolyline
 66
     1
 10
0.0
 20
0.0
 30
0.0
  0
VERTEX
  5
89
330
88
100
AcDbEntity
  8
_U+30EC_U+30A4_U+30E4_U+30FC 1
 62
   179
420
  2234388
370
    25
100
AcDbVertex
100
AcDb2dVertex
 10
79.53865158191105
 20
-102.2725002522095
 30
0.0
  0
VERTEX
  5
8A
330
88
100
AcDbEntity
  8
_U+30EC_U+30A4_U+30E4_U+30FC 1
 62
   179
420
  2234388
370
    25
100
AcDbVertex
100
AcDb2dVertex
 10
79.53865158191105
 20
-120.1821460810658
 30
0.0
  0
SEQEND
  5
8B
330
88
100
AcDbEntity
  8
_U+30EC_U+30A4_U+30E4_U+30FC 1
 62
   179
420
  2234388
370
    25
  0
SPLINE
  5
8C
330
1F
100
AcDbEntity
  8
_U+30EC_U+30A4_U+30E4_U+30FC 1
 62
   179
420
  2234388
370
    25
100
AcDbSpline
210
0.0
220
0.0
230
1.0
 70
     8
 71
     3
 72
    14
 73
    10
 74
     0
 42
0.0000000001
 43
0.0000000001
 12
1.0
 22
0.0
 32
0.0
 13
1.0
 23
0.0
 33
0.0
 40
0.0
 40
0.0
 40
0.0
 40
0.0
 40
1.0
 40
1.0
 40
1.0
 40
2.0
 40
2.0
 40
2.0
 40
3.0
 40
3.0
 40
3.0
 40
3.0
 10
79.54140324850752
 20
-120.1670119144027
 30
0.0
 10
79.54140324850752
 20
-120.1670119144027
 30
0.0
 10
79.54140324850752
 20
-120.6575846920578
 30
0.0
 10
79.54140324850752
 20
-120.6575846920578
 30
0.0
 10
79.54140324850752
 20
-120.6575846920578
 30
0.0
 10
79.56687380341327
 20
-121.0702994141768
 30
0.0
 10
79.05083048324529
 20
-121.1998394141446
 30
0.0
 10
79.05083048324529
 20
-121.1998394141446
 30
0.0
 10
78.48236438663696
 20
-121.1998394141446
 30
0.0
 10
78.48236438663696
 20
-121.1998394141446
 30
0.0
  0
POLYLINE
  5
8D
330
1F
100
AcDbEntity
  8
_U+30EC_U+30A4_U+30E4_U+30FC 1
 62
   179
420
  2234388
370
    25
100
AcDb2dPolyline
 66
     1
 10
0.0
 20
0.0
 30
0.0
  0
VERTEX
  5
8E
330
8D
100
AcDbEntity
  8
_U+30EC_U+30A4_U+30E4_U+30FC 1
 62
   179
420
  2234388
370
    25
100
AcDbVertex
100
AcDb2dVertex
 10
78.57676771756186
 20
-121.1984635808114
 30
0.0
  0
VERTEX
  5
8F
330
8D
100
AcDbEntity
  8
_U+30EC_U+30A4_U+30E4_U+30FC 1
 62
   179
420
  2234388
370
    25
100
AcDbVertex
100
AcDb2dVertex
 10
67.77707776083344
 20
-121.1984635808114
 30
0.0
  0
SEQEND
  5
90
330
8D
100
AcDbEntity
  8
_U+30EC_U+30A4_U+30E4_U+30FC 1
 62
   179
420
  2234388
370
    25
  0
POLYLINE
  5
91
330
1F
100
AcDbEntity
  8
_U+30EC_U+30A4_U+30E4_U+30FC 1
 62
   179
420
  2234388
370
    25
100
AcDb2dPolyline
 66
     1
 10
0.0
 20
0.0
 30
0.0
  0
VERTEX
  5
92
330
91
100
AcDbEntity
  8
_U+30EC_U+30A4_U+30E4_U+30FC 1
 62
   179
420
  2234388
370
    25
100
AcDbVertex
100
AcDb2dVertex
 10
96.01721866150778
 20
-148.9917785738634
 30
0.0
  0
VERTEX
  5
93
330
91
100
AcDbEntity
  8
_U+30EC_U+30A4_U+30E4_U+30FC 1
 62
   179
420
  2234388
370
    25
100
AcDbVertex
100
AcDb2dVertex
 10
96.01721866150778
 20
-138.6409610764507
 30
0.0
  0
SEQEND
  5
94
330
91
100
AcDbEntity
  8
_U+30EC_U+30A4_U+30E4_U+30FC 1
 62
   179
420
  2234388
370
    25
  0
SPLINE
  5
95
330
1F
100
AcDbEntity
  8
_U+30EC_U+30A4_U+30E4_U+30FC 1
 62
   179
420
  2234388
370
    25
100
AcDbSpline
210
0.0
220
0.0
230
1.0
 70
     8
 71
     3
 72
     8
 73
     4
 74
     0
 42
0.0000000001
 43
0.0000000001
 12
1.0
 22
0.0
 32
0.0
 13
1.0
 23
0.0
 33
0.0
 40
0.0
 40
0.0
 40
0.0
 40
0.0
 40
1.0
 40
1.0
 40
1.0
 40
1.0
 10
96.01721866150778
 20
-138.7505338542014
 30
0.0
 10
96.01721866150778
 20
-138.7505338542014
 30
0.0
 10
95.7974381115593
 20
-137.6990796877977
 30
0.0
 10
97.012863358329
 20
-137.6990796877977
 30
0.0
  0
SPLINE
  5
96
330
1F
100
AcDbEntity
  8
_U+30EC_U+30A4_U+30E4_U+30FC 1
 62
   179
420
  2234388
370
    25
100
AcDbSpline
210
0.0
220
0.0
230
1.0
 70
     8
 71
     3
 72
    11
 73
     7
 74
     0
 42
0.0000000001
 43
0.0000000001
 12
1.0
 22
0.0
 32
0.0
 13
1.0
 23
0.0
 33
0.0
 40
0.0
 40
0.0
 40
0.0
 40
0.0
 40
1.0
 40
1.0
 40
1.0
 40
2.0
 40
2.0
 40
2.0
 40
2.0
 10
67.77227827098514
 20
-121.2322244141366
 30
0.0
 10
67.77227827098514
 20
-121.2322244141366
 30
0.0
 10
66.90063495988927
 20
-132.0222502447724
 30
0.0
 10
75.94677417354748
 20
-141.068389686955
 30
0.0
 10
75.94677417354748
 20
-141.068389686955
 30
0.0
 10
85.5158711516417
 20
-150.0955849624762
 30
0.0
 10
95.9765786625446
 20
-149.0110755183026
 30
0.0
  0
POLYLINE
  5
97
330
1F
100
AcDbEntity
  8
_U+30EC_U+30A4_U+30E4_U+30FC 1
 62
   179
420
  2234388
370
    25
100
AcDb2dPolyline
 66
     1
 10
0.0
 20
0.0
 30
0.0
  0
VERTEX
  5
98
330
97
100
AcDbEntity
  8
_U+30EC_U+30A4_U+30E4_U+30FC 1
 62
   179
420
  2234388
370
    25
100
AcDbVertex
100
AcDb2dVertex
 10
97.012863358329
 20
-137.6970335766868
 30
0.0
  0
VERTEX
  5
99
330
97
100
AcDbEntity
  8
_U+30EC_U+30A4_U+30E4_U+30FC 1
 62
   179
420
  2234388
370
    25
100
AcDbVertex
100
AcDb2dVertex
 10
114.9466416379302
 20
-137.6970335766868
 30
0.0
  0
SEQEND
  5
9A
330
97
100
AcDbEntity
  8
_U+30EC_U+30A4_U+30E4_U+30FC 1
 62
   179
420
  2234388
370
    25
  0
POLYLINE
  5
9B
330
1F
100
AcDbEntity
  8
_U+30EC_U+30A4_U+30E4_U+30FC 1
 62
   179
420
  2234388
370
    25
100
AcDb2dPolyline
 66
     1
 10
0.0
 20
0.0
 30
0.0
  0
VERTEX
  5
9C
330
9B
100
AcDbEntity
  8
_U+30EC_U+30A4_U+30E4_U+30FC 1
 62
   179
420
  2234388
370
    25
100
AcDbVertex
100
AcDb2dVertex
 10
115.0079515103472
 20
-137.7328405211225
 30
0.0
  0
VERTEX
  5
9D
330
9B
100
AcDbEntity
  8
_U+30EC_U+30A4_U+30E4_U+30FC 1
 62
   179
420
  2234388
370
    25
100
AcDbVertex
100
AcDb2dVertex
 10
115.0079515103472
 20
-138.3061044098681
 30
0.0
  0
SEQEND
  5
9E
330
9B
100
AcDbEntity
  8
_U+30EC_U+30A4_U+30E4_U+30FC 1
 62
   179
420
  2234388
370
    25
  0
POLYLINE
  5
9F
330
1F
100
AcDbEntity
  8
_U+30EC_U+30A4_U+30E4_U+30FC 1
 62
   179
420
  2234388
370
    25
100
AcDb2dPolyline
 66
     1
 10
0.0
 20
0.0
 30
0.0
  0
VERTEX
  5
A0
330
9F
100
AcDbEntity
  8
_U+30EC_U+30A4_U+30E4_U+30FC 1
 62
   179
420
  2234388
370
    25
100
AcDbVertex
100
AcDb2dVertex
 10
114.9018712352757
 20
-138.313689132088
 30
0.0
  0
VERTEX
  5
A1
330
9F
100
AcDbEntity
  8
_U+30EC_U+30A4_U+30E4_U+30FC 1
 62
   179
420
  2234388
370
    25
100
AcDbVertex
100
AcDb2dVertex
 10
96.82405669647919
 20
-138.313689132088
 30
0.0
  0
SEQEND
  5
A2
330
9F
100
AcDbEntity
  8
_U+30EC_U+30A4_U+30E4_U+30FC 1
 62
   179
420
  2234388
370
    25
  0
POLYLINE
  5
A3
330
1F
100
AcDbEntity
  8
_U+30EC_U+30A4_U+30E4_U+30FC 1
 62
   179
420
  2234388
370
    25
100
AcDb2dPolyline
 66
     1
 10
0.0
 20
0.0
 30
0.0
  0
VERTEX
  5
A4
330
A3
100
AcDbEntity
  8
_U+30EC_U+30A4_U+30E4_U+30FC 1
 62
   179
420
  2234388
370
    25
100
AcDbVertex
100
AcDb2dVertex
 10
96.77929164247153
 20
-138.33848940986
 30
0.0
  0
VERTEX
  5
A5
330
A3
100
AcDbEntity
  8
_U+30EC_U+30A4_U+30E4_U+30FC 1
 62
   179
420
  2234388
370
    25
100
AcDbVertex
100
AcDb2dVertex
 10
96.8116741967951
 20
-149.1392044071594
 30
0.0
  0
SEQEND
  5
A6
330
A3
100
AcDbEntity
  8
_U+30EC_U+30A4_U+30E4_U+30FC 1
 62
   179
420
  2234388
370
    25
  0
SPLINE
  5
A7
330
1F
100
AcDbEntity
  8
_U+30EC_U+30A4_U+30E4_U+30FC 1
 62
   179
420
  2234388
370
    25
100
AcDbSpline
210
0.0
220
0.0
230
1.0
 70
     8
 71
     3
 72
    11
 73
     7
 74
     0
 42
0.0000000001
 43
0.0000000001
 12
1.0
 22
0.0
 32
0.0
 13
1.0
 23
0.0
 33
0.0
 40
0.0
 40
0.0
 40
0.0
 40
0.0
 40
1.0
 40
1.0
 40
1.0
 40
2.0
 40
2.0
 40
2.0
 40
2.0
 10
96.8116741967951
 20
-149.0847707960625
 30
0.0
 10
96.8116741967951
 20
-149.0847707960625
 30
0.0
 10
96.8116741967951
 20
-149.4671819070776
 30
0.0
 10
96.8116741967951
 20
-149.4671819070776
 30
0.0
 10
96.8116741967951
 20
-149.4671819070776
 30
0.0
 10
96.79512891943942
 20
-150.1313919069113
 30
0.0
 10
96.12883754754904
 20
-150.1644824624588
 30
0.0
  0
SPLINE
  5
A8
330
1F
100
AcDbEntity
  8
_U+30EC_U+30A4_U+30E4_U+30FC 1
 62
   179
420
  2234388
370
    25
100
AcDbSpline
210
0.0
220
0.0
230
1.0
 70
     8
 71
     3
 72
    11
 73
     7
 74
     0
 42
0.0000000001
 43
0.0000000001
 12
1.0
 22
0.0
 32
0.0
 13
1.0
 23
0.0
 33
0.0
 40
0.0
 40
0.0
 40
0.0
 40
0.0
 40
1.0
 40
1.0
 40
1.0
 40
2.0
 40
2.0
 40
2.0
 40
2.0
 10
96.18464699056966
 20
-150.1541460735724
 30
0.0
 10
96.18464699056966
 20
-150.1541460735724
 30
0.0
 10
84.64013561842802
 20
-151.0064571844709
 30
0.0
 10
75.574029183057
 20
-141.9399977422926
 30
0.0
 10
75.574029183057
 20
-141.9399977422926
 30
0.0
 10
66.895838872165
 20
-134.0996527442529
 30
0.0
 10
66.895838872165
 20
-121.3920680252076
 30
0.0
  0
SPLINE
  5
A9
330
1F
100
AcDbEntity
  8
_U+30EC_U+30A4_U+30E4_U+30FC 1
 62
   179
420
  2234388
370
    25
100
AcDbSpline
210
0.0
220
0.0
230
1.0
 70
     8
 71
     3
 72
     8
 73
     4
 74
     0
 42
0.0000000001
 43
0.0000000001
 12
1.0
 22
0.0
 32
0.0
 13
1.0
 23
0.0
 33
0.0
 40
0.0
 40
0.0
 40
0.0
 40
0.0
 40
1.0
 40
1.0
 40
1.0
 40
1.0
 10
66.90063495988927
 20
-121.4065319140929
 30
0.0
 10
66.90063495988927
 20
-121.4065319140929
 30
0.0
 10
66.6705180213156
 20
-120.4460591365552
 30
0.0
 10
67.88456743478707
 20
-120.4460591365552
 30
0.0
  0
POLYLINE
  5
AA
330
1F
100
AcDbEntity
  8
_U+30EC_U+30A4_U+30E4_U+30FC 1
 62
   179
420
  2234388
370
    25
100
AcDb2dPolyline
 66
     1
 10
0.0
 20
0.0
 30
0.0
  0
VERTEX
  5
AB
330
AA
100
AcDbEntity
  8
_U+30EC_U+30A4_U+30E4_U+30FC 1
 62
   179
420
  2234388
370
    25
100
AcDbVertex
100
AcDb2dVertex
 10
67.89007076797999
 20
-120.4377688587795
 30
0.0
  0
VERTEX
  5
AC
330
AA
100
AcDbEntity
  8
_U+30EC_U+30A4_U+30E4_U+30FC 1
 62
   179
420
  2234388
370
    25
100
AcDbVertex
100
AcDb2dVertex
 10
78.68976243690136
 20
-120.4577713587745
 30
0.0
  0
SEQEND
  5
AD
330
AA
100
AcDbEntity
  8
_U+30EC_U+30A4_U+30E4_U+30FC 1
 62
   179
420
  2234388
370
    25
  0
SPLINE
  5
AE
330
1F
100
AcDbEntity
  8
_U+30EC_U+30A4_U+30E4_U+30FC 1
 62
   179
420
  2234388
370
    25
100
AcDbSpline
210
0.0
220
0.0
230
1.0
 70
     8
 71
     3
 72
     8
 73
     4
 74
     0
 42
0.0000000001
 43
0.0000000001
 12
1.0
 22
0.0
 32
0.0
 13
1.0
 23
0.0
 33
0.0
 40
0.0
 40
0.0
 40
0.0
 40
0.0
 40
1.0
 40
1.0
 40
1.0
 40
1.0
 10
78.2963446691605
 20
-120.4577713587745
 30
0.0
 10
78.2963446691605
 20
-120.4577713587745
 30
0.0
 10
78.91095409792496
 20
-120.5742233031899
 30
0.0
 10
78.91575187558033
 20
-120.0994902477531
 30
0.0
  0
SPLINE
  5
AF
330
1F
100
AcDbEntity
  8
_U+30EC_U+30A4_U+30E4_U+30FC 1
 62
   179
420
  2234388
370
     9
100
AcDbSpline
210
0.0
220
0.0
230
1.0
 70
    11
 71
     3
 72
    17
 73
    13
 74
     0
 42
0.0000000001
 43
0.0000000001
 12
1.0
 22
0.0
 32
0.0
 13
1.0
 23
0.0
 33
0.0
 40
0.0
 40
0.0
 40
0.0
 40
0.0
 40
1.0
 40
1.0
 40
1.0
 40
2.0
 40
2.0
 40
2.0
 40
3.0
 40
3.0
 40
3.0
 40
4.0
 40
4.0
 40
4.0
 40
4.0
 10
111.4967190999262
 20
-150.1431041291312
 30
0.0
 10
111.5518610832228
 20
-150.1431041291312
 30
0.0
 10
111.596625764044
 20
-150.098336629142
 30
0.0
 10
111.596625764044
 20
-150.0431974624889
 30
0.0
 10
111.596625764044
 20
-149.988093573614
 30
0.0
 10
111.5518610832228
 20
-149.9432907958473
 30
0.0
 10
111.4967190999262
 20
-149.9432907958473
 30
0.0
 10
111.4416152124431
 20
-149.9432907958473
 30
0.0
 10
111.3968124358083
 20
-149.988093573614
 30
0.0
 10
111.3968124358083
 20
-150.0431974624889
 30
0.0
 10
111.3968124358083
 20
-150.098336629142
 30
0.0
 10
111.4416152124431
 20
-150.1431041291312
 30
0.0
 10
111.4967190999262
 20
-150.1431041291312
 30
0.0
  0
SPLINE
  5
B0
330
1F
100
AcDbEntity
  8
_U+30EC_U+30A4_U+30E4_U+30FC 1
 62
   179
420
  2234388
370
     9
100
AcDbSpline
210
0.0
220
0.0
230
1.0
 70
    11
 71
     3
 72
    17
 73
    13
 74
     0
 42
0.0000000001
 43
0.0000000001
 12
1.0
 22
0.0
 32
0.0
 13
1.0
 23
0.0
 33
0.0
 40
0.0
 40
0.0
 40
0.0
 40
0.0
 40
1.0
 40
1.0
 40
1.0
 40
2.0
 40
2.0
 40
2.0
 40
3.0
 40
3.0
 40
3.0
 40
4.0
 40
4.0
 40
4.0
 40
4.0
 10
114.8777412358913
 20
-153.4710685727431
 30
0.0
 10
114.9328451233744
 20
-153.4710685727431
 30
0.0
 10
114.9776479000092
 20
-153.4263010727546
 30
0.0
 10
114.9776479000092
 20
-153.3704916283241
 30
0.0
 10
114.9776479000092
 20
-153.315352461671
 30
0.0
 10
114.9328451233744
 20
-153.2705849616825
 30
0.0
 10
114.8777412358913
 20
-153.2705849616825
 30
0.0
 10
114.8226020706314
 20
-153.2705849616825
 30
0.0
 10
114.7778345717735
 20
-153.315352461671
 30
0.0
 10
114.7778345717735
 20
-153.3704916283241
 30
0.0
 10
114.7778345717735
 20
-153.4263010727546
 30
0.0
 10
114.8226020706314
 20
-153.4710685727431
 30
0.0
 10
114.8777412358913
 20
-153.4710685727431
 30
0.0
  0
SPLINE
  5
B1
330
1F
100
AcDbEntity
  8
_U+30EC_U+30A4_U+30E4_U+30FC 1
 62
   179
420
  2234388
370
     9
100
AcDbSpline
210
0.0
220
0.0
230
1.0
 70
    11
 71
     3
 72
    17
 73
    13
 74
     0
 42
0.0000000001
 43
0.0000000001
 12
1.0
 22
0.0
 32
0.0
 13
1.0
 23
0.0
 33
0.0
 40
0.0
 40
0.0
 40
0.0
 40
0.0
 40
1.0
 40
1.0
 40
1.0
 40
2.0
 40
2.0
 40
2.0
 40
3.0
 40
3.0
 40
3.0
 40
4.0
 40
4.0
 40
4.0
 40
4.0
 10
96.91500280527006
 20
-153.4710685727431
 30
0.0
 10
96.97014442020199
 20
-153.4710685727431
 30
0.0
 10
97.0149094693879
 20
-153.4263010727546
 30
0.0
 10
97.0149094693879
 20
-153.3704916283241
 30
0.0
 10
97.0149094693879
 20
-153.315352461671
 30
0.0
 10
96.97014442020199
 20
-153.2705849616825
 30
0.0
 10
96.91500280527006
 20
-153.2705849616825
 30
0.0
 10
96.85989891778699
 20
-153.2705849616825
 30
0.0
 10
96.81509614115224
 20
-153.315352461671
 30
0.0
 10
96.81509614115224
 20
-153.3704916283241
 30
0.0
 10
96.81509614115224
 20
-153.4263010727546
 30
0.0
 10
96.85989891778699
 20
-153.4710685727431
 30
0.0
 10
96.91500280527006
 20
-153.4710685727431
 30
0.0
  0
ENDSEC
  0
SECTION
  2
OBJECTS
  0
DICTIONARY
  5
C
330
0
100
AcDbDictionary
281
     1
  3
ACAD_GROUP
350
D
  3
ACAD_LAYOUT
350
1A
  3
ACAD_MATERIAL
350
3B
  3
ACAD_MLEADERSTYLE
350
B3
  3
ACAD_MLINESTYLE
350
17
  3
ACAD_PLOTSETTINGS
350
19
  3
ACAD_PLOTSTYLENAME
350
E
  3
ACAD_TABLESTYLE
350
B2
  3
ACAD_VISUALSTYLE
350
2A
  0
SUN
  5
3F
330
29
100
AcDbSun
 90
        1
290
     0
 63
     7
421
 16777215
 40
1.0
291
     1
 91
  2455826
 92
 54000000
292
     0
 70
     2
 71
   256
280
     1
  0
DICTIONARY
  5
D
102
{ACAD_REACTORS
330
C
102
}
330
C
100
AcDbDictionary
281
     1
  0
DICTIONARY
  5
1A
102
{ACAD_REACTORS
330
C
102
}
330
C
100
AcDbDictionary
281
     1
  3
Layout1
350
1E
  3
Layout2
350
26
  3
Model
350
22
  0
DICTIONARY
  5
3B
102
{ACAD_REACTORS
330
C
102
}
330
C
100
AcDbDictionary
281
     1
  3
ByBlock
350
3D
  3
ByLayer
350
3C
  3
Global
350
3E
  0
DICTIONARY
  5
B3
102
{ACAD_REACTORS
330
C
102
}
330
C
100
AcDbDictionary
281
     1
  0
DICTIONARY
  5
17
102
{ACAD_REACTORS
330
C
102
}
330
C
100
AcDbDictionary
281
     1
  3
Standard
350
18
  0
DICTIONARY
  5
19
102
{ACAD_REACTORS
330
C
102
}
330
C
100
AcDbDictionary
281
     1
  0
ACDBDICTIONARYWDFLT
  5
E
102
{ACAD_REACTORS
330
C
102
}
330
C
100
AcDbDictionary
281
     1
  3
Normal
350
F
100
AcDbDictionaryWithDefault
340
F
  0
DICTIONARY
  5
B2
102
{ACAD_REACTORS
330
C
102
}
330
C
100
AcDbDictionary
281
     1
  0
DICTIONARY
  5
2A
102
{ACAD_REACTORS
330
C
102
}
330
C
100
AcDbDictionary
281
     1
  3
2dWireframe
350
2F
  3
3D Hidden
350
31
  3
3dWireframe
350
30
  3
Basic
350
32
  3
Brighten
350
36
  3
ColorChange
350
3A
  3
Conceptual
350
34
  3
Dim
350
35
  3
Facepattern
350
39
  3
Flat
350
2B
  3
FlatWithEdges
350
2C
  3
Gouraud
350
2D
  3
GouraudWithEdges
350
2E
  3
Linepattern
350
38
  3
Realistic
350
33
  3
Thicken
350
37
  0
LAYOUT
  5
1E
102
{ACAD_REACTORS
330
1A
102
}
330
1A
100
AcDbPlotSettings
  1

  2
none_device
  4

  6

 40
0.0
 41
0.0
 42
0.0
 43
0.0
 44
0.0
 45
0.0
 46
0.0
 47
0.0
 48
0.0
 49
0.0
140
0.0
141
0.0
142
1.0
143
1.0
 70
   688
 72
     0
 73
     0
 74
     5
  7

 75
    16
 76
     0
 77
     2
 78
   300
147
1.0
148
0.0
149
0.0
100
AcDbLayout
  1
Layout1
 70
     1
 71
     1
 10
0.0
 20
0.0
 11
12.0
 21
9.0
 12
0.0
 22
0.0
 32
0.0
 14
1.000000000000000E+20
 24
1.000000000000000E+20
 34
1.000000000000000E+20
 15
-1.000000000000000E+20
 25
-1.000000000000000E+20
 35
-1.000000000000000E+20
146
0.0
 13
0.0
 23
0.0
 33
0.0
 16
1.0
 26
0.0
 36
0.0
 17
0.0
 27
1.0
 37
0.0
 76
     0
330
1B
  0
LAYOUT
  5
26
102
{ACAD_REACTORS
330
1A
102
}
330
1A
100
AcDbPlotSettings
  1

  2
none_device
  4

  6

 40
0.0
 41
0.0
 42
0.0
 43
0.0
 44
0.0
 45
0.0
 46
0.0
 47
0.0
 48
0.0
 49
0.0
140
0.0
141
0.0
142
1.0
143
1.0
 70
   688
 72
     0
 73
     0
 74
     5
  7

 75
    16
 76
     0
 77
     2
 78
   300
147
1.0
148
0.0
149
0.0
100
AcDbLayout
  1
Layout2
 70
     1
 71
     2
 10
0.0
 20
0.0
 11
0.0
 21
0.0
 12
0.0
 22
0.0
 32
0.0
 14
0.0
 24
0.0
 34
0.0
 15
0.0
 25
0.0
 35
0.0
146
0.0
 13
0.0
 23
0.0
 33
0.0
 16
1.0
 26
0.0
 36
0.0
 17
0.0
 27
1.0
 37
0.0
 76
     0
330
23
  0
LAYOUT
  5
22
102
{ACAD_REACTORS
330
1A
102
}
330
1A
100
AcDbPlotSettings
  1

  2
none_device
  4

  6

 40
0.0
 41
0.0
 42
0.0
 43
0.0
 44
0.0
 45
0.0
 46
0.0
 47
0.0
 48
0.0
 49
0.0
140
0.0
141
0.0
142
1.0
143
1.0
 70
  1712
 72
     0
 73
     0
 74
     0
  7

 75
     0
 76
     0
 77
     2
 78
   300
147
1.0
148
0.0
149
0.0
100
AcDbLayout
  1
Model
 70
     1
 71
     0
 10
0.0
 20
0.0
 11
12.0
 21
9.0
 12
0.0
 22
0.0
 32
0.0
 14
1.000000000000000E+20
 24
1.000000000000000E+20
 34
1.000000000000000E+20
 15
-1.000000000000000E+20
 25
-1.000000000000000E+20
 35
-1.000000000000000E+20
146
0.0
 13
0.0
 23
0.0
 33
0.0
 16
1.0
 26
0.0
 36
0.0
 17
0.0
 27
1.0
 37
0.0
 76
     0
330
1F
331
29
  0
MATERIAL
  5
3D
102
{ACAD_REACTORS
330
3B
102
}
330
3B
100
AcDbMaterial
  1
ByBlock
 72
     1
 94
      127
  0
MATERIAL
  5
3C
102
{ACAD_REACTORS
330
3B
102
}
330
3B
100
AcDbMaterial
  1
ByLayer
 72
     1
 94
      127
  0
MATERIAL
  5
3E
102
{ACAD_REACTORS
330
3B
102
}
330
3B
100
AcDbMaterial
  1
Global
 72
     1
 94
      127
  0
MLINESTYLE
  5
18
102
{ACAD_REACTORS
330
17
102
}
330
17
100
AcDbMlineStyle
  2
Standard
 70
     0
  3

 62
   256
 51
90.0
 52
90.0
 71
     2
 49
0.5
 62
   256
  6
BYLAYER
 49
-0.5
 62
   256
  6
BYLAYER
  0
ACDBPLACEHOLDER
  5
F
102
{ACAD_REACTORS
330
E
102
}
330
E
  0
VISUALSTYLE
  5
2F
102
{ACAD_REACTORS
330
2A
102
}
330
2A
100
AcDbVisualStyle
  2
2dWireframe
 70
     4
177
     2
291
     0
 71
     0
176
     1
 72
     2
176
     1
 73
     0
176
     1
 90
        0
176
     1
 40
-0.6
176
     1
 41
-30.0
176
     1
 62
     5
 63
     7
421
 16777215
176
     1
 74
     1
176
     1
 91
        4
176
     1
 64
     7
176
     1
 65
   257
176
     1
 75
     1
176
     1
175
     1
176
     1
 42
1.0
176
     1
 92
        0
176
     1
 66
   257
176
     1
 43
1.0
176
     1
 76
     1
176
     1
 77
     6
176
     1
 78
     2
176
     1
 67
     7
176
     1
 79
     5
176
     1
170
     0
176
     1
171
     0
176
     1
290
     0
176
     1
 93
        1
176
     1
 44
0.0
176
     1
173
     0
176
     1
  0
VISUALSTYLE
  5
31
102
{ACAD_REACTORS
330
2A
102
}
330
2A
100
AcDbVisualStyle
  2
3D Hidden
 70
     6
177
     2
291
     0
 71
     1
176
     1
 72
     2
176
     1
 73
     2
176
     1
 90
        0
176
     1
 40
-0.6
176
     1
 41
-30.0
176
     1
 62
     5
 63
     7
421
 16777215
176
     1
 74
     2
176
     1
 91
        2
176
     1
 64
     7
176
     1
 65
   257
176
     1
 75
     2
176
     1
175
     1
176
     1
 42
40.0
176
     1
 92
        0
176
     1
 66
   257
176
     1
 43
1.0
176
     1
 76
     1
176
     1
 77
     6
176
     1
 78
     2
176
     1
 67
     7
176
     1
 79
     3
176
     1
170
     0
176
     1
171
     0
176
     1
290
     0
176
     1
 93
        1
176
     1
 44
0.0
176
     1
173
     0
176
     1
  0
VISUALSTYLE
  5
30
102
{ACAD_REACTORS
330
2A
102
}
330
2A
100
AcDbVisualStyle
  2
3dWireframe
 70
     5
177
     2
291
     0
 71
     0
176
     1
 72
     2
176
     1
 73
     0
176
     1
 90
        0
176
     1
 40
-0.6
176
     1
 41
-30.0
176
     1
 62
     5
 63
     7
421
 16777215
176
     1
 74
     1
176
     1
 91
        4
176
     1
 64
     7
176
     1
 65
   257
176
     1
 75
     1
176
     1
175
     1
176
     1
 42
1.0
176
     1
 92
        0
176
     1
 66
   257
176
     1
 43
1.0
176
     1
 76
     1
176
     1
 77
     6
176
     1
 78
     2
176
     1
 67
     7
176
     1
 79
     5
176
     1
170
     0
176
     1
171
     0
176
     1
290
     0
176
     1
 93
        1
176
     1
 44
0.0
176
     1
173
     0
176
     1
  0
VISUALSTYLE
  5
32
102
{ACAD_REACTORS
330
2A
102
}
330
2A
100
AcDbVisualStyle
  2
Basic
 70
     7
177
     2
291
     1
 71
     1
176
     1
 72
     0
176
     1
 73
     1
176
     1
 90
        0
176
     1
 40
-0.6
176
     1
 41
-30.0
176
     1
 62
     5
 63
     7
421
 16777215
176
     1
 74
     0
176
     1
 91
        4
176
     1
 64
     7
176
     1
 65
   257
176
     1
 75
     1
176
     1
175
     1
176
     1
 42
1.0
176
     1
 92
        8
176
     1
 66
     7
176
     1
 43
1.0
176
     1
 76
     1
176
     1
 77
     6
176
     1
 78
     2
176
     1
 67
     7
176
     1
 79
     5
176
     1
170
     0
176
     1
171
     0
176
     1
290
     0
176
     1
 93
        1
176
     1
 44
0.0
176
     1
173
     0
176
     1
  0
VISUALSTYLE
  5
36
102
{ACAD_REACTORS
330
2A
102
}
330
2A
100
AcDbVisualStyle
  2
Brighten
 70
    12
177
     2
291
     1
 71
     2
176
     1
 72
     2
176
     1
 73
     0
176
     1
 90
        0
176
     1
 40
-0.6
176
     1
 41
-30.0
176
     1
 62
     5
 63
     7
421
 16777215
176
     1
 74
     1
176
     1
 91
        4
176
     1
 64
     7
176
     1
 65
   257
176
     1
 75
     1
176
     1
175
     1
176
     1
 42
1.0
176
     1
 92
        8
176
     1
 66
     7
176
     1
 43
1.0
176
     1
 76
     1
176
     1
 77
     6
176
     1
 78
     2
176
     1
 67
     7
176
     1
 79
     5
176
     1
170
     0
176
     1
171
     0
176
     1
290
     0
176
     1
 93
        1
176
     1
 44
50.0
176
     1
173
     0
176
     1
  0
VISUALSTYLE
  5
3A
102
{ACAD_REACTORS
330
2A
102
}
330
2A
100
AcDbVisualStyle
  2
ColorChange
 70
    16
177
     2
291
     1
 71
     2
176
     1
 72
     2
176
     1
 73
     3
176
     1
 90
        0
176
     1
 40
-0.6
176
     1
 41
-30.0
176
     1
 62
     5
 63
     8
421
  8421504
176
     1
 74
     1
176
     1
 91
        4
176
     1
 64
     7
176
     1
 65
   257
176
     1
 75
     1
176
     1
175
     1
176
     1
 42
1.0
176
     1
 92
        8
176
     1
 66
     8
424
  8421504
176
     1
 43
1.0
176
     1
 76
     1
176
     1
 77
     6
176
     1
 78
     2
176
     1
 67
     7
176
     1
 79
     5
176
     1
170
     0
176
     1
171
     0
176
     1
290
     0
176
     1
 93
        1
176
     1
 44
0.0
176
     1
173
     0
176
     1
  0
VISUALSTYLE
  5
34
102
{ACAD_REACTORS
330
2A
102
}
330
2A
100
AcDbVisualStyle
  2
Conceptual
 70
     9
177
     2
291
     0
 71
     3
176
     1
 72
     2
176
     1
 73
     0
176
     1
 90
        0
176
     1
 40
-0.6
176
     1
 41
-30.0
176
     1
 62
     5
 63
     7
421
 16777215
176
     1
 74
     2
176
     1
 91
        2
176
     1
 64
     7
176
     1
 65
   257
176
     1
 75
     1
176
     1
175
     1
176
     1
 42
40.0
176
     1
 92
        8
176
     1
 66
     7
176
     1
 43
1.0
176
     1
 76
     1
176
     1
 77
     6
176
     1
 78
     2
176
     1
 67
     7
176
     1
 79
     3
176
     1
170
     0
176
     1
171
     0
176
     1
290
     0
176
     1
 93
        1
176
     1
 44
0.0
176
     1
173
     0
176
     1
  0
VISUALSTYLE
  5
35
102
{ACAD_REACTORS
330
2A
102
}
330
2A
100
AcDbVisualStyle
  2
Dim
 70
    11
177
     2
291
     1
 71
     2
176
     1
 72
     2
176
     1
 73
     0
176
     1
 90
        0
176
     1
 40
-0.6
176
     1
 41
-30.0
176
     1
 62
     5
 63
     7
421
 16777215
176
     1
 74
     1
176
     1
 91
        4
176
     1
 64
     7
176
     1
 65
   257
176
     1
 75
     1
176
     1
175
     1
176
     1
 42
1.0
176
     1
 92
        8
176
     1
 66
     7
176
     1
 43
1.0
176
     1
 76
     1
176
     1
 77
     6
176
     1
 78
     2
176
     1
 67
     7
176
     1
 79
     5
176
     1
170
     0
176
     1
171
     0
176
     1
290
     0
176
     1
 93
        1
176
     1
 44
-50.0
176
     1
173
     0
176
     1
  0
VISUALSTYLE
  5
39
102
{ACAD_REACTORS
330
2A
102
}
330
2A
100
AcDbVisualStyle
  2
Facepattern
 70
    15
177
     2
291
     1
 71
     2
176
     1
 72
     2
176
     1
 73
     0
176
     1
 90
        0
176
     1
 40
-0.6
176
     1
 41
-30.0
176
     1
 62
     5
 63
     7
421
 16777215
176
     1
 74
     1
176
     1
 91
        4
176
     1
 64
     7
176
     1
 65
   257
176
     1
 75
     1
176
     1
175
     1
176
     1
 42
1.0
176
     1
 92
        8
176
     1
 66
     7
176
     1
 43
1.0
176
     1
 76
     1
176
     1
 77
     6
176
     1
 78
     2
176
     1
 67
     7
176
     1
 79
     5
176
     1
170
     0
176
     1
171
     0
176
     1
290
     0
176
     1
 93
        1
176
     1
 44
0.0
176
     1
173
     0
176
     1
  0
VISUALSTYLE
  5
2B
102
{ACAD_REACTORS
330
2A
102
}
330
2A
100
AcDbVisualStyle
  2
Flat
 70
     0
177
     2
291
     1
 71
     2
176
     1
 72
     1
176
     1
 73
     1
176
     1
 90
        2
176
     1
 40
-0.6
176
     1
 41
30.0
176
     1
 62
     5
 63
     7
421
 16777215
176
     1
 74
     0
176
     1
 91
        4
176
     1
 64
     7
176
     1
 65
   257
176
     1
 75
     1
176
     1
175
     1
176
     1
 42
1.0
176
     1
 92
        8
176
     1
 66
     7
176
     1
 43
1.0
176
     1
 76
     1
176
     1
 77
     6
176
     1
 78
     2
176
     1
 67
     7
176
     1
 79
     5
176
     1
170
     0
176
     1
171
     0
176
     1
290
     0
176
     1
 93
       13
176
     1
 44
0.0
176
     1
173
     0
176
     1
  0
VISUALSTYLE
  5
2C
102
{ACAD_REACTORS
330
2A
102
}
330
2A
100
AcDbVisualStyle
  2
FlatWithEdges
 70
     1
177
     2
291
     1
 71
     2
176
     1
 72
     1
176
     1
 73
     1
176
     1
 90
        2
176
     1
 40
-0.6
176
     1
 41
30.0
176
     1
 62
     5
 63
     7
421
 16777215
176
     1
 74
     1
176
     1
 91
        4
176
     1
 64
     7
176
     1
 65
   257
176
     1
 75
     1
176
     1
175
     1
176
     1
 42
1.0
176
     1
 92
        0
176
     1
 66
   257
176
     1
 43
1.0
176
     1
 76
     1
176
     1
 77
     6
176
     1
 78
     2
176
     1
 67
     7
176
     1
 79
     5
176
     1
170
     0
176
     1
171
     0
176
     1
290
     0
176
     1
 93
       13
176
     1
 44
0.0
176
     1
173
     0
176
     1
  0
VISUALSTYLE
  5
2D
102
{ACAD_REACTORS
330
2A
102
}
330
2A
100
AcDbVisualStyle
  2
Gouraud
 70
     2
177
     2
291
     1
 71
     2
176
     1
 72
     2
176
     1
 73
     1
176
     1
 90
        2
176
     1
 40
-0.6
176
     1
 41
30.0
176
     1
 62
     5
 63
     7
421
 16777215
176
     1
 74
     0
176
     1
 91
        4
176
     1
 64
     7
176
     1
 65
   257
176
     1
 75
     1
176
     1
175
     1
176
     1
 42
1.0
176
     1
 92
        0
176
     1
 66
     7
176
     1
 43
1.0
176
     1
 76
     1
176
     1
 77
     6
176
     1
 78
     2
176
     1
 67
     7
176
     1
 79
     5
176
     1
170
     0
176
     1
171
     0
176
     1
290
     0
176
     1
 93
       13
176
     1
 44
0.0
176
     1
173
     0
176
     1
  0
VISUALSTYLE
  5
2E
102
{ACAD_REACTORS
330
2A
102
}
330
2A
100
AcDbVisualStyle
  2
GouraudWithEdges
 70
     3
177
     2
291
     1
 71
     2
176
     1
 72
     2
176
     1
 73
     1
176
     1
 90
        2
176
     1
 40
-0.6
176
     1
 41
30.0
176
     1
 62
     5
 63
     7
421
 16777215
176
     1
 74
     1
176
     1
 91
        4
176
     1
 64
     7
176
     1
 65
   257
176
     1
 75
     1
176
     1
175
     1
176
     1
 42
1.0
176
     1
 92
        0
176
     1
 66
   257
176
     1
 43
1.0
176
     1
 76
     1
176
     1
 77
     6
176
     1
 78
     2
176
     1
 67
     7
176
     1
 79
     5
176
     1
170
     0
176
     1
171
     0
176
     1
290
     0
176
     1
 93
       13
176
     1
 44
0.0
176
     1
173
     0
176
     1
  0
VISUALSTYLE
  5
38
102
{ACAD_REACTORS
330
2A
102
}
330
2A
100
AcDbVisualStyle
  2
Linepattern
 70
    14
177
     2
291
     1
 71
     2
176
     1
 72
     2
176
     1
 73
     0
176
     1
 90
        0
176
     1
 40
-0.6
176
     1
 41
-30.0
176
     1
 62
     5
 63
     7
421
 16777215
176
     1
 74
     1
176
     1
 91
        4
176
     1
 64
     7
176
     1
 65
   257
176
     1
 75
     7
176
     1
175
     7
176
     1
 42
1.0
176
     1
 92
        8
176
     1
 66
     7
176
     1
 43
1.0
176
     1
 76
     1
176
     1
 77
     6
176
     1
 78
     2
176
     1
 67
     7
176
     1
 79
     5
176
     1
170
     0
176
     1
171
     0
176
     1
290
     0
176
     1
 93
        1
176
     1
 44
0.0
176
     1
173
     0
176
     1
  0
VISUALSTYLE
  5
33
102
{ACAD_REACTORS
330
2A
102
}
330
2A
100
AcDbVisualStyle
  2
Realistic
 70
     8
177
     2
291
     0
 71
     2
176
     1
 72
     2
176
     1
 73
     0
176
     1
 90
        0
176
     1
 40
-0.6
176
     1
 41
-30.0
176
     1
 62
     5
 63
     7
421
 16777215
176
     1
 74
     1
176
     1
 91
        0
176
     1
 64
     7
176
     1
 65
   257
176
     1
 75
     1
176
     1
175
     1
176
     1
 42
1.0
176
     1
 92
        8
176
     1
 66
     8
424
  7895160
176
     1
 43
1.0
176
     1
 76
     1
176
     1
 77
     6
176
     1
 78
     2
176
     1
 67
     7
176
     1
 79
     5
176
     1
170
     0
176
     1
171
     0
176
     1
290
     0
176
     1
 93
       13
176
     1
 44
0.0
176
     1
173
     0
176
     1
  0
VISUALSTYLE
  5
37
102
{ACAD_REACTORS
330
2A
102
}
330
2A
100
AcDbVisualStyle
  2
Thicken
 70
    13
177
     2
291
     1
 71
     2
176
     1
 72
     2
176
     1
 73
     0
176
     1
 90
        0
176
     1
 40
-0.6
176
     1
 41
-30.0
176
     1
 62
     5
 63
     7
421
 16777215
176
     1
 74
     1
176
     1
 91
        4
176
     1
 64
     7
176
     1
 65
   257
176
     1
 75
     1
176
     1
175
     1
176
     1
 42
1.0
176
     1
 92
       12
176
     1
 66
     7
176
     1
 43
1.0
176
     1
 76
     1
176
     1
 77
     6
176
     1
 78
     2
176
     1
 67
     7
176
     1
 79
     5
176
     1
170
     0
176
     1
171
     0
176
     1
290
     0
176
     1
 93
        1
176
     1
 44
0.0
176
     1
173
     0
176
     1
  0
ENDSEC
  0
EOF
