  0
SECTION
  2
HEADER
  9
$ACADVER
  1
AC1024
  9
$ACADMAINTVER
 70
     6
  9
$DWGCODEPAGE
  3
UNDEFINED
  9
$INSBASE
 10
0.0
 20
0.0
 30
0.0
  9
$EXTMIN
 10
1.000000000000000E+20
 20
1.000000000000000E+20
 30
1.000000000000000E+20
  9
$EXTMAX
 10
-1.000000000000000E+20
 20
-1.000000000000000E+20
 30
-1.000000000000000E+20
  9
$LIMMIN
 10
0.0
 20
0.0
  9
$LIMMAX
 10
12.0
 20
9.0
  9
$ORTHOMODE
 70
     0
  9
$REGENMODE
 70
     1
  9
$FILLMODE
 70
     1
  9
$QTEXTMODE
 70
     0
  9
$MIRRTEXT
 70
     1
  9
$LTSCALE
 40
1.0
  9
$ATTMODE
 70
     1
  9
$TEXTSIZE
 40
0.2
  9
$TRACEWID
 40
0.05
  9
$TEXTSTYLE
  7
Standard
  9
$CLAYER
  8
0
  9
$CELTYPE
  6
ByLayer
  9
$CECOLOR
 62
   256
  9
$CELTSCALE
 40
1.0
  9
$DISPSILH
 70
     0
  9
$DIMSCALE
 40
1.0
  9
$DIMASZ
 40
0.18
  9
$DIMEXO
 40
0.0625
  9
$DIMDLI
 40
0.38
  9
$DIMRND
 40
0.0
  9
$DIMDLE
 40
0.0
  9
$DIMEXE
 40
0.18
  9
$DIMTP
 40
0.0
  9
$DIMTM
 40
0.0
  9
$DIMTXT
 40
0.18
  9
$DIMCEN
 40
0.09
  9
$DIMTSZ
 40
0.0
  9
$DIMTOL
 70
     0
  9
$DIMLIM
 70
     0
  9
$DIMTIH
 70
     1
  9
$DIMTOH
 70
     1
  9
$DIMSE1
 70
     0
  9
$DIMSE2
 70
     0
  9
$DIMTAD
 70
     0
  9
$DIMZIN
 70
     0
  9
$DIMBLK
  1

  9
$DIMASO
 70
     1
  9
$DIMSHO
 70
     1
  9
$DIMPOST
  1

  9
$DIMAPOST
  1

  9
$DIMALT
 70
     0
  9
$DIMALTD
 70
     2
  9
$DIMALTF
 40
25.4
  9
$DIMLFAC
 40
1.0
  9
$DIMTOFL
 70
     0
  9
$DIMTVP
 40
0.0
  9
$DIMTIX
 70
     0
  9
$DIMSOXD
 70
     0
  9
$DIMSAH
 70
     0
  9
$DIMBLK1
  1

  9
$DIMBLK2
  1

  9
$DIMSTYLE
  2
Standard
  9
$DIMCLRD
 70
     0
  9
$DIMCLRE
 70
     0
  9
$DIMCLRT
 70
     0
  9
$DIMTFAC
 40
1.0
  9
$DIMGAP
 40
0.09
  9
$DIMJUST
 70
     0
  9
$DIMSD1
 70
     0
  9
$DIMSD2
 70
     0
  9
$DIMTOLJ
 70
     1
  9
$DIMTZIN
 70
     0
  9
$DIMALTZ
 70
     0
  9
$DIMALTTZ
 70
     0
  9
$DIMUPT
 70
     0
  9
$DIMDEC
 70
     4
  9
$DIMTDEC
 70
     4
  9
$DIMALTU
 70
     2
  9
$DIMALTTD
 70
     2
  9
$DIMTXSTY
  7
Standard
  9
$DIMAUNIT
 70
     0
  9
$DIMADEC
 70
     0
  9
$DIMALTRND
 40
0.0
  9
$DIMAZIN
 70
     0
  9
$DIMDSEP
 70
    46
  9
$DIMATFIT
 70
     3
  9
$DIMFRAC
 70
     0
  9
$DIMLDRBLK
  1

  9
$DIMLUNIT
 70
     2
  9
$DIMLWD
 70
    -2
  9
$DIMLWE
 70
    -2
  9
$DIMTMOVE
 70
     0
  9
$DIMFXL
 40
1.0
  9
$DIMFXLON
 70
     0
  9
$DIMJOGANG
 40
0.7853981633974483
  9
$DIMTFILL
 70
     0
  9
$DIMTFILLCLR
 70
     0
  9
$DIMARCSYM
 70
     0
  9
$DIMLTYPE
  6

  9
$DIMLTEX1
  6

  9
$DIMLTEX2
  6

  9
$DIMTXTDIRECTION
 70
     0
  9
$LUNITS
 70
     2
  9
$LUPREC
 70
     4
  9
$SKETCHINC
 40
0.1
  9
$FILLETRAD
 40
0.5
  9
$AUNITS
 70
     0
  9
$AUPREC
 70
     0
  9
$MENU
  1
.
  9
$ELEVATION
 40
0.0
  9
$PELEVATION
 40
0.0
  9
$THICKNESS
 40
0.0
  9
$LIMCHECK
 70
     0
  9
$CHAMFERA
 40
0.5
  9
$CHAMFERB
 40
0.5
  9
$CHAMFERC
 40
1.0
  9
$CHAMFERD
 40
0.0
  9
$SKPOLY
 70
     0
  9
$TDCREATE
 40
2457917.584837951
  9
$TDUCREATE
 40
2457917.209837963
  9
$TDUPDATE
 40
2457917.584837951
  9
$TDUUPDATE
 40
2457917.209837963
  9
$TDINDWG
 40
0.0000000116
  9
$TDUSRTIMER
 40
0.0000000116
  9
$USRTIMER
 70
     1
  9
$ANGBASE
 50
0.0
  9
$ANGDIR
 70
     0
  9
$PDMODE
 70
     0
  9
$PDSIZE
 40
0.0
  9
$PLINEWID
 40
0.0
  9
$SPLFRAME
 70
     0
  9
$SPLINETYPE
 70
     6
  9
$SPLINESEGS
 70
     8
  9
$HANDSEED
  5
B5
  9
$SURFTAB1
 70
     6
  9
$SURFTAB2
 70
     6
  9
$SURFTYPE
 70
     6
  9
$SURFU
 70
     6
  9
$SURFV
 70
     6
  9
$UCSBASE
  2

  9
$UCSNAME
  2

  9
$UCSORG
 10
0.0
 20
0.0
 30
0.0
  9
$UCSXDIR
 10
1.0
 20
0.0
 30
0.0
  9
$UCSYDIR
 10
0.0
 20
1.0
 30
0.0
  9
$UCSORTHOREF
  2

  9
$UCSORTHOVIEW
 70
     0
  9
$UCSORGTOP
 10
0.0
 20
0.0
 30
0.0
  9
$UCSORGBOTTOM
 10
0.0
 20
0.0
 30
0.0
  9
$UCSORGLEFT
 10
0.0
 20
0.0
 30
0.0
  9
$UCSORGRIGHT
 10
0.0
 20
0.0
 30
0.0
  9
$UCSORGFRONT
 10
0.0
 20
0.0
 30
0.0
  9
$UCSORGBACK
 10
0.0
 20
0.0
 30
0.0
  9
$PUCSBASE
  2

  9
$PUCSNAME
  2

  9
$PUCSORG
 10
0.0
 20
0.0
 30
0.0
  9
$PUCSXDIR
 10
1.0
 20
0.0
 30
0.0
  9
$PUCSYDIR
 10
0.0
 20
1.0
 30
0.0
  9
$PUCSORTHOREF
  2

  9
$PUCSORTHOVIEW
 70
     0
  9
$PUCSORGTOP
 10
0.0
 20
0.0
 30
0.0
  9
$PUCSORGBOTTOM
 10
0.0
 20
0.0
 30
0.0
  9
$PUCSORGLEFT
 10
0.0
 20
0.0
 30
0.0
  9
$PUCSORGRIGHT
 10
0.0
 20
0.0
 30
0.0
  9
$PUCSORGFRONT
 10
0.0
 20
0.0
 30
0.0
  9
$PUCSORGBACK
 10
0.0
 20
0.0
 30
0.0
  9
$USERI1
 70
     0
  9
$USERI2
 70
     0
  9
$USERI3
 70
     0
  9
$USERI4
 70
     0
  9
$USERI5
 70
     0
  9
$USERR1
 40
0.0
  9
$USERR2
 40
0.0
  9
$USERR3
 40
0.0
  9
$USERR4
 40
0.0
  9
$USERR5
 40
0.0
  9
$WORLDVIEW
 70
     1
  9
$SHADEDGE
 70
     3
  9
$SHADEDIF
 70
    70
  9
$TILEMODE
 70
     1
  9
$MAXACTVP
 70
    64
  9
$PINSBASE
 10
0.0
 20
0.0
 30
0.0
  9
$PLIMCHECK
 70
     0
  9
$PEXTMIN
 10
1.000000000000000E+20
 20
1.000000000000000E+20
 30
1.000000000000000E+20
  9
$PEXTMAX
 10
-1.000000000000000E+20
 20
-1.000000000000000E+20
 30
-1.000000000000000E+20
  9
$PLIMMIN
 10
0.0
 20
0.0
  9
$PLIMMAX
 10
12.0
 20
9.0
  9
$UNITMODE
 70
     0
  9
$VISRETAIN
 70
     1
  9
$PLINEGEN
 70
     0
  9
$PSLTSCALE
 70
     1
  9
$TREEDEPTH
 70
  3020
  9
$CMLSTYLE
  2
Standard
  9
$CMLJUST
 70
     0
  9
$CMLSCALE
 40
1.0
  9
$PROXYGRAPHICS
 70
     1
  9
$MEASUREMENT
 70
     0
  9
$CELWEIGHT
370
    -1
  9
$ENDCAPS
280
     0
  9
$JOINSTYLE
280
     0
  9
$LWDISPLAY
290
     1
  9
$INSUNITS
 70
     1
  9
$HYPERLINKBASE
  1

  9
$STYLESHEET
  1

  9
$XEDIT
290
     1
  9
$CEPSNTYPE
380
     0
  9
$PSTYLEMODE
290
     1
  9
$FINGERPRINTGUID
  2
{81A5D3C5-8DC1-50B4-0CAD-093F3F8B0337}
  9
$VERSIONGUID
  2
{FAEB1C32-E019-11D5-929B-00C0DF256EC4}
  9
$EXTNAMES
290
     1
  9
$PSVPSCALE
 40
0.0
  9
$OLESTARTUP
290
     0
  9
$SORTENTS
280
   127
  9
$INDEXCTL
280
     0
  9
$HIDETEXT
280
     1
  9
$XCLIPFRAME
280
     2
  9
$HALOGAP
280
     0
  9
$OBSCOLOR
 70
   257
  9
$OBSLTYPE
280
     0
  9
$INTERSECTIONDISPLAY
280
     0
  9
$INTERSECTIONCOLOR
 70
   257
  9
$DIMASSOC
280
     2
  9
$PROJECTNAME
  1

  9
$CAMERADISPLAY
290
     0
  9
$LENSLENGTH
 40
50.0
  9
$CAMERAHEIGHT
 40
0.0
  9
$STEPSPERSEC
 40
2.0
  9
$STEPSIZE
 40
6.0
  9
$3DDWFPREC
 40
2.0
  9
$PSOLWIDTH
 40
0.25
  9
$PSOLHEIGHT
 40
4.0
  9
$LOFTANG1
 40
1.570796326794897
  9
$LOFTANG2
 40
1.570796326794897
  9
$LOFTMAG1
 40
0.0
  9
$LOFTMAG2
 40
0.0
  9
$LOFTPARAM
 70
     7
  9
$LOFTNORMALS
280
     1
  9
$LATITUDE
 40
37.795
  9
$LONGITUDE
 40
-122.394
  9
$NORTHDIRECTION
 40
0.0
  9
$TIMEZONE
 70
 -8000
  9
$LIGHTGLYPHDISPLAY
280
     1
  9
$TILEMODELIGHTSYNCH
280
     1
  9
$CMATERIAL
347
3C
  9
$SOLIDHIST
280
     1
  9
$SHOWHIST
280
     1
  9
$DWFFRAME
280
     2
  9
$DGNFRAME
280
     2
  9
$REALWORLDSCALE
290
     1
  9
$INTERFERECOLOR
 62
   256
  9
$CSHADOW
280
     0
  9
$SHADOWPLANELOCATION
 40
0.0
  0
ENDSEC
  0
SECTION
  2
CLASSES
  0
CLASS
  1
ACDBDICTIONARYWDFLT
  2
AcDbDictionaryWithDefault
  3
ObjectDBX Classes
 90
        0
 91
        4
280
     0
281
     0
  0
CLASS
  1
VISUALSTYLE
  2
AcDbVisualStyle
  3
ObjectDBX Classes
 90
     4095
 91
        4
280
     0
281
     0
  0
CLASS
  1
MATERIAL
  2
AcDbMaterial
  3
ObjectDBX Classes
 90
     1153
 91
        4
280
     0
281
     0
  0
CLASS
  1
SUN
  2
AcDbSun
  3
SCENEOE
 90
     1024
 91
        4
280
     0
281
     0
  0
ENDSEC
  0
SECTION
  2
TABLES
  0
TABLE
  2
VPORT
  5
8
330
0
100
AcDbSymbolTable
 70
     1
  0
VPORT
  5
29
330
8
100
AcDbSymbolTableRecord
100
AcDbViewportTableRecord
  2
*Active
 70
     0
 10
0.0
 20
0.0
 11
1.0
 21
1.0
 12
0.0
 22
0.0
 13
0.0
 23
0.0
 14
0.5
 24
0.5
 15
0.5
 25
0.5
 16
0.0
 26
0.0
 36
1.0
 17
91.00082462281999
 27
-128.4993055234307
 37
0.0
 40
256.9986110468615
 41
0.7081814508812795
 42
50.0
 43
0.0
 44
0.0
 50
0.0
 51
0.0
 71
     0
 72
   100
 73
     1
 74
     3
 75
     0
 76
     0
 77
     0
 78
     0
281
     0
 65
     1
110
0.0
120
0.0
130
0.0
111
1.0
121
0.0
131
0.0
112
0.0
122
1.0
132
0.0
 79
     0
146
0.0
 60
     3
 61
     5
292
     1
282
     1
141
0.0
142
0.0
 63
   250
361
3F
  0
ENDTAB
  0
TABLE
  2
LTYPE
  5
5
330
0
100
AcDbSymbolTable
 70
     1
  0
LTYPE
  5
14
330
5
100
AcDbSymbolTableRecord
100
AcDbLinetypeTableRecord
  2
ByBlock
 70
     0
  3

 72
    65
 73
     0
 40
0.0
  0
LTYPE
  5
15
330
5
100
AcDbSymbolTableRecord
100
AcDbLinetypeTableRecord
  2
ByLayer
 70
     0
  3

 72
    65
 73
     0
 40
0.0
  0
LTYPE
  5
16
330
5
100
AcDbSymbolTableRecord
100
AcDbLinetypeTableRecord
  2
Continuous
 70
     0
  3
Solid line
 72
    65
 73
     0
 40
0.0
  0
ENDTAB
  0
TABLE
  2
LAYER
  5
2
330
0
100
AcDbSymbolTable
 70
     2
  0
LAYER
  5
10
330
2
100
AcDbSymbolTableRecord
100
AcDbLayerTableRecord
  2
0
 70
     0
 62
     7
  6
Continuous
370
    -3
390
F
347
3E
  0
LAYER
  5
40
330
2
100
AcDbSymbolTableRecord
100
AcDbLayerTableRecord
  2
_U+30EC_U+30A4_U+30E4_U+30FC 1
 70
     0
 62
     7
  6
Continuous
370
    -3
390
F
347
3E
  0
ENDTAB
  0
TABLE
  2
STYLE
  5
3
330
0
100
AcDbSymbolTable
 70
     1
  0
STYLE
  5
11
330
3
100
AcDbSymbolTableRecord
100
AcDbTextStyleTableRecord
  2
Standard
 70
     0
 40
0.0
 41
1.0
 50
0.0
 71
     0
 42
0.2
  3
txt
  4

  0
ENDTAB
  0
TABLE
  2
VIEW
  5
6
330
0
100
AcDbSymbolTable
 70
     0
  0
ENDTAB
  0
TABLE
  2
UCS
  5
7
330
0
100
AcDbSymbolTable
 70
     0
  0
ENDTAB
  0
TABLE
  2
APPID
  5
9
330
0
100
AcDbSymbolTable
 70
     1
  0
APPID
  5
12
330
9
100
AcDbSymbolTableRecord
100
AcDbRegAppTableRecord
  2
ACAD
 70
     0
  0
ENDTAB
  0
TABLE
  2
DIMSTYLE
  5
A
330
0
100
AcDbSymbolTable
 70
     1
100
AcDbDimStyleTable
  0
DIMSTYLE
105
27
330
A
100
AcDbSymbolTableRecord
100
AcDbDimStyleTableRecord
  2
Standard
 70
     0
178
     0
340
11
  0
ENDTAB
  0
TABLE
  2
BLOCK_RECORD
  5
1
330
0
100
AcDbSymbolTable
 70
     4
  0
BLOCK_RECORD
  5
1F
330
1
100
AcDbSymbolTableRecord
100
AcDbBlockTableRecord
  2
*Model_Space
340
22
 70
     0
280
     1
281
     0
  0
BLOCK_RECORD
  5
1B
330
1
100
AcDbSymbolTableRecord
100
AcDbBlockTableRecord
  2
*Paper_Space
340
1E
 70
     0
280
     1
281
     0
  0
BLOCK_RECORD
  5
23
330
1
100
AcDbSymbolTableRecord
100
AcDbBlockTableRecord
  2
*Paper_Space0
340
26
 70
     0
280
     1
281
     0
  0
BLOCK_RECORD
  5
4B
330
1
100
AcDbSymbolTableRecord
100
AcDbBlockTableRecord
  2
block 2
340
0
102
{BLKREFS
331
4C
102
}
 70
     0
280
     1
281
     0
  0
BLOCK_RECORD
  5
5C
330
1
100
AcDbSymbolTableRecord
100
AcDbBlockTableRecord
  2
block 3
340
0
102
{BLKREFS
331
5D
102
}
 70
     0
280
     1
281
     0
  0
BLOCK_RECORD
  5
75
330
1
100
AcDbSymbolTableRecord
100
AcDbBlockTableRecord
  2
block 4
340
0
102
{BLKREFS
331
76
102
}
 70
     0
280
     1
281
     0
  0
ENDTAB
  0
ENDSEC
  0
SECTION
  2
BLOCKS
  0
BLOCK
  5
20
330
1F
100
AcDbEntity
  8
0
100
AcDbBlockBegin
  2
*Model_Space
 70
     0
 10
0.0
 20
0.0
 30
0.0
  3
*Model_Space
  1

  0
ENDBLK
  5
21
330
1F
100
AcDbEntity
  8
0
100
AcDbBlockEnd
  0
BLOCK
  5
1C
330
1B
100
AcDbEntity
 67
     1
  8
0
100
AcDbBlockBegin
  2
*Paper_Space
 70
     0
 10
0.0
 20
0.0
 30
0.0
  3
*Paper_Space
  1

  0
ENDBLK
  5
1D
330
1B
100
AcDbEntity
 67
     1
  8
0
100
AcDbBlockEnd
  0
BLOCK
  5
24
330
23
100
AcDbEntity
  8
0
100
AcDbBlockBegin
  2
*Paper_Space0
 70
     0
 10
0.0
 20
0.0
 30
0.0
  3
*Paper_Space0
  1

  0
ENDBLK
  5
25
330
23
100
AcDbEntity
  8
0
100
AcDbBlockEnd
  0
BLOCK
  5
4D
330
4B
100
AcDbEntity
  8
0
100
AcDbBlockBegin
  2
block 2
 70
     0
 10
0.0
 20
0.0
 30
0.0
  3
block 2
  1

  0
SPLINE
  5
4F
330
4B
100
AcDbEntity
  8
_U+30EC_U+30A4_U+30E4_U+30FC 1
370
     0
100
AcDbSpline
210
0.0
220
0.0
230
1.0
 70
    11
 71
     3
 72
    26
 73
    22
 74
     0
 42
0.0000000001
 43
0.0000000001
 12
1.0
 22
0.0
 32
0.0
 13
1.0
 23
0.0
 33
0.0
 40
0.0
 40
0.0
 40
0.0
 40
0.0
 40
1.0
 40
1.0
 40
1.0
 40
2.0
 40
2.0
 40
2.0
 40
3.0
 40
3.0
 40
3.0
 40
4.0
 40
4.0
 40
4.0
 40
5.0
 40
5.0
 40
5.0
 40
6.0
 40
6.0
 40
6.0
 40
7.0
 40
7.0
 40
7.0
 40
7.0
 10
110.4187553977425
 20
-146.0878960138253
 30
0.0
 10
110.4187553977425
 20
-146.0878960138253
 30
0.0
 10
109.3142577851714
 20
-146.0878960138253
 30
0.0
 10
109.3142577851714
 20
-146.0878960138253
 30
0.0
 10
109.3142577851714
 20
-146.0878960138253
 30
0.0
 10
109.3142577851714
 20
-146.4179361613122
 30
0.0
 10
109.3142577851714
 20
-146.4179361613122
 30
0.0
 10
109.3142577851714
 20
-146.4179361613122
 30
0.0
 10
109.1661186793057
 20
-146.4179361613122
 30
0.0
 10
109.1661186793057
 20
-146.4179361613122
 30
0.0
 10
109.1516492782677
 20
-146.0858289565341
 30
0.0
 10
108.9886962618153
 20
-146.0393201674832
 30
0.0
 10
108.8746636012536
 20
-146.0096923463101
 30
0.0
 10
108.8746636012536
 20
-146.0096923463101
 30
0.0
 10
108.8746636012536
 20
-145.8636202977355
 30
0.0
 10
108.8746636012536
 20
-145.8636202977355
 30
0.0
 10
108.8746636012536
 20
-145.8636202977355
 30
0.0
 10
110.4187553977425
 20
-145.8636202977355
 30
0.0
 10
110.4187553977425
 20
-145.8636202977355
 30
0.0
 10
110.4187553977425
 20
-145.8636202977355
 30
0.0
 10
110.4187553977425
 20
-146.0878960138253
 30
0.0
 10
110.4187553977425
 20
-146.0878960138253
 30
0.0
  0
HATCH
  5
50
330
4B
100
AcDbEntity
  8
_U+30EC_U+30A4_U+30E4_U+30FC 1
 62
   179
420
  2234388
100
AcDbHatch
 10
0.0
 20
0.0
 30
0.0
210
0.0
220
0.0
230
1.0
  2
SOLID
 70
     1
 71
     0
 91
        1
 92
        1
 93
        1
 72
     4
 94
        3
 73
     0
 74
     1
 95
       26
 96
       22
 40
0.0
 40
0.0
 40
0.0
 40
0.0
 40
1.0
 40
1.0
 40
1.0
 40
2.0
 40
2.0
 40
2.0
 40
3.0
 40
3.0
 40
3.0
 40
4.0
 40
4.0
 40
4.0
 40
5.0
 40
5.0
 40
5.0
 40
6.0
 40
6.0
 40
6.0
 40
7.0
 40
7.0
 40
7.0
 40
7.0
 10
110.4187553977425
 20
-146.0878960138253
 10
110.4187553977425
 20
-146.0878960138253
 10
109.3142577851714
 20
-146.0878960138253
 10
109.3142577851714
 20
-146.0878960138253
 10
109.3142577851714
 20
-146.0878960138253
 10
109.3142577851714
 20
-146.4179361613122
 10
109.3142577851714
 20
-146.4179361613122
 10
109.3142577851714
 20
-146.4179361613122
 10
109.1661186793057
 20
-146.4179361613122
 10
109.1661186793057
 20
-146.4179361613122
 10
109.1516492782677
 20
-146.0858289565341
 10
108.9886962618153
 20
-146.0393201674832
 10
108.8746636012536
 20
-146.0096923463101
 10
108.8746636012536
 20
-146.0096923463101
 10
108.8746636012536
 20
-145.8636202977355
 10
108.8746636012536
 20
-145.8636202977355
 10
108.8746636012536
 20
-145.8636202977355
 10
110.4187553977425
 20
-145.8636202977355
 10
110.4187553977425
 20
-145.8636202977355
 10
110.4187553977425
 20
-145.8636202977355
 10
110.4187553977425
 20
-146.0878960138253
 10
110.4187553977425
 20
-146.0878960138253
 97
        0
 97
        0
 75
     2
 76
     1
 98
        0
  0
SPLINE
  5
51
330
4B
100
AcDbEntity
  8
_U+30EC_U+30A4_U+30E4_U+30FC 1
370
     0
100
AcDbSpline
210
0.0
220
0.0
230
1.0
 70
    11
 71
     3
 72
    29
 73
    25
 74
     0
 42
0.0000000001
 43
0.0000000001
 12
1.0
 22
0.0
 32
0.0
 13
1.0
 23
0.0
 33
0.0
 40
0.0
 40
0.0
 40
0.0
 40
0.0
 40
1.0
 40
1.0
 40
1.0
 40
2.0
 40
2.0
 40
2.0
 40
3.0
 40
3.0
 40
3.0
 40
4.0
 40
4.0
 40
4.0
 40
5.0
 40
5.0
 40
5.0
 40
6.0
 40
6.0
 40
6.0
 40
7.0
 40
7.0
 40
7.0
 40
8.0
 40
8.0
 40
8.0
 40
8.0
 10
110.2409884707036
 20
-144.4645670211755
 30
0.0
 10
110.4504502762068
 20
-144.5727430194124
 30
0.0
 10
110.4697428109242
 20
-144.7460313223204
 30
0.0
 10
110.4697428109242
 20
-144.8624755497219
 30
0.0
 10
110.4697428109242
 20
-145.0233615088831
 30
0.0
 10
110.4228895123248
 20
-145.1649549333268
 30
0.0
 10
110.2409884707036
 20
-145.2600395687197
 30
0.0
 10
110.0466850853356
 20
-145.3637369428257
 30
0.0
 10
109.8096625159504
 20
-145.3830294775431
 30
0.0
 10
109.6463649899495
 20
-145.3830294775431
 30
0.0
 10
109.5027045082146
 20
-145.3830294775431
 30
0.0
 10
109.2508680282428
 20
-145.3658040001169
 30
0.0
 10
109.0520860187439
 20
-145.2600395687197
 30
0.0
 10
108.8491698946627
 20
-145.1522080800314
 30
0.0
 10
108.825743245363
 20
-144.9913221208702
 30
0.0
 10
108.825743245363
 20
-144.8624755497219
 30
0.0
 10
108.825743245363
 20
-144.7036566478519
 30
0.0
 10
108.8701849771227
 20
-144.5599961661169
 30
0.0
 10
109.0520860187439
 20
-144.4645670211755
 30
0.0
 10
109.2446668563694
 20
-144.3653482712003
 30
0.0
 10
109.4730766870415
 20
-144.3419216219006
 30
0.0
 10
109.6463649899495
 20
-144.3419216219006
 30
0.0
 10
109.817930745115
 20
-144.3419216219006
 30
0.0
 10
110.0487521426267
 20
-144.3632812139092
 30
0.0
 10
110.2409884707036
 20
-144.4645670211755
 30
0.0
  0
SPLINE
  5
52
330
4B
100
AcDbEntity
  8
_U+30EC_U+30A4_U+30E4_U+30FC 1
370
     0
100
AcDbSpline
210
0.0
220
0.0
230
1.0
 70
    11
 71
     3
 72
    17
 73
    13
 74
     0
 42
0.0000000001
 43
0.0000000001
 12
1.0
 22
0.0
 32
0.0
 13
1.0
 23
0.0
 33
0.0
 40
0.0
 40
0.0
 40
0.0
 40
0.0
 40
1.0
 40
1.0
 40
1.0
 40
2.0
 40
2.0
 40
2.0
 40
3.0
 40
3.0
 40
3.0
 40
4.0
 40
4.0
 40
4.0
 40
4.0
 10
109.0183240829885
 20
-144.8624755497219
 30
0.0
 10
109.0183240829885
 20
-145.1122449724025
 30
0.0
 10
109.3018554414245
 20
-145.1587537614534
 30
0.0
 10
109.6463649899495
 20
-145.1587537614534
 30
0.0
 10
109.9660698509807
 20
-145.1587537614534
 30
0.0
 10
110.2747504064591
 20
-145.1225802588582
 30
0.0
 10
110.2747504064591
 20
-144.8624755497219
 30
0.0
 10
110.2747504064591
 20
-144.6147731843324
 30
0.0
 10
109.9936306148627
 20
-144.5661973379904
 30
0.0
 10
109.6463649899495
 20
-144.5661973379904
 30
0.0
 10
109.3273491480154
 20
-144.5661973379904
 30
0.0
 10
109.0183240829885
 20
-144.6044378978767
 30
0.0
 10
109.0183240829885
 20
-144.8624755497219
 30
0.0
  0
HATCH
  5
53
330
4B
100
AcDbEntity
  8
_U+30EC_U+30A4_U+30E4_U+30FC 1
 62
   179
420
  2234388
100
AcDbHatch
 10
0.0
 20
0.0
 30
0.0
210
0.0
220
0.0
230
1.0
  2
SOLID
 70
     1
 71
     0
 91
        2
 92
        1
 93
        1
 72
     4
 94
        3
 73
     0
 74
     1
 95
       29
 96
       25
 40
0.0
 40
0.0
 40
0.0
 40
0.0
 40
1.0
 40
1.0
 40
1.0
 40
2.0
 40
2.0
 40
2.0
 40
3.0
 40
3.0
 40
3.0
 40
4.0
 40
4.0
 40
4.0
 40
5.0
 40
5.0
 40
5.0
 40
6.0
 40
6.0
 40
6.0
 40
7.0
 40
7.0
 40
7.0
 40
8.0
 40
8.0
 40
8.0
 40
8.0
 10
110.2409884707036
 20
-144.4645670211755
 10
110.4504502762068
 20
-144.5727430194124
 10
110.4697428109242
 20
-144.7460313223204
 10
110.4697428109242
 20
-144.8624755497219
 10
110.4697428109242
 20
-145.0233615088831
 10
110.4228895123248
 20
-145.1649549333268
 10
110.2409884707036
 20
-145.2600395687197
 10
110.0466850853356
 20
-145.3637369428257
 10
109.8096625159504
 20
-145.3830294775431
 10
109.6463649899495
 20
-145.3830294775431
 10
109.5027045082146
 20
-145.3830294775431
 10
109.2508680282428
 20
-145.3658040001169
 10
109.0520860187439
 20
-145.2600395687197
 10
108.8491698946627
 20
-145.1522080800314
 10
108.825743245363
 20
-144.9913221208702
 10
108.825743245363
 20
-144.8624755497219
 10
108.825743245363
 20
-144.7036566478519
 10
108.8701849771227
 20
-144.5599961661169
 10
109.0520860187439
 20
-144.4645670211755
 10
109.2446668563694
 20
-144.3653482712003
 10
109.4730766870415
 20
-144.3419216219006
 10
109.6463649899495
 20
-144.3419216219006
 10
109.817930745115
 20
-144.3419216219006
 10
110.0487521426267
 20
-144.3632812139092
 10
110.2409884707036
 20
-144.4645670211755
 97
        0
 97
        0
 92
        1
 93
        1
 72
     4
 94
        3
 73
     0
 74
     1
 95
       17
 96
       13
 40
0.0
 40
0.0
 40
0.0
 40
0.0
 40
1.0
 40
1.0
 40
1.0
 40
2.0
 40
2.0
 40
2.0
 40
3.0
 40
3.0
 40
3.0
 40
4.0
 40
4.0
 40
4.0
 40
4.0
 10
109.0183240829885
 20
-144.8624755497219
 10
109.0183240829885
 20
-145.1122449724025
 10
109.3018554414245
 20
-145.1587537614534
 10
109.6463649899495
 20
-145.1587537614534
 10
109.9660698509807
 20
-145.1587537614534
 10
110.2747504064591
 20
-145.1225802588582
 10
110.2747504064591
 20
-144.8624755497219
 10
110.2747504064591
 20
-144.6147731843324
 10
109.9936306148627
 20
-144.5661973379904
 10
109.6463649899495
 20
-144.5661973379904
 10
109.3273491480154
 20
-144.5661973379904
 10
109.0183240829885
 20
-144.6044378978767
 10
109.0183240829885
 20
-144.8624755497219
 97
        0
 97
        0
 75
     2
 76
     1
 98
        0
  0
ENDBLK
  5
4E
330
4B
100
AcDbEntity
  8
0
100
AcDbBlockEnd
  0
BLOCK
  5
5E
330
5C
100
AcDbEntity
  8
0
100
AcDbBlockBegin
  2
block 3
 70
     0
 10
0.0
 20
0.0
 30
0.0
  3
block 3
  1

  0
SPLINE
  5
60
330
5C
100
AcDbEntity
  8
_U+30EC_U+30A4_U+30E4_U+30FC 1
370
     0
100
AcDbSpline
210
0.0
220
0.0
230
1.0
 70
    11
 71
     3
 72
    44
 73
    40
 74
     0
 42
0.0000000001
 43
0.0000000001
 12
1.0
 22
0.0
 32
0.0
 13
1.0
 23
0.0
 33
0.0
 40
0.0
 40
0.0
 40
0.0
 40
0.0
 40
1.0
 40
1.0
 40
1.0
 40
2.0
 40
2.0
 40
2.0
 40
3.0
 40
3.0
 40
3.0
 40
4.0
 40
4.0
 40
4.0
 40
5.0
 40
5.0
 40
5.0
 40
6.0
 40
6.0
 40
6.0
 40
7.0
 40
7.0
 40
7.0
 40
8.0
 40
8.0
 40
8.0
 40
9.0
 40
9.0
 40
9.0
 40
10.0
 40
10.0
 40
10.0
 40
11.0
 40
11.0
 40
11.0
 40
12.0
 40
12.0
 40
12.0
 40
13.0
 40
13.0
 40
13.0
 40
13.0
 10
105.6831271437181
 20
-152.1646999402574
 30
0.0
 10
105.4653971090503
 20
-152.3235188421275
 30
0.0
 10
105.3723795309486
 20
-152.3975883950603
 30
0.0
 10
105.323459175058
 20
-152.5412488767952
 30
0.0
 10
105.323459175058
 20
-152.5412488767952
 30
0.0
 10
106.1020507547245
 20
-152.5412488767952
 30
0.0
 10
106.1020507547245
 20
-152.5412488767952
 30
0.0
 10
106.1020507547245
 20
-152.5412488767952
 30
0.0
 10
106.1020507547245
 20
-152.7465765677161
 30
0.0
 10
106.1020507547245
 20
-152.7465765677161
 30
0.0
 10
106.1020507547245
 20
-152.7465765677161
 30
0.0
 10
105.0740342619259
 20
-152.7465765677161
 30
0.0
 10
105.0740342619259
 20
-152.7465765677161
 30
0.0
 10
105.1057291403902
 20
-152.3889756563472
 30
0.0
 10
105.17118595461
 20
-152.310771988832
 30
0.0
 10
105.5563476298609
 20
-152.0124267198094
 30
0.0
 10
105.812318224415
 20
-151.8136447103105
 30
0.0
 10
105.8777750386347
 20
-151.7457763292511
 30
0.0
 10
105.8777750386347
 20
-151.6083170193896
 30
0.0
 10
105.8777750386347
 20
-151.489805734697
 30
0.0
 10
105.805772542993
 20
-151.3588921062575
 30
0.0
 10
105.6090575907852
 20
-151.3588921062575
 30
0.0
 10
105.3489528816489
 20
-151.3588921062575
 30
0.0
 10
105.3403401429358
 20
-151.5893689942207
 30
0.0
 10
105.3362060283535
 20
-151.7058132216222
 30
0.0
 10
105.3362060283535
 20
-151.7058132216222
 30
0.0
 10
105.1119303122637
 20
-151.7058132216222
 30
0.0
 10
105.1119303122637
 20
-151.7058132216222
 30
0.0
 10
105.1205430509768
 20
-151.5786891982164
 30
0.0
 10
105.1312228469811
 20
-151.4667235949458
 30
0.0
 10
105.2114935717874
 20
-151.3482123102532
 30
0.0
 10
105.3213921177669
 20
-151.1873263510921
 30
0.0
 10
105.5077717835189
 20
-151.1535644153366
 30
0.0
 10
105.6238715013718
 20
-151.1535644153366
 30
0.0
 10
105.9012016879344
 20
-151.1535644153366
 30
0.0
 10
106.1085964361465
 20
-151.3375325142489
 30
0.0
 10
106.1085964361465
 20
-151.6103840766807
 30
0.0
 10
106.1085964361465
 20
-151.8391384169013
 30
0.0
 10
105.992152208745
 20
-151.9383571668765
 30
0.0
 10
105.6831271437181
 20
-152.1646999402574
 30
0.0
  0
HATCH
  5
61
330
5C
100
AcDbEntity
  8
_U+30EC_U+30A4_U+30E4_U+30FC 1
 62
   179
420
  2234388
100
AcDbHatch
 10
0.0
 20
0.0
 30
0.0
210
0.0
220
0.0
230
1.0
  2
SOLID
 70
     1
 71
     0
 91
        1
 92
        1
 93
        1
 72
     4
 94
        3
 73
     0
 74
     1
 95
       44
 96
       40
 40
0.0
 40
0.0
 40
0.0
 40
0.0
 40
1.0
 40
1.0
 40
1.0
 40
2.0
 40
2.0
 40
2.0
 40
3.0
 40
3.0
 40
3.0
 40
4.0
 40
4.0
 40
4.0
 40
5.0
 40
5.0
 40
5.0
 40
6.0
 40
6.0
 40
6.0
 40
7.0
 40
7.0
 40
7.0
 40
8.0
 40
8.0
 40
8.0
 40
9.0
 40
9.0
 40
9.0
 40
10.0
 40
10.0
 40
10.0
 40
11.0
 40
11.0
 40
11.0
 40
12.0
 40
12.0
 40
12.0
 40
13.0
 40
13.0
 40
13.0
 40
13.0
 10
105.6831271437181
 20
-152.1646999402574
 10
105.4653971090503
 20
-152.3235188421275
 10
105.3723795309486
 20
-152.3975883950603
 10
105.323459175058
 20
-152.5412488767952
 10
105.323459175058
 20
-152.5412488767952
 10
106.1020507547245
 20
-152.5412488767952
 10
106.1020507547245
 20
-152.5412488767952
 10
106.1020507547245
 20
-152.5412488767952
 10
106.1020507547245
 20
-152.7465765677161
 10
106.1020507547245
 20
-152.7465765677161
 10
106.1020507547245
 20
-152.7465765677161
 10
105.0740342619259
 20
-152.7465765677161
 10
105.0740342619259
 20
-152.7465765677161
 10
105.1057291403902
 20
-152.3889756563472
 10
105.17118595461
 20
-152.310771988832
 10
105.5563476298609
 20
-152.0124267198094
 10
105.812318224415
 20
-151.8136447103105
 10
105.8777750386347
 20
-151.7457763292511
 10
105.8777750386347
 20
-151.6083170193896
 10
105.8777750386347
 20
-151.489805734697
 10
105.805772542993
 20
-151.3588921062575
 10
105.6090575907852
 20
-151.3588921062575
 10
105.3489528816489
 20
-151.3588921062575
 10
105.3403401429358
 20
-151.5893689942207
 10
105.3362060283535
 20
-151.7058132216222
 10
105.3362060283535
 20
-151.7058132216222
 10
105.1119303122637
 20
-151.7058132216222
 10
105.1119303122637
 20
-151.7058132216222
 10
105.1205430509768
 20
-151.5786891982164
 10
105.1312228469811
 20
-151.4667235949458
 10
105.2114935717874
 20
-151.3482123102532
 10
105.3213921177669
 20
-151.1873263510921
 10
105.5077717835189
 20
-151.1535644153366
 10
105.6238715013718
 20
-151.1535644153366
 10
105.9012016879344
 20
-151.1535644153366
 10
106.1085964361465
 20
-151.3375325142489
 10
106.1085964361465
 20
-151.6103840766807
 10
106.1085964361465
 20
-151.8391384169013
 10
105.992152208745
 20
-151.9383571668765
 10
105.6831271437181
 20
-152.1646999402574
 97
        0
 97
        0
 75
     2
 76
     1
 98
        0
  0
SPLINE
  5
62
330
5C
100
AcDbEntity
  8
_U+30EC_U+30A4_U+30E4_U+30FC 1
370
     0
100
AcDbSpline
210
0.0
220
0.0
230
1.0
 70
    11
 71
     3
 72
    29
 73
    25
 74
     0
 42
0.0000000001
 43
0.0000000001
 12
1.0
 22
0.0
 32
0.0
 13
1.0
 23
0.0
 33
0.0
 40
0.0
 40
0.0
 40
0.0
 40
0.0
 40
1.0
 40
1.0
 40
1.0
 40
2.0
 40
2.0
 40
2.0
 40
3.0
 40
3.0
 40
3.0
 40
4.0
 40
4.0
 40
4.0
 40
5.0
 40
5.0
 40
5.0
 40
6.0
 40
6.0
 40
6.0
 40
7.0
 40
7.0
 40
7.0
 40
8.0
 40
8.0
 40
8.0
 40
8.0
 10
107.1648627119241
 20
-152.5688096406772
 30
0.0
 10
107.0566867136872
 20
-152.7782714461804
 30
0.0
 10
106.8833984107792
 20
-152.7972194713493
 30
0.0
 10
106.7669541833777
 20
-152.7972194713493
 30
0.0
 10
106.6060682242165
 20
-152.7972194713493
 30
0.0
 10
106.4644747997728
 20
-152.7507106822984
 30
0.0
 10
106.3693901643799
 20
-152.5688096406772
 30
0.0
 10
106.2656927902739
 20
-152.3741617457606
 30
0.0
 10
106.2464002555565
 20
-152.137483685924
 30
0.0
 10
106.2464002555565
 20
-151.9745306694716
 30
0.0
 10
106.2464002555565
 20
-151.8305256781882
 30
0.0
 10
106.2636257329827
 20
-151.5786891982164
 30
0.0
 10
106.3693901643799
 20
-151.3799071887175
 30
0.0
 10
106.4772216530682
 20
-151.1769910646363
 30
0.0
 10
106.6381076122294
 20
-151.1535644153366
 30
0.0
 10
106.7669541833777
 20
-151.1535644153366
 30
0.0
 10
106.9257730852477
 20
-151.1535644153366
 30
0.0
 10
107.0694335669827
 20
-151.1980061470964
 30
0.0
 10
107.1648627119241
 20
-151.3799071887175
 30
0.0
 10
107.2640814618993
 20
-151.572488026343
 30
0.0
 10
107.287508111199
 20
-151.8008978570151
 30
0.0
 10
107.287508111199
 20
-151.9745306694716
 30
0.0
 10
107.287508111199
 20
-152.1457519150886
 30
0.0
 10
107.2661485191904
 20
-152.3762288030518
 30
0.0
 10
107.1648627119241
 20
-152.5688096406772
 30
0.0
  0
SPLINE
  5
63
330
5C
100
AcDbEntity
  8
_U+30EC_U+30A4_U+30E4_U+30FC 1
370
     0
100
AcDbSpline
210
0.0
220
0.0
230
1.0
 70
    11
 71
     3
 72
    17
 73
    13
 74
     0
 42
0.0000000001
 43
0.0000000001
 12
1.0
 22
0.0
 32
0.0
 13
1.0
 23
0.0
 33
0.0
 40
0.0
 40
0.0
 40
0.0
 40
0.0
 40
1.0
 40
1.0
 40
1.0
 40
2.0
 40
2.0
 40
2.0
 40
3.0
 40
3.0
 40
3.0
 40
4.0
 40
4.0
 40
4.0
 40
4.0
 10
106.7669541833777
 20
-151.3461452529621
 30
0.0
 10
106.5171847606971
 20
-151.3461452529621
 30
0.0
 10
106.4706759716462
 20
-151.6296766113981
 30
0.0
 10
106.4706759716462
 20
-151.9745306694716
 30
0.0
 10
106.4706759716462
 20
-152.2938910209543
 30
0.0
 10
106.5068494742413
 20
-152.6025715764327
 30
0.0
 10
106.7669541833777
 20
-152.6025715764327
 30
0.0
 10
107.0146565487672
 20
-152.6025715764327
 30
0.0
 10
107.0632323951092
 20
-152.3214517848363
 30
0.0
 10
107.0632323951092
 20
-151.9745306694716
 30
0.0
 10
107.0632323951092
 20
-151.6548258084405
 30
0.0
 10
107.0249918352229
 20
-151.3461452529621
 30
0.0
 10
106.7669541833777
 20
-151.3461452529621
 30
0.0
  0
HATCH
  5
64
330
5C
100
AcDbEntity
  8
_U+30EC_U+30A4_U+30E4_U+30FC 1
 62
   179
420
  2234388
100
AcDbHatch
 10
0.0
 20
0.0
 30
0.0
210
0.0
220
0.0
230
1.0
  2
SOLID
 70
     1
 71
     0
 91
        2
 92
        1
 93
        1
 72
     4
 94
        3
 73
     0
 74
     1
 95
       29
 96
       25
 40
0.0
 40
0.0
 40
0.0
 40
0.0
 40
1.0
 40
1.0
 40
1.0
 40
2.0
 40
2.0
 40
2.0
 40
3.0
 40
3.0
 40
3.0
 40
4.0
 40
4.0
 40
4.0
 40
5.0
 40
5.0
 40
5.0
 40
6.0
 40
6.0
 40
6.0
 40
7.0
 40
7.0
 40
7.0
 40
8.0
 40
8.0
 40
8.0
 40
8.0
 10
107.1648627119241
 20
-152.5688096406772
 10
107.0566867136872
 20
-152.7782714461804
 10
106.8833984107792
 20
-152.7972194713493
 10
106.7669541833777
 20
-152.7972194713493
 10
106.6060682242165
 20
-152.7972194713493
 10
106.4644747997728
 20
-152.7507106822984
 10
106.3693901643799
 20
-152.5688096406772
 10
106.2656927902739
 20
-152.3741617457606
 10
106.2464002555565
 20
-152.137483685924
 10
106.2464002555565
 20
-151.9745306694716
 10
106.2464002555565
 20
-151.8305256781882
 10
106.2636257329827
 20
-151.5786891982164
 10
106.3693901643799
 20
-151.3799071887175
 10
106.4772216530682
 20
-151.1769910646363
 10
106.6381076122294
 20
-151.1535644153366
 10
106.7669541833777
 20
-151.1535644153366
 10
106.9257730852477
 20
-151.1535644153366
 10
107.0694335669827
 20
-151.1980061470964
 10
107.1648627119241
 20
-151.3799071887175
 10
107.2640814618993
 20
-151.572488026343
 10
107.287508111199
 20
-151.8008978570151
 10
107.287508111199
 20
-151.9745306694716
 10
107.287508111199
 20
-152.1457519150886
 10
107.2661485191904
 20
-152.3762288030518
 10
107.1648627119241
 20
-152.5688096406772
 97
        0
 97
        0
 92
        1
 93
        1
 72
     4
 94
        3
 73
     0
 74
     1
 95
       17
 96
       13
 40
0.0
 40
0.0
 40
0.0
 40
0.0
 40
1.0
 40
1.0
 40
1.0
 40
2.0
 40
2.0
 40
2.0
 40
3.0
 40
3.0
 40
3.0
 40
4.0
 40
4.0
 40
4.0
 40
4.0
 10
106.7669541833777
 20
-151.3461452529621
 10
106.5171847606971
 20
-151.3461452529621
 10
106.4706759716462
 20
-151.6296766113981
 10
106.4706759716462
 20
-151.9745306694716
 10
106.4706759716462
 20
-152.2938910209543
 10
106.5068494742413
 20
-152.6025715764327
 10
106.7669541833777
 20
-152.6025715764327
 10
107.0146565487672
 20
-152.6025715764327
 10
107.0632323951092
 20
-152.3214517848363
 10
107.0632323951092
 20
-151.9745306694716
 10
107.0632323951092
 20
-151.6548258084405
 10
107.0249918352229
 20
-151.3461452529621
 10
106.7669541833777
 20
-151.3461452529621
 97
        0
 97
        0
 75
     2
 76
     1
 98
        0
  0
ENDBLK
  5
5F
330
5C
100
AcDbEntity
  8
0
100
AcDbBlockEnd
  0
BLOCK
  5
77
330
75
100
AcDbEntity
  8
0
100
AcDbBlockBegin
  2
block 4
 70
     0
 10
0.0
 20
0.0
 30
0.0
  3
block 4
  1

  0
SPLINE
  5
79
330
75
100
AcDbEntity
  8
_U+30EC_U+30A4_U+30E4_U+30FC 1
370
     0
100
AcDbSpline
210
0.0
220
0.0
230
1.0
 70
    11
 71
     3
 72
    44
 73
    40
 74
     0
 42
0.0000000001
 43
0.0000000001
 12
1.0
 22
0.0
 32
0.0
 13
1.0
 23
0.0
 33
0.0
 40
0.0
 40
0.0
 40
0.0
 40
0.0
 40
1.0
 40
1.0
 40
1.0
 40
2.0
 40
2.0
 40
2.0
 40
3.0
 40
3.0
 40
3.0
 40
4.0
 40
4.0
 40
4.0
 40
5.0
 40
5.0
 40
5.0
 40
6.0
 40
6.0
 40
6.0
 40
7.0
 40
7.0
 40
7.0
 40
8.0
 40
8.0
 40
8.0
 40
9.0
 40
9.0
 40
9.0
 40
10.0
 40
10.0
 40
10.0
 40
11.0
 40
11.0
 40
11.0
 40
12.0
 40
12.0
 40
12.0
 40
13.0
 40
13.0
 40
13.0
 40
13.0
 10
87.9140136498965
 20
-124.5408908108787
 30
0.0
 10
87.8905870005968
 20
-124.4964490791189
 30
0.0
 10
87.86957191813677
 20
-124.4435668634204
 30
0.0
 10
87.86733260607137
 20
-124.2129177206829
 30
0.0
 10
87.86319849148907
 20
-123.9696939794242
 30
0.0
 10
87.80394284914277
 20
-123.8999307958479
 30
0.0
 10
87.62617592210388
 20
-123.8999307958479
 30
0.0
 10
87.62617592210388
 20
-123.8999307958479
 30
0.0
 10
87.21793210710177
 20
-123.8999307958479
 30
0.0
 10
87.21793210710177
 20
-123.8999307958479
 30
0.0
 10
87.21793210710177
 20
-123.8999307958479
 30
0.0
 10
87.21793210710177
 20
-124.5408908108787
 30
0.0
 10
87.21793210710177
 20
-124.5408908108787
 30
0.0
 10
87.21793210710177
 20
-124.5408908108787
 30
0.0
 10
86.983148849782
 20
-124.5408908108787
 30
0.0
 10
86.983148849782
 20
-124.5408908108787
 30
0.0
 10
86.983148849782
 20
-124.5408908108787
 30
0.0
 10
86.983148849782
 20
-122.9966267596154
 30
0.0
 10
86.983148849782
 20
-122.9966267596154
 30
0.0
 10
86.983148849782
 20
-122.9966267596154
 30
0.0
 10
87.65804305534243
 20
-122.9966267596154
 30
0.0
 10
87.65804305534243
 20
-122.9966267596154
 30
0.0
 10
87.96465655352968
 20
-122.9966267596154
 30
0.0
 10
88.13174368456428
 20
-123.1678480052323
 30
0.0
 10
88.13174368456428
 20
-123.4239908545607
 30
0.0
 10
88.13174368456428
 20
-123.4746337581938
 30
0.0
 10
88.12330320062543
 20
-123.5571437950656
 30
0.0
 10
88.07886146886571
 20
-123.6375867746462
 30
0.0
 10
88.01977808129367
 20
-123.7412841487522
 30
0.0
 10
87.95414901229967
 20
-123.7602321739211
 30
0.0
 10
87.89282631266221
 20
-123.7771131417988
 30
0.0
 10
88.03028562252368
 20
-123.8194878162674
 30
0.0
 10
88.09798174880885
 20
-123.8682359173836
 30
0.0
 10
88.1022881181654
 20
-124.1832898995097
 30
0.0
 10
88.1064222327477
 20
-124.4540744046504
 30
0.0
 10
88.14242348056857
 20
-124.4859415378889
 30
0.0
 10
88.21011960685372
 20
-124.5408908108787
 30
0.0
 10
88.21011960685372
 20
-124.5408908108787
 30
0.0
 10
87.9140136498965
 20
-124.5408908108787
 30
0.0
 10
87.9140136498965
 20
-124.5408908108787
 30
0.0
  0
SPLINE
  5
7A
330
75
100
AcDbEntity
  8
_U+30EC_U+30A4_U+30E4_U+30FC 1
370
     0
100
AcDbSpline
210
0.0
220
0.0
230
1.0
 70
    11
 71
     3
 72
    20
 73
    16
 74
     0
 42
0.0000000001
 43
0.0000000001
 12
1.0
 22
0.0
 32
0.0
 13
1.0
 23
0.0
 33
0.0
 40
0.0
 40
0.0
 40
0.0
 40
0.0
 40
1.0
 40
1.0
 40
1.0
 40
2.0
 40
2.0
 40
2.0
 40
3.0
 40
3.0
 40
3.0
 40
4.0
 40
4.0
 40
4.0
 40
5.0
 40
5.0
 40
5.0
 40
5.0
 10
87.66217716992473
 20
-123.2081556224098
 30
0.0
 10
87.66217716992473
 20
-123.2081556224098
 30
0.0
 10
87.21793210710177
 20
-123.2081556224098
 30
0.0
 10
87.21793210710177
 20
-123.2081556224098
 30
0.0
 10
87.21793210710177
 20
-123.2081556224098
 30
0.0
 10
87.21793210710177
 20
-123.6884019330536
 30
0.0
 10
87.21793210710177
 20
-123.6884019330536
 30
0.0
 10
87.21793210710177
 20
-123.6884019330536
 30
0.0
 10
87.66011011263359
 20
-123.6884019330536
 30
0.0
 10
87.66011011263359
 20
-123.6884019330536
 30
0.0
 10
87.75950111738304
 20
-123.6884019330536
 30
0.0
 10
87.89489336995337
 20
-123.6122653228296
 30
0.0
 10
87.89489336995337
 20
-123.4408718224384
 30
0.0
 10
87.89489336995337
 20
-123.362495900149
 30
0.0
 10
87.86095917942366
 20
-123.2081556224098
 30
0.0
 10
87.66217716992473
 20
-123.2081556224098
 30
0.0
  0
HATCH
  5
7B
330
75
100
AcDbEntity
  8
_U+30EC_U+30A4_U+30E4_U+30FC 1
 62
   179
420
  2234388
100
AcDbHatch
 10
0.0
 20
0.0
 30
0.0
210
0.0
220
0.0
230
1.0
  2
SOLID
 70
     1
 71
     0
 91
        2
 92
        1
 93
        1
 72
     4
 94
        3
 73
     0
 74
     1
 95
       44
 96
       40
 40
0.0
 40
0.0
 40
0.0
 40
0.0
 40
1.0
 40
1.0
 40
1.0
 40
2.0
 40
2.0
 40
2.0
 40
3.0
 40
3.0
 40
3.0
 40
4.0
 40
4.0
 40
4.0
 40
5.0
 40
5.0
 40
5.0
 40
6.0
 40
6.0
 40
6.0
 40
7.0
 40
7.0
 40
7.0
 40
8.0
 40
8.0
 40
8.0
 40
9.0
 40
9.0
 40
9.0
 40
10.0
 40
10.0
 40
10.0
 40
11.0
 40
11.0
 40
11.0
 40
12.0
 40
12.0
 40
12.0
 40
13.0
 40
13.0
 40
13.0
 40
13.0
 10
87.9140136498965
 20
-124.5408908108787
 10
87.8905870005968
 20
-124.4964490791189
 10
87.86957191813677
 20
-124.4435668634204
 10
87.86733260607137
 20
-124.2129177206829
 10
87.86319849148907
 20
-123.9696939794242
 10
87.80394284914277
 20
-123.8999307958479
 10
87.62617592210388
 20
-123.8999307958479
 10
87.62617592210388
 20
-123.8999307958479
 10
87.21793210710177
 20
-123.8999307958479
 10
87.21793210710177
 20
-123.8999307958479
 10
87.21793210710177
 20
-123.8999307958479
 10
87.21793210710177
 20
-124.5408908108787
 10
87.21793210710177
 20
-124.5408908108787
 10
87.21793210710177
 20
-124.5408908108787
 10
86.983148849782
 20
-124.5408908108787
 10
86.983148849782
 20
-124.5408908108787
 10
86.983148849782
 20
-124.5408908108787
 10
86.983148849782
 20
-122.9966267596154
 10
86.983148849782
 20
-122.9966267596154
 10
86.983148849782
 20
-122.9966267596154
 10
87.65804305534243
 20
-122.9966267596154
 10
87.65804305534243
 20
-122.9966267596154
 10
87.96465655352968
 20
-122.9966267596154
 10
88.13174368456428
 20
-123.1678480052323
 10
88.13174368456428
 20
-123.4239908545607
 10
88.13174368456428
 20
-123.4746337581938
 10
88.12330320062543
 20
-123.5571437950656
 10
88.07886146886571
 20
-123.6375867746462
 10
88.01977808129367
 20
-123.7412841487522
 10
87.95414901229967
 20
-123.7602321739211
 10
87.89282631266221
 20
-123.7771131417988
 10
88.03028562252368
 20
-123.8194878162674
 10
88.09798174880885
 20
-123.8682359173836
 10
88.1022881181654
 20
-124.1832898995097
 10
88.1064222327477
 20
-124.4540744046504
 10
88.14242348056857
 20
-124.4859415378889
 10
88.21011960685372
 20
-124.5408908108787
 10
88.21011960685372
 20
-124.5408908108787
 10
87.9140136498965
 20
-124.5408908108787
 10
87.9140136498965
 20
-124.5408908108787
 97
        0
 97
        0
 92
        1
 93
        1
 72
     4
 94
        3
 73
     0
 74
     1
 95
       20
 96
       16
 40
0.0
 40
0.0
 40
0.0
 40
0.0
 40
1.0
 40
1.0
 40
1.0
 40
2.0
 40
2.0
 40
2.0
 40
3.0
 40
3.0
 40
3.0
 40
4.0
 40
4.0
 40
4.0
 40
5.0
 40
5.0
 40
5.0
 40
5.0
 10
87.66217716992473
 20
-123.2081556224098
 10
87.66217716992473
 20
-123.2081556224098
 10
87.21793210710177
 20
-123.2081556224098
 10
87.21793210710177
 20
-123.2081556224098
 10
87.21793210710177
 20
-123.2081556224098
 10
87.21793210710177
 20
-123.6884019330536
 10
87.21793210710177
 20
-123.6884019330536
 10
87.21793210710177
 20
-123.6884019330536
 10
87.66011011263359
 20
-123.6884019330536
 10
87.66011011263359
 20
-123.6884019330536
 10
87.75950111738304
 20
-123.6884019330536
 10
87.89489336995337
 20
-123.6122653228296
 10
87.89489336995337
 20
-123.4408718224384
 10
87.89489336995337
 20
-123.362495900149
 10
87.86095917942366
 20
-123.2081556224098
 10
87.66217716992473
 20
-123.2081556224098
 97
        0
 97
        0
 75
     2
 76
     1
 98
        0
  0
SPLINE
  5
7C
330
75
100
AcDbEntity
  8
_U+30EC_U+30A4_U+30E4_U+30FC 1
370
     0
100
AcDbSpline
210
0.0
220
0.0
230
1.0
 70
    11
 71
     3
 72
    62
 73
    58
 74
     0
 42
0.0000000001
 43
0.0000000001
 12
1.0
 22
0.0
 32
0.0
 13
1.0
 23
0.0
 33
0.0
 40
0.0
 40
0.0
 40
0.0
 40
0.0
 40
1.0
 40
1.0
 40
1.0
 40
2.0
 40
2.0
 40
2.0
 40
3.0
 40
3.0
 40
3.0
 40
4.0
 40
4.0
 40
4.0
 40
5.0
 40
5.0
 40
5.0
 40
6.0
 40
6.0
 40
6.0
 40
7.0
 40
7.0
 40
7.0
 40
8.0
 40
8.0
 40
8.0
 40
9.0
 40
9.0
 40
9.0
 40
10.0
 40
10.0
 40
10.0
 40
11.0
 40
11.0
 40
11.0
 40
12.0
 40
12.0
 40
12.0
 40
13.0
 40
13.0
 40
13.0
 40
14.0
 40
14.0
 40
14.0
 40
15.0
 40
15.0
 40
15.0
 40
16.0
 40
16.0
 40
16.0
 40
17.0
 40
17.0
 40
17.0
 40
18.0
 40
18.0
 40
18.0
 40
19.0
 40
19.0
 40
19.0
 40
19.0
 10
88.84126109975149
 20
-124.5917059692861
 30
0.0
 10
88.74600420958434
 20
-124.5917059692861
 30
0.0
 10
88.52810192014229
 20
-124.5705186320518
 30
0.0
 10
88.40338946357625
 20
-124.3843112210741
 30
0.0
 10
88.32931991064336
 20
-124.2721733630292
 30
0.0
 10
88.32501354128681
 20
-124.1727823582797
 30
0.0
 10
88.32087942670451
 20
-124.0882052641168
 30
0.0
 10
88.32087942670451
 20
-124.0882052641168
 30
0.0
 10
88.5408487734377
 20
-124.0882052641168
 30
0.0
 10
88.5408487734377
 20
-124.0882052641168
 30
0.0
 10
88.54291583072886
 20
-124.1622748170497
 30
0.0
 10
88.55359562673313
 20
-124.3970580743695
 30
0.0
 10
88.83695473039494
 20
-124.3970580743695
 30
0.0
 10
88.97458629503066
 20
-124.3970580743695
 30
0.0
 10
89.1268595154787
 20
-124.3272948907932
 30
0.0
 10
89.1268595154787
 20
-124.0987128053468
 30
0.0
 10
89.1268595154787
 20
-123.9824408327197
 30
0.0
 10
89.0887912103667
 20
-123.9336927316034
 30
0.0
 10
89.0570963319024
 20
-123.9019978531391
 30
0.0
 10
88.98302677896953
 20
-123.8279283002062
 30
0.0
 10
88.86658255156809
 20
-123.8153537016851
 30
0.0
 10
88.81163327857834
 20
-123.8153537016851
 30
0.0
 10
88.79268525340947
 20
-123.8153537016851
 30
0.0
 10
88.75668400558861
 20
-123.8174207589762
 30
0.0
 10
88.72912324170662
 20
-123.8215548735585
 30
0.0
 10
88.72912324170662
 20
-123.8215548735585
 30
0.0
 10
88.72912324170662
 20
-123.6269069786419
 30
0.0
 10
88.72912324170662
 20
-123.6269069786419
 30
0.0
 10
88.76719154681862
 20
-123.6332804052896
 30
0.0
 10
88.8095662212872
 20
-123.635519717355
 30
0.0
 10
88.81593964793491
 20
-123.635519717355
 30
0.0
 10
88.88139646215465
 20
-123.635519717355
 30
0.0
 10
89.08035072642784
 20
-123.6143323801207
 30
0.0
 10
89.08035072642784
 20
-123.3773098107355
 30
0.0
 10
89.08035072642784
 20
-123.1997151384709
 30
0.0
 10
88.94909258843981
 20
-123.1445936107069
 30
0.0
 10
88.83919404246035
 20
-123.1445936107069
 30
0.0
 10
88.57478296396742
 20
-123.1445936107069
 30
0.0
 10
88.5661702252543
 20
-123.3773098107355
 30
0.0
 10
88.562036110672
 20
-123.4493123063773
 30
0.0
 10
88.562036110672
 20
-123.4493123063773
 30
0.0
 10
88.35894773181651
 20
-123.4493123063773
 30
0.0
 10
88.35894773181651
 20
-123.4493123063773
 30
0.0
 10
88.36738821575538
 20
-123.324427595037
 30
0.0
 10
88.39494897963738
 20
-122.9478786584991
 30
0.0
 10
88.8517686409815
 20
-122.9478786584991
 30
0.0
 10
89.07604435707127
 20
-122.9478786584991
 30
0.0
 10
89.31720104103876
 20
-123.0748304271306
 30
0.0
 10
89.31720104103876
 20
-123.3709363840878
 30
0.0
 10
89.31720104103876
 20
-123.5571437950656
 30
0.0
 10
89.22211640564586
 20
-123.6396538319373
 30
0.0
 10
89.12255314612214
 20
-123.7009765315748
 30
0.0
 10
89.18404810053386
 20
-123.7285372954568
 30
0.0
 10
89.36594914215505
 20
-123.8089802750373
 30
0.0
 10
89.36594914215505
 20
-124.0861382068257
 30
0.0
 10
89.36594914215505
 20
-124.4246188382515
 30
0.0
 10
89.11841903153984
 20
-124.5917059692861
 30
0.0
 10
88.84126109975149
 20
-124.5917059692861
 30
0.0
  0
HATCH
  5
7D
330
75
100
AcDbEntity
  8
_U+30EC_U+30A4_U+30E4_U+30FC 1
 62
   179
420
  2234388
100
AcDbHatch
 10
0.0
 20
0.0
 30
0.0
210
0.0
220
0.0
230
1.0
  2
SOLID
 70
     1
 71
     0
 91
        1
 92
        1
 93
        1
 72
     4
 94
        3
 73
     0
 74
     1
 95
       62
 96
       58
 40
0.0
 40
0.0
 40
0.0
 40
0.0
 40
1.0
 40
1.0
 40
1.0
 40
2.0
 40
2.0
 40
2.0
 40
3.0
 40
3.0
 40
3.0
 40
4.0
 40
4.0
 40
4.0
 40
5.0
 40
5.0
 40
5.0
 40
6.0
 40
6.0
 40
6.0
 40
7.0
 40
7.0
 40
7.0
 40
8.0
 40
8.0
 40
8.0
 40
9.0
 40
9.0
 40
9.0
 40
10.0
 40
10.0
 40
10.0
 40
11.0
 40
11.0
 40
11.0
 40
12.0
 40
12.0
 40
12.0
 40
13.0
 40
13.0
 40
13.0
 40
14.0
 40
14.0
 40
14.0
 40
15.0
 40
15.0
 40
15.0
 40
16.0
 40
16.0
 40
16.0
 40
17.0
 40
17.0
 40
17.0
 40
18.0
 40
18.0
 40
18.0
 40
19.0
 40
19.0
 40
19.0
 40
19.0
 10
88.84126109975149
 20
-124.5917059692861
 10
88.74600420958434
 20
-124.5917059692861
 10
88.52810192014229
 20
-124.5705186320518
 10
88.40338946357625
 20
-124.3843112210741
 10
88.32931991064336
 20
-124.2721733630292
 10
88.32501354128681
 20
-124.1727823582797
 10
88.32087942670451
 20
-124.0882052641168
 10
88.32087942670451
 20
-124.0882052641168
 10
88.5408487734377
 20
-124.0882052641168
 10
88.5408487734377
 20
-124.0882052641168
 10
88.54291583072886
 20
-124.1622748170497
 10
88.55359562673313
 20
-124.3970580743695
 10
88.83695473039494
 20
-124.3970580743695
 10
88.97458629503066
 20
-124.3970580743695
 10
89.1268595154787
 20
-124.3272948907932
 10
89.1268595154787
 20
-124.0987128053468
 10
89.1268595154787
 20
-123.9824408327197
 10
89.0887912103667
 20
-123.9336927316034
 10
89.0570963319024
 20
-123.9019978531391
 10
88.98302677896953
 20
-123.8279283002062
 10
88.86658255156809
 20
-123.8153537016851
 10
88.81163327857834
 20
-123.8153537016851
 10
88.79268525340947
 20
-123.8153537016851
 10
88.75668400558861
 20
-123.8174207589762
 10
88.72912324170662
 20
-123.8215548735585
 10
88.72912324170662
 20
-123.8215548735585
 10
88.72912324170662
 20
-123.6269069786419
 10
88.72912324170662
 20
-123.6269069786419
 10
88.76719154681862
 20
-123.6332804052896
 10
88.8095662212872
 20
-123.635519717355
 10
88.81593964793491
 20
-123.635519717355
 10
88.88139646215465
 20
-123.635519717355
 10
89.08035072642784
 20
-123.6143323801207
 10
89.08035072642784
 20
-123.3773098107355
 10
89.08035072642784
 20
-123.1997151384709
 10
88.94909258843981
 20
-123.1445936107069
 10
88.83919404246035
 20
-123.1445936107069
 10
88.57478296396742
 20
-123.1445936107069
 10
88.5661702252543
 20
-123.3773098107355
 10
88.562036110672
 20
-123.4493123063773
 10
88.562036110672
 20
-123.4493123063773
 10
88.35894773181651
 20
-123.4493123063773
 10
88.35894773181651
 20
-123.4493123063773
 10
88.36738821575538
 20
-123.324427595037
 10
88.39494897963738
 20
-122.9478786584991
 10
88.8517686409815
 20
-122.9478786584991
 10
89.07604435707127
 20
-122.9478786584991
 10
89.31720104103876
 20
-123.0748304271306
 10
89.31720104103876
 20
-123.3709363840878
 10
89.31720104103876
 20
-123.5571437950656
 10
89.22211640564586
 20
-123.6396538319373
 10
89.12255314612214
 20
-123.7009765315748
 10
89.18404810053386
 20
-123.7285372954568
 10
89.36594914215505
 20
-123.8089802750373
 10
89.36594914215505
 20
-124.0861382068257
 10
89.36594914215505
 20
-124.4246188382515
 10
89.11841903153984
 20
-124.5917059692861
 10
88.84126109975149
 20
-124.5917059692861
 97
        0
 97
        0
 75
     2
 76
     1
 98
        0
  0
SPLINE
  5
7E
330
75
100
AcDbEntity
  8
_U+30EC_U+30A4_U+30E4_U+30FC 1
370
     0
100
AcDbSpline
210
0.0
220
0.0
230
1.0
 70
    11
 71
     3
 72
    29
 73
    25
 74
     0
 42
0.0000000001
 43
0.0000000001
 12
1.0
 22
0.0
 32
0.0
 13
1.0
 23
0.0
 33
0.0
 40
0.0
 40
0.0
 40
0.0
 40
0.0
 40
1.0
 40
1.0
 40
1.0
 40
2.0
 40
2.0
 40
2.0
 40
3.0
 40
3.0
 40
3.0
 40
4.0
 40
4.0
 40
4.0
 40
5.0
 40
5.0
 40
5.0
 40
6.0
 40
6.0
 40
6.0
 40
7.0
 40
7.0
 40
7.0
 40
8.0
 40
8.0
 40
8.0
 40
8.0
 10
90.42428247522379
 20
-124.3631238838398
 30
0.0
 10
90.31645098653547
 20
-124.572585689343
 30
0.0
 10
90.14299042885314
 20
-124.5917059692861
 30
0.0
 10
90.0265462014517
 20
-124.5917059692861
 30
0.0
 10
89.8658324970648
 20
-124.5917059692861
 30
0.0
 10
89.72406681784676
 20
-124.5451971802352
 30
0.0
 10
89.62880992767961
 20
-124.3631238838398
 30
0.0
 10
89.52528480834785
 20
-124.1684759889232
 30
0.0
 10
89.50616452840471
 20
-123.9316256743122
 30
0.0
 10
89.50616452840471
 20
-123.7686726578599
 30
0.0
 10
89.50616452840471
 20
-123.6248399213507
 30
0.0
 10
89.52304549628244
 20
-123.3731756961532
 30
0.0
 10
89.62880992767961
 20
-123.1742214318801
 30
0.0
 10
89.73681367114219
 20
-122.9711330530246
 30
0.0
 10
89.8975273755291
 20
-122.9478786584991
 30
0.0
 10
90.0265462014517
 20
-122.9478786584991
 30
0.0
 10
90.18519284854746
 20
-122.9478786584991
 30
0.0
 10
90.32902558505664
 20
-122.9923203902589
 30
0.0
 10
90.42428247522379
 20
-123.1742214318801
 30
0.0
 10
90.52367347997325
 20
-123.3668022695055
 30
0.0
 10
90.54692787449869
 20
-123.5952121001776
 30
0.0
 10
90.54692787449869
 20
-123.7686726578599
 30
0.0
 10
90.54692787449869
 20
-123.9400661582511
 30
0.0
 10
90.52591279203867
 20
-124.1707153009886
 30
0.0
 10
90.42428247522379
 20
-124.3631238838398
 30
0.0
  0
SPLINE
  5
7F
330
75
100
AcDbEntity
  8
_U+30EC_U+30A4_U+30E4_U+30FC 1
370
     0
100
AcDbSpline
210
0.0
220
0.0
230
1.0
 70
    11
 71
     3
 72
    17
 73
    13
 74
     0
 42
0.0000000001
 43
0.0000000001
 12
1.0
 22
0.0
 32
0.0
 13
1.0
 23
0.0
 33
0.0
 40
0.0
 40
0.0
 40
0.0
 40
0.0
 40
1.0
 40
1.0
 40
1.0
 40
2.0
 40
2.0
 40
2.0
 40
3.0
 40
3.0
 40
3.0
 40
4.0
 40
4.0
 40
4.0
 40
4.0
 10
90.0265462014517
 20
-123.1404594961246
 30
0.0
 10
89.77694903354535
 20
-123.1404594961246
 30
0.0
 10
89.73044024449447
 20
-123.4239908545607
 30
0.0
 10
89.73044024449447
 20
-123.7686726578599
 30
0.0
 10
89.73044024449447
 20
-124.0882052641168
 30
0.0
 10
89.76644149231534
 20
-124.3970580743695
 30
0.0
 10
90.0265462014517
 20
-124.3970580743695
 30
0.0
 10
90.2740763120669
 20
-124.3970580743695
 30
0.0
 10
90.32282441318318
 20
-124.1155937732246
 30
0.0
 10
90.32282441318318
 20
-123.7686726578599
 30
0.0
 10
90.32282441318318
 20
-123.4493123063773
 30
0.0
 10
90.28458385329691
 20
-123.1404594961246
 30
0.0
 10
90.0265462014517
 20
-123.1404594961246
 30
0.0
  0
HATCH
  5
80
330
75
100
AcDbEntity
  8
_U+30EC_U+30A4_U+30E4_U+30FC 1
 62
   179
420
  2234388
100
AcDbHatch
 10
0.0
 20
0.0
 30
0.0
210
0.0
220
0.0
230
1.0
  2
SOLID
 70
     1
 71
     0
 91
        2
 92
        1
 93
        1
 72
     4
 94
        3
 73
     0
 74
     1
 95
       29
 96
       25
 40
0.0
 40
0.0
 40
0.0
 40
0.0
 40
1.0
 40
1.0
 40
1.0
 40
2.0
 40
2.0
 40
2.0
 40
3.0
 40
3.0
 40
3.0
 40
4.0
 40
4.0
 40
4.0
 40
5.0
 40
5.0
 40
5.0
 40
6.0
 40
6.0
 40
6.0
 40
7.0
 40
7.0
 40
7.0
 40
8.0
 40
8.0
 40
8.0
 40
8.0
 10
90.42428247522379
 20
-124.3631238838398
 10
90.31645098653547
 20
-124.572585689343
 10
90.14299042885314
 20
-124.5917059692861
 10
90.0265462014517
 20
-124.5917059692861
 10
89.8658324970648
 20
-124.5917059692861
 10
89.72406681784676
 20
-124.5451971802352
 10
89.62880992767961
 20
-124.3631238838398
 10
89.52528480834785
 20
-124.1684759889232
 10
89.50616452840471
 20
-123.9316256743122
 10
89.50616452840471
 20
-123.7686726578599
 10
89.50616452840471
 20
-123.6248399213507
 10
89.52304549628244
 20
-123.3731756961532
 10
89.62880992767961
 20
-123.1742214318801
 10
89.73681367114219
 20
-122.9711330530246
 10
89.8975273755291
 20
-122.9478786584991
 10
90.0265462014517
 20
-122.9478786584991
 10
90.18519284854746
 20
-122.9478786584991
 10
90.32902558505664
 20
-122.9923203902589
 10
90.42428247522379
 20
-123.1742214318801
 10
90.52367347997325
 20
-123.3668022695055
 10
90.54692787449869
 20
-123.5952121001776
 10
90.54692787449869
 20
-123.7686726578599
 10
90.54692787449869
 20
-123.9400661582511
 10
90.52591279203867
 20
-124.1707153009886
 10
90.42428247522379
 20
-124.3631238838398
 97
        0
 97
        0
 92
        1
 93
        1
 72
     4
 94
        3
 73
     0
 74
     1
 95
       17
 96
       13
 40
0.0
 40
0.0
 40
0.0
 40
0.0
 40
1.0
 40
1.0
 40
1.0
 40
2.0
 40
2.0
 40
2.0
 40
3.0
 40
3.0
 40
3.0
 40
4.0
 40
4.0
 40
4.0
 40
4.0
 10
90.0265462014517
 20
-123.1404594961246
 10
89.77694903354535
 20
-123.1404594961246
 10
89.73044024449447
 20
-123.4239908545607
 10
89.73044024449447
 20
-123.7686726578599
 10
89.73044024449447
 20
-124.0882052641168
 10
89.76644149231534
 20
-124.3970580743695
 10
90.0265462014517
 20
-124.3970580743695
 10
90.2740763120669
 20
-124.3970580743695
 10
90.32282441318318
 20
-124.1155937732246
 10
90.32282441318318
 20
-123.7686726578599
 10
90.32282441318318
 20
-123.4493123063773
 10
90.28458385329691
 20
-123.1404594961246
 10
90.0265462014517
 20
-123.1404594961246
 97
        0
 97
        0
 75
     2
 76
     1
 98
        0
  0
ENDBLK
  5
78
330
75
100
AcDbEntity
  8
0
100
AcDbBlockEnd
  0
ENDSEC
  0
SECTION
  2
ENTITIES
  0
SPLINE
  5
41
330
1F
100
AcDbEntity
  8
_U+30EC_U+30A4_U+30E4_U+30FC 1
370
     0
100
AcDbSpline
210
0.0
220
0.0
230
1.0
 70
    11
 71
     3
 72
    83
 73
    79
 74
     0
 42
0.0000000001
 43
0.0000000001
 12
1.0
 22
0.0
 32
0.0
 13
1.0
 23
0.0
 33
0.0
 40
0.0
 40
0.0
 40
0.0
 40
0.0
 40
1.0
 40
1.0
 40
1.0
 40
2.0
 40
2.0
 40
2.0
 40
3.0
 40
3.0
 40
3.0
 40
4.0
 40
4.0
 40
4.0
 40
5.0
 40
5.0
 40
5.0
 40
6.0
 40
6.0
 40
6.0
 40
7.0
 40
7.0
 40
7.0
 40
8.0
 40
8.0
 40
8.0
 40
9.0
 40
9.0
 40
9.0
 40
10.0
 40
10.0
 40
10.0
 40
11.0
 40
11.0
 40
11.0
 40
12.0
 40
12.0
 40
12.0
 40
13.0
 40
13.0
 40
13.0
 40
14.0
 40
14.0
 40
14.0
 40
15.0
 40
15.0
 40
15.0
 40
16.0
 40
16.0
 40
16.0
 40
17.0
 40
17.0
 40
17.0
 40
18.0
 40
18.0
 40
18.0
 40
19.0
 40
19.0
 40
19.0
 40
20.0
 40
20.0
 40
20.0
 40
21.0
 40
21.0
 40
21.0
 40
22.0
 40
22.0
 40
22.0
 40
23.0
 40
23.0
 40
23.0
 40
24.0
 40
24.0
 40
24.0
 40
25.0
 40
25.0
 40
25.0
 40
26.0
 40
26.0
 40
26.0
 40
26.0
 10
76.08474555891642
 20
-102.078366641147
 30
0.0
 10
76.08474555891642
 20
-102.078366641147
 30
0.0
 10
76.78550331881638
 20
-102.078366641147
 30
0.0
 10
76.78550331881638
 20
-102.078366641147
 30
0.0
 10
76.78550331881638
 20
-102.078366641147
 30
0.0
 10
76.72969387579576
 20
-120.1389308032986
 30
0.0
 10
76.72969387579576
 20
-120.1389308032986
 30
0.0
 10
76.72969387579576
 20
-120.1389308032986
 30
0.0
 10
76.92537970413673
 20
-120.9801999697548
 30
0.0
 10
76.14055500193706
 20
-121.0367149697408
 30
0.0
 10
76.14055500193706
 20
-121.0367149697408
 30
0.0
 10
67.67113688467659
 20
-121.0925244141713
 30
0.0
 10
67.67113688467659
 20
-121.0925244141713
 30
0.0
 10
67.67113688467659
 20
-121.0925244141713
 30
0.0
 10
67.53059022159556
 20
-127.824229968044
 30
0.0
 10
69.662426278319
 20
-131.694625522632
 30
0.0
 10
69.662426278319
 20
-131.694625522632
 30
0.0
 10
72.63482775961916
 20
-138.2851141320951
 30
0.0
 10
75.88838945281478
 20
-141.0332530202973
 30
0.0
 10
75.88838945281478
 20
-141.0332530202973
 30
0.0
 10
80.99262515592821
 20
-145.0443716304057
 30
0.0
 10
82.45062039650944
 20
-145.6617327413624
 30
0.0
 10
82.45062039650944
 20
-145.6617327413624
 30
0.0
 10
87.55485831144459
 20
-148.1856107962871
 30
0.0
 10
89.71424410008784
 20
-148.4939385739877
 30
0.0
 10
89.71424410008784
 20
-148.4939385739877
 30
0.0
 10
94.42594397988236
 20
-149.2229185738053
 30
0.0
 10
95.91283171972647
 20
-148.8863332961121
 30
0.0
 10
95.91283171972647
 20
-148.8863332961121
 30
0.0
 10
95.85702227670585
 20
-141.2867944091226
 30
0.0
 10
95.85702227670585
 20
-141.2867944091226
 30
0.0
 10
95.85702227670585
 20
-141.2867944091226
 30
0.0
 10
95.91283171972647
 20
-140.3618110760207
 30
0.0
 10
96.83820553134615
 20
-140.3052960760348
 30
0.0
 10
96.83820553134615
 20
-140.3052960760348
 30
0.0
 10
114.8143499712966
 20
-140.2773913538192
 30
0.0
 10
114.8143499712966
 20
-140.2773913538192
 30
0.0
 10
114.8143499712966
 20
-140.2773913538192
 30
0.0
 10
114.8701565138626
 20
-140.9223044092138
 30
0.0
 10
114.8701565138626
 20
-140.9223044092138
 30
0.0
 10
114.8701565138626
 20
-140.9223044092138
 30
0.0
 10
96.64181170112865
 20
-140.9223044092138
 30
0.0
 10
96.64181170112865
 20
-140.9223044092138
 30
0.0
 10
96.64181170112865
 20
-140.9223044092138
 30
0.0
 10
96.69832669968683
 20
-148.9432010738751
 30
0.0
 10
96.69832669968683
 20
-148.9432010738751
 30
0.0
 10
96.69832669968683
 20
-148.9432010738751
 30
0.0
 10
96.72654892118904
 20
-149.9243466291859
 30
0.0
 10
96.13744532510721
 20
-150.0366710736023
 30
0.0
 10
96.13744532510721
 20
-150.0366710736023
 30
0.0
 10
90.30405553297939
 20
-149.9526041291785
 30
0.0
 10
88.20047469426287
 20
-149.1112996849445
 30
0.0
 10
88.20047469426287
 20
-149.1112996849445
 30
0.0
 10
82.98391664592053
 20
-147.4848882964621
 30
0.0
 10
81.66650124984731
 20
-146.5033899633742
 30
0.0
 10
81.66650124984731
 20
-146.5033899633742
 30
0.0
 10
75.88909500835233
 20
-142.8016221865216
 30
0.0
 10
74.96372364307163
 20
-141.3712141313241
 30
0.0
 10
74.96372364307163
 20
-141.3712141313241
 30
0.0
 10
70.98188568910123
 20
-136.6321385769532
 30
0.0
 10
70.64494764214167
 20
-135.538315799449
 30
0.0
 10
70.64494764214167
 20
-135.538315799449
 30
0.0
 10
67.64429049647259
 20
-129.7050999675736
 30
0.0
 10
67.2522132842531
 20
-126.5640371905811
 30
0.0
 10
67.2522132842531
 20
-126.5640371905811
 30
0.0
 10
66.66310968817128
 20
-121.431861358531
 30
0.0
 10
66.74717663047099
 20
-121.0112091364139
 30
0.0
 10
66.74717663047099
 20
-121.0112091364139
 30
0.0
 10
66.74784690823166
 20
-120.2539716366033
 30
0.0
 10
67.92538382263464
 20
-120.3104866365889
 30
0.0
 10
67.92538382263464
 20
-120.3104866365889
 30
0.0
 10
75.63759973699074
 20
-120.3387441365819
 30
0.0
 10
75.63759973699074
 20
-120.3387441365819
 30
0.0
 10
75.63759973699074
 20
-120.3387441365819
 30
0.0
 10
76.19844583379347
 20
-120.5347474698665
 30
0.0
 10
76.17018833451438
 20
-119.6090585812087
 30
0.0
 10
76.17018833451438
 20
-119.6090585812087
 30
0.0
 10
76.08474555891642
 20
-102.078366641147
 30
0.0
 10
76.08474555891642
 20
-102.078366641147
 30
0.0
  0
SPLINE
  5
42
330
1F
100
AcDbEntity
  8
_U+30EC_U+30A4_U+30E4_U+30FC 1
 62
   179
420
  2234388
370
     9
100
AcDbSpline
210
0.0
220
0.0
230
1.0
 70
    11
 71
     3
 72
    17
 73
    13
 74
     0
 42
0.0000000001
 43
0.0000000001
 12
1.0
 22
0.0
 32
0.0
 13
1.0
 23
0.0
 33
0.0
 40
0.0
 40
0.0
 40
0.0
 40
0.0
 40
1.0
 40
1.0
 40
1.0
 40
2.0
 40
2.0
 40
2.0
 40
3.0
 40
3.0
 40
3.0
 40
4.0
 40
4.0
 40
4.0
 40
4.0
 10
111.3768452140955
 20
-140.9495388536513
 30
0.0
 10
111.3265391042678
 20
-140.9495388536513
 30
0.0
 10
111.2865721944008
 20
-140.9898613536416
 30
0.0
 10
111.2865721944008
 20
-141.0394619091844
 30
0.0
 10
111.2865721944008
 20
-141.0890624647277
 30
0.0
 10
111.3265391042678
 20
-141.1293849647174
 30
0.0
 10
111.3768452140955
 20
-141.1293849647174
 30
0.0
 10
111.4264457683856
 20
-141.1293849647174
 30
0.0
 10
111.4670857673488
 20
-141.0890624647277
 30
0.0
 10
111.4670857673488
 20
-141.0394619091844
 30
0.0
 10
111.4670857673488
 20
-140.9898613536416
 30
0.0
 10
111.4264457683856
 20
-140.9495388536513
 30
0.0
 10
111.3768452140955
 20
-140.9495388536513
 30
0.0
  0
POLYLINE
  5
43
330
1F
100
AcDbEntity
  8
_U+30EC_U+30A4_U+30E4_U+30FC 1
 62
   179
420
  2234388
370
     9
100
AcDb2dPolyline
 66
     1
 10
0.0
 20
0.0
 30
0.0
  0
VERTEX
  5
44
330
43
100
AcDbEntity
  8
_U+30EC_U+30A4_U+30E4_U+30FC 1
 62
   179
420
  2234388
370
     9
100
AcDbVertex
100
AcDb2dVertex
 10
111.3768452140955
 20
-140.9509146869842
 30
0.0
  0
VERTEX
  5
45
330
43
100
AcDbEntity
  8
_U+30EC_U+30A4_U+30E4_U+30FC 1
 62
   179
420
  2234388
370
     9
100
AcDbVertex
100
AcDb2dVertex
 10
111.3768452140955
 20
-149.9512282958456
 30
0.0
  0
SEQEND
  5
46
330
43
100
AcDbEntity
  8
_U+30EC_U+30A4_U+30E4_U+30FC 1
 62
   179
420
  2234388
370
     9
  0
POLYLINE
  5
47
330
1F
100
AcDbEntity
  8
_U+30EC_U+30A4_U+30E4_U+30FC 1
 62
   179
420
  2234388
370
     9
100
AcDb2dPolyline
 66
     1
 10
0.0
 20
0.0
 30
0.0
  0
VERTEX
  5
48
330
47
100
AcDbEntity
  8
_U+30EC_U+30A4_U+30E4_U+30FC 1
 62
   179
420
  2234388
370
     9
100
AcDbVertex
100
AcDb2dVertex
 10
96.56328336979874
 20
-149.9512282958456
 30
0.0
  0
VERTEX
  5
49
330
47
100
AcDbEntity
  8
_U+30EC_U+30A4_U+30E4_U+30FC 1
 62
   179
420
  2234388
370
     9
100
AcDbVertex
100
AcDb2dVertex
 10
112.2766754689167
 20
-149.9512282958456
 30
0.0
  0
SEQEND
  5
4A
330
47
100
AcDbEntity
  8
_U+30EC_U+30A4_U+30E4_U+30FC 1
 62
   179
420
  2234388
370
     9
  0
INSERT
  5
4C
330
1F
100
AcDbEntity
  8
_U+30EC_U+30A4_U+30E4_U+30FC 1
100
AcDbBlockReference
  2
block 2
 10
0.0
 20
0.0
 30
0.0
  0
POLYLINE
  5
54
330
1F
100
AcDbEntity
  8
_U+30EC_U+30A4_U+30E4_U+30FC 1
 62
   179
420
  2234388
370
     9
100
AcDb2dPolyline
 66
     1
 10
0.0
 20
0.0
 30
0.0
  0
VERTEX
  5
55
330
54
100
AcDbEntity
  8
_U+30EC_U+30A4_U+30E4_U+30FC 1
 62
   179
420
  2234388
370
     9
100
AcDbVertex
100
AcDb2dVertex
 10
114.7985073490239
 20
-153.2826499616795
 30
0.0
  0
VERTEX
  5
56
330
54
100
AcDbEntity
  8
_U+30EC_U+30A4_U+30E4_U+30FC 1
 62
   179
420
  2234388
370
     9
100
AcDbVertex
100
AcDb2dVertex
 10
96.79890364156535
 20
-153.2826499616795
 30
0.0
  0
SEQEND
  5
57
330
54
100
AcDbEntity
  8
_U+30EC_U+30A4_U+30E4_U+30FC 1
 62
   179
420
  2234388
370
     9
  0
POLYLINE
  5
58
330
1F
100
AcDbEntity
  8
_U+30EC_U+30A4_U+30E4_U+30FC 1
 62
   179
420
  2234388
370
     9
100
AcDb2dPolyline
 66
     1
 10
0.0
 20
0.0
 30
0.0
  0
VERTEX
  5
59
330
58
100
AcDbEntity
  8
_U+30EC_U+30A4_U+30E4_U+30FC 1
 62
   179
420
  2234388
370
     9
100
AcDbVertex
100
AcDb2dVertex
 10
96.79890364156535
 20
-154.6778860724418
 30
0.0
  0
VERTEX
  5
5A
330
58
100
AcDbEntity
  8
_U+30EC_U+30A4_U+30E4_U+30FC 1
 62
   179
420
  2234388
370
     9
100
AcDbVertex
100
AcDb2dVertex
 10
96.79890364156535
 20
-152.3827844063486
 30
0.0
  0
SEQEND
  5
5B
330
58
100
AcDbEntity
  8
_U+30EC_U+30A4_U+30E4_U+30FC 1
 62
   179
420
  2234388
370
     9
  0
INSERT
  5
5D
330
1F
100
AcDbEntity
  8
_U+30EC_U+30A4_U+30E4_U+30FC 1
100
AcDbBlockReference
  2
block 3
 10
0.0
 20
0.0
 30
0.0
  0
POLYLINE
  5
65
330
1F
100
AcDbEntity
  8
_U+30EC_U+30A4_U+30E4_U+30FC 1
 62
   179
420
  2234388
370
     9
100
AcDb2dPolyline
 66
     1
 10
0.0
 20
0.0
 30
0.0
  0
VERTEX
  5
66
330
65
100
AcDbEntity
  8
_U+30EC_U+30A4_U+30E4_U+30FC 1
 62
   179
420
  2234388
370
     9
100
AcDbVertex
100
AcDb2dVertex
 10
114.7633706832536
 20
-154.6778860724418
 30
0.0
  0
VERTEX
  5
67
330
65
100
AcDbEntity
  8
_U+30EC_U+30A4_U+30E4_U+30FC 1
 62
   179
420
  2234388
370
     9
100
AcDbVertex
100
AcDb2dVertex
 10
114.7633706832536
 20
-141.6275424645933
 30
0.0
  0
SEQEND
  5
68
330
65
100
AcDbEntity
  8
_U+30EC_U+30A4_U+30E4_U+30FC 1
 62
   179
420
  2234388
370
     9
  0
POLYLINE
  5
69
330
1F
100
AcDbEntity
  8
_U+30EC_U+30A4_U+30E4_U+30FC 1
 62
   179
420
  2234388
370
     9
100
AcDb2dPolyline
 66
     1
 10
0.0
 20
0.0
 30
0.0
  0
VERTEX
  5
6A
330
69
100
AcDbEntity
  8
_U+30EC_U+30A4_U+30E4_U+30FC 1
 62
   179
420
  2234388
370
     9
100
AcDbVertex
100
AcDb2dVertex
 10
76.67593054383404
 20
-140.3256160760297
 30
0.0
  0
VERTEX
  5
6B
330
69
100
AcDbEntity
  8
_U+30EC_U+30A4_U+30E4_U+30FC 1
 62
   179
420
  2234388
370
     9
100
AcDbVertex
100
AcDb2dVertex
 10
77.4552166350639
 20
-139.8753657983647
 30
0.0
  0
SEQEND
  5
6C
330
69
100
AcDbEntity
  8
_U+30EC_U+30A4_U+30E4_U+30FC 1
 62
   179
420
  2234388
370
     9
  0
POLYLINE
  5
6D
330
1F
100
AcDbEntity
  8
_U+30EC_U+30A4_U+30E4_U+30FC 1
 62
   179
420
  2234388
370
     9
100
AcDb2dPolyline
 66
     1
 10
0.0
 20
0.0
 30
0.0
  0
VERTEX
  5
6E
330
6D
100
AcDbEntity
  8
_U+30EC_U+30A4_U+30E4_U+30FC 1
 62
   179
420
  2234388
370
     9
100
AcDbVertex
100
AcDb2dVertex
 10
76.67593054383404
 20
-140.3259688538075
 30
0.0
  0
VERTEX
  5
6F
330
6D
100
AcDbEntity
  8
_U+30EC_U+30A4_U+30E4_U+30FC 1
 62
   179
420
  2234388
370
     9
100
AcDbVertex
100
AcDb2dVertex
 10
95.9906897732957
 20
-121.2330710808028
 30
0.0
  0
SEQEND
  5
70
330
6D
100
AcDbEntity
  8
_U+30EC_U+30A4_U+30E4_U+30FC 1
 62
   179
420
  2234388
370
     9
  0
POLYLINE
  5
71
330
1F
100
AcDbEntity
  8
_U+30EC_U+30A4_U+30E4_U+30FC 1
 62
   179
420
  2234388
370
     9
100
AcDb2dPolyline
 66
     1
 10
0.0
 20
0.0
 30
0.0
  0
VERTEX
  5
72
330
71
100
AcDbEntity
  8
_U+30EC_U+30A4_U+30E4_U+30FC 1
 62
   179
420
  2234388
370
     9
100
AcDbVertex
100
AcDb2dVertex
 10
76.67593054383404
 20
-140.3256160760297
 30
0.0
  0
VERTEX
  5
73
330
71
100
AcDbEntity
  8
_U+30EC_U+30A4_U+30E4_U+30FC 1
 62
   179
420
  2234388
370
     9
100
AcDbVertex
100
AcDb2dVertex
 10
77.12586331013308
 20
-139.5460124651136
 30
0.0
  0
SEQEND
  5
74
330
71
100
AcDbEntity
  8
_U+30EC_U+30A4_U+30E4_U+30FC 1
 62
   179
420
  2234388
370
     9
  0
INSERT
  5
76
330
1F
100
AcDbEntity
  8
_U+30EC_U+30A4_U+30E4_U+30FC 1
100
AcDbBlockReference
  2
block 4
 10
0.0
 20
0.0
 30
0.0
  0
POLYLINE
  5
81
330
1F
100
AcDbEntity
  8
_U+30EC_U+30A4_U+30E4_U+30FC 1
 62
   179
420
  2234388
370
    25
100
AcDb2dPolyline
 66
     1
 10
0.0
 20
0.0
 30
0.0
  0
VERTEX
  5
82
330
81
100
AcDbEntity
  8
_U+30EC_U+30A4_U+30E4_U+30FC 1
 62
   179
420
  2234388
370
    25
100
AcDbVertex
100
AcDb2dVertex
 10
76.12817250225295
 20
-120.0031819144437
 30
0.0
  0
VERTEX
  5
83
330
81
100
AcDbEntity
  8
_U+30EC_U+30A4_U+30E4_U+30FC 1
 62
   179
420
  2234388
370
    25
100
AcDbVertex
100
AcDb2dVertex
 10
76.08474555891642
 20
-102.1420783077979
 30
0.0
  0
SEQEND
  5
84
330
81
100
AcDbEntity
  8
_U+30EC_U+30A4_U+30E4_U+30FC 1
 62
   179
420
  2234388
370
    25
  0
POLYLINE
  5
85
330
1F
100
AcDbEntity
  8
_U+30EC_U+30A4_U+30E4_U+30FC 1
 62
   179
420
  2234388
370
    25
100
AcDb2dPolyline
 66
     1
 10
0.0
 20
0.0
 30
0.0
  0
VERTEX
  5
86
330
85
100
AcDbEntity
  8
_U+30EC_U+30A4_U+30E4_U+30FC 1
 62
   179
420
  2234388
370
    25
100
AcDbVertex
100
AcDb2dVertex
 10
76.75241276410505
 20
-102.0755796967034
 30
0.0
  0
VERTEX
  5
87
330
85
100
AcDbEntity
  8
_U+30EC_U+30A4_U+30E4_U+30FC 1
 62
   179
420
  2234388
370
    25
100
AcDbVertex
100
AcDb2dVertex
 10
76.10887555830082
 20
-102.0755796967034
 30
0.0
  0
SEQEND
  5
88
330
85
100
AcDbEntity
  8
_U+30EC_U+30A4_U+30E4_U+30FC 1
 62
   179
420
  2234388
370
    25
  0
POLYLINE
  5
89
330
1F
100
AcDbEntity
  8
_U+30EC_U+30A4_U+30E4_U+30FC 1
 62
   179
420
  2234388
370
    25
100
AcDb2dPolyline
 66
     1
 10
0.0
 20
0.0
 30
0.0
  0
VERTEX
  5
8A
330
89
100
AcDbEntity
  8
_U+30EC_U+30A4_U+30E4_U+30FC 1
 62
   179
420
  2234388
370
    25
100
AcDbVertex
100
AcDb2dVertex
 10
76.75654026399974
 20
-102.1472641411299
 30
0.0
  0
VERTEX
  5
8B
330
89
100
AcDbEntity
  8
_U+30EC_U+30A4_U+30E4_U+30FC 1
 62
   179
420
  2234388
370
    25
100
AcDbVertex
100
AcDb2dVertex
 10
76.75654026399974
 20
-120.0572627477635
 30
0.0
  0
SEQEND
  5
8C
330
89
100
AcDbEntity
  8
_U+30EC_U+30A4_U+30E4_U+30FC 1
 62
   179
420
  2234388
370
    25
  0
SPLINE
  5
8D
330
1F
100
AcDbEntity
  8
_U+30EC_U+30A4_U+30E4_U+30FC 1
 62
   179
420
  2234388
370
    25
100
AcDbSpline
210
0.0
220
0.0
230
1.0
 70
     8
 71
     3
 72
    14
 73
    10
 74
     0
 42
0.0000000001
 43
0.0000000001
 12
1.0
 22
0.0
 32
0.0
 13
1.0
 23
0.0
 33
0.0
 40
0.0
 40
0.0
 40
0.0
 40
0.0
 40
1.0
 40
1.0
 40
1.0
 40
2.0
 40
2.0
 40
2.0
 40
3.0
 40
3.0
 40
3.0
 40
3.0
 10
76.75862165283553
 20
-120.0417758033228
 30
0.0
 10
76.75862165283553
 20
-120.0417758033228
 30
0.0
 10
76.75862165283553
 20
-120.5327013587556
 30
0.0
 10
76.75862165283553
 20
-120.5327013587556
 30
0.0
 10
76.75862165283553
 20
-120.5327013587556
 30
0.0
 10
76.78412748551816
 20
-120.9457688586523
 30
0.0
 10
76.2680488875733
 20
-121.0749560808424
 30
0.0
 10
76.2680488875733
 20
-121.0749560808424
 30
0.0
 10
75.69958279096497
 20
-121.0749560808424
 30
0.0
 10
75.69958279096497
 20
-121.0749560808424
 30
0.0
  0
POLYLINE
  5
8E
330
1F
100
AcDbEntity
  8
_U+30EC_U+30A4_U+30E4_U+30FC 1
 62
   179
420
  2234388
370
    25
100
AcDb2dPolyline
 66
     1
 10
0.0
 20
0.0
 30
0.0
  0
VERTEX
  5
8F
330
8E
100
AcDbEntity
  8
_U+30EC_U+30A4_U+30E4_U+30FC 1
 62
   179
420
  2234388
370
    25
100
AcDbVertex
100
AcDb2dVertex
 10
75.76573053661421
 20
-121.0732274697317
 30
0.0
  0
VERTEX
  5
90
330
8E
100
AcDbEntity
  8
_U+30EC_U+30A4_U+30E4_U+30FC 1
 62
   179
420
  2234388
370
    25
100
AcDbVertex
100
AcDb2dVertex
 10
67.6663391070212
 20
-121.0732274697317
 30
0.0
  0
SEQEND
  5
91
330
8E
100
AcDbEntity
  8
_U+30EC_U+30A4_U+30E4_U+30FC 1
 62
   179
420
  2234388
370
    25
  0
POLYLINE
  5
92
330
1F
100
AcDbEntity
  8
_U+30EC_U+30A4_U+30E4_U+30FC 1
 62
   179
420
  2234388
370
    25
100
AcDb2dPolyline
 66
     1
 10
0.0
 20
0.0
 30
0.0
  0
VERTEX
  5
93
330
92
100
AcDbEntity
  8
_U+30EC_U+30A4_U+30E4_U+30FC 1
 62
   179
420
  2234388
370
    25
100
AcDbVertex
100
AcDb2dVertex
 10
95.90662283099599
 20
-148.866718851672
 30
0.0
  0
VERTEX
  5
94
330
92
100
AcDbEntity
  8
_U+30EC_U+30A4_U+30E4_U+30FC 1
 62
   179
420
  2234388
370
    25
100
AcDbVertex
100
AcDb2dVertex
 10
95.90662283099599
 20
-141.2165210758072
 30
0.0
  0
SEQEND
  5
95
330
92
100
AcDbEntity
  8
_U+30EC_U+30A4_U+30E4_U+30FC 1
 62
   179
420
  2234388
370
    25
  0
SPLINE
  5
96
330
1F
100
AcDbEntity
  8
_U+30EC_U+30A4_U+30E4_U+30FC 1
 62
   179
420
  2234388
370
    25
100
AcDbSpline
210
0.0
220
0.0
230
1.0
 70
     8
 71
     3
 72
     8
 73
     4
 74
     0
 42
0.0000000001
 43
0.0000000001
 12
1.0
 22
0.0
 32
0.0
 13
1.0
 23
0.0
 33
0.0
 40
0.0
 40
0.0
 40
0.0
 40
0.0
 40
1.0
 40
1.0
 40
1.0
 40
1.0
 10
95.90662283099599
 20
-141.3574205202165
 30
0.0
 10
95.90662283099599
 20
-141.3574205202165
 30
0.0
 10
95.6868422810475
 20
-140.3060016315903
 30
0.0
 10
96.9022675278172
 20
-140.3060016315903
 30
0.0
  0
SPLINE
  5
97
330
1F
100
AcDbEntity
  8
_U+30EC_U+30A4_U+30E4_U+30FC 1
 62
   179
420
  2234388
370
    25
100
AcDbSpline
210
0.0
220
0.0
230
1.0
 70
     8
 71
     3
 72
    11
 73
     7
 74
     0
 42
0.0000000001
 43
0.0000000001
 12
1.0
 22
0.0
 32
0.0
 13
1.0
 23
0.0
 33
0.0
 40
0.0
 40
0.0
 40
0.0
 40
0.0
 40
1.0
 40
1.0
 40
1.0
 40
2.0
 40
2.0
 40
2.0
 40
2.0
 10
67.6608004960514
 20
-121.1076938586121
 30
0.0
 10
67.6608004960514
 20
-121.1076938586121
 30
0.0
 10
66.78919246273242
 20
-131.897190522581
 30
0.0
 10
75.83603723192817
 20
-140.943682742542
 30
0.0
 10
75.83603723192817
 20
-140.943682742542
 30
0.0
 10
85.4051342100224
 20
-149.9705252402855
 30
0.0
 10
95.8659828320328
 20
-148.8860157961118
 30
0.0
  0
POLYLINE
  5
98
330
1F
100
AcDbEntity
  8
_U+30EC_U+30A4_U+30E4_U+30FC 1
 62
   179
420
  2234388
370
    25
100
AcDb2dPolyline
 66
     1
 10
0.0
 20
0.0
 30
0.0
  0
VERTEX
  5
99
330
98
100
AcDbEntity
  8
_U+30EC_U+30A4_U+30E4_U+30FC 1
 62
   179
420
  2234388
370
    25
100
AcDbVertex
100
AcDb2dVertex
 10
96.9022675278172
 20
-140.3039202427019
 30
0.0
  0
VERTEX
  5
9A
330
98
100
AcDbEntity
  8
_U+30EC_U+30A4_U+30E4_U+30FC 1
 62
   179
420
  2234388
370
    25
100
AcDbVertex
100
AcDb2dVertex
 10
114.8357254036299
 20
-140.3039202427019
 30
0.0
  0
SEQEND
  5
9B
330
98
100
AcDbEntity
  8
_U+30EC_U+30A4_U+30E4_U+30FC 1
 62
   179
420
  2234388
370
    25
  0
POLYLINE
  5
9C
330
1F
100
AcDbEntity
  8
_U+30EC_U+30A4_U+30E4_U+30FC 1
 62
   179
420
  2234388
370
    25
100
AcDb2dPolyline
 66
     1
 10
0.0
 20
0.0
 30
0.0
  0
VERTEX
  5
9D
330
9C
100
AcDbEntity
  8
_U+30EC_U+30A4_U+30E4_U+30FC 1
 62
   179
420
  2234388
370
    25
100
AcDbVertex
100
AcDb2dVertex
 10
114.8970381798435
 20
-140.3397624649151
 30
0.0
  0
VERTEX
  5
9E
330
9C
100
AcDbEntity
  8
_U+30EC_U+30A4_U+30E4_U+30FC 1
 62
   179
420
  2234388
370
    25
100
AcDbVertex
100
AcDb2dVertex
 10
114.8970381798435
 20
-140.9136966314381
 30
0.0
  0
SEQEND
  5
9F
330
9C
100
AcDbEntity
  8
_U+30EC_U+30A4_U+30E4_U+30FC 1
 62
   179
420
  2234388
370
    25
  0
POLYLINE
  5
A0
330
1F
100
AcDbEntity
  8
_U+30EC_U+30A4_U+30E4_U+30FC 1
 62
   179
420
  2234388
370
    25
100
AcDb2dPolyline
 66
     1
 10
0.0
 20
0.0
 30
0.0
  0
VERTEX
  5
A1
330
A0
100
AcDbEntity
  8
_U+30EC_U+30A4_U+30E4_U+30FC 1
 62
   179
420
  2234388
370
    25
100
AcDbVertex
100
AcDb2dVertex
 10
114.7909226269951
 20
-140.9209285758809
 30
0.0
  0
VERTEX
  5
A2
330
A0
100
AcDbEntity
  8
_U+30EC_U+30A4_U+30E4_U+30FC 1
 62
   179
420
  2234388
370
    25
100
AcDbVertex
100
AcDb2dVertex
 10
96.71346086596739
 20
-140.9209285758809
 30
0.0
  0
SEQEND
  5
A3
330
A0
100
AcDbEntity
  8
_U+30EC_U+30A4_U+30E4_U+30FC 1
 62
   179
420
  2234388
370
    25
  0
POLYLINE
  5
A4
330
1F
100
AcDbEntity
  8
_U+30EC_U+30A4_U+30E4_U+30FC 1
 62
   179
420
  2234388
370
    25
100
AcDb2dPolyline
 66
     1
 10
0.0
 20
0.0
 30
0.0
  0
VERTEX
  5
A5
330
A4
100
AcDbEntity
  8
_U+30EC_U+30A4_U+30E4_U+30FC 1
 62
   179
420
  2234388
370
    25
100
AcDbVertex
100
AcDb2dVertex
 10
96.66798781157195
 20
-140.9136966314381
 30
0.0
  0
VERTEX
  5
A6
330
A4
100
AcDbEntity
  8
_U+30EC_U+30A4_U+30E4_U+30FC 1
 62
   179
420
  2234388
370
    25
100
AcDbVertex
100
AcDb2dVertex
 10
96.70037281074573
 20
-149.013827184969
 30
0.0
  0
SEQEND
  5
A7
330
A4
100
AcDbEntity
  8
_U+30EC_U+30A4_U+30E4_U+30FC 1
 62
   179
420
  2234388
370
    25
  0
SPLINE
  5
A8
330
1F
100
AcDbEntity
  8
_U+30EC_U+30A4_U+30E4_U+30FC 1
 62
   179
420
  2234388
370
    25
100
AcDbSpline
210
0.0
220
0.0
230
1.0
 70
     8
 71
     3
 72
    11
 73
     7
 74
     0
 42
0.0000000001
 43
0.0000000001
 12
1.0
 22
0.0
 32
0.0
 13
1.0
 23
0.0
 33
0.0
 40
0.0
 40
0.0
 40
0.0
 40
0.0
 40
1.0
 40
1.0
 40
1.0
 40
2.0
 40
2.0
 40
2.0
 40
2.0
 10
96.70037281074573
 20
-148.959711073871
 30
0.0
 10
96.70037281074573
 20
-148.959711073871
 30
0.0
 10
96.70037281074573
 20
-149.3421221848868
 30
0.0
 10
96.70037281074573
 20
-149.3421221848868
 30
0.0
 10
96.70037281074573
 20
-149.3421221848868
 30
0.0
 10
96.68453308892762
 20
-150.006014684721
 30
0.0
 10
96.01824171703724
 20
-150.039422740268
 30
0.0
  0
SPLINE
  5
A9
330
1F
100
AcDbEntity
  8
_U+30EC_U+30A4_U+30E4_U+30FC 1
 62
   179
420
  2234388
370
    25
100
AcDbSpline
210
0.0
220
0.0
230
1.0
 70
     8
 71
     3
 72
    11
 73
     7
 74
     0
 42
0.0000000001
 43
0.0000000001
 12
1.0
 22
0.0
 32
0.0
 13
1.0
 23
0.0
 33
0.0
 40
0.0
 40
0.0
 40
0.0
 40
0.0
 40
1.0
 40
1.0
 40
1.0
 40
2.0
 40
2.0
 40
2.0
 40
2.0
 10
96.07405116005786
 20
-150.0290863513817
 30
0.0
 10
96.07405116005786
 20
-150.0290863513817
 30
0.0
 10
84.52869312127116
 20
-150.8813974622794
 30
0.0
 10
75.46258668590013
 20
-141.8156435756574
 30
0.0
 10
75.46258668590013
 20
-141.8156435756574
 30
0.0
 10
66.78506664997036
 20
-133.975298577617
 30
0.0
 10
66.78506664997036
 20
-121.2671846919054
 30
0.0
  0
SPLINE
  5
AA
330
1F
100
AcDbEntity
  8
_U+30EC_U+30A4_U+30E4_U+30FC 1
 62
   179
420
  2234388
370
    25
100
AcDbSpline
210
0.0
220
0.0
230
1.0
 70
     8
 71
     3
 72
     8
 73
     4
 74
     0
 42
0.0000000001
 43
0.0000000001
 12
1.0
 22
0.0
 32
0.0
 13
1.0
 23
0.0
 33
0.0
 40
0.0
 40
0.0
 40
0.0
 40
0.0
 40
1.0
 40
1.0
 40
1.0
 40
1.0
 10
66.78919246273242
 20
-121.2816485807907
 30
0.0
 10
66.78919246273242
 20
-121.2816485807907
 30
0.0
 10
66.55974580191942
 20
-120.3208230254753
 30
0.0
 10
67.7731249376302
 20
-120.3208230254753
 30
0.0
  0
POLYLINE
  5
AB
330
1F
100
AcDbEntity
  8
_U+30EC_U+30A4_U+30E4_U+30FC 1
 62
   179
420
  2234388
370
    25
100
AcDb2dPolyline
 66
     1
 10
0.0
 20
0.0
 30
0.0
  0
VERTEX
  5
AC
330
AB
100
AcDbEntity
  8
_U+30EC_U+30A4_U+30E4_U+30FC 1
 62
   179
420
  2234388
370
    25
100
AcDbVertex
100
AcDb2dVertex
 10
67.77862827082313
 20
-120.313238303255
 30
0.0
  0
VERTEX
  5
AD
330
AB
100
AcDbEntity
  8
_U+30EC_U+30A4_U+30E4_U+30FC 1
 62
   179
420
  2234388
370
    25
100
AcDbVertex
100
AcDb2dVertex
 10
75.42882775892068
 20
-120.3325352476945
 30
0.0
  0
SEQEND
  5
AE
330
AB
100
AcDbEntity
  8
_U+30EC_U+30A4_U+30E4_U+30FC 1
 62
   179
420
  2234388
370
    25
  0
SPLINE
  5
AF
330
1F
100
AcDbEntity
  8
_U+30EC_U+30A4_U+30E4_U+30FC 1
 62
   179
420
  2234388
370
    25
100
AcDbSpline
210
0.0
220
0.0
230
1.0
 70
     8
 71
     3
 72
     8
 73
     4
 74
     0
 42
0.0000000001
 43
0.0000000001
 12
1.0
 22
0.0
 32
0.0
 13
1.0
 23
0.0
 33
0.0
 40
0.0
 40
0.0
 40
0.0
 40
0.0
 40
1.0
 40
1.0
 40
1.0
 40
1.0
 10
75.51356307348851
 20
-120.3325352476945
 30
0.0
 10
75.51356307348851
 20
-120.3325352476945
 30
0.0
 10
76.12817250225295
 20
-120.4496574698876
 30
0.0
 10
76.13300555768521
 20
-119.9742541366731
 30
0.0
  0
SPLINE
  5
B0
330
1F
100
AcDbEntity
  8
_U+30EC_U+30A4_U+30E4_U+30FC 1
 62
   179
420
  2234388
370
     9
100
AcDbSpline
210
0.0
220
0.0
230
1.0
 70
    11
 71
     3
 72
    17
 73
    13
 74
     0
 42
0.0000000001
 43
0.0000000001
 12
1.0
 22
0.0
 32
0.0
 13
1.0
 23
0.0
 33
0.0
 40
0.0
 40
0.0
 40
0.0
 40
0.0
 40
1.0
 40
1.0
 40
1.0
 40
2.0
 40
2.0
 40
2.0
 40
3.0
 40
3.0
 40
3.0
 40
4.0
 40
4.0
 40
4.0
 40
4.0
 10
111.3851002138849
 20
-150.0466546847109
 30
0.0
 10
111.4402393791449
 20
-150.0466546847109
 30
0.0
 10
111.4850068780027
 20
-150.0018519069441
 30
0.0
 10
111.4850068780027
 20
-149.9463952402915
 30
0.0
 10
111.4850068780027
 20
-149.8912913514159
 30
0.0
 10
111.4402393791449
 20
-149.8464885736492
 30
0.0
 10
111.3851002138849
 20
-149.8464885736492
 30
0.0
 10
111.3299963264018
 20
-149.8464885736492
 30
0.0
 10
111.2851935497671
 20
-149.8912913514159
 30
0.0
 10
111.2851935497671
 20
-149.9463952402915
 30
0.0
 10
111.2851935497671
 20
-150.0018519069441
 30
0.0
 10
111.3299963264018
 20
-150.0466546847109
 30
0.0
 10
111.3851002138849
 20
-150.0466546847109
 30
0.0
  0
SPLINE
  5
B1
330
1F
100
AcDbEntity
  8
_U+30EC_U+30A4_U+30E4_U+30FC 1
 62
   179
420
  2234388
370
     9
100
AcDbSpline
210
0.0
220
0.0
230
1.0
 70
    11
 71
     3
 72
    17
 73
    13
 74
     0
 42
0.0000000001
 43
0.0000000001
 12
1.0
 22
0.0
 32
0.0
 13
1.0
 23
0.0
 33
0.0
 40
0.0
 40
0.0
 40
0.0
 40
0.0
 40
1.0
 40
1.0
 40
1.0
 40
2.0
 40
2.0
 40
2.0
 40
3.0
 40
3.0
 40
3.0
 40
4.0
 40
4.0
 40
4.0
 40
4.0
 10
114.7860895715629
 20
-153.3835796838763
 30
0.0
 10
114.8412287368228
 20
-153.3835796838763
 30
0.0
 10
114.8859962356807
 20
-153.3387769061095
 30
0.0
 10
114.8859962356807
 20
-153.2833202394569
 30
0.0
 10
114.8859962356807
 20
-153.2282163505819
 30
0.0
 10
114.8412287368228
 20
-153.1834135728152
 30
0.0
 10
114.7860895715629
 20
-153.1834135728152
 30
0.0
 10
114.7309856840798
 20
-153.1834135728152
 30
0.0
 10
114.686182907445
 20
-153.2282163505819
 30
0.0
 10
114.686182907445
 20
-153.2833202394569
 30
0.0
 10
114.686182907445
 20
-153.3387769061095
 30
0.0
 10
114.7309856840798
 20
-153.3835796838763
 30
0.0
 10
114.7860895715629
 20
-153.3835796838763
 30
0.0
  0
SPLINE
  5
B2
330
1F
100
AcDbEntity
  8
_U+30EC_U+30A4_U+30E4_U+30FC 1
 62
   179
420
  2234388
370
     9
100
AcDbSpline
210
0.0
220
0.0
230
1.0
 70
    11
 71
     3
 72
    17
 73
    13
 74
     0
 42
0.0000000001
 43
0.0000000001
 12
1.0
 22
0.0
 32
0.0
 13
1.0
 23
0.0
 33
0.0
 40
0.0
 40
0.0
 40
0.0
 40
0.0
 40
1.0
 40
1.0
 40
1.0
 40
2.0
 40
2.0
 40
2.0
 40
3.0
 40
3.0
 40
3.0
 40
4.0
 40
4.0
 40
4.0
 40
4.0
 10
96.7782333091389
 20
-153.3835796838763
 30
0.0
 10
96.83337002957492
 20
-153.3835796838763
 30
0.0
 10
96.8781375284328
 20
-153.3387769061095
 30
0.0
 10
96.8781375284328
 20
-153.2833202394569
 30
0.0
 10
96.8781375284328
 20
-153.2282163505819
 30
0.0
 10
96.83337002957492
 20
-153.1834135728152
 30
0.0
 10
96.7782333091389
 20
-153.1834135728152
 30
0.0
 10
96.72312697683189
 20
-153.1834135728152
 30
0.0
 10
96.67832420019714
 20
-153.2282163505819
 30
0.0
 10
96.67832420019714
 20
-153.2833202394569
 30
0.0
 10
96.67832420019714
 20
-153.3387769061095
 30
0.0
 10
96.72312697683189
 20
-153.3835796838763
 30
0.0
 10
96.7782333091389
 20
-153.3835796838763
 30
0.0
  0
ENDSEC
  0
SECTION
  2
OBJECTS
  0
DICTIONARY
  5
C
330
0
100
AcDbDictionary
281
     1
  3
ACAD_GROUP
350
D
  3
ACAD_LAYOUT
350
1A
  3
ACAD_MATERIAL
350
3B
  3
ACAD_MLEADERSTYLE
350
B4
  3
ACAD_MLINESTYLE
350
17
  3
ACAD_PLOTSETTINGS
350
19
  3
ACAD_PLOTSTYLENAME
350
E
  3
ACAD_TABLESTYLE
350
B3
  3
ACAD_VISUALSTYLE
350
2A
  0
SUN
  5
3F
330
29
100
AcDbSun
 90
        1
290
     0
 63
     7
421
 16777215
 40
1.0
291
     1
 91
  2455826
 92
 54000000
292
     0
 70
     2
 71
   256
280
     1
  0
DICTIONARY
  5
D
102
{ACAD_REACTORS
330
C
102
}
330
C
100
AcDbDictionary
281
     1
  0
DICTIONARY
  5
1A
102
{ACAD_REACTORS
330
C
102
}
330
C
100
AcDbDictionary
281
     1
  3
Layout1
350
1E
  3
Layout2
350
26
  3
Model
350
22
  0
DICTIONARY
  5
3B
102
{ACAD_REACTORS
330
C
102
}
330
C
100
AcDbDictionary
281
     1
  3
ByBlock
350
3D
  3
ByLayer
350
3C
  3
Global
350
3E
  0
DICTIONARY
  5
B4
102
{ACAD_REACTORS
330
C
102
}
330
C
100
AcDbDictionary
281
     1
  0
DICTIONARY
  5
17
102
{ACAD_REACTORS
330
C
102
}
330
C
100
AcDbDictionary
281
     1
  3
Standard
350
18
  0
DICTIONARY
  5
19
102
{ACAD_REACTORS
330
C
102
}
330
C
100
AcDbDictionary
281
     1
  0
ACDBDICTIONARYWDFLT
  5
E
102
{ACAD_REACTORS
330
C
102
}
330
C
100
AcDbDictionary
281
     1
  3
Normal
350
F
100
AcDbDictionaryWithDefault
340
F
  0
DICTIONARY
  5
B3
102
{ACAD_REACTORS
330
C
102
}
330
C
100
AcDbDictionary
281
     1
  0
DICTIONARY
  5
2A
102
{ACAD_REACTORS
330
C
102
}
330
C
100
AcDbDictionary
281
     1
  3
2dWireframe
350
2F
  3
3D Hidden
350
31
  3
3dWireframe
350
30
  3
Basic
350
32
  3
Brighten
350
36
  3
ColorChange
350
3A
  3
Conceptual
350
34
  3
Dim
350
35
  3
Facepattern
350
39
  3
Flat
350
2B
  3
FlatWithEdges
350
2C
  3
Gouraud
350
2D
  3
GouraudWithEdges
350
2E
  3
Linepattern
350
38
  3
Realistic
350
33
  3
Thicken
350
37
  0
LAYOUT
  5
1E
102
{ACAD_REACTORS
330
1A
102
}
330
1A
100
AcDbPlotSettings
  1

  2
none_device
  4

  6

 40
0.0
 41
0.0
 42
0.0
 43
0.0
 44
0.0
 45
0.0
 46
0.0
 47
0.0
 48
0.0
 49
0.0
140
0.0
141
0.0
142
1.0
143
1.0
 70
   688
 72
     0
 73
     0
 74
     5
  7

 75
    16
 76
     0
 77
     2
 78
   300
147
1.0
148
0.0
149
0.0
100
AcDbLayout
  1
Layout1
 70
     1
 71
     1
 10
0.0
 20
0.0
 11
12.0
 21
9.0
 12
0.0
 22
0.0
 32
0.0
 14
1.000000000000000E+20
 24
1.000000000000000E+20
 34
1.000000000000000E+20
 15
-1.000000000000000E+20
 25
-1.000000000000000E+20
 35
-1.000000000000000E+20
146
0.0
 13
0.0
 23
0.0
 33
0.0
 16
1.0
 26
0.0
 36
0.0
 17
0.0
 27
1.0
 37
0.0
 76
     0
330
1B
  0
LAYOUT
  5
26
102
{ACAD_REACTORS
330
1A
102
}
330
1A
100
AcDbPlotSettings
  1

  2
none_device
  4

  6

 40
0.0
 41
0.0
 42
0.0
 43
0.0
 44
0.0
 45
0.0
 46
0.0
 47
0.0
 48
0.0
 49
0.0
140
0.0
141
0.0
142
1.0
143
1.0
 70
   688
 72
     0
 73
     0
 74
     5
  7

 75
    16
 76
     0
 77
     2
 78
   300
147
1.0
148
0.0
149
0.0
100
AcDbLayout
  1
Layout2
 70
     1
 71
     2
 10
0.0
 20
0.0
 11
0.0
 21
0.0
 12
0.0
 22
0.0
 32
0.0
 14
0.0
 24
0.0
 34
0.0
 15
0.0
 25
0.0
 35
0.0
146
0.0
 13
0.0
 23
0.0
 33
0.0
 16
1.0
 26
0.0
 36
0.0
 17
0.0
 27
1.0
 37
0.0
 76
     0
330
23
  0
LAYOUT
  5
22
102
{ACAD_REACTORS
330
1A
102
}
330
1A
100
AcDbPlotSettings
  1

  2
none_device
  4

  6

 40
0.0
 41
0.0
 42
0.0
 43
0.0
 44
0.0
 45
0.0
 46
0.0
 47
0.0
 48
0.0
 49
0.0
140
0.0
141
0.0
142
1.0
143
1.0
 70
  1712
 72
     0
 73
     0
 74
     0
  7

 75
     0
 76
     0
 77
     2
 78
   300
147
1.0
148
0.0
149
0.0
100
AcDbLayout
  1
Model
 70
     1
 71
     0
 10
0.0
 20
0.0
 11
12.0
 21
9.0
 12
0.0
 22
0.0
 32
0.0
 14
1.000000000000000E+20
 24
1.000000000000000E+20
 34
1.000000000000000E+20
 15
-1.000000000000000E+20
 25
-1.000000000000000E+20
 35
-1.000000000000000E+20
146
0.0
 13
0.0
 23
0.0
 33
0.0
 16
1.0
 26
0.0
 36
0.0
 17
0.0
 27
1.0
 37
0.0
 76
     0
330
1F
331
29
  0
MATERIAL
  5
3D
102
{ACAD_REACTORS
330
3B
102
}
330
3B
100
AcDbMaterial
  1
ByBlock
 72
     1
 94
      127
  0
MATERIAL
  5
3C
102
{ACAD_REACTORS
330
3B
102
}
330
3B
100
AcDbMaterial
  1
ByLayer
 72
     1
 94
      127
  0
MATERIAL
  5
3E
102
{ACAD_REACTORS
330
3B
102
}
330
3B
100
AcDbMaterial
  1
Global
 72
     1
 94
      127
  0
MLINESTYLE
  5
18
102
{ACAD_REACTORS
330
17
102
}
330
17
100
AcDbMlineStyle
  2
Standard
 70
     0
  3

 62
   256
 51
90.0
 52
90.0
 71
     2
 49
0.5
 62
   256
  6
BYLAYER
 49
-0.5
 62
   256
  6
BYLAYER
  0
ACDBPLACEHOLDER
  5
F
102
{ACAD_REACTORS
330
E
102
}
330
E
  0
VISUALSTYLE
  5
2F
102
{ACAD_REACTORS
330
2A
102
}
330
2A
100
AcDbVisualStyle
  2
2dWireframe
 70
     4
177
     2
291
     0
 71
     0
176
     1
 72
     2
176
     1
 73
     0
176
     1
 90
        0
176
     1
 40
-0.6
176
     1
 41
-30.0
176
     1
 62
     5
 63
     7
421
 16777215
176
     1
 74
     1
176
     1
 91
        4
176
     1
 64
     7
176
     1
 65
   257
176
     1
 75
     1
176
     1
175
     1
176
     1
 42
1.0
176
     1
 92
        0
176
     1
 66
   257
176
     1
 43
1.0
176
     1
 76
     1
176
     1
 77
     6
176
     1
 78
     2
176
     1
 67
     7
176
     1
 79
     5
176
     1
170
     0
176
     1
171
     0
176
     1
290
     0
176
     1
 93
        1
176
     1
 44
0.0
176
     1
173
     0
176
     1
  0
VISUALSTYLE
  5
31
102
{ACAD_REACTORS
330
2A
102
}
330
2A
100
AcDbVisualStyle
  2
3D Hidden
 70
     6
177
     2
291
     0
 71
     1
176
     1
 72
     2
176
     1
 73
     2
176
     1
 90
        0
176
     1
 40
-0.6
176
     1
 41
-30.0
176
     1
 62
     5
 63
     7
421
 16777215
176
     1
 74
     2
176
     1
 91
        2
176
     1
 64
     7
176
     1
 65
   257
176
     1
 75
     2
176
     1
175
     1
176
     1
 42
40.0
176
     1
 92
        0
176
     1
 66
   257
176
     1
 43
1.0
176
     1
 76
     1
176
     1
 77
     6
176
     1
 78
     2
176
     1
 67
     7
176
     1
 79
     3
176
     1
170
     0
176
     1
171
     0
176
     1
290
     0
176
     1
 93
        1
176
     1
 44
0.0
176
     1
173
     0
176
     1
  0
VISUALSTYLE
  5
30
102
{ACAD_REACTORS
330
2A
102
}
330
2A
100
AcDbVisualStyle
  2
3dWireframe
 70
     5
177
     2
291
     0
 71
     0
176
     1
 72
     2
176
     1
 73
     0
176
     1
 90
        0
176
     1
 40
-0.6
176
     1
 41
-30.0
176
     1
 62
     5
 63
     7
421
 16777215
176
     1
 74
     1
176
     1
 91
        4
176
     1
 64
     7
176
     1
 65
   257
176
     1
 75
     1
176
     1
175
     1
176
     1
 42
1.0
176
     1
 92
        0
176
     1
 66
   257
176
     1
 43
1.0
176
     1
 76
     1
176
     1
 77
     6
176
     1
 78
     2
176
     1
 67
     7
176
     1
 79
     5
176
     1
170
     0
176
     1
171
     0
176
     1
290
     0
176
     1
 93
        1
176
     1
 44
0.0
176
     1
173
     0
176
     1
  0
VISUALSTYLE
  5
32
102
{ACAD_REACTORS
330
2A
102
}
330
2A
100
AcDbVisualStyle
  2
Basic
 70
     7
177
     2
291
     1
 71
     1
176
     1
 72
     0
176
     1
 73
     1
176
     1
 90
        0
176
     1
 40
-0.6
176
     1
 41
-30.0
176
     1
 62
     5
 63
     7
421
 16777215
176
     1
 74
     0
176
     1
 91
        4
176
     1
 64
     7
176
     1
 65
   257
176
     1
 75
     1
176
     1
175
     1
176
     1
 42
1.0
176
     1
 92
        8
176
     1
 66
     7
176
     1
 43
1.0
176
     1
 76
     1
176
     1
 77
     6
176
     1
 78
     2
176
     1
 67
     7
176
     1
 79
     5
176
     1
170
     0
176
     1
171
     0
176
     1
290
     0
176
     1
 93
        1
176
     1
 44
0.0
176
     1
173
     0
176
     1
  0
VISUALSTYLE
  5
36
102
{ACAD_REACTORS
330
2A
102
}
330
2A
100
AcDbVisualStyle
  2
Brighten
 70
    12
177
     2
291
     1
 71
     2
176
     1
 72
     2
176
     1
 73
     0
176
     1
 90
        0
176
     1
 40
-0.6
176
     1
 41
-30.0
176
     1
 62
     5
 63
     7
421
 16777215
176
     1
 74
     1
176
     1
 91
        4
176
     1
 64
     7
176
     1
 65
   257
176
     1
 75
     1
176
     1
175
     1
176
     1
 42
1.0
176
     1
 92
        8
176
     1
 66
     7
176
     1
 43
1.0
176
     1
 76
     1
176
     1
 77
     6
176
     1
 78
     2
176
     1
 67
     7
176
     1
 79
     5
176
     1
170
     0
176
     1
171
     0
176
     1
290
     0
176
     1
 93
        1
176
     1
 44
50.0
176
     1
173
     0
176
     1
  0
VISUALSTYLE
  5
3A
102
{ACAD_REACTORS
330
2A
102
}
330
2A
100
AcDbVisualStyle
  2
ColorChange
 70
    16
177
     2
291
     1
 71
     2
176
     1
 72
     2
176
     1
 73
     3
176
     1
 90
        0
176
     1
 40
-0.6
176
     1
 41
-30.0
176
     1
 62
     5
 63
     8
421
  8421504
176
     1
 74
     1
176
     1
 91
        4
176
     1
 64
     7
176
     1
 65
   257
176
     1
 75
     1
176
     1
175
     1
176
     1
 42
1.0
176
     1
 92
        8
176
     1
 66
     8
424
  8421504
176
     1
 43
1.0
176
     1
 76
     1
176
     1
 77
     6
176
     1
 78
     2
176
     1
 67
     7
176
     1
 79
     5
176
     1
170
     0
176
     1
171
     0
176
     1
290
     0
176
     1
 93
        1
176
     1
 44
0.0
176
     1
173
     0
176
     1
  0
VISUALSTYLE
  5
34
102
{ACAD_REACTORS
330
2A
102
}
330
2A
100
AcDbVisualStyle
  2
Conceptual
 70
     9
177
     2
291
     0
 71
     3
176
     1
 72
     2
176
     1
 73
     0
176
     1
 90
        0
176
     1
 40
-0.6
176
     1
 41
-30.0
176
     1
 62
     5
 63
     7
421
 16777215
176
     1
 74
     2
176
     1
 91
        2
176
     1
 64
     7
176
     1
 65
   257
176
     1
 75
     1
176
     1
175
     1
176
     1
 42
40.0
176
     1
 92
        8
176
     1
 66
     7
176
     1
 43
1.0
176
     1
 76
     1
176
     1
 77
     6
176
     1
 78
     2
176
     1
 67
     7
176
     1
 79
     3
176
     1
170
     0
176
     1
171
     0
176
     1
290
     0
176
     1
 93
        1
176
     1
 44
0.0
176
     1
173
     0
176
     1
  0
VISUALSTYLE
  5
35
102
{ACAD_REACTORS
330
2A
102
}
330
2A
100
AcDbVisualStyle
  2
Dim
 70
    11
177
     2
291
     1
 71
     2
176
     1
 72
     2
176
     1
 73
     0
176
     1
 90
        0
176
     1
 40
-0.6
176
     1
 41
-30.0
176
     1
 62
     5
 63
     7
421
 16777215
176
     1
 74
     1
176
     1
 91
        4
176
     1
 64
     7
176
     1
 65
   257
176
     1
 75
     1
176
     1
175
     1
176
     1
 42
1.0
176
     1
 92
        8
176
     1
 66
     7
176
     1
 43
1.0
176
     1
 76
     1
176
     1
 77
     6
176
     1
 78
     2
176
     1
 67
     7
176
     1
 79
     5
176
     1
170
     0
176
     1
171
     0
176
     1
290
     0
176
     1
 93
        1
176
     1
 44
-50.0
176
     1
173
     0
176
     1
  0
VISUALSTYLE
  5
39
102
{ACAD_REACTORS
330
2A
102
}
330
2A
100
AcDbVisualStyle
  2
Facepattern
 70
    15
177
     2
291
     1
 71
     2
176
     1
 72
     2
176
     1
 73
     0
176
     1
 90
        0
176
     1
 40
-0.6
176
     1
 41
-30.0
176
     1
 62
     5
 63
     7
421
 16777215
176
     1
 74
     1
176
     1
 91
        4
176
     1
 64
     7
176
     1
 65
   257
176
     1
 75
     1
176
     1
175
     1
176
     1
 42
1.0
176
     1
 92
        8
176
     1
 66
     7
176
     1
 43
1.0
176
     1
 76
     1
176
     1
 77
     6
176
     1
 78
     2
176
     1
 67
     7
176
     1
 79
     5
176
     1
170
     0
176
     1
171
     0
176
     1
290
     0
176
     1
 93
        1
176
     1
 44
0.0
176
     1
173
     0
176
     1
  0
VISUALSTYLE
  5
2B
102
{ACAD_REACTORS
330
2A
102
}
330
2A
100
AcDbVisualStyle
  2
Flat
 70
     0
177
     2
291
     1
 71
     2
176
     1
 72
     1
176
     1
 73
     1
176
     1
 90
        2
176
     1
 40
-0.6
176
     1
 41
30.0
176
     1
 62
     5
 63
     7
421
 16777215
176
     1
 74
     0
176
     1
 91
        4
176
     1
 64
     7
176
     1
 65
   257
176
     1
 75
     1
176
     1
175
     1
176
     1
 42
1.0
176
     1
 92
        8
176
     1
 66
     7
176
     1
 43
1.0
176
     1
 76
     1
176
     1
 77
     6
176
     1
 78
     2
176
     1
 67
     7
176
     1
 79
     5
176
     1
170
     0
176
     1
171
     0
176
     1
290
     0
176
     1
 93
       13
176
     1
 44
0.0
176
     1
173
     0
176
     1
  0
VISUALSTYLE
  5
2C
102
{ACAD_REACTORS
330
2A
102
}
330
2A
100
AcDbVisualStyle
  2
FlatWithEdges
 70
     1
177
     2
291
     1
 71
     2
176
     1
 72
     1
176
     1
 73
     1
176
     1
 90
        2
176
     1
 40
-0.6
176
     1
 41
30.0
176
     1
 62
     5
 63
     7
421
 16777215
176
     1
 74
     1
176
     1
 91
        4
176
     1
 64
     7
176
     1
 65
   257
176
     1
 75
     1
176
     1
175
     1
176
     1
 42
1.0
176
     1
 92
        0
176
     1
 66
   257
176
     1
 43
1.0
176
     1
 76
     1
176
     1
 77
     6
176
     1
 78
     2
176
     1
 67
     7
176
     1
 79
     5
176
     1
170
     0
176
     1
171
     0
176
     1
290
     0
176
     1
 93
       13
176
     1
 44
0.0
176
     1
173
     0
176
     1
  0
VISUALSTYLE
  5
2D
102
{ACAD_REACTORS
330
2A
102
}
330
2A
100
AcDbVisualStyle
  2
Gouraud
 70
     2
177
     2
291
     1
 71
     2
176
     1
 72
     2
176
     1
 73
     1
176
     1
 90
        2
176
     1
 40
-0.6
176
     1
 41
30.0
176
     1
 62
     5
 63
     7
421
 16777215
176
     1
 74
     0
176
     1
 91
        4
176
     1
 64
     7
176
     1
 65
   257
176
     1
 75
     1
176
     1
175
     1
176
     1
 42
1.0
176
     1
 92
        0
176
     1
 66
     7
176
     1
 43
1.0
176
     1
 76
     1
176
     1
 77
     6
176
     1
 78
     2
176
     1
 67
     7
176
     1
 79
     5
176
     1
170
     0
176
     1
171
     0
176
     1
290
     0
176
     1
 93
       13
176
     1
 44
0.0
176
     1
173
     0
176
     1
  0
VISUALSTYLE
  5
2E
102
{ACAD_REACTORS
330
2A
102
}
330
2A
100
AcDbVisualStyle
  2
GouraudWithEdges
 70
     3
177
     2
291
     1
 71
     2
176
     1
 72
     2
176
     1
 73
     1
176
     1
 90
        2
176
     1
 40
-0.6
176
     1
 41
30.0
176
     1
 62
     5
 63
     7
421
 16777215
176
     1
 74
     1
176
     1
 91
        4
176
     1
 64
     7
176
     1
 65
   257
176
     1
 75
     1
176
     1
175
     1
176
     1
 42
1.0
176
     1
 92
        0
176
     1
 66
   257
176
     1
 43
1.0
176
     1
 76
     1
176
     1
 77
     6
176
     1
 78
     2
176
     1
 67
     7
176
     1
 79
     5
176
     1
170
     0
176
     1
171
     0
176
     1
290
     0
176
     1
 93
       13
176
     1
 44
0.0
176
     1
173
     0
176
     1
  0
VISUALSTYLE
  5
38
102
{ACAD_REACTORS
330
2A
102
}
330
2A
100
AcDbVisualStyle
  2
Linepattern
 70
    14
177
     2
291
     1
 71
     2
176
     1
 72
     2
176
     1
 73
     0
176
     1
 90
        0
176
     1
 40
-0.6
176
     1
 41
-30.0
176
     1
 62
     5
 63
     7
421
 16777215
176
     1
 74
     1
176
     1
 91
        4
176
     1
 64
     7
176
     1
 65
   257
176
     1
 75
     7
176
     1
175
     7
176
     1
 42
1.0
176
     1
 92
        8
176
     1
 66
     7
176
     1
 43
1.0
176
     1
 76
     1
176
     1
 77
     6
176
     1
 78
     2
176
     1
 67
     7
176
     1
 79
     5
176
     1
170
     0
176
     1
171
     0
176
     1
290
     0
176
     1
 93
        1
176
     1
 44
0.0
176
     1
173
     0
176
     1
  0
VISUALSTYLE
  5
33
102
{ACAD_REACTORS
330
2A
102
}
330
2A
100
AcDbVisualStyle
  2
Realistic
 70
     8
177
     2
291
     0
 71
     2
176
     1
 72
     2
176
     1
 73
     0
176
     1
 90
        0
176
     1
 40
-0.6
176
     1
 41
-30.0
176
     1
 62
     5
 63
     7
421
 16777215
176
     1
 74
     1
176
     1
 91
        0
176
     1
 64
     7
176
     1
 65
   257
176
     1
 75
     1
176
     1
175
     1
176
     1
 42
1.0
176
     1
 92
        8
176
     1
 66
     8
424
  7895160
176
     1
 43
1.0
176
     1
 76
     1
176
     1
 77
     6
176
     1
 78
     2
176
     1
 67
     7
176
     1
 79
     5
176
     1
170
     0
176
     1
171
     0
176
     1
290
     0
176
     1
 93
       13
176
     1
 44
0.0
176
     1
173
     0
176
     1
  0
VISUALSTYLE
  5
37
102
{ACAD_REACTORS
330
2A
102
}
330
2A
100
AcDbVisualStyle
  2
Thicken
 70
    13
177
     2
291
     1
 71
     2
176
     1
 72
     2
176
     1
 73
     0
176
     1
 90
        0
176
     1
 40
-0.6
176
     1
 41
-30.0
176
     1
 62
     5
 63
     7
421
 16777215
176
     1
 74
     1
176
     1
 91
        4
176
     1
 64
     7
176
     1
 65
   257
176
     1
 75
     1
176
     1
175
     1
176
     1
 42
1.0
176
     1
 92
       12
176
     1
 66
     7
176
     1
 43
1.0
176
     1
 76
     1
176
     1
 77
     6
176
     1
 78
     2
176
     1
 67
     7
176
     1
 79
     5
176
     1
170
     0
176
     1
171
     0
176
     1
290
     0
176
     1
 93
        1
176
     1
 44
0.0
176
     1
173
     0
176
     1
  0
ENDSEC
  0
EOF
