  0
SECTION
  2
HEADER
  9
$ACADVER
  1
AC1024
  9
$ACADMAINTVER
 70
     6
  9
$DWGCODEPAGE
  3
UNDEFINED
  9
$INSBASE
 10
0.0
 20
0.0
 30
0.0
  9
$EXTMIN
 10
1.000000000000000E+20
 20
1.000000000000000E+20
 30
1.000000000000000E+20
  9
$EXTMAX
 10
-1.000000000000000E+20
 20
-1.000000000000000E+20
 30
-1.000000000000000E+20
  9
$LIMMIN
 10
0.0
 20
0.0
  9
$LIMMAX
 10
12.0
 20
9.0
  9
$ORTHOMODE
 70
     0
  9
$REGENMODE
 70
     1
  9
$FILLMODE
 70
     1
  9
$QTEXTMODE
 70
     0
  9
$MIRRTEXT
 70
     1
  9
$LTSCALE
 40
1.0
  9
$ATTMODE
 70
     1
  9
$TEXTSIZE
 40
0.2
  9
$TRACEWID
 40
0.05
  9
$TEXTSTYLE
  7
Standard
  9
$CLAYER
  8
0
  9
$CELTYPE
  6
ByLayer
  9
$CECOLOR
 62
   256
  9
$CELTSCALE
 40
1.0
  9
$DISPSILH
 70
     0
  9
$DIMSCALE
 40
1.0
  9
$DIMASZ
 40
0.18
  9
$DIMEXO
 40
0.0625
  9
$DIMDLI
 40
0.38
  9
$DIMRND
 40
0.0
  9
$DIMDLE
 40
0.0
  9
$DIMEXE
 40
0.18
  9
$DIMTP
 40
0.0
  9
$DIMTM
 40
0.0
  9
$DIMTXT
 40
0.18
  9
$DIMCEN
 40
0.09
  9
$DIMTSZ
 40
0.0
  9
$DIMTOL
 70
     0
  9
$DIMLIM
 70
     0
  9
$DIMTIH
 70
     1
  9
$DIMTOH
 70
     1
  9
$DIMSE1
 70
     0
  9
$DIMSE2
 70
     0
  9
$DIMTAD
 70
     0
  9
$DIMZIN
 70
     0
  9
$DIMBLK
  1

  9
$DIMASO
 70
     1
  9
$DIMSHO
 70
     1
  9
$DIMPOST
  1

  9
$DIMAPOST
  1

  9
$DIMALT
 70
     0
  9
$DIMALTD
 70
     2
  9
$DIMALTF
 40
25.4
  9
$DIMLFAC
 40
1.0
  9
$DIMTOFL
 70
     0
  9
$DIMTVP
 40
0.0
  9
$DIMTIX
 70
     0
  9
$DIMSOXD
 70
     0
  9
$DIMSAH
 70
     0
  9
$DIMBLK1
  1

  9
$DIMBLK2
  1

  9
$DIMSTYLE
  2
Standard
  9
$DIMCLRD
 70
     0
  9
$DIMCLRE
 70
     0
  9
$DIMCLRT
 70
     0
  9
$DIMTFAC
 40
1.0
  9
$DIMGAP
 40
0.09
  9
$DIMJUST
 70
     0
  9
$DIMSD1
 70
     0
  9
$DIMSD2
 70
     0
  9
$DIMTOLJ
 70
     1
  9
$DIMTZIN
 70
     0
  9
$DIMALTZ
 70
     0
  9
$DIMALTTZ
 70
     0
  9
$DIMUPT
 70
     0
  9
$DIMDEC
 70
     4
  9
$DIMTDEC
 70
     4
  9
$DIMALTU
 70
     2
  9
$DIMALTTD
 70
     2
  9
$DIMTXSTY
  7
Standard
  9
$DIMAUNIT
 70
     0
  9
$DIMADEC
 70
     0
  9
$DIMALTRND
 40
0.0
  9
$DIMAZIN
 70
     0
  9
$DIMDSEP
 70
    46
  9
$DIMATFIT
 70
     3
  9
$DIMFRAC
 70
     0
  9
$DIMLDRBLK
  1

  9
$DIMLUNIT
 70
     2
  9
$DIMLWD
 70
    -2
  9
$DIMLWE
 70
    -2
  9
$DIMTMOVE
 70
     0
  9
$DIMFXL
 40
1.0
  9
$DIMFXLON
 70
     0
  9
$DIMJOGANG
 40
0.7853981633974483
  9
$DIMTFILL
 70
     0
  9
$DIMTFILLCLR
 70
     0
  9
$DIMARCSYM
 70
     0
  9
$DIMLTYPE
  6

  9
$DIMLTEX1
  6

  9
$DIMLTEX2
  6

  9
$DIMTXTDIRECTION
 70
     0
  9
$LUNITS
 70
     2
  9
$LUPREC
 70
     4
  9
$SKETCHINC
 40
0.1
  9
$FILLETRAD
 40
0.5
  9
$AUNITS
 70
     0
  9
$AUPREC
 70
     0
  9
$MENU
  1
.
  9
$ELEVATION
 40
0.0
  9
$PELEVATION
 40
0.0
  9
$THICKNESS
 40
0.0
  9
$LIMCHECK
 70
     0
  9
$CHAMFERA
 40
0.5
  9
$CHAMFERB
 40
0.5
  9
$CHAMFERC
 40
1.0
  9
$CHAMFERD
 40
0.0
  9
$SKPOLY
 70
     0
  9
$TDCREATE
 40
2457917.584803241
  9
$TDUCREATE
 40
2457917.209803241
  9
$TDUPDATE
 40
2457917.584803241
  9
$TDUUPDATE
 40
2457917.209803241
  9
$TDINDWG
 40
0.0000000116
  9
$TDUSRTIMER
 40
0.0000000116
  9
$USRTIMER
 70
     1
  9
$ANGBASE
 50
0.0
  9
$ANGDIR
 70
     0
  9
$PDMODE
 70
     0
  9
$PDSIZE
 40
0.0
  9
$PLINEWID
 40
0.0
  9
$SPLFRAME
 70
     0
  9
$SPLINETYPE
 70
     6
  9
$SPLINESEGS
 70
     8
  9
$HANDSEED
  5
B3
  9
$SURFTAB1
 70
     6
  9
$SURFTAB2
 70
     6
  9
$SURFTYPE
 70
     6
  9
$SURFU
 70
     6
  9
$SURFV
 70
     6
  9
$UCSBASE
  2

  9
$UCSNAME
  2

  9
$UCSORG
 10
0.0
 20
0.0
 30
0.0
  9
$UCSXDIR
 10
1.0
 20
0.0
 30
0.0
  9
$UCSYDIR
 10
0.0
 20
1.0
 30
0.0
  9
$UCSORTHOREF
  2

  9
$UCSORTHOVIEW
 70
     0
  9
$UCSORGTOP
 10
0.0
 20
0.0
 30
0.0
  9
$UCSORGBOTTOM
 10
0.0
 20
0.0
 30
0.0
  9
$UCSORGLEFT
 10
0.0
 20
0.0
 30
0.0
  9
$UCSORGRIGHT
 10
0.0
 20
0.0
 30
0.0
  9
$UCSORGFRONT
 10
0.0
 20
0.0
 30
0.0
  9
$UCSORGBACK
 10
0.0
 20
0.0
 30
0.0
  9
$PUCSBASE
  2

  9
$PUCSNAME
  2

  9
$PUCSORG
 10
0.0
 20
0.0
 30
0.0
  9
$PUCSXDIR
 10
1.0
 20
0.0
 30
0.0
  9
$PUCSYDIR
 10
0.0
 20
1.0
 30
0.0
  9
$PUCSORTHOREF
  2

  9
$PUCSORTHOVIEW
 70
     0
  9
$PUCSORGTOP
 10
0.0
 20
0.0
 30
0.0
  9
$PUCSORGBOTTOM
 10
0.0
 20
0.0
 30
0.0
  9
$PUCSORGLEFT
 10
0.0
 20
0.0
 30
0.0
  9
$PUCSORGRIGHT
 10
0.0
 20
0.0
 30
0.0
  9
$PUCSORGFRONT
 10
0.0
 20
0.0
 30
0.0
  9
$PUCSORGBACK
 10
0.0
 20
0.0
 30
0.0
  9
$USERI1
 70
     0
  9
$USERI2
 70
     0
  9
$USERI3
 70
     0
  9
$USERI4
 70
     0
  9
$USERI5
 70
     0
  9
$USERR1
 40
0.0
  9
$USERR2
 40
0.0
  9
$USERR3
 40
0.0
  9
$USERR4
 40
0.0
  9
$USERR5
 40
0.0
  9
$WORLDVIEW
 70
     1
  9
$SHADEDGE
 70
     3
  9
$SHADEDIF
 70
    70
  9
$TILEMODE
 70
     1
  9
$MAXACTVP
 70
    64
  9
$PINSBASE
 10
0.0
 20
0.0
 30
0.0
  9
$PLIMCHECK
 70
     0
  9
$PEXTMIN
 10
1.000000000000000E+20
 20
1.000000000000000E+20
 30
1.000000000000000E+20
  9
$PEXTMAX
 10
-1.000000000000000E+20
 20
-1.000000000000000E+20
 30
-1.000000000000000E+20
  9
$PLIMMIN
 10
0.0
 20
0.0
  9
$PLIMMAX
 10
12.0
 20
9.0
  9
$UNITMODE
 70
     0
  9
$VISRETAIN
 70
     1
  9
$PLINEGEN
 70
     0
  9
$PSLTSCALE
 70
     1
  9
$TREEDEPTH
 70
  3020
  9
$CMLSTYLE
  2
Standard
  9
$CMLJUST
 70
     0
  9
$CMLSCALE
 40
1.0
  9
$PROXYGRAPHICS
 70
     1
  9
$MEASUREMENT
 70
     0
  9
$CELWEIGHT
370
    -1
  9
$ENDCAPS
280
     0
  9
$JOINSTYLE
280
     0
  9
$LWDISPLAY
290
     1
  9
$INSUNITS
 70
     1
  9
$HYPERLINKBASE
  1

  9
$STYLESHEET
  1

  9
$XEDIT
290
     1
  9
$CEPSNTYPE
380
     0
  9
$PSTYLEMODE
290
     1
  9
$FINGERPRINTGUID
  2
{5BF946C1-0CA9-87E1-D00E-191DD98D3497}
  9
$VERSIONGUID
  2
{FAEB1C32-E019-11D5-929B-00C0DF256EC4}
  9
$EXTNAMES
290
     1
  9
$PSVPSCALE
 40
0.0
  9
$OLESTARTUP
290
     0
  9
$SORTENTS
280
   127
  9
$INDEXCTL
280
     0
  9
$HIDETEXT
280
     1
  9
$XCLIPFRAME
280
     2
  9
$HALOGAP
280
     0
  9
$OBSCOLOR
 70
   257
  9
$OBSLTYPE
280
     0
  9
$INTERSECTIONDISPLAY
280
     0
  9
$INTERSECTIONCOLOR
 70
   257
  9
$DIMASSOC
280
     2
  9
$PROJECTNAME
  1

  9
$CAMERADISPLAY
290
     0
  9
$LENSLENGTH
 40
50.0
  9
$CAMERAHEIGHT
 40
0.0
  9
$STEPSPERSEC
 40
2.0
  9
$STEPSIZE
 40
6.0
  9
$3DDWFPREC
 40
2.0
  9
$PSOLWIDTH
 40
0.25
  9
$PSOLHEIGHT
 40
4.0
  9
$LOFTANG1
 40
1.570796326794897
  9
$LOFTANG2
 40
1.570796326794897
  9
$LOFTMAG1
 40
0.0
  9
$LOFTMAG2
 40
0.0
  9
$LOFTPARAM
 70
     7
  9
$LOFTNORMALS
280
     1
  9
$LATITUDE
 40
37.795
  9
$LONGITUDE
 40
-122.394
  9
$NORTHDIRECTION
 40
0.0
  9
$TIMEZONE
 70
 -8000
  9
$LIGHTGLYPHDISPLAY
280
     1
  9
$TILEMODELIGHTSYNCH
280
     1
  9
$CMATERIAL
347
3C
  9
$SOLIDHIST
280
     1
  9
$SHOWHIST
280
     1
  9
$DWFFRAME
280
     2
  9
$DGNFRAME
280
     2
  9
$REALWORLDSCALE
290
     1
  9
$INTERFERECOLOR
 62
   256
  9
$CSHADOW
280
     0
  9
$SHADOWPLANELOCATION
 40
0.0
  0
ENDSEC
  0
SECTION
  2
CLASSES
  0
CLASS
  1
ACDBDICTIONARYWDFLT
  2
AcDbDictionaryWithDefault
  3
ObjectDBX Classes
 90
        0
 91
        4
280
     0
281
     0
  0
CLASS
  1
VISUALSTYLE
  2
AcDbVisualStyle
  3
ObjectDBX Classes
 90
     4095
 91
        4
280
     0
281
     0
  0
CLASS
  1
MATERIAL
  2
AcDbMaterial
  3
ObjectDBX Classes
 90
     1153
 91
        4
280
     0
281
     0
  0
CLASS
  1
SUN
  2
AcDbSun
  3
SCENEOE
 90
     1024
 91
        4
280
     0
281
     0
  0
ENDSEC
  0
SECTION
  2
TABLES
  0
TABLE
  2
VPORT
  5
8
330
0
100
AcDbSymbolTable
 70
     1
  0
VPORT
  5
29
330
8
100
AcDbSymbolTableRecord
100
AcDbViewportTableRecord
  2
*Active
 70
     0
 10
0.0
 20
0.0
 11
1.0
 21
1.0
 12
0.0
 22
0.0
 13
0.0
 23
0.0
 14
0.5
 24
0.5
 15
0.5
 25
0.5
 16
0.0
 26
0.0
 36
1.0
 17
91.00082462281999
 27
-128.4993055234307
 37
0.0
 40
256.9986110468615
 41
0.7081814508812795
 42
50.0
 43
0.0
 44
0.0
 50
0.0
 51
0.0
 71
     0
 72
   100
 73
     1
 74
     3
 75
     0
 76
     0
 77
     0
 78
     0
281
     0
 65
     1
110
0.0
120
0.0
130
0.0
111
1.0
121
0.0
131
0.0
112
0.0
122
1.0
132
0.0
 79
     0
146
0.0
 60
     3
 61
     5
292
     1
282
     1
141
0.0
142
0.0
 63
   250
361
3F
  0
ENDTAB
  0
TABLE
  2
LTYPE
  5
5
330
0
100
AcDbSymbolTable
 70
     1
  0
LTYPE
  5
14
330
5
100
AcDbSymbolTableRecord
100
AcDbLinetypeTableRecord
  2
ByBlock
 70
     0
  3

 72
    65
 73
     0
 40
0.0
  0
LTYPE
  5
15
330
5
100
AcDbSymbolTableRecord
100
AcDbLinetypeTableRecord
  2
ByLayer
 70
     0
  3

 72
    65
 73
     0
 40
0.0
  0
LTYPE
  5
16
330
5
100
AcDbSymbolTableRecord
100
AcDbLinetypeTableRecord
  2
Continuous
 70
     0
  3
Solid line
 72
    65
 73
     0
 40
0.0
  0
ENDTAB
  0
TABLE
  2
LAYER
  5
2
330
0
100
AcDbSymbolTable
 70
     2
  0
LAYER
  5
10
330
2
100
AcDbSymbolTableRecord
100
AcDbLayerTableRecord
  2
0
 70
     0
 62
     7
  6
Continuous
370
    -3
390
F
347
3E
  0
LAYER
  5
40
330
2
100
AcDbSymbolTableRecord
100
AcDbLayerTableRecord
  2
_U+30EC_U+30A4_U+30E4_U+30FC 1
 70
     0
 62
     7
  6
Continuous
370
    -3
390
F
347
3E
  0
ENDTAB
  0
TABLE
  2
STYLE
  5
3
330
0
100
AcDbSymbolTable
 70
     1
  0
STYLE
  5
11
330
3
100
AcDbSymbolTableRecord
100
AcDbTextStyleTableRecord
  2
Standard
 70
     0
 40
0.0
 41
1.0
 50
0.0
 71
     0
 42
0.2
  3
txt
  4

  0
ENDTAB
  0
TABLE
  2
VIEW
  5
6
330
0
100
AcDbSymbolTable
 70
     0
  0
ENDTAB
  0
TABLE
  2
UCS
  5
7
330
0
100
AcDbSymbolTable
 70
     0
  0
ENDTAB
  0
TABLE
  2
APPID
  5
9
330
0
100
AcDbSymbolTable
 70
     1
  0
APPID
  5
12
330
9
100
AcDbSymbolTableRecord
100
AcDbRegAppTableRecord
  2
ACAD
 70
     0
  0
ENDTAB
  0
TABLE
  2
DIMSTYLE
  5
A
330
0
100
AcDbSymbolTable
 70
     1
100
AcDbDimStyleTable
  0
DIMSTYLE
105
27
330
A
100
AcDbSymbolTableRecord
100
AcDbDimStyleTableRecord
  2
Standard
 70
     0
178
     0
340
11
  0
ENDTAB
  0
TABLE
  2
BLOCK_RECORD
  5
1
330
0
100
AcDbSymbolTable
 70
     4
  0
BLOCK_RECORD
  5
1F
330
1
100
AcDbSymbolTableRecord
100
AcDbBlockTableRecord
  2
*Model_Space
340
22
 70
     0
280
     1
281
     0
  0
BLOCK_RECORD
  5
1B
330
1
100
AcDbSymbolTableRecord
100
AcDbBlockTableRecord
  2
*Paper_Space
340
1E
 70
     0
280
     1
281
     0
  0
BLOCK_RECORD
  5
23
330
1
100
AcDbSymbolTableRecord
100
AcDbBlockTableRecord
  2
*Paper_Space0
340
26
 70
     0
280
     1
281
     0
  0
BLOCK_RECORD
  5
4D
330
1
100
AcDbSymbolTableRecord
100
AcDbBlockTableRecord
  2
block 2
340
0
102
{BLKREFS
331
4E
102
}
 70
     0
280
     1
281
     0
  0
BLOCK_RECORD
  5
8D
330
1
100
AcDbSymbolTableRecord
100
AcDbBlockTableRecord
  2
block 3
340
0
102
{BLKREFS
331
8E
102
}
 70
     0
280
     1
281
     0
  0
BLOCK_RECORD
  5
9D
330
1
100
AcDbSymbolTableRecord
100
AcDbBlockTableRecord
  2
block 4
340
0
102
{BLKREFS
331
9E
102
}
 70
     0
280
     1
281
     0
  0
ENDTAB
  0
ENDSEC
  0
SECTION
  2
BLOCKS
  0
BLOCK
  5
20
330
1F
100
AcDbEntity
  8
0
100
AcDbBlockBegin
  2
*Model_Space
 70
     0
 10
0.0
 20
0.0
 30
0.0
  3
*Model_Space
  1

  0
ENDBLK
  5
21
330
1F
100
AcDbEntity
  8
0
100
AcDbBlockEnd
  0
BLOCK
  5
1C
330
1B
100
AcDbEntity
 67
     1
  8
0
100
AcDbBlockBegin
  2
*Paper_Space
 70
     0
 10
0.0
 20
0.0
 30
0.0
  3
*Paper_Space
  1

  0
ENDBLK
  5
1D
330
1B
100
AcDbEntity
 67
     1
  8
0
100
AcDbBlockEnd
  0
BLOCK
  5
24
330
23
100
AcDbEntity
  8
0
100
AcDbBlockBegin
  2
*Paper_Space0
 70
     0
 10
0.0
 20
0.0
 30
0.0
  3
*Paper_Space0
  1

  0
ENDBLK
  5
25
330
23
100
AcDbEntity
  8
0
100
AcDbBlockEnd
  0
BLOCK
  5
4F
330
4D
100
AcDbEntity
  8
0
100
AcDbBlockBegin
  2
block 2
 70
     0
 10
0.0
 20
0.0
 30
0.0
  3
block 2
  1

  0
SPLINE
  5
51
330
4D
100
AcDbEntity
  8
_U+30EC_U+30A4_U+30E4_U+30FC 1
370
     0
100
AcDbSpline
210
0.0
220
0.0
230
1.0
 70
    11
 71
     3
 72
    44
 73
    40
 74
     0
 42
0.0000000001
 43
0.0000000001
 12
1.0
 22
0.0
 32
0.0
 13
1.0
 23
0.0
 33
0.0
 40
0.0
 40
0.0
 40
0.0
 40
0.0
 40
1.0
 40
1.0
 40
1.0
 40
2.0
 40
2.0
 40
2.0
 40
3.0
 40
3.0
 40
3.0
 40
4.0
 40
4.0
 40
4.0
 40
5.0
 40
5.0
 40
5.0
 40
6.0
 40
6.0
 40
6.0
 40
7.0
 40
7.0
 40
7.0
 40
8.0
 40
8.0
 40
8.0
 40
9.0
 40
9.0
 40
9.0
 40
10.0
 40
10.0
 40
10.0
 40
11.0
 40
11.0
 40
11.0
 40
12.0
 40
12.0
 40
12.0
 40
13.0
 40
13.0
 40
13.0
 40
13.0
 10
82.49315590385588
 20
-131.3339300886943
 30
0.0
 10
82.47007376410471
 20
-131.289143847386
 30
0.0
 10
82.44871417209616
 20
-131.2364338864617
 30
0.0
 10
82.446647114805
 20
-131.0059569984985
 30
0.0
 10
82.4425130002227
 20
-130.7627332572399
 30
0.0
 10
82.38325735787642
 20
-130.6927978188893
 30
0.0
 10
82.20549043083751
 20
-130.6927978188893
 30
0.0
 10
82.20549043083751
 20
-130.6927978188893
 30
0.0
 10
81.79724661583542
 20
-130.6927978188893
 30
0.0
 10
81.79724661583542
 20
-130.6927978188893
 30
0.0
 10
81.79724661583542
 20
-130.6927978188893
 30
0.0
 10
81.79724661583542
 20
-131.3339300886943
 30
0.0
 10
81.79724661583542
 20
-131.3339300886943
 30
0.0
 10
81.79724661583542
 20
-131.3339300886943
 30
0.0
 10
81.56229110374137
 20
-131.3339300886943
 30
0.0
 10
81.56229110374137
 20
-131.3339300886943
 30
0.0
 10
81.56229110374137
 20
-131.3339300886943
 30
0.0
 10
81.56229110374137
 20
-129.7894937826568
 30
0.0
 10
81.56229110374137
 20
-129.7894937826568
 30
0.0
 10
81.56229110374137
 20
-129.7894937826568
 30
0.0
 10
82.23718530930182
 20
-129.7894937826568
 30
0.0
 10
82.23718530930182
 20
-129.7894937826568
 30
0.0
 10
82.54414331703758
 20
-129.7894937826568
 30
0.0
 10
82.7112304480722
 20
-129.9607150282737
 30
0.0
 10
82.7112304480722
 20
-130.2170301323763
 30
0.0
 10
82.7112304480722
 20
-130.2673285264609
 30
0.0
 10
82.70261770935907
 20
-130.3500108181069
 30
0.0
 10
82.65817597759934
 20
-130.4306260524618
 30
0.0
 10
82.59892033525306
 20
-130.5339789170193
 30
0.0
 10
82.5334635210333
 20
-130.5532714517367
 30
0.0
 10
82.47214082139585
 20
-130.5698079100659
 30
0.0
 10
82.60960013125732
 20
-130.612527094083
 30
0.0
 10
82.67712400276822
 20
-130.661102940425
 30
0.0
 10
82.68160262689905
 20
-130.9763291773254
 30
0.0
 10
82.68573674148135
 20
-131.247113682466
 30
0.0
 10
82.72156573452794
 20
-131.2788085609303
 30
0.0
 10
82.78943411558737
 20
-131.3339300886943
 30
0.0
 10
82.78943411558737
 20
-131.3339300886943
 30
0.0
 10
82.49315590385588
 20
-131.3339300886943
 30
0.0
 10
82.49315590385588
 20
-131.3339300886943
 30
0.0
  0
SPLINE
  5
52
330
4D
100
AcDbEntity
  8
_U+30EC_U+30A4_U+30E4_U+30FC 1
370
     0
100
AcDbSpline
210
0.0
220
0.0
230
1.0
 70
    11
 71
     3
 72
    20
 73
    16
 74
     0
 42
0.0000000001
 43
0.0000000001
 12
1.0
 22
0.0
 32
0.0
 13
1.0
 23
0.0
 33
0.0
 40
0.0
 40
0.0
 40
0.0
 40
0.0
 40
1.0
 40
1.0
 40
1.0
 40
2.0
 40
2.0
 40
2.0
 40
3.0
 40
3.0
 40
3.0
 40
4.0
 40
4.0
 40
4.0
 40
5.0
 40
5.0
 40
5.0
 40
5.0
 10
82.24166393343265
 20
-130.0010226454511
 30
0.0
 10
82.24166393343265
 20
-130.0010226454511
 30
0.0
 10
81.79724661583542
 20
-130.0010226454511
 30
0.0
 10
81.79724661583542
 20
-130.0010226454511
 30
0.0
 10
81.79724661583542
 20
-130.0010226454511
 30
0.0
 10
81.79724661583542
 20
-130.481268956095
 30
0.0
 10
81.79724661583542
 20
-130.481268956095
 30
0.0
 10
81.79724661583542
 20
-130.481268956095
 30
0.0
 10
82.23925236659296
 20
-130.481268956095
 30
0.0
 10
82.23925236659296
 20
-130.481268956095
 30
0.0
 10
82.33881562611668
 20
-130.481268956095
 30
0.0
 10
82.47420787868701
 20
-130.405132345871
 30
0.0
 10
82.47420787868701
 20
-130.2335665907055
 30
0.0
 10
82.47420787868701
 20
-130.1553629231903
 30
0.0
 10
82.44044594293156
 20
-130.0010226454511
 30
0.0
 10
82.24166393343265
 20
-130.0010226454511
 30
0.0
  0
HATCH
  5
53
330
4D
100
AcDbEntity
  8
_U+30EC_U+30A4_U+30E4_U+30FC 1
 62
   179
420
  2234388
100
AcDbHatch
 10
0.0
 20
0.0
 30
0.0
210
0.0
220
0.0
230
1.0
  2
SOLID
 70
     1
 71
     0
 91
        2
 92
        1
 93
        1
 72
     4
 94
        3
 73
     0
 74
     1
 95
       44
 96
       40
 40
0.0
 40
0.0
 40
0.0
 40
0.0
 40
1.0
 40
1.0
 40
1.0
 40
2.0
 40
2.0
 40
2.0
 40
3.0
 40
3.0
 40
3.0
 40
4.0
 40
4.0
 40
4.0
 40
5.0
 40
5.0
 40
5.0
 40
6.0
 40
6.0
 40
6.0
 40
7.0
 40
7.0
 40
7.0
 40
8.0
 40
8.0
 40
8.0
 40
9.0
 40
9.0
 40
9.0
 40
10.0
 40
10.0
 40
10.0
 40
11.0
 40
11.0
 40
11.0
 40
12.0
 40
12.0
 40
12.0
 40
13.0
 40
13.0
 40
13.0
 40
13.0
 10
82.49315590385588
 20
-131.3339300886943
 10
82.47007376410471
 20
-131.289143847386
 10
82.44871417209616
 20
-131.2364338864617
 10
82.446647114805
 20
-131.0059569984985
 10
82.4425130002227
 20
-130.7627332572399
 10
82.38325735787642
 20
-130.6927978188893
 10
82.20549043083751
 20
-130.6927978188893
 10
82.20549043083751
 20
-130.6927978188893
 10
81.79724661583542
 20
-130.6927978188893
 10
81.79724661583542
 20
-130.6927978188893
 10
81.79724661583542
 20
-130.6927978188893
 10
81.79724661583542
 20
-131.3339300886943
 10
81.79724661583542
 20
-131.3339300886943
 10
81.79724661583542
 20
-131.3339300886943
 10
81.56229110374137
 20
-131.3339300886943
 10
81.56229110374137
 20
-131.3339300886943
 10
81.56229110374137
 20
-131.3339300886943
 10
81.56229110374137
 20
-129.7894937826568
 10
81.56229110374137
 20
-129.7894937826568
 10
81.56229110374137
 20
-129.7894937826568
 10
82.23718530930182
 20
-129.7894937826568
 10
82.23718530930182
 20
-129.7894937826568
 10
82.54414331703758
 20
-129.7894937826568
 10
82.7112304480722
 20
-129.9607150282737
 10
82.7112304480722
 20
-130.2170301323763
 10
82.7112304480722
 20
-130.2673285264609
 10
82.70261770935907
 20
-130.3500108181069
 10
82.65817597759934
 20
-130.4306260524618
 10
82.59892033525306
 20
-130.5339789170193
 10
82.5334635210333
 20
-130.5532714517367
 10
82.47214082139585
 20
-130.5698079100659
 10
82.60960013125732
 20
-130.612527094083
 10
82.67712400276822
 20
-130.661102940425
 10
82.68160262689905
 20
-130.9763291773254
 10
82.68573674148135
 20
-131.247113682466
 10
82.72156573452794
 20
-131.2788085609303
 10
82.78943411558737
 20
-131.3339300886943
 10
82.78943411558737
 20
-131.3339300886943
 10
82.49315590385588
 20
-131.3339300886943
 10
82.49315590385588
 20
-131.3339300886943
 97
        0
 97
        0
 92
        1
 93
        1
 72
     4
 94
        3
 73
     0
 74
     1
 95
       20
 96
       16
 40
0.0
 40
0.0
 40
0.0
 40
0.0
 40
1.0
 40
1.0
 40
1.0
 40
2.0
 40
2.0
 40
2.0
 40
3.0
 40
3.0
 40
3.0
 40
4.0
 40
4.0
 40
4.0
 40
5.0
 40
5.0
 40
5.0
 40
5.0
 10
82.24166393343265
 20
-130.0010226454511
 10
82.24166393343265
 20
-130.0010226454511
 10
81.79724661583542
 20
-130.0010226454511
 10
81.79724661583542
 20
-130.0010226454511
 10
81.79724661583542
 20
-130.0010226454511
 10
81.79724661583542
 20
-130.481268956095
 10
81.79724661583542
 20
-130.481268956095
 10
81.79724661583542
 20
-130.481268956095
 10
82.23925236659296
 20
-130.481268956095
 10
82.23925236659296
 20
-130.481268956095
 10
82.33881562611668
 20
-130.481268956095
 10
82.47420787868701
 20
-130.405132345871
 10
82.47420787868701
 20
-130.2335665907055
 10
82.47420787868701
 20
-130.1553629231903
 10
82.44044594293156
 20
-130.0010226454511
 10
82.24166393343265
 20
-130.0010226454511
 97
        0
 97
        0
 75
     2
 76
     1
 98
        0
  0
SPLINE
  5
54
330
4D
100
AcDbEntity
  8
_U+30EC_U+30A4_U+30E4_U+30FC 1
370
     0
100
AcDbSpline
210
0.0
220
0.0
230
1.0
 70
    11
 71
     3
 72
    44
 73
    40
 74
     0
 42
0.0000000001
 43
0.0000000001
 12
1.0
 22
0.0
 32
0.0
 13
1.0
 23
0.0
 33
0.0
 40
0.0
 40
0.0
 40
0.0
 40
0.0
 40
1.0
 40
1.0
 40
1.0
 40
2.0
 40
2.0
 40
2.0
 40
3.0
 40
3.0
 40
3.0
 40
4.0
 40
4.0
 40
4.0
 40
5.0
 40
5.0
 40
5.0
 40
6.0
 40
6.0
 40
6.0
 40
7.0
 40
7.0
 40
7.0
 40
8.0
 40
8.0
 40
8.0
 40
9.0
 40
9.0
 40
9.0
 40
10.0
 40
10.0
 40
10.0
 40
11.0
 40
11.0
 40
11.0
 40
12.0
 40
12.0
 40
12.0
 40
13.0
 40
13.0
 40
13.0
 40
13.0
 10
83.52220592530001
 20
-130.7520534612356
 30
0.0
 10
83.30447589063222
 20
-130.9108723631056
 30
0.0
 10
83.21145831253047
 20
-130.98459740649
 30
0.0
 10
83.16253795663992
 20
-131.1286023977734
 30
0.0
 10
83.16253795663992
 20
-131.1286023977734
 30
0.0
 10
83.94112953630639
 20
-131.1286023977734
 30
0.0
 10
83.94112953630639
 20
-131.1286023977734
 30
0.0
 10
83.94112953630639
 20
-131.1286023977734
 30
0.0
 10
83.94112953630639
 20
-131.3339300886943
 30
0.0
 10
83.94112953630639
 20
-131.3339300886943
 30
0.0
 10
83.94112953630639
 20
-131.3339300886943
 30
0.0
 10
82.91311304350783
 20
-131.3339300886943
 30
0.0
 10
82.91311304350783
 20
-131.3339300886943
 30
0.0
 10
82.94480792197214
 20
-130.9763291773254
 30
0.0
 10
83.01026473619189
 20
-130.8977810002617
 30
0.0
 10
83.39542641144281
 20
-130.599435731239
 30
0.0
 10
83.65139700599687
 20
-130.4009982312886
 30
0.0
 10
83.71685382021663
 20
-130.3331298502292
 30
0.0
 10
83.71685382021663
 20
-130.1956705403678
 30
0.0
 10
83.71685382021663
 20
-130.0771592556752
 30
0.0
 10
83.6448513245749
 20
-129.9462456272357
 30
0.0
 10
83.44813637236713
 20
-129.9462456272357
 30
0.0
 10
83.18803166323077
 20
-129.9462456272357
 30
0.0
 10
83.17941892451765
 20
-130.1763780056503
 30
0.0
 10
83.17528480993535
 20
-130.2928222330518
 30
0.0
 10
83.17528480993535
 20
-130.2928222330518
 30
0.0
 10
82.95100909384558
 20
-130.2928222330518
 30
0.0
 10
82.95100909384558
 20
-130.2928222330518
 30
0.0
 10
82.95962183255871
 20
-130.1660427191946
 30
0.0
 10
82.97030162856298
 20
-130.0537326063755
 30
0.0
 10
83.0505723533693
 20
-129.9352213216829
 30
0.0
 10
83.16047089934878
 20
-129.7746798720702
 30
0.0
 10
83.3468505651008
 20
-129.7409179363148
 30
0.0
 10
83.46295028295371
 20
-129.7409179363148
 30
0.0
 10
83.74028046951632
 20
-129.7409179363148
 30
0.0
 10
83.94767521772836
 20
-129.9248860352271
 30
0.0
 10
83.94767521772836
 20
-130.1977375976589
 30
0.0
 10
83.94767521772836
 20
-130.426147428331
 30
0.0
 10
83.83123099032692
 20
-130.5257106878547
 30
0.0
 10
83.52220592530001
 20
-130.7520534612356
 30
0.0
  0
HATCH
  5
55
330
4D
100
AcDbEntity
  8
_U+30EC_U+30A4_U+30E4_U+30FC 1
 62
   179
420
  2234388
100
AcDbHatch
 10
0.0
 20
0.0
 30
0.0
210
0.0
220
0.0
230
1.0
  2
SOLID
 70
     1
 71
     0
 91
        1
 92
        1
 93
        1
 72
     4
 94
        3
 73
     0
 74
     1
 95
       44
 96
       40
 40
0.0
 40
0.0
 40
0.0
 40
0.0
 40
1.0
 40
1.0
 40
1.0
 40
2.0
 40
2.0
 40
2.0
 40
3.0
 40
3.0
 40
3.0
 40
4.0
 40
4.0
 40
4.0
 40
5.0
 40
5.0
 40
5.0
 40
6.0
 40
6.0
 40
6.0
 40
7.0
 40
7.0
 40
7.0
 40
8.0
 40
8.0
 40
8.0
 40
9.0
 40
9.0
 40
9.0
 40
10.0
 40
10.0
 40
10.0
 40
11.0
 40
11.0
 40
11.0
 40
12.0
 40
12.0
 40
12.0
 40
13.0
 40
13.0
 40
13.0
 40
13.0
 10
83.52220592530001
 20
-130.7520534612356
 10
83.30447589063222
 20
-130.9108723631056
 10
83.21145831253047
 20
-130.98459740649
 10
83.16253795663992
 20
-131.1286023977734
 10
83.16253795663992
 20
-131.1286023977734
 10
83.94112953630639
 20
-131.1286023977734
 10
83.94112953630639
 20
-131.1286023977734
 10
83.94112953630639
 20
-131.1286023977734
 10
83.94112953630639
 20
-131.3339300886943
 10
83.94112953630639
 20
-131.3339300886943
 10
83.94112953630639
 20
-131.3339300886943
 10
82.91311304350783
 20
-131.3339300886943
 10
82.91311304350783
 20
-131.3339300886943
 10
82.94480792197214
 20
-130.9763291773254
 10
83.01026473619189
 20
-130.8977810002617
 10
83.39542641144281
 20
-130.599435731239
 10
83.65139700599687
 20
-130.4009982312886
 10
83.71685382021663
 20
-130.3331298502292
 10
83.71685382021663
 20
-130.1956705403678
 10
83.71685382021663
 20
-130.0771592556752
 10
83.6448513245749
 20
-129.9462456272357
 10
83.44813637236713
 20
-129.9462456272357
 10
83.18803166323077
 20
-129.9462456272357
 10
83.17941892451765
 20
-130.1763780056503
 10
83.17528480993535
 20
-130.2928222330518
 10
83.17528480993535
 20
-130.2928222330518
 10
82.95100909384558
 20
-130.2928222330518
 10
82.95100909384558
 20
-130.2928222330518
 10
82.95962183255871
 20
-130.1660427191946
 10
82.97030162856298
 20
-130.0537326063755
 10
83.0505723533693
 20
-129.9352213216829
 10
83.16047089934878
 20
-129.7746798720702
 10
83.3468505651008
 20
-129.7409179363148
 10
83.46295028295371
 20
-129.7409179363148
 10
83.74028046951632
 20
-129.7409179363148
 10
83.94767521772836
 20
-129.9248860352271
 10
83.94767521772836
 20
-130.1977375976589
 10
83.94767521772836
 20
-130.426147428331
 10
83.83123099032692
 20
-130.5257106878547
 10
83.52220592530001
 20
-130.7520534612356
 97
        0
 97
        0
 75
     2
 76
     1
 98
        0
  0
SPLINE
  5
56
330
4D
100
AcDbEntity
  8
_U+30EC_U+30A4_U+30E4_U+30FC 1
370
     0
100
AcDbSpline
210
0.0
220
0.0
230
1.0
 70
    11
 71
     3
 72
    29
 73
    25
 74
     0
 42
0.0000000001
 43
0.0000000001
 12
1.0
 22
0.0
 32
0.0
 13
1.0
 23
0.0
 33
0.0
 40
0.0
 40
0.0
 40
0.0
 40
0.0
 40
1.0
 40
1.0
 40
1.0
 40
2.0
 40
2.0
 40
2.0
 40
3.0
 40
3.0
 40
3.0
 40
4.0
 40
4.0
 40
4.0
 40
5.0
 40
5.0
 40
5.0
 40
6.0
 40
6.0
 40
6.0
 40
7.0
 40
7.0
 40
7.0
 40
8.0
 40
8.0
 40
8.0
 40
8.0
 10
85.00394149350596
 20
-131.1561631616554
 30
0.0
 10
84.89576549526912
 20
-131.3656249671586
 30
0.0
 10
84.72247719236105
 20
-131.3845729923275
 30
0.0
 10
84.60603296495961
 20
-131.3845729923275
 30
0.0
 10
84.44514700579843
 20
-131.3845729923275
 30
0.0
 10
84.30355358135468
 20
-131.3380642032766
 30
0.0
 10
84.20846894596177
 20
-131.1561631616554
 30
0.0
 10
84.10477157185575
 20
-130.9611707571903
 30
0.0
 10
84.08547903713836
 20
-130.7244926973536
 30
0.0
 10
84.08547903713836
 20
-130.5615396809013
 30
0.0
 10
84.08547903713836
 20
-130.4175346896178
 30
0.0
 10
84.1027045145646
 20
-130.1660427191946
 30
0.0
 10
84.20846894596177
 20
-129.9669162001472
 30
0.0
 10
84.31630043465009
 20
-129.7640000760659
 30
0.0
 10
84.47718639381127
 20
-129.7409179363148
 30
0.0
 10
84.60603296495961
 20
-129.7409179363148
 30
0.0
 10
84.76485186682963
 20
-129.7409179363148
 30
0.0
 10
84.90851234856454
 20
-129.785015158526
 30
0.0
 10
85.00394149350596
 20
-129.9669162001472
 30
0.0
 10
85.10316024348116
 20
-130.1598415473212
 30
0.0
 10
85.12658689278086
 20
-130.3879068684447
 30
0.0
 10
85.12658689278086
 20
-130.5615396809013
 30
0.0
 10
85.12658689278086
 20
-130.7331054360667
 30
0.0
 10
85.10522730077231
 20
-130.9635823240299
 30
0.0
 10
85.00394149350596
 20
-131.1561631616554
 30
0.0
  0
SPLINE
  5
57
330
4D
100
AcDbEntity
  8
_U+30EC_U+30A4_U+30E4_U+30FC 1
370
     0
100
AcDbSpline
210
0.0
220
0.0
230
1.0
 70
    11
 71
     3
 72
    17
 73
    13
 74
     0
 42
0.0000000001
 43
0.0000000001
 12
1.0
 22
0.0
 32
0.0
 13
1.0
 23
0.0
 33
0.0
 40
0.0
 40
0.0
 40
0.0
 40
0.0
 40
1.0
 40
1.0
 40
1.0
 40
2.0
 40
2.0
 40
2.0
 40
3.0
 40
3.0
 40
3.0
 40
4.0
 40
4.0
 40
4.0
 40
4.0
 10
84.60603296495961
 20
-129.9331542643917
 30
0.0
 10
84.356263542279
 20
-129.9331542643917
 30
0.0
 10
84.30975475322812
 20
-130.2170301323763
 30
0.0
 10
84.30975475322812
 20
-130.5615396809013
 30
0.0
 10
84.30975475322812
 20
-130.8812445419325
 30
0.0
 10
84.34592825582324
 20
-131.1899250974108
 30
0.0
 10
84.60603296495961
 20
-131.1899250974108
 30
0.0
 10
84.85373533034907
 20
-131.1899250974108
 30
0.0
 10
84.90231117669109
 20
-130.908460796266
 30
0.0
 10
84.90231117669109
 20
-130.5615396809013
 30
0.0
 10
84.90231117669109
 20
-130.2421793294186
 30
0.0
 10
84.86407061680482
 20
-129.9331542643917
 30
0.0
 10
84.60603296495961
 20
-129.9331542643917
 30
0.0
  0
HATCH
  5
58
330
4D
100
AcDbEntity
  8
_U+30EC_U+30A4_U+30E4_U+30FC 1
 62
   179
420
  2234388
100
AcDbHatch
 10
0.0
 20
0.0
 30
0.0
210
0.0
220
0.0
230
1.0
  2
SOLID
 70
     1
 71
     0
 91
        2
 92
        1
 93
        1
 72
     4
 94
        3
 73
     0
 74
     1
 95
       29
 96
       25
 40
0.0
 40
0.0
 40
0.0
 40
0.0
 40
1.0
 40
1.0
 40
1.0
 40
2.0
 40
2.0
 40
2.0
 40
3.0
 40
3.0
 40
3.0
 40
4.0
 40
4.0
 40
4.0
 40
5.0
 40
5.0
 40
5.0
 40
6.0
 40
6.0
 40
6.0
 40
7.0
 40
7.0
 40
7.0
 40
8.0
 40
8.0
 40
8.0
 40
8.0
 10
85.00394149350596
 20
-131.1561631616554
 10
84.89576549526912
 20
-131.3656249671586
 10
84.72247719236105
 20
-131.3845729923275
 10
84.60603296495961
 20
-131.3845729923275
 10
84.44514700579843
 20
-131.3845729923275
 10
84.30355358135468
 20
-131.3380642032766
 10
84.20846894596177
 20
-131.1561631616554
 10
84.10477157185575
 20
-130.9611707571903
 10
84.08547903713836
 20
-130.7244926973536
 10
84.08547903713836
 20
-130.5615396809013
 10
84.08547903713836
 20
-130.4175346896178
 10
84.1027045145646
 20
-130.1660427191946
 10
84.20846894596177
 20
-129.9669162001472
 10
84.31630043465009
 20
-129.7640000760659
 10
84.47718639381127
 20
-129.7409179363148
 10
84.60603296495961
 20
-129.7409179363148
 10
84.76485186682963
 20
-129.7409179363148
 10
84.90851234856454
 20
-129.785015158526
 10
85.00394149350596
 20
-129.9669162001472
 10
85.10316024348116
 20
-130.1598415473212
 10
85.12658689278086
 20
-130.3879068684447
 10
85.12658689278086
 20
-130.5615396809013
 10
85.12658689278086
 20
-130.7331054360667
 10
85.10522730077231
 20
-130.9635823240299
 10
85.00394149350596
 20
-131.1561631616554
 97
        0
 97
        0
 92
        1
 93
        1
 72
     4
 94
        3
 73
     0
 74
     1
 95
       17
 96
       13
 40
0.0
 40
0.0
 40
0.0
 40
0.0
 40
1.0
 40
1.0
 40
1.0
 40
2.0
 40
2.0
 40
2.0
 40
3.0
 40
3.0
 40
3.0
 40
4.0
 40
4.0
 40
4.0
 40
4.0
 10
84.60603296495961
 20
-129.9331542643917
 10
84.356263542279
 20
-129.9331542643917
 10
84.30975475322812
 20
-130.2170301323763
 10
84.30975475322812
 20
-130.5615396809013
 10
84.30975475322812
 20
-130.8812445419325
 10
84.34592825582324
 20
-131.1899250974108
 10
84.60603296495961
 20
-131.1899250974108
 10
84.85373533034907
 20
-131.1899250974108
 10
84.90231117669109
 20
-130.908460796266
 10
84.90231117669109
 20
-130.5615396809013
 10
84.90231117669109
 20
-130.2421793294186
 10
84.86407061680482
 20
-129.9331542643917
 10
84.60603296495961
 20
-129.9331542643917
 97
        0
 97
        0
 75
     2
 76
     1
 98
        0
  0
ENDBLK
  5
50
330
4D
100
AcDbEntity
  8
0
100
AcDbBlockEnd
  0
BLOCK
  5
8F
330
8D
100
AcDbEntity
  8
0
100
AcDbBlockBegin
  2
block 3
 70
     0
 10
0.0
 20
0.0
 30
0.0
  3
block 3
  1

  0
SPLINE
  5
91
330
8D
100
AcDbEntity
  8
_U+30EC_U+30A4_U+30E4_U+30FC 1
370
     0
100
AcDbSpline
210
0.0
220
0.0
230
1.0
 70
    11
 71
     3
 72
    26
 73
    22
 74
     0
 42
0.0000000001
 43
0.0000000001
 12
1.0
 22
0.0
 32
0.0
 13
1.0
 23
0.0
 33
0.0
 40
0.0
 40
0.0
 40
0.0
 40
0.0
 40
1.0
 40
1.0
 40
1.0
 40
2.0
 40
2.0
 40
2.0
 40
3.0
 40
3.0
 40
3.0
 40
4.0
 40
4.0
 40
4.0
 40
5.0
 40
5.0
 40
5.0
 40
6.0
 40
6.0
 40
6.0
 40
7.0
 40
7.0
 40
7.0
 40
7.0
 10
106.0462402078634
 20
-140.2663736628501
 30
0.0
 10
106.0462402078634
 20
-140.2663736628501
 30
0.0
 10
104.9420871048409
 20
-140.2663736628501
 30
0.0
 10
104.9420871048409
 20
-140.2663736628501
 30
0.0
 10
104.9420871048409
 20
-140.2663736628501
 30
0.0
 10
104.9420871048409
 20
-140.596413810337
 30
0.0
 10
104.9420871048409
 20
-140.596413810337
 30
0.0
 10
104.9420871048409
 20
-140.596413810337
 30
0.0
 10
104.7939479989751
 20
-140.596413810337
 30
0.0
 10
104.7939479989751
 20
-140.596413810337
 30
0.0
 10
104.7791340883886
 20
-140.2643066055589
 30
0.0
 10
104.6165255814848
 20
-140.2177978165081
 30
0.0
 10
104.5021484113745
 20
-140.1881699953349
 30
0.0
 10
104.5021484113745
 20
-140.1881699953349
 30
0.0
 10
104.5021484113745
 20
-140.0420979467603
 30
0.0
 10
104.5021484113745
 20
-140.0420979467603
 30
0.0
 10
104.5021484113745
 20
-140.0420979467603
 30
0.0
 10
106.0462402078634
 20
-140.0420979467603
 30
0.0
 10
106.0462402078634
 20
-140.0420979467603
 30
0.0
 10
106.0462402078634
 20
-140.0420979467603
 30
0.0
 10
106.0462402078634
 20
-140.2663736628501
 30
0.0
 10
106.0462402078634
 20
-140.2663736628501
 30
0.0
  0
HATCH
  5
92
330
8D
100
AcDbEntity
  8
_U+30EC_U+30A4_U+30E4_U+30FC 1
 62
   179
420
  2234388
100
AcDbHatch
 10
0.0
 20
0.0
 30
0.0
210
0.0
220
0.0
230
1.0
  2
SOLID
 70
     1
 71
     0
 91
        1
 92
        1
 93
        1
 72
     4
 94
        3
 73
     0
 74
     1
 95
       26
 96
       22
 40
0.0
 40
0.0
 40
0.0
 40
0.0
 40
1.0
 40
1.0
 40
1.0
 40
2.0
 40
2.0
 40
2.0
 40
3.0
 40
3.0
 40
3.0
 40
4.0
 40
4.0
 40
4.0
 40
5.0
 40
5.0
 40
5.0
 40
6.0
 40
6.0
 40
6.0
 40
7.0
 40
7.0
 40
7.0
 40
7.0
 10
106.0462402078634
 20
-140.2663736628501
 10
106.0462402078634
 20
-140.2663736628501
 10
104.9420871048409
 20
-140.2663736628501
 10
104.9420871048409
 20
-140.2663736628501
 10
104.9420871048409
 20
-140.2663736628501
 10
104.9420871048409
 20
-140.596413810337
 10
104.9420871048409
 20
-140.596413810337
 10
104.9420871048409
 20
-140.596413810337
 10
104.7939479989751
 20
-140.596413810337
 10
104.7939479989751
 20
-140.596413810337
 10
104.7791340883886
 20
-140.2643066055589
 10
104.6165255814848
 20
-140.2177978165081
 10
104.5021484113745
 20
-140.1881699953349
 10
104.5021484113745
 20
-140.1881699953349
 10
104.5021484113745
 20
-140.0420979467603
 10
104.5021484113745
 20
-140.0420979467603
 10
104.5021484113745
 20
-140.0420979467603
 10
106.0462402078634
 20
-140.0420979467603
 10
106.0462402078634
 20
-140.0420979467603
 10
106.0462402078634
 20
-140.0420979467603
 10
106.0462402078634
 20
-140.2663736628501
 10
106.0462402078634
 20
-140.2663736628501
 97
        0
 97
        0
 75
     2
 76
     1
 98
        0
  0
SPLINE
  5
93
330
8D
100
AcDbEntity
  8
_U+30EC_U+30A4_U+30E4_U+30FC 1
370
     0
100
AcDbSpline
210
0.0
220
0.0
230
1.0
 70
    11
 71
     3
 72
    62
 73
    58
 74
     0
 42
0.0000000001
 43
0.0000000001
 12
1.0
 22
0.0
 32
0.0
 13
1.0
 23
0.0
 33
0.0
 40
0.0
 40
0.0
 40
0.0
 40
0.0
 40
1.0
 40
1.0
 40
1.0
 40
2.0
 40
2.0
 40
2.0
 40
3.0
 40
3.0
 40
3.0
 40
4.0
 40
4.0
 40
4.0
 40
5.0
 40
5.0
 40
5.0
 40
6.0
 40
6.0
 40
6.0
 40
7.0
 40
7.0
 40
7.0
 40
8.0
 40
8.0
 40
8.0
 40
9.0
 40
9.0
 40
9.0
 40
10.0
 40
10.0
 40
10.0
 40
11.0
 40
11.0
 40
11.0
 40
12.0
 40
12.0
 40
12.0
 40
13.0
 40
13.0
 40
13.0
 40
14.0
 40
14.0
 40
14.0
 40
15.0
 40
15.0
 40
15.0
 40
16.0
 40
16.0
 40
16.0
 40
17.0
 40
17.0
 40
17.0
 40
18.0
 40
18.0
 40
18.0
 40
19.0
 40
19.0
 40
19.0
 40
19.0
 10
106.0972276210451
 20
-139.0492214279113
 30
0.0
 10
106.0972276210451
 20
-139.1446505728527
 30
0.0
 10
106.0758680290366
 20
-139.3623806075205
 30
0.0
 10
105.8898328728331
 20
-139.4874375736351
 30
0.0
 10
105.777522760014
 20
-139.561507126568
 30
0.0
 10
105.6783040100388
 20
-139.5656412411503
 30
0.0
 10
105.5935546611016
 20
-139.5697753557326
 30
0.0
 10
105.5935546611016
 20
-139.5697753557326
 30
0.0
 10
105.5935546611016
 20
-139.3496337542251
 30
0.0
 10
105.5935546611016
 20
-139.3496337542251
 30
0.0
 10
105.667968723583
 20
-139.3475666969339
 30
0.0
 10
105.9025797261285
 20
-139.3372314104782
 30
0.0
 10
105.9025797261285
 20
-139.0537000520421
 30
0.0
 10
105.9025797261285
 20
-138.9162407421807
 30
0.0
 10
105.832644287778
 20
-138.7636230121841
 30
0.0
 10
105.6042344571059
 20
-138.7636230121841
 30
0.0
 10
105.488134739253
 20
-138.7636230121841
 30
0.0
 10
105.4392143833624
 20
-138.8018635720704
 30
0.0
 10
105.4075195048981
 20
-138.8335584505347
 30
0.0
 10
105.3334499519652
 20
-138.9076280034676
 30
0.0
 10
105.3207030986698
 20
-139.024072230869
 30
0.0
 10
105.3207030986698
 20
-139.0788492490845
 30
0.0
 10
105.3207030986698
 20
-139.0981417838019
 30
0.0
 10
105.322770155961
 20
-139.1339707768485
 30
0.0
 10
105.3269042705433
 20
-139.1615315407305
 30
0.0
 10
105.3269042705433
 20
-139.1615315407305
 30
0.0
 10
105.1326008851752
 20
-139.1615315407305
 30
0.0
 10
105.1326008851752
 20
-139.1615315407305
 30
0.0
 10
105.1388020570486
 20
-139.1232909808442
 30
0.0
 10
105.1408691143398
 20
-139.0812608159241
 30
0.0
 10
105.1408691143398
 20
-139.0747151345022
 30
0.0
 10
105.1408691143398
 20
-139.0092583202824
 30
0.0
 10
105.1198540318798
 20
-138.8104763107835
 30
0.0
 10
104.8828314624946
 20
-138.8104763107835
 30
0.0
 10
104.7054090450042
 20
-138.8104763107835
 30
0.0
 10
104.6502875172402
 20
-138.941389939223
 30
0.0
 10
104.6502875172402
 20
-139.051632994751
 30
0.0
 10
104.6502875172402
 20
-139.3158718184696
 30
0.0
 10
104.8828314624946
 20
-139.3244845571828
 30
0.0
 10
104.9548339581363
 20
-139.3286186717651
 30
0.0
 10
104.9548339581363
 20
-139.3286186717651
 30
0.0
 10
104.9548339581363
 20
-139.5318793053948
 30
0.0
 10
104.9548339581363
 20
-139.5318793053948
 30
0.0
 10
104.8301215015702
 20
-139.5232665666817
 30
0.0
 10
104.4532280554839
 20
-139.4957058027997
 30
0.0
 10
104.4532280554839
 20
-139.0388861414555
 30
0.0
 10
104.4532280554839
 20
-138.8146104253658
 30
0.0
 10
104.5803520788896
 20
-138.5734537413983
 30
0.0
 10
104.8762857810726
 20
-138.5734537413983
 30
0.0
 10
105.0626654468246
 20
-138.5734537413983
 30
0.0
 10
105.1450032289221
 20
-138.6685383767912
 30
0.0
 10
105.2063259285595
 20
-138.7681016363149
 30
0.0
 10
105.2338866924415
 20
-138.7067789366775
 30
0.0
 10
105.3145019267964
 20
-138.5248778950563
 30
0.0
 10
105.5914876038105
 20
-138.5248778950563
 30
0.0
 10
105.9301404900105
 20
-138.5248778950563
 30
0.0
 10
106.0972276210451
 20
-138.7722357508972
 30
0.0
 10
106.0972276210451
 20
-139.0492214279113
 30
0.0
  0
HATCH
  5
94
330
8D
100
AcDbEntity
  8
_U+30EC_U+30A4_U+30E4_U+30FC 1
 62
   179
420
  2234388
100
AcDbHatch
 10
0.0
 20
0.0
 30
0.0
210
0.0
220
0.0
230
1.0
  2
SOLID
 70
     1
 71
     0
 91
        1
 92
        1
 93
        1
 72
     4
 94
        3
 73
     0
 74
     1
 95
       62
 96
       58
 40
0.0
 40
0.0
 40
0.0
 40
0.0
 40
1.0
 40
1.0
 40
1.0
 40
2.0
 40
2.0
 40
2.0
 40
3.0
 40
3.0
 40
3.0
 40
4.0
 40
4.0
 40
4.0
 40
5.0
 40
5.0
 40
5.0
 40
6.0
 40
6.0
 40
6.0
 40
7.0
 40
7.0
 40
7.0
 40
8.0
 40
8.0
 40
8.0
 40
9.0
 40
9.0
 40
9.0
 40
10.0
 40
10.0
 40
10.0
 40
11.0
 40
11.0
 40
11.0
 40
12.0
 40
12.0
 40
12.0
 40
13.0
 40
13.0
 40
13.0
 40
14.0
 40
14.0
 40
14.0
 40
15.0
 40
15.0
 40
15.0
 40
16.0
 40
16.0
 40
16.0
 40
17.0
 40
17.0
 40
17.0
 40
18.0
 40
18.0
 40
18.0
 40
19.0
 40
19.0
 40
19.0
 40
19.0
 10
106.0972276210451
 20
-139.0492214279113
 10
106.0972276210451
 20
-139.1446505728527
 10
106.0758680290366
 20
-139.3623806075205
 10
105.8898328728331
 20
-139.4874375736351
 10
105.777522760014
 20
-139.561507126568
 10
105.6783040100388
 20
-139.5656412411503
 10
105.5935546611016
 20
-139.5697753557326
 10
105.5935546611016
 20
-139.5697753557326
 10
105.5935546611016
 20
-139.3496337542251
 10
105.5935546611016
 20
-139.3496337542251
 10
105.667968723583
 20
-139.3475666969339
 10
105.9025797261285
 20
-139.3372314104782
 10
105.9025797261285
 20
-139.0537000520421
 10
105.9025797261285
 20
-138.9162407421807
 10
105.832644287778
 20
-138.7636230121841
 10
105.6042344571059
 20
-138.7636230121841
 10
105.488134739253
 20
-138.7636230121841
 10
105.4392143833624
 20
-138.8018635720704
 10
105.4075195048981
 20
-138.8335584505347
 10
105.3334499519652
 20
-138.9076280034676
 10
105.3207030986698
 20
-139.024072230869
 10
105.3207030986698
 20
-139.0788492490845
 10
105.3207030986698
 20
-139.0981417838019
 10
105.322770155961
 20
-139.1339707768485
 10
105.3269042705433
 20
-139.1615315407305
 10
105.3269042705433
 20
-139.1615315407305
 10
105.1326008851752
 20
-139.1615315407305
 10
105.1326008851752
 20
-139.1615315407305
 10
105.1388020570486
 20
-139.1232909808442
 10
105.1408691143398
 20
-139.0812608159241
 10
105.1408691143398
 20
-139.0747151345022
 10
105.1408691143398
 20
-139.0092583202824
 10
105.1198540318798
 20
-138.8104763107835
 10
104.8828314624946
 20
-138.8104763107835
 10
104.7054090450042
 20
-138.8104763107835
 10
104.6502875172402
 20
-138.941389939223
 10
104.6502875172402
 20
-139.051632994751
 10
104.6502875172402
 20
-139.3158718184696
 10
104.8828314624946
 20
-139.3244845571828
 10
104.9548339581363
 20
-139.3286186717651
 10
104.9548339581363
 20
-139.3286186717651
 10
104.9548339581363
 20
-139.5318793053948
 10
104.9548339581363
 20
-139.5318793053948
 10
104.8301215015702
 20
-139.5232665666817
 10
104.4532280554839
 20
-139.4957058027997
 10
104.4532280554839
 20
-139.0388861414555
 10
104.4532280554839
 20
-138.8146104253658
 10
104.5803520788896
 20
-138.5734537413983
 10
104.8762857810726
 20
-138.5734537413983
 10
105.0626654468246
 20
-138.5734537413983
 10
105.1450032289221
 20
-138.6685383767912
 10
105.2063259285595
 20
-138.7681016363149
 10
105.2338866924415
 20
-138.7067789366775
 10
105.3145019267964
 20
-138.5248778950563
 10
105.5914876038105
 20
-138.5248778950563
 10
105.9301404900105
 20
-138.5248778950563
 10
106.0972276210451
 20
-138.7722357508972
 10
106.0972276210451
 20
-139.0492214279113
 97
        0
 97
        0
 75
     2
 76
     1
 98
        0
  0
ENDBLK
  5
90
330
8D
100
AcDbEntity
  8
0
100
AcDbBlockEnd
  0
BLOCK
  5
9F
330
9D
100
AcDbEntity
  8
0
100
AcDbBlockBegin
  2
block 4
 70
     0
 10
0.0
 20
0.0
 30
0.0
  3
block 4
  1

  0
SPLINE
  5
A1
330
9D
100
AcDbEntity
  8
_U+30EC_U+30A4_U+30E4_U+30FC 1
370
     0
100
AcDbSpline
210
0.0
220
0.0
230
1.0
 70
    11
 71
     3
 72
    44
 73
    40
 74
     0
 42
0.0000000001
 43
0.0000000001
 12
1.0
 22
0.0
 32
0.0
 13
1.0
 23
0.0
 33
0.0
 40
0.0
 40
0.0
 40
0.0
 40
0.0
 40
1.0
 40
1.0
 40
1.0
 40
2.0
 40
2.0
 40
2.0
 40
3.0
 40
3.0
 40
3.0
 40
4.0
 40
4.0
 40
4.0
 40
5.0
 40
5.0
 40
5.0
 40
6.0
 40
6.0
 40
6.0
 40
7.0
 40
7.0
 40
7.0
 40
8.0
 40
8.0
 40
8.0
 40
9.0
 40
9.0
 40
9.0
 40
10.0
 40
10.0
 40
10.0
 40
11.0
 40
11.0
 40
11.0
 40
12.0
 40
12.0
 40
12.0
 40
13.0
 40
13.0
 40
13.0
 40
13.0
 10
101.3691785770883
 20
-147.6922769813061
 30
0.0
 10
101.1514485424205
 20
-147.8510958831761
 30
0.0
 10
101.0584309643187
 20
-147.9248209265605
 30
0.0
 10
101.0095106084282
 20
-148.0688259178439
 30
0.0
 10
101.0095106084282
 20
-148.0688259178439
 30
0.0
 10
101.7881021880946
 20
-148.0688259178439
 30
0.0
 10
101.7881021880946
 20
-148.0688259178439
 30
0.0
 10
101.7881021880946
 20
-148.0688259178439
 30
0.0
 10
101.7881021880946
 20
-148.2741536087648
 30
0.0
 10
101.7881021880946
 20
-148.2741536087648
 30
0.0
 10
101.7881021880946
 20
-148.2741536087648
 30
0.0
 10
100.7600856952961
 20
-148.2741536087648
 30
0.0
 10
100.7600856952961
 20
-148.2741536087648
 30
0.0
 10
100.7917805737604
 20
-147.9165526973959
 30
0.0
 10
100.8572373879801
 20
-147.8380045203322
 30
0.0
 10
101.2423990632311
 20
-147.5396592513095
 30
0.0
 10
101.4983696577851
 20
-147.3412217513591
 30
0.0
 10
101.5638264720049
 20
-147.2733533702997
 30
0.0
 10
101.5638264720049
 20
-147.1358940604383
 30
0.0
 10
101.5638264720049
 20
-147.0173827757457
 30
0.0
 10
101.4918239763632
 20
-146.8864691473062
 30
0.0
 10
101.2951090241554
 20
-146.8864691473062
 30
0.0
 10
101.035004315019
 20
-146.8864691473062
 30
0.0
 10
101.0263915763059
 20
-147.1166015257209
 30
0.0
 10
101.0222574617236
 20
-147.2330457531223
 30
0.0
 10
101.0222574617236
 20
-147.2330457531223
 30
0.0
 10
100.7979817456338
 20
-147.2330457531223
 30
0.0
 10
100.7979817456338
 20
-147.2330457531223
 30
0.0
 10
100.806594484347
 20
-147.1062662392651
 30
0.0
 10
100.8172742803512
 20
-146.993956126446
 30
0.0
 10
100.8975450051576
 20
-146.8754448417534
 30
0.0
 10
101.007443551137
 20
-146.7149033921407
 30
0.0
 10
101.193823216889
 20
-146.6811414563853
 30
0.0
 10
101.309922934742
 20
-146.6811414563853
 30
0.0
 10
101.5872531213046
 20
-146.6811414563853
 30
0.0
 10
101.7946478695166
 20
-146.8651095552976
 30
0.0
 10
101.7946478695166
 20
-147.1379611177294
 30
0.0
 10
101.7946478695166
 20
-147.3663709484015
 30
0.0
 10
101.6782036421152
 20
-147.4659342079252
 30
0.0
 10
101.3691785770883
 20
-147.6922769813061
 30
0.0
  0
HATCH
  5
A2
330
9D
100
AcDbEntity
  8
_U+30EC_U+30A4_U+30E4_U+30FC 1
 62
   179
420
  2234388
100
AcDbHatch
 10
0.0
 20
0.0
 30
0.0
210
0.0
220
0.0
230
1.0
  2
SOLID
 70
     1
 71
     0
 91
        1
 92
        1
 93
        1
 72
     4
 94
        3
 73
     0
 74
     1
 95
       44
 96
       40
 40
0.0
 40
0.0
 40
0.0
 40
0.0
 40
1.0
 40
1.0
 40
1.0
 40
2.0
 40
2.0
 40
2.0
 40
3.0
 40
3.0
 40
3.0
 40
4.0
 40
4.0
 40
4.0
 40
5.0
 40
5.0
 40
5.0
 40
6.0
 40
6.0
 40
6.0
 40
7.0
 40
7.0
 40
7.0
 40
8.0
 40
8.0
 40
8.0
 40
9.0
 40
9.0
 40
9.0
 40
10.0
 40
10.0
 40
10.0
 40
11.0
 40
11.0
 40
11.0
 40
12.0
 40
12.0
 40
12.0
 40
13.0
 40
13.0
 40
13.0
 40
13.0
 10
101.3691785770883
 20
-147.6922769813061
 10
101.1514485424205
 20
-147.8510958831761
 10
101.0584309643187
 20
-147.9248209265605
 10
101.0095106084282
 20
-148.0688259178439
 10
101.0095106084282
 20
-148.0688259178439
 10
101.7881021880946
 20
-148.0688259178439
 10
101.7881021880946
 20
-148.0688259178439
 10
101.7881021880946
 20
-148.0688259178439
 10
101.7881021880946
 20
-148.2741536087648
 10
101.7881021880946
 20
-148.2741536087648
 10
101.7881021880946
 20
-148.2741536087648
 10
100.7600856952961
 20
-148.2741536087648
 10
100.7600856952961
 20
-148.2741536087648
 10
100.7917805737604
 20
-147.9165526973959
 10
100.8572373879801
 20
-147.8380045203322
 10
101.2423990632311
 20
-147.5396592513095
 10
101.4983696577851
 20
-147.3412217513591
 10
101.5638264720049
 20
-147.2733533702997
 10
101.5638264720049
 20
-147.1358940604383
 10
101.5638264720049
 20
-147.0173827757457
 10
101.4918239763632
 20
-146.8864691473062
 10
101.2951090241554
 20
-146.8864691473062
 10
101.035004315019
 20
-146.8864691473062
 10
101.0263915763059
 20
-147.1166015257209
 10
101.0222574617236
 20
-147.2330457531223
 10
101.0222574617236
 20
-147.2330457531223
 10
100.7979817456338
 20
-147.2330457531223
 10
100.7979817456338
 20
-147.2330457531223
 10
100.806594484347
 20
-147.1062662392651
 10
100.8172742803512
 20
-146.993956126446
 10
100.8975450051576
 20
-146.8754448417534
 10
101.007443551137
 20
-146.7149033921407
 10
101.193823216889
 20
-146.6811414563853
 10
101.309922934742
 20
-146.6811414563853
 10
101.5872531213046
 20
-146.6811414563853
 10
101.7946478695166
 20
-146.8651095552976
 10
101.7946478695166
 20
-147.1379611177294
 10
101.7946478695166
 20
-147.3663709484015
 10
101.6782036421152
 20
-147.4659342079252
 10
101.3691785770883
 20
-147.6922769813061
 97
        0
 97
        0
 75
     2
 76
     1
 98
        0
  0
SPLINE
  5
A3
330
9D
100
AcDbEntity
  8
_U+30EC_U+30A4_U+30E4_U+30FC 1
370
     0
100
AcDbSpline
210
0.0
220
0.0
230
1.0
 70
    11
 71
     3
 72
    29
 73
    25
 74
     0
 42
0.0000000001
 43
0.0000000001
 12
1.0
 22
0.0
 32
0.0
 13
1.0
 23
0.0
 33
0.0
 40
0.0
 40
0.0
 40
0.0
 40
0.0
 40
1.0
 40
1.0
 40
1.0
 40
2.0
 40
2.0
 40
2.0
 40
3.0
 40
3.0
 40
3.0
 40
4.0
 40
4.0
 40
4.0
 40
5.0
 40
5.0
 40
5.0
 40
6.0
 40
6.0
 40
6.0
 40
7.0
 40
7.0
 40
7.0
 40
8.0
 40
8.0
 40
8.0
 40
8.0
 10
102.8509141452942
 20
-148.0963866817259
 30
0.0
 10
102.7427381470574
 20
-148.3058484872291
 30
0.0
 10
102.5694498441493
 20
-148.324796512398
 30
0.0
 10
102.4530056167479
 20
-148.324796512398
 30
0.0
 10
102.2921196575867
 20
-148.324796512398
 30
0.0
 10
102.1505262331429
 20
-148.2782877233471
 30
0.0
 10
102.05544159775
 20
-148.0963866817259
 30
0.0
 10
101.951744223644
 20
-147.9013942772608
 30
0.0
 10
101.9324516889266
 20
-147.6647162174241
 30
0.0
 10
101.9324516889266
 20
-147.5017632009718
 30
0.0
 10
101.9324516889266
 20
-147.3577582096883
 30
0.0
 10
101.9496771663529
 20
-147.1062662392651
 30
0.0
 10
102.05544159775
 20
-146.9071397202177
 30
0.0
 10
102.1632730864384
 20
-146.7042235961364
 30
0.0
 10
102.3241590455995
 20
-146.6811414563853
 30
0.0
 10
102.4530056167479
 20
-146.6811414563853
 30
0.0
 10
102.6118245186179
 20
-146.6811414563853
 30
0.0
 10
102.7554850003528
 20
-146.7252386785965
 30
0.0
 10
102.8509141452942
 20
-146.9071397202177
 30
0.0
 10
102.9501328952694
 20
-147.1000650673917
 30
0.0
 10
102.9735595445691
 20
-147.3281303885152
 30
0.0
 10
102.9735595445691
 20
-147.5017632009718
 30
0.0
 10
102.9735595445691
 20
-147.6733289561372
 30
0.0
 10
102.9521999525606
 20
-147.9038058441004
 30
0.0
 10
102.8509141452942
 20
-148.0963866817259
 30
0.0
  0
SPLINE
  5
A4
330
9D
100
AcDbEntity
  8
_U+30EC_U+30A4_U+30E4_U+30FC 1
370
     0
100
AcDbSpline
210
0.0
220
0.0
230
1.0
 70
    11
 71
     3
 72
    17
 73
    13
 74
     0
 42
0.0000000001
 43
0.0000000001
 12
1.0
 22
0.0
 32
0.0
 13
1.0
 23
0.0
 33
0.0
 40
0.0
 40
0.0
 40
0.0
 40
0.0
 40
1.0
 40
1.0
 40
1.0
 40
2.0
 40
2.0
 40
2.0
 40
3.0
 40
3.0
 40
3.0
 40
4.0
 40
4.0
 40
4.0
 40
4.0
 10
102.4530056167479
 20
-146.8733777844622
 30
0.0
 10
102.2032361940672
 20
-146.8733777844622
 30
0.0
 10
102.1567274050164
 20
-147.1572536524468
 30
0.0
 10
102.1567274050164
 20
-147.5017632009718
 30
0.0
 10
102.1567274050164
 20
-147.821468062003
 30
0.0
 10
102.1929009076115
 20
-148.1301486174814
 30
0.0
 10
102.4530056167479
 20
-148.1301486174814
 30
0.0
 10
102.7007079821373
 20
-148.1301486174814
 30
0.0
 10
102.7492838284793
 20
-147.8486843163365
 30
0.0
 10
102.7492838284793
 20
-147.5017632009718
 30
0.0
 10
102.7492838284793
 20
-147.1824028494891
 30
0.0
 10
102.7110432685931
 20
-146.8733777844622
 30
0.0
 10
102.4530056167479
 20
-146.8733777844622
 30
0.0
  0
HATCH
  5
A5
330
9D
100
AcDbEntity
  8
_U+30EC_U+30A4_U+30E4_U+30FC 1
 62
   179
420
  2234388
100
AcDbHatch
 10
0.0
 20
0.0
 30
0.0
210
0.0
220
0.0
230
1.0
  2
SOLID
 70
     1
 71
     0
 91
        2
 92
        1
 93
        1
 72
     4
 94
        3
 73
     0
 74
     1
 95
       29
 96
       25
 40
0.0
 40
0.0
 40
0.0
 40
0.0
 40
1.0
 40
1.0
 40
1.0
 40
2.0
 40
2.0
 40
2.0
 40
3.0
 40
3.0
 40
3.0
 40
4.0
 40
4.0
 40
4.0
 40
5.0
 40
5.0
 40
5.0
 40
6.0
 40
6.0
 40
6.0
 40
7.0
 40
7.0
 40
7.0
 40
8.0
 40
8.0
 40
8.0
 40
8.0
 10
102.8509141452942
 20
-148.0963866817259
 10
102.7427381470574
 20
-148.3058484872291
 10
102.5694498441493
 20
-148.324796512398
 10
102.4530056167479
 20
-148.324796512398
 10
102.2921196575867
 20
-148.324796512398
 10
102.1505262331429
 20
-148.2782877233471
 10
102.05544159775
 20
-148.0963866817259
 10
101.951744223644
 20
-147.9013942772608
 10
101.9324516889266
 20
-147.6647162174241
 10
101.9324516889266
 20
-147.5017632009718
 10
101.9324516889266
 20
-147.3577582096883
 10
101.9496771663529
 20
-147.1062662392651
 10
102.05544159775
 20
-146.9071397202177
 10
102.1632730864384
 20
-146.7042235961364
 10
102.3241590455995
 20
-146.6811414563853
 10
102.4530056167479
 20
-146.6811414563853
 10
102.6118245186179
 20
-146.6811414563853
 10
102.7554850003528
 20
-146.7252386785965
 10
102.8509141452942
 20
-146.9071397202177
 10
102.9501328952694
 20
-147.1000650673917
 10
102.9735595445691
 20
-147.3281303885152
 10
102.9735595445691
 20
-147.5017632009718
 10
102.9735595445691
 20
-147.6733289561372
 10
102.9521999525606
 20
-147.9038058441004
 10
102.8509141452942
 20
-148.0963866817259
 97
        0
 97
        0
 92
        1
 93
        1
 72
     4
 94
        3
 73
     0
 74
     1
 95
       17
 96
       13
 40
0.0
 40
0.0
 40
0.0
 40
0.0
 40
1.0
 40
1.0
 40
1.0
 40
2.0
 40
2.0
 40
2.0
 40
3.0
 40
3.0
 40
3.0
 40
4.0
 40
4.0
 40
4.0
 40
4.0
 10
102.4530056167479
 20
-146.8733777844622
 10
102.2032361940672
 20
-146.8733777844622
 10
102.1567274050164
 20
-147.1572536524468
 10
102.1567274050164
 20
-147.5017632009718
 10
102.1567274050164
 20
-147.821468062003
 10
102.1929009076115
 20
-148.1301486174814
 10
102.4530056167479
 20
-148.1301486174814
 10
102.7007079821373
 20
-148.1301486174814
 10
102.7492838284793
 20
-147.8486843163365
 10
102.7492838284793
 20
-147.5017632009718
 10
102.7492838284793
 20
-147.1824028494891
 10
102.7110432685931
 20
-146.8733777844622
 10
102.4530056167479
 20
-146.8733777844622
 97
        0
 97
        0
 75
     2
 76
     1
 98
        0
  0
ENDBLK
  5
A0
330
9D
100
AcDbEntity
  8
0
100
AcDbBlockEnd
  0
ENDSEC
  0
SECTION
  2
ENTITIES
  0
POLYLINE
  5
41
330
1F
100
AcDbEntity
  8
_U+30EC_U+30A4_U+30E4_U+30FC 1
 62
   179
420
  2234388
370
     9
100
AcDb2dPolyline
 66
     1
 10
0.0
 20
0.0
 30
0.0
  0
VERTEX
  5
42
330
41
100
AcDbEntity
  8
_U+30EC_U+30A4_U+30E4_U+30FC 1
 62
   179
420
  2234388
370
     9
100
AcDbVertex
100
AcDb2dVertex
 10
78.5681599400037
 20
-139.2555705207417
 30
0.0
  0
VERTEX
  5
43
330
41
100
AcDbEntity
  8
_U+30EC_U+30A4_U+30E4_U+30FC 1
 62
   179
420
  2234388
370
     9
100
AcDbVertex
100
AcDb2dVertex
 10
79.34779880900234
 20
-138.8053202430767
 30
0.0
  0
SEQEND
  5
44
330
41
100
AcDbEntity
  8
_U+30EC_U+30A4_U+30E4_U+30FC 1
 62
   179
420
  2234388
370
     9
  0
POLYLINE
  5
45
330
1F
100
AcDbEntity
  8
_U+30EC_U+30A4_U+30E4_U+30FC 1
 62
   179
420
  2234388
370
     9
100
AcDb2dPolyline
 66
     1
 10
0.0
 20
0.0
 30
0.0
  0
VERTEX
  5
46
330
45
100
AcDbEntity
  8
_U+30EC_U+30A4_U+30E4_U+30FC 1
 62
   179
420
  2234388
370
     9
100
AcDbVertex
100
AcDb2dVertex
 10
78.56780716223491
 20
-139.2555705207417
 30
0.0
  0
VERTEX
  5
47
330
45
100
AcDbEntity
  8
_U+30EC_U+30A4_U+30E4_U+30FC 1
 62
   179
420
  2234388
370
     9
100
AcDbVertex
100
AcDb2dVertex
 10
91.42179433430238
 20
-126.0274621907153
 30
0.0
  0
SEQEND
  5
48
330
45
100
AcDbEntity
  8
_U+30EC_U+30A4_U+30E4_U+30FC 1
 62
   179
420
  2234388
370
     9
  0
POLYLINE
  5
49
330
1F
100
AcDbEntity
  8
_U+30EC_U+30A4_U+30E4_U+30FC 1
 62
   179
420
  2234388
370
     9
100
AcDb2dPolyline
 66
     1
 10
0.0
 20
0.0
 30
0.0
  0
VERTEX
  5
4A
330
49
100
AcDbEntity
  8
_U+30EC_U+30A4_U+30E4_U+30FC 1
 62
   179
420
  2234388
370
     9
100
AcDbVertex
100
AcDb2dVertex
 10
78.5681599400037
 20
-139.2555705207417
 30
0.0
  0
VERTEX
  5
4B
330
49
100
AcDbEntity
  8
_U+30EC_U+30A4_U+30E4_U+30FC 1
 62
   179
420
  2234388
370
     9
100
AcDbVertex
100
AcDb2dVertex
 10
79.0184454840715
 20
-138.4759669098256
 30
0.0
  0
SEQEND
  5
4C
330
49
100
AcDbEntity
  8
_U+30EC_U+30A4_U+30E4_U+30FC 1
 62
   179
420
  2234388
370
     9
  0
INSERT
  5
4E
330
1F
100
AcDbEntity
  8
_U+30EC_U+30A4_U+30E4_U+30FC 1
100
AcDbBlockReference
  2
block 2
 10
0.0
 20
0.0
 30
0.0
  0
SPLINE
  5
59
330
1F
100
AcDbEntity
  8
_U+30EC_U+30A4_U+30E4_U+30FC 1
370
     0
100
AcDbSpline
210
0.0
220
0.0
230
1.0
 70
    11
 71
     3
 72
    77
 73
    73
 74
     0
 42
0.0000000001
 43
0.0000000001
 12
1.0
 22
0.0
 32
0.0
 13
1.0
 23
0.0
 33
0.0
 40
0.0
 40
0.0
 40
0.0
 40
0.0
 40
1.0
 40
1.0
 40
1.0
 40
2.0
 40
2.0
 40
2.0
 40
3.0
 40
3.0
 40
3.0
 40
4.0
 40
4.0
 40
4.0
 40
5.0
 40
5.0
 40
5.0
 40
6.0
 40
6.0
 40
6.0
 40
7.0
 40
7.0
 40
7.0
 40
8.0
 40
8.0
 40
8.0
 40
9.0
 40
9.0
 40
9.0
 40
10.0
 40
10.0
 40
10.0
 40
11.0
 40
11.0
 40
11.0
 40
12.0
 40
12.0
 40
12.0
 40
13.0
 40
13.0
 40
13.0
 40
14.0
 40
14.0
 40
14.0
 40
15.0
 40
15.0
 40
15.0
 40
16.0
 40
16.0
 40
16.0
 40
17.0
 40
17.0
 40
17.0
 40
18.0
 40
18.0
 40
18.0
 40
19.0
 40
19.0
 40
19.0
 40
20.0
 40
20.0
 40
20.0
 40
21.0
 40
21.0
 40
21.0
 40
22.0
 40
22.0
 40
22.0
 40
23.0
 40
23.0
 40
23.0
 40
24.0
 40
24.0
 40
24.0
 40
24.0
 10
82.99957788250435
 20
-106.825520806627
 30
0.0
 10
82.99957788250435
 20
-106.825520806627
 30
0.0
 10
83.69412675367383
 20
-106.8851049732786
 30
0.0
 10
83.69412675367383
 20
-106.8851049732786
 30
0.0
 10
83.69412675367383
 20
-106.8851049732786
 30
0.0
 10
83.85326480516943
 20
-124.6452788577276
 30
0.0
 10
83.85326480516943
 20
-124.6452788577276
 30
0.0
 10
83.85326480516943
 20
-124.6452788577276
 30
0.0
 10
84.0910017435487
 20
-125.7566699685608
 30
0.0
 10
82.86107733048225
 20
-125.9551074685111
 30
0.0
 10
82.86107733048225
 20
-125.9551074685111
 30
0.0
 10
72.06590121700124
 20
-125.9551074685111
 30
0.0
 10
72.06590121700124
 20
-125.9551074685111
 30
0.0
 10
72.06590121700124
 20
-125.9551074685111
 30
0.0
 10
71.8278115008532
 20
-130.3999663562887
 30
0.0
 10
73.81218645022757
 20
-133.8526377443149
 30
0.0
 10
73.81218645022757
 20
-133.8526377443149
 30
0.0
 10
77.0268385904372
 20
-139.151183576323
 30
0.0
 10
78.49545244185862
 20
-140.1234038538578
 30
0.0
 10
78.49545244185862
 20
-140.1234038538578
 30
0.0
 10
82.12659401588714
 20
-142.8222949642943
 30
0.0
 10
83.89256424861127
 20
-143.5561080196668
 30
0.0
 10
83.89256424861127
 20
-143.5561080196668
 30
0.0
 10
86.9883302807428
 20
-145.1635752414871
 30
0.0
 10
91.4331890562339
 20
-144.9851049637539
 30
0.0
 10
91.4331890562339
 20
-144.9851049637539
 30
0.0
 10
91.4331890562339
 20
-133.9918085776129
 30
0.0
 10
91.4331890562339
 20
-133.9918085776129
 30
0.0
 10
91.4331890562339
 20
-133.9918085776129
 30
0.0
 10
91.17548489614181
 20
-132.8804174667801
 30
0.0
 10
93.31832761925112
 20
-132.9396841334318
 30
0.0
 10
93.31832761925112
 20
-132.9396841334318
 30
0.0
 10
110.3047182970033
 20
-132.9396841334318
 30
0.0
 10
110.3047182970033
 20
-132.9396841334318
 30
0.0
 10
110.3047182970033
 20
-132.9396841334318
 30
0.0
 10
110.3446880182058
 20
-133.6941699665764
 30
0.0
 10
110.3446880182058
 20
-133.6941699665764
 30
0.0
 10
110.3446880182058
 20
-133.6941699665764
 30
0.0
 10
92.22693903598365
 20
-133.8926074665268
 30
0.0
 10
92.22693903598365
 20
-133.8926074665268
 30
0.0
 10
92.22693903598365
 20
-133.8926074665268
 30
0.0
 10
92.22693903598365
 20
-144.6874663527168
 30
0.0
 10
92.22693903598365
 20
-144.6874663527168
 30
0.0
 10
92.22693903598365
 20
-144.6874663527168
 30
0.0
 10
92.4453437526339
 20
-145.7988574635502
 30
0.0
 10
90.52058824618295
 20
-145.6996210746859
 30
0.0
 10
90.52058824618295
 20
-145.6996210746859
 30
0.0
 10
87.18676777568024
 20
-145.7788549635555
 30
0.0
 10
82.5035017840492
 20
-143.7944799640516
 30
0.0
 10
82.5035017840492
 20
-143.7944799640516
 30
0.0
 10
79.76531129835071
 20
-142.1670455200141
 30
0.0
 10
79.38843880796553
 20
-141.9093413534113
 30
0.0
 10
79.38843880796553
 20
-141.9093413534113
 30
0.0
 10
75.95506445111376
 20
-138.9128116319383
 30
0.0
 10
74.74479164798048
 20
-136.9683710768687
 30
0.0
 10
74.74479164798048
 20
-136.9683710768687
 30
0.0
 10
71.74857761398573
 20
-131.9674991336746
 30
0.0
 10
71.72861039227291
 20
-130.3403821896373
 30
0.0
 10
71.72861039227291
 20
-130.3403821896373
 30
0.0
 10
71.01409429939064
 20
-126.8677083016164
 30
0.0
 10
71.17291664887344
 20
-125.83590385743
 30
0.0
 10
71.17291664887344
 20
-125.83590385743
 30
0.0
 10
71.27215123725149
 20
-124.9029830243298
 30
0.0
 10
72.64156398009264
 20
-124.9029830243298
 30
0.0
 10
72.64156398009264
 20
-124.9029830243298
 30
0.0
 10
82.97996343856032
 20
-124.922950246547
 30
0.0
 10
82.97996343856032
 20
-124.922950246547
 30
0.0
 10
82.97996343856032
 20
-124.922950246547
 30
0.0
 10
82.9203439956369
 20
-115.7355585821773
 30
0.0
 10
82.9203439956369
 20
-115.7355585821773
 30
0.0
 10
82.9203439956369
 20
-115.7355585821773
 30
0.0
 10
82.99957788250435
 20
-106.825520806627
 30
0.0
 10
82.99957788250435
 20
-106.825520806627
 30
0.0
  0
POLYLINE
  5
5A
330
1F
100
AcDbEntity
  8
_U+30EC_U+30A4_U+30E4_U+30FC 1
 62
   179
420
  2234388
370
    25
100
AcDb2dPolyline
 66
     1
 10
0.0
 20
0.0
 30
0.0
  0
VERTEX
  5
5B
330
5A
100
AcDbEntity
  8
_U+30EC_U+30A4_U+30E4_U+30FC 1
 62
   179
420
  2234388
370
    25
100
AcDbVertex
100
AcDb2dVertex
 10
82.95272899481068
 20
-106.8448177510665
 30
0.0
  0
VERTEX
  5
5C
330
5A
100
AcDbEntity
  8
_U+30EC_U+30A4_U+30E4_U+30FC 1
 62
   179
420
  2234388
370
    25
100
AcDbVertex
100
AcDb2dVertex
 10
83.69204536483804
 20
-106.8448177510665
 30
0.0
  0
SEQEND
  5
5D
330
5A
100
AcDbEntity
  8
_U+30EC_U+30A4_U+30E4_U+30FC 1
 62
   179
420
  2234388
370
    25
  0
POLYLINE
  5
5E
330
1F
100
AcDbEntity
  8
_U+30EC_U+30A4_U+30E4_U+30FC 1
 62
   179
420
  2234388
370
    25
100
AcDb2dPolyline
 66
     1
 10
0.0
 20
0.0
 30
0.0
  0
VERTEX
  5
5F
330
5E
100
AcDbEntity
  8
_U+30EC_U+30A4_U+30E4_U+30FC 1
 62
   179
420
  2234388
370
    25
100
AcDbVertex
100
AcDb2dVertex
 10
83.73822397477103
 20
-106.8534255288422
 30
0.0
  0
VERTEX
  5
60
330
5E
100
AcDbEntity
  8
_U+30EC_U+30A4_U+30E4_U+30FC 1
 62
   179
420
  2234388
370
    25
100
AcDbVertex
100
AcDb2dVertex
 10
83.87051563806266
 20
-124.8533471910089
 30
0.0
  0
SEQEND
  5
61
330
5E
100
AcDbEntity
  8
_U+30EC_U+30A4_U+30E4_U+30FC 1
 62
   179
420
  2234388
370
    25
  0
SPLINE
  5
62
330
1F
100
AcDbEntity
  8
_U+30EC_U+30A4_U+30E4_U+30FC 1
 62
   179
420
  2234388
370
    25
100
AcDbSpline
210
0.0
220
0.0
230
1.0
 70
     8
 71
     3
 72
     8
 73
     4
 74
     0
 42
0.0000000001
 43
0.0000000001
 12
1.0
 22
0.0
 32
0.0
 13
1.0
 23
0.0
 33
0.0
 40
0.0
 40
0.0
 40
0.0
 40
0.0
 40
1.0
 40
1.0
 40
1.0
 40
1.0
 10
83.87051563806266
 20
-124.8533471910089
 30
0.0
 10
83.87051563806266
 20
-124.8533471910089
 30
0.0
 10
83.99935007922026
 20
-125.87037024631
 30
0.0
 10
82.83835844217296
 20
-125.9151377462989
 30
0.0
  0
POLYLINE
  5
63
330
1F
100
AcDbEntity
  8
_U+30EC_U+30A4_U+30E4_U+30FC 1
 62
   179
420
  2234388
370
    25
100
AcDb2dPolyline
 66
     1
 10
0.0
 20
0.0
 30
0.0
  0
VERTEX
  5
64
330
63
100
AcDbEntity
  8
_U+30EC_U+30A4_U+30E4_U+30FC 1
 62
   179
420
  2234388
370
    25
100
AcDbVertex
100
AcDb2dVertex
 10
82.86107733048225
 20
-125.9199708018534
 30
0.0
  0
VERTEX
  5
65
330
63
100
AcDbEntity
  8
_U+30EC_U+30A4_U+30E4_U+30FC 1
 62
   179
420
  2234388
370
    25
100
AcDbVertex
100
AcDb2dVertex
 10
72.06071538380021
 20
-125.9351049685161
 30
0.0
  0
SEQEND
  5
66
330
63
100
AcDbEntity
  8
_U+30EC_U+30A4_U+30E4_U+30FC 1
 62
   179
420
  2234388
370
    25
  0
POLYLINE
  5
67
330
1F
100
AcDbEntity
  8
_U+30EC_U+30A4_U+30E4_U+30FC 1
 62
   179
420
  2234388
370
    25
100
AcDb2dPolyline
 66
     1
 10
0.0
 20
0.0
 30
0.0
  0
VERTEX
  5
68
330
67
100
AcDbEntity
  8
_U+30EC_U+30A4_U+30E4_U+30FC 1
 62
   179
420
  2234388
370
    25
100
AcDbVertex
100
AcDb2dVertex
 10
91.41593822334067
 20
-144.9382560748763
 30
0.0
  0
VERTEX
  5
69
330
67
100
AcDbEntity
  8
_U+30EC_U+30A4_U+30E4_U+30FC 1
 62
   179
420
  2234388
370
    25
100
AcDbVertex
100
AcDb2dVertex
 10
91.41593822334067
 20
-134.1385994109096
 30
0.0
  0
SEQEND
  5
6A
330
67
100
AcDbEntity
  8
_U+30EC_U+30A4_U+30E4_U+30FC 1
 62
   179
420
  2234388
370
    25
  0
SPLINE
  5
6B
330
1F
100
AcDbEntity
  8
_U+30EC_U+30A4_U+30E4_U+30FC 1
 62
   179
420
  2234388
370
    25
100
AcDbSpline
210
0.0
220
0.0
230
1.0
 70
     8
 71
     3
 72
    11
 73
     7
 74
     0
 42
0.0000000001
 43
0.0000000001
 12
1.0
 22
0.0
 32
0.0
 13
1.0
 23
0.0
 33
0.0
 40
0.0
 40
0.0
 40
0.0
 40
0.0
 40
1.0
 40
1.0
 40
1.0
 40
2.0
 40
2.0
 40
2.0
 40
2.0
 10
72.03591510665514
 20
-125.9499216351792
 30
0.0
 10
72.03591510665514
 20
-125.9499216351792
 30
0.0
 10
71.50364400912339
 20
-133.1319127444945
 30
0.0
 10
78.13166800669508
 20
-139.759584131727
 30
0.0
 10
78.13166800669508
 20
-139.759584131727
 30
0.0
 10
83.87668924901627
 20
-145.3688919081019
 30
0.0
 10
91.39078516842683
 20
-144.9451705193196
 30
0.0
  0
SPLINE
  5
6C
330
1F
100
AcDbEntity
  8
_U+30EC_U+30A4_U+30E4_U+30FC 1
 62
   179
420
  2234388
370
    25
100
AcDbSpline
210
0.0
220
0.0
230
1.0
 70
     8
 71
     3
 72
     8
 73
     4
 74
     0
 42
0.0000000001
 43
0.0000000001
 12
1.0
 22
0.0
 32
0.0
 13
1.0
 23
0.0
 33
0.0
 40
0.0
 40
0.0
 40
0.0
 40
0.0
 40
1.0
 40
1.0
 40
1.0
 40
1.0
 10
91.41562072334877
 20
-134.1747591331231
 30
0.0
 10
91.41562072334877
 20
-134.1747591331231
 30
0.0
 10
91.29846322633772
 20
-133.054760244514
 30
0.0
 10
92.39366180950798
 20
-132.9458930223189
 30
0.0
  0
POLYLINE
  5
6D
330
1F
100
AcDbEntity
  8
_U+30EC_U+30A4_U+30E4_U+30FC 1
 62
   179
420
  2234388
370
    25
100
AcDb2dPolyline
 66
     1
 10
0.0
 20
0.0
 30
0.0
  0
VERTEX
  5
6E
330
6D
100
AcDbEntity
  8
_U+30EC_U+30A4_U+30E4_U+30FC 1
 62
   179
420
  2234388
370
    25
100
AcDbVertex
100
AcDb2dVertex
 10
92.33647653318911
 20
-132.9465633000969
 30
0.0
  0
VERTEX
  5
6F
330
6D
100
AcDbEntity
  8
_U+30EC_U+30A4_U+30E4_U+30FC 1
 62
   179
420
  2234388
370
    25
100
AcDbVertex
100
AcDb2dVertex
 10
110.3363977406395
 20
-132.9314291334339
 30
0.0
  0
SEQEND
  5
70
330
6D
100
AcDbEntity
  8
_U+30EC_U+30A4_U+30E4_U+30FC 1
 62
   179
420
  2234388
370
    25
  0
POLYLINE
  5
71
330
1F
100
AcDbEntity
  8
_U+30EC_U+30A4_U+30E4_U+30FC 1
 62
   179
420
  2234388
370
    25
100
AcDb2dPolyline
 66
     1
 10
0.0
 20
0.0
 30
0.0
  0
VERTEX
  5
72
330
71
100
AcDbEntity
  8
_U+30EC_U+30A4_U+30E4_U+30FC 1
 62
   179
420
  2234388
370
    25
100
AcDbVertex
100
AcDb2dVertex
 10
110.3591519067257
 20
-132.9513963556511
 30
0.0
  0
VERTEX
  5
73
330
71
100
AcDbEntity
  8
_U+30EC_U+30A4_U+30E4_U+30FC 1
 62
   179
420
  2234388
370
    25
100
AcDbVertex
100
AcDb2dVertex
 10
110.3591519067257
 20
-133.7003788554641
 30
0.0
  0
SEQEND
  5
74
330
71
100
AcDbEntity
  8
_U+30EC_U+30A4_U+30E4_U+30FC 1
 62
   179
420
  2234388
370
    25
  0
POLYLINE
  5
75
330
1F
100
AcDbEntity
  8
_U+30EC_U+30A4_U+30E4_U+30FC 1
 62
   179
420
  2234388
370
    25
100
AcDb2dPolyline
 66
     1
 10
0.0
 20
0.0
 30
0.0
  0
VERTEX
  5
76
330
75
100
AcDbEntity
  8
_U+30EC_U+30A4_U+30E4_U+30FC 1
 62
   179
420
  2234388
370
    25
100
AcDbVertex
100
AcDb2dVertex
 10
110.3322702407448
 20
-133.7055294110179
 30
0.0
  0
VERTEX
  5
77
330
75
100
AcDbEntity
  8
_U+30EC_U+30A4_U+30E4_U+30FC 1
 62
   179
420
  2234388
370
    25
100
AcDbVertex
100
AcDb2dVertex
 10
92.24207320226421
 20
-133.8740160776425
 30
0.0
  0
SEQEND
  5
78
330
75
100
AcDbEntity
  8
_U+30EC_U+30A4_U+30E4_U+30FC 1
 62
   179
420
  2234388
370
    25
  0
POLYLINE
  5
79
330
1F
100
AcDbEntity
  8
_U+30EC_U+30A4_U+30E4_U+30FC 1
 62
   179
420
  2234388
370
    25
100
AcDb2dPolyline
 66
     1
 10
0.0
 20
0.0
 30
0.0
  0
VERTEX
  5
7A
330
79
100
AcDbEntity
  8
_U+30EC_U+30A4_U+30E4_U+30FC 1
 62
   179
420
  2234388
370
    25
100
AcDbVertex
100
AcDb2dVertex
 10
92.22693903598365
 20
-133.9460180220692
 30
0.0
  0
VERTEX
  5
7B
330
79
100
AcDbEntity
  8
_U+30EC_U+30A4_U+30E4_U+30FC 1
 62
   179
420
  2234388
370
    25
100
AcDbVertex
100
AcDb2dVertex
 10
92.25174164360381
 20
-144.7460274638136
 30
0.0
  0
SEQEND
  5
7C
330
79
100
AcDbEntity
  8
_U+30EC_U+30A4_U+30E4_U+30FC 1
 62
   179
420
  2234388
370
    25
  0
SPLINE
  5
7D
330
1F
100
AcDbEntity
  8
_U+30EC_U+30A4_U+30E4_U+30FC 1
 62
   179
420
  2234388
370
    25
100
AcDbSpline
210
0.0
220
0.0
230
1.0
 70
     8
 71
     3
 72
     8
 73
     4
 74
     0
 42
0.0000000001
 43
0.0000000001
 12
1.0
 22
0.0
 32
0.0
 13
1.0
 23
0.0
 33
0.0
 40
0.0
 40
0.0
 40
0.0
 40
0.0
 40
1.0
 40
1.0
 40
1.0
 40
1.0
 10
92.25688986855288
 20
-144.6970971860483
 30
0.0
 10
92.25688986855288
 20
-144.6970971860483
 30
0.0
 10
92.34614264405363
 20
-145.6004199635998
 30
0.0
 10
91.08418600958215
 20
-145.691366074688
 30
0.0
  0
SPLINE
  5
7E
330
1F
100
AcDbEntity
  8
_U+30EC_U+30A4_U+30E4_U+30FC 1
 62
   179
420
  2234388
370
    25
100
AcDbSpline
210
0.0
220
0.0
230
1.0
 70
     8
 71
     3
 72
    11
 73
     7
 74
     0
 42
0.0000000001
 43
0.0000000001
 12
1.0
 22
0.0
 32
0.0
 13
1.0
 23
0.0
 33
0.0
 40
0.0
 40
0.0
 40
0.0
 40
0.0
 40
1.0
 40
1.0
 40
1.0
 40
2.0
 40
2.0
 40
2.0
 40
2.0
 10
91.09625100927435
 20
-145.6996210746859
 30
0.0
 10
91.09625100927435
 20
-145.6996210746859
 30
0.0
 10
83.29725176379895
 20
-145.9972949635006
 30
0.0
 10
77.60250135352858
 20
-140.301874131591
 30
0.0
 10
77.60250135352858
 20
-140.301874131591
 30
0.0
 10
71.17291664887344
 20
-134.7456241329801
 30
0.0
 10
71.17291664887344
 20
-125.9747571907284
 30
0.0
  0
SPLINE
  5
7F
330
1F
100
AcDbEntity
  8
_U+30EC_U+30A4_U+30E4_U+30FC 1
 62
   179
420
  2234388
370
    25
100
AcDbSpline
210
0.0
220
0.0
230
1.0
 70
     8
 71
     3
 72
     8
 73
     4
 74
     0
 42
0.0000000001
 43
0.0000000001
 12
1.0
 22
0.0
 32
0.0
 13
1.0
 23
0.0
 33
0.0
 40
0.0
 40
0.0
 40
0.0
 40
0.0
 40
1.0
 40
1.0
 40
1.0
 40
1.0
 10
71.17291664887344
 20
-125.9995574685001
 30
0.0
 10
71.17291664887344
 20
-125.9995574685001
 30
0.0
 10
71.1332979074606
 20
-124.9543121909838
 30
0.0
 10
72.35768370955725
 20
-124.9208688576586
 30
0.0
  0
POLYLINE
  5
80
330
1F
100
AcDbEntity
  8
_U+30EC_U+30A4_U+30E4_U+30FC 1
 62
   179
420
  2234388
370
    25
100
AcDb2dPolyline
 66
     1
 10
0.0
 20
0.0
 30
0.0
  0
VERTEX
  5
81
330
80
100
AcDbEntity
  8
_U+30EC_U+30A4_U+30E4_U+30FC 1
 62
   179
420
  2234388
370
    25
100
AcDbVertex
100
AcDb2dVertex
 10
72.33355553747215
 20
-124.9133194132161
 30
0.0
  0
VERTEX
  5
82
330
80
100
AcDbEntity
  8
_U+30EC_U+30A4_U+30E4_U+30FC 1
 62
   179
420
  2234388
370
    25
100
AcDbVertex
100
AcDb2dVertex
 10
82.95410482810891
 20
-124.9133194132161
 30
0.0
  0
SEQEND
  5
83
330
80
100
AcDbEntity
  8
_U+30EC_U+30A4_U+30E4_U+30FC 1
 62
   179
420
  2234388
370
    25
  0
SPLINE
  5
84
330
1F
100
AcDbEntity
  8
_U+30EC_U+30A4_U+30E4_U+30FC 1
 62
   179
420
  2234388
370
     9
100
AcDbSpline
210
0.0
220
0.0
230
1.0
 70
    11
 71
     3
 72
    17
 73
    13
 74
     0
 42
0.0000000001
 43
0.0000000001
 12
1.0
 22
0.0
 32
0.0
 13
1.0
 23
0.0
 33
0.0
 40
0.0
 40
0.0
 40
0.0
 40
0.0
 40
1.0
 40
1.0
 40
1.0
 40
2.0
 40
2.0
 40
2.0
 40
3.0
 40
3.0
 40
3.0
 40
4.0
 40
4.0
 40
4.0
 40
4.0
 10
107.064278101896
 20
-133.7368913554547
 30
0.0
 10
107.0139719920683
 20
-133.7368913554547
 30
0.0
 10
106.9732967153283
 20
-133.7775313554446
 30
0.0
 10
106.9732967153283
 20
-133.827131910988
 30
0.0
 10
106.9732967153283
 20
-133.8767677443089
 30
0.0
 10
107.0139719920683
 20
-133.9167021887432
 30
0.0
 10
107.064278101896
 20
-133.9167021887432
 30
0.0
 10
107.1138786561862
 20
-133.9167021887432
 30
0.0
 10
107.1538483773887
 20
-133.8767677443089
 30
0.0
 10
107.1538483773887
 20
-133.827131910988
 30
0.0
 10
107.1538483773887
 20
-133.7775313554446
 30
0.0
 10
107.1138786561862
 20
-133.7368913554547
 30
0.0
 10
107.064278101896
 20
-133.7368913554547
 30
0.0
  0
POLYLINE
  5
85
330
1F
100
AcDbEntity
  8
_U+30EC_U+30A4_U+30E4_U+30FC 1
 62
   179
420
  2234388
370
     9
100
AcDb2dPolyline
 66
     1
 10
0.0
 20
0.0
 30
0.0
  0
VERTEX
  5
86
330
85
100
AcDbEntity
  8
_U+30EC_U+30A4_U+30E4_U+30FC 1
 62
   179
420
  2234388
370
     9
100
AcDbVertex
100
AcDb2dVertex
 10
107.064278101896
 20
-133.7785544109997
 30
0.0
  0
VERTEX
  5
87
330
85
100
AcDbEntity
  8
_U+30EC_U+30A4_U+30E4_U+30FC 1
 62
   179
420
  2234388
370
     9
100
AcDbVertex
100
AcDb2dVertex
 10
107.064278101896
 20
-145.4791349636299
 30
0.0
  0
SEQEND
  5
88
330
85
100
AcDbEntity
  8
_U+30EC_U+30A4_U+30E4_U+30FC 1
 62
   179
420
  2234388
370
     9
  0
POLYLINE
  5
89
330
1F
100
AcDbEntity
  8
_U+30EC_U+30A4_U+30E4_U+30FC 1
 62
   179
420
  2234388
370
     9
100
AcDb2dPolyline
 66
     1
 10
0.0
 20
0.0
 30
0.0
  0
VERTEX
  5
8A
330
89
100
AcDbEntity
  8
_U+30EC_U+30A4_U+30E4_U+30FC 1
 62
   179
420
  2234388
370
     9
100
AcDbVertex
100
AcDb2dVertex
 10
92.24965792429293
 20
-145.4791349636299
 30
0.0
  0
VERTEX
  5
8B
330
89
100
AcDbEntity
  8
_U+30EC_U+30A4_U+30E4_U+30FC 1
 62
   179
420
  2234388
370
     9
100
AcDbVertex
100
AcDb2dVertex
 10
107.9637908567253
 20
-145.4791349636299
 30
0.0
  0
SEQEND
  5
8C
330
89
100
AcDbEntity
  8
_U+30EC_U+30A4_U+30E4_U+30FC 1
 62
   179
420
  2234388
370
     9
  0
INSERT
  5
8E
330
1F
100
AcDbEntity
  8
_U+30EC_U+30A4_U+30E4_U+30FC 1
100
AcDbBlockReference
  2
block 3
 10
0.0
 20
0.0
 30
0.0
  0
POLYLINE
  5
95
330
1F
100
AcDbEntity
  8
_U+30EC_U+30A4_U+30E4_U+30FC 1
 62
   179
420
  2234388
370
     9
100
AcDb2dPolyline
 66
     1
 10
0.0
 20
0.0
 30
0.0
  0
VERTEX
  5
96
330
95
100
AcDbEntity
  8
_U+30EC_U+30A4_U+30E4_U+30FC 1
 62
   179
420
  2234388
370
     9
100
AcDbVertex
100
AcDb2dVertex
 10
110.4859402368244
 20
-148.810203851686
 30
0.0
  0
VERTEX
  5
97
330
95
100
AcDbEntity
  8
_U+30EC_U+30A4_U+30E4_U+30FC 1
 62
   179
420
  2234388
370
     9
100
AcDbVertex
100
AcDb2dVertex
 10
92.4856662516052
 20
-148.810203851686
 30
0.0
  0
SEQEND
  5
98
330
95
100
AcDbEntity
  8
_U+30EC_U+30A4_U+30E4_U+30FC 1
 62
   179
420
  2234388
370
     9
  0
POLYLINE
  5
99
330
1F
100
AcDbEntity
  8
_U+30EC_U+30A4_U+30E4_U+30FC 1
 62
   179
420
  2234388
370
     9
100
AcDb2dPolyline
 66
     1
 10
0.0
 20
0.0
 30
0.0
  0
VERTEX
  5
9A
330
99
100
AcDbEntity
  8
_U+30EC_U+30A4_U+30E4_U+30FC 1
 62
   179
420
  2234388
370
     9
100
AcDbVertex
100
AcDb2dVertex
 10
92.4856662516052
 20
-150.2054752402265
 30
0.0
  0
VERTEX
  5
9B
330
99
100
AcDbEntity
  8
_U+30EC_U+30A4_U+30E4_U+30FC 1
 62
   179
420
  2234388
370
     9
100
AcDbVertex
100
AcDb2dVertex
 10
92.4856662516052
 20
-147.9106910741335
 30
0.0
  0
SEQEND
  5
9C
330
99
100
AcDbEntity
  8
_U+30EC_U+30A4_U+30E4_U+30FC 1
 62
   179
420
  2234388
370
     9
  0
INSERT
  5
9E
330
1F
100
AcDbEntity
  8
_U+30EC_U+30A4_U+30E4_U+30FC 1
100
AcDbBlockReference
  2
block 4
 10
0.0
 20
0.0
 30
0.0
  0
POLYLINE
  5
A6
330
1F
100
AcDbEntity
  8
_U+30EC_U+30A4_U+30E4_U+30FC 1
 62
   179
420
  2234388
370
     9
100
AcDb2dPolyline
 66
     1
 10
0.0
 20
0.0
 30
0.0
  0
VERTEX
  5
A7
330
A6
100
AcDbEntity
  8
_U+30EC_U+30A4_U+30E4_U+30FC 1
 62
   179
420
  2234388
370
     9
100
AcDbVertex
100
AcDb2dVertex
 10
110.4504507932854
 20
-150.2054752402265
 30
0.0
  0
VERTEX
  5
A8
330
A6
100
AcDbEntity
  8
_U+30EC_U+30A4_U+30E4_U+30FC 1
 62
   179
420
  2234388
370
     9
100
AcDbVertex
100
AcDb2dVertex
 10
110.4504507932854
 20
-133.8181713554345
 30
0.0
  0
SEQEND
  5
A9
330
A6
100
AcDbEntity
  8
_U+30EC_U+30A4_U+30E4_U+30FC 1
 62
   179
420
  2234388
370
     9
  0
POLYLINE
  5
AA
330
1F
100
AcDbEntity
  8
_U+30EC_U+30A4_U+30E4_U+30FC 1
 62
   179
420
  2234388
370
    25
100
AcDb2dPolyline
 66
     1
 10
0.0
 20
0.0
 30
0.0
  0
VERTEX
  5
AB
330
AA
100
AcDbEntity
  8
_U+30EC_U+30A4_U+30E4_U+30FC 1
 62
   179
420
  2234388
370
    25
100
AcDbVertex
100
AcDb2dVertex
 10
82.94447399502128
 20
-124.8919410798882
 30
0.0
  0
VERTEX
  5
AC
330
AA
100
AcDbEntity
  8
_U+30EC_U+30A4_U+30E4_U+30FC 1
 62
   179
420
  2234388
370
    25
100
AcDbVertex
100
AcDb2dVertex
 10
82.94447399502128
 20
-106.8920194177215
 30
0.0
  0
SEQEND
  5
AD
330
AA
100
AcDbEntity
  8
_U+30EC_U+30A4_U+30E4_U+30FC 1
 62
   179
420
  2234388
370
    25
  0
SPLINE
  5
AE
330
1F
100
AcDbEntity
  8
_U+30EC_U+30A4_U+30E4_U+30FC 1
 62
   179
420
  2234388
370
     9
100
AcDbSpline
210
0.0
220
0.0
230
1.0
 70
    11
 71
     3
 72
    17
 73
    13
 74
     0
 42
0.0000000001
 43
0.0000000001
 12
1.0
 22
0.0
 32
0.0
 13
1.0
 23
0.0
 33
0.0
 40
0.0
 40
0.0
 40
0.0
 40
0.0
 40
1.0
 40
1.0
 40
1.0
 40
2.0
 40
2.0
 40
2.0
 40
3.0
 40
3.0
 40
3.0
 40
4.0
 40
4.0
 40
4.0
 40
4.0
 10
107.0670297684925
 20
-145.3695974636575
 30
0.0
 10
107.0112203254719
 20
-145.3695974636575
 30
0.0
 10
106.9664175488371
 20
-145.4143649636467
 30
0.0
 10
106.9664175488371
 20
-145.4695041302991
 30
0.0
 10
106.9664175488371
 20
-145.5246080191747
 30
0.0
 10
107.0112203254719
 20
-145.5694107969408
 30
0.0
 10
107.0670297684925
 20
-145.5694107969408
 30
0.0
 10
107.1221336559756
 20
-145.5694107969408
 30
0.0
 10
107.1669364326103
 20
-145.5246080191747
 30
0.0
 10
107.1669364326103
 20
-145.4695041302991
 30
0.0
 10
107.1669364326103
 20
-145.4143649636467
 30
0.0
 10
107.1221336559756
 20
-145.3695974636575
 30
0.0
 10
107.0670297684925
 20
-145.3695974636575
 30
0.0
  0
SPLINE
  5
AF
330
1F
100
AcDbEntity
  8
_U+30EC_U+30A4_U+30E4_U+30FC 1
 62
   179
420
  2234388
370
     9
100
AcDbSpline
210
0.0
220
0.0
230
1.0
 70
    11
 71
     3
 72
    17
 73
    13
 74
     0
 42
0.0000000001
 43
0.0000000001
 12
1.0
 22
0.0
 32
0.0
 13
1.0
 23
0.0
 33
0.0
 40
0.0
 40
0.0
 40
0.0
 40
0.0
 40
1.0
 40
1.0
 40
1.0
 40
2.0
 40
2.0
 40
2.0
 40
3.0
 40
3.0
 40
3.0
 40
4.0
 40
4.0
 40
4.0
 40
4.0
 10
110.463188861273
 20
-148.7147774628214
 30
0.0
 10
110.4073766277176
 20
-148.7147774628214
 30
0.0
 10
110.3626091288597
 20
-148.7595802405882
 30
0.0
 10
110.3626091288597
 20
-148.8146841294631
 30
0.0
 10
110.3626091288597
 20
-148.8698232961162
 30
0.0
 10
110.4073766277176
 20
-148.9145907961047
 30
0.0
 10
110.463188861273
 20
-148.9145907961047
 30
0.0
 10
110.5183252359982
 20
-148.9145907961047
 30
0.0
 10
110.5630927348561
 20
-148.8698232961162
 30
0.0
 10
110.5630927348561
 20
-148.8146841294631
 30
0.0
 10
110.5630927348561
 20
-148.7595802405882
 30
0.0
 10
110.5183252359982
 20
-148.7147774628214
 30
0.0
 10
110.463188861273
 20
-148.7147774628214
 30
0.0
  0
SPLINE
  5
B0
330
1F
100
AcDbEntity
  8
_U+30EC_U+30A4_U+30E4_U+30FC 1
 62
   179
420
  2234388
370
     9
100
AcDbSpline
210
0.0
220
0.0
230
1.0
 70
    11
 71
     3
 72
    17
 73
    13
 74
     0
 42
0.0000000001
 43
0.0000000001
 12
1.0
 22
0.0
 32
0.0
 13
1.0
 23
0.0
 33
0.0
 40
0.0
 40
0.0
 40
0.0
 40
0.0
 40
1.0
 40
1.0
 40
1.0
 40
2.0
 40
2.0
 40
2.0
 40
3.0
 40
3.0
 40
3.0
 40
4.0
 40
4.0
 40
4.0
 40
4.0
 10
92.4856662516052
 20
-148.7147774628214
 30
0.0
 10
92.42985680858456
 20
-148.7147774628214
 30
0.0
 10
92.3850540319498
 20
-148.7595802405882
 30
0.0
 10
92.3850540319498
 20
-148.8146841294631
 30
0.0
 10
92.3850540319498
 20
-148.8698232961162
 30
0.0
 10
92.42985680858456
 20
-148.9145907961047
 30
0.0
 10
92.4856662516052
 20
-148.9145907961047
 30
0.0
 10
92.54077013908827
 20
-148.9145907961047
 30
0.0
 10
92.58557291572303
 20
-148.8698232961162
 30
0.0
 10
92.58557291572303
 20
-148.8146841294631
 30
0.0
 10
92.58557291572303
 20
-148.7595802405882
 30
0.0
 10
92.54077013908827
 20
-148.7147774628214
 30
0.0
 10
92.4856662516052
 20
-148.7147774628214
 30
0.0
  0
ENDSEC
  0
SECTION
  2
OBJECTS
  0
DICTIONARY
  5
C
330
0
100
AcDbDictionary
281
     1
  3
ACAD_GROUP
350
D
  3
ACAD_LAYOUT
350
1A
  3
ACAD_MATERIAL
350
3B
  3
ACAD_MLEADERSTYLE
350
B2
  3
ACAD_MLINESTYLE
350
17
  3
ACAD_PLOTSETTINGS
350
19
  3
ACAD_PLOTSTYLENAME
350
E
  3
ACAD_TABLESTYLE
350
B1
  3
ACAD_VISUALSTYLE
350
2A
  0
SUN
  5
3F
330
29
100
AcDbSun
 90
        1
290
     0
 63
     7
421
 16777215
 40
1.0
291
     1
 91
  2455826
 92
 54000000
292
     0
 70
     2
 71
   256
280
     1
  0
DICTIONARY
  5
D
102
{ACAD_REACTORS
330
C
102
}
330
C
100
AcDbDictionary
281
     1
  0
DICTIONARY
  5
1A
102
{ACAD_REACTORS
330
C
102
}
330
C
100
AcDbDictionary
281
     1
  3
Layout1
350
1E
  3
Layout2
350
26
  3
Model
350
22
  0
DICTIONARY
  5
3B
102
{ACAD_REACTORS
330
C
102
}
330
C
100
AcDbDictionary
281
     1
  3
ByBlock
350
3D
  3
ByLayer
350
3C
  3
Global
350
3E
  0
DICTIONARY
  5
B2
102
{ACAD_REACTORS
330
C
102
}
330
C
100
AcDbDictionary
281
     1
  0
DICTIONARY
  5
17
102
{ACAD_REACTORS
330
C
102
}
330
C
100
AcDbDictionary
281
     1
  3
Standard
350
18
  0
DICTIONARY
  5
19
102
{ACAD_REACTORS
330
C
102
}
330
C
100
AcDbDictionary
281
     1
  0
ACDBDICTIONARYWDFLT
  5
E
102
{ACAD_REACTORS
330
C
102
}
330
C
100
AcDbDictionary
281
     1
  3
Normal
350
F
100
AcDbDictionaryWithDefault
340
F
  0
DICTIONARY
  5
B1
102
{ACAD_REACTORS
330
C
102
}
330
C
100
AcDbDictionary
281
     1
  0
DICTIONARY
  5
2A
102
{ACAD_REACTORS
330
C
102
}
330
C
100
AcDbDictionary
281
     1
  3
2dWireframe
350
2F
  3
3D Hidden
350
31
  3
3dWireframe
350
30
  3
Basic
350
32
  3
Brighten
350
36
  3
ColorChange
350
3A
  3
Conceptual
350
34
  3
Dim
350
35
  3
Facepattern
350
39
  3
Flat
350
2B
  3
FlatWithEdges
350
2C
  3
Gouraud
350
2D
  3
GouraudWithEdges
350
2E
  3
Linepattern
350
38
  3
Realistic
350
33
  3
Thicken
350
37
  0
LAYOUT
  5
1E
102
{ACAD_REACTORS
330
1A
102
}
330
1A
100
AcDbPlotSettings
  1

  2
none_device
  4

  6

 40
0.0
 41
0.0
 42
0.0
 43
0.0
 44
0.0
 45
0.0
 46
0.0
 47
0.0
 48
0.0
 49
0.0
140
0.0
141
0.0
142
1.0
143
1.0
 70
   688
 72
     0
 73
     0
 74
     5
  7

 75
    16
 76
     0
 77
     2
 78
   300
147
1.0
148
0.0
149
0.0
100
AcDbLayout
  1
Layout1
 70
     1
 71
     1
 10
0.0
 20
0.0
 11
12.0
 21
9.0
 12
0.0
 22
0.0
 32
0.0
 14
1.000000000000000E+20
 24
1.000000000000000E+20
 34
1.000000000000000E+20
 15
-1.000000000000000E+20
 25
-1.000000000000000E+20
 35
-1.000000000000000E+20
146
0.0
 13
0.0
 23
0.0
 33
0.0
 16
1.0
 26
0.0
 36
0.0
 17
0.0
 27
1.0
 37
0.0
 76
     0
330
1B
  0
LAYOUT
  5
26
102
{ACAD_REACTORS
330
1A
102
}
330
1A
100
AcDbPlotSettings
  1

  2
none_device
  4

  6

 40
0.0
 41
0.0
 42
0.0
 43
0.0
 44
0.0
 45
0.0
 46
0.0
 47
0.0
 48
0.0
 49
0.0
140
0.0
141
0.0
142
1.0
143
1.0
 70
   688
 72
     0
 73
     0
 74
     5
  7

 75
    16
 76
     0
 77
     2
 78
   300
147
1.0
148
0.0
149
0.0
100
AcDbLayout
  1
Layout2
 70
     1
 71
     2
 10
0.0
 20
0.0
 11
0.0
 21
0.0
 12
0.0
 22
0.0
 32
0.0
 14
0.0
 24
0.0
 34
0.0
 15
0.0
 25
0.0
 35
0.0
146
0.0
 13
0.0
 23
0.0
 33
0.0
 16
1.0
 26
0.0
 36
0.0
 17
0.0
 27
1.0
 37
0.0
 76
     0
330
23
  0
LAYOUT
  5
22
102
{ACAD_REACTORS
330
1A
102
}
330
1A
100
AcDbPlotSettings
  1

  2
none_device
  4

  6

 40
0.0
 41
0.0
 42
0.0
 43
0.0
 44
0.0
 45
0.0
 46
0.0
 47
0.0
 48
0.0
 49
0.0
140
0.0
141
0.0
142
1.0
143
1.0
 70
  1712
 72
     0
 73
     0
 74
     0
  7

 75
     0
 76
     0
 77
     2
 78
   300
147
1.0
148
0.0
149
0.0
100
AcDbLayout
  1
Model
 70
     1
 71
     0
 10
0.0
 20
0.0
 11
12.0
 21
9.0
 12
0.0
 22
0.0
 32
0.0
 14
1.000000000000000E+20
 24
1.000000000000000E+20
 34
1.000000000000000E+20
 15
-1.000000000000000E+20
 25
-1.000000000000000E+20
 35
-1.000000000000000E+20
146
0.0
 13
0.0
 23
0.0
 33
0.0
 16
1.0
 26
0.0
 36
0.0
 17
0.0
 27
1.0
 37
0.0
 76
     0
330
1F
331
29
  0
MATERIAL
  5
3D
102
{ACAD_REACTORS
330
3B
102
}
330
3B
100
AcDbMaterial
  1
ByBlock
 72
     1
 94
      127
  0
MATERIAL
  5
3C
102
{ACAD_REACTORS
330
3B
102
}
330
3B
100
AcDbMaterial
  1
ByLayer
 72
     1
 94
      127
  0
MATERIAL
  5
3E
102
{ACAD_REACTORS
330
3B
102
}
330
3B
100
AcDbMaterial
  1
Global
 72
     1
 94
      127
  0
MLINESTYLE
  5
18
102
{ACAD_REACTORS
330
17
102
}
330
17
100
AcDbMlineStyle
  2
Standard
 70
     0
  3

 62
   256
 51
90.0
 52
90.0
 71
     2
 49
0.5
 62
   256
  6
BYLAYER
 49
-0.5
 62
   256
  6
BYLAYER
  0
ACDBPLACEHOLDER
  5
F
102
{ACAD_REACTORS
330
E
102
}
330
E
  0
VISUALSTYLE
  5
2F
102
{ACAD_REACTORS
330
2A
102
}
330
2A
100
AcDbVisualStyle
  2
2dWireframe
 70
     4
177
     2
291
     0
 71
     0
176
     1
 72
     2
176
     1
 73
     0
176
     1
 90
        0
176
     1
 40
-0.6
176
     1
 41
-30.0
176
     1
 62
     5
 63
     7
421
 16777215
176
     1
 74
     1
176
     1
 91
        4
176
     1
 64
     7
176
     1
 65
   257
176
     1
 75
     1
176
     1
175
     1
176
     1
 42
1.0
176
     1
 92
        0
176
     1
 66
   257
176
     1
 43
1.0
176
     1
 76
     1
176
     1
 77
     6
176
     1
 78
     2
176
     1
 67
     7
176
     1
 79
     5
176
     1
170
     0
176
     1
171
     0
176
     1
290
     0
176
     1
 93
        1
176
     1
 44
0.0
176
     1
173
     0
176
     1
  0
VISUALSTYLE
  5
31
102
{ACAD_REACTORS
330
2A
102
}
330
2A
100
AcDbVisualStyle
  2
3D Hidden
 70
     6
177
     2
291
     0
 71
     1
176
     1
 72
     2
176
     1
 73
     2
176
     1
 90
        0
176
     1
 40
-0.6
176
     1
 41
-30.0
176
     1
 62
     5
 63
     7
421
 16777215
176
     1
 74
     2
176
     1
 91
        2
176
     1
 64
     7
176
     1
 65
   257
176
     1
 75
     2
176
     1
175
     1
176
     1
 42
40.0
176
     1
 92
        0
176
     1
 66
   257
176
     1
 43
1.0
176
     1
 76
     1
176
     1
 77
     6
176
     1
 78
     2
176
     1
 67
     7
176
     1
 79
     3
176
     1
170
     0
176
     1
171
     0
176
     1
290
     0
176
     1
 93
        1
176
     1
 44
0.0
176
     1
173
     0
176
     1
  0
VISUALSTYLE
  5
30
102
{ACAD_REACTORS
330
2A
102
}
330
2A
100
AcDbVisualStyle
  2
3dWireframe
 70
     5
177
     2
291
     0
 71
     0
176
     1
 72
     2
176
     1
 73
     0
176
     1
 90
        0
176
     1
 40
-0.6
176
     1
 41
-30.0
176
     1
 62
     5
 63
     7
421
 16777215
176
     1
 74
     1
176
     1
 91
        4
176
     1
 64
     7
176
     1
 65
   257
176
     1
 75
     1
176
     1
175
     1
176
     1
 42
1.0
176
     1
 92
        0
176
     1
 66
   257
176
     1
 43
1.0
176
     1
 76
     1
176
     1
 77
     6
176
     1
 78
     2
176
     1
 67
     7
176
     1
 79
     5
176
     1
170
     0
176
     1
171
     0
176
     1
290
     0
176
     1
 93
        1
176
     1
 44
0.0
176
     1
173
     0
176
     1
  0
VISUALSTYLE
  5
32
102
{ACAD_REACTORS
330
2A
102
}
330
2A
100
AcDbVisualStyle
  2
Basic
 70
     7
177
     2
291
     1
 71
     1
176
     1
 72
     0
176
     1
 73
     1
176
     1
 90
        0
176
     1
 40
-0.6
176
     1
 41
-30.0
176
     1
 62
     5
 63
     7
421
 16777215
176
     1
 74
     0
176
     1
 91
        4
176
     1
 64
     7
176
     1
 65
   257
176
     1
 75
     1
176
     1
175
     1
176
     1
 42
1.0
176
     1
 92
        8
176
     1
 66
     7
176
     1
 43
1.0
176
     1
 76
     1
176
     1
 77
     6
176
     1
 78
     2
176
     1
 67
     7
176
     1
 79
     5
176
     1
170
     0
176
     1
171
     0
176
     1
290
     0
176
     1
 93
        1
176
     1
 44
0.0
176
     1
173
     0
176
     1
  0
VISUALSTYLE
  5
36
102
{ACAD_REACTORS
330
2A
102
}
330
2A
100
AcDbVisualStyle
  2
Brighten
 70
    12
177
     2
291
     1
 71
     2
176
     1
 72
     2
176
     1
 73
     0
176
     1
 90
        0
176
     1
 40
-0.6
176
     1
 41
-30.0
176
     1
 62
     5
 63
     7
421
 16777215
176
     1
 74
     1
176
     1
 91
        4
176
     1
 64
     7
176
     1
 65
   257
176
     1
 75
     1
176
     1
175
     1
176
     1
 42
1.0
176
     1
 92
        8
176
     1
 66
     7
176
     1
 43
1.0
176
     1
 76
     1
176
     1
 77
     6
176
     1
 78
     2
176
     1
 67
     7
176
     1
 79
     5
176
     1
170
     0
176
     1
171
     0
176
     1
290
     0
176
     1
 93
        1
176
     1
 44
50.0
176
     1
173
     0
176
     1
  0
VISUALSTYLE
  5
3A
102
{ACAD_REACTORS
330
2A
102
}
330
2A
100
AcDbVisualStyle
  2
ColorChange
 70
    16
177
     2
291
     1
 71
     2
176
     1
 72
     2
176
     1
 73
     3
176
     1
 90
        0
176
     1
 40
-0.6
176
     1
 41
-30.0
176
     1
 62
     5
 63
     8
421
  8421504
176
     1
 74
     1
176
     1
 91
        4
176
     1
 64
     7
176
     1
 65
   257
176
     1
 75
     1
176
     1
175
     1
176
     1
 42
1.0
176
     1
 92
        8
176
     1
 66
     8
424
  8421504
176
     1
 43
1.0
176
     1
 76
     1
176
     1
 77
     6
176
     1
 78
     2
176
     1
 67
     7
176
     1
 79
     5
176
     1
170
     0
176
     1
171
     0
176
     1
290
     0
176
     1
 93
        1
176
     1
 44
0.0
176
     1
173
     0
176
     1
  0
VISUALSTYLE
  5
34
102
{ACAD_REACTORS
330
2A
102
}
330
2A
100
AcDbVisualStyle
  2
Conceptual
 70
     9
177
     2
291
     0
 71
     3
176
     1
 72
     2
176
     1
 73
     0
176
     1
 90
        0
176
     1
 40
-0.6
176
     1
 41
-30.0
176
     1
 62
     5
 63
     7
421
 16777215
176
     1
 74
     2
176
     1
 91
        2
176
     1
 64
     7
176
     1
 65
   257
176
     1
 75
     1
176
     1
175
     1
176
     1
 42
40.0
176
     1
 92
        8
176
     1
 66
     7
176
     1
 43
1.0
176
     1
 76
     1
176
     1
 77
     6
176
     1
 78
     2
176
     1
 67
     7
176
     1
 79
     3
176
     1
170
     0
176
     1
171
     0
176
     1
290
     0
176
     1
 93
        1
176
     1
 44
0.0
176
     1
173
     0
176
     1
  0
VISUALSTYLE
  5
35
102
{ACAD_REACTORS
330
2A
102
}
330
2A
100
AcDbVisualStyle
  2
Dim
 70
    11
177
     2
291
     1
 71
     2
176
     1
 72
     2
176
     1
 73
     0
176
     1
 90
        0
176
     1
 40
-0.6
176
     1
 41
-30.0
176
     1
 62
     5
 63
     7
421
 16777215
176
     1
 74
     1
176
     1
 91
        4
176
     1
 64
     7
176
     1
 65
   257
176
     1
 75
     1
176
     1
175
     1
176
     1
 42
1.0
176
     1
 92
        8
176
     1
 66
     7
176
     1
 43
1.0
176
     1
 76
     1
176
     1
 77
     6
176
     1
 78
     2
176
     1
 67
     7
176
     1
 79
     5
176
     1
170
     0
176
     1
171
     0
176
     1
290
     0
176
     1
 93
        1
176
     1
 44
-50.0
176
     1
173
     0
176
     1
  0
VISUALSTYLE
  5
39
102
{ACAD_REACTORS
330
2A
102
}
330
2A
100
AcDbVisualStyle
  2
Facepattern
 70
    15
177
     2
291
     1
 71
     2
176
     1
 72
     2
176
     1
 73
     0
176
     1
 90
        0
176
     1
 40
-0.6
176
     1
 41
-30.0
176
     1
 62
     5
 63
     7
421
 16777215
176
     1
 74
     1
176
     1
 91
        4
176
     1
 64
     7
176
     1
 65
   257
176
     1
 75
     1
176
     1
175
     1
176
     1
 42
1.0
176
     1
 92
        8
176
     1
 66
     7
176
     1
 43
1.0
176
     1
 76
     1
176
     1
 77
     6
176
     1
 78
     2
176
     1
 67
     7
176
     1
 79
     5
176
     1
170
     0
176
     1
171
     0
176
     1
290
     0
176
     1
 93
        1
176
     1
 44
0.0
176
     1
173
     0
176
     1
  0
VISUALSTYLE
  5
2B
102
{ACAD_REACTORS
330
2A
102
}
330
2A
100
AcDbVisualStyle
  2
Flat
 70
     0
177
     2
291
     1
 71
     2
176
     1
 72
     1
176
     1
 73
     1
176
     1
 90
        2
176
     1
 40
-0.6
176
     1
 41
30.0
176
     1
 62
     5
 63
     7
421
 16777215
176
     1
 74
     0
176
     1
 91
        4
176
     1
 64
     7
176
     1
 65
   257
176
     1
 75
     1
176
     1
175
     1
176
     1
 42
1.0
176
     1
 92
        8
176
     1
 66
     7
176
     1
 43
1.0
176
     1
 76
     1
176
     1
 77
     6
176
     1
 78
     2
176
     1
 67
     7
176
     1
 79
     5
176
     1
170
     0
176
     1
171
     0
176
     1
290
     0
176
     1
 93
       13
176
     1
 44
0.0
176
     1
173
     0
176
     1
  0
VISUALSTYLE
  5
2C
102
{ACAD_REACTORS
330
2A
102
}
330
2A
100
AcDbVisualStyle
  2
FlatWithEdges
 70
     1
177
     2
291
     1
 71
     2
176
     1
 72
     1
176
     1
 73
     1
176
     1
 90
        2
176
     1
 40
-0.6
176
     1
 41
30.0
176
     1
 62
     5
 63
     7
421
 16777215
176
     1
 74
     1
176
     1
 91
        4
176
     1
 64
     7
176
     1
 65
   257
176
     1
 75
     1
176
     1
175
     1
176
     1
 42
1.0
176
     1
 92
        0
176
     1
 66
   257
176
     1
 43
1.0
176
     1
 76
     1
176
     1
 77
     6
176
     1
 78
     2
176
     1
 67
     7
176
     1
 79
     5
176
     1
170
     0
176
     1
171
     0
176
     1
290
     0
176
     1
 93
       13
176
     1
 44
0.0
176
     1
173
     0
176
     1
  0
VISUALSTYLE
  5
2D
102
{ACAD_REACTORS
330
2A
102
}
330
2A
100
AcDbVisualStyle
  2
Gouraud
 70
     2
177
     2
291
     1
 71
     2
176
     1
 72
     2
176
     1
 73
     1
176
     1
 90
        2
176
     1
 40
-0.6
176
     1
 41
30.0
176
     1
 62
     5
 63
     7
421
 16777215
176
     1
 74
     0
176
     1
 91
        4
176
     1
 64
     7
176
     1
 65
   257
176
     1
 75
     1
176
     1
175
     1
176
     1
 42
1.0
176
     1
 92
        0
176
     1
 66
     7
176
     1
 43
1.0
176
     1
 76
     1
176
     1
 77
     6
176
     1
 78
     2
176
     1
 67
     7
176
     1
 79
     5
176
     1
170
     0
176
     1
171
     0
176
     1
290
     0
176
     1
 93
       13
176
     1
 44
0.0
176
     1
173
     0
176
     1
  0
VISUALSTYLE
  5
2E
102
{ACAD_REACTORS
330
2A
102
}
330
2A
100
AcDbVisualStyle
  2
GouraudWithEdges
 70
     3
177
     2
291
     1
 71
     2
176
     1
 72
     2
176
     1
 73
     1
176
     1
 90
        2
176
     1
 40
-0.6
176
     1
 41
30.0
176
     1
 62
     5
 63
     7
421
 16777215
176
     1
 74
     1
176
     1
 91
        4
176
     1
 64
     7
176
     1
 65
   257
176
     1
 75
     1
176
     1
175
     1
176
     1
 42
1.0
176
     1
 92
        0
176
     1
 66
   257
176
     1
 43
1.0
176
     1
 76
     1
176
     1
 77
     6
176
     1
 78
     2
176
     1
 67
     7
176
     1
 79
     5
176
     1
170
     0
176
     1
171
     0
176
     1
290
     0
176
     1
 93
       13
176
     1
 44
0.0
176
     1
173
     0
176
     1
  0
VISUALSTYLE
  5
38
102
{ACAD_REACTORS
330
2A
102
}
330
2A
100
AcDbVisualStyle
  2
Linepattern
 70
    14
177
     2
291
     1
 71
     2
176
     1
 72
     2
176
     1
 73
     0
176
     1
 90
        0
176
     1
 40
-0.6
176
     1
 41
-30.0
176
     1
 62
     5
 63
     7
421
 16777215
176
     1
 74
     1
176
     1
 91
        4
176
     1
 64
     7
176
     1
 65
   257
176
     1
 75
     7
176
     1
175
     7
176
     1
 42
1.0
176
     1
 92
        8
176
     1
 66
     7
176
     1
 43
1.0
176
     1
 76
     1
176
     1
 77
     6
176
     1
 78
     2
176
     1
 67
     7
176
     1
 79
     5
176
     1
170
     0
176
     1
171
     0
176
     1
290
     0
176
     1
 93
        1
176
     1
 44
0.0
176
     1
173
     0
176
     1
  0
VISUALSTYLE
  5
33
102
{ACAD_REACTORS
330
2A
102
}
330
2A
100
AcDbVisualStyle
  2
Realistic
 70
     8
177
     2
291
     0
 71
     2
176
     1
 72
     2
176
     1
 73
     0
176
     1
 90
        0
176
     1
 40
-0.6
176
     1
 41
-30.0
176
     1
 62
     5
 63
     7
421
 16777215
176
     1
 74
     1
176
     1
 91
        0
176
     1
 64
     7
176
     1
 65
   257
176
     1
 75
     1
176
     1
175
     1
176
     1
 42
1.0
176
     1
 92
        8
176
     1
 66
     8
424
  7895160
176
     1
 43
1.0
176
     1
 76
     1
176
     1
 77
     6
176
     1
 78
     2
176
     1
 67
     7
176
     1
 79
     5
176
     1
170
     0
176
     1
171
     0
176
     1
290
     0
176
     1
 93
       13
176
     1
 44
0.0
176
     1
173
     0
176
     1
  0
VISUALSTYLE
  5
37
102
{ACAD_REACTORS
330
2A
102
}
330
2A
100
AcDbVisualStyle
  2
Thicken
 70
    13
177
     2
291
     1
 71
     2
176
     1
 72
     2
176
     1
 73
     0
176
     1
 90
        0
176
     1
 40
-0.6
176
     1
 41
-30.0
176
     1
 62
     5
 63
     7
421
 16777215
176
     1
 74
     1
176
     1
 91
        4
176
     1
 64
     7
176
     1
 65
   257
176
     1
 75
     1
176
     1
175
     1
176
     1
 42
1.0
176
     1
 92
       12
176
     1
 66
     7
176
     1
 43
1.0
176
     1
 76
     1
176
     1
 77
     6
176
     1
 78
     2
176
     1
 67
     7
176
     1
 79
     5
176
     1
170
     0
176
     1
171
     0
176
     1
290
     0
176
     1
 93
        1
176
     1
 44
0.0
176
     1
173
     0
176
     1
  0
ENDSEC
  0
EOF
