  0
SECTION
  2
HEADER
  9
$ACADVER
  1
AC1024
  9
$ACADMAINTVER
 70
     6
  9
$DWGCODEPAGE
  3
UNDEFINED
  9
$INSBASE
 10
0.0
 20
0.0
 30
0.0
  9
$EXTMIN
 10
1.000000000000000E+20
 20
1.000000000000000E+20
 30
1.000000000000000E+20
  9
$EXTMAX
 10
-1.000000000000000E+20
 20
-1.000000000000000E+20
 30
-1.000000000000000E+20
  9
$LIMMIN
 10
0.0
 20
0.0
  9
$LIMMAX
 10
12.0
 20
9.0
  9
$ORTHOMODE
 70
     0
  9
$REGENMODE
 70
     1
  9
$FILLMODE
 70
     1
  9
$QTEXTMODE
 70
     0
  9
$MIRRTEXT
 70
     1
  9
$LTSCALE
 40
1.0
  9
$ATTMODE
 70
     1
  9
$TEXTSIZE
 40
0.2
  9
$TRACEWID
 40
0.05
  9
$TEXTSTYLE
  7
Standard
  9
$CLAYER
  8
0
  9
$CELTYPE
  6
ByLayer
  9
$CECOLOR
 62
   256
  9
$CELTSCALE
 40
1.0
  9
$DISPSILH
 70
     0
  9
$DIMSCALE
 40
1.0
  9
$DIMASZ
 40
0.18
  9
$DIMEXO
 40
0.0625
  9
$DIMDLI
 40
0.38
  9
$DIMRND
 40
0.0
  9
$DIMDLE
 40
0.0
  9
$DIMEXE
 40
0.18
  9
$DIMTP
 40
0.0
  9
$DIMTM
 40
0.0
  9
$DIMTXT
 40
0.18
  9
$DIMCEN
 40
0.09
  9
$DIMTSZ
 40
0.0
  9
$DIMTOL
 70
     0
  9
$DIMLIM
 70
     0
  9
$DIMTIH
 70
     1
  9
$DIMTOH
 70
     1
  9
$DIMSE1
 70
     0
  9
$DIMSE2
 70
     0
  9
$DIMTAD
 70
     0
  9
$DIMZIN
 70
     0
  9
$DIMBLK
  1

  9
$DIMASO
 70
     1
  9
$DIMSHO
 70
     1
  9
$DIMPOST
  1

  9
$DIMAPOST
  1

  9
$DIMALT
 70
     0
  9
$DIMALTD
 70
     2
  9
$DIMALTF
 40
25.4
  9
$DIMLFAC
 40
1.0
  9
$DIMTOFL
 70
     0
  9
$DIMTVP
 40
0.0
  9
$DIMTIX
 70
     0
  9
$DIMSOXD
 70
     0
  9
$DIMSAH
 70
     0
  9
$DIMBLK1
  1

  9
$DIMBLK2
  1

  9
$DIMSTYLE
  2
Standard
  9
$DIMCLRD
 70
     0
  9
$DIMCLRE
 70
     0
  9
$DIMCLRT
 70
     0
  9
$DIMTFAC
 40
1.0
  9
$DIMGAP
 40
0.09
  9
$DIMJUST
 70
     0
  9
$DIMSD1
 70
     0
  9
$DIMSD2
 70
     0
  9
$DIMTOLJ
 70
     1
  9
$DIMTZIN
 70
     0
  9
$DIMALTZ
 70
     0
  9
$DIMALTTZ
 70
     0
  9
$DIMUPT
 70
     0
  9
$DIMDEC
 70
     4
  9
$DIMTDEC
 70
     4
  9
$DIMALTU
 70
     2
  9
$DIMALTTD
 70
     2
  9
$DIMTXSTY
  7
Standard
  9
$DIMAUNIT
 70
     0
  9
$DIMADEC
 70
     0
  9
$DIMALTRND
 40
0.0
  9
$DIMAZIN
 70
     0
  9
$DIMDSEP
 70
    46
  9
$DIMATFIT
 70
     3
  9
$DIMFRAC
 70
     0
  9
$DIMLDRBLK
  1

  9
$DIMLUNIT
 70
     2
  9
$DIMLWD
 70
    -2
  9
$DIMLWE
 70
    -2
  9
$DIMTMOVE
 70
     0
  9
$DIMFXL
 40
1.0
  9
$DIMFXLON
 70
     0
  9
$DIMJOGANG
 40
0.7853981633974483
  9
$DIMTFILL
 70
     0
  9
$DIMTFILLCLR
 70
     0
  9
$DIMARCSYM
 70
     0
  9
$DIMLTYPE
  6

  9
$DIMLTEX1
  6

  9
$DIMLTEX2
  6

  9
$DIMTXTDIRECTION
 70
     0
  9
$LUNITS
 70
     2
  9
$LUPREC
 70
     4
  9
$SKETCHINC
 40
0.1
  9
$FILLETRAD
 40
0.5
  9
$AUNITS
 70
     0
  9
$AUPREC
 70
     0
  9
$MENU
  1
.
  9
$ELEVATION
 40
0.0
  9
$PELEVATION
 40
0.0
  9
$THICKNESS
 40
0.0
  9
$LIMCHECK
 70
     0
  9
$CHAMFERA
 40
0.5
  9
$CHAMFERB
 40
0.5
  9
$CHAMFERC
 40
1.0
  9
$CHAMFERD
 40
0.0
  9
$SKPOLY
 70
     0
  9
$TDCREATE
 40
2457917.584780093
  9
$TDUCREATE
 40
2457917.209780093
  9
$TDUPDATE
 40
2457917.584780093
  9
$TDUUPDATE
 40
2457917.209780093
  9
$TDINDWG
 40
0.0000000116
  9
$TDUSRTIMER
 40
0.0000000116
  9
$USRTIMER
 70
     1
  9
$ANGBASE
 50
0.0
  9
$ANGDIR
 70
     0
  9
$PDMODE
 70
     0
  9
$PDSIZE
 40
0.0
  9
$PLINEWID
 40
0.0
  9
$SPLFRAME
 70
     0
  9
$SPLINETYPE
 70
     6
  9
$SPLINESEGS
 70
     8
  9
$HANDSEED
  5
B4
  9
$SURFTAB1
 70
     6
  9
$SURFTAB2
 70
     6
  9
$SURFTYPE
 70
     6
  9
$SURFU
 70
     6
  9
$SURFV
 70
     6
  9
$UCSBASE
  2

  9
$UCSNAME
  2

  9
$UCSORG
 10
0.0
 20
0.0
 30
0.0
  9
$UCSXDIR
 10
1.0
 20
0.0
 30
0.0
  9
$UCSYDIR
 10
0.0
 20
1.0
 30
0.0
  9
$UCSORTHOREF
  2

  9
$UCSORTHOVIEW
 70
     0
  9
$UCSORGTOP
 10
0.0
 20
0.0
 30
0.0
  9
$UCSORGBOTTOM
 10
0.0
 20
0.0
 30
0.0
  9
$UCSORGLEFT
 10
0.0
 20
0.0
 30
0.0
  9
$UCSORGRIGHT
 10
0.0
 20
0.0
 30
0.0
  9
$UCSORGFRONT
 10
0.0
 20
0.0
 30
0.0
  9
$UCSORGBACK
 10
0.0
 20
0.0
 30
0.0
  9
$PUCSBASE
  2

  9
$PUCSNAME
  2

  9
$PUCSORG
 10
0.0
 20
0.0
 30
0.0
  9
$PUCSXDIR
 10
1.0
 20
0.0
 30
0.0
  9
$PUCSYDIR
 10
0.0
 20
1.0
 30
0.0
  9
$PUCSORTHOREF
  2

  9
$PUCSORTHOVIEW
 70
     0
  9
$PUCSORGTOP
 10
0.0
 20
0.0
 30
0.0
  9
$PUCSORGBOTTOM
 10
0.0
 20
0.0
 30
0.0
  9
$PUCSORGLEFT
 10
0.0
 20
0.0
 30
0.0
  9
$PUCSORGRIGHT
 10
0.0
 20
0.0
 30
0.0
  9
$PUCSORGFRONT
 10
0.0
 20
0.0
 30
0.0
  9
$PUCSORGBACK
 10
0.0
 20
0.0
 30
0.0
  9
$USERI1
 70
     0
  9
$USERI2
 70
     0
  9
$USERI3
 70
     0
  9
$USERI4
 70
     0
  9
$USERI5
 70
     0
  9
$USERR1
 40
0.0
  9
$USERR2
 40
0.0
  9
$USERR3
 40
0.0
  9
$USERR4
 40
0.0
  9
$USERR5
 40
0.0
  9
$WORLDVIEW
 70
     1
  9
$SHADEDGE
 70
     3
  9
$SHADEDIF
 70
    70
  9
$TILEMODE
 70
     1
  9
$MAXACTVP
 70
    64
  9
$PINSBASE
 10
0.0
 20
0.0
 30
0.0
  9
$PLIMCHECK
 70
     0
  9
$PEXTMIN
 10
1.000000000000000E+20
 20
1.000000000000000E+20
 30
1.000000000000000E+20
  9
$PEXTMAX
 10
-1.000000000000000E+20
 20
-1.000000000000000E+20
 30
-1.000000000000000E+20
  9
$PLIMMIN
 10
0.0
 20
0.0
  9
$PLIMMAX
 10
12.0
 20
9.0
  9
$UNITMODE
 70
     0
  9
$VISRETAIN
 70
     1
  9
$PLINEGEN
 70
     0
  9
$PSLTSCALE
 70
     1
  9
$TREEDEPTH
 70
  3020
  9
$CMLSTYLE
  2
Standard
  9
$CMLJUST
 70
     0
  9
$CMLSCALE
 40
1.0
  9
$PROXYGRAPHICS
 70
     1
  9
$MEASUREMENT
 70
     0
  9
$CELWEIGHT
370
    -1
  9
$ENDCAPS
280
     0
  9
$JOINSTYLE
280
     0
  9
$LWDISPLAY
290
     1
  9
$INSUNITS
 70
     1
  9
$HYPERLINKBASE
  1

  9
$STYLESHEET
  1

  9
$XEDIT
290
     1
  9
$CEPSNTYPE
380
     0
  9
$PSTYLEMODE
290
     1
  9
$FINGERPRINTGUID
  2
{03A7B476-D831-94DE-1037-BB457DC7BE9D}
  9
$VERSIONGUID
  2
{FAEB1C32-E019-11D5-929B-00C0DF256EC4}
  9
$EXTNAMES
290
     1
  9
$PSVPSCALE
 40
0.0
  9
$OLESTARTUP
290
     0
  9
$SORTENTS
280
   127
  9
$INDEXCTL
280
     0
  9
$HIDETEXT
280
     1
  9
$XCLIPFRAME
280
     2
  9
$HALOGAP
280
     0
  9
$OBSCOLOR
 70
   257
  9
$OBSLTYPE
280
     0
  9
$INTERSECTIONDISPLAY
280
     0
  9
$INTERSECTIONCOLOR
 70
   257
  9
$DIMASSOC
280
     2
  9
$PROJECTNAME
  1

  9
$CAMERADISPLAY
290
     0
  9
$LENSLENGTH
 40
50.0
  9
$CAMERAHEIGHT
 40
0.0
  9
$STEPSPERSEC
 40
2.0
  9
$STEPSIZE
 40
6.0
  9
$3DDWFPREC
 40
2.0
  9
$PSOLWIDTH
 40
0.25
  9
$PSOLHEIGHT
 40
4.0
  9
$LOFTANG1
 40
1.570796326794897
  9
$LOFTANG2
 40
1.570796326794897
  9
$LOFTMAG1
 40
0.0
  9
$LOFTMAG2
 40
0.0
  9
$LOFTPARAM
 70
     7
  9
$LOFTNORMALS
280
     1
  9
$LATITUDE
 40
37.795
  9
$LONGITUDE
 40
-122.394
  9
$NORTHDIRECTION
 40
0.0
  9
$TIMEZONE
 70
 -8000
  9
$LIGHTGLYPHDISPLAY
280
     1
  9
$TILEMODELIGHTSYNCH
280
     1
  9
$CMATERIAL
347
3C
  9
$SOLIDHIST
280
     1
  9
$SHOWHIST
280
     1
  9
$DWFFRAME
280
     2
  9
$DGNFRAME
280
     2
  9
$REALWORLDSCALE
290
     1
  9
$INTERFERECOLOR
 62
   256
  9
$CSHADOW
280
     0
  9
$SHADOWPLANELOCATION
 40
0.0
  0
ENDSEC
  0
SECTION
  2
CLASSES
  0
CLASS
  1
ACDBDICTIONARYWDFLT
  2
AcDbDictionaryWithDefault
  3
ObjectDBX Classes
 90
        0
 91
        4
280
     0
281
     0
  0
CLASS
  1
VISUALSTYLE
  2
AcDbVisualStyle
  3
ObjectDBX Classes
 90
     4095
 91
        4
280
     0
281
     0
  0
CLASS
  1
MATERIAL
  2
AcDbMaterial
  3
ObjectDBX Classes
 90
     1153
 91
        4
280
     0
281
     0
  0
CLASS
  1
SUN
  2
AcDbSun
  3
SCENEOE
 90
     1024
 91
        4
280
     0
281
     0
  0
ENDSEC
  0
SECTION
  2
TABLES
  0
TABLE
  2
VPORT
  5
8
330
0
100
AcDbSymbolTable
 70
     1
  0
VPORT
  5
29
330
8
100
AcDbSymbolTableRecord
100
AcDbViewportTableRecord
  2
*Active
 70
     0
 10
0.0
 20
0.0
 11
1.0
 21
1.0
 12
0.0
 22
0.0
 13
0.0
 23
0.0
 14
0.5
 24
0.5
 15
0.5
 25
0.5
 16
0.0
 26
0.0
 36
1.0
 17
91.00082462281999
 27
-128.4993055234307
 37
0.0
 40
256.9986110468615
 41
0.7081814508812795
 42
50.0
 43
0.0
 44
0.0
 50
0.0
 51
0.0
 71
     0
 72
   100
 73
     1
 74
     3
 75
     0
 76
     0
 77
     0
 78
     0
281
     0
 65
     1
110
0.0
120
0.0
130
0.0
111
1.0
121
0.0
131
0.0
112
0.0
122
1.0
132
0.0
 79
     0
146
0.0
 60
     3
 61
     5
292
     1
282
     1
141
0.0
142
0.0
 63
   250
361
3F
  0
ENDTAB
  0
TABLE
  2
LTYPE
  5
5
330
0
100
AcDbSymbolTable
 70
     1
  0
LTYPE
  5
14
330
5
100
AcDbSymbolTableRecord
100
AcDbLinetypeTableRecord
  2
ByBlock
 70
     0
  3

 72
    65
 73
     0
 40
0.0
  0
LTYPE
  5
15
330
5
100
AcDbSymbolTableRecord
100
AcDbLinetypeTableRecord
  2
ByLayer
 70
     0
  3

 72
    65
 73
     0
 40
0.0
  0
LTYPE
  5
16
330
5
100
AcDbSymbolTableRecord
100
AcDbLinetypeTableRecord
  2
Continuous
 70
     0
  3
Solid line
 72
    65
 73
     0
 40
0.0
  0
ENDTAB
  0
TABLE
  2
LAYER
  5
2
330
0
100
AcDbSymbolTable
 70
     2
  0
LAYER
  5
10
330
2
100
AcDbSymbolTableRecord
100
AcDbLayerTableRecord
  2
0
 70
     0
 62
     7
  6
Continuous
370
    -3
390
F
347
3E
  0
LAYER
  5
40
330
2
100
AcDbSymbolTableRecord
100
AcDbLayerTableRecord
  2
_U+30EC_U+30A4_U+30E4_U+30FC 1
 70
     0
 62
     7
  6
Continuous
370
    -3
390
F
347
3E
  0
ENDTAB
  0
TABLE
  2
STYLE
  5
3
330
0
100
AcDbSymbolTable
 70
     1
  0
STYLE
  5
11
330
3
100
AcDbSymbolTableRecord
100
AcDbTextStyleTableRecord
  2
Standard
 70
     0
 40
0.0
 41
1.0
 50
0.0
 71
     0
 42
0.2
  3
txt
  4

  0
ENDTAB
  0
TABLE
  2
VIEW
  5
6
330
0
100
AcDbSymbolTable
 70
     0
  0
ENDTAB
  0
TABLE
  2
UCS
  5
7
330
0
100
AcDbSymbolTable
 70
     0
  0
ENDTAB
  0
TABLE
  2
APPID
  5
9
330
0
100
AcDbSymbolTable
 70
     1
  0
APPID
  5
12
330
9
100
AcDbSymbolTableRecord
100
AcDbRegAppTableRecord
  2
ACAD
 70
     0
  0
ENDTAB
  0
TABLE
  2
DIMSTYLE
  5
A
330
0
100
AcDbSymbolTable
 70
     1
100
AcDbDimStyleTable
  0
DIMSTYLE
105
27
330
A
100
AcDbSymbolTableRecord
100
AcDbDimStyleTableRecord
  2
Standard
 70
     0
178
     0
340
11
  0
ENDTAB
  0
TABLE
  2
BLOCK_RECORD
  5
1
330
0
100
AcDbSymbolTable
 70
     4
  0
BLOCK_RECORD
  5
1F
330
1
100
AcDbSymbolTableRecord
100
AcDbBlockTableRecord
  2
*Model_Space
340
22
 70
     0
280
     1
281
     0
  0
BLOCK_RECORD
  5
1B
330
1
100
AcDbSymbolTableRecord
100
AcDbBlockTableRecord
  2
*Paper_Space
340
1E
 70
     0
280
     1
281
     0
  0
BLOCK_RECORD
  5
23
330
1
100
AcDbSymbolTableRecord
100
AcDbBlockTableRecord
  2
*Paper_Space0
340
26
 70
     0
280
     1
281
     0
  0
BLOCK_RECORD
  5
4D
330
1
100
AcDbSymbolTableRecord
100
AcDbBlockTableRecord
  2
block 2
340
0
102
{BLKREFS
331
4E
102
}
 70
     0
280
     1
281
     0
  0
BLOCK_RECORD
  5
8D
330
1
100
AcDbSymbolTableRecord
100
AcDbBlockTableRecord
  2
block 3
340
0
102
{BLKREFS
331
8E
102
}
 70
     0
280
     1
281
     0
  0
BLOCK_RECORD
  5
9E
330
1
100
AcDbSymbolTableRecord
100
AcDbBlockTableRecord
  2
block 4
340
0
102
{BLKREFS
331
9F
102
}
 70
     0
280
     1
281
     0
  0
ENDTAB
  0
ENDSEC
  0
SECTION
  2
BLOCKS
  0
BLOCK
  5
20
330
1F
100
AcDbEntity
  8
0
100
AcDbBlockBegin
  2
*Model_Space
 70
     0
 10
0.0
 20
0.0
 30
0.0
  3
*Model_Space
  1

  0
ENDBLK
  5
21
330
1F
100
AcDbEntity
  8
0
100
AcDbBlockEnd
  0
BLOCK
  5
1C
330
1B
100
AcDbEntity
 67
     1
  8
0
100
AcDbBlockBegin
  2
*Paper_Space
 70
     0
 10
0.0
 20
0.0
 30
0.0
  3
*Paper_Space
  1

  0
ENDBLK
  5
1D
330
1B
100
AcDbEntity
 67
     1
  8
0
100
AcDbBlockEnd
  0
BLOCK
  5
24
330
23
100
AcDbEntity
  8
0
100
AcDbBlockBegin
  2
*Paper_Space0
 70
     0
 10
0.0
 20
0.0
 30
0.0
  3
*Paper_Space0
  1

  0
ENDBLK
  5
25
330
23
100
AcDbEntity
  8
0
100
AcDbBlockEnd
  0
BLOCK
  5
4F
330
4D
100
AcDbEntity
  8
0
100
AcDbBlockBegin
  2
block 2
 70
     0
 10
0.0
 20
0.0
 30
0.0
  3
block 2
  1

  0
SPLINE
  5
51
330
4D
100
AcDbEntity
  8
_U+30EC_U+30A4_U+30E4_U+30FC 1
370
     0
100
AcDbSpline
210
0.0
220
0.0
230
1.0
 70
    11
 71
     3
 72
    44
 73
    40
 74
     0
 42
0.0000000001
 43
0.0000000001
 12
1.0
 22
0.0
 32
0.0
 13
1.0
 23
0.0
 33
0.0
 40
0.0
 40
0.0
 40
0.0
 40
0.0
 40
1.0
 40
1.0
 40
1.0
 40
2.0
 40
2.0
 40
2.0
 40
3.0
 40
3.0
 40
3.0
 40
4.0
 40
4.0
 40
4.0
 40
5.0
 40
5.0
 40
5.0
 40
6.0
 40
6.0
 40
6.0
 40
7.0
 40
7.0
 40
7.0
 40
8.0
 40
8.0
 40
8.0
 40
9.0
 40
9.0
 40
9.0
 40
10.0
 40
10.0
 40
10.0
 40
11.0
 40
11.0
 40
11.0
 40
12.0
 40
12.0
 40
12.0
 40
13.0
 40
13.0
 40
13.0
 40
13.0
 10
82.66041528966475
 20
-131.3339300886943
 30
0.0
 10
82.63698864036506
 20
-131.289143847386
 30
0.0
 10
82.61597355790504
 20
-131.2364338864617
 30
0.0
 10
82.61373424583962
 20
-131.0059569984985
 30
0.0
 10
82.60960013125732
 20
-130.7627332572399
 30
0.0
 10
82.55034448891102
 20
-130.6927978188893
 30
0.0
 10
82.37257756187213
 20
-130.6927978188893
 30
0.0
 10
82.37257756187213
 20
-130.6927978188893
 30
0.0
 10
81.96433374687003
 20
-130.6927978188893
 30
0.0
 10
81.96433374687003
 20
-130.6927978188893
 30
0.0
 10
81.96433374687003
 20
-130.6927978188893
 30
0.0
 10
81.96433374687003
 20
-131.3339300886943
 30
0.0
 10
81.96433374687003
 20
-131.3339300886943
 30
0.0
 10
81.96433374687003
 20
-131.3339300886943
 30
0.0
 10
81.72955048955025
 20
-131.3339300886943
 30
0.0
 10
81.72955048955025
 20
-131.3339300886943
 30
0.0
 10
81.72955048955025
 20
-131.3339300886943
 30
0.0
 10
81.72955048955025
 20
-129.7894937826568
 30
0.0
 10
81.72955048955025
 20
-129.7894937826568
 30
0.0
 10
81.72955048955025
 20
-129.7894937826568
 30
0.0
 10
82.40427244033644
 20
-129.7894937826568
 30
0.0
 10
82.40427244033644
 20
-129.7894937826568
 30
0.0
 10
82.71105819329793
 20
-129.7894937826568
 30
0.0
 10
82.87831757910682
 20
-129.9607150282737
 30
0.0
 10
82.87831757910682
 20
-130.2170301323763
 30
0.0
 10
82.87831757910682
 20
-130.2673285264609
 30
0.0
 10
82.8697048403937
 20
-130.3500108181069
 30
0.0
 10
82.82526310863396
 20
-130.4306260524618
 30
0.0
 10
82.76617972106193
 20
-130.5339789170193
 30
0.0
 10
82.70055065206792
 20
-130.5532714517367
 30
0.0
 10
82.63922795243047
 20
-130.5698079100659
 30
0.0
 10
82.77668726229194
 20
-130.612527094083
 30
0.0
 10
82.8443833885771
 20
-130.661102940425
 30
0.0
 10
82.84868975793367
 20
-130.9763291773254
 30
0.0
 10
82.85282387251597
 20
-131.247113682466
 30
0.0
 10
82.88882512033682
 20
-131.2788085609303
 30
0.0
 10
82.95652124662199
 20
-131.3339300886943
 30
0.0
 10
82.95652124662199
 20
-131.3339300886943
 30
0.0
 10
82.66041528966475
 20
-131.3339300886943
 30
0.0
 10
82.66041528966475
 20
-131.3339300886943
 30
0.0
  0
SPLINE
  5
52
330
4D
100
AcDbEntity
  8
_U+30EC_U+30A4_U+30E4_U+30FC 1
370
     0
100
AcDbSpline
210
0.0
220
0.0
230
1.0
 70
    11
 71
     3
 72
    20
 73
    16
 74
     0
 42
0.0000000001
 43
0.0000000001
 12
1.0
 22
0.0
 32
0.0
 13
1.0
 23
0.0
 33
0.0
 40
0.0
 40
0.0
 40
0.0
 40
0.0
 40
1.0
 40
1.0
 40
1.0
 40
2.0
 40
2.0
 40
2.0
 40
3.0
 40
3.0
 40
3.0
 40
4.0
 40
4.0
 40
4.0
 40
5.0
 40
5.0
 40
5.0
 40
5.0
 10
82.408578809693
 20
-130.0010226454511
 30
0.0
 10
82.408578809693
 20
-130.0010226454511
 30
0.0
 10
81.96433374687003
 20
-130.0010226454511
 30
0.0
 10
81.96433374687003
 20
-130.0010226454511
 30
0.0
 10
81.96433374687003
 20
-130.0010226454511
 30
0.0
 10
81.96433374687003
 20
-130.481268956095
 30
0.0
 10
81.96433374687003
 20
-130.481268956095
 30
0.0
 10
81.96433374687003
 20
-130.481268956095
 30
0.0
 10
82.40651175240185
 20
-130.481268956095
 30
0.0
 10
82.40651175240185
 20
-130.481268956095
 30
0.0
 10
82.5059027571513
 20
-130.481268956095
 30
0.0
 10
82.64129500972163
 20
-130.405132345871
 30
0.0
 10
82.64129500972163
 20
-130.2335665907055
 30
0.0
 10
82.64129500972163
 20
-130.1553629231903
 30
0.0
 10
82.60753307396618
 20
-130.0010226454511
 30
0.0
 10
82.408578809693
 20
-130.0010226454511
 30
0.0
  0
HATCH
  5
53
330
4D
100
AcDbEntity
  8
_U+30EC_U+30A4_U+30E4_U+30FC 1
 62
   179
420
  2234388
100
AcDbHatch
 10
0.0
 20
0.0
 30
0.0
210
0.0
220
0.0
230
1.0
  2
SOLID
 70
     1
 71
     0
 91
        2
 92
        1
 93
        1
 72
     4
 94
        3
 73
     0
 74
     1
 95
       44
 96
       40
 40
0.0
 40
0.0
 40
0.0
 40
0.0
 40
1.0
 40
1.0
 40
1.0
 40
2.0
 40
2.0
 40
2.0
 40
3.0
 40
3.0
 40
3.0
 40
4.0
 40
4.0
 40
4.0
 40
5.0
 40
5.0
 40
5.0
 40
6.0
 40
6.0
 40
6.0
 40
7.0
 40
7.0
 40
7.0
 40
8.0
 40
8.0
 40
8.0
 40
9.0
 40
9.0
 40
9.0
 40
10.0
 40
10.0
 40
10.0
 40
11.0
 40
11.0
 40
11.0
 40
12.0
 40
12.0
 40
12.0
 40
13.0
 40
13.0
 40
13.0
 40
13.0
 10
82.66041528966475
 20
-131.3339300886943
 10
82.63698864036506
 20
-131.289143847386
 10
82.61597355790504
 20
-131.2364338864617
 10
82.61373424583962
 20
-131.0059569984985
 10
82.60960013125732
 20
-130.7627332572399
 10
82.55034448891102
 20
-130.6927978188893
 10
82.37257756187213
 20
-130.6927978188893
 10
82.37257756187213
 20
-130.6927978188893
 10
81.96433374687003
 20
-130.6927978188893
 10
81.96433374687003
 20
-130.6927978188893
 10
81.96433374687003
 20
-130.6927978188893
 10
81.96433374687003
 20
-131.3339300886943
 10
81.96433374687003
 20
-131.3339300886943
 10
81.96433374687003
 20
-131.3339300886943
 10
81.72955048955025
 20
-131.3339300886943
 10
81.72955048955025
 20
-131.3339300886943
 10
81.72955048955025
 20
-131.3339300886943
 10
81.72955048955025
 20
-129.7894937826568
 10
81.72955048955025
 20
-129.7894937826568
 10
81.72955048955025
 20
-129.7894937826568
 10
82.40427244033644
 20
-129.7894937826568
 10
82.40427244033644
 20
-129.7894937826568
 10
82.71105819329793
 20
-129.7894937826568
 10
82.87831757910682
 20
-129.9607150282737
 10
82.87831757910682
 20
-130.2170301323763
 10
82.87831757910682
 20
-130.2673285264609
 10
82.8697048403937
 20
-130.3500108181069
 10
82.82526310863396
 20
-130.4306260524618
 10
82.76617972106193
 20
-130.5339789170193
 10
82.70055065206792
 20
-130.5532714517367
 10
82.63922795243047
 20
-130.5698079100659
 10
82.77668726229194
 20
-130.612527094083
 10
82.8443833885771
 20
-130.661102940425
 10
82.84868975793367
 20
-130.9763291773254
 10
82.85282387251597
 20
-131.247113682466
 10
82.88882512033682
 20
-131.2788085609303
 10
82.95652124662199
 20
-131.3339300886943
 10
82.95652124662199
 20
-131.3339300886943
 10
82.66041528966475
 20
-131.3339300886943
 10
82.66041528966475
 20
-131.3339300886943
 97
        0
 97
        0
 92
        1
 93
        1
 72
     4
 94
        3
 73
     0
 74
     1
 95
       20
 96
       16
 40
0.0
 40
0.0
 40
0.0
 40
0.0
 40
1.0
 40
1.0
 40
1.0
 40
2.0
 40
2.0
 40
2.0
 40
3.0
 40
3.0
 40
3.0
 40
4.0
 40
4.0
 40
4.0
 40
5.0
 40
5.0
 40
5.0
 40
5.0
 10
82.408578809693
 20
-130.0010226454511
 10
82.408578809693
 20
-130.0010226454511
 10
81.96433374687003
 20
-130.0010226454511
 10
81.96433374687003
 20
-130.0010226454511
 10
81.96433374687003
 20
-130.0010226454511
 10
81.96433374687003
 20
-130.481268956095
 10
81.96433374687003
 20
-130.481268956095
 10
81.96433374687003
 20
-130.481268956095
 10
82.40651175240185
 20
-130.481268956095
 10
82.40651175240185
 20
-130.481268956095
 10
82.5059027571513
 20
-130.481268956095
 10
82.64129500972163
 20
-130.405132345871
 10
82.64129500972163
 20
-130.2335665907055
 10
82.64129500972163
 20
-130.1553629231903
 10
82.60753307396618
 20
-130.0010226454511
 10
82.408578809693
 20
-130.0010226454511
 97
        0
 97
        0
 75
     2
 76
     1
 98
        0
  0
SPLINE
  5
54
330
4D
100
AcDbEntity
  8
_U+30EC_U+30A4_U+30E4_U+30FC 1
370
     0
100
AcDbSpline
210
0.0
220
0.0
230
1.0
 70
    11
 71
     3
 72
    44
 73
    40
 74
     0
 42
0.0000000001
 43
0.0000000001
 12
1.0
 22
0.0
 32
0.0
 13
1.0
 23
0.0
 33
0.0
 40
0.0
 40
0.0
 40
0.0
 40
0.0
 40
1.0
 40
1.0
 40
1.0
 40
2.0
 40
2.0
 40
2.0
 40
3.0
 40
3.0
 40
3.0
 40
4.0
 40
4.0
 40
4.0
 40
5.0
 40
5.0
 40
5.0
 40
6.0
 40
6.0
 40
6.0
 40
7.0
 40
7.0
 40
7.0
 40
8.0
 40
8.0
 40
8.0
 40
9.0
 40
9.0
 40
9.0
 40
10.0
 40
10.0
 40
10.0
 40
11.0
 40
11.0
 40
11.0
 40
12.0
 40
12.0
 40
12.0
 40
13.0
 40
13.0
 40
13.0
 40
13.0
 10
83.68929305633462
 20
-130.7520534612356
 30
0.0
 10
83.47139076689257
 20
-130.9108723631056
 30
0.0
 10
83.37820093401656
 20
-130.98459740649
 30
0.0
 10
83.32962508767454
 20
-131.1286023977734
 30
0.0
 10
83.32962508767454
 20
-131.1286023977734
 30
0.0
 10
84.10804441256674
 20
-131.1286023977734
 30
0.0
 10
84.10804441256674
 20
-131.1286023977734
 30
0.0
 10
84.10804441256674
 20
-131.1286023977734
 30
0.0
 10
84.10804441256674
 20
-131.3339300886943
 30
0.0
 10
84.10804441256674
 20
-131.3339300886943
 30
0.0
 10
84.10804441256674
 20
-131.3339300886943
 30
0.0
 10
83.08002791976818
 20
-131.3339300886943
 30
0.0
 10
83.08002791976818
 20
-131.3339300886943
 30
0.0
 10
83.11172279823249
 20
-130.9763291773254
 30
0.0
 10
83.1773518672265
 20
-130.8977810002617
 30
0.0
 10
83.56234128770316
 20
-130.599435731239
 30
0.0
 10
83.81831188225723
 20
-130.4009982312886
 30
0.0
 10
83.88376869647698
 20
-130.3331298502292
 30
0.0
 10
83.88376869647698
 20
-130.1956705403678
 30
0.0
 10
83.88376869647698
 20
-130.0771592556752
 30
0.0
 10
83.81193845560952
 20
-129.9462456272357
 30
0.0
 10
83.61522350340175
 20
-129.9462456272357
 30
0.0
 10
83.35494653949112
 20
-129.9462456272357
 30
0.0
 10
83.34650605555227
 20
-130.1763780056503
 30
0.0
 10
83.3421996861957
 20
-130.2928222330518
 30
0.0
 10
83.3421996861957
 20
-130.2928222330518
 30
0.0
 10
83.1180962248802
 20
-130.2928222330518
 30
0.0
 10
83.1180962248802
 20
-130.2928222330518
 30
0.0
 10
83.12653670881906
 20
-130.1660427191946
 30
0.0
 10
83.13704425004907
 20
-130.0537326063755
 30
0.0
 10
83.21748722962965
 20
-129.9352213216829
 30
0.0
 10
83.32738577560913
 20
-129.7746798720702
 30
0.0
 10
83.51359318658689
 20
-129.7409179363148
 30
0.0
 10
83.63003741398833
 20
-129.7409179363148
 30
0.0
 10
83.90719534577667
 20
-129.7409179363148
 30
0.0
 10
84.11441783921445
 20
-129.9248860352271
 30
0.0
 10
84.11441783921445
 20
-130.1977375976589
 30
0.0
 10
84.11441783921445
 20
-130.426147428331
 30
0.0
 10
83.99814586658728
 20
-130.5257106878547
 30
0.0
 10
83.68929305633462
 20
-130.7520534612356
 30
0.0
  0
HATCH
  5
55
330
4D
100
AcDbEntity
  8
_U+30EC_U+30A4_U+30E4_U+30FC 1
 62
   179
420
  2234388
100
AcDbHatch
 10
0.0
 20
0.0
 30
0.0
210
0.0
220
0.0
230
1.0
  2
SOLID
 70
     1
 71
     0
 91
        1
 92
        1
 93
        1
 72
     4
 94
        3
 73
     0
 74
     1
 95
       44
 96
       40
 40
0.0
 40
0.0
 40
0.0
 40
0.0
 40
1.0
 40
1.0
 40
1.0
 40
2.0
 40
2.0
 40
2.0
 40
3.0
 40
3.0
 40
3.0
 40
4.0
 40
4.0
 40
4.0
 40
5.0
 40
5.0
 40
5.0
 40
6.0
 40
6.0
 40
6.0
 40
7.0
 40
7.0
 40
7.0
 40
8.0
 40
8.0
 40
8.0
 40
9.0
 40
9.0
 40
9.0
 40
10.0
 40
10.0
 40
10.0
 40
11.0
 40
11.0
 40
11.0
 40
12.0
 40
12.0
 40
12.0
 40
13.0
 40
13.0
 40
13.0
 40
13.0
 10
83.68929305633462
 20
-130.7520534612356
 10
83.47139076689257
 20
-130.9108723631056
 10
83.37820093401656
 20
-130.98459740649
 10
83.32962508767454
 20
-131.1286023977734
 10
83.32962508767454
 20
-131.1286023977734
 10
84.10804441256674
 20
-131.1286023977734
 10
84.10804441256674
 20
-131.1286023977734
 10
84.10804441256674
 20
-131.1286023977734
 10
84.10804441256674
 20
-131.3339300886943
 10
84.10804441256674
 20
-131.3339300886943
 10
84.10804441256674
 20
-131.3339300886943
 10
83.08002791976818
 20
-131.3339300886943
 10
83.08002791976818
 20
-131.3339300886943
 10
83.11172279823249
 20
-130.9763291773254
 10
83.1773518672265
 20
-130.8977810002617
 10
83.56234128770316
 20
-130.599435731239
 10
83.81831188225723
 20
-130.4009982312886
 10
83.88376869647698
 20
-130.3331298502292
 10
83.88376869647698
 20
-130.1956705403678
 10
83.88376869647698
 20
-130.0771592556752
 10
83.81193845560952
 20
-129.9462456272357
 10
83.61522350340175
 20
-129.9462456272357
 10
83.35494653949112
 20
-129.9462456272357
 10
83.34650605555227
 20
-130.1763780056503
 10
83.3421996861957
 20
-130.2928222330518
 10
83.3421996861957
 20
-130.2928222330518
 10
83.1180962248802
 20
-130.2928222330518
 10
83.1180962248802
 20
-130.2928222330518
 10
83.12653670881906
 20
-130.1660427191946
 10
83.13704425004907
 20
-130.0537326063755
 10
83.21748722962965
 20
-129.9352213216829
 10
83.32738577560913
 20
-129.7746798720702
 10
83.51359318658689
 20
-129.7409179363148
 10
83.63003741398833
 20
-129.7409179363148
 10
83.90719534577667
 20
-129.7409179363148
 10
84.11441783921445
 20
-129.9248860352271
 10
84.11441783921445
 20
-130.1977375976589
 10
84.11441783921445
 20
-130.426147428331
 10
83.99814586658728
 20
-130.5257106878547
 10
83.68929305633462
 20
-130.7520534612356
 97
        0
 97
        0
 75
     2
 76
     1
 98
        0
  0
SPLINE
  5
56
330
4D
100
AcDbEntity
  8
_U+30EC_U+30A4_U+30E4_U+30FC 1
370
     0
100
AcDbSpline
210
0.0
220
0.0
230
1.0
 70
    11
 71
     3
 72
    29
 73
    25
 74
     0
 42
0.0000000001
 43
0.0000000001
 12
1.0
 22
0.0
 32
0.0
 13
1.0
 23
0.0
 33
0.0
 40
0.0
 40
0.0
 40
0.0
 40
0.0
 40
1.0
 40
1.0
 40
1.0
 40
2.0
 40
2.0
 40
2.0
 40
3.0
 40
3.0
 40
3.0
 40
4.0
 40
4.0
 40
4.0
 40
5.0
 40
5.0
 40
5.0
 40
6.0
 40
6.0
 40
6.0
 40
7.0
 40
7.0
 40
7.0
 40
8.0
 40
8.0
 40
8.0
 40
8.0
 10
85.17068411499206
 20
-131.1561631616554
 30
0.0
 10
85.06285262630374
 20
-131.3656249671586
 30
0.0
 10
84.8893920686214
 20
-131.3845729923275
 30
0.0
 10
84.77294784121996
 20
-131.3845729923275
 30
0.0
 10
84.61223413683305
 20
-131.3845729923275
 30
0.0
 10
84.47046845761503
 20
-131.3380642032766
 30
0.0
 10
84.37521156744786
 20
-131.1561631616554
 30
0.0
 10
84.27168644811611
 20
-130.9611707571903
 30
0.0
 10
84.25256616817298
 20
-130.7244926973536
 30
0.0
 10
84.25256616817298
 20
-130.5615396809013
 30
0.0
 10
84.25256616817298
 20
-130.4175346896178
 30
0.0
 10
84.2694471360507
 20
-130.1660427191946
 30
0.0
 10
84.37521156744786
 20
-129.9669162001472
 30
0.0
 10
84.48321531091045
 20
-129.7640000760659
 30
0.0
 10
84.64392901529736
 20
-129.7409179363148
 30
0.0
 10
84.77294784121996
 20
-129.7409179363148
 30
0.0
 10
84.93159448831571
 20
-129.7409179363148
 30
0.0
 10
85.07542722482489
 20
-129.785015158526
 30
0.0
 10
85.17068411499206
 20
-129.9669162001472
 30
0.0
 10
85.2700751197415
 20
-130.1598415473212
 30
0.0
 10
85.29332951426694
 20
-130.3879068684447
 30
0.0
 10
85.29332951426694
 20
-130.5615396809013
 30
0.0
 10
85.29332951426694
 20
-130.7331054360667
 30
0.0
 10
85.27231443180692
 20
-130.9635823240299
 30
0.0
 10
85.17068411499206
 20
-131.1561631616554
 30
0.0
  0
SPLINE
  5
57
330
4D
100
AcDbEntity
  8
_U+30EC_U+30A4_U+30E4_U+30FC 1
370
     0
100
AcDbSpline
210
0.0
220
0.0
230
1.0
 70
    11
 71
     3
 72
    17
 73
    13
 74
     0
 42
0.0000000001
 43
0.0000000001
 12
1.0
 22
0.0
 32
0.0
 13
1.0
 23
0.0
 33
0.0
 40
0.0
 40
0.0
 40
0.0
 40
0.0
 40
1.0
 40
1.0
 40
1.0
 40
2.0
 40
2.0
 40
2.0
 40
3.0
 40
3.0
 40
3.0
 40
4.0
 40
4.0
 40
4.0
 40
4.0
 10
84.77294784121996
 20
-129.9331542643917
 30
0.0
 10
84.52335067331362
 20
-129.9331542643917
 30
0.0
 10
84.47684188426274
 20
-130.2170301323763
 30
0.0
 10
84.47684188426274
 20
-130.5615396809013
 30
0.0
 10
84.47684188426274
 20
-130.8812445419325
 30
0.0
 10
84.5128431320836
 20
-131.1899250974108
 30
0.0
 10
84.77294784121996
 20
-131.1899250974108
 30
0.0
 10
85.02047795183516
 20
-131.1899250974108
 30
0.0
 10
85.06922605295145
 20
-130.908460796266
 30
0.0
 10
85.06922605295145
 20
-130.5615396809013
 30
0.0
 10
85.06922605295145
 20
-130.2421793294186
 30
0.0
 10
85.03115774783943
 20
-129.9331542643917
 30
0.0
 10
84.77294784121996
 20
-129.9331542643917
 30
0.0
  0
HATCH
  5
58
330
4D
100
AcDbEntity
  8
_U+30EC_U+30A4_U+30E4_U+30FC 1
 62
   179
420
  2234388
100
AcDbHatch
 10
0.0
 20
0.0
 30
0.0
210
0.0
220
0.0
230
1.0
  2
SOLID
 70
     1
 71
     0
 91
        2
 92
        1
 93
        1
 72
     4
 94
        3
 73
     0
 74
     1
 95
       29
 96
       25
 40
0.0
 40
0.0
 40
0.0
 40
0.0
 40
1.0
 40
1.0
 40
1.0
 40
2.0
 40
2.0
 40
2.0
 40
3.0
 40
3.0
 40
3.0
 40
4.0
 40
4.0
 40
4.0
 40
5.0
 40
5.0
 40
5.0
 40
6.0
 40
6.0
 40
6.0
 40
7.0
 40
7.0
 40
7.0
 40
8.0
 40
8.0
 40
8.0
 40
8.0
 10
85.17068411499206
 20
-131.1561631616554
 10
85.06285262630374
 20
-131.3656249671586
 10
84.8893920686214
 20
-131.3845729923275
 10
84.77294784121996
 20
-131.3845729923275
 10
84.61223413683305
 20
-131.3845729923275
 10
84.47046845761503
 20
-131.3380642032766
 10
84.37521156744786
 20
-131.1561631616554
 10
84.27168644811611
 20
-130.9611707571903
 10
84.25256616817298
 20
-130.7244926973536
 10
84.25256616817298
 20
-130.5615396809013
 10
84.25256616817298
 20
-130.4175346896178
 10
84.2694471360507
 20
-130.1660427191946
 10
84.37521156744786
 20
-129.9669162001472
 10
84.48321531091045
 20
-129.7640000760659
 10
84.64392901529736
 20
-129.7409179363148
 10
84.77294784121996
 20
-129.7409179363148
 10
84.93159448831571
 20
-129.7409179363148
 10
85.07542722482489
 20
-129.785015158526
 10
85.17068411499206
 20
-129.9669162001472
 10
85.2700751197415
 20
-130.1598415473212
 10
85.29332951426694
 20
-130.3879068684447
 10
85.29332951426694
 20
-130.5615396809013
 10
85.29332951426694
 20
-130.7331054360667
 10
85.27231443180692
 20
-130.9635823240299
 10
85.17068411499206
 20
-131.1561631616554
 97
        0
 97
        0
 92
        1
 93
        1
 72
     4
 94
        3
 73
     0
 74
     1
 95
       17
 96
       13
 40
0.0
 40
0.0
 40
0.0
 40
0.0
 40
1.0
 40
1.0
 40
1.0
 40
2.0
 40
2.0
 40
2.0
 40
3.0
 40
3.0
 40
3.0
 40
4.0
 40
4.0
 40
4.0
 40
4.0
 10
84.77294784121996
 20
-129.9331542643917
 10
84.52335067331362
 20
-129.9331542643917
 10
84.47684188426274
 20
-130.2170301323763
 10
84.47684188426274
 20
-130.5615396809013
 10
84.47684188426274
 20
-130.8812445419325
 10
84.5128431320836
 20
-131.1899250974108
 10
84.77294784121996
 20
-131.1899250974108
 10
85.02047795183516
 20
-131.1899250974108
 10
85.06922605295145
 20
-130.908460796266
 10
85.06922605295145
 20
-130.5615396809013
 10
85.06922605295145
 20
-130.2421793294186
 10
85.03115774783943
 20
-129.9331542643917
 10
84.77294784121996
 20
-129.9331542643917
 97
        0
 97
        0
 75
     2
 76
     1
 98
        0
  0
ENDBLK
  5
50
330
4D
100
AcDbEntity
  8
0
100
AcDbBlockEnd
  0
BLOCK
  5
8F
330
8D
100
AcDbEntity
  8
0
100
AcDbBlockBegin
  2
block 3
 70
     0
 10
0.0
 20
0.0
 30
0.0
  3
block 3
  1

  0
SPLINE
  5
91
330
8D
100
AcDbEntity
  8
_U+30EC_U+30A4_U+30E4_U+30FC 1
370
     0
100
AcDbSpline
210
0.0
220
0.0
230
1.0
 70
    11
 71
     3
 72
    26
 73
    22
 74
     0
 42
0.0000000001
 43
0.0000000001
 12
1.0
 22
0.0
 32
0.0
 13
1.0
 23
0.0
 33
0.0
 40
0.0
 40
0.0
 40
0.0
 40
0.0
 40
1.0
 40
1.0
 40
1.0
 40
2.0
 40
2.0
 40
2.0
 40
3.0
 40
3.0
 40
3.0
 40
4.0
 40
4.0
 40
4.0
 40
5.0
 40
5.0
 40
5.0
 40
6.0
 40
6.0
 40
6.0
 40
7.0
 40
7.0
 40
7.0
 40
7.0
 10
106.1254774040242
 20
-141.6165065835195
 30
0.0
 10
106.1254774040242
 20
-141.6165065835195
 30
0.0
 10
105.0209797914531
 20
-141.6165065835195
 30
0.0
 10
105.0209797914531
 20
-141.6165065835195
 30
0.0
 10
105.0209797914531
 20
-141.6165065835195
 30
0.0
 10
105.0209797914531
 20
-141.9465467310064
 30
0.0
 10
105.0209797914531
 20
-141.9465467310064
 30
0.0
 10
105.0209797914531
 20
-141.9465467310064
 30
0.0
 10
104.8728406855873
 20
-141.9465467310064
 30
0.0
 10
104.8728406855873
 20
-141.9465467310064
 30
0.0
 10
104.8583712845493
 20
-141.6144395262284
 30
0.0
 10
104.6950737585485
 20
-141.5679307371775
 30
0.0
 10
104.5810410979867
 20
-141.5383029160043
 30
0.0
 10
104.5810410979867
 20
-141.5383029160043
 30
0.0
 10
104.5810410979867
 20
-141.3922308674297
 30
0.0
 10
104.5810410979867
 20
-141.3922308674297
 30
0.0
 10
104.5810410979867
 20
-141.3922308674297
 30
0.0
 10
106.1254774040242
 20
-141.3922308674297
 30
0.0
 10
106.1254774040242
 20
-141.3922308674297
 30
0.0
 10
106.1254774040242
 20
-141.3922308674297
 30
0.0
 10
106.1254774040242
 20
-141.6165065835195
 30
0.0
 10
106.1254774040242
 20
-141.6165065835195
 30
0.0
  0
HATCH
  5
92
330
8D
100
AcDbEntity
  8
_U+30EC_U+30A4_U+30E4_U+30FC 1
 62
   179
420
  2234388
100
AcDbHatch
 10
0.0
 20
0.0
 30
0.0
210
0.0
220
0.0
230
1.0
  2
SOLID
 70
     1
 71
     0
 91
        1
 92
        1
 93
        1
 72
     4
 94
        3
 73
     0
 74
     1
 95
       26
 96
       22
 40
0.0
 40
0.0
 40
0.0
 40
0.0
 40
1.0
 40
1.0
 40
1.0
 40
2.0
 40
2.0
 40
2.0
 40
3.0
 40
3.0
 40
3.0
 40
4.0
 40
4.0
 40
4.0
 40
5.0
 40
5.0
 40
5.0
 40
6.0
 40
6.0
 40
6.0
 40
7.0
 40
7.0
 40
7.0
 40
7.0
 10
106.1254774040242
 20
-141.6165065835195
 10
106.1254774040242
 20
-141.6165065835195
 10
105.0209797914531
 20
-141.6165065835195
 10
105.0209797914531
 20
-141.6165065835195
 10
105.0209797914531
 20
-141.6165065835195
 10
105.0209797914531
 20
-141.9465467310064
 10
105.0209797914531
 20
-141.9465467310064
 10
105.0209797914531
 20
-141.9465467310064
 10
104.8728406855873
 20
-141.9465467310064
 10
104.8728406855873
 20
-141.9465467310064
 10
104.8583712845493
 20
-141.6144395262284
 10
104.6950737585485
 20
-141.5679307371775
 10
104.5810410979867
 20
-141.5383029160043
 10
104.5810410979867
 20
-141.5383029160043
 10
104.5810410979867
 20
-141.3922308674297
 10
104.5810410979867
 20
-141.3922308674297
 10
104.5810410979867
 20
-141.3922308674297
 10
106.1254774040242
 20
-141.3922308674297
 10
106.1254774040242
 20
-141.3922308674297
 10
106.1254774040242
 20
-141.3922308674297
 10
106.1254774040242
 20
-141.6165065835195
 10
106.1254774040242
 20
-141.6165065835195
 97
        0
 97
        0
 75
     2
 76
     1
 98
        0
  0
SPLINE
  5
93
330
8D
100
AcDbEntity
  8
_U+30EC_U+30A4_U+30E4_U+30FC 1
370
     0
100
AcDbSpline
210
0.0
220
0.0
230
1.0
 70
    11
 71
     3
 72
    29
 73
    25
 74
     0
 42
0.0000000001
 43
0.0000000001
 12
1.0
 22
0.0
 32
0.0
 13
1.0
 23
0.0
 33
0.0
 40
0.0
 40
0.0
 40
0.0
 40
0.0
 40
1.0
 40
1.0
 40
1.0
 40
2.0
 40
2.0
 40
2.0
 40
3.0
 40
3.0
 40
3.0
 40
4.0
 40
4.0
 40
4.0
 40
5.0
 40
5.0
 40
5.0
 40
6.0
 40
6.0
 40
6.0
 40
7.0
 40
7.0
 40
7.0
 40
8.0
 40
8.0
 40
8.0
 40
8.0
 10
105.9477104769853
 20
-139.9931775908698
 30
0.0
 10
106.1571722824885
 20
-140.1013535891066
 30
0.0
 10
106.1761203076574
 20
-140.2746418920147
 30
0.0
 10
106.1761203076574
 20
-140.3910861194161
 30
0.0
 10
106.1761203076574
 20
-140.5519720785773
 30
0.0
 10
106.1296115186065
 20
-140.6935655030211
 30
0.0
 10
105.9477104769853
 20
-140.7886501384139
 30
0.0
 10
105.7530625820687
 20
-140.89234751252
 30
0.0
 10
105.5160400126835
 20
-140.9112955376889
 30
0.0
 10
105.3530869962312
 20
-140.9112955376889
 30
0.0
 10
105.2090820049477
 20
-140.9112955376889
 30
0.0
 10
104.9575900345245
 20
-140.8944145698111
 30
0.0
 10
104.7584635154771
 20
-140.7886501384139
 30
0.0
 10
104.5555473913958
 20
-140.6808186497256
 30
0.0
 10
104.5324652516447
 20
-140.5199326905645
 30
0.0
 10
104.5324652516447
 20
-140.3910861194161
 30
0.0
 10
104.5324652516447
 20
-140.2322672175461
 30
0.0
 10
104.5765624738559
 20
-140.0886067358112
 30
0.0
 10
104.7584635154771
 20
-139.9931775908698
 30
0.0
 10
104.951388862651
 20
-139.8939588408946
 30
0.0
 10
105.1794541837746
 20
-139.8705321915949
 30
0.0
 10
105.3530869962312
 20
-139.8705321915949
 30
0.0
 10
105.5246527513966
 20
-139.8705321915949
 30
0.0
 10
105.7551296393598
 20
-139.8918917836034
 30
0.0
 10
105.9477104769853
 20
-139.9931775908698
 30
0.0
  0
SPLINE
  5
94
330
8D
100
AcDbEntity
  8
_U+30EC_U+30A4_U+30E4_U+30FC 1
370
     0
100
AcDbSpline
210
0.0
220
0.0
230
1.0
 70
    11
 71
     3
 72
    17
 73
    13
 74
     0
 42
0.0000000001
 43
0.0000000001
 12
1.0
 22
0.0
 32
0.0
 13
1.0
 23
0.0
 33
0.0
 40
0.0
 40
0.0
 40
0.0
 40
0.0
 40
1.0
 40
1.0
 40
1.0
 40
2.0
 40
2.0
 40
2.0
 40
3.0
 40
3.0
 40
3.0
 40
4.0
 40
4.0
 40
4.0
 40
4.0
 10
104.7247015797216
 20
-140.3910861194161
 30
0.0
 10
104.7247015797216
 20
-140.6405110325482
 30
0.0
 10
105.0082329381577
 20
-140.6873643311476
 30
0.0
 10
105.3530869962312
 20
-140.6873643311476
 30
0.0
 10
105.6727918572624
 20
-140.6873643311476
 30
0.0
 10
105.9814724127407
 20
-140.6511908285525
 30
0.0
 10
105.9814724127407
 20
-140.3910861194161
 30
0.0
 10
105.9814724127407
 20
-140.1433837540267
 30
0.0
 10
105.7000081115958
 20
-140.0948079076846
 30
0.0
 10
105.3530869962312
 20
-140.0948079076846
 30
0.0
 10
105.0337266447485
 20
-140.0948079076846
 30
0.0
 10
104.7247015797216
 20
-140.1330484675709
 30
0.0
 10
104.7247015797216
 20
-140.3910861194161
 30
0.0
  0
HATCH
  5
95
330
8D
100
AcDbEntity
  8
_U+30EC_U+30A4_U+30E4_U+30FC 1
 62
   179
420
  2234388
100
AcDbHatch
 10
0.0
 20
0.0
 30
0.0
210
0.0
220
0.0
230
1.0
  2
SOLID
 70
     1
 71
     0
 91
        2
 92
        1
 93
        1
 72
     4
 94
        3
 73
     0
 74
     1
 95
       29
 96
       25
 40
0.0
 40
0.0
 40
0.0
 40
0.0
 40
1.0
 40
1.0
 40
1.0
 40
2.0
 40
2.0
 40
2.0
 40
3.0
 40
3.0
 40
3.0
 40
4.0
 40
4.0
 40
4.0
 40
5.0
 40
5.0
 40
5.0
 40
6.0
 40
6.0
 40
6.0
 40
7.0
 40
7.0
 40
7.0
 40
8.0
 40
8.0
 40
8.0
 40
8.0
 10
105.9477104769853
 20
-139.9931775908698
 10
106.1571722824885
 20
-140.1013535891066
 10
106.1761203076574
 20
-140.2746418920147
 10
106.1761203076574
 20
-140.3910861194161
 10
106.1761203076574
 20
-140.5519720785773
 10
106.1296115186065
 20
-140.6935655030211
 10
105.9477104769853
 20
-140.7886501384139
 10
105.7530625820687
 20
-140.89234751252
 10
105.5160400126835
 20
-140.9112955376889
 10
105.3530869962312
 20
-140.9112955376889
 10
105.2090820049477
 20
-140.9112955376889
 10
104.9575900345245
 20
-140.8944145698111
 10
104.7584635154771
 20
-140.7886501384139
 10
104.5555473913958
 20
-140.6808186497256
 10
104.5324652516447
 20
-140.5199326905645
 10
104.5324652516447
 20
-140.3910861194161
 10
104.5324652516447
 20
-140.2322672175461
 10
104.5765624738559
 20
-140.0886067358112
 10
104.7584635154771
 20
-139.9931775908698
 10
104.951388862651
 20
-139.8939588408946
 10
105.1794541837746
 20
-139.8705321915949
 10
105.3530869962312
 20
-139.8705321915949
 10
105.5246527513966
 20
-139.8705321915949
 10
105.7551296393598
 20
-139.8918917836034
 10
105.9477104769853
 20
-139.9931775908698
 97
        0
 97
        0
 92
        1
 93
        1
 72
     4
 94
        3
 73
     0
 74
     1
 95
       17
 96
       13
 40
0.0
 40
0.0
 40
0.0
 40
0.0
 40
1.0
 40
1.0
 40
1.0
 40
2.0
 40
2.0
 40
2.0
 40
3.0
 40
3.0
 40
3.0
 40
4.0
 40
4.0
 40
4.0
 40
4.0
 10
104.7247015797216
 20
-140.3910861194161
 10
104.7247015797216
 20
-140.6405110325482
 10
105.0082329381577
 20
-140.6873643311476
 10
105.3530869962312
 20
-140.6873643311476
 10
105.6727918572624
 20
-140.6873643311476
 10
105.9814724127407
 20
-140.6511908285525
 10
105.9814724127407
 20
-140.3910861194161
 10
105.9814724127407
 20
-140.1433837540267
 10
105.7000081115958
 20
-140.0948079076846
 10
105.3530869962312
 20
-140.0948079076846
 10
105.0337266447485
 20
-140.0948079076846
 10
104.7247015797216
 20
-140.1330484675709
 10
104.7247015797216
 20
-140.3910861194161
 97
        0
 97
        0
 75
     2
 76
     1
 98
        0
  0
ENDBLK
  5
90
330
8D
100
AcDbEntity
  8
0
100
AcDbBlockEnd
  0
BLOCK
  5
A0
330
9E
100
AcDbEntity
  8
0
100
AcDbBlockBegin
  2
block 4
 70
     0
 10
0.0
 20
0.0
 30
0.0
  3
block 4
  1

  0
SPLINE
  5
A2
330
9E
100
AcDbEntity
  8
_U+30EC_U+30A4_U+30E4_U+30FC 1
370
     0
100
AcDbSpline
210
0.0
220
0.0
230
1.0
 70
    11
 71
     3
 72
    44
 73
    40
 74
     0
 42
0.0000000001
 43
0.0000000001
 12
1.0
 22
0.0
 32
0.0
 13
1.0
 23
0.0
 33
0.0
 40
0.0
 40
0.0
 40
0.0
 40
0.0
 40
1.0
 40
1.0
 40
1.0
 40
2.0
 40
2.0
 40
2.0
 40
3.0
 40
3.0
 40
3.0
 40
4.0
 40
4.0
 40
4.0
 40
5.0
 40
5.0
 40
5.0
 40
6.0
 40
6.0
 40
6.0
 40
7.0
 40
7.0
 40
7.0
 40
8.0
 40
8.0
 40
8.0
 40
9.0
 40
9.0
 40
9.0
 40
10.0
 40
10.0
 40
10.0
 40
11.0
 40
11.0
 40
11.0
 40
12.0
 40
12.0
 40
12.0
 40
13.0
 40
13.0
 40
13.0
 40
13.0
 10
101.5359211985744
 20
-147.6922769813061
 30
0.0
 10
101.3181911639066
 20
-147.8510958831761
 30
0.0
 10
101.2251735858048
 20
-147.9248209265605
 30
0.0
 10
101.1762532299143
 20
-148.0688259178439
 30
0.0
 10
101.1762532299143
 20
-148.0688259178439
 30
0.0
 10
101.9548448095807
 20
-148.0688259178439
 30
0.0
 10
101.9548448095807
 20
-148.0688259178439
 30
0.0
 10
101.9548448095807
 20
-148.0688259178439
 30
0.0
 10
101.9548448095807
 20
-148.2741536087648
 30
0.0
 10
101.9548448095807
 20
-148.2741536087648
 30
0.0
 10
101.9548448095807
 20
-148.2741536087648
 30
0.0
 10
100.9268283167822
 20
-148.2741536087648
 30
0.0
 10
100.9268283167822
 20
-148.2741536087648
 30
0.0
 10
100.9585231952465
 20
-147.9165526973959
 30
0.0
 10
101.0239800094662
 20
-147.8380045203322
 30
0.0
 10
101.4091416847172
 20
-147.5396592513095
 30
0.0
 10
101.6651122792712
 20
-147.3412217513591
 30
0.0
 10
101.730569093491
 20
-147.2733533702997
 30
0.0
 10
101.730569093491
 20
-147.1358940604383
 30
0.0
 10
101.730569093491
 20
-147.0173827757457
 30
0.0
 10
101.6585665978493
 20
-146.8864691473062
 30
0.0
 10
101.4618516456415
 20
-146.8864691473062
 30
0.0
 10
101.2017469365051
 20
-146.8864691473062
 30
0.0
 10
101.193134197792
 20
-147.1166015257209
 30
0.0
 10
101.1890000832097
 20
-147.2330457531223
 30
0.0
 10
101.1890000832097
 20
-147.2330457531223
 30
0.0
 10
100.9647243671199
 20
-147.2330457531223
 30
0.0
 10
100.9647243671199
 20
-147.2330457531223
 30
0.0
 10
100.9733371058331
 20
-147.1062662392651
 30
0.0
 10
100.9840169018373
 20
-146.993956126446
 30
0.0
 10
101.0642876266437
 20
-146.8754448417534
 30
0.0
 10
101.1741861726231
 20
-146.7149033921407
 30
0.0
 10
101.3605658383751
 20
-146.6811414563853
 30
0.0
 10
101.4766655562281
 20
-146.6811414563853
 30
0.0
 10
101.7539957427907
 20
-146.6811414563853
 30
0.0
 10
101.9613904910027
 20
-146.8651095552976
 30
0.0
 10
101.9613904910027
 20
-147.1379611177294
 30
0.0
 10
101.9613904910027
 20
-147.3663709484015
 30
0.0
 10
101.8449462636013
 20
-147.4659342079252
 30
0.0
 10
101.5359211985744
 20
-147.6922769813061
 30
0.0
  0
HATCH
  5
A3
330
9E
100
AcDbEntity
  8
_U+30EC_U+30A4_U+30E4_U+30FC 1
 62
   179
420
  2234388
100
AcDbHatch
 10
0.0
 20
0.0
 30
0.0
210
0.0
220
0.0
230
1.0
  2
SOLID
 70
     1
 71
     0
 91
        1
 92
        1
 93
        1
 72
     4
 94
        3
 73
     0
 74
     1
 95
       44
 96
       40
 40
0.0
 40
0.0
 40
0.0
 40
0.0
 40
1.0
 40
1.0
 40
1.0
 40
2.0
 40
2.0
 40
2.0
 40
3.0
 40
3.0
 40
3.0
 40
4.0
 40
4.0
 40
4.0
 40
5.0
 40
5.0
 40
5.0
 40
6.0
 40
6.0
 40
6.0
 40
7.0
 40
7.0
 40
7.0
 40
8.0
 40
8.0
 40
8.0
 40
9.0
 40
9.0
 40
9.0
 40
10.0
 40
10.0
 40
10.0
 40
11.0
 40
11.0
 40
11.0
 40
12.0
 40
12.0
 40
12.0
 40
13.0
 40
13.0
 40
13.0
 40
13.0
 10
101.5359211985744
 20
-147.6922769813061
 10
101.3181911639066
 20
-147.8510958831761
 10
101.2251735858048
 20
-147.9248209265605
 10
101.1762532299143
 20
-148.0688259178439
 10
101.1762532299143
 20
-148.0688259178439
 10
101.9548448095807
 20
-148.0688259178439
 10
101.9548448095807
 20
-148.0688259178439
 10
101.9548448095807
 20
-148.0688259178439
 10
101.9548448095807
 20
-148.2741536087648
 10
101.9548448095807
 20
-148.2741536087648
 10
101.9548448095807
 20
-148.2741536087648
 10
100.9268283167822
 20
-148.2741536087648
 10
100.9268283167822
 20
-148.2741536087648
 10
100.9585231952465
 20
-147.9165526973959
 10
101.0239800094662
 20
-147.8380045203322
 10
101.4091416847172
 20
-147.5396592513095
 10
101.6651122792712
 20
-147.3412217513591
 10
101.730569093491
 20
-147.2733533702997
 10
101.730569093491
 20
-147.1358940604383
 10
101.730569093491
 20
-147.0173827757457
 10
101.6585665978493
 20
-146.8864691473062
 10
101.4618516456415
 20
-146.8864691473062
 10
101.2017469365051
 20
-146.8864691473062
 10
101.193134197792
 20
-147.1166015257209
 10
101.1890000832097
 20
-147.2330457531223
 10
101.1890000832097
 20
-147.2330457531223
 10
100.9647243671199
 20
-147.2330457531223
 10
100.9647243671199
 20
-147.2330457531223
 10
100.9733371058331
 20
-147.1062662392651
 10
100.9840169018373
 20
-146.993956126446
 10
101.0642876266437
 20
-146.8754448417534
 10
101.1741861726231
 20
-146.7149033921407
 10
101.3605658383751
 20
-146.6811414563853
 10
101.4766655562281
 20
-146.6811414563853
 10
101.7539957427907
 20
-146.6811414563853
 10
101.9613904910027
 20
-146.8651095552976
 10
101.9613904910027
 20
-147.1379611177294
 10
101.9613904910027
 20
-147.3663709484015
 10
101.8449462636013
 20
-147.4659342079252
 10
101.5359211985744
 20
-147.6922769813061
 97
        0
 97
        0
 75
     2
 76
     1
 98
        0
  0
SPLINE
  5
A4
330
9E
100
AcDbEntity
  8
_U+30EC_U+30A4_U+30E4_U+30FC 1
370
     0
100
AcDbSpline
210
0.0
220
0.0
230
1.0
 70
    11
 71
     3
 72
    29
 73
    25
 74
     0
 42
0.0000000001
 43
0.0000000001
 12
1.0
 22
0.0
 32
0.0
 13
1.0
 23
0.0
 33
0.0
 40
0.0
 40
0.0
 40
0.0
 40
0.0
 40
1.0
 40
1.0
 40
1.0
 40
2.0
 40
2.0
 40
2.0
 40
3.0
 40
3.0
 40
3.0
 40
4.0
 40
4.0
 40
4.0
 40
5.0
 40
5.0
 40
5.0
 40
6.0
 40
6.0
 40
6.0
 40
7.0
 40
7.0
 40
7.0
 40
8.0
 40
8.0
 40
8.0
 40
8.0
 10
103.0176567667803
 20
-148.0963866817259
 30
0.0
 10
102.9094807685435
 20
-148.3058484872291
 30
0.0
 10
102.7361924656354
 20
-148.324796512398
 30
0.0
 10
102.619748238234
 20
-148.324796512398
 30
0.0
 10
102.4588622790728
 20
-148.324796512398
 30
0.0
 10
102.317268854629
 20
-148.2782877233471
 30
0.0
 10
102.2221842192361
 20
-148.0963866817259
 30
0.0
 10
102.1184868451301
 20
-147.9013942772608
 30
0.0
 10
102.0991943104127
 20
-147.6647162174241
 30
0.0
 10
102.0991943104127
 20
-147.5017632009718
 30
0.0
 10
102.0991943104127
 20
-147.3577582096883
 30
0.0
 10
102.116419787839
 20
-147.1062662392651
 30
0.0
 10
102.2221842192361
 20
-146.9071397202177
 30
0.0
 10
102.3300157079244
 20
-146.7042235961364
 30
0.0
 10
102.4909016670856
 20
-146.6811414563853
 30
0.0
 10
102.619748238234
 20
-146.6811414563853
 30
0.0
 10
102.778567140104
 20
-146.6811414563853
 30
0.0
 10
102.9222276218389
 20
-146.7252386785965
 30
0.0
 10
103.0176567667803
 20
-146.9071397202177
 30
0.0
 10
103.1168755167555
 20
-147.1000650673917
 30
0.0
 10
103.1403021660552
 20
-147.3281303885152
 30
0.0
 10
103.1403021660552
 20
-147.5017632009718
 30
0.0
 10
103.1403021660552
 20
-147.6733289561372
 30
0.0
 10
103.1189425740467
 20
-147.9038058441004
 30
0.0
 10
103.0176567667803
 20
-148.0963866817259
 30
0.0
  0
SPLINE
  5
A5
330
9E
100
AcDbEntity
  8
_U+30EC_U+30A4_U+30E4_U+30FC 1
370
     0
100
AcDbSpline
210
0.0
220
0.0
230
1.0
 70
    11
 71
     3
 72
    17
 73
    13
 74
     0
 42
0.0000000001
 43
0.0000000001
 12
1.0
 22
0.0
 32
0.0
 13
1.0
 23
0.0
 33
0.0
 40
0.0
 40
0.0
 40
0.0
 40
0.0
 40
1.0
 40
1.0
 40
1.0
 40
2.0
 40
2.0
 40
2.0
 40
3.0
 40
3.0
 40
3.0
 40
4.0
 40
4.0
 40
4.0
 40
4.0
 10
102.619748238234
 20
-146.8733777844622
 30
0.0
 10
102.3699788155533
 20
-146.8733777844622
 30
0.0
 10
102.3234700265025
 20
-147.1572536524468
 30
0.0
 10
102.3234700265025
 20
-147.5017632009718
 30
0.0
 10
102.3234700265025
 20
-147.821468062003
 30
0.0
 10
102.3596435290976
 20
-148.1301486174814
 30
0.0
 10
102.619748238234
 20
-148.1301486174814
 30
0.0
 10
102.8674506036234
 20
-148.1301486174814
 30
0.0
 10
102.9160264499654
 20
-147.8486843163365
 30
0.0
 10
102.9160264499654
 20
-147.5017632009718
 30
0.0
 10
102.9160264499654
 20
-147.1824028494891
 30
0.0
 10
102.8777858900792
 20
-146.8733777844622
 30
0.0
 10
102.619748238234
 20
-146.8733777844622
 30
0.0
  0
HATCH
  5
A6
330
9E
100
AcDbEntity
  8
_U+30EC_U+30A4_U+30E4_U+30FC 1
 62
   179
420
  2234388
100
AcDbHatch
 10
0.0
 20
0.0
 30
0.0
210
0.0
220
0.0
230
1.0
  2
SOLID
 70
     1
 71
     0
 91
        2
 92
        1
 93
        1
 72
     4
 94
        3
 73
     0
 74
     1
 95
       29
 96
       25
 40
0.0
 40
0.0
 40
0.0
 40
0.0
 40
1.0
 40
1.0
 40
1.0
 40
2.0
 40
2.0
 40
2.0
 40
3.0
 40
3.0
 40
3.0
 40
4.0
 40
4.0
 40
4.0
 40
5.0
 40
5.0
 40
5.0
 40
6.0
 40
6.0
 40
6.0
 40
7.0
 40
7.0
 40
7.0
 40
8.0
 40
8.0
 40
8.0
 40
8.0
 10
103.0176567667803
 20
-148.0963866817259
 10
102.9094807685435
 20
-148.3058484872291
 10
102.7361924656354
 20
-148.324796512398
 10
102.619748238234
 20
-148.324796512398
 10
102.4588622790728
 20
-148.324796512398
 10
102.317268854629
 20
-148.2782877233471
 10
102.2221842192361
 20
-148.0963866817259
 10
102.1184868451301
 20
-147.9013942772608
 10
102.0991943104127
 20
-147.6647162174241
 10
102.0991943104127
 20
-147.5017632009718
 10
102.0991943104127
 20
-147.3577582096883
 10
102.116419787839
 20
-147.1062662392651
 10
102.2221842192361
 20
-146.9071397202177
 10
102.3300157079244
 20
-146.7042235961364
 10
102.4909016670856
 20
-146.6811414563853
 10
102.619748238234
 20
-146.6811414563853
 10
102.778567140104
 20
-146.6811414563853
 10
102.9222276218389
 20
-146.7252386785965
 10
103.0176567667803
 20
-146.9071397202177
 10
103.1168755167555
 20
-147.1000650673917
 10
103.1403021660552
 20
-147.3281303885152
 10
103.1403021660552
 20
-147.5017632009718
 10
103.1403021660552
 20
-147.6733289561372
 10
103.1189425740467
 20
-147.9038058441004
 10
103.0176567667803
 20
-148.0963866817259
 97
        0
 97
        0
 92
        1
 93
        1
 72
     4
 94
        3
 73
     0
 74
     1
 95
       17
 96
       13
 40
0.0
 40
0.0
 40
0.0
 40
0.0
 40
1.0
 40
1.0
 40
1.0
 40
2.0
 40
2.0
 40
2.0
 40
3.0
 40
3.0
 40
3.0
 40
4.0
 40
4.0
 40
4.0
 40
4.0
 10
102.619748238234
 20
-146.8733777844622
 10
102.3699788155533
 20
-146.8733777844622
 10
102.3234700265025
 20
-147.1572536524468
 10
102.3234700265025
 20
-147.5017632009718
 10
102.3234700265025
 20
-147.821468062003
 10
102.3596435290976
 20
-148.1301486174814
 10
102.619748238234
 20
-148.1301486174814
 10
102.8674506036234
 20
-148.1301486174814
 10
102.9160264499654
 20
-147.8486843163365
 10
102.9160264499654
 20
-147.5017632009718
 10
102.9160264499654
 20
-147.1824028494891
 10
102.8777858900792
 20
-146.8733777844622
 10
102.619748238234
 20
-146.8733777844622
 97
        0
 97
        0
 75
     2
 76
     1
 98
        0
  0
ENDBLK
  5
A1
330
9E
100
AcDbEntity
  8
0
100
AcDbBlockEnd
  0
ENDSEC
  0
SECTION
  2
ENTITIES
  0
POLYLINE
  5
41
330
1F
100
AcDbEntity
  8
_U+30EC_U+30A4_U+30E4_U+30FC 1
 62
   179
420
  2234388
370
     9
100
AcDb2dPolyline
 66
     1
 10
0.0
 20
0.0
 30
0.0
  0
VERTEX
  5
42
330
41
100
AcDbEntity
  8
_U+30EC_U+30A4_U+30E4_U+30FC 1
 62
   179
420
  2234388
370
     9
100
AcDbVertex
100
AcDb2dVertex
 10
78.73523549129679
 20
-139.2555705207417
 30
0.0
  0
VERTEX
  5
43
330
41
100
AcDbEntity
  8
_U+30EC_U+30A4_U+30E4_U+30FC 1
 62
   179
420
  2234388
370
     9
100
AcDbVertex
100
AcDb2dVertex
 10
79.51452158252667
 20
-138.8049674652989
 30
0.0
  0
SEQEND
  5
44
330
41
100
AcDbEntity
  8
_U+30EC_U+30A4_U+30E4_U+30FC 1
 62
   179
420
  2234388
370
     9
  0
POLYLINE
  5
45
330
1F
100
AcDbEntity
  8
_U+30EC_U+30A4_U+30E4_U+30FC 1
 62
   179
420
  2234388
370
     9
100
AcDb2dPolyline
 66
     1
 10
0.0
 20
0.0
 30
0.0
  0
VERTEX
  5
46
330
45
100
AcDbEntity
  8
_U+30EC_U+30A4_U+30E4_U+30FC 1
 62
   179
420
  2234388
370
     9
100
AcDbVertex
100
AcDb2dVertex
 10
78.73523549129679
 20
-139.2555705207417
 30
0.0
  0
VERTEX
  5
47
330
45
100
AcDbEntity
  8
_U+30EC_U+30A4_U+30E4_U+30FC 1
 62
   179
420
  2234388
370
     9
100
AcDbVertex
100
AcDb2dVertex
 10
91.55514433090033
 20
-126.0897980240331
 30
0.0
  0
SEQEND
  5
48
330
45
100
AcDbEntity
  8
_U+30EC_U+30A4_U+30E4_U+30FC 1
 62
   179
420
  2234388
370
     9
  0
POLYLINE
  5
49
330
1F
100
AcDbEntity
  8
_U+30EC_U+30A4_U+30E4_U+30FC 1
 62
   179
420
  2234388
370
     9
100
AcDb2dPolyline
 66
     1
 10
0.0
 20
0.0
 30
0.0
  0
VERTEX
  5
4A
330
49
100
AcDbEntity
  8
_U+30EC_U+30A4_U+30E4_U+30FC 1
 62
   179
420
  2234388
370
     9
100
AcDbVertex
100
AcDb2dVertex
 10
78.73523549129679
 20
-139.2555705207417
 30
0.0
  0
VERTEX
  5
4B
330
49
100
AcDbEntity
  8
_U+30EC_U+30A4_U+30E4_U+30FC 1
 62
   179
420
  2234388
370
     9
100
AcDbVertex
100
AcDb2dVertex
 10
79.18516825759583
 20
-138.4756141320478
 30
0.0
  0
SEQEND
  5
4C
330
49
100
AcDbEntity
  8
_U+30EC_U+30A4_U+30E4_U+30FC 1
 62
   179
420
  2234388
370
     9
  0
INSERT
  5
4E
330
1F
100
AcDbEntity
  8
_U+30EC_U+30A4_U+30E4_U+30FC 1
100
AcDbBlockReference
  2
block 2
 10
0.0
 20
0.0
 30
0.0
  0
SPLINE
  5
59
330
1F
100
AcDbEntity
  8
_U+30EC_U+30A4_U+30E4_U+30FC 1
370
     0
100
AcDbSpline
210
0.0
220
0.0
230
1.0
 70
    11
 71
     3
 72
    86
 73
    82
 74
     0
 42
0.0000000001
 43
0.0000000001
 12
1.0
 22
0.0
 32
0.0
 13
1.0
 23
0.0
 33
0.0
 40
0.0
 40
0.0
 40
0.0
 40
0.0
 40
1.0
 40
1.0
 40
1.0
 40
2.0
 40
2.0
 40
2.0
 40
3.0
 40
3.0
 40
3.0
 40
4.0
 40
4.0
 40
4.0
 40
5.0
 40
5.0
 40
5.0
 40
6.0
 40
6.0
 40
6.0
 40
7.0
 40
7.0
 40
7.0
 40
8.0
 40
8.0
 40
8.0
 40
9.0
 40
9.0
 40
9.0
 40
10.0
 40
10.0
 40
10.0
 40
11.0
 40
11.0
 40
11.0
 40
12.0
 40
12.0
 40
12.0
 40
13.0
 40
13.0
 40
13.0
 40
14.0
 40
14.0
 40
14.0
 40
15.0
 40
15.0
 40
15.0
 40
16.0
 40
16.0
 40
16.0
 40
17.0
 40
17.0
 40
17.0
 40
18.0
 40
18.0
 40
18.0
 40
19.0
 40
19.0
 40
19.0
 40
20.0
 40
20.0
 40
20.0
 40
21.0
 40
21.0
 40
21.0
 40
22.0
 40
22.0
 40
22.0
 40
23.0
 40
23.0
 40
23.0
 40
24.0
 40
24.0
 40
24.0
 40
25.0
 40
25.0
 40
25.0
 40
26.0
 40
26.0
 40
26.0
 40
27.0
 40
27.0
 40
27.0
 40
27.0
 10
80.70616960768075
 20
-106.8186416399619
 30
0.0
 10
80.70616960768075
 20
-106.8186416399619
 30
0.0
 10
81.4999195874305
 20
-106.8716994177266
 30
0.0
 10
81.4999195874305
 20
-106.8716994177266
 30
0.0
 10
81.4999195874305
 20
-106.8716994177266
 30
0.0
 10
81.63221125072212
 20
-124.7576033021441
 30
0.0
 10
81.63221125072212
 20
-124.7576033021441
 30
0.0
 10
81.63221125072212
 20
-124.7576033021441
 30
0.0
 10
81.817243190446
 20
-125.8951705240817
 30
0.0
 10
80.52117497986964
 20
-125.9216994129641
 30
0.0
 10
80.52117497986964
 20
-125.9216994129641
 30
0.0
 10
72.18679998195323
 20
-125.8951705240817
 30
0.0
 10
72.18679998195323
 20
-125.8951705240817
 30
0.0
 10
72.18679998195323
 20
-125.8951705240817
 30
0.0
 10
72.27259371172808
 20
-129.4473958009715
 30
0.0
 10
72.96710730512068
 20
-131.0941624672263
 30
0.0
 10
72.96710730512068
 20
-131.0941624672263
 30
0.0
 10
74.6142267075436
 20
-135.6186080216512
 30
0.0
 10
76.22169388875592
 20
-137.4045455212047
 30
0.0
 10
76.22169388875592
 20
-137.4045455212047
 30
0.0
 10
78.66221049315982
 20
-140.7183635759312
 30
0.0
 10
81.24189997968966
 20
-141.9885752422809
 30
0.0
 10
81.24189997968966
 20
-141.9885752422809
 30
0.0
 10
84.97259338772409
 20
-144.3302082972508
 30
0.0
 10
88.3064138582268
 20
-144.8063171860205
 30
0.0
 10
88.3064138582268
 20
-144.8063171860205
 30
0.0
 10
91.16377497720919
 20
-145.0443716304057
 30
0.0
 10
91.60061738529578
 20
-144.9055535748848
 30
0.0
 10
91.60061738529578
 20
-144.9055535748848
 30
0.0
 10
91.58061488580609
 20
-136.6307627436203
 30
0.0
 10
91.58061488580609
 20
-136.6307627436203
 30
0.0
 10
91.58061488580609
 20
-136.6307627436203
 30
0.0
 10
91.69981849387607
 20
-135.5789910772164
 30
0.0
 10
92.61241930392701
 20
-135.6582249660853
 30
0.0
 10
92.61241930392701
 20
-135.6582249660853
 30
0.0
 10
110.5117635694989
 20
-135.6186080216512
 30
0.0
 10
110.5117635694989
 20
-135.6186080216512
 30
0.0
 10
110.5117635694989
 20
-135.6186080216512
 30
0.0
 10
110.4917963477861
 20
-136.4123580214527
 30
0.0
 10
110.4917963477861
 20
-136.4123580214527
 30
0.0
 10
110.4917963477861
 20
-136.4123580214527
 30
0.0
 10
92.39436736504554
 20
-136.5911457991855
 30
0.0
 10
92.39436736504554
 20
-136.5911457991855
 30
0.0
 10
92.39436736504554
 20
-136.5911457991855
 30
0.0
 10
92.39436736504554
 20
-144.6474966305049
 30
0.0
 10
92.39436736504554
 20
-144.6474966305049
 30
0.0
 10
92.39436736504554
 20
-144.6474966305049
 30
0.0
 10
92.59280485998298
 20
-145.5208332969531
 30
0.0
 10
91.34224294744301
 20
-145.7192707969035
 30
0.0
 10
91.34224294744301
 20
-145.7192707969035
 30
0.0
 10
84.91297394480067
 20
-145.4612491303012
 30
0.0
 10
81.34109903592679
 20
-143.0403821864623
 30
0.0
 10
81.34109903592679
 20
-143.0403821864623
 30
0.0
 10
77.43196858010145
 20
-140.4207249648947
 30
0.0
 10
76.4594308271352
 20
-138.9920455208078
 30
0.0
 10
76.4594308271352
 20
-138.9920455208078
 30
0.0
 10
72.94749286117663
 20
-134.2295455219985
 30
0.0
 10
72.53061537181206
 20
-132.5031921890963
 30
0.0
 10
72.53061537181206
 20
-132.5031921890963
 30
0.0
 10
71.32002498217012
 20
-129.0105510788582
 30
0.0
 10
71.35999290167713
 20
-127.0661458015668
 30
0.0
 10
71.35999290167713
 20
-127.0661458015668
 30
0.0
 10
71.08196874210346
 20
-125.2206241353616
 30
0.0
 10
72.09380593851155
 20
-124.9425999687642
 30
0.0
 10
72.09380593851155
 20
-124.9425999687642
 30
0.0
 10
80.54734905617704
 20
-124.9625671909814
 30
0.0
 10
80.54734905617704
 20
-124.9625671909814
 30
0.0
 10
80.54734905617704
 20
-124.9625671909814
 30
0.0
 10
80.6865551637367
 20
-124.9425999687642
 30
0.0
 10
80.6865551637367
 20
-124.9425999687642
 30
0.0
 10
80.6865551637367
 20
-124.9425999687642
 30
0.0
 10
80.6865551637367
 20
-121.668363580694
 30
0.0
 10
80.6865551637367
 20
-121.668363580694
 30
0.0
 10
80.6865551637367
 20
-121.668363580694
 30
0.0
 10
80.70616960768075
 20
-115.9732955265622
 30
0.0
 10
80.70616960768075
 20
-115.9732955265622
 30
0.0
 10
80.70616960768075
 20
-115.9732955265622
 30
0.0
 10
80.72581932940166
 20
-109.14718663938
 30
0.0
 10
80.72581932940166
 20
-109.14718663938
 30
0.0
 10
80.72581932940166
 20
-109.14718663938
 30
0.0
 10
80.70616960768075
 20
-106.8186416399619
 30
0.0
 10
80.70616960768075
 20
-106.8186416399619
 30
0.0
  0
POLYLINE
  5
5A
330
1F
100
AcDbEntity
  8
_U+30EC_U+30A4_U+30E4_U+30FC 1
 62
   179
420
  2234388
370
    25
100
AcDb2dPolyline
 66
     1
 10
0.0
 20
0.0
 30
0.0
  0
VERTEX
  5
5B
330
5A
100
AcDbEntity
  8
_U+30EC_U+30A4_U+30E4_U+30FC 1
 62
   179
420
  2234388
370
    25
100
AcDbVertex
100
AcDb2dVertex
 10
80.71961044067118
 20
-106.8448177510665
 30
0.0
  0
VERTEX
  5
5C
330
5A
100
AcDbEntity
  8
_U+30EC_U+30A4_U+30E4_U+30FC 1
 62
   179
420
  2234388
370
    25
100
AcDbVertex
100
AcDb2dVertex
 10
81.45892681069853
 20
-106.8448177510665
 30
0.0
  0
SEQEND
  5
5D
330
5A
100
AcDbEntity
  8
_U+30EC_U+30A4_U+30E4_U+30FC 1
 62
   179
420
  2234388
370
    25
  0
POLYLINE
  5
5E
330
1F
100
AcDbEntity
  8
_U+30EC_U+30A4_U+30E4_U+30FC 1
 62
   179
420
  2234388
370
    25
100
AcDb2dPolyline
 66
     1
 10
0.0
 20
0.0
 30
0.0
  0
VERTEX
  5
5F
330
5E
100
AcDbEntity
  8
_U+30EC_U+30A4_U+30E4_U+30FC 1
 62
   179
420
  2234388
370
    25
100
AcDbVertex
100
AcDb2dVertex
 10
81.5054581984003
 20
-106.8534255288422
 30
0.0
  0
VERTEX
  5
60
330
5E
100
AcDbEntity
  8
_U+30EC_U+30A4_U+30E4_U+30FC 1
 62
   179
420
  2234388
370
    25
100
AcDbVertex
100
AcDb2dVertex
 10
81.63739708392315
 20
-124.8533471910089
 30
0.0
  0
SEQEND
  5
61
330
5E
100
AcDbEntity
  8
_U+30EC_U+30A4_U+30E4_U+30FC 1
 62
   179
420
  2234388
370
    25
  0
SPLINE
  5
62
330
1F
100
AcDbEntity
  8
_U+30EC_U+30A4_U+30E4_U+30FC 1
 62
   179
420
  2234388
370
    25
100
AcDbSpline
210
0.0
220
0.0
230
1.0
 70
     8
 71
     3
 72
     8
 73
     4
 74
     0
 42
0.0000000001
 43
0.0000000001
 12
1.0
 22
0.0
 32
0.0
 13
1.0
 23
0.0
 33
0.0
 40
0.0
 40
0.0
 40
0.0
 40
0.0
 40
1.0
 40
1.0
 40
1.0
 40
1.0
 10
81.63739708392315
 20
-124.8533471910089
 30
0.0
 10
81.63739708392315
 20
-124.8533471910089
 30
0.0
 10
81.76658430284954
 20
-125.87037024631
 30
0.0
 10
80.605945443571
 20
-125.9151377462989
 30
0.0
  0
POLYLINE
  5
63
330
1F
100
AcDbEntity
  8
_U+30EC_U+30A4_U+30E4_U+30FC 1
 62
   179
420
  2234388
370
    25
100
AcDb2dPolyline
 66
     1
 10
0.0
 20
0.0
 30
0.0
  0
VERTEX
  5
64
330
63
100
AcDbEntity
  8
_U+30EC_U+30A4_U+30E4_U+30FC 1
 62
   179
420
  2234388
370
    25
100
AcDbVertex
100
AcDb2dVertex
 10
80.59800794377351
 20
-125.9199708018534
 30
0.0
  0
VERTEX
  5
65
330
63
100
AcDbEntity
  8
_U+30EC_U+30A4_U+30E4_U+30FC 1
 62
   179
420
  2234388
370
    25
100
AcDbVertex
100
AcDb2dVertex
 10
72.22814371286209
 20
-125.9347874685162
 30
0.0
  0
SEQEND
  5
66
330
63
100
AcDbEntity
  8
_U+30EC_U+30A4_U+30E4_U+30FC 1
 62
   179
420
  2234388
370
    25
  0
POLYLINE
  5
67
330
1F
100
AcDbEntity
  8
_U+30EC_U+30A4_U+30E4_U+30FC 1
 62
   179
420
  2234388
370
    25
100
AcDb2dPolyline
 66
     1
 10
0.0
 20
0.0
 30
0.0
  0
VERTEX
  5
68
330
67
100
AcDbEntity
  8
_U+30EC_U+30A4_U+30E4_U+30FC 1
 62
   179
420
  2234388
370
    25
100
AcDbVertex
100
AcDb2dVertex
 10
91.58304905241066
 20
-144.9382560748763
 30
0.0
  0
VERTEX
  5
69
330
67
100
AcDbEntity
  8
_U+30EC_U+30A4_U+30E4_U+30FC 1
 62
   179
420
  2234388
370
    25
100
AcDbVertex
100
AcDb2dVertex
 10
91.58304905241066
 20
-136.8385135769013
 30
0.0
  0
SEQEND
  5
6A
330
67
100
AcDbEntity
  8
_U+30EC_U+30A4_U+30E4_U+30FC 1
 62
   179
420
  2234388
370
    25
  0
SPLINE
  5
6B
330
1F
100
AcDbEntity
  8
_U+30EC_U+30A4_U+30E4_U+30FC 1
 62
   179
420
  2234388
370
    25
100
AcDbSpline
210
0.0
220
0.0
230
1.0
 70
     8
 71
     3
 72
    11
 73
     7
 74
     0
 42
0.0000000001
 43
0.0000000001
 12
1.0
 22
0.0
 32
0.0
 13
1.0
 23
0.0
 33
0.0
 40
0.0
 40
0.0
 40
0.0
 40
0.0
 40
1.0
 40
1.0
 40
1.0
 40
2.0
 40
2.0
 40
2.0
 40
2.0
 10
72.20334343571702
 20
-125.9499216351792
 30
0.0
 10
72.20334343571702
 20
-125.9499216351792
 30
0.0
 10
71.6707195604165
 20
-133.1315952444949
 30
0.0
 10
78.2983907802194
 20
-139.7592666317267
 30
0.0
 10
78.2983907802194
 20
-139.7592666317267
 30
0.0
 10
84.04380007808625
 20
-145.3685744081023
 30
0.0
 10
91.5578959974968
 20
-144.9451705193196
 30
0.0
  0
SPLINE
  5
6C
330
1F
100
AcDbEntity
  8
_U+30EC_U+30A4_U+30E4_U+30FC 1
 62
   179
420
  2234388
370
    25
100
AcDbSpline
210
0.0
220
0.0
230
1.0
 70
     8
 71
     3
 72
     8
 73
     4
 74
     0
 42
0.0000000001
 43
0.0000000001
 12
1.0
 22
0.0
 32
0.0
 13
1.0
 23
0.0
 33
0.0
 40
0.0
 40
0.0
 40
0.0
 40
0.0
 40
1.0
 40
1.0
 40
1.0
 40
1.0
 10
91.58269627464188
 20
-136.8722744102262
 30
0.0
 10
91.58269627464188
 20
-136.8722744102262
 30
0.0
 10
91.46557405540769
 20
-135.7519227438399
 30
0.0
 10
92.5604221990822
 20
-135.6430555216448
 30
0.0
  0
POLYLINE
  5
6D
330
1F
100
AcDbEntity
  8
_U+30EC_U+30A4_U+30E4_U+30FC 1
 62
   179
420
  2234388
370
    25
100
AcDb2dPolyline
 66
     1
 10
0.0
 20
0.0
 30
0.0
  0
VERTEX
  5
6E
330
6D
100
AcDbEntity
  8
_U+30EC_U+30A4_U+30E4_U+30FC 1
 62
   179
420
  2234388
370
    25
100
AcDbVertex
100
AcDb2dVertex
 10
92.50323458449031
 20
-135.6437610772003
 30
0.0
  0
VERTEX
  5
6F
330
6D
100
AcDbEntity
  8
_U+30EC_U+30A4_U+30E4_U+30FC 1
 62
   179
420
  2234388
370
    25
100
AcDbVertex
100
AcDb2dVertex
 10
110.5035085697095
 20
-135.6289444105369
 30
0.0
  0
SEQEND
  5
70
330
6D
100
AcDbEntity
  8
_U+30EC_U+30A4_U+30E4_U+30FC 1
 62
   179
420
  2234388
370
    25
  0
POLYLINE
  5
71
330
1F
100
AcDbEntity
  8
_U+30EC_U+30A4_U+30E4_U+30FC 1
 62
   179
420
  2234388
370
    25
100
AcDb2dPolyline
 66
     1
 10
0.0
 20
0.0
 30
0.0
  0
VERTEX
  5
72
330
71
100
AcDbEntity
  8
_U+30EC_U+30A4_U+30E4_U+30FC 1
 62
   179
420
  2234388
370
    25
100
AcDbVertex
100
AcDb2dVertex
 10
110.5262274580188
 20
-135.648558854977
 30
0.0
  0
VERTEX
  5
73
330
71
100
AcDbEntity
  8
_U+30EC_U+30A4_U+30E4_U+30FC 1
 62
   179
420
  2234388
370
    25
100
AcDbVertex
100
AcDb2dVertex
 10
110.5262274580188
 20
-136.3978588547896
 30
0.0
  0
SEQEND
  5
74
330
71
100
AcDbEntity
  8
_U+30EC_U+30A4_U+30E4_U+30FC 1
 62
   179
420
  2234388
370
    25
  0
POLYLINE
  5
75
330
1F
100
AcDbEntity
  8
_U+30EC_U+30A4_U+30E4_U+30FC 1
 62
   179
420
  2234388
370
    25
100
AcDb2dPolyline
 66
     1
 10
0.0
 20
0.0
 30
0.0
  0
VERTEX
  5
76
330
75
100
AcDbEntity
  8
_U+30EC_U+30A4_U+30E4_U+30FC 1
 62
   179
420
  2234388
370
    25
100
AcDbVertex
100
AcDb2dVertex
 10
110.4993810698148
 20
-136.4030446881215
 30
0.0
  0
VERTEX
  5
77
330
75
100
AcDbEntity
  8
_U+30EC_U+30A4_U+30E4_U+30FC 1
 62
   179
420
  2234388
370
    25
100
AcDbVertex
100
AcDb2dVertex
 10
92.40883125356542
 20
-136.571496076968
 30
0.0
  0
SEQEND
  5
78
330
75
100
AcDbEntity
  8
_U+30EC_U+30A4_U+30E4_U+30FC 1
 62
   179
420
  2234388
370
    25
  0
POLYLINE
  5
79
330
1F
100
AcDbEntity
  8
_U+30EC_U+30A4_U+30E4_U+30FC 1
 62
   179
420
  2234388
370
    25
100
AcDb2dPolyline
 66
     1
 10
0.0
 20
0.0
 30
0.0
  0
VERTEX
  5
7A
330
79
100
AcDbEntity
  8
_U+30EC_U+30A4_U+30E4_U+30FC 1
 62
   179
420
  2234388
370
    25
100
AcDbVertex
100
AcDb2dVertex
 10
92.39436736504554
 20
-136.6459321880609
 30
0.0
  0
VERTEX
  5
7B
330
79
100
AcDbEntity
  8
_U+30EC_U+30A4_U+30E4_U+30FC 1
 62
   179
420
  2234388
370
    25
100
AcDbVertex
100
AcDb2dVertex
 10
92.4191676421906
 20
-144.7456746860359
 30
0.0
  0
SEQEND
  5
7C
330
79
100
AcDbEntity
  8
_U+30EC_U+30A4_U+30E4_U+30FC 1
 62
   179
420
  2234388
370
    25
  0
SPLINE
  5
7D
330
1F
100
AcDbEntity
  8
_U+30EC_U+30A4_U+30E4_U+30FC 1
 62
   179
420
  2234388
370
    25
100
AcDbSpline
210
0.0
220
0.0
230
1.0
 70
     8
 71
     3
 72
     8
 73
     4
 74
     0
 42
0.0000000001
 43
0.0000000001
 12
1.0
 22
0.0
 32
0.0
 13
1.0
 23
0.0
 33
0.0
 40
0.0
 40
0.0
 40
0.0
 40
0.0
 40
1.0
 40
1.0
 40
1.0
 40
1.0
 10
92.42400069762286
 20
-144.6970971860483
 30
0.0
 10
92.42400069762286
 20
-144.6970971860483
 30
0.0
 10
92.51321819534672
 20
-145.6004199635998
 30
0.0
 10
91.25126386607606
 20
-145.6910132969109
 30
0.0
  0
SPLINE
  5
7E
330
1F
100
AcDbEntity
  8
_U+30EC_U+30A4_U+30E4_U+30FC 1
 62
   179
420
  2234388
370
    25
100
AcDbSpline
210
0.0
220
0.0
230
1.0
 70
     8
 71
     3
 72
    11
 73
     7
 74
     0
 42
0.0000000001
 43
0.0000000001
 12
1.0
 22
0.0
 32
0.0
 13
1.0
 23
0.0
 33
0.0
 40
0.0
 40
0.0
 40
0.0
 40
0.0
 40
1.0
 40
1.0
 40
1.0
 40
2.0
 40
2.0
 40
2.0
 40
2.0
 10
91.26297378279868
 20
-145.6993035746863
 30
0.0
 10
91.26297378279868
 20
-145.6993035746863
 30
0.0
 10
83.46468009286083
 20
-145.9969421857228
 30
0.0
 10
77.76922412705291
 20
-140.301874131591
 30
0.0
 10
77.76922412705291
 20
-140.301874131591
 30
0.0
 10
71.33999040218744
 20
-134.7456241329801
 30
0.0
 10
71.33999040218744
 20
-125.9747571907284
 30
0.0
  0
SPLINE
  5
7F
330
1F
100
AcDbEntity
  8
_U+30EC_U+30A4_U+30E4_U+30FC 1
 62
   179
420
  2234388
370
    25
100
AcDbSpline
210
0.0
220
0.0
230
1.0
 70
     8
 71
     3
 72
     8
 73
     4
 74
     0
 42
0.0000000001
 43
0.0000000001
 12
1.0
 22
0.0
 32
0.0
 13
1.0
 23
0.0
 33
0.0
 40
0.0
 40
0.0
 40
0.0
 40
0.0
 40
1.0
 40
1.0
 40
1.0
 40
1.0
 10
71.33999040218744
 20
-125.9995574685001
 30
0.0
 10
71.33999040218744
 20
-125.9995574685001
 30
0.0
 10
71.30037345875371
 20
-124.9543121909838
 30
0.0
 10
72.52476109298004
 20
-124.9205513576586
 30
0.0
  0
POLYLINE
  5
80
330
1F
100
AcDbEntity
  8
_U+30EC_U+30A4_U+30E4_U+30FC 1
 62
   179
420
  2234388
370
    25
100
AcDb2dPolyline
 66
     1
 10
0.0
 20
0.0
 30
0.0
  0
VERTEX
  5
81
330
80
100
AcDbEntity
  8
_U+30EC_U+30A4_U+30E4_U+30FC 1
 62
   179
420
  2234388
370
    25
100
AcDbVertex
100
AcDb2dVertex
 10
72.50098203923474
 20
-124.9129666354384
 30
0.0
  0
VERTEX
  5
82
330
80
100
AcDbEntity
  8
_U+30EC_U+30A4_U+30E4_U+30FC 1
 62
   179
420
  2234388
370
    25
100
AcDbVertex
100
AcDb2dVertex
 10
80.60075961036998
 20
-124.9129666354384
 30
0.0
  0
SEQEND
  5
83
330
80
100
AcDbEntity
  8
_U+30EC_U+30A4_U+30E4_U+30FC 1
 62
   179
420
  2234388
370
    25
  0
SPLINE
  5
84
330
1F
100
AcDbEntity
  8
_U+30EC_U+30A4_U+30E4_U+30FC 1
 62
   179
420
  2234388
370
     9
100
AcDbSpline
210
0.0
220
0.0
230
1.0
 70
    11
 71
     3
 72
    17
 73
    13
 74
     0
 42
0.0000000001
 43
0.0000000001
 12
1.0
 22
0.0
 32
0.0
 13
1.0
 23
0.0
 33
0.0
 40
0.0
 40
0.0
 40
0.0
 40
0.0
 40
1.0
 40
1.0
 40
1.0
 40
2.0
 40
2.0
 40
2.0
 40
3.0
 40
3.0
 40
3.0
 40
4.0
 40
4.0
 40
4.0
 40
4.0
 10
107.2313536531891
 20
-136.4629816325506
 30
0.0
 10
107.1810475433614
 20
-136.4629816325506
 30
0.0
 10
107.1410805287704
 20
-136.5036569103187
 30
0.0
 10
107.1410805287704
 20
-136.5532574658614
 30
0.0
 10
107.1410805287704
 20
-136.6028580214048
 30
0.0
 10
107.1810475433614
 20
-136.6428277436173
 30
0.0
 10
107.2313536531891
 20
-136.6428277436173
 30
0.0
 10
107.2809542074793
 20
-136.6428277436173
 30
0.0
 10
107.3209239286818
 20
-136.6028580214048
 30
0.0
 10
107.3209239286818
 20
-136.5532574658614
 30
0.0
 10
107.3209239286818
 20
-136.5036569103187
 30
0.0
 10
107.2809542074793
 20
-136.4629816325506
 30
0.0
 10
107.2313536531891
 20
-136.4629816325506
 30
0.0
  0
POLYLINE
  5
85
330
1F
100
AcDbEntity
  8
_U+30EC_U+30A4_U+30E4_U+30FC 1
 62
   179
420
  2234388
370
     9
100
AcDb2dPolyline
 66
     1
 10
0.0
 20
0.0
 30
0.0
  0
VERTEX
  5
86
330
85
100
AcDbEntity
  8
_U+30EC_U+30A4_U+30E4_U+30FC 1
 62
   179
420
  2234388
370
     9
100
AcDbVertex
100
AcDb2dVertex
 10
107.2313536531891
 20
-136.4788213547691
 30
0.0
  0
VERTEX
  5
87
330
85
100
AcDbEntity
  8
_U+30EC_U+30A4_U+30E4_U+30FC 1
 62
   179
420
  2234388
370
     9
100
AcDbVertex
100
AcDb2dVertex
 10
107.2313536531891
 20
-145.4788174636303
 30
0.0
  0
SEQEND
  5
88
330
85
100
AcDbEntity
  8
_U+30EC_U+30A4_U+30E4_U+30FC 1
 62
   179
420
  2234388
370
     9
  0
POLYLINE
  5
89
330
1F
100
AcDbEntity
  8
_U+30EC_U+30A4_U+30E4_U+30FC 1
 62
   179
420
  2234388
370
     9
100
AcDb2dPolyline
 66
     1
 10
0.0
 20
0.0
 30
0.0
  0
VERTEX
  5
8A
330
89
100
AcDbEntity
  8
_U+30EC_U+30A4_U+30E4_U+30FC 1
 62
   179
420
  2234388
370
     9
100
AcDbVertex
100
AcDb2dVertex
 10
92.41676875336292
 20
-145.4788174636303
 30
0.0
  0
VERTEX
  5
8B
330
89
100
AcDbEntity
  8
_U+30EC_U+30A4_U+30E4_U+30FC 1
 62
   179
420
  2234388
370
     9
100
AcDbVertex
100
AcDb2dVertex
 10
108.1312191857872
 20
-145.4788174636303
 30
0.0
  0
SEQEND
  5
8C
330
89
100
AcDbEntity
  8
_U+30EC_U+30A4_U+30E4_U+30FC 1
 62
   179
420
  2234388
370
     9
  0
INSERT
  5
8E
330
1F
100
AcDbEntity
  8
_U+30EC_U+30A4_U+30E4_U+30FC 1
100
AcDbBlockReference
  2
block 3
 10
0.0
 20
0.0
 30
0.0
  0
POLYLINE
  5
96
330
1F
100
AcDbEntity
  8
_U+30EC_U+30A4_U+30E4_U+30FC 1
 62
   179
420
  2234388
370
     9
100
AcDb2dPolyline
 66
     1
 10
0.0
 20
0.0
 30
0.0
  0
VERTEX
  5
97
330
96
100
AcDbEntity
  8
_U+30EC_U+30A4_U+30E4_U+30FC 1
 62
   179
420
  2234388
370
     9
100
AcDbVertex
100
AcDb2dVertex
 10
110.6530157881175
 20
-148.810203851686
 30
0.0
  0
VERTEX
  5
98
330
96
100
AcDbEntity
  8
_U+30EC_U+30A4_U+30E4_U+30FC 1
 62
   179
420
  2234388
370
     9
100
AcDbVertex
100
AcDb2dVertex
 10
92.65274180289829
 20
-148.810203851686
 30
0.0
  0
SEQEND
  5
99
330
96
100
AcDbEntity
  8
_U+30EC_U+30A4_U+30E4_U+30FC 1
 62
   179
420
  2234388
370
     9
  0
POLYLINE
  5
9A
330
1F
100
AcDbEntity
  8
_U+30EC_U+30A4_U+30E4_U+30FC 1
 62
   179
420
  2234388
370
     9
100
AcDb2dPolyline
 66
     1
 10
0.0
 20
0.0
 30
0.0
  0
VERTEX
  5
9B
330
9A
100
AcDbEntity
  8
_U+30EC_U+30A4_U+30E4_U+30FC 1
 62
   179
420
  2234388
370
     9
100
AcDbVertex
100
AcDb2dVertex
 10
92.65274180289829
 20
-150.2054752402265
 30
0.0
  0
VERTEX
  5
9C
330
9A
100
AcDbEntity
  8
_U+30EC_U+30A4_U+30E4_U+30FC 1
 62
   179
420
  2234388
370
     9
100
AcDbVertex
100
AcDb2dVertex
 10
92.65274180289829
 20
-147.9103382963558
 30
0.0
  0
SEQEND
  5
9D
330
9A
100
AcDbEntity
  8
_U+30EC_U+30A4_U+30E4_U+30FC 1
 62
   179
420
  2234388
370
     9
  0
INSERT
  5
9F
330
1F
100
AcDbEntity
  8
_U+30EC_U+30A4_U+30E4_U+30FC 1
100
AcDbBlockReference
  2
block 4
 10
0.0
 20
0.0
 30
0.0
  0
POLYLINE
  5
A7
330
1F
100
AcDbEntity
  8
_U+30EC_U+30A4_U+30E4_U+30FC 1
 62
   179
420
  2234388
370
     9
100
AcDb2dPolyline
 66
     1
 10
0.0
 20
0.0
 30
0.0
  0
VERTEX
  5
A8
330
A7
100
AcDbEntity
  8
_U+30EC_U+30A4_U+30E4_U+30FC 1
 62
   179
420
  2234388
370
     9
100
AcDbVertex
100
AcDb2dVertex
 10
110.6178791223472
 20
-150.2054752402265
 30
0.0
  0
VERTEX
  5
A9
330
A7
100
AcDbEntity
  8
_U+30EC_U+30A4_U+30E4_U+30FC 1
 62
   179
420
  2234388
370
     9
100
AcDbVertex
100
AcDb2dVertex
 10
110.6178791223472
 20
-136.7055163547122
 30
0.0
  0
SEQEND
  5
AA
330
A7
100
AcDbEntity
  8
_U+30EC_U+30A4_U+30E4_U+30FC 1
 62
   179
420
  2234388
370
     9
  0
POLYLINE
  5
AB
330
1F
100
AcDbEntity
  8
_U+30EC_U+30A4_U+30E4_U+30FC 1
 62
   179
420
  2234388
370
    25
100
AcDb2dPolyline
 66
     1
 10
0.0
 20
0.0
 30
0.0
  0
VERTEX
  5
AC
330
AB
100
AcDbEntity
  8
_U+30EC_U+30A4_U+30E4_U+30FC 1
 62
   179
420
  2234388
370
    25
100
AcDbVertex
100
AcDb2dVertex
 10
80.71170821865056
 20
-124.8915883021104
 30
0.0
  0
VERTEX
  5
AD
330
AB
100
AcDbEntity
  8
_U+30EC_U+30A4_U+30E4_U+30FC 1
 62
   179
420
  2234388
370
    25
100
AcDbVertex
100
AcDb2dVertex
 10
80.71170821865056
 20
-106.8916666399438
 30
0.0
  0
SEQEND
  5
AE
330
AB
100
AcDbEntity
  8
_U+30EC_U+30A4_U+30E4_U+30FC 1
 62
   179
420
  2234388
370
    25
  0
SPLINE
  5
AF
330
1F
100
AcDbEntity
  8
_U+30EC_U+30A4_U+30E4_U+30FC 1
 62
   179
420
  2234388
370
     9
100
AcDbSpline
210
0.0
220
0.0
230
1.0
 70
    11
 71
     3
 72
    17
 73
    13
 74
     0
 42
0.0000000001
 43
0.0000000001
 12
1.0
 22
0.0
 32
0.0
 13
1.0
 23
0.0
 33
0.0
 40
0.0
 40
0.0
 40
0.0
 40
0.0
 40
1.0
 40
1.0
 40
1.0
 40
2.0
 40
2.0
 40
2.0
 40
3.0
 40
3.0
 40
3.0
 40
4.0
 40
4.0
 40
4.0
 40
4.0
 10
92.65274180289829
 20
-148.9314888516559
 30
0.0
 10
92.70784569038136
 20
-148.9314888516559
 30
0.0
 10
92.75264846701613
 20
-148.8866860738892
 30
0.0
 10
92.75264846701613
 20
-148.8308766294587
 30
0.0
 10
92.75264846701613
 20
-148.7757727405838
 30
0.0
 10
92.70784569038136
 20
-148.7309699628171
 30
0.0
 10
92.65274180289829
 20
-148.7309699628171
 30
0.0
 10
92.59760263763835
 20
-148.7309699628171
 30
0.0
 10
92.55283513878047
 20
-148.7757727405838
 30
0.0
 10
92.55283513878047
 20
-148.8308766294587
 30
0.0
 10
92.55283513878047
 20
-148.8866860738892
 30
0.0
 10
92.59760263763835
 20
-148.9314888516559
 30
0.0
 10
92.65274180289829
 20
-148.9314888516559
 30
0.0
  0
SPLINE
  5
B0
330
1F
100
AcDbEntity
  8
_U+30EC_U+30A4_U+30E4_U+30FC 1
 62
   179
420
  2234388
370
     9
100
AcDbSpline
210
0.0
220
0.0
230
1.0
 70
    11
 71
     3
 72
    17
 73
    13
 74
     0
 42
0.0000000001
 43
0.0000000001
 12
1.0
 22
0.0
 32
0.0
 13
1.0
 23
0.0
 33
0.0
 40
0.0
 40
0.0
 40
0.0
 40
0.0
 40
1.0
 40
1.0
 40
1.0
 40
2.0
 40
2.0
 40
2.0
 40
3.0
 40
3.0
 40
3.0
 40
4.0
 40
4.0
 40
4.0
 40
4.0
 10
110.5937491229628
 20
-148.9314888516559
 30
0.0
 10
110.6488882882228
 20
-148.9314888516559
 30
0.0
 10
110.6936557870807
 20
-148.8866860738892
 30
0.0
 10
110.6936557870807
 20
-148.8308766294587
 30
0.0
 10
110.6936557870807
 20
-148.7757727405838
 30
0.0
 10
110.6488882882228
 20
-148.7309699628171
 30
0.0
 10
110.5937491229628
 20
-148.7309699628171
 30
0.0
 10
110.5386452354798
 20
-148.7309699628171
 30
0.0
 10
110.493842458845
 20
-148.7757727405838
 30
0.0
 10
110.493842458845
 20
-148.8308766294587
 30
0.0
 10
110.493842458845
 20
-148.8866860738892
 30
0.0
 10
110.5386452354798
 20
-148.9314888516559
 30
0.0
 10
110.5937491229628
 20
-148.9314888516559
 30
0.0
  0
SPLINE
  5
B1
330
1F
100
AcDbEntity
  8
_U+30EC_U+30A4_U+30E4_U+30FC 1
 62
   179
420
  2234388
370
     9
100
AcDbSpline
210
0.0
220
0.0
230
1.0
 70
    11
 71
     3
 72
    17
 73
    13
 74
     0
 42
0.0000000001
 43
0.0000000001
 12
1.0
 22
0.0
 32
0.0
 13
1.0
 23
0.0
 33
0.0
 40
0.0
 40
0.0
 40
0.0
 40
0.0
 40
1.0
 40
1.0
 40
1.0
 40
2.0
 40
2.0
 40
2.0
 40
3.0
 40
3.0
 40
3.0
 40
4.0
 40
4.0
 40
4.0
 40
4.0
 10
107.2106808759388
 20
-145.5511369080567
 30
0.0
 10
107.2657847634218
 20
-145.5511369080567
 30
0.0
 10
107.3105875400566
 20
-145.5063694080681
 30
0.0
 10
107.3105875400566
 20
-145.4505599636377
 30
0.0
 10
107.3105875400566
 20
-145.3954207969846
 30
0.0
 10
107.2657847634218
 20
-145.3506532969954
 30
0.0
 10
107.2106808759388
 20
-145.3506532969954
 30
0.0
 10
107.1555444176554
 20
-145.3506532969954
 30
0.0
 10
107.1107742118209
 20
-145.3954207969846
 30
0.0
 10
107.1107742118209
 20
-145.4505599636377
 30
0.0
 10
107.1107742118209
 20
-145.5063694080681
 30
0.0
 10
107.1555444176554
 20
-145.5511369080567
 30
0.0
 10
107.2106808759388
 20
-145.5511369080567
 30
0.0
  0
ENDSEC
  0
SECTION
  2
OBJECTS
  0
DICTIONARY
  5
C
330
0
100
AcDbDictionary
281
     1
  3
ACAD_GROUP
350
D
  3
ACAD_LAYOUT
350
1A
  3
ACAD_MATERIAL
350
3B
  3
ACAD_MLEADERSTYLE
350
B3
  3
ACAD_MLINESTYLE
350
17
  3
ACAD_PLOTSETTINGS
350
19
  3
ACAD_PLOTSTYLENAME
350
E
  3
ACAD_TABLESTYLE
350
B2
  3
ACAD_VISUALSTYLE
350
2A
  0
SUN
  5
3F
330
29
100
AcDbSun
 90
        1
290
     0
 63
     7
421
 16777215
 40
1.0
291
     1
 91
  2455826
 92
 54000000
292
     0
 70
     2
 71
   256
280
     1
  0
DICTIONARY
  5
D
102
{ACAD_REACTORS
330
C
102
}
330
C
100
AcDbDictionary
281
     1
  0
DICTIONARY
  5
1A
102
{ACAD_REACTORS
330
C
102
}
330
C
100
AcDbDictionary
281
     1
  3
Layout1
350
1E
  3
Layout2
350
26
  3
Model
350
22
  0
DICTIONARY
  5
3B
102
{ACAD_REACTORS
330
C
102
}
330
C
100
AcDbDictionary
281
     1
  3
ByBlock
350
3D
  3
ByLayer
350
3C
  3
Global
350
3E
  0
DICTIONARY
  5
B3
102
{ACAD_REACTORS
330
C
102
}
330
C
100
AcDbDictionary
281
     1
  0
DICTIONARY
  5
17
102
{ACAD_REACTORS
330
C
102
}
330
C
100
AcDbDictionary
281
     1
  3
Standard
350
18
  0
DICTIONARY
  5
19
102
{ACAD_REACTORS
330
C
102
}
330
C
100
AcDbDictionary
281
     1
  0
ACDBDICTIONARYWDFLT
  5
E
102
{ACAD_REACTORS
330
C
102
}
330
C
100
AcDbDictionary
281
     1
  3
Normal
350
F
100
AcDbDictionaryWithDefault
340
F
  0
DICTIONARY
  5
B2
102
{ACAD_REACTORS
330
C
102
}
330
C
100
AcDbDictionary
281
     1
  0
DICTIONARY
  5
2A
102
{ACAD_REACTORS
330
C
102
}
330
C
100
AcDbDictionary
281
     1
  3
2dWireframe
350
2F
  3
3D Hidden
350
31
  3
3dWireframe
350
30
  3
Basic
350
32
  3
Brighten
350
36
  3
ColorChange
350
3A
  3
Conceptual
350
34
  3
Dim
350
35
  3
Facepattern
350
39
  3
Flat
350
2B
  3
FlatWithEdges
350
2C
  3
Gouraud
350
2D
  3
GouraudWithEdges
350
2E
  3
Linepattern
350
38
  3
Realistic
350
33
  3
Thicken
350
37
  0
LAYOUT
  5
1E
102
{ACAD_REACTORS
330
1A
102
}
330
1A
100
AcDbPlotSettings
  1

  2
none_device
  4

  6

 40
0.0
 41
0.0
 42
0.0
 43
0.0
 44
0.0
 45
0.0
 46
0.0
 47
0.0
 48
0.0
 49
0.0
140
0.0
141
0.0
142
1.0
143
1.0
 70
   688
 72
     0
 73
     0
 74
     5
  7

 75
    16
 76
     0
 77
     2
 78
   300
147
1.0
148
0.0
149
0.0
100
AcDbLayout
  1
Layout1
 70
     1
 71
     1
 10
0.0
 20
0.0
 11
12.0
 21
9.0
 12
0.0
 22
0.0
 32
0.0
 14
1.000000000000000E+20
 24
1.000000000000000E+20
 34
1.000000000000000E+20
 15
-1.000000000000000E+20
 25
-1.000000000000000E+20
 35
-1.000000000000000E+20
146
0.0
 13
0.0
 23
0.0
 33
0.0
 16
1.0
 26
0.0
 36
0.0
 17
0.0
 27
1.0
 37
0.0
 76
     0
330
1B
  0
LAYOUT
  5
26
102
{ACAD_REACTORS
330
1A
102
}
330
1A
100
AcDbPlotSettings
  1

  2
none_device
  4

  6

 40
0.0
 41
0.0
 42
0.0
 43
0.0
 44
0.0
 45
0.0
 46
0.0
 47
0.0
 48
0.0
 49
0.0
140
0.0
141
0.0
142
1.0
143
1.0
 70
   688
 72
     0
 73
     0
 74
     5
  7

 75
    16
 76
     0
 77
     2
 78
   300
147
1.0
148
0.0
149
0.0
100
AcDbLayout
  1
Layout2
 70
     1
 71
     2
 10
0.0
 20
0.0
 11
0.0
 21
0.0
 12
0.0
 22
0.0
 32
0.0
 14
0.0
 24
0.0
 34
0.0
 15
0.0
 25
0.0
 35
0.0
146
0.0
 13
0.0
 23
0.0
 33
0.0
 16
1.0
 26
0.0
 36
0.0
 17
0.0
 27
1.0
 37
0.0
 76
     0
330
23
  0
LAYOUT
  5
22
102
{ACAD_REACTORS
330
1A
102
}
330
1A
100
AcDbPlotSettings
  1

  2
none_device
  4

  6

 40
0.0
 41
0.0
 42
0.0
 43
0.0
 44
0.0
 45
0.0
 46
0.0
 47
0.0
 48
0.0
 49
0.0
140
0.0
141
0.0
142
1.0
143
1.0
 70
  1712
 72
     0
 73
     0
 74
     0
  7

 75
     0
 76
     0
 77
     2
 78
   300
147
1.0
148
0.0
149
0.0
100
AcDbLayout
  1
Model
 70
     1
 71
     0
 10
0.0
 20
0.0
 11
12.0
 21
9.0
 12
0.0
 22
0.0
 32
0.0
 14
1.000000000000000E+20
 24
1.000000000000000E+20
 34
1.000000000000000E+20
 15
-1.000000000000000E+20
 25
-1.000000000000000E+20
 35
-1.000000000000000E+20
146
0.0
 13
0.0
 23
0.0
 33
0.0
 16
1.0
 26
0.0
 36
0.0
 17
0.0
 27
1.0
 37
0.0
 76
     0
330
1F
331
29
  0
MATERIAL
  5
3D
102
{ACAD_REACTORS
330
3B
102
}
330
3B
100
AcDbMaterial
  1
ByBlock
 72
     1
 94
      127
  0
MATERIAL
  5
3C
102
{ACAD_REACTORS
330
3B
102
}
330
3B
100
AcDbMaterial
  1
ByLayer
 72
     1
 94
      127
  0
MATERIAL
  5
3E
102
{ACAD_REACTORS
330
3B
102
}
330
3B
100
AcDbMaterial
  1
Global
 72
     1
 94
      127
  0
MLINESTYLE
  5
18
102
{ACAD_REACTORS
330
17
102
}
330
17
100
AcDbMlineStyle
  2
Standard
 70
     0
  3

 62
   256
 51
90.0
 52
90.0
 71
     2
 49
0.5
 62
   256
  6
BYLAYER
 49
-0.5
 62
   256
  6
BYLAYER
  0
ACDBPLACEHOLDER
  5
F
102
{ACAD_REACTORS
330
E
102
}
330
E
  0
VISUALSTYLE
  5
2F
102
{ACAD_REACTORS
330
2A
102
}
330
2A
100
AcDbVisualStyle
  2
2dWireframe
 70
     4
177
     2
291
     0
 71
     0
176
     1
 72
     2
176
     1
 73
     0
176
     1
 90
        0
176
     1
 40
-0.6
176
     1
 41
-30.0
176
     1
 62
     5
 63
     7
421
 16777215
176
     1
 74
     1
176
     1
 91
        4
176
     1
 64
     7
176
     1
 65
   257
176
     1
 75
     1
176
     1
175
     1
176
     1
 42
1.0
176
     1
 92
        0
176
     1
 66
   257
176
     1
 43
1.0
176
     1
 76
     1
176
     1
 77
     6
176
     1
 78
     2
176
     1
 67
     7
176
     1
 79
     5
176
     1
170
     0
176
     1
171
     0
176
     1
290
     0
176
     1
 93
        1
176
     1
 44
0.0
176
     1
173
     0
176
     1
  0
VISUALSTYLE
  5
31
102
{ACAD_REACTORS
330
2A
102
}
330
2A
100
AcDbVisualStyle
  2
3D Hidden
 70
     6
177
     2
291
     0
 71
     1
176
     1
 72
     2
176
     1
 73
     2
176
     1
 90
        0
176
     1
 40
-0.6
176
     1
 41
-30.0
176
     1
 62
     5
 63
     7
421
 16777215
176
     1
 74
     2
176
     1
 91
        2
176
     1
 64
     7
176
     1
 65
   257
176
     1
 75
     2
176
     1
175
     1
176
     1
 42
40.0
176
     1
 92
        0
176
     1
 66
   257
176
     1
 43
1.0
176
     1
 76
     1
176
     1
 77
     6
176
     1
 78
     2
176
     1
 67
     7
176
     1
 79
     3
176
     1
170
     0
176
     1
171
     0
176
     1
290
     0
176
     1
 93
        1
176
     1
 44
0.0
176
     1
173
     0
176
     1
  0
VISUALSTYLE
  5
30
102
{ACAD_REACTORS
330
2A
102
}
330
2A
100
AcDbVisualStyle
  2
3dWireframe
 70
     5
177
     2
291
     0
 71
     0
176
     1
 72
     2
176
     1
 73
     0
176
     1
 90
        0
176
     1
 40
-0.6
176
     1
 41
-30.0
176
     1
 62
     5
 63
     7
421
 16777215
176
     1
 74
     1
176
     1
 91
        4
176
     1
 64
     7
176
     1
 65
   257
176
     1
 75
     1
176
     1
175
     1
176
     1
 42
1.0
176
     1
 92
        0
176
     1
 66
   257
176
     1
 43
1.0
176
     1
 76
     1
176
     1
 77
     6
176
     1
 78
     2
176
     1
 67
     7
176
     1
 79
     5
176
     1
170
     0
176
     1
171
     0
176
     1
290
     0
176
     1
 93
        1
176
     1
 44
0.0
176
     1
173
     0
176
     1
  0
VISUALSTYLE
  5
32
102
{ACAD_REACTORS
330
2A
102
}
330
2A
100
AcDbVisualStyle
  2
Basic
 70
     7
177
     2
291
     1
 71
     1
176
     1
 72
     0
176
     1
 73
     1
176
     1
 90
        0
176
     1
 40
-0.6
176
     1
 41
-30.0
176
     1
 62
     5
 63
     7
421
 16777215
176
     1
 74
     0
176
     1
 91
        4
176
     1
 64
     7
176
     1
 65
   257
176
     1
 75
     1
176
     1
175
     1
176
     1
 42
1.0
176
     1
 92
        8
176
     1
 66
     7
176
     1
 43
1.0
176
     1
 76
     1
176
     1
 77
     6
176
     1
 78
     2
176
     1
 67
     7
176
     1
 79
     5
176
     1
170
     0
176
     1
171
     0
176
     1
290
     0
176
     1
 93
        1
176
     1
 44
0.0
176
     1
173
     0
176
     1
  0
VISUALSTYLE
  5
36
102
{ACAD_REACTORS
330
2A
102
}
330
2A
100
AcDbVisualStyle
  2
Brighten
 70
    12
177
     2
291
     1
 71
     2
176
     1
 72
     2
176
     1
 73
     0
176
     1
 90
        0
176
     1
 40
-0.6
176
     1
 41
-30.0
176
     1
 62
     5
 63
     7
421
 16777215
176
     1
 74
     1
176
     1
 91
        4
176
     1
 64
     7
176
     1
 65
   257
176
     1
 75
     1
176
     1
175
     1
176
     1
 42
1.0
176
     1
 92
        8
176
     1
 66
     7
176
     1
 43
1.0
176
     1
 76
     1
176
     1
 77
     6
176
     1
 78
     2
176
     1
 67
     7
176
     1
 79
     5
176
     1
170
     0
176
     1
171
     0
176
     1
290
     0
176
     1
 93
        1
176
     1
 44
50.0
176
     1
173
     0
176
     1
  0
VISUALSTYLE
  5
3A
102
{ACAD_REACTORS
330
2A
102
}
330
2A
100
AcDbVisualStyle
  2
ColorChange
 70
    16
177
     2
291
     1
 71
     2
176
     1
 72
     2
176
     1
 73
     3
176
     1
 90
        0
176
     1
 40
-0.6
176
     1
 41
-30.0
176
     1
 62
     5
 63
     8
421
  8421504
176
     1
 74
     1
176
     1
 91
        4
176
     1
 64
     7
176
     1
 65
   257
176
     1
 75
     1
176
     1
175
     1
176
     1
 42
1.0
176
     1
 92
        8
176
     1
 66
     8
424
  8421504
176
     1
 43
1.0
176
     1
 76
     1
176
     1
 77
     6
176
     1
 78
     2
176
     1
 67
     7
176
     1
 79
     5
176
     1
170
     0
176
     1
171
     0
176
     1
290
     0
176
     1
 93
        1
176
     1
 44
0.0
176
     1
173
     0
176
     1
  0
VISUALSTYLE
  5
34
102
{ACAD_REACTORS
330
2A
102
}
330
2A
100
AcDbVisualStyle
  2
Conceptual
 70
     9
177
     2
291
     0
 71
     3
176
     1
 72
     2
176
     1
 73
     0
176
     1
 90
        0
176
     1
 40
-0.6
176
     1
 41
-30.0
176
     1
 62
     5
 63
     7
421
 16777215
176
     1
 74
     2
176
     1
 91
        2
176
     1
 64
     7
176
     1
 65
   257
176
     1
 75
     1
176
     1
175
     1
176
     1
 42
40.0
176
     1
 92
        8
176
     1
 66
     7
176
     1
 43
1.0
176
     1
 76
     1
176
     1
 77
     6
176
     1
 78
     2
176
     1
 67
     7
176
     1
 79
     3
176
     1
170
     0
176
     1
171
     0
176
     1
290
     0
176
     1
 93
        1
176
     1
 44
0.0
176
     1
173
     0
176
     1
  0
VISUALSTYLE
  5
35
102
{ACAD_REACTORS
330
2A
102
}
330
2A
100
AcDbVisualStyle
  2
Dim
 70
    11
177
     2
291
     1
 71
     2
176
     1
 72
     2
176
     1
 73
     0
176
     1
 90
        0
176
     1
 40
-0.6
176
     1
 41
-30.0
176
     1
 62
     5
 63
     7
421
 16777215
176
     1
 74
     1
176
     1
 91
        4
176
     1
 64
     7
176
     1
 65
   257
176
     1
 75
     1
176
     1
175
     1
176
     1
 42
1.0
176
     1
 92
        8
176
     1
 66
     7
176
     1
 43
1.0
176
     1
 76
     1
176
     1
 77
     6
176
     1
 78
     2
176
     1
 67
     7
176
     1
 79
     5
176
     1
170
     0
176
     1
171
     0
176
     1
290
     0
176
     1
 93
        1
176
     1
 44
-50.0
176
     1
173
     0
176
     1
  0
VISUALSTYLE
  5
39
102
{ACAD_REACTORS
330
2A
102
}
330
2A
100
AcDbVisualStyle
  2
Facepattern
 70
    15
177
     2
291
     1
 71
     2
176
     1
 72
     2
176
     1
 73
     0
176
     1
 90
        0
176
     1
 40
-0.6
176
     1
 41
-30.0
176
     1
 62
     5
 63
     7
421
 16777215
176
     1
 74
     1
176
     1
 91
        4
176
     1
 64
     7
176
     1
 65
   257
176
     1
 75
     1
176
     1
175
     1
176
     1
 42
1.0
176
     1
 92
        8
176
     1
 66
     7
176
     1
 43
1.0
176
     1
 76
     1
176
     1
 77
     6
176
     1
 78
     2
176
     1
 67
     7
176
     1
 79
     5
176
     1
170
     0
176
     1
171
     0
176
     1
290
     0
176
     1
 93
        1
176
     1
 44
0.0
176
     1
173
     0
176
     1
  0
VISUALSTYLE
  5
2B
102
{ACAD_REACTORS
330
2A
102
}
330
2A
100
AcDbVisualStyle
  2
Flat
 70
     0
177
     2
291
     1
 71
     2
176
     1
 72
     1
176
     1
 73
     1
176
     1
 90
        2
176
     1
 40
-0.6
176
     1
 41
30.0
176
     1
 62
     5
 63
     7
421
 16777215
176
     1
 74
     0
176
     1
 91
        4
176
     1
 64
     7
176
     1
 65
   257
176
     1
 75
     1
176
     1
175
     1
176
     1
 42
1.0
176
     1
 92
        8
176
     1
 66
     7
176
     1
 43
1.0
176
     1
 76
     1
176
     1
 77
     6
176
     1
 78
     2
176
     1
 67
     7
176
     1
 79
     5
176
     1
170
     0
176
     1
171
     0
176
     1
290
     0
176
     1
 93
       13
176
     1
 44
0.0
176
     1
173
     0
176
     1
  0
VISUALSTYLE
  5
2C
102
{ACAD_REACTORS
330
2A
102
}
330
2A
100
AcDbVisualStyle
  2
FlatWithEdges
 70
     1
177
     2
291
     1
 71
     2
176
     1
 72
     1
176
     1
 73
     1
176
     1
 90
        2
176
     1
 40
-0.6
176
     1
 41
30.0
176
     1
 62
     5
 63
     7
421
 16777215
176
     1
 74
     1
176
     1
 91
        4
176
     1
 64
     7
176
     1
 65
   257
176
     1
 75
     1
176
     1
175
     1
176
     1
 42
1.0
176
     1
 92
        0
176
     1
 66
   257
176
     1
 43
1.0
176
     1
 76
     1
176
     1
 77
     6
176
     1
 78
     2
176
     1
 67
     7
176
     1
 79
     5
176
     1
170
     0
176
     1
171
     0
176
     1
290
     0
176
     1
 93
       13
176
     1
 44
0.0
176
     1
173
     0
176
     1
  0
VISUALSTYLE
  5
2D
102
{ACAD_REACTORS
330
2A
102
}
330
2A
100
AcDbVisualStyle
  2
Gouraud
 70
     2
177
     2
291
     1
 71
     2
176
     1
 72
     2
176
     1
 73
     1
176
     1
 90
        2
176
     1
 40
-0.6
176
     1
 41
30.0
176
     1
 62
     5
 63
     7
421
 16777215
176
     1
 74
     0
176
     1
 91
        4
176
     1
 64
     7
176
     1
 65
   257
176
     1
 75
     1
176
     1
175
     1
176
     1
 42
1.0
176
     1
 92
        0
176
     1
 66
     7
176
     1
 43
1.0
176
     1
 76
     1
176
     1
 77
     6
176
     1
 78
     2
176
     1
 67
     7
176
     1
 79
     5
176
     1
170
     0
176
     1
171
     0
176
     1
290
     0
176
     1
 93
       13
176
     1
 44
0.0
176
     1
173
     0
176
     1
  0
VISUALSTYLE
  5
2E
102
{ACAD_REACTORS
330
2A
102
}
330
2A
100
AcDbVisualStyle
  2
GouraudWithEdges
 70
     3
177
     2
291
     1
 71
     2
176
     1
 72
     2
176
     1
 73
     1
176
     1
 90
        2
176
     1
 40
-0.6
176
     1
 41
30.0
176
     1
 62
     5
 63
     7
421
 16777215
176
     1
 74
     1
176
     1
 91
        4
176
     1
 64
     7
176
     1
 65
   257
176
     1
 75
     1
176
     1
175
     1
176
     1
 42
1.0
176
     1
 92
        0
176
     1
 66
   257
176
     1
 43
1.0
176
     1
 76
     1
176
     1
 77
     6
176
     1
 78
     2
176
     1
 67
     7
176
     1
 79
     5
176
     1
170
     0
176
     1
171
     0
176
     1
290
     0
176
     1
 93
       13
176
     1
 44
0.0
176
     1
173
     0
176
     1
  0
VISUALSTYLE
  5
38
102
{ACAD_REACTORS
330
2A
102
}
330
2A
100
AcDbVisualStyle
  2
Linepattern
 70
    14
177
     2
291
     1
 71
     2
176
     1
 72
     2
176
     1
 73
     0
176
     1
 90
        0
176
     1
 40
-0.6
176
     1
 41
-30.0
176
     1
 62
     5
 63
     7
421
 16777215
176
     1
 74
     1
176
     1
 91
        4
176
     1
 64
     7
176
     1
 65
   257
176
     1
 75
     7
176
     1
175
     7
176
     1
 42
1.0
176
     1
 92
        8
176
     1
 66
     7
176
     1
 43
1.0
176
     1
 76
     1
176
     1
 77
     6
176
     1
 78
     2
176
     1
 67
     7
176
     1
 79
     5
176
     1
170
     0
176
     1
171
     0
176
     1
290
     0
176
     1
 93
        1
176
     1
 44
0.0
176
     1
173
     0
176
     1
  0
VISUALSTYLE
  5
33
102
{ACAD_REACTORS
330
2A
102
}
330
2A
100
AcDbVisualStyle
  2
Realistic
 70
     8
177
     2
291
     0
 71
     2
176
     1
 72
     2
176
     1
 73
     0
176
     1
 90
        0
176
     1
 40
-0.6
176
     1
 41
-30.0
176
     1
 62
     5
 63
     7
421
 16777215
176
     1
 74
     1
176
     1
 91
        0
176
     1
 64
     7
176
     1
 65
   257
176
     1
 75
     1
176
     1
175
     1
176
     1
 42
1.0
176
     1
 92
        8
176
     1
 66
     8
424
  7895160
176
     1
 43
1.0
176
     1
 76
     1
176
     1
 77
     6
176
     1
 78
     2
176
     1
 67
     7
176
     1
 79
     5
176
     1
170
     0
176
     1
171
     0
176
     1
290
     0
176
     1
 93
       13
176
     1
 44
0.0
176
     1
173
     0
176
     1
  0
VISUALSTYLE
  5
37
102
{ACAD_REACTORS
330
2A
102
}
330
2A
100
AcDbVisualStyle
  2
Thicken
 70
    13
177
     2
291
     1
 71
     2
176
     1
 72
     2
176
     1
 73
     0
176
     1
 90
        0
176
     1
 40
-0.6
176
     1
 41
-30.0
176
     1
 62
     5
 63
     7
421
 16777215
176
     1
 74
     1
176
     1
 91
        4
176
     1
 64
     7
176
     1
 65
   257
176
     1
 75
     1
176
     1
175
     1
176
     1
 42
1.0
176
     1
 92
       12
176
     1
 66
     7
176
     1
 43
1.0
176
     1
 76
     1
176
     1
 77
     6
176
     1
 78
     2
176
     1
 67
     7
176
     1
 79
     5
176
     1
170
     0
176
     1
171
     0
176
     1
290
     0
176
     1
 93
        1
176
     1
 44
0.0
176
     1
173
     0
176
     1
  0
ENDSEC
  0
EOF
