  0
SECTION
  2
HEADER
  9
$ACADVER
  1
AC1024
  9
$ACADMAINTVER
 70
     6
  9
$DWGCODEPAGE
  3
UNDEFINED
  9
$INSBASE
 10
0.0
 20
0.0
 30
0.0
  9
$EXTMIN
 10
1.000000000000000E+20
 20
1.000000000000000E+20
 30
1.000000000000000E+20
  9
$EXTMAX
 10
-1.000000000000000E+20
 20
-1.000000000000000E+20
 30
-1.000000000000000E+20
  9
$LIMMIN
 10
0.0
 20
0.0
  9
$LIMMAX
 10
12.0
 20
9.0
  9
$ORTHOMODE
 70
     0
  9
$REGENMODE
 70
     1
  9
$FILLMODE
 70
     1
  9
$QTEXTMODE
 70
     0
  9
$MIRRTEXT
 70
     1
  9
$LTSCALE
 40
1.0
  9
$ATTMODE
 70
     1
  9
$TEXTSIZE
 40
0.2
  9
$TRACEWID
 40
0.05
  9
$TEXTSTYLE
  7
Standard
  9
$CLAYER
  8
0
  9
$CELTYPE
  6
ByLayer
  9
$CECOLOR
 62
   256
  9
$CELTSCALE
 40
1.0
  9
$DISPSILH
 70
     0
  9
$DIMSCALE
 40
1.0
  9
$DIMASZ
 40
0.18
  9
$DIMEXO
 40
0.0625
  9
$DIMDLI
 40
0.38
  9
$DIMRND
 40
0.0
  9
$DIMDLE
 40
0.0
  9
$DIMEXE
 40
0.18
  9
$DIMTP
 40
0.0
  9
$DIMTM
 40
0.0
  9
$DIMTXT
 40
0.18
  9
$DIMCEN
 40
0.09
  9
$DIMTSZ
 40
0.0
  9
$DIMTOL
 70
     0
  9
$DIMLIM
 70
     0
  9
$DIMTIH
 70
     1
  9
$DIMTOH
 70
     1
  9
$DIMSE1
 70
     0
  9
$DIMSE2
 70
     0
  9
$DIMTAD
 70
     0
  9
$DIMZIN
 70
     0
  9
$DIMBLK
  1

  9
$DIMASO
 70
     1
  9
$DIMSHO
 70
     1
  9
$DIMPOST
  1

  9
$DIMAPOST
  1

  9
$DIMALT
 70
     0
  9
$DIMALTD
 70
     2
  9
$DIMALTF
 40
25.4
  9
$DIMLFAC
 40
1.0
  9
$DIMTOFL
 70
     0
  9
$DIMTVP
 40
0.0
  9
$DIMTIX
 70
     0
  9
$DIMSOXD
 70
     0
  9
$DIMSAH
 70
     0
  9
$DIMBLK1
  1

  9
$DIMBLK2
  1

  9
$DIMSTYLE
  2
Standard
  9
$DIMCLRD
 70
     0
  9
$DIMCLRE
 70
     0
  9
$DIMCLRT
 70
     0
  9
$DIMTFAC
 40
1.0
  9
$DIMGAP
 40
0.09
  9
$DIMJUST
 70
     0
  9
$DIMSD1
 70
     0
  9
$DIMSD2
 70
     0
  9
$DIMTOLJ
 70
     1
  9
$DIMTZIN
 70
     0
  9
$DIMALTZ
 70
     0
  9
$DIMALTTZ
 70
     0
  9
$DIMUPT
 70
     0
  9
$DIMDEC
 70
     4
  9
$DIMTDEC
 70
     4
  9
$DIMALTU
 70
     2
  9
$DIMALTTD
 70
     2
  9
$DIMTXSTY
  7
Standard
  9
$DIMAUNIT
 70
     0
  9
$DIMADEC
 70
     0
  9
$DIMALTRND
 40
0.0
  9
$DIMAZIN
 70
     0
  9
$DIMDSEP
 70
    46
  9
$DIMATFIT
 70
     3
  9
$DIMFRAC
 70
     0
  9
$DIMLDRBLK
  1

  9
$DIMLUNIT
 70
     2
  9
$DIMLWD
 70
    -2
  9
$DIMLWE
 70
    -2
  9
$DIMTMOVE
 70
     0
  9
$DIMFXL
 40
1.0
  9
$DIMFXLON
 70
     0
  9
$DIMJOGANG
 40
0.7853981633974483
  9
$DIMTFILL
 70
     0
  9
$DIMTFILLCLR
 70
     0
  9
$DIMARCSYM
 70
     0
  9
$DIMLTYPE
  6

  9
$DIMLTEX1
  6

  9
$DIMLTEX2
  6

  9
$DIMTXTDIRECTION
 70
     0
  9
$LUNITS
 70
     2
  9
$LUPREC
 70
     4
  9
$SKETCHINC
 40
0.1
  9
$FILLETRAD
 40
0.5
  9
$AUNITS
 70
     0
  9
$AUPREC
 70
     0
  9
$MENU
  1
.
  9
$ELEVATION
 40
0.0
  9
$PELEVATION
 40
0.0
  9
$THICKNESS
 40
0.0
  9
$LIMCHECK
 70
     0
  9
$CHAMFERA
 40
0.5
  9
$CHAMFERB
 40
0.5
  9
$CHAMFERC
 40
1.0
  9
$CHAMFERD
 40
0.0
  9
$SKPOLY
 70
     0
  9
$TDCREATE
 40
2457917.584745359
  9
$TDUCREATE
 40
2457917.20974537
  9
$TDUPDATE
 40
2457917.584745359
  9
$TDUUPDATE
 40
2457917.20974537
  9
$TDINDWG
 40
0.0000000116
  9
$TDUSRTIMER
 40
0.0000000116
  9
$USRTIMER
 70
     1
  9
$ANGBASE
 50
0.0
  9
$ANGDIR
 70
     0
  9
$PDMODE
 70
     0
  9
$PDSIZE
 40
0.0
  9
$PLINEWID
 40
0.0
  9
$SPLFRAME
 70
     0
  9
$SPLINETYPE
 70
     6
  9
$SPLINESEGS
 70
     8
  9
$HANDSEED
  5
252
  9
$SURFTAB1
 70
     6
  9
$SURFTAB2
 70
     6
  9
$SURFTYPE
 70
     6
  9
$SURFU
 70
     6
  9
$SURFV
 70
     6
  9
$UCSBASE
  2

  9
$UCSNAME
  2

  9
$UCSORG
 10
0.0
 20
0.0
 30
0.0
  9
$UCSXDIR
 10
1.0
 20
0.0
 30
0.0
  9
$UCSYDIR
 10
0.0
 20
1.0
 30
0.0
  9
$UCSORTHOREF
  2

  9
$UCSORTHOVIEW
 70
     0
  9
$UCSORGTOP
 10
0.0
 20
0.0
 30
0.0
  9
$UCSORGBOTTOM
 10
0.0
 20
0.0
 30
0.0
  9
$UCSORGLEFT
 10
0.0
 20
0.0
 30
0.0
  9
$UCSORGRIGHT
 10
0.0
 20
0.0
 30
0.0
  9
$UCSORGFRONT
 10
0.0
 20
0.0
 30
0.0
  9
$UCSORGBACK
 10
0.0
 20
0.0
 30
0.0
  9
$PUCSBASE
  2

  9
$PUCSNAME
  2

  9
$PUCSORG
 10
0.0
 20
0.0
 30
0.0
  9
$PUCSXDIR
 10
1.0
 20
0.0
 30
0.0
  9
$PUCSYDIR
 10
0.0
 20
1.0
 30
0.0
  9
$PUCSORTHOREF
  2

  9
$PUCSORTHOVIEW
 70
     0
  9
$PUCSORGTOP
 10
0.0
 20
0.0
 30
0.0
  9
$PUCSORGBOTTOM
 10
0.0
 20
0.0
 30
0.0
  9
$PUCSORGLEFT
 10
0.0
 20
0.0
 30
0.0
  9
$PUCSORGRIGHT
 10
0.0
 20
0.0
 30
0.0
  9
$PUCSORGFRONT
 10
0.0
 20
0.0
 30
0.0
  9
$PUCSORGBACK
 10
0.0
 20
0.0
 30
0.0
  9
$USERI1
 70
     0
  9
$USERI2
 70
     0
  9
$USERI3
 70
     0
  9
$USERI4
 70
     0
  9
$USERI5
 70
     0
  9
$USERR1
 40
0.0
  9
$USERR2
 40
0.0
  9
$USERR3
 40
0.0
  9
$USERR4
 40
0.0
  9
$USERR5
 40
0.0
  9
$WORLDVIEW
 70
     1
  9
$SHADEDGE
 70
     3
  9
$SHADEDIF
 70
    70
  9
$TILEMODE
 70
     1
  9
$MAXACTVP
 70
    64
  9
$PINSBASE
 10
0.0
 20
0.0
 30
0.0
  9
$PLIMCHECK
 70
     0
  9
$PEXTMIN
 10
1.000000000000000E+20
 20
1.000000000000000E+20
 30
1.000000000000000E+20
  9
$PEXTMAX
 10
-1.000000000000000E+20
 20
-1.000000000000000E+20
 30
-1.000000000000000E+20
  9
$PLIMMIN
 10
0.0
 20
0.0
  9
$PLIMMAX
 10
12.0
 20
9.0
  9
$UNITMODE
 70
     0
  9
$VISRETAIN
 70
     1
  9
$PLINEGEN
 70
     0
  9
$PSLTSCALE
 70
     1
  9
$TREEDEPTH
 70
  3020
  9
$CMLSTYLE
  2
Standard
  9
$CMLJUST
 70
     0
  9
$CMLSCALE
 40
1.0
  9
$PROXYGRAPHICS
 70
     1
  9
$MEASUREMENT
 70
     0
  9
$CELWEIGHT
370
    -1
  9
$ENDCAPS
280
     0
  9
$JOINSTYLE
280
     0
  9
$LWDISPLAY
290
     1
  9
$INSUNITS
 70
     1
  9
$HYPERLINKBASE
  1

  9
$STYLESHEET
  1

  9
$XEDIT
290
     1
  9
$CEPSNTYPE
380
     0
  9
$PSTYLEMODE
290
     1
  9
$FINGERPRINTGUID
  2
{ECA92BAE-52F4-C8C5-88A3-2C64EE73EAD6}
  9
$VERSIONGUID
  2
{FAEB1C32-E019-11D5-929B-00C0DF256EC4}
  9
$EXTNAMES
290
     1
  9
$PSVPSCALE
 40
0.0
  9
$OLESTARTUP
290
     0
  9
$SORTENTS
280
   127
  9
$INDEXCTL
280
     0
  9
$HIDETEXT
280
     1
  9
$XCLIPFRAME
280
     2
  9
$HALOGAP
280
     0
  9
$OBSCOLOR
 70
   257
  9
$OBSLTYPE
280
     0
  9
$INTERSECTIONDISPLAY
280
     0
  9
$INTERSECTIONCOLOR
 70
   257
  9
$DIMASSOC
280
     2
  9
$PROJECTNAME
  1

  9
$CAMERADISPLAY
290
     0
  9
$LENSLENGTH
 40
50.0
  9
$CAMERAHEIGHT
 40
0.0
  9
$STEPSPERSEC
 40
2.0
  9
$STEPSIZE
 40
6.0
  9
$3DDWFPREC
 40
2.0
  9
$PSOLWIDTH
 40
0.25
  9
$PSOLHEIGHT
 40
4.0
  9
$LOFTANG1
 40
1.570796326794897
  9
$LOFTANG2
 40
1.570796326794897
  9
$LOFTMAG1
 40
0.0
  9
$LOFTMAG2
 40
0.0
  9
$LOFTPARAM
 70
     7
  9
$LOFTNORMALS
280
     1
  9
$LATITUDE
 40
37.795
  9
$LONGITUDE
 40
-122.394
  9
$NORTHDIRECTION
 40
0.0
  9
$TIMEZONE
 70
 -8000
  9
$LIGHTGLYPHDISPLAY
280
     1
  9
$TILEMODELIGHTSYNCH
280
     1
  9
$CMATERIAL
347
3C
  9
$SOLIDHIST
280
     1
  9
$SHOWHIST
280
     1
  9
$DWFFRAME
280
     2
  9
$DGNFRAME
280
     2
  9
$REALWORLDSCALE
290
     1
  9
$INTERFERECOLOR
 62
   256
  9
$CSHADOW
280
     0
  9
$SHADOWPLANELOCATION
 40
0.0
  0
ENDSEC
  0
SECTION
  2
CLASSES
  0
CLASS
  1
ACDBDICTIONARYWDFLT
  2
AcDbDictionaryWithDefault
  3
ObjectDBX Classes
 90
        0
 91
        4
280
     0
281
     0
  0
CLASS
  1
VISUALSTYLE
  2
AcDbVisualStyle
  3
ObjectDBX Classes
 90
     4095
 91
        4
280
     0
281
     0
  0
CLASS
  1
MATERIAL
  2
AcDbMaterial
  3
ObjectDBX Classes
 90
     1153
 91
        4
280
     0
281
     0
  0
CLASS
  1
SUN
  2
AcDbSun
  3
SCENEOE
 90
     1024
 91
        4
280
     0
281
     0
  0
ENDSEC
  0
SECTION
  2
TABLES
  0
TABLE
  2
VPORT
  5
8
330
0
100
AcDbSymbolTable
 70
     1
  0
VPORT
  5
29
330
8
100
AcDbSymbolTableRecord
100
AcDbViewportTableRecord
  2
*Active
 70
     0
 10
0.0
 20
0.0
 11
1.0
 21
1.0
 12
0.0
 22
0.0
 13
0.0
 23
0.0
 14
0.5
 24
0.5
 15
0.5
 25
0.5
 16
0.0
 26
0.0
 36
1.0
 17
63.499999984125
 27
-89.00059456108309
 37
0.0
 40
178.0011891221662
 41
0.7134783795241226
 42
50.0
 43
0.0
 44
0.0
 50
0.0
 51
0.0
 71
     0
 72
   100
 73
     1
 74
     3
 75
     0
 76
     0
 77
     0
 78
     0
281
     0
 65
     1
110
0.0
120
0.0
130
0.0
111
1.0
121
0.0
131
0.0
112
0.0
122
1.0
132
0.0
 79
     0
146
0.0
 60
     3
 61
     5
292
     1
282
     1
141
0.0
142
0.0
 63
   250
361
3F
  0
ENDTAB
  0
TABLE
  2
LTYPE
  5
5
330
0
100
AcDbSymbolTable
 70
     1
  0
LTYPE
  5
14
330
5
100
AcDbSymbolTableRecord
100
AcDbLinetypeTableRecord
  2
ByBlock
 70
     0
  3

 72
    65
 73
     0
 40
0.0
  0
LTYPE
  5
15
330
5
100
AcDbSymbolTableRecord
100
AcDbLinetypeTableRecord
  2
ByLayer
 70
     0
  3

 72
    65
 73
     0
 40
0.0
  0
LTYPE
  5
16
330
5
100
AcDbSymbolTableRecord
100
AcDbLinetypeTableRecord
  2
Continuous
 70
     0
  3
Solid line
 72
    65
 73
     0
 40
0.0
  0
ENDTAB
  0
TABLE
  2
LAYER
  5
2
330
0
100
AcDbSymbolTable
 70
     2
  0
LAYER
  5
10
330
2
100
AcDbSymbolTableRecord
100
AcDbLayerTableRecord
  2
0
 70
     0
 62
     7
  6
Continuous
370
    -3
390
F
347
3E
  0
LAYER
  5
40
330
2
100
AcDbSymbolTableRecord
100
AcDbLayerTableRecord
  2
_U+30EC_U+30A4_U+30E4_U+30FC 1
 70
     0
 62
     7
  6
Continuous
370
    -3
390
F
347
3E
  0
ENDTAB
  0
TABLE
  2
STYLE
  5
3
330
0
100
AcDbSymbolTable
 70
     1
  0
STYLE
  5
11
330
3
100
AcDbSymbolTableRecord
100
AcDbTextStyleTableRecord
  2
Standard
 70
     0
 40
0.0
 41
1.0
 50
0.0
 71
     0
 42
0.2
  3
txt
  4

  0
ENDTAB
  0
TABLE
  2
VIEW
  5
6
330
0
100
AcDbSymbolTable
 70
     0
  0
ENDTAB
  0
TABLE
  2
UCS
  5
7
330
0
100
AcDbSymbolTable
 70
     0
  0
ENDTAB
  0
TABLE
  2
APPID
  5
9
330
0
100
AcDbSymbolTable
 70
     1
  0
APPID
  5
12
330
9
100
AcDbSymbolTableRecord
100
AcDbRegAppTableRecord
  2
ACAD
 70
     0
  0
ENDTAB
  0
TABLE
  2
DIMSTYLE
  5
A
330
0
100
AcDbSymbolTable
 70
     1
100
AcDbDimStyleTable
  0
DIMSTYLE
105
27
330
A
100
AcDbSymbolTableRecord
100
AcDbDimStyleTableRecord
  2
Standard
 70
     0
178
     0
340
11
  0
ENDTAB
  0
TABLE
  2
BLOCK_RECORD
  5
1
330
0
100
AcDbSymbolTable
 70
    38
  0
BLOCK_RECORD
  5
1F
330
1
100
AcDbSymbolTableRecord
100
AcDbBlockTableRecord
  2
*Model_Space
340
22
 70
     0
280
     1
281
     0
  0
BLOCK_RECORD
  5
1B
330
1
100
AcDbSymbolTableRecord
100
AcDbBlockTableRecord
  2
*Paper_Space
340
1E
 70
     0
280
     1
281
     0
  0
BLOCK_RECORD
  5
23
330
1
100
AcDbSymbolTableRecord
100
AcDbBlockTableRecord
  2
*Paper_Space0
340
26
 70
     0
280
     1
281
     0
  0
BLOCK_RECORD
  5
C7
330
1
100
AcDbSymbolTableRecord
100
AcDbBlockTableRecord
  2
block 2
340
0
102
{BLKREFS
331
C8
102
}
 70
     0
280
     1
281
     0
  0
BLOCK_RECORD
  5
10F
330
1
100
AcDbSymbolTableRecord
100
AcDbBlockTableRecord
  2
block 3
340
0
102
{BLKREFS
331
110
102
}
 70
     0
280
     1
281
     0
  0
BLOCK_RECORD
  5
117
330
1
100
AcDbSymbolTableRecord
100
AcDbBlockTableRecord
  2
block 4
340
0
102
{BLKREFS
331
118
102
}
 70
     0
280
     1
281
     0
  0
BLOCK_RECORD
  5
11C
330
1
100
AcDbSymbolTableRecord
100
AcDbBlockTableRecord
  2
block 5
340
0
102
{BLKREFS
331
11D
102
}
 70
     0
280
     1
281
     0
  0
BLOCK_RECORD
  5
121
330
1
100
AcDbSymbolTableRecord
100
AcDbBlockTableRecord
  2
block 6
340
0
102
{BLKREFS
331
122
102
}
 70
     0
280
     1
281
     0
  0
BLOCK_RECORD
  5
12E
330
1
100
AcDbSymbolTableRecord
100
AcDbBlockTableRecord
  2
block 7
340
0
102
{BLKREFS
331
12F
102
}
 70
     0
280
     1
281
     0
  0
BLOCK_RECORD
  5
137
330
1
100
AcDbSymbolTableRecord
100
AcDbBlockTableRecord
  2
block 8
340
0
102
{BLKREFS
331
138
102
}
 70
     0
280
     1
281
     0
  0
BLOCK_RECORD
  5
13C
330
1
100
AcDbSymbolTableRecord
100
AcDbBlockTableRecord
  2
block 9
340
0
102
{BLKREFS
331
13D
102
}
 70
     0
280
     1
281
     0
  0
BLOCK_RECORD
  5
141
330
1
100
AcDbSymbolTableRecord
100
AcDbBlockTableRecord
  2
block 10
340
0
102
{BLKREFS
331
142
102
}
 70
     0
280
     1
281
     0
  0
BLOCK_RECORD
  5
14E
330
1
100
AcDbSymbolTableRecord
100
AcDbBlockTableRecord
  2
block 11
340
0
102
{BLKREFS
331
14F
102
}
 70
     0
280
     1
281
     0
  0
BLOCK_RECORD
  5
156
330
1
100
AcDbSymbolTableRecord
100
AcDbBlockTableRecord
  2
block 12
340
0
102
{BLKREFS
331
157
102
}
 70
     0
280
     1
281
     0
  0
BLOCK_RECORD
  5
15B
330
1
100
AcDbSymbolTableRecord
100
AcDbBlockTableRecord
  2
block 13
340
0
102
{BLKREFS
331
15C
102
}
 70
     0
280
     1
281
     0
  0
BLOCK_RECORD
  5
160
330
1
100
AcDbSymbolTableRecord
100
AcDbBlockTableRecord
  2
block 14
340
0
102
{BLKREFS
331
161
102
}
 70
     0
280
     1
281
     0
  0
BLOCK_RECORD
  5
175
330
1
100
AcDbSymbolTableRecord
100
AcDbBlockTableRecord
  2
block 15
340
0
102
{BLKREFS
331
176
102
}
 70
     0
280
     1
281
     0
  0
BLOCK_RECORD
  5
185
330
1
100
AcDbSymbolTableRecord
100
AcDbBlockTableRecord
  2
block 16
340
0
102
{BLKREFS
331
186
102
}
 70
     0
280
     1
281
     0
  0
BLOCK_RECORD
  5
18A
330
1
100
AcDbSymbolTableRecord
100
AcDbBlockTableRecord
  2
block 17
340
0
102
{BLKREFS
331
18B
102
}
 70
     0
280
     1
281
     0
  0
BLOCK_RECORD
  5
18F
330
1
100
AcDbSymbolTableRecord
100
AcDbBlockTableRecord
  2
block 18
340
0
102
{BLKREFS
331
190
102
}
 70
     0
280
     1
281
     0
  0
BLOCK_RECORD
  5
1A0
330
1
100
AcDbSymbolTableRecord
100
AcDbBlockTableRecord
  2
block 19
340
0
102
{BLKREFS
331
1A1
102
}
 70
     0
280
     1
281
     0
  0
BLOCK_RECORD
  5
1A8
330
1
100
AcDbSymbolTableRecord
100
AcDbBlockTableRecord
  2
block 20
340
0
102
{BLKREFS
331
1A9
102
}
 70
     0
280
     1
281
     0
  0
BLOCK_RECORD
  5
1AD
330
1
100
AcDbSymbolTableRecord
100
AcDbBlockTableRecord
  2
block 21
340
0
102
{BLKREFS
331
1AE
102
}
 70
     0
280
     1
281
     0
  0
BLOCK_RECORD
  5
1B2
330
1
100
AcDbSymbolTableRecord
100
AcDbBlockTableRecord
  2
block 22
340
0
102
{BLKREFS
331
1B3
102
}
 70
     0
280
     1
281
     0
  0
BLOCK_RECORD
  5
1BF
330
1
100
AcDbSymbolTableRecord
100
AcDbBlockTableRecord
  2
block 23
340
0
102
{BLKREFS
331
1C0
102
}
 70
     0
280
     1
281
     0
  0
BLOCK_RECORD
  5
1C6
330
1
100
AcDbSymbolTableRecord
100
AcDbBlockTableRecord
  2
block 24
340
0
102
{BLKREFS
331
1C7
102
}
 70
     0
280
     1
281
     0
  0
BLOCK_RECORD
  5
1CB
330
1
100
AcDbSymbolTableRecord
100
AcDbBlockTableRecord
  2
block 25
340
0
102
{BLKREFS
331
1CC
102
}
 70
     0
280
     1
281
     0
  0
BLOCK_RECORD
  5
1D0
330
1
100
AcDbSymbolTableRecord
100
AcDbBlockTableRecord
  2
block 26
340
0
102
{BLKREFS
331
1D1
102
}
 70
     0
280
     1
281
     0
  0
BLOCK_RECORD
  5
1DD
330
1
100
AcDbSymbolTableRecord
100
AcDbBlockTableRecord
  2
block 27
340
0
102
{BLKREFS
331
1DE
102
}
 70
     0
280
     1
281
     0
  0
BLOCK_RECORD
  5
1E4
330
1
100
AcDbSymbolTableRecord
100
AcDbBlockTableRecord
  2
block 28
340
0
102
{BLKREFS
331
1E5
102
}
 70
     0
280
     1
281
     0
  0
BLOCK_RECORD
  5
1E9
330
1
100
AcDbSymbolTableRecord
100
AcDbBlockTableRecord
  2
block 29
340
0
102
{BLKREFS
331
1EA
102
}
 70
     0
280
     1
281
     0
  0
BLOCK_RECORD
  5
1EE
330
1
100
AcDbSymbolTableRecord
100
AcDbBlockTableRecord
  2
block 30
340
0
102
{BLKREFS
331
1EF
102
}
 70
     0
280
     1
281
     0
  0
BLOCK_RECORD
  5
1FF
330
1
100
AcDbSymbolTableRecord
100
AcDbBlockTableRecord
  2
block 31
340
0
102
{BLKREFS
331
200
102
}
 70
     0
280
     1
281
     0
  0
BLOCK_RECORD
  5
214
330
1
100
AcDbSymbolTableRecord
100
AcDbBlockTableRecord
  2
block 32
340
0
102
{BLKREFS
331
215
102
}
 70
     0
280
     1
281
     0
  0
BLOCK_RECORD
  5
21A
330
1
100
AcDbSymbolTableRecord
100
AcDbBlockTableRecord
  2
block 33
340
0
102
{BLKREFS
331
21B
102
}
 70
     0
280
     1
281
     0
  0
BLOCK_RECORD
  5
21F
330
1
100
AcDbSymbolTableRecord
100
AcDbBlockTableRecord
  2
block 34
340
0
102
{BLKREFS
331
220
102
}
 70
     0
280
     1
281
     0
  0
BLOCK_RECORD
  5
224
330
1
100
AcDbSymbolTableRecord
100
AcDbBlockTableRecord
  2
block 35
340
0
102
{BLKREFS
331
225
102
}
 70
     0
280
     1
281
     0
  0
BLOCK_RECORD
  5
229
330
1
100
AcDbSymbolTableRecord
100
AcDbBlockTableRecord
  2
block 36
340
0
102
{BLKREFS
331
22A
102
}
 70
     0
280
     1
281
     0
  0
BLOCK_RECORD
  5
22E
330
1
100
AcDbSymbolTableRecord
100
AcDbBlockTableRecord
  2
block 37
340
0
102
{BLKREFS
331
22F
102
}
 70
     0
280
     1
281
     0
  0
BLOCK_RECORD
  5
23B
330
1
100
AcDbSymbolTableRecord
100
AcDbBlockTableRecord
  2
block 38
340
0
102
{BLKREFS
331
23C
102
}
 70
     0
280
     1
281
     0
  0
ENDTAB
  0
ENDSEC
  0
SECTION
  2
BLOCKS
  0
BLOCK
  5
20
330
1F
100
AcDbEntity
  8
0
100
AcDbBlockBegin
  2
*Model_Space
 70
     0
 10
0.0
 20
0.0
 30
0.0
  3
*Model_Space
  1

  0
ENDBLK
  5
21
330
1F
100
AcDbEntity
  8
0
100
AcDbBlockEnd
  0
BLOCK
  5
1C
330
1B
100
AcDbEntity
 67
     1
  8
0
100
AcDbBlockBegin
  2
*Paper_Space
 70
     0
 10
0.0
 20
0.0
 30
0.0
  3
*Paper_Space
  1

  0
ENDBLK
  5
1D
330
1B
100
AcDbEntity
 67
     1
  8
0
100
AcDbBlockEnd
  0
BLOCK
  5
24
330
23
100
AcDbEntity
  8
0
100
AcDbBlockBegin
  2
*Paper_Space0
 70
     0
 10
0.0
 20
0.0
 30
0.0
  3
*Paper_Space0
  1

  0
ENDBLK
  5
25
330
23
100
AcDbEntity
  8
0
100
AcDbBlockEnd
  0
BLOCK
  5
C9
330
C7
100
AcDbEntity
  8
0
100
AcDbBlockBegin
  2
block 2
 70
     0
 10
0.0
 20
0.0
 30
0.0
  3
block 2
  1

  0
SPLINE
  5
CB
330
C7
100
AcDbEntity
  8
_U+30EC_U+30A4_U+30E4_U+30FC 1
370
     0
100
AcDbSpline
210
0.0
220
0.0
230
1.0
 70
    11
 71
     3
 72
   197
 73
   193
 74
     0
 42
0.0000000001
 43
0.0000000001
 12
1.0
 22
0.0
 32
0.0
 13
1.0
 23
0.0
 33
0.0
 40
0.0
 40
0.0
 40
0.0
 40
0.0
 40
1.0
 40
1.0
 40
1.0
 40
2.0
 40
2.0
 40
2.0
 40
3.0
 40
3.0
 40
3.0
 40
4.0
 40
4.0
 40
4.0
 40
5.0
 40
5.0
 40
5.0
 40
6.0
 40
6.0
 40
6.0
 40
7.0
 40
7.0
 40
7.0
 40
8.0
 40
8.0
 40
8.0
 40
9.0
 40
9.0
 40
9.0
 40
10.0
 40
10.0
 40
10.0
 40
11.0
 40
11.0
 40
11.0
 40
12.0
 40
12.0
 40
12.0
 40
13.0
 40
13.0
 40
13.0
 40
14.0
 40
14.0
 40
14.0
 40
15.0
 40
15.0
 40
15.0
 40
16.0
 40
16.0
 40
16.0
 40
17.0
 40
17.0
 40
17.0
 40
18.0
 40
18.0
 40
18.0
 40
19.0
 40
19.0
 40
19.0
 40
20.0
 40
20.0
 40
20.0
 40
21.0
 40
21.0
 40
21.0
 40
22.0
 40
22.0
 40
22.0
 40
23.0
 40
23.0
 40
23.0
 40
24.0
 40
24.0
 40
24.0
 40
25.0
 40
25.0
 40
25.0
 40
26.0
 40
26.0
 40
26.0
 40
27.0
 40
27.0
 40
27.0
 40
28.0
 40
28.0
 40
28.0
 40
29.0
 40
29.0
 40
29.0
 40
30.0
 40
30.0
 40
30.0
 40
31.0
 40
31.0
 40
31.0
 40
32.0
 40
32.0
 40
32.0
 40
33.0
 40
33.0
 40
33.0
 40
34.0
 40
34.0
 40
34.0
 40
35.0
 40
35.0
 40
35.0
 40
36.0
 40
36.0
 40
36.0
 40
37.0
 40
37.0
 40
37.0
 40
38.0
 40
38.0
 40
38.0
 40
39.0
 40
39.0
 40
39.0
 40
40.0
 40
40.0
 40
40.0
 40
41.0
 40
41.0
 40
41.0
 40
42.0
 40
42.0
 40
42.0
 40
43.0
 40
43.0
 40
43.0
 40
44.0
 40
44.0
 40
44.0
 40
45.0
 40
45.0
 40
45.0
 40
46.0
 40
46.0
 40
46.0
 40
47.0
 40
47.0
 40
47.0
 40
48.0
 40
48.0
 40
48.0
 40
49.0
 40
49.0
 40
49.0
 40
50.0
 40
50.0
 40
50.0
 40
51.0
 40
51.0
 40
51.0
 40
52.0
 40
52.0
 40
52.0
 40
53.0
 40
53.0
 40
53.0
 40
54.0
 40
54.0
 40
54.0
 40
55.0
 40
55.0
 40
55.0
 40
56.0
 40
56.0
 40
56.0
 40
57.0
 40
57.0
 40
57.0
 40
58.0
 40
58.0
 40
58.0
 40
59.0
 40
59.0
 40
59.0
 40
60.0
 40
60.0
 40
60.0
 40
61.0
 40
61.0
 40
61.0
 40
62.0
 40
62.0
 40
62.0
 40
63.0
 40
63.0
 40
63.0
 40
64.0
 40
64.0
 40
64.0
 40
64.0
 10
63.04335257755514
 20
-88.09832625835736
 30
0.0
 10
63.03267278155086
 20
-88.12795407953051
 30
0.0
 10
63.00941838702543
 20
-88.17446286858139
 30
0.0
 10
62.99891084579541
 20
-88.20202363246338
 30
0.0
 10
62.99891084579541
 20
-88.20202363246338
 30
0.0
 10
62.93758814615796
 20
-88.35429685291143
 30
0.0
 10
62.93758814615796
 20
-88.35429685291143
 30
0.0
 10
62.9269083501537
 20
-88.37961830472801
 30
0.0
 10
62.87833250381167
 20
-88.4917561627729
 30
0.0
 10
62.86558565051624
 20
-88.51501055729834
 30
0.0
 10
62.86351859322509
 20
-88.52138398394605
 30
0.0
 10
62.85921222386853
 20
-88.52982446788491
 30
0.0
 10
62.85714516657738
 20
-88.53619789453262
 30
0.0
 10
62.85714516657738
 20
-88.53619789453262
 30
0.0
 10
62.64768336107419
 20
-88.48331567883403
 30
0.0
 10
62.64768336107419
 20
-88.48331567883403
 30
0.0
 10
62.72605928336363
 20
-88.3732448780803
 30
0.0
 10
62.78738198300108
 20
-88.23785262550999
 30
0.0
 10
62.81907686146537
 20
-88.12795407953051
 30
0.0
 10
62.81907686146537
 20
-88.12795407953051
 30
0.0
 10
62.35364446140812
 20
-88.12795407953051
 30
0.0
 10
62.35364446140812
 20
-88.12795407953051
 30
0.0
 10
62.27320148182753
 20
-88.29297415327399
 30
0.0
 10
62.20550535554238
 20
-88.37117782078916
 30
0.0
 10
62.17174341978693
 20
-88.41131318319232
 30
0.0
 10
62.17174341978693
 20
-88.41131318319232
 30
0.0
 10
62.04909802051203
 20
-88.34585636897256
 30
0.0
 10
62.04909802051203
 20
-88.34585636897256
 30
0.0
 10
62.04909802051203
 20
-88.34585636897256
 30
0.0
 10
62.04909802051203
 20
-88.51707761458948
 30
0.0
 10
62.04909802051203
 20
-88.51707761458948
 30
0.0
 10
62.04909802051203
 20
-88.62508135805207
 30
0.0
 10
62.05116507780318
 20
-88.67365720439409
 30
0.0
 10
62.0616726190332
 20
-88.77942163579127
 30
0.0
 10
61.98984237816574
 20
-88.77735457850011
 30
0.0
 10
61.96865504093145
 20
-88.77735457850011
 30
0.0
 10
61.76349960478482
 20
-88.77735457850011
 30
0.0
 10
61.76349960478482
 20
-88.77735457850011
 30
0.0
 10
61.70837807702083
 20
-88.77735457850011
 30
0.0
 10
61.70837807702083
 20
-88.77735457850011
 30
0.0
 10
61.70837807702083
 20
-88.77735457850011
 30
0.0
 10
61.70837807702083
 20
-88.91274683107042
 30
0.0
 10
61.70837807702083
 20
-88.91274683107042
 30
0.0
 10
61.70837807702083
 20
-88.91274683107042
 30
0.0
 10
61.78038057266254
 20
-88.91274683107042
 30
0.0
 10
61.78038057266254
 20
-88.91274683107042
 30
0.0
 10
61.84600964165656
 20
-88.91274683107042
 30
0.0
 10
61.99190943545689
 20
-88.90844046171387
 30
0.0
 10
62.09767386685406
 20
-88.89999997777501
 30
0.0
 10
62.09767386685406
 20
-88.89999997777501
 30
0.0
 10
62.09767386685406
 20
-89.0777669048139
 30
0.0
 10
62.09767386685406
 20
-89.0777669048139
 30
0.0
 10
62.00034991939575
 20
-89.07139347816619
 30
0.0
 10
61.84170327229999
 20
-89.06725936358389
 30
0.0
 10
61.78038057266254
 20
-89.06725936358389
 30
0.0
 10
61.78038057266254
 20
-89.06725936358389
 30
0.0
 10
61.70837807702083
 20
-89.06725936358389
 30
0.0
 10
61.70837807702083
 20
-89.06725936358389
 30
0.0
 10
61.71061738908624
 20
-89.15597057232907
 30
0.0
 10
61.71475150366854
 20
-89.3950601990054
 30
0.0
 10
61.71681856095969
 20
-89.46912975193828
 30
0.0
 10
61.71681856095969
 20
-89.46912975193828
 30
0.0
 10
61.51596949416962
 20
-89.46912975193828
 30
0.0
 10
61.51596949416962
 20
-89.46912975193828
 30
0.0
 10
61.52854409269079
 20
-89.25553383185279
 30
0.0
 10
61.52854409269079
 20
-89.22590601067964
 30
0.0
 10
61.53285046204734
 20
-89.06725936358389
 30
0.0
 10
61.53285046204734
 20
-89.06725936358389
 30
0.0
 10
61.46308727847104
 20
-89.06725936358389
 30
0.0
 10
61.46308727847104
 20
-89.06725936358389
 30
0.0
 10
61.40589869341589
 20
-89.06725936358389
 30
0.0
 10
61.25362547296785
 20
-89.07139347816619
 30
0.0
 10
61.14355467221412
 20
-89.0777669048139
 30
0.0
 10
61.14355467221412
 20
-89.0777669048139
 30
0.0
 10
61.14355467221412
 20
-88.89999997777501
 30
0.0
 10
61.14355467221412
 20
-88.89999997777501
 30
0.0
 10
61.24931910361128
 20
-88.90844046171387
 30
0.0
 10
61.39315184012047
 20
-88.91274683107042
 30
0.0
 10
61.46308727847104
 20
-88.91274683107042
 30
0.0
 10
61.46308727847104
 20
-88.91274683107042
 30
0.0
 10
61.53698457662964
 20
-88.91274683107042
 30
0.0
 10
61.53698457662964
 20
-88.91274683107042
 30
0.0
 10
61.53698457662964
 20
-88.91274683107042
 30
0.0
 10
61.53698457662964
 20
-88.77735457850011
 30
0.0
 10
61.53698457662964
 20
-88.77735457850011
 30
0.0
 10
61.53698457662964
 20
-88.77735457850011
 30
0.0
 10
61.49271509964419
 20
-88.77735457850011
 30
0.0
 10
61.49271509964419
 20
-88.77735457850011
 30
0.0
 10
61.4164062346459
 20
-88.77735457850011
 30
0.0
 10
61.2239976517947
 20
-88.77942163579127
 30
0.0
 10
61.19006346126498
 20
-88.77942163579127
 30
0.0
 10
61.1964368879127
 20
-88.7075913949238
 30
0.0
 10
61.20487737185156
 20
-88.62714841534321
 30
0.0
 10
61.20487737185156
 20
-88.50657007335947
 30
0.0
 10
61.20487737185156
 20
-88.50657007335947
 30
0.0
 10
61.20487737185156
 20
-88.33310951567714
 30
0.0
 10
61.20487737185156
 20
-88.33310951567714
 30
0.0
 10
61.20487737185156
 20
-88.26110702003542
 30
0.0
 10
61.1964368879127
 20
-88.14052867805168
 30
0.0
 10
61.19006346126498
 20
-88.06025795324535
 30
0.0
 10
61.26843938355442
 20
-88.06439206782765
 30
0.0
 10
61.30650768866643
 20
-88.06663137989307
 30
0.0
 10
61.43345945729789
 20
-88.06663137989307
 30
0.0
 10
61.43345945729789
 20
-88.06663137989307
 30
0.0
 10
61.53698457662964
 20
-88.06663137989307
 30
0.0
 10
61.53698457662964
 20
-88.06663137989307
 30
0.0
 10
61.53698457662964
 20
-88.06663137989307
 30
0.0
 10
61.53698457662964
 20
-87.92055933131847
 30
0.0
 10
61.53698457662964
 20
-87.92055933131847
 30
0.0
 10
61.53698457662964
 20
-87.92055933131847
 30
0.0
 10
61.45878090911447
 20
-87.92055933131847
 30
0.0
 10
61.45878090911447
 20
-87.92055933131847
 30
0.0
 10
61.40383163612474
 20
-87.92055933131847
 30
0.0
 10
61.23243813573356
 20
-87.92486570067504
 30
0.0
 10
61.14786104157068
 20
-87.93123912732275
 30
0.0
 10
61.14786104157068
 20
-87.93123912732275
 30
0.0
 10
61.14786104157068
 20
-87.75347220028385
 30
0.0
 10
61.14786104157068
 20
-87.75347220028385
 30
0.0
 10
61.23037107844241
 20
-87.75984562693156
 30
0.0
 10
61.39315184012047
 20
-87.76397974151386
 30
0.0
 10
61.45878090911447
 20
-87.76397974151386
 30
0.0
 10
61.45878090911447
 20
-87.76397974151386
 30
0.0
 10
61.53698457662964
 20
-87.76397974151386
 30
0.0
 10
61.53698457662964
 20
-87.76397974151386
 30
0.0
 10
61.53698457662964
 20
-87.73021780575843
 30
0.0
 10
61.53285046204734
 20
-87.57570527324496
 30
0.0
 10
61.53285046204734
 20
-87.54401039478067
 30
0.0
 10
61.53285046204734
 20
-87.54401039478067
 30
0.0
 10
61.72956541425511
 20
-87.5608913626584
 30
0.0
 10
61.72956541425511
 20
-87.5608913626584
 30
0.0
 10
61.74644638213284
 20
-87.56313067472381
 30
0.0
 10
61.76763371936712
 20
-87.56519773201495
 30
0.0
 10
61.76763371936712
 20
-87.58638506924925
 30
0.0
 10
61.76763371936712
 20
-87.60963946377468
 30
0.0
 10
61.74644638213284
 20
-87.61807994771354
 30
0.0
 10
61.7190578730251
 20
-87.63082680100896
 30
0.0
 10
61.7190578730251
 20
-87.65184188346899
 30
0.0
 10
61.71681856095969
 20
-87.74709877363614
 30
0.0
 10
61.71681856095969
 20
-87.76397974151386
 30
0.0
 10
61.71681856095969
 20
-87.76397974151386
 30
0.0
 10
61.77607420330598
 20
-87.76397974151386
 30
0.0
 10
61.77607420330598
 20
-87.76397974151386
 30
0.0
 10
61.84377032959114
 20
-87.76397974151386
 30
0.0
 10
61.98760306610033
 20
-87.75984562693156
 30
0.0
 10
62.0933674974975
 20
-87.75347220028385
 30
0.0
 10
62.0933674974975
 20
-87.75347220028385
 30
0.0
 10
62.0933674974975
 20
-87.93123912732275
 30
0.0
 10
62.0933674974975
 20
-87.93123912732275
 30
0.0
 10
61.99604355003919
 20
-87.92486570067504
 30
0.0
 10
61.83963621500884
 20
-87.92055933131847
 30
0.0
 10
61.77607420330598
 20
-87.92055933131847
 30
0.0
 10
61.77607420330598
 20
-87.92055933131847
 30
0.0
 10
61.70837807702083
 20
-87.92055933131847
 30
0.0
 10
61.70837807702083
 20
-87.92055933131847
 30
0.0
 10
61.70837807702083
 20
-87.92055933131847
 30
0.0
 10
61.70837807702083
 20
-88.06663137989307
 30
0.0
 10
61.70837807702083
 20
-88.06663137989307
 30
0.0
 10
61.70837807702083
 20
-88.06663137989307
 30
0.0
 10
61.77831351537139
 20
-88.06663137989307
 30
0.0
 10
61.77831351537139
 20
-88.06663137989307
 30
0.0
 10
61.92834742375403
 20
-88.06663137989307
 30
0.0
 10
62.00034991939575
 20
-88.06232501053651
 30
0.0
 10
62.0616726190332
 20
-88.06025795324535
 30
0.0
 10
62.05323213509433
 20
-88.15534258863825
 30
0.0
 10
62.05116507780318
 20
-88.23371851092769
 30
0.0
 10
62.04909802051203
 20
-88.2717868160397
 30
0.0
 10
62.20343829825123
 20
-88.06025795324535
 30
0.0
 10
62.3092027296484
 20
-87.81272784263015
 30
0.0
 10
62.32608369752612
 20
-87.55038382142838
 30
0.0
 10
62.32608369752612
 20
-87.55038382142838
 30
0.0
 10
62.54191892967702
 20
-87.60119897983581
 30
0.0
 10
62.54191892967702
 20
-87.60119897983581
 30
0.0
 10
62.5567328402636
 20
-87.60533309441811
 30
0.0
 10
62.57154675085017
 20
-87.61170652106583
 30
0.0
 10
62.57154675085017
 20
-87.62858748894355
 30
0.0
 10
62.57154675085017
 20
-87.64564071159553
 30
0.0
 10
62.56724038149361
 20
-87.64770776888669
 30
0.0
 10
62.51659747786044
 20
-87.66889510612097
 30
0.0
 10
62.49954425520845
 20
-87.745031716345
 30
0.0
 10
62.47422280339186
 20
-87.83598223715559
 30
0.0
 10
62.42564695704984
 20
-87.96293400578705
 30
0.0
 10
62.42564695704984
 20
-87.96293400578705
 30
0.0
 10
62.76412758847564
 20
-87.96293400578705
 30
0.0
 10
62.76412758847564
 20
-87.96293400578705
 30
0.0
 10
62.80219589358765
 20
-87.96293400578705
 30
0.0
 10
62.93121471951026
 20
-87.95862763643049
 30
0.0
 10
62.97979056585228
 20
-87.95225420978278
 30
0.0
 10
62.97979056585228
 20
-87.95225420978278
 30
0.0
 10
63.07298039872828
 20
-88.02218964813335
 30
0.0
 10
63.07298039872828
 20
-88.02218964813335
 30
0.0
 10
63.06453991478942
 20
-88.04320473059337
 30
0.0
 10
63.05816648814171
 20
-88.06232501053651
 30
0.0
 10
63.04335257755514
 20
-88.09832625835736
 30
0.0
  0
POLYLINE
  5
CC
330
C7
100
AcDbEntity
  8
_U+30EC_U+30A4_U+30E4_U+30FC 1
370
     0
100
AcDb2dPolyline
 66
     1
 10
0.0
 20
0.0
 30
0.0
  0
VERTEX
  5
CD
330
CC
100
AcDbEntity
  8
_U+30EC_U+30A4_U+30E4_U+30FC 1
370
     0
100
AcDbVertex
100
AcDb2dVertex
 10
61.53698457662964
 20
-88.2230387149234
 30
0.0
  0
VERTEX
  5
CE
330
CC
100
AcDbEntity
  8
_U+30EC_U+30A4_U+30E4_U+30FC 1
370
     0
100
AcDbVertex
100
AcDb2dVertex
 10
61.37833792953389
 20
-88.2230387149234
 30
0.0
  0
VERTEX
  5
CF
330
CC
100
AcDbEntity
  8
_U+30EC_U+30A4_U+30E4_U+30FC 1
370
     0
100
AcDbVertex
100
AcDb2dVertex
 10
61.37833792953389
 20
-88.35222979562027
 30
0.0
  0
VERTEX
  5
D0
330
CC
100
AcDbEntity
  8
_U+30EC_U+30A4_U+30E4_U+30FC 1
370
     0
100
AcDbVertex
100
AcDb2dVertex
 10
61.53698457662964
 20
-88.35222979562027
 30
0.0
  0
VERTEX
  5
D1
330
CC
100
AcDbEntity
  8
_U+30EC_U+30A4_U+30E4_U+30FC 1
370
     0
100
AcDbVertex
100
AcDb2dVertex
 10
61.53698457662964
 20
-88.2230387149234
 30
0.0
  0
SEQEND
  5
D2
330
CC
100
AcDbEntity
  8
_U+30EC_U+30A4_U+30E4_U+30FC 1
370
     0
  0
POLYLINE
  5
D3
330
C7
100
AcDbEntity
  8
_U+30EC_U+30A4_U+30E4_U+30FC 1
370
     0
100
AcDb2dPolyline
 66
     1
 10
0.0
 20
0.0
 30
0.0
  0
VERTEX
  5
D4
330
D3
100
AcDbEntity
  8
_U+30EC_U+30A4_U+30E4_U+30FC 1
370
     0
100
AcDbVertex
100
AcDb2dVertex
 10
61.53698457662964
 20
-88.49606253212946
 30
0.0
  0
VERTEX
  5
D5
330
D3
100
AcDbEntity
  8
_U+30EC_U+30A4_U+30E4_U+30FC 1
370
     0
100
AcDbVertex
100
AcDb2dVertex
 10
61.37833792953389
 20
-88.49606253212946
 30
0.0
  0
VERTEX
  5
D6
330
D3
100
AcDbEntity
  8
_U+30EC_U+30A4_U+30E4_U+30FC 1
370
     0
100
AcDbVertex
100
AcDb2dVertex
 10
61.37833792953389
 20
-88.62508135805207
 30
0.0
  0
VERTEX
  5
D7
330
D3
100
AcDbEntity
  8
_U+30EC_U+30A4_U+30E4_U+30FC 1
370
     0
100
AcDbVertex
100
AcDb2dVertex
 10
61.53698457662964
 20
-88.62508135805207
 30
0.0
  0
VERTEX
  5
D8
330
D3
100
AcDbEntity
  8
_U+30EC_U+30A4_U+30E4_U+30FC 1
370
     0
100
AcDbVertex
100
AcDb2dVertex
 10
61.53698457662964
 20
-88.49606253212946
 30
0.0
  0
SEQEND
  5
D9
330
D3
100
AcDbEntity
  8
_U+30EC_U+30A4_U+30E4_U+30FC 1
370
     0
  0
POLYLINE
  5
DA
330
C7
100
AcDbEntity
  8
_U+30EC_U+30A4_U+30E4_U+30FC 1
370
     0
100
AcDb2dPolyline
 66
     1
 10
0.0
 20
0.0
 30
0.0
  0
VERTEX
  5
DB
330
DA
100
AcDbEntity
  8
_U+30EC_U+30A4_U+30E4_U+30FC 1
370
     0
100
AcDbVertex
100
AcDb2dVertex
 10
61.869264036182
 20
-88.2230387149234
 30
0.0
  0
VERTEX
  5
DC
330
DA
100
AcDbEntity
  8
_U+30EC_U+30A4_U+30E4_U+30FC 1
370
     0
100
AcDbVertex
100
AcDb2dVertex
 10
61.70837807702083
 20
-88.2230387149234
 30
0.0
  0
VERTEX
  5
DD
330
DA
100
AcDbEntity
  8
_U+30EC_U+30A4_U+30E4_U+30FC 1
370
     0
100
AcDbVertex
100
AcDb2dVertex
 10
61.70837807702083
 20
-88.35222979562027
 30
0.0
  0
VERTEX
  5
DE
330
DA
100
AcDbEntity
  8
_U+30EC_U+30A4_U+30E4_U+30FC 1
370
     0
100
AcDbVertex
100
AcDb2dVertex
 10
61.869264036182
 20
-88.35222979562027
 30
0.0
  0
VERTEX
  5
DF
330
DA
100
AcDbEntity
  8
_U+30EC_U+30A4_U+30E4_U+30FC 1
370
     0
100
AcDbVertex
100
AcDb2dVertex
 10
61.869264036182
 20
-88.2230387149234
 30
0.0
  0
SEQEND
  5
E0
330
DA
100
AcDbEntity
  8
_U+30EC_U+30A4_U+30E4_U+30FC 1
370
     0
  0
POLYLINE
  5
E1
330
C7
100
AcDbEntity
  8
_U+30EC_U+30A4_U+30E4_U+30FC 1
370
     0
100
AcDb2dPolyline
 66
     1
 10
0.0
 20
0.0
 30
0.0
  0
VERTEX
  5
E2
330
E1
100
AcDbEntity
  8
_U+30EC_U+30A4_U+30E4_U+30FC 1
370
     0
100
AcDbVertex
100
AcDb2dVertex
 10
61.869264036182
 20
-88.49606253212946
 30
0.0
  0
VERTEX
  5
E3
330
E1
100
AcDbEntity
  8
_U+30EC_U+30A4_U+30E4_U+30FC 1
370
     0
100
AcDbVertex
100
AcDb2dVertex
 10
61.70837807702083
 20
-88.49606253212946
 30
0.0
  0
VERTEX
  5
E4
330
E1
100
AcDbEntity
  8
_U+30EC_U+30A4_U+30E4_U+30FC 1
370
     0
100
AcDbVertex
100
AcDb2dVertex
 10
61.70837807702083
 20
-88.62508135805207
 30
0.0
  0
VERTEX
  5
E5
330
E1
100
AcDbEntity
  8
_U+30EC_U+30A4_U+30E4_U+30FC 1
370
     0
100
AcDbVertex
100
AcDb2dVertex
 10
61.869264036182
 20
-88.62508135805207
 30
0.0
  0
VERTEX
  5
E6
330
E1
100
AcDbEntity
  8
_U+30EC_U+30A4_U+30E4_U+30FC 1
370
     0
100
AcDbVertex
100
AcDb2dVertex
 10
61.869264036182
 20
-88.49606253212946
 30
0.0
  0
SEQEND
  5
E7
330
E1
100
AcDbEntity
  8
_U+30EC_U+30A4_U+30E4_U+30FC 1
370
     0
  0
SPLINE
  5
E8
330
C7
100
AcDbEntity
  8
_U+30EC_U+30A4_U+30E4_U+30FC 1
370
     0
100
AcDbSpline
210
0.0
220
0.0
230
1.0
 70
    11
 71
     3
 72
    41
 73
    37
 74
     0
 42
0.0000000001
 43
0.0000000001
 12
1.0
 22
0.0
 32
0.0
 13
1.0
 23
0.0
 33
0.0
 40
0.0
 40
0.0
 40
0.0
 40
0.0
 40
1.0
 40
1.0
 40
1.0
 40
2.0
 40
2.0
 40
2.0
 40
3.0
 40
3.0
 40
3.0
 40
4.0
 40
4.0
 40
4.0
 40
5.0
 40
5.0
 40
5.0
 40
6.0
 40
6.0
 40
6.0
 40
7.0
 40
7.0
 40
7.0
 40
8.0
 40
8.0
 40
8.0
 40
9.0
 40
9.0
 40
9.0
 40
10.0
 40
10.0
 40
10.0
 40
11.0
 40
11.0
 40
11.0
 40
12.0
 40
12.0
 40
12.0
 40
12.0
 10
62.95860322861799
 20
-89.4543158413517
 30
0.0
 10
62.7174465446505
 20
-89.31892358878139
 30
0.0
 10
62.53985187238587
 20
-89.02281763182415
 30
0.0
 10
62.49954425520845
 20
-88.89379880590155
 30
0.0
 10
62.3789659132247
 20
-89.15820988439448
 30
0.0
 10
62.21618515154665
 20
-89.33580455665911
 30
0.0
 10
62.03428410992546
 20
-89.4501817267694
 30
0.0
 10
62.03428410992546
 20
-89.4501817267694
 30
0.0
 10
61.83739690294343
 20
-89.31272241690793
 30
0.0
 10
61.83739690294343
 20
-89.31272241690793
 30
0.0
 10
61.907332341294
 20
-89.28722871031708
 30
0.0
 10
62.05323213509433
 20
-89.22590601067964
 30
0.0
 10
62.17587753436923
 20
-89.07139347816619
 30
0.0
 10
62.30076224570954
 20
-88.91481388836158
 30
0.0
 10
62.38964570922898
 20
-88.68209768833295
 30
0.0
 10
62.38964570922898
 20
-88.42199297919659
 30
0.0
 10
62.38964570922898
 20
-88.32036266238173
 30
0.0
 10
62.37689885593355
 20
-88.24853242151426
 30
0.0
 10
62.36639131470354
 20
-88.20202363246338
 30
0.0
 10
62.36639131470354
 20
-88.20202363246338
 30
0.0
 10
62.57154675085017
 20
-88.2230387149234
 30
0.0
 10
62.57154675085017
 20
-88.2230387149234
 30
0.0
 10
62.59273408808446
 20
-88.22527802698882
 30
0.0
 10
62.61392142531874
 20
-88.22734508427997
 30
0.0
 10
62.61392142531874
 20
-88.24853242151426
 30
0.0
 10
62.61392142531874
 20
-88.26748044668314
 30
0.0
 10
62.60324162931447
 20
-88.275920930622
 30
0.0
 10
62.56947969355902
 20
-88.29710826785629
 30
0.0
 10
62.56103920962016
 20
-88.49812958942061
 30
0.0
 10
62.61805553990104
 20
-88.74135333067925
 30
0.0
 10
62.67937823953849
 20
-88.86193167266299
 30
0.0
 10
62.77032876034909
 20
-89.03763154241074
 30
0.0
 10
62.9649766552657
 20
-89.21746552674078
 30
0.0
 10
63.10036890783602
 20
-89.27448185702166
 30
0.0
 10
63.10036890783602
 20
-89.27448185702166
 30
0.0
 10
62.95860322861799
 20
-89.4543158413517
 30
0.0
 10
62.95860322861799
 20
-89.4543158413517
 30
0.0
  0
HATCH
  5
E9
330
C7
100
AcDbEntity
  8
_U+30EC_U+30A4_U+30E4_U+30FC 1
 62
     7
420
 16777215
100
AcDbHatch
 10
0.0
 20
0.0
 30
0.0
210
0.0
220
0.0
230
1.0
  2
SOLID
 70
     1
 71
     0
 91
        6
 92
        1
 93
        1
 72
     4
 94
        3
 73
     0
 74
     1
 95
      197
 96
      193
 40
0.0
 40
0.0
 40
0.0
 40
0.0
 40
1.0
 40
1.0
 40
1.0
 40
2.0
 40
2.0
 40
2.0
 40
3.0
 40
3.0
 40
3.0
 40
4.0
 40
4.0
 40
4.0
 40
5.0
 40
5.0
 40
5.0
 40
6.0
 40
6.0
 40
6.0
 40
7.0
 40
7.0
 40
7.0
 40
8.0
 40
8.0
 40
8.0
 40
9.0
 40
9.0
 40
9.0
 40
10.0
 40
10.0
 40
10.0
 40
11.0
 40
11.0
 40
11.0
 40
12.0
 40
12.0
 40
12.0
 40
13.0
 40
13.0
 40
13.0
 40
14.0
 40
14.0
 40
14.0
 40
15.0
 40
15.0
 40
15.0
 40
16.0
 40
16.0
 40
16.0
 40
17.0
 40
17.0
 40
17.0
 40
18.0
 40
18.0
 40
18.0
 40
19.0
 40
19.0
 40
19.0
 40
20.0
 40
20.0
 40
20.0
 40
21.0
 40
21.0
 40
21.0
 40
22.0
 40
22.0
 40
22.0
 40
23.0
 40
23.0
 40
23.0
 40
24.0
 40
24.0
 40
24.0
 40
25.0
 40
25.0
 40
25.0
 40
26.0
 40
26.0
 40
26.0
 40
27.0
 40
27.0
 40
27.0
 40
28.0
 40
28.0
 40
28.0
 40
29.0
 40
29.0
 40
29.0
 40
30.0
 40
30.0
 40
30.0
 40
31.0
 40
31.0
 40
31.0
 40
32.0
 40
32.0
 40
32.0
 40
33.0
 40
33.0
 40
33.0
 40
34.0
 40
34.0
 40
34.0
 40
35.0
 40
35.0
 40
35.0
 40
36.0
 40
36.0
 40
36.0
 40
37.0
 40
37.0
 40
37.0
 40
38.0
 40
38.0
 40
38.0
 40
39.0
 40
39.0
 40
39.0
 40
40.0
 40
40.0
 40
40.0
 40
41.0
 40
41.0
 40
41.0
 40
42.0
 40
42.0
 40
42.0
 40
43.0
 40
43.0
 40
43.0
 40
44.0
 40
44.0
 40
44.0
 40
45.0
 40
45.0
 40
45.0
 40
46.0
 40
46.0
 40
46.0
 40
47.0
 40
47.0
 40
47.0
 40
48.0
 40
48.0
 40
48.0
 40
49.0
 40
49.0
 40
49.0
 40
50.0
 40
50.0
 40
50.0
 40
51.0
 40
51.0
 40
51.0
 40
52.0
 40
52.0
 40
52.0
 40
53.0
 40
53.0
 40
53.0
 40
54.0
 40
54.0
 40
54.0
 40
55.0
 40
55.0
 40
55.0
 40
56.0
 40
56.0
 40
56.0
 40
57.0
 40
57.0
 40
57.0
 40
58.0
 40
58.0
 40
58.0
 40
59.0
 40
59.0
 40
59.0
 40
60.0
 40
60.0
 40
60.0
 40
61.0
 40
61.0
 40
61.0
 40
62.0
 40
62.0
 40
62.0
 40
63.0
 40
63.0
 40
63.0
 40
64.0
 40
64.0
 40
64.0
 40
64.0
 10
63.04335257755514
 20
-88.09832625835736
 10
63.03267278155086
 20
-88.12795407953051
 10
63.00941838702543
 20
-88.17446286858139
 10
62.99891084579541
 20
-88.20202363246338
 10
62.99891084579541
 20
-88.20202363246338
 10
62.93758814615796
 20
-88.35429685291143
 10
62.93758814615796
 20
-88.35429685291143
 10
62.9269083501537
 20
-88.37961830472801
 10
62.87833250381167
 20
-88.4917561627729
 10
62.86558565051624
 20
-88.51501055729834
 10
62.86351859322509
 20
-88.52138398394605
 10
62.85921222386853
 20
-88.52982446788491
 10
62.85714516657738
 20
-88.53619789453262
 10
62.85714516657738
 20
-88.53619789453262
 10
62.64768336107419
 20
-88.48331567883403
 10
62.64768336107419
 20
-88.48331567883403
 10
62.72605928336363
 20
-88.3732448780803
 10
62.78738198300108
 20
-88.23785262550999
 10
62.81907686146537
 20
-88.12795407953051
 10
62.81907686146537
 20
-88.12795407953051
 10
62.35364446140812
 20
-88.12795407953051
 10
62.35364446140812
 20
-88.12795407953051
 10
62.27320148182753
 20
-88.29297415327399
 10
62.20550535554238
 20
-88.37117782078916
 10
62.17174341978693
 20
-88.41131318319232
 10
62.17174341978693
 20
-88.41131318319232
 10
62.04909802051203
 20
-88.34585636897256
 10
62.04909802051203
 20
-88.34585636897256
 10
62.04909802051203
 20
-88.34585636897256
 10
62.04909802051203
 20
-88.51707761458948
 10
62.04909802051203
 20
-88.51707761458948
 10
62.04909802051203
 20
-88.62508135805207
 10
62.05116507780318
 20
-88.67365720439409
 10
62.0616726190332
 20
-88.77942163579127
 10
61.98984237816574
 20
-88.77735457850011
 10
61.96865504093145
 20
-88.77735457850011
 10
61.76349960478482
 20
-88.77735457850011
 10
61.76349960478482
 20
-88.77735457850011
 10
61.70837807702083
 20
-88.77735457850011
 10
61.70837807702083
 20
-88.77735457850011
 10
61.70837807702083
 20
-88.77735457850011
 10
61.70837807702083
 20
-88.91274683107042
 10
61.70837807702083
 20
-88.91274683107042
 10
61.70837807702083
 20
-88.91274683107042
 10
61.78038057266254
 20
-88.91274683107042
 10
61.78038057266254
 20
-88.91274683107042
 10
61.84600964165656
 20
-88.91274683107042
 10
61.99190943545689
 20
-88.90844046171387
 10
62.09767386685406
 20
-88.89999997777501
 10
62.09767386685406
 20
-88.89999997777501
 10
62.09767386685406
 20
-89.0777669048139
 10
62.09767386685406
 20
-89.0777669048139
 10
62.00034991939575
 20
-89.07139347816619
 10
61.84170327229999
 20
-89.06725936358389
 10
61.78038057266254
 20
-89.06725936358389
 10
61.78038057266254
 20
-89.06725936358389
 10
61.70837807702083
 20
-89.06725936358389
 10
61.70837807702083
 20
-89.06725936358389
 10
61.71061738908624
 20
-89.15597057232907
 10
61.71475150366854
 20
-89.3950601990054
 10
61.71681856095969
 20
-89.46912975193828
 10
61.71681856095969
 20
-89.46912975193828
 10
61.51596949416962
 20
-89.46912975193828
 10
61.51596949416962
 20
-89.46912975193828
 10
61.52854409269079
 20
-89.25553383185279
 10
61.52854409269079
 20
-89.22590601067964
 10
61.53285046204734
 20
-89.06725936358389
 10
61.53285046204734
 20
-89.06725936358389
 10
61.46308727847104
 20
-89.06725936358389
 10
61.46308727847104
 20
-89.06725936358389
 10
61.40589869341589
 20
-89.06725936358389
 10
61.25362547296785
 20
-89.07139347816619
 10
61.14355467221412
 20
-89.0777669048139
 10
61.14355467221412
 20
-89.0777669048139
 10
61.14355467221412
 20
-88.89999997777501
 10
61.14355467221412
 20
-88.89999997777501
 10
61.24931910361128
 20
-88.90844046171387
 10
61.39315184012047
 20
-88.91274683107042
 10
61.46308727847104
 20
-88.91274683107042
 10
61.46308727847104
 20
-88.91274683107042
 10
61.53698457662964
 20
-88.91274683107042
 10
61.53698457662964
 20
-88.91274683107042
 10
61.53698457662964
 20
-88.91274683107042
 10
61.53698457662964
 20
-88.77735457850011
 10
61.53698457662964
 20
-88.77735457850011
 10
61.53698457662964
 20
-88.77735457850011
 10
61.49271509964419
 20
-88.77735457850011
 10
61.49271509964419
 20
-88.77735457850011
 10
61.4164062346459
 20
-88.77735457850011
 10
61.2239976517947
 20
-88.77942163579127
 10
61.19006346126498
 20
-88.77942163579127
 10
61.1964368879127
 20
-88.7075913949238
 10
61.20487737185156
 20
-88.62714841534321
 10
61.20487737185156
 20
-88.50657007335947
 10
61.20487737185156
 20
-88.50657007335947
 10
61.20487737185156
 20
-88.33310951567714
 10
61.20487737185156
 20
-88.33310951567714
 10
61.20487737185156
 20
-88.26110702003542
 10
61.1964368879127
 20
-88.14052867805168
 10
61.19006346126498
 20
-88.06025795324535
 10
61.26843938355442
 20
-88.06439206782765
 10
61.30650768866643
 20
-88.06663137989307
 10
61.43345945729789
 20
-88.06663137989307
 10
61.43345945729789
 20
-88.06663137989307
 10
61.53698457662964
 20
-88.06663137989307
 10
61.53698457662964
 20
-88.06663137989307
 10
61.53698457662964
 20
-88.06663137989307
 10
61.53698457662964
 20
-87.92055933131847
 10
61.53698457662964
 20
-87.92055933131847
 10
61.53698457662964
 20
-87.92055933131847
 10
61.45878090911447
 20
-87.92055933131847
 10
61.45878090911447
 20
-87.92055933131847
 10
61.40383163612474
 20
-87.92055933131847
 10
61.23243813573356
 20
-87.92486570067504
 10
61.14786104157068
 20
-87.93123912732275
 10
61.14786104157068
 20
-87.93123912732275
 10
61.14786104157068
 20
-87.75347220028385
 10
61.14786104157068
 20
-87.75347220028385
 10
61.23037107844241
 20
-87.75984562693156
 10
61.39315184012047
 20
-87.76397974151386
 10
61.45878090911447
 20
-87.76397974151386
 10
61.45878090911447
 20
-87.76397974151386
 10
61.53698457662964
 20
-87.76397974151386
 10
61.53698457662964
 20
-87.76397974151386
 10
61.53698457662964
 20
-87.73021780575843
 10
61.53285046204734
 20
-87.57570527324496
 10
61.53285046204734
 20
-87.54401039478067
 10
61.53285046204734
 20
-87.54401039478067
 10
61.72956541425511
 20
-87.5608913626584
 10
61.72956541425511
 20
-87.5608913626584
 10
61.74644638213284
 20
-87.56313067472381
 10
61.76763371936712
 20
-87.56519773201495
 10
61.76763371936712
 20
-87.58638506924925
 10
61.76763371936712
 20
-87.60963946377468
 10
61.74644638213284
 20
-87.61807994771354
 10
61.7190578730251
 20
-87.63082680100896
 10
61.7190578730251
 20
-87.65184188346899
 10
61.71681856095969
 20
-87.74709877363614
 10
61.71681856095969
 20
-87.76397974151386
 10
61.71681856095969
 20
-87.76397974151386
 10
61.77607420330598
 20
-87.76397974151386
 10
61.77607420330598
 20
-87.76397974151386
 10
61.84377032959114
 20
-87.76397974151386
 10
61.98760306610033
 20
-87.75984562693156
 10
62.0933674974975
 20
-87.75347220028385
 10
62.0933674974975
 20
-87.75347220028385
 10
62.0933674974975
 20
-87.93123912732275
 10
62.0933674974975
 20
-87.93123912732275
 10
61.99604355003919
 20
-87.92486570067504
 10
61.83963621500884
 20
-87.92055933131847
 10
61.77607420330598
 20
-87.92055933131847
 10
61.77607420330598
 20
-87.92055933131847
 10
61.70837807702083
 20
-87.92055933131847
 10
61.70837807702083
 20
-87.92055933131847
 10
61.70837807702083
 20
-87.92055933131847
 10
61.70837807702083
 20
-88.06663137989307
 10
61.70837807702083
 20
-88.06663137989307
 10
61.70837807702083
 20
-88.06663137989307
 10
61.77831351537139
 20
-88.06663137989307
 10
61.77831351537139
 20
-88.06663137989307
 10
61.92834742375403
 20
-88.06663137989307
 10
62.00034991939575
 20
-88.06232501053651
 10
62.0616726190332
 20
-88.06025795324535
 10
62.05323213509433
 20
-88.15534258863825
 10
62.05116507780318
 20
-88.23371851092769
 10
62.04909802051203
 20
-88.2717868160397
 10
62.20343829825123
 20
-88.06025795324535
 10
62.3092027296484
 20
-87.81272784263015
 10
62.32608369752612
 20
-87.55038382142838
 10
62.32608369752612
 20
-87.55038382142838
 10
62.54191892967702
 20
-87.60119897983581
 10
62.54191892967702
 20
-87.60119897983581
 10
62.5567328402636
 20
-87.60533309441811
 10
62.57154675085017
 20
-87.61170652106583
 10
62.57154675085017
 20
-87.62858748894355
 10
62.57154675085017
 20
-87.64564071159553
 10
62.56724038149361
 20
-87.64770776888669
 10
62.51659747786044
 20
-87.66889510612097
 10
62.49954425520845
 20
-87.745031716345
 10
62.47422280339186
 20
-87.83598223715559
 10
62.42564695704984
 20
-87.96293400578705
 10
62.42564695704984
 20
-87.96293400578705
 10
62.76412758847564
 20
-87.96293400578705
 10
62.76412758847564
 20
-87.96293400578705
 10
62.80219589358765
 20
-87.96293400578705
 10
62.93121471951026
 20
-87.95862763643049
 10
62.97979056585228
 20
-87.95225420978278
 10
62.97979056585228
 20
-87.95225420978278
 10
63.07298039872828
 20
-88.02218964813335
 10
63.07298039872828
 20
-88.02218964813335
 10
63.06453991478942
 20
-88.04320473059337
 10
63.05816648814171
 20
-88.06232501053651
 10
63.04335257755514
 20
-88.09832625835736
 97
        0
 97
        0
 92
        1
 93
        4
 72
     1
 10
61.53698457662964
 20
-88.2230387149234
 11
61.37833792953389
 21
-88.2230387149234
 72
     1
 10
61.37833792953389
 20
-88.2230387149234
 11
61.37833792953389
 21
-88.35222979562027
 72
     1
 10
61.37833792953389
 20
-88.35222979562027
 11
61.53698457662964
 21
-88.35222979562027
 72
     1
 10
61.53698457662964
 20
-88.35222979562027
 11
61.53698457662964
 21
-88.2230387149234
 97
        0
 92
        1
 93
        4
 72
     1
 10
61.53698457662964
 20
-88.49606253212946
 11
61.37833792953389
 21
-88.49606253212946
 72
     1
 10
61.37833792953389
 20
-88.49606253212946
 11
61.37833792953389
 21
-88.62508135805207
 72
     1
 10
61.37833792953389
 20
-88.62508135805207
 11
61.53698457662964
 21
-88.62508135805207
 72
     1
 10
61.53698457662964
 20
-88.62508135805207
 11
61.53698457662964
 21
-88.49606253212946
 97
        0
 92
        1
 93
        4
 72
     1
 10
61.869264036182
 20
-88.2230387149234
 11
61.70837807702083
 21
-88.2230387149234
 72
     1
 10
61.70837807702083
 20
-88.2230387149234
 11
61.70837807702083
 21
-88.35222979562027
 72
     1
 10
61.70837807702083
 20
-88.35222979562027
 11
61.869264036182
 21
-88.35222979562027
 72
     1
 10
61.869264036182
 20
-88.35222979562027
 11
61.869264036182
 21
-88.2230387149234
 97
        0
 92
        1
 93
        4
 72
     1
 10
61.869264036182
 20
-88.49606253212946
 11
61.70837807702083
 21
-88.49606253212946
 72
     1
 10
61.70837807702083
 20
-88.49606253212946
 11
61.70837807702083
 21
-88.62508135805207
 72
     1
 10
61.70837807702083
 20
-88.62508135805207
 11
61.869264036182
 21
-88.62508135805207
 72
     1
 10
61.869264036182
 20
-88.62508135805207
 11
61.869264036182
 21
-88.49606253212946
 97
        0
 92
        1
 93
        1
 72
     4
 94
        3
 73
     0
 74
     1
 95
       41
 96
       37
 40
0.0
 40
0.0
 40
0.0
 40
0.0
 40
1.0
 40
1.0
 40
1.0
 40
2.0
 40
2.0
 40
2.0
 40
3.0
 40
3.0
 40
3.0
 40
4.0
 40
4.0
 40
4.0
 40
5.0
 40
5.0
 40
5.0
 40
6.0
 40
6.0
 40
6.0
 40
7.0
 40
7.0
 40
7.0
 40
8.0
 40
8.0
 40
8.0
 40
9.0
 40
9.0
 40
9.0
 40
10.0
 40
10.0
 40
10.0
 40
11.0
 40
11.0
 40
11.0
 40
12.0
 40
12.0
 40
12.0
 40
12.0
 10
62.95860322861799
 20
-89.4543158413517
 10
62.7174465446505
 20
-89.31892358878139
 10
62.53985187238587
 20
-89.02281763182415
 10
62.49954425520845
 20
-88.89379880590155
 10
62.3789659132247
 20
-89.15820988439448
 10
62.21618515154665
 20
-89.33580455665911
 10
62.03428410992546
 20
-89.4501817267694
 10
62.03428410992546
 20
-89.4501817267694
 10
61.83739690294343
 20
-89.31272241690793
 10
61.83739690294343
 20
-89.31272241690793
 10
61.907332341294
 20
-89.28722871031708
 10
62.05323213509433
 20
-89.22590601067964
 10
62.17587753436923
 20
-89.07139347816619
 10
62.30076224570954
 20
-88.91481388836158
 10
62.38964570922898
 20
-88.68209768833295
 10
62.38964570922898
 20
-88.42199297919659
 10
62.38964570922898
 20
-88.32036266238173
 10
62.37689885593355
 20
-88.24853242151426
 10
62.36639131470354
 20
-88.20202363246338
 10
62.36639131470354
 20
-88.20202363246338
 10
62.57154675085017
 20
-88.2230387149234
 10
62.57154675085017
 20
-88.2230387149234
 10
62.59273408808446
 20
-88.22527802698882
 10
62.61392142531874
 20
-88.22734508427997
 10
62.61392142531874
 20
-88.24853242151426
 10
62.61392142531874
 20
-88.26748044668314
 10
62.60324162931447
 20
-88.275920930622
 10
62.56947969355902
 20
-88.29710826785629
 10
62.56103920962016
 20
-88.49812958942061
 10
62.61805553990104
 20
-88.74135333067925
 10
62.67937823953849
 20
-88.86193167266299
 10
62.77032876034909
 20
-89.03763154241074
 10
62.9649766552657
 20
-89.21746552674078
 10
63.10036890783602
 20
-89.27448185702166
 10
63.10036890783602
 20
-89.27448185702166
 10
62.95860322861799
 20
-89.4543158413517
 10
62.95860322861799
 20
-89.4543158413517
 97
        0
 97
        0
 75
     2
 76
     1
 98
        0
  0
SPLINE
  5
EA
330
C7
100
AcDbEntity
  8
_U+30EC_U+30A4_U+30E4_U+30FC 1
370
     0
100
AcDbSpline
210
0.0
220
0.0
230
1.0
 70
    11
 71
     3
 72
    71
 73
    67
 74
     0
 42
0.0000000001
 43
0.0000000001
 12
1.0
 22
0.0
 32
0.0
 13
1.0
 23
0.0
 33
0.0
 40
0.0
 40
0.0
 40
0.0
 40
0.0
 40
1.0
 40
1.0
 40
1.0
 40
2.0
 40
2.0
 40
2.0
 40
3.0
 40
3.0
 40
3.0
 40
4.0
 40
4.0
 40
4.0
 40
5.0
 40
5.0
 40
5.0
 40
6.0
 40
6.0
 40
6.0
 40
7.0
 40
7.0
 40
7.0
 40
8.0
 40
8.0
 40
8.0
 40
9.0
 40
9.0
 40
9.0
 40
10.0
 40
10.0
 40
10.0
 40
11.0
 40
11.0
 40
11.0
 40
12.0
 40
12.0
 40
12.0
 40
13.0
 40
13.0
 40
13.0
 40
14.0
 40
14.0
 40
14.0
 40
15.0
 40
15.0
 40
15.0
 40
16.0
 40
16.0
 40
16.0
 40
17.0
 40
17.0
 40
17.0
 40
18.0
 40
18.0
 40
18.0
 40
19.0
 40
19.0
 40
19.0
 40
20.0
 40
20.0
 40
20.0
 40
21.0
 40
21.0
 40
21.0
 40
22.0
 40
22.0
 40
22.0
 40
22.0
 10
64.15284557857984
 20
-87.72177732181956
 30
0.0
 10
64.13803166799327
 20
-87.72177732181956
 30
0.0
 10
64.12562932424638
 20
-87.717470952463
 30
0.0
 10
64.10013561765552
 20
-87.70903046852413
 30
0.0
 10
63.95819768366323
 20
-87.75553925757501
 30
0.0
 10
63.78490938075517
 20
-87.77242022545273
 30
0.0
 10
63.64521075882828
 20
-87.77672659480929
 30
0.0
 10
63.64521075882828
 20
-87.77672659480929
 30
0.0
 10
63.64314370153713
 20
-87.86561005832874
 30
0.0
 10
63.64314370153713
 20
-87.86561005832874
 30
0.0
 10
63.64314370153713
 20
-87.86561005832874
 30
0.0
 10
63.90342066544776
 20
-87.86561005832874
 30
0.0
 10
63.90342066544776
 20
-87.86561005832874
 30
0.0
 10
63.95613062637208
 20
-87.86561005832874
 30
0.0
 10
64.13803166799327
 20
-87.85716957438987
 30
0.0
 10
64.182473399753
 20
-87.85079614774217
 30
0.0
 10
64.182473399753
 20
-87.85079614774217
 30
0.0
 10
64.182473399753
 20
-88.01150985212907
 30
0.0
 10
64.182473399753
 20
-88.01150985212907
 30
0.0
 10
64.12769638153752
 20
-88.00513642548135
 30
0.0
 10
64.00263941542295
 20
-88.00306936819021
 30
0.0
 10
63.96474336508521
 20
-88.00513642548135
 30
0.0
 10
63.96474336508521
 20
-88.00513642548135
 30
0.0
 10
63.96474336508521
 20
-88.11520722623509
 30
0.0
 10
63.96474336508521
 20
-88.11520722623509
 30
0.0
 10
63.96474336508521
 20
-88.16171601528596
 30
0.0
 10
63.96681042237635
 20
-88.22527802698882
 30
0.0
 10
63.9730115942498
 20
-88.26334633210084
 30
0.0
 10
63.9730115942498
 20
-88.26334633210084
 30
0.0
 10
63.7806030113986
 20
-88.26334633210084
 30
0.0
 10
63.7806030113986
 20
-88.26334633210084
 30
0.0
 10
63.78697643804632
 20
-88.2230387149234
 30
0.0
 10
63.79334986469403
 20
-88.14052867805168
 30
0.0
 10
63.79334986469403
 20
-88.1257147674651
 30
0.0
 10
63.79334986469403
 20
-88.1257147674651
 30
0.0
 10
63.79334986469403
 20
-88.00513642548135
 30
0.0
 10
63.79334986469403
 20
-88.00513642548135
 30
0.0
 10
63.79334986469403
 20
-88.00513642548135
 30
0.0
 10
63.62832979095056
 20
-88.00513642548135
 30
0.0
 10
63.62832979095056
 20
-88.00513642548135
 30
0.0
 10
63.58595511648198
 20
-88.22527802698882
 30
0.0
 10
63.53100584349225
 20
-88.30554875179514
 30
0.0
 10
63.42524141209508
 20
-88.40511201131886
 30
0.0
 10
63.42524141209508
 20
-88.40511201131886
 30
0.0
 10
63.25815428106046
 20
-88.29073484120858
 30
0.0
 10
63.25815428106046
 20
-88.29073484120858
 30
0.0
 10
63.32154403798906
 20
-88.24215899486654
 30
0.0
 10
63.47175020114595
 20
-88.13002113682167
 30
0.0
 10
63.47175020114595
 20
-87.78103296416586
 30
0.0
 10
63.47175020114595
 20
-87.69852292729412
 30
0.0
 10
63.46330971720709
 20
-87.65184188346899
 30
0.0
 10
63.45486923326823
 20
-87.60326603712697
 30
0.0
 10
63.60076902706856
 20
-87.61807994771354
 30
0.0
 10
63.61558293765513
 20
-87.61807994771354
 30
0.0
 10
63.651584185476
 20
-87.61807994771354
 30
0.0
 10
63.75958792893858
 20
-87.61807994771354
 30
0.0
 10
63.90135360815661
 20
-87.60119897983581
 30
0.0
 10
64.06189505776925
 20
-87.53987628019837
 30
0.0
 10
64.06189505776925
 20
-87.53987628019837
 30
0.0
 10
64.17627222787955
 20
-87.67096216341213
 30
0.0
 10
64.17627222787955
 20
-87.67096216341213
 30
0.0
 10
64.182473399753
 20
-87.67733559005984
 30
0.0
 10
64.18695202388382
 20
-87.6857760739987
 30
0.0
 10
64.18695202388382
 20
-87.69421655793757
 30
0.0
 10
64.18695202388382
 20
-87.717470952463
 30
0.0
 10
64.16765948916643
 20
-87.72177732181956
 30
0.0
 10
64.15284557857984
 20
-87.72177732181956
 30
0.0
  0
SPLINE
  5
EB
330
C7
100
AcDbEntity
  8
_U+30EC_U+30A4_U+30E4_U+30FC 1
370
     0
100
AcDbSpline
210
0.0
220
0.0
230
1.0
 70
    11
 71
     3
 72
    74
 73
    70
 74
     0
 42
0.0000000001
 43
0.0000000001
 12
1.0
 22
0.0
 32
0.0
 13
1.0
 23
0.0
 33
0.0
 40
0.0
 40
0.0
 40
0.0
 40
0.0
 40
1.0
 40
1.0
 40
1.0
 40
2.0
 40
2.0
 40
2.0
 40
3.0
 40
3.0
 40
3.0
 40
4.0
 40
4.0
 40
4.0
 40
5.0
 40
5.0
 40
5.0
 40
6.0
 40
6.0
 40
6.0
 40
7.0
 40
7.0
 40
7.0
 40
8.0
 40
8.0
 40
8.0
 40
9.0
 40
9.0
 40
9.0
 40
10.0
 40
10.0
 40
10.0
 40
11.0
 40
11.0
 40
11.0
 40
12.0
 40
12.0
 40
12.0
 40
13.0
 40
13.0
 40
13.0
 40
14.0
 40
14.0
 40
14.0
 40
15.0
 40
15.0
 40
15.0
 40
16.0
 40
16.0
 40
16.0
 40
17.0
 40
17.0
 40
17.0
 40
18.0
 40
18.0
 40
18.0
 40
19.0
 40
19.0
 40
19.0
 40
20.0
 40
20.0
 40
20.0
 40
21.0
 40
21.0
 40
21.0
 40
22.0
 40
22.0
 40
22.0
 40
23.0
 40
23.0
 40
23.0
 40
23.0
 10
64.99069280059261
 20
-89.48807777710715
 30
0.0
 10
64.77709688050712
 20
-89.47774249065141
 30
0.0
 10
64.57624781371705
 20
-89.3909260844231
 30
0.0
 10
64.40054794396931
 20
-89.27034774243936
 30
0.0
 10
64.40054794396931
 20
-89.27034774243936
 30
0.0
 10
64.49769963665335
 20
-89.18353133621106
 30
0.0
 10
64.49769963665335
 20
-89.18353133621106
 30
0.0
 10
64.49769963665335
 20
-89.18353133621106
 30
0.0
 10
63.94579533991633
 20
-89.18353133621106
 30
0.0
 10
63.94579533991633
 20
-89.18353133621106
 30
0.0
 10
63.94579533991633
 20
-89.18353133621106
 30
0.0
 10
64.02606606472266
 20
-89.24692109313966
 30
0.0
 10
64.02606606472266
 20
-89.24692109313966
 30
0.0
 10
64.0322672365961
 20
-89.25122746249623
 30
0.0
 10
64.04294703260038
 20
-89.26173500372624
 30
0.0
 10
64.04294703260038
 20
-89.27654891431281
 30
0.0
 10
64.04294703260038
 20
-89.31685653149023
 30
0.0
 10
63.9688774796675
 20
-89.31031085006826
 30
0.0
 10
63.95406356908093
 20
-89.3082437927771
 30
0.0
 10
63.72358668111772
 20
-89.44811466947826
 30
0.0
 10
63.57975394460853
 20
-89.47980954794255
 30
0.0
 10
63.47605657050251
 20
-89.49669051582028
 30
0.0
 10
63.47605657050251
 20
-89.49669051582028
 30
0.0
 10
63.34703774457991
 20
-89.31892358878139
 30
0.0
 10
63.34703774457991
 20
-89.31892358878139
 30
0.0
 10
63.59456785519511
 20
-89.28722871031708
 30
0.0
 10
63.69602591723572
 20
-89.24071992126622
 30
0.0
 10
63.78490938075517
 20
-89.18783770556763
 30
0.0
 10
63.71083982782229
 20
-89.18990476285877
 30
0.0
 10
63.59663491248626
 20
-89.19197182014993
 30
0.0
 10
63.56494003402197
 20
-89.19403887744107
 30
0.0
 10
63.57975394460853
 20
-89.10532766869589
 30
0.0
 10
63.58182100189968
 20
-88.97613658799902
 30
0.0
 10
63.58182100189968
 20
-88.90223928984042
 30
0.0
 10
63.58182100189968
 20
-88.90223928984042
 30
0.0
 10
63.58182100189968
 20
-88.60182696352663
 30
0.0
 10
63.58182100189968
 20
-88.60182696352663
 30
0.0
 10
63.58182100189968
 20
-88.50226370400291
 30
0.0
 10
63.57544757525197
 20
-88.40287269925345
 30
0.0
 10
63.56494003402197
 20
-88.30554875179514
 30
0.0
 10
63.66639809606257
 20
-88.31192217844286
 30
0.0
 10
63.89687498402579
 20
-88.31829560509057
 30
0.0
 10
64.00505098226263
 20
-88.31829560509057
 30
0.0
 10
64.00505098226263
 20
-88.31829560509057
 30
0.0
 10
64.42810870785131
 20
-88.31829560509057
 30
0.0
 10
64.42810870785131
 20
-88.31829560509057
 30
0.0
 10
64.54661999254391
 20
-88.31829560509057
 30
0.0
 10
64.58865015746395
 20
-88.31829560509057
 30
0.0
 10
64.67133244910995
 20
-88.31398923573401
 30
0.0
 10
64.81947155497569
 20
-88.30778806386056
 30
0.0
 10
64.83635252285342
 20
-88.30778806386056
 30
0.0
 10
64.88286131190429
 20
-88.30554875179514
 30
0.0
 10
64.87424857319117
 20
-88.38599173137573
 30
0.0
 10
64.87011445860887
 20
-88.54463837847149
 30
0.0
 10
64.87011445860887
 20
-88.62714841534321
 30
0.0
 10
64.87011445860887
 20
-88.62714841534321
 30
0.0
 10
64.87011445860887
 20
-88.91274683107042
 30
0.0
 10
64.87011445860887
 20
-88.91274683107042
 30
0.0
 10
64.87011445860887
 20
-88.98474932671215
 30
0.0
 10
64.87218151590001
 20
-89.1158352099259
 30
0.0
 10
64.88286131190429
 20
-89.19403887744107
 30
0.0
 10
64.81085881626257
 20
-89.18990476285877
 30
0.0
 10
64.68821341698767
 20
-89.18783770556763
 30
0.0
 10
64.6100097494725
 20
-89.18559839350222
 30
0.0
 10
64.71990829545197
 20
-89.25346677456163
 30
0.0
 10
64.87218151590001
 20
-89.3041096781948
 30
0.0
 10
65.08371037869435
 20
-89.3082437927771
 30
0.0
 10
65.08371037869435
 20
-89.3082437927771
 30
0.0
 10
64.99069280059261
 20
-89.48807777710715
 30
0.0
 10
64.99069280059261
 20
-89.48807777710715
 30
0.0
  0
POLYLINE
  5
EC
330
C7
100
AcDbEntity
  8
_U+30EC_U+30A4_U+30E4_U+30FC 1
370
     0
100
AcDb2dPolyline
 66
     1
 10
0.0
 20
0.0
 30
0.0
  0
VERTEX
  5
ED
330
EC
100
AcDbEntity
  8
_U+30EC_U+30A4_U+30E4_U+30FC 1
370
     0
100
AcDbVertex
100
AcDb2dVertex
 10
64.68614635969652
 20
-88.45368785766088
 30
0.0
  0
VERTEX
  5
EE
330
EC
100
AcDbEntity
  8
_U+30EC_U+30A4_U+30E4_U+30FC 1
370
     0
100
AcDbVertex
100
AcDb2dVertex
 10
63.77422958475089
 20
-88.45368785766088
 30
0.0
  0
VERTEX
  5
EF
330
EC
100
AcDbEntity
  8
_U+30EC_U+30A4_U+30E4_U+30FC 1
370
     0
100
AcDbVertex
100
AcDb2dVertex
 10
63.77422958475089
 20
-88.56582571570577
 30
0.0
  0
VERTEX
  5
F0
330
EC
100
AcDbEntity
  8
_U+30EC_U+30A4_U+30E4_U+30FC 1
370
     0
100
AcDbVertex
100
AcDb2dVertex
 10
64.68614635969652
 20
-88.56582571570577
 30
0.0
  0
VERTEX
  5
F1
330
EC
100
AcDbEntity
  8
_U+30EC_U+30A4_U+30E4_U+30FC 1
370
     0
100
AcDbVertex
100
AcDb2dVertex
 10
64.68614635969652
 20
-88.45368785766088
 30
0.0
  0
SEQEND
  5
F2
330
EC
100
AcDbEntity
  8
_U+30EC_U+30A4_U+30E4_U+30FC 1
370
     0
  0
POLYLINE
  5
F3
330
C7
100
AcDbEntity
  8
_U+30EC_U+30A4_U+30E4_U+30FC 1
370
     0
100
AcDb2dPolyline
 66
     1
 10
0.0
 20
0.0
 30
0.0
  0
VERTEX
  5
F4
330
F3
100
AcDbEntity
  8
_U+30EC_U+30A4_U+30E4_U+30FC 1
370
     0
100
AcDbVertex
100
AcDb2dVertex
 10
64.68614635969652
 20
-88.69915091098494
 30
0.0
  0
VERTEX
  5
F5
330
F3
100
AcDbEntity
  8
_U+30EC_U+30A4_U+30E4_U+30FC 1
370
     0
100
AcDbVertex
100
AcDb2dVertex
 10
63.77422958475089
 20
-88.69915091098494
 30
0.0
  0
VERTEX
  5
F6
330
F3
100
AcDbEntity
  8
_U+30EC_U+30A4_U+30E4_U+30FC 1
370
     0
100
AcDbVertex
100
AcDb2dVertex
 10
63.77422958475089
 20
-88.8090494569644
 30
0.0
  0
VERTEX
  5
F7
330
F3
100
AcDbEntity
  8
_U+30EC_U+30A4_U+30E4_U+30FC 1
370
     0
100
AcDbVertex
100
AcDb2dVertex
 10
64.68614635969652
 20
-88.8090494569644
 30
0.0
  0
VERTEX
  5
F8
330
F3
100
AcDbEntity
  8
_U+30EC_U+30A4_U+30E4_U+30FC 1
370
     0
100
AcDbVertex
100
AcDb2dVertex
 10
64.68614635969652
 20
-88.69915091098494
 30
0.0
  0
SEQEND
  5
F9
330
F3
100
AcDbEntity
  8
_U+30EC_U+30A4_U+30E4_U+30FC 1
370
     0
  0
POLYLINE
  5
FA
330
C7
100
AcDbEntity
  8
_U+30EC_U+30A4_U+30E4_U+30FC 1
370
     0
100
AcDb2dPolyline
 66
     1
 10
0.0
 20
0.0
 30
0.0
  0
VERTEX
  5
FB
330
FA
100
AcDbEntity
  8
_U+30EC_U+30A4_U+30E4_U+30FC 1
370
     0
100
AcDbVertex
100
AcDb2dVertex
 10
64.68614635969652
 20
-88.94444170953473
 30
0.0
  0
VERTEX
  5
FC
330
FA
100
AcDbEntity
  8
_U+30EC_U+30A4_U+30E4_U+30FC 1
370
     0
100
AcDbVertex
100
AcDb2dVertex
 10
63.77422958475089
 20
-88.94444170953473
 30
0.0
  0
VERTEX
  5
FD
330
FA
100
AcDbEntity
  8
_U+30EC_U+30A4_U+30E4_U+30FC 1
370
     0
100
AcDbVertex
100
AcDb2dVertex
 10
63.77422958475089
 20
-89.0524454529973
 30
0.0
  0
VERTEX
  5
FE
330
FA
100
AcDbEntity
  8
_U+30EC_U+30A4_U+30E4_U+30FC 1
370
     0
100
AcDbVertex
100
AcDb2dVertex
 10
64.68614635969652
 20
-89.0524454529973
 30
0.0
  0
VERTEX
  5
FF
330
FA
100
AcDbEntity
  8
_U+30EC_U+30A4_U+30E4_U+30FC 1
370
     0
100
AcDbVertex
100
AcDb2dVertex
 10
64.68614635969652
 20
-88.94444170953473
 30
0.0
  0
SEQEND
  5
100
330
FA
100
AcDbEntity
  8
_U+30EC_U+30A4_U+30E4_U+30FC 1
370
     0
  0
SPLINE
  5
101
330
C7
100
AcDbEntity
  8
_U+30EC_U+30A4_U+30E4_U+30FC 1
370
     0
100
AcDbSpline
210
0.0
220
0.0
230
1.0
 70
    11
 71
     3
 72
    74
 73
    70
 74
     0
 42
0.0000000001
 43
0.0000000001
 12
1.0
 22
0.0
 32
0.0
 13
1.0
 23
0.0
 33
0.0
 40
0.0
 40
0.0
 40
0.0
 40
0.0
 40
1.0
 40
1.0
 40
1.0
 40
2.0
 40
2.0
 40
2.0
 40
3.0
 40
3.0
 40
3.0
 40
4.0
 40
4.0
 40
4.0
 40
5.0
 40
5.0
 40
5.0
 40
6.0
 40
6.0
 40
6.0
 40
7.0
 40
7.0
 40
7.0
 40
8.0
 40
8.0
 40
8.0
 40
9.0
 40
9.0
 40
9.0
 40
10.0
 40
10.0
 40
10.0
 40
11.0
 40
11.0
 40
11.0
 40
12.0
 40
12.0
 40
12.0
 40
13.0
 40
13.0
 40
13.0
 40
14.0
 40
14.0
 40
14.0
 40
15.0
 40
15.0
 40
15.0
 40
16.0
 40
16.0
 40
16.0
 40
17.0
 40
17.0
 40
17.0
 40
18.0
 40
18.0
 40
18.0
 40
19.0
 40
19.0
 40
19.0
 40
20.0
 40
20.0
 40
20.0
 40
21.0
 40
21.0
 40
21.0
 40
22.0
 40
22.0
 40
22.0
 40
23.0
 40
23.0
 40
23.0
 40
23.0
 10
65.00343965388804
 20
-88.00100231089905
 30
0.0
 10
65.00343965388804
 20
-88.00100231089905
 30
0.0
 10
64.84255369472686
 20
-88.00100231089905
 30
0.0
 10
64.84255369472686
 20
-88.00100231089905
 30
0.0
 10
64.84255369472686
 20
-88.00100231089905
 30
0.0
 10
64.84255369472686
 20
-88.11520722623509
 30
0.0
 10
64.84255369472686
 20
-88.11520722623509
 30
0.0
 10
64.84255369472686
 20
-88.15534258863825
 30
0.0
 10
64.84909937614884
 20
-88.22941214157112
 30
0.0
 10
64.85323349073114
 20
-88.25490584816197
 30
0.0
 10
64.85323349073114
 20
-88.25490584816197
 30
0.0
 10
64.6417046279368
 20
-88.25490584816197
 30
0.0
 10
64.6417046279368
 20
-88.25490584816197
 30
0.0
 10
64.65238442394107
 20
-88.18927677916797
 30
0.0
 10
64.65445148123223
 20
-88.13002113682167
 30
0.0
 10
64.65445148123223
 20
-88.12795407953051
 30
0.0
 10
64.65445148123223
 20
-88.12795407953051
 30
0.0
 10
64.65445148123223
 20
-88.00513642548135
 30
0.0
 10
64.65445148123223
 20
-88.00513642548135
 30
0.0
 10
64.65445148123223
 20
-88.00513642548135
 30
0.0
 10
64.47461749690218
 20
-88.00513642548135
 30
0.0
 10
64.47461749690218
 20
-88.00513642548135
 30
0.0
 10
64.4556694717333
 20
-88.06439206782765
 30
0.0
 10
64.40881617313391
 20
-88.21046411640225
 30
0.0
 10
64.29478351257214
 20
-88.29297415327399
 30
0.0
 10
64.29478351257214
 20
-88.29297415327399
 30
0.0
 10
64.13803166799327
 20
-88.18720972187681
 30
0.0
 10
64.13803166799327
 20
-88.18720972187681
 30
0.0
 10
64.21210122092614
 20
-88.14052867805168
 30
0.0
 10
64.32854544832759
 20
-88.06663137989307
 30
0.0
 10
64.32854544832759
 20
-87.745031716345
 30
0.0
 10
64.32854544832759
 20
-87.689910188581
 30
0.0
 10
64.32441133374529
 20
-87.64564071159553
 30
0.0
 10
64.32234427645415
 20
-87.60740015170927
 30
0.0
 10
64.39848088667816
 20
-87.6160128904224
 30
0.0
 10
64.47255043961103
 20
-87.62221406229584
 30
0.0
 10
64.53594019653963
 20
-87.62221406229584
 30
0.0
 10
64.71370712357852
 20
-87.62221406229584
 30
0.0
 10
64.91248913307744
 20
-87.56313067472381
 30
0.0
 10
64.97381183271489
 20
-87.53350285355066
 30
0.0
 10
64.97381183271489
 20
-87.53350285355066
 30
0.0
 10
65.10059134657207
 20
-87.66889510612097
 30
0.0
 10
65.10059134657207
 20
-87.66889510612097
 30
0.0
 10
65.1050699707029
 20
-87.67302922070327
 30
0.0
 10
65.10713702799406
 20
-87.68146970464214
 30
0.0
 10
65.10713702799406
 20
-87.68784313128985
 30
0.0
 10
65.10713702799406
 20
-87.70903046852413
 30
0.0
 10
65.09232311740747
 20
-87.71540389517185
 30
0.0
 10
65.07544214952975
 20
-87.71540389517185
 30
0.0
 10
65.0540825575212
 20
-87.71540389517185
 30
0.0
 10
65.03926864693463
 20
-87.70696341123299
 30
0.0
 10
65.02032062176576
 20
-87.69628361522871
 30
0.0
 10
64.84703231885769
 20
-87.75347220028385
 30
0.0
 10
64.62895777464138
 20
-87.77879365210045
 30
0.0
 10
64.49563257936221
 20
-87.78103296416586
 30
0.0
 10
64.49563257936221
 20
-87.78103296416586
 30
0.0
 10
64.49149846477991
 20
-87.86354300103758
 30
0.0
 10
64.49149846477991
 20
-87.86354300103758
 30
0.0
 10
64.49149846477991
 20
-87.86354300103758
 30
0.0
 10
64.76435002721169
 20
-87.86354300103758
 30
0.0
 10
64.76435002721169
 20
-87.86354300103758
 30
0.0
 10
64.82153861226683
 20
-87.86354300103758
 30
0.0
 10
65.08371037869435
 20
-87.84442272109446
 30
0.0
 10
65.12815211045408
 20
-87.83804929444675
 30
0.0
 10
65.12815211045408
 20
-87.83804929444675
 30
0.0
 10
65.12815211045408
 20
-88.00737573754677
 30
0.0
 10
65.12815211045408
 20
-88.00737573754677
 30
0.0
 10
65.09439017469863
 20
-88.00306936819021
 30
0.0
 10
65.0816433214032
 20
-88.00100231089905
 30
0.0
 10
65.00343965388804
 20
-88.00100231089905
 30
0.0
  0
HATCH
  5
102
330
C7
100
AcDbEntity
  8
_U+30EC_U+30A4_U+30E4_U+30FC 1
 62
     7
420
 16777215
100
AcDbHatch
 10
0.0
 20
0.0
 30
0.0
210
0.0
220
0.0
230
1.0
  2
SOLID
 70
     1
 71
     0
 91
        6
 92
        1
 93
        1
 72
     4
 94
        3
 73
     0
 74
     1
 95
       71
 96
       67
 40
0.0
 40
0.0
 40
0.0
 40
0.0
 40
1.0
 40
1.0
 40
1.0
 40
2.0
 40
2.0
 40
2.0
 40
3.0
 40
3.0
 40
3.0
 40
4.0
 40
4.0
 40
4.0
 40
5.0
 40
5.0
 40
5.0
 40
6.0
 40
6.0
 40
6.0
 40
7.0
 40
7.0
 40
7.0
 40
8.0
 40
8.0
 40
8.0
 40
9.0
 40
9.0
 40
9.0
 40
10.0
 40
10.0
 40
10.0
 40
11.0
 40
11.0
 40
11.0
 40
12.0
 40
12.0
 40
12.0
 40
13.0
 40
13.0
 40
13.0
 40
14.0
 40
14.0
 40
14.0
 40
15.0
 40
15.0
 40
15.0
 40
16.0
 40
16.0
 40
16.0
 40
17.0
 40
17.0
 40
17.0
 40
18.0
 40
18.0
 40
18.0
 40
19.0
 40
19.0
 40
19.0
 40
20.0
 40
20.0
 40
20.0
 40
21.0
 40
21.0
 40
21.0
 40
22.0
 40
22.0
 40
22.0
 40
22.0
 10
64.15284557857984
 20
-87.72177732181956
 10
64.13803166799327
 20
-87.72177732181956
 10
64.12562932424638
 20
-87.717470952463
 10
64.10013561765552
 20
-87.70903046852413
 10
63.95819768366323
 20
-87.75553925757501
 10
63.78490938075517
 20
-87.77242022545273
 10
63.64521075882828
 20
-87.77672659480929
 10
63.64521075882828
 20
-87.77672659480929
 10
63.64314370153713
 20
-87.86561005832874
 10
63.64314370153713
 20
-87.86561005832874
 10
63.64314370153713
 20
-87.86561005832874
 10
63.90342066544776
 20
-87.86561005832874
 10
63.90342066544776
 20
-87.86561005832874
 10
63.95613062637208
 20
-87.86561005832874
 10
64.13803166799327
 20
-87.85716957438987
 10
64.182473399753
 20
-87.85079614774217
 10
64.182473399753
 20
-87.85079614774217
 10
64.182473399753
 20
-88.01150985212907
 10
64.182473399753
 20
-88.01150985212907
 10
64.12769638153752
 20
-88.00513642548135
 10
64.00263941542295
 20
-88.00306936819021
 10
63.96474336508521
 20
-88.00513642548135
 10
63.96474336508521
 20
-88.00513642548135
 10
63.96474336508521
 20
-88.11520722623509
 10
63.96474336508521
 20
-88.11520722623509
 10
63.96474336508521
 20
-88.16171601528596
 10
63.96681042237635
 20
-88.22527802698882
 10
63.9730115942498
 20
-88.26334633210084
 10
63.9730115942498
 20
-88.26334633210084
 10
63.7806030113986
 20
-88.26334633210084
 10
63.7806030113986
 20
-88.26334633210084
 10
63.78697643804632
 20
-88.2230387149234
 10
63.79334986469403
 20
-88.14052867805168
 10
63.79334986469403
 20
-88.1257147674651
 10
63.79334986469403
 20
-88.1257147674651
 10
63.79334986469403
 20
-88.00513642548135
 10
63.79334986469403
 20
-88.00513642548135
 10
63.79334986469403
 20
-88.00513642548135
 10
63.62832979095056
 20
-88.00513642548135
 10
63.62832979095056
 20
-88.00513642548135
 10
63.58595511648198
 20
-88.22527802698882
 10
63.53100584349225
 20
-88.30554875179514
 10
63.42524141209508
 20
-88.40511201131886
 10
63.42524141209508
 20
-88.40511201131886
 10
63.25815428106046
 20
-88.29073484120858
 10
63.25815428106046
 20
-88.29073484120858
 10
63.32154403798906
 20
-88.24215899486654
 10
63.47175020114595
 20
-88.13002113682167
 10
63.47175020114595
 20
-87.78103296416586
 10
63.47175020114595
 20
-87.69852292729412
 10
63.46330971720709
 20
-87.65184188346899
 10
63.45486923326823
 20
-87.60326603712697
 10
63.60076902706856
 20
-87.61807994771354
 10
63.61558293765513
 20
-87.61807994771354
 10
63.651584185476
 20
-87.61807994771354
 10
63.75958792893858
 20
-87.61807994771354
 10
63.90135360815661
 20
-87.60119897983581
 10
64.06189505776925
 20
-87.53987628019837
 10
64.06189505776925
 20
-87.53987628019837
 10
64.17627222787955
 20
-87.67096216341213
 10
64.17627222787955
 20
-87.67096216341213
 10
64.182473399753
 20
-87.67733559005984
 10
64.18695202388382
 20
-87.6857760739987
 10
64.18695202388382
 20
-87.69421655793757
 10
64.18695202388382
 20
-87.717470952463
 10
64.16765948916643
 20
-87.72177732181956
 10
64.15284557857984
 20
-87.72177732181956
 97
        0
 97
        0
 92
        1
 93
        1
 72
     4
 94
        3
 73
     0
 74
     1
 95
       74
 96
       70
 40
0.0
 40
0.0
 40
0.0
 40
0.0
 40
1.0
 40
1.0
 40
1.0
 40
2.0
 40
2.0
 40
2.0
 40
3.0
 40
3.0
 40
3.0
 40
4.0
 40
4.0
 40
4.0
 40
5.0
 40
5.0
 40
5.0
 40
6.0
 40
6.0
 40
6.0
 40
7.0
 40
7.0
 40
7.0
 40
8.0
 40
8.0
 40
8.0
 40
9.0
 40
9.0
 40
9.0
 40
10.0
 40
10.0
 40
10.0
 40
11.0
 40
11.0
 40
11.0
 40
12.0
 40
12.0
 40
12.0
 40
13.0
 40
13.0
 40
13.0
 40
14.0
 40
14.0
 40
14.0
 40
15.0
 40
15.0
 40
15.0
 40
16.0
 40
16.0
 40
16.0
 40
17.0
 40
17.0
 40
17.0
 40
18.0
 40
18.0
 40
18.0
 40
19.0
 40
19.0
 40
19.0
 40
20.0
 40
20.0
 40
20.0
 40
21.0
 40
21.0
 40
21.0
 40
22.0
 40
22.0
 40
22.0
 40
23.0
 40
23.0
 40
23.0
 40
23.0
 10
64.99069280059261
 20
-89.48807777710715
 10
64.77709688050712
 20
-89.47774249065141
 10
64.57624781371705
 20
-89.3909260844231
 10
64.40054794396931
 20
-89.27034774243936
 10
64.40054794396931
 20
-89.27034774243936
 10
64.49769963665335
 20
-89.18353133621106
 10
64.49769963665335
 20
-89.18353133621106
 10
64.49769963665335
 20
-89.18353133621106
 10
63.94579533991633
 20
-89.18353133621106
 10
63.94579533991633
 20
-89.18353133621106
 10
63.94579533991633
 20
-89.18353133621106
 10
64.02606606472266
 20
-89.24692109313966
 10
64.02606606472266
 20
-89.24692109313966
 10
64.0322672365961
 20
-89.25122746249623
 10
64.04294703260038
 20
-89.26173500372624
 10
64.04294703260038
 20
-89.27654891431281
 10
64.04294703260038
 20
-89.31685653149023
 10
63.9688774796675
 20
-89.31031085006826
 10
63.95406356908093
 20
-89.3082437927771
 10
63.72358668111772
 20
-89.44811466947826
 10
63.57975394460853
 20
-89.47980954794255
 10
63.47605657050251
 20
-89.49669051582028
 10
63.47605657050251
 20
-89.49669051582028
 10
63.34703774457991
 20
-89.31892358878139
 10
63.34703774457991
 20
-89.31892358878139
 10
63.59456785519511
 20
-89.28722871031708
 10
63.69602591723572
 20
-89.24071992126622
 10
63.78490938075517
 20
-89.18783770556763
 10
63.71083982782229
 20
-89.18990476285877
 10
63.59663491248626
 20
-89.19197182014993
 10
63.56494003402197
 20
-89.19403887744107
 10
63.57975394460853
 20
-89.10532766869589
 10
63.58182100189968
 20
-88.97613658799902
 10
63.58182100189968
 20
-88.90223928984042
 10
63.58182100189968
 20
-88.90223928984042
 10
63.58182100189968
 20
-88.60182696352663
 10
63.58182100189968
 20
-88.60182696352663
 10
63.58182100189968
 20
-88.50226370400291
 10
63.57544757525197
 20
-88.40287269925345
 10
63.56494003402197
 20
-88.30554875179514
 10
63.66639809606257
 20
-88.31192217844286
 10
63.89687498402579
 20
-88.31829560509057
 10
64.00505098226263
 20
-88.31829560509057
 10
64.00505098226263
 20
-88.31829560509057
 10
64.42810870785131
 20
-88.31829560509057
 10
64.42810870785131
 20
-88.31829560509057
 10
64.54661999254391
 20
-88.31829560509057
 10
64.58865015746395
 20
-88.31829560509057
 10
64.67133244910995
 20
-88.31398923573401
 10
64.81947155497569
 20
-88.30778806386056
 10
64.83635252285342
 20
-88.30778806386056
 10
64.88286131190429
 20
-88.30554875179514
 10
64.87424857319117
 20
-88.38599173137573
 10
64.87011445860887
 20
-88.54463837847149
 10
64.87011445860887
 20
-88.62714841534321
 10
64.87011445860887
 20
-88.62714841534321
 10
64.87011445860887
 20
-88.91274683107042
 10
64.87011445860887
 20
-88.91274683107042
 10
64.87011445860887
 20
-88.98474932671215
 10
64.87218151590001
 20
-89.1158352099259
 10
64.88286131190429
 20
-89.19403887744107
 10
64.81085881626257
 20
-89.18990476285877
 10
64.68821341698767
 20
-89.18783770556763
 10
64.6100097494725
 20
-89.18559839350222
 10
64.71990829545197
 20
-89.25346677456163
 10
64.87218151590001
 20
-89.3041096781948
 10
65.08371037869435
 20
-89.3082437927771
 10
65.08371037869435
 20
-89.3082437927771
 10
64.99069280059261
 20
-89.48807777710715
 10
64.99069280059261
 20
-89.48807777710715
 97
        0
 97
        0
 92
        1
 93
        4
 72
     1
 10
64.68614635969652
 20
-88.45368785766088
 11
63.77422958475089
 21
-88.45368785766088
 72
     1
 10
63.77422958475089
 20
-88.45368785766088
 11
63.77422958475089
 21
-88.56582571570577
 72
     1
 10
63.77422958475089
 20
-88.56582571570577
 11
64.68614635969652
 21
-88.56582571570577
 72
     1
 10
64.68614635969652
 20
-88.56582571570577
 11
64.68614635969652
 21
-88.45368785766088
 97
        0
 92
        1
 93
        4
 72
     1
 10
64.68614635969652
 20
-88.69915091098494
 11
63.77422958475089
 21
-88.69915091098494
 72
     1
 10
63.77422958475089
 20
-88.69915091098494
 11
63.77422958475089
 21
-88.8090494569644
 72
     1
 10
63.77422958475089
 20
-88.8090494569644
 11
64.68614635969652
 21
-88.8090494569644
 72
     1
 10
64.68614635969652
 20
-88.8090494569644
 11
64.68614635969652
 21
-88.69915091098494
 97
        0
 92
        1
 93
        4
 72
     1
 10
64.68614635969652
 20
-88.94444170953473
 11
63.77422958475089
 21
-88.94444170953473
 72
     1
 10
63.77422958475089
 20
-88.94444170953473
 11
63.77422958475089
 21
-89.0524454529973
 72
     1
 10
63.77422958475089
 20
-89.0524454529973
 11
64.68614635969652
 21
-89.0524454529973
 72
     1
 10
64.68614635969652
 20
-89.0524454529973
 11
64.68614635969652
 21
-88.94444170953473
 97
        0
 92
        1
 93
        1
 72
     4
 94
        3
 73
     0
 74
     1
 95
       74
 96
       70
 40
0.0
 40
0.0
 40
0.0
 40
0.0
 40
1.0
 40
1.0
 40
1.0
 40
2.0
 40
2.0
 40
2.0
 40
3.0
 40
3.0
 40
3.0
 40
4.0
 40
4.0
 40
4.0
 40
5.0
 40
5.0
 40
5.0
 40
6.0
 40
6.0
 40
6.0
 40
7.0
 40
7.0
 40
7.0
 40
8.0
 40
8.0
 40
8.0
 40
9.0
 40
9.0
 40
9.0
 40
10.0
 40
10.0
 40
10.0
 40
11.0
 40
11.0
 40
11.0
 40
12.0
 40
12.0
 40
12.0
 40
13.0
 40
13.0
 40
13.0
 40
14.0
 40
14.0
 40
14.0
 40
15.0
 40
15.0
 40
15.0
 40
16.0
 40
16.0
 40
16.0
 40
17.0
 40
17.0
 40
17.0
 40
18.0
 40
18.0
 40
18.0
 40
19.0
 40
19.0
 40
19.0
 40
20.0
 40
20.0
 40
20.0
 40
21.0
 40
21.0
 40
21.0
 40
22.0
 40
22.0
 40
22.0
 40
23.0
 40
23.0
 40
23.0
 40
23.0
 10
65.00343965388804
 20
-88.00100231089905
 10
65.00343965388804
 20
-88.00100231089905
 10
64.84255369472686
 20
-88.00100231089905
 10
64.84255369472686
 20
-88.00100231089905
 10
64.84255369472686
 20
-88.00100231089905
 10
64.84255369472686
 20
-88.11520722623509
 10
64.84255369472686
 20
-88.11520722623509
 10
64.84255369472686
 20
-88.15534258863825
 10
64.84909937614884
 20
-88.22941214157112
 10
64.85323349073114
 20
-88.25490584816197
 10
64.85323349073114
 20
-88.25490584816197
 10
64.6417046279368
 20
-88.25490584816197
 10
64.6417046279368
 20
-88.25490584816197
 10
64.65238442394107
 20
-88.18927677916797
 10
64.65445148123223
 20
-88.13002113682167
 10
64.65445148123223
 20
-88.12795407953051
 10
64.65445148123223
 20
-88.12795407953051
 10
64.65445148123223
 20
-88.00513642548135
 10
64.65445148123223
 20
-88.00513642548135
 10
64.65445148123223
 20
-88.00513642548135
 10
64.47461749690218
 20
-88.00513642548135
 10
64.47461749690218
 20
-88.00513642548135
 10
64.4556694717333
 20
-88.06439206782765
 10
64.40881617313391
 20
-88.21046411640225
 10
64.29478351257214
 20
-88.29297415327399
 10
64.29478351257214
 20
-88.29297415327399
 10
64.13803166799327
 20
-88.18720972187681
 10
64.13803166799327
 20
-88.18720972187681
 10
64.21210122092614
 20
-88.14052867805168
 10
64.32854544832759
 20
-88.06663137989307
 10
64.32854544832759
 20
-87.745031716345
 10
64.32854544832759
 20
-87.689910188581
 10
64.32441133374529
 20
-87.64564071159553
 10
64.32234427645415
 20
-87.60740015170927
 10
64.39848088667816
 20
-87.6160128904224
 10
64.47255043961103
 20
-87.62221406229584
 10
64.53594019653963
 20
-87.62221406229584
 10
64.71370712357852
 20
-87.62221406229584
 10
64.91248913307744
 20
-87.56313067472381
 10
64.97381183271489
 20
-87.53350285355066
 10
64.97381183271489
 20
-87.53350285355066
 10
65.10059134657207
 20
-87.66889510612097
 10
65.10059134657207
 20
-87.66889510612097
 10
65.1050699707029
 20
-87.67302922070327
 10
65.10713702799406
 20
-87.68146970464214
 10
65.10713702799406
 20
-87.68784313128985
 10
65.10713702799406
 20
-87.70903046852413
 10
65.09232311740747
 20
-87.71540389517185
 10
65.07544214952975
 20
-87.71540389517185
 10
65.0540825575212
 20
-87.71540389517185
 10
65.03926864693463
 20
-87.70696341123299
 10
65.02032062176576
 20
-87.69628361522871
 10
64.84703231885769
 20
-87.75347220028385
 10
64.62895777464138
 20
-87.77879365210045
 10
64.49563257936221
 20
-87.78103296416586
 10
64.49563257936221
 20
-87.78103296416586
 10
64.49149846477991
 20
-87.86354300103758
 10
64.49149846477991
 20
-87.86354300103758
 10
64.49149846477991
 20
-87.86354300103758
 10
64.76435002721169
 20
-87.86354300103758
 10
64.76435002721169
 20
-87.86354300103758
 10
64.82153861226683
 20
-87.86354300103758
 10
65.08371037869435
 20
-87.84442272109446
 10
65.12815211045408
 20
-87.83804929444675
 10
65.12815211045408
 20
-87.83804929444675
 10
65.12815211045408
 20
-88.00737573754677
 10
65.12815211045408
 20
-88.00737573754677
 10
65.09439017469863
 20
-88.00306936819021
 10
65.0816433214032
 20
-88.00100231089905
 10
65.00343965388804
 20
-88.00100231089905
 97
        0
 97
        0
 75
     2
 76
     1
 98
        0
  0
ENDBLK
  5
CA
330
C7
100
AcDbEntity
  8
0
100
AcDbBlockEnd
  0
BLOCK
  5
111
330
10F
100
AcDbEntity
  8
0
100
AcDbBlockBegin
  2
block 3
 70
     0
 10
0.0
 20
0.0
 30
0.0
  3
block 3
  1

  0
SPLINE
  5
113
330
10F
100
AcDbEntity
  8
_U+30EC_U+30A4_U+30E4_U+30FC 1
370
     0
100
AcDbSpline
210
0.0
220
0.0
230
1.0
 70
    11
 71
     3
 72
    44
 73
    40
 74
     0
 42
0.0000000001
 43
0.0000000001
 12
1.0
 22
0.0
 32
0.0
 13
1.0
 23
0.0
 33
0.0
 40
0.0
 40
0.0
 40
0.0
 40
0.0
 40
1.0
 40
1.0
 40
1.0
 40
2.0
 40
2.0
 40
2.0
 40
3.0
 40
3.0
 40
3.0
 40
4.0
 40
4.0
 40
4.0
 40
5.0
 40
5.0
 40
5.0
 40
6.0
 40
6.0
 40
6.0
 40
7.0
 40
7.0
 40
7.0
 40
8.0
 40
8.0
 40
8.0
 40
9.0
 40
9.0
 40
9.0
 40
10.0
 40
10.0
 40
10.0
 40
11.0
 40
11.0
 40
11.0
 40
12.0
 40
12.0
 40
12.0
 40
13.0
 40
13.0
 40
13.0
 40
13.0
 10
44.10549044036252
 20
-76.7129746987037
 30
0.0
 10
43.88758815092046
 20
-76.87162134579945
 30
0.0
 10
43.79457057281872
 20
-76.94569089873234
 30
0.0
 10
43.74582247170243
 20
-77.0895236352415
 30
0.0
 10
43.74582247170243
 20
-77.0895236352415
 30
0.0
 10
44.5244140513689
 20
-77.0895236352415
 30
0.0
 10
44.5244140513689
 20
-77.0895236352415
 30
0.0
 10
44.5244140513689
 20
-77.0895236352415
 30
0.0
 10
44.5244140513689
 20
-77.29467907138815
 30
0.0
 10
44.5244140513689
 20
-77.29467907138815
 30
0.0
 10
44.5244140513689
 20
-77.29467907138815
 30
0.0
 10
43.49622530379609
 20
-77.29467907138815
 30
0.0
 10
43.49622530379609
 20
-77.29467907138815
 30
0.0
 10
43.52792018226038
 20
-76.93725041479347
 30
0.0
 10
43.59354925125439
 20
-76.85887449250403
 30
0.0
 10
43.97853867173106
 20
-76.56070147825567
 30
0.0
 10
44.23450926628512
 20
-76.36174721398248
 30
0.0
 10
44.30013833527914
 20
-76.29405108769733
 30
0.0
 10
44.30013833527914
 20
-76.15659177783586
 30
0.0
 10
44.30013833527914
 20
-76.03808049314326
 30
0.0
 10
44.22813583963741
 20
-75.9069946099295
 30
0.0
 10
44.03142088742965
 20
-75.9069946099295
 30
0.0
 10
43.77131617829328
 20
-75.9069946099295
 30
0.0
 10
43.76270343958016
 20
-76.13747149789272
 30
0.0
 10
43.75856932499786
 20
-76.25391572529416
 30
0.0
 10
43.75856932499786
 20
-76.25391572529416
 30
0.0
 10
43.53429360890809
 20
-76.25391572529416
 30
0.0
 10
43.53429360890809
 20
-76.25391572529416
 30
0.0
 10
43.54273409284696
 20
-76.1269639566627
 30
0.0
 10
43.55341388885123
 20
-76.01482609861783
 30
0.0
 10
43.63368461365755
 20
-75.89631481392523
 30
0.0
 10
43.74375541441128
 20
-75.73560110953832
 30
0.0
 10
43.92996282538904
 20
-75.70166691900862
 30
0.0
 10
44.04623479801622
 20
-75.70166691900862
 30
0.0
 10
44.32339272980457
 20
-75.70166691900862
 30
0.0
 10
44.53061522324235
 20
-75.88580727269522
 30
0.0
 10
44.53061522324235
 20
-76.158658835127
 30
0.0
 10
44.53061522324235
 20
-76.38724092057333
 30
0.0
 10
44.41434325061517
 20
-76.48663192532278
 30
0.0
 10
44.10549044036252
 20
-76.7129746987037
 30
0.0
  0
HATCH
  5
114
330
10F
100
AcDbEntity
  8
_U+30EC_U+30A4_U+30E4_U+30FC 1
 62
     7
420
 16777215
100
AcDbHatch
 10
0.0
 20
0.0
 30
0.0
210
0.0
220
0.0
230
1.0
  2
SOLID
 70
     1
 71
     0
 91
        1
 92
        1
 93
        1
 72
     4
 94
        3
 73
     0
 74
     1
 95
       44
 96
       40
 40
0.0
 40
0.0
 40
0.0
 40
0.0
 40
1.0
 40
1.0
 40
1.0
 40
2.0
 40
2.0
 40
2.0
 40
3.0
 40
3.0
 40
3.0
 40
4.0
 40
4.0
 40
4.0
 40
5.0
 40
5.0
 40
5.0
 40
6.0
 40
6.0
 40
6.0
 40
7.0
 40
7.0
 40
7.0
 40
8.0
 40
8.0
 40
8.0
 40
9.0
 40
9.0
 40
9.0
 40
10.0
 40
10.0
 40
10.0
 40
11.0
 40
11.0
 40
11.0
 40
12.0
 40
12.0
 40
12.0
 40
13.0
 40
13.0
 40
13.0
 40
13.0
 10
44.10549044036252
 20
-76.7129746987037
 10
43.88758815092046
 20
-76.87162134579945
 10
43.79457057281872
 20
-76.94569089873234
 10
43.74582247170243
 20
-77.0895236352415
 10
43.74582247170243
 20
-77.0895236352415
 10
44.5244140513689
 20
-77.0895236352415
 10
44.5244140513689
 20
-77.0895236352415
 10
44.5244140513689
 20
-77.0895236352415
 10
44.5244140513689
 20
-77.29467907138815
 10
44.5244140513689
 20
-77.29467907138815
 10
44.5244140513689
 20
-77.29467907138815
 10
43.49622530379609
 20
-77.29467907138815
 10
43.49622530379609
 20
-77.29467907138815
 10
43.52792018226038
 20
-76.93725041479347
 10
43.59354925125439
 20
-76.85887449250403
 10
43.97853867173106
 20
-76.56070147825567
 10
44.23450926628512
 20
-76.36174721398248
 10
44.30013833527914
 20
-76.29405108769733
 10
44.30013833527914
 20
-76.15659177783586
 10
44.30013833527914
 20
-76.03808049314326
 10
44.22813583963741
 20
-75.9069946099295
 10
44.03142088742965
 20
-75.9069946099295
 10
43.77131617829328
 20
-75.9069946099295
 10
43.76270343958016
 20
-76.13747149789272
 10
43.75856932499786
 20
-76.25391572529416
 10
43.75856932499786
 20
-76.25391572529416
 10
43.53429360890809
 20
-76.25391572529416
 10
43.53429360890809
 20
-76.25391572529416
 10
43.54273409284696
 20
-76.1269639566627
 10
43.55341388885123
 20
-76.01482609861783
 10
43.63368461365755
 20
-75.89631481392523
 10
43.74375541441128
 20
-75.73560110953832
 10
43.92996282538904
 20
-75.70166691900862
 10
44.04623479801622
 20
-75.70166691900862
 10
44.32339272980457
 20
-75.70166691900862
 10
44.53061522324235
 20
-75.88580727269522
 10
44.53061522324235
 20
-76.158658835127
 10
44.53061522324235
 20
-76.38724092057333
 10
44.41434325061517
 20
-76.48663192532278
 10
44.10549044036252
 20
-76.7129746987037
 97
        0
 97
        0
 75
     2
 76
     1
 98
        0
  0
SPLINE
  5
115
330
10F
100
AcDbEntity
  8
_U+30EC_U+30A4_U+30E4_U+30FC 1
370
     0
100
AcDbSpline
210
0.0
220
0.0
230
1.0
 70
    11
 71
     3
 72
    44
 73
    40
 74
     0
 42
0.0000000001
 43
0.0000000001
 12
1.0
 22
0.0
 32
0.0
 13
1.0
 23
0.0
 33
0.0
 40
0.0
 40
0.0
 40
0.0
 40
0.0
 40
1.0
 40
1.0
 40
1.0
 40
2.0
 40
2.0
 40
2.0
 40
3.0
 40
3.0
 40
3.0
 40
4.0
 40
4.0
 40
4.0
 40
5.0
 40
5.0
 40
5.0
 40
6.0
 40
6.0
 40
6.0
 40
7.0
 40
7.0
 40
7.0
 40
8.0
 40
8.0
 40
8.0
 40
9.0
 40
9.0
 40
9.0
 40
10.0
 40
10.0
 40
10.0
 40
11.0
 40
11.0
 40
11.0
 40
12.0
 40
12.0
 40
12.0
 40
13.0
 40
13.0
 40
13.0
 40
13.0
 10
45.28233505812386
 20
-76.7129746987037
 30
0.0
 10
45.06443276868181
 20
-76.87162134579945
 30
0.0
 10
44.97141519058007
 20
-76.94569089873234
 30
0.0
 10
44.92266708946378
 20
-77.0895236352415
 30
0.0
 10
44.92266708946378
 20
-77.0895236352415
 30
0.0
 10
45.70125866913024
 20
-77.0895236352415
 30
0.0
 10
45.70125866913024
 20
-77.0895236352415
 30
0.0
 10
45.70125866913024
 20
-77.0895236352415
 30
0.0
 10
45.70125866913024
 20
-77.29467907138815
 30
0.0
 10
45.70125866913024
 20
-77.29467907138815
 30
0.0
 10
45.70125866913024
 20
-77.29467907138815
 30
0.0
 10
44.67306992155743
 20
-77.29467907138815
 30
0.0
 10
44.67306992155743
 20
-77.29467907138815
 30
0.0
 10
44.70476480002173
 20
-76.93725041479347
 30
0.0
 10
44.77039386901573
 20
-76.85887449250403
 30
0.0
 10
45.15538328949241
 20
-76.56070147825567
 30
0.0
 10
45.41135388404647
 20
-76.36174721398248
 30
0.0
 10
45.47698295304048
 20
-76.29405108769733
 30
0.0
 10
45.47698295304048
 20
-76.15659177783586
 30
0.0
 10
45.47698295304048
 20
-76.03808049314326
 30
0.0
 10
45.40498045739876
 20
-75.9069946099295
 30
0.0
 10
45.20826550519099
 20
-75.9069946099295
 30
0.0
 10
44.94816079605463
 20
-75.9069946099295
 30
0.0
 10
44.9395480573415
 20
-76.13747149789272
 30
0.0
 10
44.9354139427592
 20
-76.25391572529416
 30
0.0
 10
44.9354139427592
 20
-76.25391572529416
 30
0.0
 10
44.71113822666944
 20
-76.25391572529416
 30
0.0
 10
44.71113822666944
 20
-76.25391572529416
 30
0.0
 10
44.7195787106083
 20
-76.1269639566627
 30
0.0
 10
44.73025850661258
 20
-76.01482609861783
 30
0.0
 10
44.8105292314189
 20
-75.89631481392523
 30
0.0
 10
44.92060003217263
 20
-75.73560110953832
 30
0.0
 10
45.10680744315038
 20
-75.70166691900862
 30
0.0
 10
45.22307941577757
 20
-75.70166691900862
 30
0.0
 10
45.50023734756591
 20
-75.70166691900862
 30
0.0
 10
45.70763209577795
 20
-75.88580727269522
 30
0.0
 10
45.70763209577795
 20
-76.158658835127
 30
0.0
 10
45.70763209577795
 20
-76.38724092057333
 30
0.0
 10
45.59118786837651
 20
-76.48663192532278
 30
0.0
 10
45.28233505812386
 20
-76.7129746987037
 30
0.0
  0
HATCH
  5
116
330
10F
100
AcDbEntity
  8
_U+30EC_U+30A4_U+30E4_U+30FC 1
 62
     7
420
 16777215
100
AcDbHatch
 10
0.0
 20
0.0
 30
0.0
210
0.0
220
0.0
230
1.0
  2
SOLID
 70
     1
 71
     0
 91
        1
 92
        1
 93
        1
 72
     4
 94
        3
 73
     0
 74
     1
 95
       44
 96
       40
 40
0.0
 40
0.0
 40
0.0
 40
0.0
 40
1.0
 40
1.0
 40
1.0
 40
2.0
 40
2.0
 40
2.0
 40
3.0
 40
3.0
 40
3.0
 40
4.0
 40
4.0
 40
4.0
 40
5.0
 40
5.0
 40
5.0
 40
6.0
 40
6.0
 40
6.0
 40
7.0
 40
7.0
 40
7.0
 40
8.0
 40
8.0
 40
8.0
 40
9.0
 40
9.0
 40
9.0
 40
10.0
 40
10.0
 40
10.0
 40
11.0
 40
11.0
 40
11.0
 40
12.0
 40
12.0
 40
12.0
 40
13.0
 40
13.0
 40
13.0
 40
13.0
 10
45.28233505812386
 20
-76.7129746987037
 10
45.06443276868181
 20
-76.87162134579945
 10
44.97141519058007
 20
-76.94569089873234
 10
44.92266708946378
 20
-77.0895236352415
 10
44.92266708946378
 20
-77.0895236352415
 10
45.70125866913024
 20
-77.0895236352415
 10
45.70125866913024
 20
-77.0895236352415
 10
45.70125866913024
 20
-77.0895236352415
 10
45.70125866913024
 20
-77.29467907138815
 10
45.70125866913024
 20
-77.29467907138815
 10
45.70125866913024
 20
-77.29467907138815
 10
44.67306992155743
 20
-77.29467907138815
 10
44.67306992155743
 20
-77.29467907138815
 10
44.70476480002173
 20
-76.93725041479347
 10
44.77039386901573
 20
-76.85887449250403
 10
45.15538328949241
 20
-76.56070147825567
 10
45.41135388404647
 20
-76.36174721398248
 10
45.47698295304048
 20
-76.29405108769733
 10
45.47698295304048
 20
-76.15659177783586
 10
45.47698295304048
 20
-76.03808049314326
 10
45.40498045739876
 20
-75.9069946099295
 10
45.20826550519099
 20
-75.9069946099295
 10
44.94816079605463
 20
-75.9069946099295
 10
44.9395480573415
 20
-76.13747149789272
 10
44.9354139427592
 20
-76.25391572529416
 10
44.9354139427592
 20
-76.25391572529416
 10
44.71113822666944
 20
-76.25391572529416
 10
44.71113822666944
 20
-76.25391572529416
 10
44.7195787106083
 20
-76.1269639566627
 10
44.73025850661258
 20
-76.01482609861783
 10
44.8105292314189
 20
-75.89631481392523
 10
44.92060003217263
 20
-75.73560110953832
 10
45.10680744315038
 20
-75.70166691900862
 10
45.22307941577757
 20
-75.70166691900862
 10
45.50023734756591
 20
-75.70166691900862
 10
45.70763209577795
 20
-75.88580727269522
 10
45.70763209577795
 20
-76.158658835127
 10
45.70763209577795
 20
-76.38724092057333
 10
45.59118786837651
 20
-76.48663192532278
 10
45.28233505812386
 20
-76.7129746987037
 97
        0
 97
        0
 75
     2
 76
     1
 98
        0
  0
ENDBLK
  5
112
330
10F
100
AcDbEntity
  8
0
100
AcDbBlockEnd
  0
BLOCK
  5
119
330
117
100
AcDbEntity
  8
0
100
AcDbBlockBegin
  2
block 4
 70
     0
 10
0.0
 20
0.0
 30
0.0
  3
block 4
  1

  0
SPLINE
  5
11B
330
117
100
AcDbEntity
  8
_U+30EC_U+30A4_U+30E4_U+30FC 1
 62
     7
420
 16777215
370
    25
100
AcDbSpline
210
0.0
220
0.0
230
1.0
 70
    11
 71
     3
 72
    17
 73
    13
 74
     0
 42
0.0000000001
 43
0.0000000001
 12
1.0
 22
0.0
 32
0.0
 13
1.0
 23
0.0
 33
0.0
 40
0.0
 40
0.0
 40
0.0
 40
0.0
 40
1.0
 40
1.0
 40
1.0
 40
2.0
 40
2.0
 40
2.0
 40
3.0
 40
3.0
 40
3.0
 40
4.0
 40
4.0
 40
4.0
 40
4.0
 10
55.63623054164644
 20
-81.6675263684719
 30
0.0
 10
55.63623054164644
 20
-81.68682331291173
 30
0.0
 10
55.62038941433898
 20
-81.70266303512994
 30
0.0
 10
55.60109247038685
 20
-81.70266303512994
 30
0.0
 10
55.5817955264347
 20
-81.70266303512994
 30
0.0
 10
55.56595580461659
 20
-81.68682331291173
 30
0.0
 10
55.56595580461659
 20
-81.6675263684719
 30
0.0
 10
55.56595580461659
 20
-81.64791192403247
 30
0.0
 10
55.5817955264347
 20
-81.63203692403641
 30
0.0
 10
55.60109247038685
 20
-81.63203692403641
 30
0.0
 10
55.62038941433898
 20
-81.63203692403641
 30
0.0
 10
55.63623054164644
 20
-81.64791192403247
 30
0.0
 10
55.63623054164644
 20
-81.6675263684719
 30
0.0
  0
ENDBLK
  5
11A
330
117
100
AcDbEntity
  8
0
100
AcDbBlockEnd
  0
BLOCK
  5
11E
330
11C
100
AcDbEntity
  8
0
100
AcDbBlockBegin
  2
block 5
 70
     0
 10
0.0
 20
0.0
 30
0.0
  3
block 5
  1

  0
SPLINE
  5
120
330
11C
100
AcDbEntity
  8
_U+30EC_U+30A4_U+30E4_U+30FC 1
 62
     7
420
 16777215
370
    25
100
AcDbSpline
210
0.0
220
0.0
230
1.0
 70
    11
 71
     3
 72
    17
 73
    13
 74
     0
 42
0.0000000001
 43
0.0000000001
 12
1.0
 22
0.0
 32
0.0
 13
1.0
 23
0.0
 33
0.0
 40
0.0
 40
0.0
 40
0.0
 40
0.0
 40
1.0
 40
1.0
 40
1.0
 40
2.0
 40
2.0
 40
2.0
 40
3.0
 40
3.0
 40
3.0
 40
4.0
 40
4.0
 40
4.0
 40
4.0
 10
33.63654971381317
 20
-81.6675263684719
 30
0.0
 10
33.63654971381317
 20
-81.68682331291173
 30
0.0
 10
33.62067471381712
 20
-81.70266303512994
 30
0.0
 10
33.60070749159993
 20
-81.70266303512994
 30
0.0
 10
33.5814105471601
 20
-81.70266303512994
 30
0.0
 10
33.56557082494189
 20
-81.68682331291173
 30
0.0
 10
33.56557082494189
 20
-81.6675263684719
 30
0.0
 10
33.56557082494189
 20
-81.64791192403247
 30
0.0
 10
33.5814105471601
 20
-81.63203692403641
 30
0.0
 10
33.60070749159993
 20
-81.63203692403641
 30
0.0
 10
33.62067471381712
 20
-81.63203692403641
 30
0.0
 10
33.63654971381317
 20
-81.64791192403247
 30
0.0
 10
33.63654971381317
 20
-81.6675263684719
 30
0.0
  0
ENDBLK
  5
11F
330
11C
100
AcDbEntity
  8
0
100
AcDbBlockEnd
  0
BLOCK
  5
123
330
121
100
AcDbEntity
  8
0
100
AcDbBlockBegin
  2
block 6
 70
     0
 10
0.0
 20
0.0
 30
0.0
  3
block 6
  1

  0
SPLINE
  5
125
330
121
100
AcDbEntity
  8
_U+30EC_U+30A4_U+30E4_U+30FC 1
 62
     7
420
 16777215
370
     9
100
AcDbSpline
210
0.0
220
0.0
230
1.0
 70
    11
 71
     3
 72
    17
 73
    13
 74
     0
 42
0.0000000001
 43
0.0000000001
 12
1.0
 22
0.0
 32
0.0
 13
1.0
 23
0.0
 33
0.0
 40
0.0
 40
0.0
 40
0.0
 40
0.0
 40
1.0
 40
1.0
 40
1.0
 40
2.0
 40
2.0
 40
2.0
 40
3.0
 40
3.0
 40
3.0
 40
4.0
 40
4.0
 40
4.0
 40
4.0
 10
33.63654971381317
 20
-77.66744970280541
 30
0.0
 10
33.63654971381317
 20
-77.68706414724485
 30
0.0
 10
33.62067471381712
 20
-77.70258636946315
 30
0.0
 10
33.60070749159993
 20
-77.70258636946315
 30
0.0
 10
33.5814105471601
 20
-77.70258636946315
 30
0.0
 10
33.56557082494189
 20
-77.68706414724485
 30
0.0
 10
33.56557082494189
 20
-77.66744970280541
 30
0.0
 10
33.56557082494189
 20
-77.64779998058815
 30
0.0
 10
33.5814105471601
 20
-77.63231303614737
 30
0.0
 10
33.60070749159993
 20
-77.63231303614737
 30
0.0
 10
33.62067471381712
 20
-77.63231303614737
 30
0.0
 10
33.63654971381317
 20
-77.64779998058815
 30
0.0
 10
33.63654971381317
 20
-77.66744970280541
 30
0.0
  0
ENDBLK
  5
124
330
121
100
AcDbEntity
  8
0
100
AcDbBlockEnd
  0
BLOCK
  5
130
330
12E
100
AcDbEntity
  8
0
100
AcDbBlockBegin
  2
block 7
 70
     0
 10
0.0
 20
0.0
 30
0.0
  3
block 7
  1

  0
SPLINE
  5
132
330
12E
100
AcDbEntity
  8
_U+30EC_U+30A4_U+30E4_U+30FC 1
370
     0
100
AcDbSpline
210
0.0
220
0.0
230
1.0
 70
    11
 71
     3
 72
    26
 73
    22
 74
     0
 42
0.0000000001
 43
0.0000000001
 12
1.0
 22
0.0
 32
0.0
 13
1.0
 23
0.0
 33
0.0
 40
0.0
 40
0.0
 40
0.0
 40
0.0
 40
1.0
 40
1.0
 40
1.0
 40
2.0
 40
2.0
 40
2.0
 40
3.0
 40
3.0
 40
3.0
 40
4.0
 40
4.0
 40
4.0
 40
5.0
 40
5.0
 40
5.0
 40
6.0
 40
6.0
 40
6.0
 40
7.0
 40
7.0
 40
7.0
 40
7.0
 10
59.96343721374178
 20
-77.29467907138815
 30
0.0
 10
59.96343721374178
 20
-77.29467907138815
 30
0.0
 10
59.96343721374178
 20
-76.1903537135913
 30
0.0
 10
59.96343721374178
 20
-76.1903537135913
 30
0.0
 10
59.96343721374178
 20
-76.1903537135913
 30
0.0
 10
59.63339706625485
 20
-76.1903537135913
 30
0.0
 10
59.63339706625485
 20
-76.1903537135913
 30
0.0
 10
59.63339706625485
 20
-76.1903537135913
 30
0.0
 10
59.63339706625485
 20
-76.04238686249982
 30
0.0
 10
59.63339706625485
 20
-76.04238686249982
 30
0.0
 10
59.96550427103293
 20
-76.02757295191324
 30
0.0
 10
60.01218531485807
 20
-75.86461993546094
 30
0.0
 10
60.04181313603122
 20
-75.7504150201249
 30
0.0
 10
60.04181313603122
 20
-75.7504150201249
 30
0.0
 10
60.18771292983155
 20
-75.7504150201249
 30
0.0
 10
60.18771292983155
 20
-75.7504150201249
 30
0.0
 10
60.18771292983155
 20
-75.7504150201249
 30
0.0
 10
60.18771292983155
 20
-77.29467907138815
 30
0.0
 10
60.18771292983155
 20
-77.29467907138815
 30
0.0
 10
60.18771292983155
 20
-77.29467907138815
 30
0.0
 10
59.96343721374178
 20
-77.29467907138815
 30
0.0
 10
59.96343721374178
 20
-77.29467907138815
 30
0.0
  0
HATCH
  5
133
330
12E
100
AcDbEntity
  8
_U+30EC_U+30A4_U+30E4_U+30FC 1
 62
     7
420
 16777215
100
AcDbHatch
 10
0.0
 20
0.0
 30
0.0
210
0.0
220
0.0
230
1.0
  2
SOLID
 70
     1
 71
     0
 91
        1
 92
        1
 93
        1
 72
     4
 94
        3
 73
     0
 74
     1
 95
       26
 96
       22
 40
0.0
 40
0.0
 40
0.0
 40
0.0
 40
1.0
 40
1.0
 40
1.0
 40
2.0
 40
2.0
 40
2.0
 40
3.0
 40
3.0
 40
3.0
 40
4.0
 40
4.0
 40
4.0
 40
5.0
 40
5.0
 40
5.0
 40
6.0
 40
6.0
 40
6.0
 40
7.0
 40
7.0
 40
7.0
 40
7.0
 10
59.96343721374178
 20
-77.29467907138815
 10
59.96343721374178
 20
-77.29467907138815
 10
59.96343721374178
 20
-76.1903537135913
 10
59.96343721374178
 20
-76.1903537135913
 10
59.96343721374178
 20
-76.1903537135913
 10
59.63339706625485
 20
-76.1903537135913
 10
59.63339706625485
 20
-76.1903537135913
 10
59.63339706625485
 20
-76.1903537135913
 10
59.63339706625485
 20
-76.04238686249982
 10
59.63339706625485
 20
-76.04238686249982
 10
59.96550427103293
 20
-76.02757295191324
 10
60.01218531485807
 20
-75.86461993546094
 10
60.04181313603122
 20
-75.7504150201249
 10
60.04181313603122
 20
-75.7504150201249
 10
60.18771292983155
 20
-75.7504150201249
 10
60.18771292983155
 20
-75.7504150201249
 10
60.18771292983155
 20
-75.7504150201249
 10
60.18771292983155
 20
-77.29467907138815
 10
60.18771292983155
 20
-77.29467907138815
 10
60.18771292983155
 20
-77.29467907138815
 10
59.96343721374178
 20
-77.29467907138815
 10
59.96343721374178
 20
-77.29467907138815
 97
        0
 97
        0
 75
     2
 76
     1
 98
        0
  0
SPLINE
  5
134
330
12E
100
AcDbEntity
  8
_U+30EC_U+30A4_U+30E4_U+30FC 1
370
     0
100
AcDbSpline
210
0.0
220
0.0
230
1.0
 70
    11
 71
     3
 72
    29
 73
    25
 74
     0
 42
0.0000000001
 43
0.0000000001
 12
1.0
 22
0.0
 32
0.0
 13
1.0
 23
0.0
 33
0.0
 40
0.0
 40
0.0
 40
0.0
 40
0.0
 40
1.0
 40
1.0
 40
1.0
 40
2.0
 40
2.0
 40
2.0
 40
3.0
 40
3.0
 40
3.0
 40
4.0
 40
4.0
 40
4.0
 40
5.0
 40
5.0
 40
5.0
 40
6.0
 40
6.0
 40
6.0
 40
7.0
 40
7.0
 40
7.0
 40
8.0
 40
8.0
 40
8.0
 40
8.0
 10
61.58676620639151
 20
-77.11708439912351
 30
0.0
 10
61.47876246292892
 20
-77.32637394985244
 30
0.0
 10
61.30530190524659
 20
-77.34549422979558
 30
0.0
 10
61.18902993261941
 20
-77.34549422979558
 30
0.0
 10
61.02814397345824
 20
-77.34549422979558
 30
0.0
 10
60.88637829424022
 20
-77.2989854407447
 30
0.0
 10
60.79129365884732
 20
-77.11708439912351
 30
0.0
 10
60.6875962847413
 20
-76.9224365042069
 30
0.0
 10
60.66847600479816
 20
-76.68541393482171
 30
0.0
 10
60.66847600479816
 20
-76.52263317314365
 30
0.0
 10
60.66847600479816
 20
-76.37862818186021
 30
0.0
 10
60.68552922745015
 20
-76.1269639566627
 30
0.0
 10
60.79129365884732
 20
-75.9281819471638
 30
0.0
 10
60.89912514753563
 20
-75.72492131353405
 30
0.0
 10
61.06001110669681
 20
-75.70166691900862
 30
0.0
 10
61.18902993261941
 20
-75.70166691900862
 30
0.0
 10
61.34767657971517
 20
-75.70166691900862
 30
0.0
 10
61.49150931622435
 20
-75.74610865076833
 30
0.0
 10
61.58676620639151
 20
-75.9281819471638
 30
0.0
 10
61.68615721114097
 20
-76.120590530015
 30
0.0
 10
61.7094116056664
 20
-76.34900036068706
 30
0.0
 10
61.7094116056664
 20
-76.52263317314365
 30
0.0
 10
61.7094116056664
 20
-76.69385441876057
 30
0.0
 10
61.68822426843212
 20
-76.92450356149804
 30
0.0
 10
61.58676620639151
 20
-77.11708439912351
 30
0.0
  0
SPLINE
  5
135
330
12E
100
AcDbEntity
  8
_U+30EC_U+30A4_U+30E4_U+30FC 1
370
     0
100
AcDbSpline
210
0.0
220
0.0
230
1.0
 70
    11
 71
     3
 72
    17
 73
    13
 74
     0
 42
0.0000000001
 43
0.0000000001
 12
1.0
 22
0.0
 32
0.0
 13
1.0
 23
0.0
 33
0.0
 40
0.0
 40
0.0
 40
0.0
 40
0.0
 40
1.0
 40
1.0
 40
1.0
 40
2.0
 40
2.0
 40
2.0
 40
3.0
 40
3.0
 40
3.0
 40
4.0
 40
4.0
 40
4.0
 40
4.0
 10
61.18902993261941
 20
-75.89424775663409
 30
0.0
 10
60.9392605099388
 20
-75.89424775663409
 30
0.0
 10
60.89275172088793
 20
-76.17777911507014
 30
0.0
 10
60.89275172088793
 20
-76.52263317314365
 30
0.0
 10
60.89275172088793
 20
-76.8419935246263
 30
0.0
 10
60.92875296870879
 20
-77.15084633487896
 30
0.0
 10
61.18902993261941
 20
-77.15084633487896
 30
0.0
 10
61.43656004323461
 20
-77.15084633487896
 30
0.0
 10
61.48513588957663
 20
-76.86955428850831
 30
0.0
 10
61.48513588957663
 20
-76.52263317314365
 30
0.0
 10
61.48513588957663
 20
-76.20310056688673
 30
0.0
 10
61.44706758446463
 20
-75.89424775663409
 30
0.0
 10
61.18902993261941
 20
-75.89424775663409
 30
0.0
  0
HATCH
  5
136
330
12E
100
AcDbEntity
  8
_U+30EC_U+30A4_U+30E4_U+30FC 1
 62
     7
420
 16777215
100
AcDbHatch
 10
0.0
 20
0.0
 30
0.0
210
0.0
220
0.0
230
1.0
  2
SOLID
 70
     1
 71
     0
 91
        2
 92
        1
 93
        1
 72
     4
 94
        3
 73
     0
 74
     1
 95
       29
 96
       25
 40
0.0
 40
0.0
 40
0.0
 40
0.0
 40
1.0
 40
1.0
 40
1.0
 40
2.0
 40
2.0
 40
2.0
 40
3.0
 40
3.0
 40
3.0
 40
4.0
 40
4.0
 40
4.0
 40
5.0
 40
5.0
 40
5.0
 40
6.0
 40
6.0
 40
6.0
 40
7.0
 40
7.0
 40
7.0
 40
8.0
 40
8.0
 40
8.0
 40
8.0
 10
61.58676620639151
 20
-77.11708439912351
 10
61.47876246292892
 20
-77.32637394985244
 10
61.30530190524659
 20
-77.34549422979558
 10
61.18902993261941
 20
-77.34549422979558
 10
61.02814397345824
 20
-77.34549422979558
 10
60.88637829424022
 20
-77.2989854407447
 10
60.79129365884732
 20
-77.11708439912351
 10
60.6875962847413
 20
-76.9224365042069
 10
60.66847600479816
 20
-76.68541393482171
 10
60.66847600479816
 20
-76.52263317314365
 10
60.66847600479816
 20
-76.37862818186021
 10
60.68552922745015
 20
-76.1269639566627
 10
60.79129365884732
 20
-75.9281819471638
 10
60.89912514753563
 20
-75.72492131353405
 10
61.06001110669681
 20
-75.70166691900862
 10
61.18902993261941
 20
-75.70166691900862
 10
61.34767657971517
 20
-75.70166691900862
 10
61.49150931622435
 20
-75.74610865076833
 10
61.58676620639151
 20
-75.9281819471638
 10
61.68615721114097
 20
-76.120590530015
 10
61.7094116056664
 20
-76.34900036068706
 10
61.7094116056664
 20
-76.52263317314365
 10
61.7094116056664
 20
-76.69385441876057
 10
61.68822426843212
 20
-76.92450356149804
 10
61.58676620639151
 20
-77.11708439912351
 97
        0
 97
        0
 92
        1
 93
        1
 72
     4
 94
        3
 73
     0
 74
     1
 95
       17
 96
       13
 40
0.0
 40
0.0
 40
0.0
 40
0.0
 40
1.0
 40
1.0
 40
1.0
 40
2.0
 40
2.0
 40
2.0
 40
3.0
 40
3.0
 40
3.0
 40
4.0
 40
4.0
 40
4.0
 40
4.0
 10
61.18902993261941
 20
-75.89424775663409
 10
60.9392605099388
 20
-75.89424775663409
 10
60.89275172088793
 20
-76.17777911507014
 10
60.89275172088793
 20
-76.52263317314365
 10
60.89275172088793
 20
-76.8419935246263
 10
60.92875296870879
 20
-77.15084633487896
 10
61.18902993261941
 20
-77.15084633487896
 10
61.43656004323461
 20
-77.15084633487896
 10
61.48513588957663
 20
-76.86955428850831
 10
61.48513588957663
 20
-76.52263317314365
 10
61.48513588957663
 20
-76.20310056688673
 10
61.44706758446463
 20
-75.89424775663409
 10
61.18902993261941
 20
-75.89424775663409
 97
        0
 97
        0
 75
     2
 76
     1
 98
        0
  0
ENDBLK
  5
131
330
12E
100
AcDbEntity
  8
0
100
AcDbBlockEnd
  0
BLOCK
  5
139
330
137
100
AcDbEntity
  8
0
100
AcDbBlockBegin
  2
block 8
 70
     0
 10
0.0
 20
0.0
 30
0.0
  3
block 8
  1

  0
SPLINE
  5
13B
330
137
100
AcDbEntity
  8
_U+30EC_U+30A4_U+30E4_U+30FC 1
 62
     7
420
 16777215
370
    25
100
AcDbSpline
210
0.0
220
0.0
230
1.0
 70
    11
 71
     3
 72
    17
 73
    13
 74
     0
 42
0.0000000001
 43
0.0000000001
 12
1.0
 22
0.0
 32
0.0
 13
1.0
 23
0.0
 33
0.0
 40
0.0
 40
0.0
 40
0.0
 40
0.0
 40
1.0
 40
1.0
 40
1.0
 40
2.0
 40
2.0
 40
2.0
 40
3.0
 40
3.0
 40
3.0
 40
4.0
 40
4.0
 40
4.0
 40
4.0
 10
55.63623054164644
 20
-81.6675263684719
 30
0.0
 10
55.63623054164644
 20
-81.68682331291173
 30
0.0
 10
55.62038941433898
 20
-81.70266303512994
 30
0.0
 10
55.60109247038685
 20
-81.70266303512994
 30
0.0
 10
55.5817955264347
 20
-81.70266303512994
 30
0.0
 10
55.56595580461659
 20
-81.68682331291173
 30
0.0
 10
55.56595580461659
 20
-81.6675263684719
 30
0.0
 10
55.56595580461659
 20
-81.64791192403247
 30
0.0
 10
55.5817955264347
 20
-81.63203692403641
 30
0.0
 10
55.60109247038685
 20
-81.63203692403641
 30
0.0
 10
55.62038941433898
 20
-81.63203692403641
 30
0.0
 10
55.63623054164644
 20
-81.64791192403247
 30
0.0
 10
55.63623054164644
 20
-81.6675263684719
 30
0.0
  0
ENDBLK
  5
13A
330
137
100
AcDbEntity
  8
0
100
AcDbBlockEnd
  0
BLOCK
  5
13E
330
13C
100
AcDbEntity
  8
0
100
AcDbBlockBegin
  2
block 9
 70
     0
 10
0.0
 20
0.0
 30
0.0
  3
block 9
  1

  0
SPLINE
  5
140
330
13C
100
AcDbEntity
  8
_U+30EC_U+30A4_U+30E4_U+30FC 1
 62
     7
420
 16777215
370
    25
100
AcDbSpline
210
0.0
220
0.0
230
1.0
 70
    11
 71
     3
 72
    17
 73
    13
 74
     0
 42
0.0000000001
 43
0.0000000001
 12
1.0
 22
0.0
 32
0.0
 13
1.0
 23
0.0
 33
0.0
 40
0.0
 40
0.0
 40
0.0
 40
0.0
 40
1.0
 40
1.0
 40
1.0
 40
2.0
 40
2.0
 40
2.0
 40
3.0
 40
3.0
 40
3.0
 40
4.0
 40
4.0
 40
4.0
 40
4.0
 10
65.6366322143589
 20
-81.6675263684719
 30
0.0
 10
65.6366322143589
 20
-81.68682331291173
 30
0.0
 10
65.62079249254077
 20
-81.70266303512994
 30
0.0
 10
65.60149720582197
 20
-81.70266303512994
 30
0.0
 10
65.58152832687583
 20
-81.70266303512994
 30
0.0
 10
65.5656886050577
 20
-81.68682331291173
 30
0.0
 10
65.5656886050577
 20
-81.6675263684719
 30
0.0
 10
65.5656886050577
 20
-81.64791192403247
 30
0.0
 10
65.58152832687583
 20
-81.63203692403641
 30
0.0
 10
65.60149720582197
 20
-81.63203692403641
 30
0.0
 10
65.62079249254077
 20
-81.63203692403641
 30
0.0
 10
65.6366322143589
 20
-81.64791192403247
 30
0.0
 10
65.6366322143589
 20
-81.6675263684719
 30
0.0
  0
ENDBLK
  5
13F
330
13C
100
AcDbEntity
  8
0
100
AcDbBlockEnd
  0
BLOCK
  5
143
330
141
100
AcDbEntity
  8
0
100
AcDbBlockBegin
  2
block 10
 70
     0
 10
0.0
 20
0.0
 30
0.0
  3
block 10
  1

  0
SPLINE
  5
145
330
141
100
AcDbEntity
  8
_U+30EC_U+30A4_U+30E4_U+30FC 1
 62
     7
420
 16777215
370
     9
100
AcDbSpline
210
0.0
220
0.0
230
1.0
 70
    11
 71
     3
 72
    17
 73
    13
 74
     0
 42
0.0000000001
 43
0.0000000001
 12
1.0
 22
0.0
 32
0.0
 13
1.0
 23
0.0
 33
0.0
 40
0.0
 40
0.0
 40
0.0
 40
0.0
 40
1.0
 40
1.0
 40
1.0
 40
2.0
 40
2.0
 40
2.0
 40
3.0
 40
3.0
 40
3.0
 40
4.0
 40
4.0
 40
4.0
 40
4.0
 10
65.6366322143589
 20
-77.66744970280541
 30
0.0
 10
65.6366322143589
 20
-77.68706414724485
 30
0.0
 10
65.62079249254077
 20
-77.70258636946315
 30
0.0
 10
65.60149720582197
 20
-77.70258636946315
 30
0.0
 10
65.58152832687583
 20
-77.70258636946315
 30
0.0
 10
65.5656886050577
 20
-77.68706414724485
 30
0.0
 10
65.5656886050577
 20
-77.66744970280541
 30
0.0
 10
65.5656886050577
 20
-77.64779998058815
 30
0.0
 10
65.58152832687583
 20
-77.63231303614737
 30
0.0
 10
65.60149720582197
 20
-77.63231303614737
 30
0.0
 10
65.62079249254077
 20
-77.63231303614737
 30
0.0
 10
65.6366322143589
 20
-77.64779998058815
 30
0.0
 10
65.6366322143589
 20
-77.66744970280541
 30
0.0
  0
ENDBLK
  5
144
330
141
100
AcDbEntity
  8
0
100
AcDbBlockEnd
  0
BLOCK
  5
150
330
14E
100
AcDbEntity
  8
0
100
AcDbBlockBegin
  2
block 11
 70
     0
 10
0.0
 20
0.0
 30
0.0
  3
block 11
  1

  0
SPLINE
  5
152
330
14E
100
AcDbEntity
  8
_U+30EC_U+30A4_U+30E4_U+30FC 1
370
     0
100
AcDbSpline
210
0.0
220
0.0
230
1.0
 70
    11
 71
     3
 72
    44
 73
    40
 74
     0
 42
0.0000000001
 43
0.0000000001
 12
1.0
 22
0.0
 32
0.0
 13
1.0
 23
0.0
 33
0.0
 40
0.0
 40
0.0
 40
0.0
 40
0.0
 40
1.0
 40
1.0
 40
1.0
 40
2.0
 40
2.0
 40
2.0
 40
3.0
 40
3.0
 40
3.0
 40
4.0
 40
4.0
 40
4.0
 40
5.0
 40
5.0
 40
5.0
 40
6.0
 40
6.0
 40
6.0
 40
7.0
 40
7.0
 40
7.0
 40
8.0
 40
8.0
 40
8.0
 40
9.0
 40
9.0
 40
9.0
 40
10.0
 40
10.0
 40
10.0
 40
11.0
 40
11.0
 40
11.0
 40
12.0
 40
12.0
 40
12.0
 40
13.0
 40
13.0
 40
13.0
 40
13.0
 10
76.1049153455571
 20
-76.7129746987037
 30
0.0
 10
75.8868408013408
 20
-76.87162134579945
 30
0.0
 10
75.79382322323904
 20
-76.94569089873234
 30
0.0
 10
75.74524737689703
 20
-77.0895236352415
 30
0.0
 10
75.74524737689703
 20
-77.0895236352415
 30
0.0
 10
76.5238389565635
 20
-77.0895236352415
 30
0.0
 10
76.5238389565635
 20
-77.0895236352415
 30
0.0
 10
76.5238389565635
 20
-77.0895236352415
 30
0.0
 10
76.5238389565635
 20
-77.29467907138815
 30
0.0
 10
76.5238389565635
 20
-77.29467907138815
 30
0.0
 10
76.5238389565635
 20
-77.29467907138815
 30
0.0
 10
75.49547795421641
 20
-77.29467907138815
 30
0.0
 10
75.49547795421641
 20
-77.29467907138815
 30
0.0
 10
75.5271728326807
 20
-76.93725041479347
 30
0.0
 10
75.59297415644899
 20
-76.85887449250403
 30
0.0
 10
75.97779132215139
 20
-76.56070147825567
 30
0.0
 10
76.23376191670545
 20
-76.36174721398248
 30
0.0
 10
76.29956324047373
 20
-76.29405108769733
 30
0.0
 10
76.29956324047373
 20
-76.15659177783586
 30
0.0
 10
76.29956324047373
 20
-76.03808049314326
 30
0.0
 10
76.227560744832
 20
-75.9069946099295
 30
0.0
 10
76.03084579262423
 20
-75.9069946099295
 30
0.0
 10
75.77074108348788
 20
-75.9069946099295
 30
0.0
 10
75.76212834477475
 20
-76.13747149789272
 30
0.0
 10
75.75799423019245
 20
-76.25391572529416
 30
0.0
 10
75.75799423019245
 20
-76.25391572529416
 30
0.0
 10
75.53371851410269
 20
-76.25391572529416
 30
0.0
 10
75.53371851410269
 20
-76.25391572529416
 30
0.0
 10
75.54198674326729
 20
-76.1269639566627
 30
0.0
 10
75.55266653927156
 20
-76.01482609861783
 30
0.0
 10
75.63293726407788
 20
-75.89631481392523
 30
0.0
 10
75.74318031960587
 20
-75.73560110953832
 30
0.0
 10
75.92921547580937
 20
-75.70166691900862
 30
0.0
 10
76.04565970321082
 20
-75.70166691900862
 30
0.0
 10
76.3226453802249
 20
-75.70166691900862
 30
0.0
 10
76.53004012843694
 20
-75.88580727269522
 30
0.0
 10
76.53004012843694
 20
-76.158658835127
 30
0.0
 10
76.53004012843694
 20
-76.38724092057333
 30
0.0
 10
76.41359590103549
 20
-76.48663192532278
 30
0.0
 10
76.1049153455571
 20
-76.7129746987037
 30
0.0
  0
HATCH
  5
153
330
14E
100
AcDbEntity
  8
_U+30EC_U+30A4_U+30E4_U+30FC 1
 62
     7
420
 16777215
100
AcDbHatch
 10
0.0
 20
0.0
 30
0.0
210
0.0
220
0.0
230
1.0
  2
SOLID
 70
     1
 71
     0
 91
        1
 92
        1
 93
        1
 72
     4
 94
        3
 73
     0
 74
     1
 95
       44
 96
       40
 40
0.0
 40
0.0
 40
0.0
 40
0.0
 40
1.0
 40
1.0
 40
1.0
 40
2.0
 40
2.0
 40
2.0
 40
3.0
 40
3.0
 40
3.0
 40
4.0
 40
4.0
 40
4.0
 40
5.0
 40
5.0
 40
5.0
 40
6.0
 40
6.0
 40
6.0
 40
7.0
 40
7.0
 40
7.0
 40
8.0
 40
8.0
 40
8.0
 40
9.0
 40
9.0
 40
9.0
 40
10.0
 40
10.0
 40
10.0
 40
11.0
 40
11.0
 40
11.0
 40
12.0
 40
12.0
 40
12.0
 40
13.0
 40
13.0
 40
13.0
 40
13.0
 10
76.1049153455571
 20
-76.7129746987037
 10
75.8868408013408
 20
-76.87162134579945
 10
75.79382322323904
 20
-76.94569089873234
 10
75.74524737689703
 20
-77.0895236352415
 10
75.74524737689703
 20
-77.0895236352415
 10
76.5238389565635
 20
-77.0895236352415
 10
76.5238389565635
 20
-77.0895236352415
 10
76.5238389565635
 20
-77.0895236352415
 10
76.5238389565635
 20
-77.29467907138815
 10
76.5238389565635
 20
-77.29467907138815
 10
76.5238389565635
 20
-77.29467907138815
 10
75.49547795421641
 20
-77.29467907138815
 10
75.49547795421641
 20
-77.29467907138815
 10
75.5271728326807
 20
-76.93725041479347
 10
75.59297415644899
 20
-76.85887449250403
 10
75.97779132215139
 20
-76.56070147825567
 10
76.23376191670545
 20
-76.36174721398248
 10
76.29956324047373
 20
-76.29405108769733
 10
76.29956324047373
 20
-76.15659177783586
 10
76.29956324047373
 20
-76.03808049314326
 10
76.227560744832
 20
-75.9069946099295
 10
76.03084579262423
 20
-75.9069946099295
 10
75.77074108348788
 20
-75.9069946099295
 10
75.76212834477475
 20
-76.13747149789272
 10
75.75799423019245
 20
-76.25391572529416
 10
75.75799423019245
 20
-76.25391572529416
 10
75.53371851410269
 20
-76.25391572529416
 10
75.53371851410269
 20
-76.25391572529416
 10
75.54198674326729
 20
-76.1269639566627
 10
75.55266653927156
 20
-76.01482609861783
 10
75.63293726407788
 20
-75.89631481392523
 10
75.74318031960587
 20
-75.73560110953832
 10
75.92921547580937
 20
-75.70166691900862
 10
76.04565970321082
 20
-75.70166691900862
 10
76.3226453802249
 20
-75.70166691900862
 10
76.53004012843694
 20
-75.88580727269522
 10
76.53004012843694
 20
-76.158658835127
 10
76.53004012843694
 20
-76.38724092057333
 10
76.41359590103549
 20
-76.48663192532278
 10
76.1049153455571
 20
-76.7129746987037
 97
        0
 97
        0
 75
     2
 76
     1
 98
        0
  0
SPLINE
  5
154
330
14E
100
AcDbEntity
  8
_U+30EC_U+30A4_U+30E4_U+30FC 1
370
     0
100
AcDbSpline
210
0.0
220
0.0
230
1.0
 70
    11
 71
     3
 72
    44
 73
    40
 74
     0
 42
0.0000000001
 43
0.0000000001
 12
1.0
 22
0.0
 32
0.0
 13
1.0
 23
0.0
 33
0.0
 40
0.0
 40
0.0
 40
0.0
 40
0.0
 40
1.0
 40
1.0
 40
1.0
 40
2.0
 40
2.0
 40
2.0
 40
3.0
 40
3.0
 40
3.0
 40
4.0
 40
4.0
 40
4.0
 40
5.0
 40
5.0
 40
5.0
 40
6.0
 40
6.0
 40
6.0
 40
7.0
 40
7.0
 40
7.0
 40
8.0
 40
8.0
 40
8.0
 40
9.0
 40
9.0
 40
9.0
 40
10.0
 40
10.0
 40
10.0
 40
11.0
 40
11.0
 40
11.0
 40
12.0
 40
12.0
 40
12.0
 40
13.0
 40
13.0
 40
13.0
 40
13.0
 10
77.28175996331845
 20
-76.7129746987037
 30
0.0
 10
77.06368541910214
 20
-76.87162134579945
 30
0.0
 10
76.97066784100039
 20
-76.94569089873234
 30
0.0
 10
76.92209199465837
 20
-77.0895236352415
 30
0.0
 10
76.92209199465837
 20
-77.0895236352415
 30
0.0
 10
77.70068357432483
 20
-77.0895236352415
 30
0.0
 10
77.70068357432483
 20
-77.0895236352415
 30
0.0
 10
77.70068357432483
 20
-77.0895236352415
 30
0.0
 10
77.70068357432483
 20
-77.29467907138815
 30
0.0
 10
77.70068357432483
 20
-77.29467907138815
 30
0.0
 10
77.70068357432483
 20
-77.29467907138815
 30
0.0
 10
76.67232257197776
 20
-77.29467907138815
 30
0.0
 10
76.67232257197776
 20
-77.29467907138815
 30
0.0
 10
76.70401745044205
 20
-76.93725041479347
 30
0.0
 10
76.76981877421032
 20
-76.85887449250403
 30
0.0
 10
77.15463593991274
 20
-76.56070147825567
 30
0.0
 10
77.4106065344668
 20
-76.36174721398248
 30
0.0
 10
77.47640785823506
 20
-76.29405108769733
 30
0.0
 10
77.47640785823506
 20
-76.15659177783586
 30
0.0
 10
77.47640785823506
 20
-76.03808049314326
 30
0.0
 10
77.40440536259335
 20
-75.9069946099295
 30
0.0
 10
77.20769041038558
 20
-75.9069946099295
 30
0.0
 10
76.94758570124922
 20
-75.9069946099295
 30
0.0
 10
76.9389729625361
 20
-76.13747149789272
 30
0.0
 10
76.9348388479538
 20
-76.25391572529416
 30
0.0
 10
76.9348388479538
 20
-76.25391572529416
 30
0.0
 10
76.71056313186403
 20
-76.25391572529416
 30
0.0
 10
76.71056313186403
 20
-76.25391572529416
 30
0.0
 10
76.71883136102863
 20
-76.1269639566627
 30
0.0
 10
76.7295111570329
 20
-76.01482609861783
 30
0.0
 10
76.80978188183923
 20
-75.89631481392523
 30
0.0
 10
76.92002493736722
 20
-75.73560110953832
 30
0.0
 10
77.1060600935707
 20
-75.70166691900862
 30
0.0
 10
77.22250432097215
 20
-75.70166691900862
 30
0.0
 10
77.49948999798625
 20
-75.70166691900862
 30
0.0
 10
77.70688474619828
 20
-75.88580727269522
 30
0.0
 10
77.70688474619828
 20
-76.158658835127
 30
0.0
 10
77.70688474619828
 20
-76.38724092057333
 30
0.0
 10
77.59044051879684
 20
-76.48663192532278
 30
0.0
 10
77.28175996331845
 20
-76.7129746987037
 30
0.0
  0
HATCH
  5
155
330
14E
100
AcDbEntity
  8
_U+30EC_U+30A4_U+30E4_U+30FC 1
 62
     7
420
 16777215
100
AcDbHatch
 10
0.0
 20
0.0
 30
0.0
210
0.0
220
0.0
230
1.0
  2
SOLID
 70
     1
 71
     0
 91
        1
 92
        1
 93
        1
 72
     4
 94
        3
 73
     0
 74
     1
 95
       44
 96
       40
 40
0.0
 40
0.0
 40
0.0
 40
0.0
 40
1.0
 40
1.0
 40
1.0
 40
2.0
 40
2.0
 40
2.0
 40
3.0
 40
3.0
 40
3.0
 40
4.0
 40
4.0
 40
4.0
 40
5.0
 40
5.0
 40
5.0
 40
6.0
 40
6.0
 40
6.0
 40
7.0
 40
7.0
 40
7.0
 40
8.0
 40
8.0
 40
8.0
 40
9.0
 40
9.0
 40
9.0
 40
10.0
 40
10.0
 40
10.0
 40
11.0
 40
11.0
 40
11.0
 40
12.0
 40
12.0
 40
12.0
 40
13.0
 40
13.0
 40
13.0
 40
13.0
 10
77.28175996331845
 20
-76.7129746987037
 10
77.06368541910214
 20
-76.87162134579945
 10
76.97066784100039
 20
-76.94569089873234
 10
76.92209199465837
 20
-77.0895236352415
 10
76.92209199465837
 20
-77.0895236352415
 10
77.70068357432483
 20
-77.0895236352415
 10
77.70068357432483
 20
-77.0895236352415
 10
77.70068357432483
 20
-77.0895236352415
 10
77.70068357432483
 20
-77.29467907138815
 10
77.70068357432483
 20
-77.29467907138815
 10
77.70068357432483
 20
-77.29467907138815
 10
76.67232257197776
 20
-77.29467907138815
 10
76.67232257197776
 20
-77.29467907138815
 10
76.70401745044205
 20
-76.93725041479347
 10
76.76981877421032
 20
-76.85887449250403
 10
77.15463593991274
 20
-76.56070147825567
 10
77.4106065344668
 20
-76.36174721398248
 10
77.47640785823506
 20
-76.29405108769733
 10
77.47640785823506
 20
-76.15659177783586
 10
77.47640785823506
 20
-76.03808049314326
 10
77.40440536259335
 20
-75.9069946099295
 10
77.20769041038558
 20
-75.9069946099295
 10
76.94758570124922
 20
-75.9069946099295
 10
76.9389729625361
 20
-76.13747149789272
 10
76.9348388479538
 20
-76.25391572529416
 10
76.9348388479538
 20
-76.25391572529416
 10
76.71056313186403
 20
-76.25391572529416
 10
76.71056313186403
 20
-76.25391572529416
 10
76.71883136102863
 20
-76.1269639566627
 10
76.7295111570329
 20
-76.01482609861783
 10
76.80978188183923
 20
-75.89631481392523
 10
76.92002493736722
 20
-75.73560110953832
 10
77.1060600935707
 20
-75.70166691900862
 10
77.22250432097215
 20
-75.70166691900862
 10
77.49948999798625
 20
-75.70166691900862
 10
77.70688474619828
 20
-75.88580727269522
 10
77.70688474619828
 20
-76.158658835127
 10
77.70688474619828
 20
-76.38724092057333
 10
77.59044051879684
 20
-76.48663192532278
 10
77.28175996331845
 20
-76.7129746987037
 97
        0
 97
        0
 75
     2
 76
     1
 98
        0
  0
ENDBLK
  5
151
330
14E
100
AcDbEntity
  8
0
100
AcDbBlockEnd
  0
BLOCK
  5
158
330
156
100
AcDbEntity
  8
0
100
AcDbBlockBegin
  2
block 12
 70
     0
 10
0.0
 20
0.0
 30
0.0
  3
block 12
  1

  0
SPLINE
  5
15A
330
156
100
AcDbEntity
  8
_U+30EC_U+30A4_U+30E4_U+30FC 1
 62
     7
420
 16777215
370
    25
100
AcDbSpline
210
0.0
220
0.0
230
1.0
 70
    11
 71
     3
 72
    17
 73
    13
 74
     0
 42
0.0000000001
 43
0.0000000001
 12
1.0
 22
0.0
 32
0.0
 13
1.0
 23
0.0
 33
0.0
 40
0.0
 40
0.0
 40
0.0
 40
0.0
 40
1.0
 40
1.0
 40
1.0
 40
2.0
 40
2.0
 40
2.0
 40
3.0
 40
3.0
 40
3.0
 40
4.0
 40
4.0
 40
4.0
 40
4.0
 10
65.6366322143589
 20
-81.6675263684719
 30
0.0
 10
65.6366322143589
 20
-81.68682331291173
 30
0.0
 10
65.62079249254077
 20
-81.70266303512994
 30
0.0
 10
65.60149720582197
 20
-81.70266303512994
 30
0.0
 10
65.58152832687583
 20
-81.70266303512994
 30
0.0
 10
65.5656886050577
 20
-81.68682331291173
 30
0.0
 10
65.5656886050577
 20
-81.6675263684719
 30
0.0
 10
65.5656886050577
 20
-81.64791192403247
 30
0.0
 10
65.58152832687583
 20
-81.63203692403641
 30
0.0
 10
65.60149720582197
 20
-81.63203692403641
 30
0.0
 10
65.62079249254077
 20
-81.63203692403641
 30
0.0
 10
65.6366322143589
 20
-81.64791192403247
 30
0.0
 10
65.6366322143589
 20
-81.6675263684719
 30
0.0
  0
ENDBLK
  5
159
330
156
100
AcDbEntity
  8
0
100
AcDbBlockEnd
  0
BLOCK
  5
15D
330
15B
100
AcDbEntity
  8
0
100
AcDbBlockBegin
  2
block 13
 70
     0
 10
0.0
 20
0.0
 30
0.0
  3
block 13
  1

  0
SPLINE
  5
15F
330
15B
100
AcDbEntity
  8
_U+30EC_U+30A4_U+30E4_U+30FC 1
 62
     7
420
 16777215
370
    25
100
AcDbSpline
210
0.0
220
0.0
230
1.0
 70
    11
 71
     3
 72
    17
 73
    13
 74
     0
 42
0.0000000001
 43
0.0000000001
 12
1.0
 22
0.0
 32
0.0
 13
1.0
 23
0.0
 33
0.0
 40
0.0
 40
0.0
 40
0.0
 40
0.0
 40
1.0
 40
1.0
 40
1.0
 40
2.0
 40
2.0
 40
2.0
 40
3.0
 40
3.0
 40
3.0
 40
4.0
 40
4.0
 40
4.0
 40
4.0
 10
87.63634997809079
 20
-81.6675263684719
 30
0.0
 10
87.63634997809079
 20
-81.68682331291173
 30
0.0
 10
87.62047497809475
 20
-81.70266303512994
 30
0.0
 10
87.60121109844025
 20
-81.70266303512994
 30
0.0
 10
87.5819141544881
 20
-81.70266303512994
 30
0.0
 10
87.56607443266999
 20
-81.68682331291173
 30
0.0
 10
87.56607443266999
 20
-81.6675263684719
 30
0.0
 10
87.56607443266999
 20
-81.64791192403247
 30
0.0
 10
87.5819141544881
 20
-81.63203692403641
 30
0.0
 10
87.60121109844025
 20
-81.63203692403641
 30
0.0
 10
87.62047497809475
 20
-81.63203692403641
 30
0.0
 10
87.63634997809079
 20
-81.64791192403247
 30
0.0
 10
87.63634997809079
 20
-81.6675263684719
 30
0.0
  0
ENDBLK
  5
15E
330
15B
100
AcDbEntity
  8
0
100
AcDbBlockEnd
  0
BLOCK
  5
162
330
160
100
AcDbEntity
  8
0
100
AcDbBlockBegin
  2
block 14
 70
     0
 10
0.0
 20
0.0
 30
0.0
  3
block 14
  1

  0
SPLINE
  5
164
330
160
100
AcDbEntity
  8
_U+30EC_U+30A4_U+30E4_U+30FC 1
 62
     7
420
 16777215
370
     9
100
AcDbSpline
210
0.0
220
0.0
230
1.0
 70
    11
 71
     3
 72
    17
 73
    13
 74
     0
 42
0.0000000001
 43
0.0000000001
 12
1.0
 22
0.0
 32
0.0
 13
1.0
 23
0.0
 33
0.0
 40
0.0
 40
0.0
 40
0.0
 40
0.0
 40
1.0
 40
1.0
 40
1.0
 40
2.0
 40
2.0
 40
2.0
 40
3.0
 40
3.0
 40
3.0
 40
4.0
 40
4.0
 40
4.0
 40
4.0
 10
87.63634997809079
 20
-77.66744970280541
 30
0.0
 10
87.63634997809079
 20
-77.68706414724485
 30
0.0
 10
87.62047497809475
 20
-77.70258636946315
 30
0.0
 10
87.60121109844025
 20
-77.70258636946315
 30
0.0
 10
87.5819141544881
 20
-77.70258636946315
 30
0.0
 10
87.56607443266999
 20
-77.68706414724485
 30
0.0
 10
87.56607443266999
 20
-77.66744970280541
 30
0.0
 10
87.56607443266999
 20
-77.64779998058815
 30
0.0
 10
87.5819141544881
 20
-77.63231303614737
 30
0.0
 10
87.60121109844025
 20
-77.63231303614737
 30
0.0
 10
87.62047497809475
 20
-77.63231303614737
 30
0.0
 10
87.63634997809079
 20
-77.64779998058815
 30
0.0
 10
87.63634997809079
 20
-77.66744970280541
 30
0.0
  0
ENDBLK
  5
163
330
160
100
AcDbEntity
  8
0
100
AcDbBlockEnd
  0
BLOCK
  5
177
330
175
100
AcDbEntity
  8
0
100
AcDbBlockBegin
  2
block 15
 70
     0
 10
0.0
 20
0.0
 30
0.0
  3
block 15
  1

  0
SPLINE
  5
179
330
175
100
AcDbEntity
  8
_U+30EC_U+30A4_U+30E4_U+30FC 1
370
     0
100
AcDbSpline
210
0.0
220
0.0
230
1.0
 70
    11
 71
     3
 72
    62
 73
    58
 74
     0
 42
0.0000000001
 43
0.0000000001
 12
1.0
 22
0.0
 32
0.0
 13
1.0
 23
0.0
 33
0.0
 40
0.0
 40
0.0
 40
0.0
 40
0.0
 40
1.0
 40
1.0
 40
1.0
 40
2.0
 40
2.0
 40
2.0
 40
3.0
 40
3.0
 40
3.0
 40
4.0
 40
4.0
 40
4.0
 40
5.0
 40
5.0
 40
5.0
 40
6.0
 40
6.0
 40
6.0
 40
7.0
 40
7.0
 40
7.0
 40
8.0
 40
8.0
 40
8.0
 40
9.0
 40
9.0
 40
9.0
 40
10.0
 40
10.0
 40
10.0
 40
11.0
 40
11.0
 40
11.0
 40
12.0
 40
12.0
 40
12.0
 40
13.0
 40
13.0
 40
13.0
 40
14.0
 40
14.0
 40
14.0
 40
15.0
 40
15.0
 40
15.0
 40
16.0
 40
16.0
 40
16.0
 40
17.0
 40
17.0
 40
17.0
 40
18.0
 40
18.0
 40
18.0
 40
19.0
 40
19.0
 40
19.0
 40
19.0
 10
59.74519041475121
 20
-97.84587942432326
 30
0.0
 10
59.64993352458405
 20
-97.84587942432326
 30
0.0
 10
59.43203123514199
 20
-97.82486434186323
 30
0.0
 10
59.30714652380169
 20
-97.63848467611122
 30
0.0
 10
59.23324922564308
 20
-97.5265190728406
 30
0.0
 10
59.22894285628652
 20
-97.42695581331688
 30
0.0
 10
59.22480874170422
 20
-97.34255097392825
 30
0.0
 10
59.22480874170422
 20
-97.34255097392825
 30
0.0
 10
59.44477808843742
 20
-97.34255097392825
 30
0.0
 10
59.44477808843742
 20
-97.34255097392825
 30
0.0
 10
59.44684514572857
 20
-97.4162760173126
 30
0.0
 10
59.45735268695858
 20
-97.65123152940664
 30
0.0
 10
59.74088404539464
 20
-97.65123152940664
 30
0.0
 10
59.87834335525611
 20
-97.65123152940664
 30
0.0
 10
60.03078883047841
 20
-97.58129609105607
 30
0.0
 10
60.03078883047841
 20
-97.35288626038401
 30
0.0
 10
60.03078883047841
 20
-97.23644203298257
 30
0.0
 10
59.99272052536641
 20
-97.18786618664053
 30
0.0
 10
59.96085339212785
 20
-97.15617130817624
 30
0.0
 10
59.88695609396924
 20
-97.08210175524337
 30
0.0
 10
59.77051186656779
 20
-97.06935490194795
 30
0.0
 10
59.71556259357806
 20
-97.06935490194795
 30
0.0
 10
59.69644231363492
 20
-97.06935490194795
 30
0.0
 10
59.66044106581406
 20
-97.07176646878762
 30
0.0
 10
59.63305255670632
 20
-97.07590058336991
 30
0.0
 10
59.63305255670632
 20
-97.07590058336991
 30
0.0
 10
59.63305255670632
 20
-96.8812526884533
 30
0.0
 10
59.63305255670632
 20
-96.8812526884533
 30
0.0
 10
59.67112086181833
 20
-96.88745386032676
 30
0.0
 10
59.71332328151264
 20
-96.8895209176179
 30
0.0
 10
59.71969670816036
 20
-96.8895209176179
 30
0.0
 10
59.78532577715436
 20
-96.8895209176179
 30
0.0
 10
59.98410778665328
 20
-96.86850583515788
 30
0.0
 10
59.98410778665328
 20
-96.63148326577269
 30
0.0
 10
59.98410778665328
 20
-96.4537163387338
 30
0.0
 10
59.85302190343953
 20
-96.39893932051832
 30
0.0
 10
59.74295110268579
 20
-96.39893932051832
 30
0.0
 10
59.47854002419287
 20
-96.39893932051832
 30
0.0
 10
59.470099540254
 20
-96.63148326577269
 30
0.0
 10
59.4659654256717
 20
-96.70348576141441
 30
0.0
 10
59.4659654256717
 20
-96.70348576141441
 30
0.0
 10
59.26287704681623
 20
-96.70348576141441
 30
0.0
 10
59.26287704681623
 20
-96.70348576141441
 30
0.0
 10
59.27131753075509
 20
-96.57877330484837
 30
0.0
 10
59.29870603986283
 20
-96.20222436831055
 30
0.0
 10
59.75569795598122
 20
-96.20222436831055
 30
0.0
 10
59.97997367207098
 20
-96.20222436831055
 30
0.0
 10
60.22113035603847
 20
-96.32900388216775
 30
0.0
 10
60.22113035603847
 20
-96.62528209389924
 30
0.0
 10
60.22113035603847
 20
-96.81131725010273
 30
0.0
 10
60.12587346587132
 20
-96.89399954174873
 30
0.0
 10
60.02648246112185
 20
-96.95532224138617
 30
0.0
 10
60.0878051607593
 20
-96.98288300526818
 30
0.0
 10
60.26970620238049
 20
-97.06315373007449
 30
0.0
 10
60.26970620238049
 20
-97.34013940708859
 30
0.0
 10
60.26970620238049
 20
-97.67879229328864
 30
0.0
 10
60.02234834653955
 20
-97.84587942432326
 30
0.0
 10
59.74519041475121
 20
-97.84587942432326
 30
0.0
  0
HATCH
  5
17A
330
175
100
AcDbEntity
  8
_U+30EC_U+30A4_U+30E4_U+30FC 1
 62
     7
420
 16777215
100
AcDbHatch
 10
0.0
 20
0.0
 30
0.0
210
0.0
220
0.0
230
1.0
  2
SOLID
 70
     1
 71
     0
 91
        1
 92
        1
 93
        1
 72
     4
 94
        3
 73
     0
 74
     1
 95
       62
 96
       58
 40
0.0
 40
0.0
 40
0.0
 40
0.0
 40
1.0
 40
1.0
 40
1.0
 40
2.0
 40
2.0
 40
2.0
 40
3.0
 40
3.0
 40
3.0
 40
4.0
 40
4.0
 40
4.0
 40
5.0
 40
5.0
 40
5.0
 40
6.0
 40
6.0
 40
6.0
 40
7.0
 40
7.0
 40
7.0
 40
8.0
 40
8.0
 40
8.0
 40
9.0
 40
9.0
 40
9.0
 40
10.0
 40
10.0
 40
10.0
 40
11.0
 40
11.0
 40
11.0
 40
12.0
 40
12.0
 40
12.0
 40
13.0
 40
13.0
 40
13.0
 40
14.0
 40
14.0
 40
14.0
 40
15.0
 40
15.0
 40
15.0
 40
16.0
 40
16.0
 40
16.0
 40
17.0
 40
17.0
 40
17.0
 40
18.0
 40
18.0
 40
18.0
 40
19.0
 40
19.0
 40
19.0
 40
19.0
 10
59.74519041475121
 20
-97.84587942432326
 10
59.64993352458405
 20
-97.84587942432326
 10
59.43203123514199
 20
-97.82486434186323
 10
59.30714652380169
 20
-97.63848467611122
 10
59.23324922564308
 20
-97.5265190728406
 10
59.22894285628652
 20
-97.42695581331688
 10
59.22480874170422
 20
-97.34255097392825
 10
59.22480874170422
 20
-97.34255097392825
 10
59.44477808843742
 20
-97.34255097392825
 10
59.44477808843742
 20
-97.34255097392825
 10
59.44684514572857
 20
-97.4162760173126
 10
59.45735268695858
 20
-97.65123152940664
 10
59.74088404539464
 20
-97.65123152940664
 10
59.87834335525611
 20
-97.65123152940664
 10
60.03078883047841
 20
-97.58129609105607
 10
60.03078883047841
 20
-97.35288626038401
 10
60.03078883047841
 20
-97.23644203298257
 10
59.99272052536641
 20
-97.18786618664053
 10
59.96085339212785
 20
-97.15617130817624
 10
59.88695609396924
 20
-97.08210175524337
 10
59.77051186656779
 20
-97.06935490194795
 10
59.71556259357806
 20
-97.06935490194795
 10
59.69644231363492
 20
-97.06935490194795
 10
59.66044106581406
 20
-97.07176646878762
 10
59.63305255670632
 20
-97.07590058336991
 10
59.63305255670632
 20
-97.07590058336991
 10
59.63305255670632
 20
-96.8812526884533
 10
59.63305255670632
 20
-96.8812526884533
 10
59.67112086181833
 20
-96.88745386032676
 10
59.71332328151264
 20
-96.8895209176179
 10
59.71969670816036
 20
-96.8895209176179
 10
59.78532577715436
 20
-96.8895209176179
 10
59.98410778665328
 20
-96.86850583515788
 10
59.98410778665328
 20
-96.63148326577269
 10
59.98410778665328
 20
-96.4537163387338
 10
59.85302190343953
 20
-96.39893932051832
 10
59.74295110268579
 20
-96.39893932051832
 10
59.47854002419287
 20
-96.39893932051832
 10
59.470099540254
 20
-96.63148326577269
 10
59.4659654256717
 20
-96.70348576141441
 10
59.4659654256717
 20
-96.70348576141441
 10
59.26287704681623
 20
-96.70348576141441
 10
59.26287704681623
 20
-96.70348576141441
 10
59.27131753075509
 20
-96.57877330484837
 10
59.29870603986283
 20
-96.20222436831055
 10
59.75569795598122
 20
-96.20222436831055
 10
59.97997367207098
 20
-96.20222436831055
 10
60.22113035603847
 20
-96.32900388216775
 10
60.22113035603847
 20
-96.62528209389924
 10
60.22113035603847
 20
-96.81131725010273
 10
60.12587346587132
 20
-96.89399954174873
 10
60.02648246112185
 20
-96.95532224138617
 10
60.0878051607593
 20
-96.98288300526818
 10
60.26970620238049
 20
-97.06315373007449
 10
60.26970620238049
 20
-97.34013940708859
 10
60.26970620238049
 20
-97.67879229328864
 10
60.02234834653955
 20
-97.84587942432326
 10
59.74519041475121
 20
-97.84587942432326
 97
        0
 97
        0
 75
     2
 76
     1
 98
        0
  0
POLYLINE
  5
17B
330
175
100
AcDbEntity
  8
_U+30EC_U+30A4_U+30E4_U+30FC 1
370
     0
100
AcDb2dPolyline
 66
     1
 10
0.0
 20
0.0
 30
0.0
  0
VERTEX
  5
17C
330
17B
100
AcDbEntity
  8
_U+30EC_U+30A4_U+30E4_U+30FC 1
370
     0
100
AcDbVertex
100
AcDb2dVertex
 10
60.49036456821074
 20
-97.79523652069008
 30
0.0
  0
VERTEX
  5
17D
330
17B
100
AcDbEntity
  8
_U+30EC_U+30A4_U+30E4_U+30FC 1
370
     0
100
AcDbVertex
100
AcDb2dVertex
 10
60.49036456821074
 20
-97.54340004071832
 30
0.0
  0
VERTEX
  5
17E
330
17B
100
AcDbEntity
  8
_U+30EC_U+30A4_U+30E4_U+30FC 1
370
     0
100
AcDbVertex
100
AcDb2dVertex
 10
60.74220104818251
 20
-97.54340004071832
 30
0.0
  0
VERTEX
  5
17F
330
17B
100
AcDbEntity
  8
_U+30EC_U+30A4_U+30E4_U+30FC 1
370
     0
100
AcDbVertex
100
AcDb2dVertex
 10
60.74220104818251
 20
-97.79523652069008
 30
0.0
  0
VERTEX
  5
180
330
17B
100
AcDbEntity
  8
_U+30EC_U+30A4_U+30E4_U+30FC 1
370
     0
100
AcDbVertex
100
AcDb2dVertex
 10
60.49036456821074
 20
-97.79523652069008
 30
0.0
  0
SEQEND
  5
181
330
17B
100
AcDbEntity
  8
_U+30EC_U+30A4_U+30E4_U+30FC 1
370
     0
  0
HATCH
  5
182
330
175
100
AcDbEntity
  8
_U+30EC_U+30A4_U+30E4_U+30FC 1
 62
     7
420
 16777215
100
AcDbHatch
 10
0.0
 20
0.0
 30
0.0
210
0.0
220
0.0
230
1.0
  2
SOLID
 70
     1
 71
     0
 91
        1
 92
        1
 93
        4
 72
     1
 10
60.49036456821074
 20
-97.79523652069008
 11
60.49036456821074
 21
-97.54340004071832
 72
     1
 10
60.49036456821074
 20
-97.54340004071832
 11
60.74220104818251
 21
-97.54340004071832
 72
     1
 10
60.74220104818251
 20
-97.54340004071832
 11
60.74220104818251
 21
-97.79523652069008
 72
     1
 10
60.74220104818251
 20
-97.79523652069008
 11
60.49036456821074
 21
-97.79523652069008
 97
        0
 75
     2
 76
     1
 98
        0
  0
SPLINE
  5
183
330
175
100
AcDbEntity
  8
_U+30EC_U+30A4_U+30E4_U+30FC 1
370
     0
100
AcDbSpline
210
0.0
220
0.0
230
1.0
 70
    11
 71
     3
 72
    53
 73
    49
 74
     0
 42
0.0000000001
 43
0.0000000001
 12
1.0
 22
0.0
 32
0.0
 13
1.0
 23
0.0
 33
0.0
 40
0.0
 40
0.0
 40
0.0
 40
0.0
 40
1.0
 40
1.0
 40
1.0
 40
2.0
 40
2.0
 40
2.0
 40
3.0
 40
3.0
 40
3.0
 40
4.0
 40
4.0
 40
4.0
 40
5.0
 40
5.0
 40
5.0
 40
6.0
 40
6.0
 40
6.0
 40
7.0
 40
7.0
 40
7.0
 40
8.0
 40
8.0
 40
8.0
 40
9.0
 40
9.0
 40
9.0
 40
10.0
 40
10.0
 40
10.0
 40
11.0
 40
11.0
 40
11.0
 40
12.0
 40
12.0
 40
12.0
 40
13.0
 40
13.0
 40
13.0
 40
14.0
 40
14.0
 40
14.0
 40
15.0
 40
15.0
 40
15.0
 40
16.0
 40
16.0
 40
16.0
 40
16.0
 10
61.45964218298579
 20
-97.84587942432326
 30
0.0
 10
61.38126626069635
 20
-97.84587942432326
 30
0.0
 10
61.27980819865574
 20
-97.82899845644553
 30
0.0
 10
61.17817788184087
 20
-97.76560869951693
 30
0.0
 10
61.00471732415855
 20
-97.65536564398894
 30
0.0
 10
60.98370224169852
 20
-97.52445201554944
 30
0.0
 10
60.96458196175539
 20
-97.4162760173126
 30
0.0
 10
60.96458196175539
 20
-97.4162760173126
 30
0.0
 10
61.186790620554
 20
-97.4162760173126
 30
0.0
 10
61.186790620554
 20
-97.4162760173126
 30
0.0
 10
61.24173989354374
 20
-97.61540253636004
 30
0.0
 10
61.36869166217519
 20
-97.64503035753319
 30
0.0
 10
61.46170924027694
 20
-97.64503035753319
 30
0.0
 10
61.60140786220381
 20
-97.64503035753319
 30
0.0
 10
61.75368108265186
 20
-97.54546709800947
 30
0.0
 10
61.75368108265186
 20
-97.3129231527551
 30
0.0
 10
61.75368108265186
 20
-97.05695255820105
 30
0.0
 10
61.57384709832182
 20
-96.98701711985048
 30
0.0
 10
61.45326875633808
 20
-96.98701711985048
 30
0.0
 10
61.42157387787378
 20
-96.98701711985048
 30
0.0
 10
61.27980819865574
 20
-96.98701711985048
 30
0.0
 10
61.1909247351363
 20
-97.11586369099882
 30
0.0
 10
61.1909247351363
 20
-97.11586369099882
 30
0.0
 10
61.01539712016282
 20
-97.09691566582994
 30
0.0
 10
61.01539712016282
 20
-97.09691566582994
 30
0.0
 10
61.01539712016282
 20
-97.09691566582994
 30
0.0
 10
61.13597546214656
 20
-96.25080021465259
 30
0.0
 10
61.13597546214656
 20
-96.25080021465259
 30
0.0
 10
61.13597546214656
 20
-96.25080021465259
 30
0.0
 10
61.91439478703877
 20
-96.25080021465259
 30
0.0
 10
61.91439478703877
 20
-96.25080021465259
 30
0.0
 10
61.91439478703877
 20
-96.25080021465259
 30
0.0
 10
61.91439478703877
 20
-96.4454481095692
 30
0.0
 10
61.91439478703877
 20
-96.4454481095692
 30
0.0
 10
61.91439478703877
 20
-96.4454481095692
 30
0.0
 10
61.29875622382462
 20
-96.4454481095692
 30
0.0
 10
61.29875622382462
 20
-96.4454481095692
 30
0.0
 10
61.29875622382462
 20
-96.4454481095692
 30
0.0
 10
61.23329940960488
 20
-96.86850583515788
 30
0.0
 10
61.23329940960488
 20
-96.86850583515788
 30
0.0
 10
61.29462210924232
 20
-96.83474389940243
 30
0.0
 10
61.37713214611405
 20
-96.794436282225
 30
0.0
 10
61.49564343080664
 20
-96.794436282225
 30
0.0
 10
61.7493747132953
 20
-96.794436282225
 30
0.0
 10
61.98639728268049
 20
-96.9804714384285
 30
0.0
 10
61.98639728268049
 20
-97.29363061803771
 30
0.0
 10
61.98639728268049
 20
-97.61092391222921
 30
0.0
 10
61.76212156659072
 20
-97.84587942432326
 30
0.0
 10
61.45964218298579
 20
-97.84587942432326
 30
0.0
  0
HATCH
  5
184
330
175
100
AcDbEntity
  8
_U+30EC_U+30A4_U+30E4_U+30FC 1
 62
     7
420
 16777215
100
AcDbHatch
 10
0.0
 20
0.0
 30
0.0
210
0.0
220
0.0
230
1.0
  2
SOLID
 70
     1
 71
     0
 91
        1
 92
        1
 93
        1
 72
     4
 94
        3
 73
     0
 74
     1
 95
       53
 96
       49
 40
0.0
 40
0.0
 40
0.0
 40
0.0
 40
1.0
 40
1.0
 40
1.0
 40
2.0
 40
2.0
 40
2.0
 40
3.0
 40
3.0
 40
3.0
 40
4.0
 40
4.0
 40
4.0
 40
5.0
 40
5.0
 40
5.0
 40
6.0
 40
6.0
 40
6.0
 40
7.0
 40
7.0
 40
7.0
 40
8.0
 40
8.0
 40
8.0
 40
9.0
 40
9.0
 40
9.0
 40
10.0
 40
10.0
 40
10.0
 40
11.0
 40
11.0
 40
11.0
 40
12.0
 40
12.0
 40
12.0
 40
13.0
 40
13.0
 40
13.0
 40
14.0
 40
14.0
 40
14.0
 40
15.0
 40
15.0
 40
15.0
 40
16.0
 40
16.0
 40
16.0
 40
16.0
 10
61.45964218298579
 20
-97.84587942432326
 10
61.38126626069635
 20
-97.84587942432326
 10
61.27980819865574
 20
-97.82899845644553
 10
61.17817788184087
 20
-97.76560869951693
 10
61.00471732415855
 20
-97.65536564398894
 10
60.98370224169852
 20
-97.52445201554944
 10
60.96458196175539
 20
-97.4162760173126
 10
60.96458196175539
 20
-97.4162760173126
 10
61.186790620554
 20
-97.4162760173126
 10
61.186790620554
 20
-97.4162760173126
 10
61.24173989354374
 20
-97.61540253636004
 10
61.36869166217519
 20
-97.64503035753319
 10
61.46170924027694
 20
-97.64503035753319
 10
61.60140786220381
 20
-97.64503035753319
 10
61.75368108265186
 20
-97.54546709800947
 10
61.75368108265186
 20
-97.3129231527551
 10
61.75368108265186
 20
-97.05695255820105
 10
61.57384709832182
 20
-96.98701711985048
 10
61.45326875633808
 20
-96.98701711985048
 10
61.42157387787378
 20
-96.98701711985048
 10
61.27980819865574
 20
-96.98701711985048
 10
61.1909247351363
 20
-97.11586369099882
 10
61.1909247351363
 20
-97.11586369099882
 10
61.01539712016282
 20
-97.09691566582994
 10
61.01539712016282
 20
-97.09691566582994
 10
61.01539712016282
 20
-97.09691566582994
 10
61.13597546214656
 20
-96.25080021465259
 10
61.13597546214656
 20
-96.25080021465259
 10
61.13597546214656
 20
-96.25080021465259
 10
61.91439478703877
 20
-96.25080021465259
 10
61.91439478703877
 20
-96.25080021465259
 10
61.91439478703877
 20
-96.25080021465259
 10
61.91439478703877
 20
-96.4454481095692
 10
61.91439478703877
 20
-96.4454481095692
 10
61.91439478703877
 20
-96.4454481095692
 10
61.29875622382462
 20
-96.4454481095692
 10
61.29875622382462
 20
-96.4454481095692
 10
61.29875622382462
 20
-96.4454481095692
 10
61.23329940960488
 20
-96.86850583515788
 10
61.23329940960488
 20
-96.86850583515788
 10
61.29462210924232
 20
-96.83474389940243
 10
61.37713214611405
 20
-96.794436282225
 10
61.49564343080664
 20
-96.794436282225
 10
61.7493747132953
 20
-96.794436282225
 10
61.98639728268049
 20
-96.9804714384285
 10
61.98639728268049
 20
-97.29363061803771
 10
61.98639728268049
 20
-97.61092391222921
 10
61.76212156659072
 20
-97.84587942432326
 10
61.45964218298579
 20
-97.84587942432326
 97
        0
 97
        0
 75
     2
 76
     1
 98
        0
  0
ENDBLK
  5
178
330
175
100
AcDbEntity
  8
0
100
AcDbBlockEnd
  0
BLOCK
  5
187
330
185
100
AcDbEntity
  8
0
100
AcDbBlockBegin
  2
block 16
 70
     0
 10
0.0
 20
0.0
 30
0.0
  3
block 16
  1

  0
SPLINE
  5
189
330
185
100
AcDbEntity
  8
_U+30EC_U+30A4_U+30E4_U+30FC 1
 62
     7
420
 16777215
370
    25
100
AcDbSpline
210
0.0
220
0.0
230
1.0
 70
    11
 71
     3
 72
    17
 73
    13
 74
     0
 42
0.0000000001
 43
0.0000000001
 12
1.0
 22
0.0
 32
0.0
 13
1.0
 23
0.0
 33
0.0
 40
0.0
 40
0.0
 40
0.0
 40
0.0
 40
1.0
 40
1.0
 40
1.0
 40
2.0
 40
2.0
 40
2.0
 40
3.0
 40
3.0
 40
3.0
 40
4.0
 40
4.0
 40
4.0
 40
4.0
 10
58.88633544212887
 20
-94.16753664312475
 30
0.0
 10
58.88633544212887
 20
-94.1875391431201
 30
0.0
 10
58.87049720750474
 20
-94.203378865338
 30
0.0
 10
58.85119877635861
 20
-94.203378865338
 30
0.0
 10
58.83119627686892
 20
-94.203378865338
 30
0.0
 10
58.81606211058835
 20
-94.1875391431201
 30
0.0
 10
58.81606211058835
 20
-94.16753664312475
 30
0.0
 10
58.81606211058835
 20
-94.14827497646309
 30
0.0
 10
58.83119627686892
 20
-94.13239997646703
 30
0.0
 10
58.85119877635861
 20
-94.13239997646703
 30
0.0
 10
58.87049720750474
 20
-94.13239997646703
 30
0.0
 10
58.88633544212887
 20
-94.14827497646309
 30
0.0
 10
58.88633544212887
 20
-94.16753664312475
 30
0.0
  0
ENDBLK
  5
188
330
185
100
AcDbEntity
  8
0
100
AcDbBlockEnd
  0
BLOCK
  5
18C
330
18A
100
AcDbEntity
  8
0
100
AcDbBlockBegin
  2
block 17
 70
     0
 10
0.0
 20
0.0
 30
0.0
  3
block 17
  1

  0
SPLINE
  5
18E
330
18A
100
AcDbEntity
  8
_U+30EC_U+30A4_U+30E4_U+30FC 1
 62
     7
420
 16777215
370
    25
100
AcDbSpline
210
0.0
220
0.0
230
1.0
 70
    11
 71
     3
 72
    17
 73
    13
 74
     0
 42
0.0000000001
 43
0.0000000001
 12
1.0
 22
0.0
 32
0.0
 13
1.0
 23
0.0
 33
0.0
 40
0.0
 40
0.0
 40
0.0
 40
0.0
 40
1.0
 40
1.0
 40
1.0
 40
2.0
 40
2.0
 40
2.0
 40
3.0
 40
3.0
 40
3.0
 40
4.0
 40
4.0
 40
4.0
 40
4.0
 10
62.386561186164
 20
-94.16753664312475
 30
0.0
 10
62.386561186164
 20
-94.1875391431201
 30
0.0
 10
62.37068618656901
 20
-94.203378865338
 30
0.0
 10
62.35138924261687
 20
-94.203378865338
 30
0.0
 10
62.33142202090406
 20
-94.203378865338
 30
0.0
 10
62.31558229908594
 20
-94.1875391431201
 30
0.0
 10
62.31558229908594
 20
-94.16753664312475
 30
0.0
 10
62.31558229908594
 20
-94.14827497646309
 30
0.0
 10
62.33142202090406
 20
-94.13239997646703
 30
0.0
 10
62.35138924261687
 20
-94.13239997646703
 30
0.0
 10
62.37068618656901
 20
-94.13239997646703
 30
0.0
 10
62.386561186164
 20
-94.14827497646309
 30
0.0
 10
62.386561186164
 20
-94.16753664312475
 30
0.0
  0
ENDBLK
  5
18D
330
18A
100
AcDbEntity
  8
0
100
AcDbBlockEnd
  0
BLOCK
  5
191
330
18F
100
AcDbEntity
  8
0
100
AcDbBlockBegin
  2
block 18
 70
     0
 10
0.0
 20
0.0
 30
0.0
  3
block 18
  1

  0
SPLINE
  5
193
330
18F
100
AcDbEntity
  8
_U+30EC_U+30A4_U+30E4_U+30FC 1
 62
     7
420
 16777215
370
     9
100
AcDbSpline
210
0.0
220
0.0
230
1.0
 70
    11
 71
     3
 72
    17
 73
    13
 74
     0
 42
0.0000000001
 43
0.0000000001
 12
1.0
 22
0.0
 32
0.0
 13
1.0
 23
0.0
 33
0.0
 40
0.0
 40
0.0
 40
0.0
 40
0.0
 40
1.0
 40
1.0
 40
1.0
 40
2.0
 40
2.0
 40
2.0
 40
3.0
 40
3.0
 40
3.0
 40
4.0
 40
4.0
 40
4.0
 40
4.0
 10
62.386561186164
 20
-98.16800136434715
 30
0.0
 10
62.386561186164
 20
-98.18729830878634
 30
0.0
 10
62.37068618656901
 20
-98.20313803100488
 30
0.0
 10
62.35138924261687
 20
-98.20313803100488
 30
0.0
 10
62.33142202090406
 20
-98.20313803100488
 30
0.0
 10
62.31558229908594
 20
-98.18729830878634
 30
0.0
 10
62.31558229908594
 20
-98.16800136434715
 30
0.0
 10
62.31558229908594
 20
-98.1479988643518
 30
0.0
 10
62.33142202090406
 20
-98.1321591421339
 30
0.0
 10
62.35138924261687
 20
-98.1321591421339
 30
0.0
 10
62.37068618656901
 20
-98.1321591421339
 30
0.0
 10
62.386561186164
 20
-98.1479988643518
 30
0.0
 10
62.386561186164
 20
-98.16800136434715
 30
0.0
  0
ENDBLK
  5
192
330
18F
100
AcDbEntity
  8
0
100
AcDbBlockEnd
  0
BLOCK
  5
1A2
330
1A0
100
AcDbEntity
  8
0
100
AcDbBlockBegin
  2
block 19
 70
     0
 10
0.0
 20
0.0
 30
0.0
  3
block 19
  1

  0
SPLINE
  5
1A4
330
1A0
100
AcDbEntity
  8
_U+30EC_U+30A4_U+30E4_U+30FC 1
370
     0
100
AcDbSpline
210
0.0
220
0.0
230
1.0
 70
    11
 71
     3
 72
    26
 73
    22
 74
     0
 42
0.0000000001
 43
0.0000000001
 12
1.0
 22
0.0
 32
0.0
 13
1.0
 23
0.0
 33
0.0
 40
0.0
 40
0.0
 40
0.0
 40
0.0
 40
1.0
 40
1.0
 40
1.0
 40
2.0
 40
2.0
 40
2.0
 40
3.0
 40
3.0
 40
3.0
 40
4.0
 40
4.0
 40
4.0
 40
5.0
 40
5.0
 40
5.0
 40
6.0
 40
6.0
 40
6.0
 40
7.0
 40
7.0
 40
7.0
 40
7.0
 10
59.96343721374178
 20
-101.7949923790651
 30
0.0
 10
59.96343721374178
 20
-101.7949923790651
 30
0.0
 10
59.96343721374178
 20
-100.690494766494
 30
0.0
 10
59.96343721374178
 20
-100.690494766494
 30
0.0
 10
59.96343721374178
 20
-100.690494766494
 30
0.0
 10
59.63339706625485
 20
-100.690494766494
 30
0.0
 10
59.63339706625485
 20
-100.690494766494
 30
0.0
 10
59.63339706625485
 20
-100.690494766494
 30
0.0
 10
59.63339706625485
 20
-100.5423556606283
 30
0.0
 10
59.63339706625485
 20
-100.5423556606283
 30
0.0
 10
59.96550427103293
 20
-100.5275417500417
 30
0.0
 10
60.01218531485807
 20
-100.3649332431379
 30
0.0
 10
60.04181313603122
 20
-100.2505560730276
 30
0.0
 10
60.04181313603122
 20
-100.2505560730276
 30
0.0
 10
60.18771292983155
 20
-100.2505560730276
 30
0.0
 10
60.18771292983155
 20
-100.2505560730276
 30
0.0
 10
60.18771292983155
 20
-100.2505560730276
 30
0.0
 10
60.18771292983155
 20
-101.7949923790651
 30
0.0
 10
60.18771292983155
 20
-101.7949923790651
 30
0.0
 10
60.18771292983155
 20
-101.7949923790651
 30
0.0
 10
59.96343721374178
 20
-101.7949923790651
 30
0.0
 10
59.96343721374178
 20
-101.7949923790651
 30
0.0
  0
HATCH
  5
1A5
330
1A0
100
AcDbEntity
  8
_U+30EC_U+30A4_U+30E4_U+30FC 1
 62
     7
420
 16777215
100
AcDbHatch
 10
0.0
 20
0.0
 30
0.0
210
0.0
220
0.0
230
1.0
  2
SOLID
 70
     1
 71
     0
 91
        1
 92
        1
 93
        1
 72
     4
 94
        3
 73
     0
 74
     1
 95
       26
 96
       22
 40
0.0
 40
0.0
 40
0.0
 40
0.0
 40
1.0
 40
1.0
 40
1.0
 40
2.0
 40
2.0
 40
2.0
 40
3.0
 40
3.0
 40
3.0
 40
4.0
 40
4.0
 40
4.0
 40
5.0
 40
5.0
 40
5.0
 40
6.0
 40
6.0
 40
6.0
 40
7.0
 40
7.0
 40
7.0
 40
7.0
 10
59.96343721374178
 20
-101.7949923790651
 10
59.96343721374178
 20
-101.7949923790651
 10
59.96343721374178
 20
-100.690494766494
 10
59.96343721374178
 20
-100.690494766494
 10
59.96343721374178
 20
-100.690494766494
 10
59.63339706625485
 20
-100.690494766494
 10
59.63339706625485
 20
-100.690494766494
 10
59.63339706625485
 20
-100.690494766494
 10
59.63339706625485
 20
-100.5423556606283
 10
59.63339706625485
 20
-100.5423556606283
 10
59.96550427103293
 20
-100.5275417500417
 10
60.01218531485807
 20
-100.3649332431379
 10
60.04181313603122
 20
-100.2505560730276
 10
60.04181313603122
 20
-100.2505560730276
 10
60.18771292983155
 20
-100.2505560730276
 10
60.18771292983155
 20
-100.2505560730276
 10
60.18771292983155
 20
-100.2505560730276
 10
60.18771292983155
 20
-101.7949923790651
 10
60.18771292983155
 20
-101.7949923790651
 10
60.18771292983155
 20
-101.7949923790651
 10
59.96343721374178
 20
-101.7949923790651
 10
59.96343721374178
 20
-101.7949923790651
 97
        0
 97
        0
 75
     2
 76
     1
 98
        0
  0
SPLINE
  5
1A6
330
1A0
100
AcDbEntity
  8
_U+30EC_U+30A4_U+30E4_U+30FC 1
370
     0
100
AcDbSpline
210
0.0
220
0.0
230
1.0
 70
    11
 71
     3
 72
    44
 73
    40
 74
     0
 42
0.0000000001
 43
0.0000000001
 12
1.0
 22
0.0
 32
0.0
 13
1.0
 23
0.0
 33
0.0
 40
0.0
 40
0.0
 40
0.0
 40
0.0
 40
1.0
 40
1.0
 40
1.0
 40
2.0
 40
2.0
 40
2.0
 40
3.0
 40
3.0
 40
3.0
 40
4.0
 40
4.0
 40
4.0
 40
5.0
 40
5.0
 40
5.0
 40
6.0
 40
6.0
 40
6.0
 40
7.0
 40
7.0
 40
7.0
 40
8.0
 40
8.0
 40
8.0
 40
9.0
 40
9.0
 40
9.0
 40
10.0
 40
10.0
 40
10.0
 40
11.0
 40
11.0
 40
11.0
 40
12.0
 40
12.0
 40
12.0
 40
13.0
 40
13.0
 40
13.0
 40
13.0
 10
61.28204751072116
 20
-101.2131157516065
 30
0.0
 10
61.06414522127911
 20
-101.3715901439279
 30
0.0
 10
60.97112764317736
 20
-101.4456596968608
 30
0.0
 10
60.92237954206107
 20
-101.5896646881443
 30
0.0
 10
60.92237954206107
 20
-101.5896646881443
 30
0.0
 10
61.70097112172754
 20
-101.5896646881443
 30
0.0
 10
61.70097112172754
 20
-101.5896646881443
 30
0.0
 10
61.70097112172754
 20
-101.5896646881443
 30
0.0
 10
61.70097112172754
 20
-101.7949923790651
 30
0.0
 10
61.70097112172754
 20
-101.7949923790651
 30
0.0
 10
61.70097112172754
 20
-101.7949923790651
 30
0.0
 10
60.67278237415472
 20
-101.7949923790651
 30
0.0
 10
60.67278237415472
 20
-101.7949923790651
 30
0.0
 10
60.70447725261902
 20
-101.4373914676962
 30
0.0
 10
60.77010632161304
 20
-101.359187800181
 30
0.0
 10
61.1550957420897
 20
-101.0608425311584
 30
0.0
 10
61.41106633664376
 20
-100.8620605216595
 30
0.0
 10
61.47669540563777
 20
-100.7941921406001
 30
0.0
 10
61.47669540563777
 20
-100.6567328307386
 30
0.0
 10
61.47669540563777
 20
-100.538221546046
 30
0.0
 10
61.40469290999605
 20
-100.406963408058
 30
0.0
 10
61.20797795778829
 20
-100.406963408058
 30
0.0
 10
60.94787324865192
 20
-100.406963408058
 30
0.0
 10
60.9392605099388
 20
-100.6377848055697
 30
0.0
 10
60.9351263953565
 20
-100.7538845234226
 30
0.0
 10
60.9351263953565
 20
-100.7538845234226
 30
0.0
 10
60.71085067926673
 20
-100.7538845234226
 30
0.0
 10
60.71085067926673
 20
-100.7538845234226
 30
0.0
 10
60.7192911632056
 20
-100.6271050095655
 30
0.0
 10
60.72997095920987
 20
-100.5151394062948
 30
0.0
 10
60.81024168401619
 20
-100.3966281216022
 30
0.0
 10
60.92031248476992
 20
-100.2357421624411
 30
0.0
 10
61.10651989574768
 20
-100.2019802266856
 30
0.0
 10
61.22279186837486
 20
-100.2019802266856
 30
0.0
 10
61.49994980016321
 20
-100.2019802266856
 30
0.0
 10
61.70734454837525
 20
-100.385948325598
 30
0.0
 10
61.70734454837525
 20
-100.6587998880297
 30
0.0
 10
61.70734454837525
 20
-100.8872097187018
 30
0.0
 10
61.59090032097381
 20
-100.9867729782255
 30
0.0
 10
61.28204751072116
 20
-101.2131157516065
 30
0.0
  0
HATCH
  5
1A7
330
1A0
100
AcDbEntity
  8
_U+30EC_U+30A4_U+30E4_U+30FC 1
 62
     7
420
 16777215
100
AcDbHatch
 10
0.0
 20
0.0
 30
0.0
210
0.0
220
0.0
230
1.0
  2
SOLID
 70
     1
 71
     0
 91
        1
 92
        1
 93
        1
 72
     4
 94
        3
 73
     0
 74
     1
 95
       44
 96
       40
 40
0.0
 40
0.0
 40
0.0
 40
0.0
 40
1.0
 40
1.0
 40
1.0
 40
2.0
 40
2.0
 40
2.0
 40
3.0
 40
3.0
 40
3.0
 40
4.0
 40
4.0
 40
4.0
 40
5.0
 40
5.0
 40
5.0
 40
6.0
 40
6.0
 40
6.0
 40
7.0
 40
7.0
 40
7.0
 40
8.0
 40
8.0
 40
8.0
 40
9.0
 40
9.0
 40
9.0
 40
10.0
 40
10.0
 40
10.0
 40
11.0
 40
11.0
 40
11.0
 40
12.0
 40
12.0
 40
12.0
 40
13.0
 40
13.0
 40
13.0
 40
13.0
 10
61.28204751072116
 20
-101.2131157516065
 10
61.06414522127911
 20
-101.3715901439279
 10
60.97112764317736
 20
-101.4456596968608
 10
60.92237954206107
 20
-101.5896646881443
 10
60.92237954206107
 20
-101.5896646881443
 10
61.70097112172754
 20
-101.5896646881443
 10
61.70097112172754
 20
-101.5896646881443
 10
61.70097112172754
 20
-101.5896646881443
 10
61.70097112172754
 20
-101.7949923790651
 10
61.70097112172754
 20
-101.7949923790651
 10
61.70097112172754
 20
-101.7949923790651
 10
60.67278237415472
 20
-101.7949923790651
 10
60.67278237415472
 20
-101.7949923790651
 10
60.70447725261902
 20
-101.4373914676962
 10
60.77010632161304
 20
-101.359187800181
 10
61.1550957420897
 20
-101.0608425311584
 10
61.41106633664376
 20
-100.8620605216595
 10
61.47669540563777
 20
-100.7941921406001
 10
61.47669540563777
 20
-100.6567328307386
 10
61.47669540563777
 20
-100.538221546046
 10
61.40469290999605
 20
-100.406963408058
 10
61.20797795778829
 20
-100.406963408058
 10
60.94787324865192
 20
-100.406963408058
 10
60.9392605099388
 20
-100.6377848055697
 10
60.9351263953565
 20
-100.7538845234226
 10
60.9351263953565
 20
-100.7538845234226
 10
60.71085067926673
 20
-100.7538845234226
 10
60.71085067926673
 20
-100.7538845234226
 10
60.7192911632056
 20
-100.6271050095655
 10
60.72997095920987
 20
-100.5151394062948
 10
60.81024168401619
 20
-100.3966281216022
 10
60.92031248476992
 20
-100.2357421624411
 10
61.10651989574768
 20
-100.2019802266856
 10
61.22279186837486
 20
-100.2019802266856
 10
61.49994980016321
 20
-100.2019802266856
 10
61.70734454837525
 20
-100.385948325598
 10
61.70734454837525
 20
-100.6587998880297
 10
61.70734454837525
 20
-100.8872097187018
 10
61.59090032097381
 20
-100.9867729782255
 10
61.28204751072116
 20
-101.2131157516065
 97
        0
 97
        0
 75
     2
 76
     1
 98
        0
  0
ENDBLK
  5
1A3
330
1A0
100
AcDbEntity
  8
0
100
AcDbBlockEnd
  0
BLOCK
  5
1AA
330
1A8
100
AcDbEntity
  8
0
100
AcDbBlockBegin
  2
block 20
 70
     0
 10
0.0
 20
0.0
 30
0.0
  3
block 20
  1

  0
SPLINE
  5
1AC
330
1A8
100
AcDbEntity
  8
_U+30EC_U+30A4_U+30E4_U+30FC 1
 62
     7
420
 16777215
370
    25
100
AcDbSpline
210
0.0
220
0.0
230
1.0
 70
    11
 71
     3
 72
    17
 73
    13
 74
     0
 42
0.0000000001
 43
0.0000000001
 12
1.0
 22
0.0
 32
0.0
 13
1.0
 23
0.0
 33
0.0
 40
0.0
 40
0.0
 40
0.0
 40
0.0
 40
1.0
 40
1.0
 40
1.0
 40
2.0
 40
2.0
 40
2.0
 40
3.0
 40
3.0
 40
3.0
 40
4.0
 40
4.0
 40
4.0
 40
4.0
 10
54.63645831967422
 20
-93.16779969893037
 30
0.0
 10
54.63645831967422
 20
-93.18706136559203
 30
0.0
 10
54.62061721762307
 20
-93.20293636558809
 30
0.0
 10
54.60132027367094
 20
-93.20293636558809
 30
0.0
 10
54.58135305195812
 20
-93.20293636558809
 30
0.0
 10
54.56547805236313
 20
-93.18706136559203
 30
0.0
 10
54.56547805236313
 20
-93.16779969893037
 30
0.0
 10
54.56547805236313
 20
-93.14850275449054
 30
0.0
 10
54.58135305195812
 20
-93.13262775449448
 30
0.0
 10
54.60132027367094
 20
-93.13262775449448
 30
0.0
 10
54.62061721762307
 20
-93.13262775449448
 30
0.0
 10
54.63645831967422
 20
-93.14850275449054
 30
0.0
 10
54.63645831967422
 20
-93.16779969893037
 30
0.0
  0
ENDBLK
  5
1AB
330
1A8
100
AcDbEntity
  8
0
100
AcDbBlockEnd
  0
BLOCK
  5
1AF
330
1AD
100
AcDbEntity
  8
0
100
AcDbBlockBegin
  2
block 21
 70
     0
 10
0.0
 20
0.0
 30
0.0
  3
block 21
  1

  0
SPLINE
  5
1B1
330
1AD
100
AcDbEntity
  8
_U+30EC_U+30A4_U+30E4_U+30FC 1
 62
     7
420
 16777215
370
    25
100
AcDbSpline
210
0.0
220
0.0
230
1.0
 70
    11
 71
     3
 72
    17
 73
    13
 74
     0
 42
0.0000000001
 43
0.0000000001
 12
1.0
 22
0.0
 32
0.0
 13
1.0
 23
0.0
 33
0.0
 40
0.0
 40
0.0
 40
0.0
 40
0.0
 40
1.0
 40
1.0
 40
1.0
 40
2.0
 40
2.0
 40
2.0
 40
3.0
 40
3.0
 40
3.0
 40
4.0
 40
4.0
 40
4.0
 40
4.0
 10
66.6364044110748
 20
-93.16779969893037
 30
0.0
 10
66.6364044110748
 20
-93.18706136559203
 30
0.0
 10
66.62056468925668
 20
-93.20293636558809
 30
0.0
 10
66.60126942779387
 20
-93.20293636558809
 30
0.0
 10
66.58197080135241
 20
-93.20293636558809
 30
0.0
 10
66.56613107953429
 20
-93.18706136559203
 30
0.0
 10
66.56613107953429
 20
-93.16779969893037
 30
0.0
 10
66.56613107953429
 20
-93.14850275449054
 30
0.0
 10
66.58197080135241
 20
-93.13262775449448
 30
0.0
 10
66.60126942779387
 20
-93.13262775449448
 30
0.0
 10
66.62056468925668
 20
-93.13262775449448
 30
0.0
 10
66.6364044110748
 20
-93.14850275449054
 30
0.0
 10
66.6364044110748
 20
-93.16779969893037
 30
0.0
  0
ENDBLK
  5
1B0
330
1AD
100
AcDbEntity
  8
0
100
AcDbBlockEnd
  0
BLOCK
  5
1B4
330
1B2
100
AcDbEntity
  8
0
100
AcDbBlockBegin
  2
block 22
 70
     0
 10
0.0
 20
0.0
 30
0.0
  3
block 22
  1

  0
SPLINE
  5
1B6
330
1B2
100
AcDbEntity
  8
_U+30EC_U+30A4_U+30E4_U+30FC 1
 62
     7
420
 16777215
370
     9
100
AcDbSpline
210
0.0
220
0.0
230
1.0
 70
    11
 71
     3
 72
    17
 73
    13
 74
     0
 42
0.0000000001
 43
0.0000000001
 12
1.0
 22
0.0
 32
0.0
 13
1.0
 23
0.0
 33
0.0
 40
0.0
 40
0.0
 40
0.0
 40
0.0
 40
1.0
 40
1.0
 40
1.0
 40
2.0
 40
2.0
 40
2.0
 40
3.0
 40
3.0
 40
3.0
 40
4.0
 40
4.0
 40
4.0
 40
4.0
 10
66.6364044110748
 20
-102.1677605300134
 30
0.0
 10
66.6364044110748
 20
-102.1870574744532
 30
0.0
 10
66.62056468925668
 20
-102.2028971966718
 30
0.0
 10
66.60126942779387
 20
-102.2028971966718
 30
0.0
 10
66.58197080135241
 20
-102.2028971966718
 30
0.0
 10
66.56613107953429
 20
-102.1870574744532
 30
0.0
 10
66.56613107953429
 20
-102.1677605300134
 30
0.0
 10
66.56613107953429
 20
-102.1484635855742
 30
0.0
 10
66.58197080135241
 20
-102.1326238633557
 30
0.0
 10
66.60126942779387
 20
-102.1326238633557
 30
0.0
 10
66.62056468925668
 20
-102.1326238633557
 30
0.0
 10
66.6364044110748
 20
-102.1484635855742
 30
0.0
 10
66.6364044110748
 20
-102.1677605300134
 30
0.0
  0
ENDBLK
  5
1B5
330
1B2
100
AcDbEntity
  8
0
100
AcDbBlockEnd
  0
BLOCK
  5
1C1
330
1BF
100
AcDbEntity
  8
0
100
AcDbBlockBegin
  2
block 23
 70
     0
 10
0.0
 20
0.0
 30
0.0
  3
block 23
  1

  0
SPLINE
  5
1C3
330
1BF
100
AcDbEntity
  8
_U+30EC_U+30A4_U+30E4_U+30FC 1
370
     0
100
AcDbSpline
210
0.0
220
0.0
230
1.0
 70
    11
 71
     3
 72
    32
 73
    28
 74
     0
 42
0.0000000001
 43
0.0000000001
 12
1.0
 22
0.0
 32
0.0
 13
1.0
 23
0.0
 33
0.0
 40
0.0
 40
0.0
 40
0.0
 40
0.0
 40
1.0
 40
1.0
 40
1.0
 40
2.0
 40
2.0
 40
2.0
 40
3.0
 40
3.0
 40
3.0
 40
4.0
 40
4.0
 40
4.0
 40
5.0
 40
5.0
 40
5.0
 40
6.0
 40
6.0
 40
6.0
 40
7.0
 40
7.0
 40
7.0
 40
8.0
 40
8.0
 40
8.0
 40
9.0
 40
9.0
 40
9.0
 40
9.0
 10
71.0578504596661
 20
-101.8456352826983
 30
0.0
 10
70.88421764720951
 20
-101.8456352826983
 30
0.0
 10
70.63892684865972
 20
-101.7756998443477
 30
0.0
 10
70.60068628877345
 20
-101.4435926395697
 30
0.0
 10
70.60068628877345
 20
-101.4435926395697
 30
0.0
 10
70.81462671840745
 20
-101.4435926395697
 30
0.0
 10
70.81462671840745
 20
-101.4435926395697
 30
0.0
 10
70.82496200486321
 20
-101.502848281916
 30
0.0
 10
70.8566568833275
 20
-101.6509873877817
 30
0.0
 10
71.05991751695724
 20
-101.6509873877817
 30
0.0
 10
71.3517171045579
 20
-101.6509873877817
 30
0.0
 10
71.38995766444418
 20
-101.3209472402948
 30
0.0
 10
71.40270451773961
 20
-101.1156195493739
 30
0.0
 10
71.31175399692901
 20
-101.1962347837287
 30
0.0
 10
71.24388561586959
 20
-101.2534233687839
 30
0.0
 10
71.0619845742484
 20
-101.2534233687839
 30
0.0
 10
70.88215058991835
 20
-101.2534233687839
 30
0.0
 10
70.57967120631342
 20
-101.1476589373867
 30
0.0
 10
70.57967120631342
 20
-100.7414821796757
 30
0.0
 10
70.57967120631342
 20
-100.4217773186446
 30
0.0
 10
70.77845321581233
 20
-100.2019802266856
 30
0.0
 10
71.09574651000385
 20
-100.2019802266856
 30
0.0
 10
71.60975475640312
 20
-100.2019802266856
 30
0.0
 10
71.62043455240739
 20
-100.7562960902623
 30
0.0
 10
71.62043455240739
 20
-100.9698920103478
 30
0.0
 10
71.62043455240739
 20
-101.200368898311
 30
0.0
 10
71.60148652723852
 20
-101.8456352826983
 30
0.0
 10
71.0578504596661
 20
-101.8456352826983
 30
0.0
  0
SPLINE
  5
1C4
330
1BF
100
AcDbEntity
  8
_U+30EC_U+30A4_U+30E4_U+30FC 1
370
     0
100
AcDbSpline
210
0.0
220
0.0
230
1.0
 70
    11
 71
     3
 72
    17
 73
    13
 74
     0
 42
0.0000000001
 43
0.0000000001
 12
1.0
 22
0.0
 32
0.0
 13
1.0
 23
0.0
 33
0.0
 40
0.0
 40
0.0
 40
0.0
 40
0.0
 40
1.0
 40
1.0
 40
1.0
 40
2.0
 40
2.0
 40
2.0
 40
3.0
 40
3.0
 40
3.0
 40
4.0
 40
4.0
 40
4.0
 40
4.0
 10
71.09781356729499
 20
-100.3942165547626
 30
0.0
 10
70.97964679215093
 20
-100.3942165547626
 30
0.0
 10
70.80394692240318
 20
-100.4514051398177
 30
0.0
 10
70.80394692240318
 20
-100.7370035555449
 30
0.0
 10
70.80394692240318
 20
-100.9633463289258
 30
0.0
 10
70.9434732895558
 20
-101.0587754738673
 30
0.0
 10
71.07886554212612
 20
-101.0587754738673
 30
0.0
 10
71.34138181810216
 20
-101.0587754738673
 30
0.0
 10
71.3792778684399
 20
-100.8493136683641
 30
0.0
 10
71.3792778684399
 20
-100.7328694409626
 30
0.0
 10
71.3792778684399
 20
-100.5571695712149
 30
0.0
 10
71.284193233047
 20
-100.3942165547626
 30
0.0
 10
71.09781356729499
 20
-100.3942165547626
 30
0.0
  0
HATCH
  5
1C5
330
1BF
100
AcDbEntity
  8
_U+30EC_U+30A4_U+30E4_U+30FC 1
 62
     7
420
 16777215
100
AcDbHatch
 10
0.0
 20
0.0
 30
0.0
210
0.0
220
0.0
230
1.0
  2
SOLID
 70
     1
 71
     0
 91
        2
 92
        1
 93
        1
 72
     4
 94
        3
 73
     0
 74
     1
 95
       32
 96
       28
 40
0.0
 40
0.0
 40
0.0
 40
0.0
 40
1.0
 40
1.0
 40
1.0
 40
2.0
 40
2.0
 40
2.0
 40
3.0
 40
3.0
 40
3.0
 40
4.0
 40
4.0
 40
4.0
 40
5.0
 40
5.0
 40
5.0
 40
6.0
 40
6.0
 40
6.0
 40
7.0
 40
7.0
 40
7.0
 40
8.0
 40
8.0
 40
8.0
 40
9.0
 40
9.0
 40
9.0
 40
9.0
 10
71.0578504596661
 20
-101.8456352826983
 10
70.88421764720951
 20
-101.8456352826983
 10
70.63892684865972
 20
-101.7756998443477
 10
70.60068628877345
 20
-101.4435926395697
 10
70.60068628877345
 20
-101.4435926395697
 10
70.81462671840745
 20
-101.4435926395697
 10
70.81462671840745
 20
-101.4435926395697
 10
70.82496200486321
 20
-101.502848281916
 10
70.8566568833275
 20
-101.6509873877817
 10
71.05991751695724
 20
-101.6509873877817
 10
71.3517171045579
 20
-101.6509873877817
 10
71.38995766444418
 20
-101.3209472402948
 10
71.40270451773961
 20
-101.1156195493739
 10
71.31175399692901
 20
-101.1962347837287
 10
71.24388561586959
 20
-101.2534233687839
 10
71.0619845742484
 20
-101.2534233687839
 10
70.88215058991835
 20
-101.2534233687839
 10
70.57967120631342
 20
-101.1476589373867
 10
70.57967120631342
 20
-100.7414821796757
 10
70.57967120631342
 20
-100.4217773186446
 10
70.77845321581233
 20
-100.2019802266856
 10
71.09574651000385
 20
-100.2019802266856
 10
71.60975475640312
 20
-100.2019802266856
 10
71.62043455240739
 20
-100.7562960902623
 10
71.62043455240739
 20
-100.9698920103478
 10
71.62043455240739
 20
-101.200368898311
 10
71.60148652723852
 20
-101.8456352826983
 10
71.0578504596661
 20
-101.8456352826983
 97
        0
 97
        0
 92
        1
 93
        1
 72
     4
 94
        3
 73
     0
 74
     1
 95
       17
 96
       13
 40
0.0
 40
0.0
 40
0.0
 40
0.0
 40
1.0
 40
1.0
 40
1.0
 40
2.0
 40
2.0
 40
2.0
 40
3.0
 40
3.0
 40
3.0
 40
4.0
 40
4.0
 40
4.0
 40
4.0
 10
71.09781356729499
 20
-100.3942165547626
 10
70.97964679215093
 20
-100.3942165547626
 10
70.80394692240318
 20
-100.4514051398177
 10
70.80394692240318
 20
-100.7370035555449
 10
70.80394692240318
 20
-100.9633463289258
 10
70.9434732895558
 20
-101.0587754738673
 10
71.07886554212612
 20
-101.0587754738673
 10
71.34138181810216
 20
-101.0587754738673
 10
71.3792778684399
 20
-100.8493136683641
 10
71.3792778684399
 20
-100.7328694409626
 10
71.3792778684399
 20
-100.5571695712149
 10
71.284193233047
 20
-100.3942165547626
 10
71.09781356729499
 20
-100.3942165547626
 97
        0
 97
        0
 75
     2
 76
     1
 98
        0
  0
ENDBLK
  5
1C2
330
1BF
100
AcDbEntity
  8
0
100
AcDbBlockEnd
  0
BLOCK
  5
1C8
330
1C6
100
AcDbEntity
  8
0
100
AcDbBlockBegin
  2
block 24
 70
     0
 10
0.0
 20
0.0
 30
0.0
  3
block 24
  1

  0
SPLINE
  5
1CA
330
1C6
100
AcDbEntity
  8
_U+30EC_U+30A4_U+30E4_U+30FC 1
 62
     7
420
 16777215
370
    25
100
AcDbSpline
210
0.0
220
0.0
230
1.0
 70
    11
 71
     3
 72
    17
 73
    13
 74
     0
 42
0.0000000001
 43
0.0000000001
 12
1.0
 22
0.0
 32
0.0
 13
1.0
 23
0.0
 33
0.0
 40
0.0
 40
0.0
 40
0.0
 40
0.0
 40
1.0
 40
1.0
 40
1.0
 40
2.0
 40
2.0
 40
2.0
 40
3.0
 40
3.0
 40
3.0
 40
4.0
 40
4.0
 40
4.0
 40
4.0
 10
66.6364044110748
 20
-93.16779969893037
 30
0.0
 10
66.6364044110748
 20
-93.18706136559203
 30
0.0
 10
66.62056468925668
 20
-93.20293636558809
 30
0.0
 10
66.60126942779387
 20
-93.20293636558809
 30
0.0
 10
66.58197080135241
 20
-93.20293636558809
 30
0.0
 10
66.56613107953429
 20
-93.18706136559203
 30
0.0
 10
66.56613107953429
 20
-93.16779969893037
 30
0.0
 10
66.56613107953429
 20
-93.14850275449054
 30
0.0
 10
66.58197080135241
 20
-93.13262775449448
 30
0.0
 10
66.60126942779387
 20
-93.13262775449448
 30
0.0
 10
66.62056468925668
 20
-93.13262775449448
 30
0.0
 10
66.6364044110748
 20
-93.14850275449054
 30
0.0
 10
66.6364044110748
 20
-93.16779969893037
 30
0.0
  0
ENDBLK
  5
1C9
330
1C6
100
AcDbEntity
  8
0
100
AcDbBlockEnd
  0
BLOCK
  5
1CD
330
1CB
100
AcDbEntity
  8
0
100
AcDbBlockBegin
  2
block 25
 70
     0
 10
0.0
 20
0.0
 30
0.0
  3
block 25
  1

  0
SPLINE
  5
1CF
330
1CB
100
AcDbEntity
  8
_U+30EC_U+30A4_U+30E4_U+30FC 1
 62
     7
420
 16777215
370
    25
100
AcDbSpline
210
0.0
220
0.0
230
1.0
 70
    11
 71
     3
 72
    17
 73
    13
 74
     0
 42
0.0000000001
 43
0.0000000001
 12
1.0
 22
0.0
 32
0.0
 13
1.0
 23
0.0
 33
0.0
 40
0.0
 40
0.0
 40
0.0
 40
0.0
 40
1.0
 40
1.0
 40
1.0
 40
2.0
 40
2.0
 40
2.0
 40
3.0
 40
3.0
 40
3.0
 40
4.0
 40
4.0
 40
4.0
 40
4.0
 10
75.6363650148
 20
-94.16753664312475
 30
0.0
 10
75.6363650148
 20
-94.1875391431201
 30
0.0
 10
75.6205252929819
 20
-94.203378865338
 30
0.0
 10
75.60122834902975
 20
-94.203378865338
 30
0.0
 10
75.5819333144377
 20
-94.203378865338
 30
0.0
 10
75.5660916832595
 20
-94.1875391431201
 30
0.0
 10
75.5660916832595
 20
-94.16753664312475
 30
0.0
 10
75.5660916832595
 20
-94.14827497646309
 30
0.0
 10
75.5819333144377
 20
-94.13239997646703
 30
0.0
 10
75.60122834902975
 20
-94.13239997646703
 30
0.0
 10
75.6205252929819
 20
-94.13239997646703
 30
0.0
 10
75.6363650148
 20
-94.14827497646309
 30
0.0
 10
75.6363650148
 20
-94.16753664312475
 30
0.0
  0
ENDBLK
  5
1CE
330
1CB
100
AcDbEntity
  8
0
100
AcDbBlockEnd
  0
BLOCK
  5
1D2
330
1D0
100
AcDbEntity
  8
0
100
AcDbBlockBegin
  2
block 26
 70
     0
 10
0.0
 20
0.0
 30
0.0
  3
block 26
  1

  0
SPLINE
  5
1D4
330
1D0
100
AcDbEntity
  8
_U+30EC_U+30A4_U+30E4_U+30FC 1
 62
     7
420
 16777215
370
     9
100
AcDbSpline
210
0.0
220
0.0
230
1.0
 70
    11
 71
     3
 72
    17
 73
    13
 74
     0
 42
0.0000000001
 43
0.0000000001
 12
1.0
 22
0.0
 32
0.0
 13
1.0
 23
0.0
 33
0.0
 40
0.0
 40
0.0
 40
0.0
 40
0.0
 40
1.0
 40
1.0
 40
1.0
 40
2.0
 40
2.0
 40
2.0
 40
3.0
 40
3.0
 40
3.0
 40
4.0
 40
4.0
 40
4.0
 40
4.0
 10
75.6363650148
 20
-102.1677605300134
 30
0.0
 10
75.6363650148
 20
-102.1870574744532
 30
0.0
 10
75.6205252929819
 20
-102.2028971966718
 30
0.0
 10
75.60122834902975
 20
-102.2028971966718
 30
0.0
 10
75.5819333144377
 20
-102.2028971966718
 30
0.0
 10
75.5660916832595
 20
-102.1870574744532
 30
0.0
 10
75.5660916832595
 20
-102.1677605300134
 30
0.0
 10
75.5660916832595
 20
-102.1484635855742
 30
0.0
 10
75.5819333144377
 20
-102.1326238633557
 30
0.0
 10
75.60122834902975
 20
-102.1326238633557
 30
0.0
 10
75.6205252929819
 20
-102.1326238633557
 30
0.0
 10
75.6363650148
 20
-102.1484635855742
 30
0.0
 10
75.6363650148
 20
-102.1677605300134
 30
0.0
  0
ENDBLK
  5
1D3
330
1D0
100
AcDbEntity
  8
0
100
AcDbBlockEnd
  0
BLOCK
  5
1DF
330
1DD
100
AcDbEntity
  8
0
100
AcDbBlockBegin
  2
block 27
 70
     0
 10
0.0
 20
0.0
 30
0.0
  3
block 27
  1

  0
SPLINE
  5
1E1
330
1DD
100
AcDbEntity
  8
_U+30EC_U+30A4_U+30E4_U+30FC 1
370
     0
100
AcDbSpline
210
0.0
220
0.0
230
1.0
 70
    11
 71
     3
 72
    32
 73
    28
 74
     0
 42
0.0000000001
 43
0.0000000001
 12
1.0
 22
0.0
 32
0.0
 13
1.0
 23
0.0
 33
0.0
 40
0.0
 40
0.0
 40
0.0
 40
0.0
 40
1.0
 40
1.0
 40
1.0
 40
2.0
 40
2.0
 40
2.0
 40
3.0
 40
3.0
 40
3.0
 40
4.0
 40
4.0
 40
4.0
 40
5.0
 40
5.0
 40
5.0
 40
6.0
 40
6.0
 40
6.0
 40
7.0
 40
7.0
 40
7.0
 40
8.0
 40
8.0
 40
8.0
 40
9.0
 40
9.0
 40
9.0
 40
9.0
 10
50.05861543887423
 20
-101.8456352826983
 30
0.0
 10
49.88515488119191
 20
-101.8456352826983
 30
0.0
 10
49.63969182786786
 20
-101.7756998443477
 30
0.0
 10
49.60162352275584
 20
-101.4435926395697
 30
0.0
 10
49.60162352275584
 20
-101.4435926395697
 30
0.0
 10
49.8153916976156
 20
-101.4435926395697
 30
0.0
 10
49.8153916976156
 20
-101.4435926395697
 30
0.0
 10
49.82589923884561
 20
-101.502848281916
 30
0.0
 10
49.85759411730991
 20
-101.6509873877817
 30
0.0
 10
50.06068249616538
 20
-101.6509873877817
 30
0.0
 10
50.35265433854031
 20
-101.6509873877817
 30
0.0
 10
50.39072264365232
 20
-101.3209472402948
 30
0.0
 10
50.40346949694774
 20
-101.1156195493739
 30
0.0
 10
50.31251897613715
 20
-101.1962347837287
 30
0.0
 10
50.24482284985199
 20
-101.2534233687839
 30
0.0
 10
50.0629218082308
 20
-101.2534233687839
 30
0.0
 10
49.88308782390076
 20
-101.2534233687839
 30
0.0
 10
49.58043618552156
 20
-101.1476589373867
 30
0.0
 10
49.58043618552156
 20
-100.7414821796757
 30
0.0
 10
49.58043618552156
 20
-100.4217773186446
 30
0.0
 10
49.77939044979474
 20
-100.2019802266856
 30
0.0
 10
50.09668374398625
 20
-100.2019802266856
 30
0.0
 10
50.61069199038553
 20
-100.2019802266856
 30
0.0
 10
50.6213717863898
 20
-100.7562960902623
 30
0.0
 10
50.6213717863898
 20
-100.9698920103478
 30
0.0
 10
50.6213717863898
 20
-101.200368898311
 30
0.0
 10
50.60225150644666
 20
-101.8456352826983
 30
0.0
 10
50.05861543887423
 20
-101.8456352826983
 30
0.0
  0
SPLINE
  5
1E2
330
1DD
100
AcDbEntity
  8
_U+30EC_U+30A4_U+30E4_U+30FC 1
370
     0
100
AcDbSpline
210
0.0
220
0.0
230
1.0
 70
    11
 71
     3
 72
    17
 73
    13
 74
     0
 42
0.0000000001
 43
0.0000000001
 12
1.0
 22
0.0
 32
0.0
 13
1.0
 23
0.0
 33
0.0
 40
0.0
 40
0.0
 40
0.0
 40
0.0
 40
1.0
 40
1.0
 40
1.0
 40
2.0
 40
2.0
 40
2.0
 40
3.0
 40
3.0
 40
3.0
 40
4.0
 40
4.0
 40
4.0
 40
4.0
 10
50.0987508012774
 20
-100.3942165547626
 30
0.0
 10
49.98041177135907
 20
-100.3942165547626
 30
0.0
 10
49.80471190161133
 20
-100.4514051398177
 30
0.0
 10
49.80471190161133
 20
-100.7370035555449
 30
0.0
 10
49.80471190161133
 20
-100.9633463289258
 30
0.0
 10
49.9444105235382
 20
-101.0587754738673
 30
0.0
 10
50.07980277610852
 20
-101.0587754738673
 30
0.0
 10
50.3421467973103
 20
-101.0587754738673
 30
0.0
 10
50.38021510242231
 20
-100.8493136683641
 30
0.0
 10
50.38021510242231
 20
-100.7328694409626
 30
0.0
 10
50.38021510242231
 20
-100.5571695712149
 30
0.0
 10
50.28495821225515
 20
-100.3942165547626
 30
0.0
 10
50.0987508012774
 20
-100.3942165547626
 30
0.0
  0
HATCH
  5
1E3
330
1DD
100
AcDbEntity
  8
_U+30EC_U+30A4_U+30E4_U+30FC 1
 62
     7
420
 16777215
100
AcDbHatch
 10
0.0
 20
0.0
 30
0.0
210
0.0
220
0.0
230
1.0
  2
SOLID
 70
     1
 71
     0
 91
        2
 92
        1
 93
        1
 72
     4
 94
        3
 73
     0
 74
     1
 95
       32
 96
       28
 40
0.0
 40
0.0
 40
0.0
 40
0.0
 40
1.0
 40
1.0
 40
1.0
 40
2.0
 40
2.0
 40
2.0
 40
3.0
 40
3.0
 40
3.0
 40
4.0
 40
4.0
 40
4.0
 40
5.0
 40
5.0
 40
5.0
 40
6.0
 40
6.0
 40
6.0
 40
7.0
 40
7.0
 40
7.0
 40
8.0
 40
8.0
 40
8.0
 40
9.0
 40
9.0
 40
9.0
 40
9.0
 10
50.05861543887423
 20
-101.8456352826983
 10
49.88515488119191
 20
-101.8456352826983
 10
49.63969182786786
 20
-101.7756998443477
 10
49.60162352275584
 20
-101.4435926395697
 10
49.60162352275584
 20
-101.4435926395697
 10
49.8153916976156
 20
-101.4435926395697
 10
49.8153916976156
 20
-101.4435926395697
 10
49.82589923884561
 20
-101.502848281916
 10
49.85759411730991
 20
-101.6509873877817
 10
50.06068249616538
 20
-101.6509873877817
 10
50.35265433854031
 20
-101.6509873877817
 10
50.39072264365232
 20
-101.3209472402948
 10
50.40346949694774
 20
-101.1156195493739
 10
50.31251897613715
 20
-101.1962347837287
 10
50.24482284985199
 20
-101.2534233687839
 10
50.0629218082308
 20
-101.2534233687839
 10
49.88308782390076
 20
-101.2534233687839
 10
49.58043618552156
 20
-101.1476589373867
 10
49.58043618552156
 20
-100.7414821796757
 10
49.58043618552156
 20
-100.4217773186446
 10
49.77939044979474
 20
-100.2019802266856
 10
50.09668374398625
 20
-100.2019802266856
 10
50.61069199038553
 20
-100.2019802266856
 10
50.6213717863898
 20
-100.7562960902623
 10
50.6213717863898
 20
-100.9698920103478
 10
50.6213717863898
 20
-101.200368898311
 10
50.60225150644666
 20
-101.8456352826983
 10
50.05861543887423
 20
-101.8456352826983
 97
        0
 97
        0
 92
        1
 93
        1
 72
     4
 94
        3
 73
     0
 74
     1
 95
       17
 96
       13
 40
0.0
 40
0.0
 40
0.0
 40
0.0
 40
1.0
 40
1.0
 40
1.0
 40
2.0
 40
2.0
 40
2.0
 40
3.0
 40
3.0
 40
3.0
 40
4.0
 40
4.0
 40
4.0
 40
4.0
 10
50.0987508012774
 20
-100.3942165547626
 10
49.98041177135907
 20
-100.3942165547626
 10
49.80471190161133
 20
-100.4514051398177
 10
49.80471190161133
 20
-100.7370035555449
 10
49.80471190161133
 20
-100.9633463289258
 10
49.9444105235382
 20
-101.0587754738673
 10
50.07980277610852
 20
-101.0587754738673
 10
50.3421467973103
 20
-101.0587754738673
 10
50.38021510242231
 20
-100.8493136683641
 10
50.38021510242231
 20
-100.7328694409626
 10
50.38021510242231
 20
-100.5571695712149
 10
50.28495821225515
 20
-100.3942165547626
 10
50.0987508012774
 20
-100.3942165547626
 97
        0
 97
        0
 75
     2
 76
     1
 98
        0
  0
ENDBLK
  5
1E0
330
1DD
100
AcDbEntity
  8
0
100
AcDbBlockEnd
  0
BLOCK
  5
1E6
330
1E4
100
AcDbEntity
  8
0
100
AcDbBlockBegin
  2
block 28
 70
     0
 10
0.0
 20
0.0
 30
0.0
  3
block 28
  1

  0
SPLINE
  5
1E8
330
1E4
100
AcDbEntity
  8
_U+30EC_U+30A4_U+30E4_U+30FC 1
 62
     7
420
 16777215
370
    25
100
AcDbSpline
210
0.0
220
0.0
230
1.0
 70
    11
 71
     3
 72
    17
 73
    13
 74
     0
 42
0.0000000001
 43
0.0000000001
 12
1.0
 22
0.0
 32
0.0
 13
1.0
 23
0.0
 33
0.0
 40
0.0
 40
0.0
 40
0.0
 40
0.0
 40
1.0
 40
1.0
 40
1.0
 40
2.0
 40
2.0
 40
2.0
 40
3.0
 40
3.0
 40
3.0
 40
4.0
 40
4.0
 40
4.0
 40
4.0
 10
54.63645831967422
 20
-93.16779969893037
 30
0.0
 10
54.63645831967422
 20
-93.18706136559203
 30
0.0
 10
54.62061721762307
 20
-93.20293636558809
 30
0.0
 10
54.60132027367094
 20
-93.20293636558809
 30
0.0
 10
54.58135305195812
 20
-93.20293636558809
 30
0.0
 10
54.56547805236313
 20
-93.18706136559203
 30
0.0
 10
54.56547805236313
 20
-93.16779969893037
 30
0.0
 10
54.56547805236313
 20
-93.14850275449054
 30
0.0
 10
54.58135305195812
 20
-93.13262775449448
 30
0.0
 10
54.60132027367094
 20
-93.13262775449448
 30
0.0
 10
54.62061721762307
 20
-93.13262775449448
 30
0.0
 10
54.63645831967422
 20
-93.14850275449054
 30
0.0
 10
54.63645831967422
 20
-93.16779969893037
 30
0.0
  0
ENDBLK
  5
1E7
330
1E4
100
AcDbEntity
  8
0
100
AcDbBlockEnd
  0
BLOCK
  5
1EB
330
1E9
100
AcDbEntity
  8
0
100
AcDbBlockBegin
  2
block 29
 70
     0
 10
0.0
 20
0.0
 30
0.0
  3
block 29
  1

  0
SPLINE
  5
1ED
330
1E9
100
AcDbEntity
  8
_U+30EC_U+30A4_U+30E4_U+30FC 1
 62
     7
420
 16777215
370
    25
100
AcDbSpline
210
0.0
220
0.0
230
1.0
 70
    11
 71
     3
 72
    17
 73
    13
 74
     0
 42
0.0000000001
 43
0.0000000001
 12
1.0
 22
0.0
 32
0.0
 13
1.0
 23
0.0
 33
0.0
 40
0.0
 40
0.0
 40
0.0
 40
0.0
 40
1.0
 40
1.0
 40
1.0
 40
2.0
 40
2.0
 40
2.0
 40
3.0
 40
3.0
 40
3.0
 40
4.0
 40
4.0
 40
4.0
 40
4.0
 10
45.63649633571598
 20
-94.16753664312475
 30
0.0
 10
45.63649633571598
 20
-94.1875391431201
 30
0.0
 10
45.62065661389786
 20
-94.203378865338
 30
0.0
 10
45.60135966994572
 20
-94.203378865338
 30
0.0
 10
45.58135832193811
 20
-94.203378865338
 30
0.0
 10
45.56551744863791
 20
-94.1875391431201
 30
0.0
 10
45.56551744863791
 20
-94.16753664312475
 30
0.0
 10
45.56551744863791
 20
-94.14827497646309
 30
0.0
 10
45.58135832193811
 20
-94.13239997646703
 30
0.0
 10
45.60135966994572
 20
-94.13239997646703
 30
0.0
 10
45.62065661389786
 20
-94.13239997646703
 30
0.0
 10
45.63649633571598
 20
-94.14827497646309
 30
0.0
 10
45.63649633571598
 20
-94.16753664312475
 30
0.0
  0
ENDBLK
  5
1EC
330
1E9
100
AcDbEntity
  8
0
100
AcDbBlockEnd
  0
BLOCK
  5
1F0
330
1EE
100
AcDbEntity
  8
0
100
AcDbBlockBegin
  2
block 30
 70
     0
 10
0.0
 20
0.0
 30
0.0
  3
block 30
  1

  0
SPLINE
  5
1F2
330
1EE
100
AcDbEntity
  8
_U+30EC_U+30A4_U+30E4_U+30FC 1
 62
     7
420
 16777215
370
     9
100
AcDbSpline
210
0.0
220
0.0
230
1.0
 70
    11
 71
     3
 72
    17
 73
    13
 74
     0
 42
0.0000000001
 43
0.0000000001
 12
1.0
 22
0.0
 32
0.0
 13
1.0
 23
0.0
 33
0.0
 40
0.0
 40
0.0
 40
0.0
 40
0.0
 40
1.0
 40
1.0
 40
1.0
 40
2.0
 40
2.0
 40
2.0
 40
3.0
 40
3.0
 40
3.0
 40
4.0
 40
4.0
 40
4.0
 40
4.0
 10
45.63649633571598
 20
-102.1677605300134
 30
0.0
 10
45.63649633571598
 20
-102.1870574744532
 30
0.0
 10
45.62065661389786
 20
-102.2028971966718
 30
0.0
 10
45.60135966994572
 20
-102.2028971966718
 30
0.0
 10
45.58135832193811
 20
-102.2028971966718
 30
0.0
 10
45.56551744863791
 20
-102.1870574744532
 30
0.0
 10
45.56551744863791
 20
-102.1677605300134
 30
0.0
 10
45.56551744863791
 20
-102.1484635855742
 30
0.0
 10
45.58135832193811
 20
-102.1326238633557
 30
0.0
 10
45.60135966994572
 20
-102.1326238633557
 30
0.0
 10
45.62065661389786
 20
-102.1326238633557
 30
0.0
 10
45.63649633571598
 20
-102.1484635855742
 30
0.0
 10
45.63649633571598
 20
-102.1677605300134
 30
0.0
  0
ENDBLK
  5
1F1
330
1EE
100
AcDbEntity
  8
0
100
AcDbBlockEnd
  0
BLOCK
  5
201
330
1FF
100
AcDbEntity
  8
0
100
AcDbBlockBegin
  2
block 31
 70
     0
 10
0.0
 20
0.0
 30
0.0
  3
block 31
  1

  0
SPLINE
  5
203
330
1FF
100
AcDbEntity
  8
_U+30EC_U+30A4_U+30E4_U+30FC 1
370
     0
100
AcDbSpline
210
0.0
220
0.0
230
1.0
 70
    11
 71
     3
 72
    62
 73
    58
 74
     0
 42
0.0000000001
 43
0.0000000001
 12
1.0
 22
0.0
 32
0.0
 13
1.0
 23
0.0
 33
0.0
 40
0.0
 40
0.0
 40
0.0
 40
0.0
 40
1.0
 40
1.0
 40
1.0
 40
2.0
 40
2.0
 40
2.0
 40
3.0
 40
3.0
 40
3.0
 40
4.0
 40
4.0
 40
4.0
 40
5.0
 40
5.0
 40
5.0
 40
6.0
 40
6.0
 40
6.0
 40
7.0
 40
7.0
 40
7.0
 40
8.0
 40
8.0
 40
8.0
 40
9.0
 40
9.0
 40
9.0
 40
10.0
 40
10.0
 40
10.0
 40
11.0
 40
11.0
 40
11.0
 40
12.0
 40
12.0
 40
12.0
 40
13.0
 40
13.0
 40
13.0
 40
14.0
 40
14.0
 40
14.0
 40
15.0
 40
15.0
 40
15.0
 40
16.0
 40
16.0
 40
16.0
 40
17.0
 40
17.0
 40
17.0
 40
18.0
 40
18.0
 40
18.0
 40
19.0
 40
19.0
 40
19.0
 40
19.0
 10
91.27883841034001
 20
-92.67651364870588
 30
0.0
 10
91.27883841034001
 20
-92.77159828409877
 30
0.0
 10
91.25782332787999
 20
-92.98967282831508
 30
0.0
 10
91.07144366212798
 20
-93.11438528488112
 30
0.0
 10
90.95947805885736
 20
-93.188454837814
 30
0.0
 10
90.85991479933364
 20
-93.1925889523963
 30
0.0
 10
90.77550995994501
 20
-93.1967230669786
 30
0.0
 10
90.77550995994501
 20
-93.1967230669786
 30
0.0
 10
90.77550995994501
 20
-92.97692597501967
 30
0.0
 10
90.77550995994501
 20
-92.97692597501967
 30
0.0
 10
90.84923500332937
 20
-92.97485891772851
 30
0.0
 10
91.0841905154234
 20
-92.96417912172424
 30
0.0
 10
91.0841905154234
 20
-92.68064776328818
 30
0.0
 10
91.0841905154234
 20
-92.54318845342671
 30
0.0
 10
91.01425507707283
 20
-92.39091523297867
 30
0.0
 10
90.78584524640077
 20
-92.39091523297867
 30
0.0
 10
90.66940101899932
 20
-92.39091523297867
 30
0.0
 10
90.62082517265729
 20
-92.4288112833164
 30
0.0
 10
90.589130294193
 20
-92.46050616178071
 30
0.0
 10
90.51506074126013
 20
-92.53457571471358
 30
0.0
 10
90.5023138879647
 20
-92.65101994211503
 30
0.0
 10
90.5023138879647
 20
-92.70614146987903
 30
0.0
 10
90.5023138879647
 20
-92.7250894950479
 30
0.0
 10
90.50472545480437
 20
-92.7609184880945
 30
0.0
 10
90.50885956938667
 20
-92.7884792519765
 30
0.0
 10
90.50885956938667
 20
-92.7884792519765
 30
0.0
 10
90.31421167447006
 20
-92.7884792519765
 30
0.0
 10
90.31421167447006
 20
-92.7884792519765
 30
0.0
 10
90.32041284634352
 20
-92.75058320163875
 30
0.0
 10
90.32247990363466
 20
-92.70820852717017
 30
0.0
 10
90.32247990363466
 20
-92.7016628457482
 30
0.0
 10
90.32247990363466
 20
-92.63620603152846
 30
0.0
 10
90.30146482117463
 20
-92.43742402202953
 30
0.0
 10
90.06444225178944
 20
-92.43742402202953
 30
0.0
 10
89.88667532475056
 20
-92.43742402202953
 30
0.0
 10
89.83189830653508
 20
-92.56868216001756
 30
0.0
 10
89.83189830653508
 20
-92.67858070599702
 30
0.0
 10
89.83189830653508
 20
-92.94316403926422
 30
0.0
 10
90.06444225178944
 20
-92.95143226842882
 30
0.0
 10
90.13644474743117
 20
-92.95556638301112
 30
0.0
 10
90.13644474743117
 20
-92.95556638301112
 30
0.0
 10
90.13644474743117
 20
-93.15882701664086
 30
0.0
 10
90.13644474743117
 20
-93.15882701664086
 30
0.0
 10
90.01173229086513
 20
-93.15021427792773
 30
0.0
 10
89.63518335432732
 20
-93.12265351404572
 30
0.0
 10
89.63518335432732
 20
-92.6658338527016
 30
0.0
 10
89.63518335432732
 20
-92.44155813661183
 30
0.0
 10
89.76196286818451
 20
-92.20040145264434
 30
0.0
 10
90.058241079916
 20
-92.20040145264434
 30
0.0
 10
90.24427623611949
 20
-92.20040145264434
 30
0.0
 10
90.32695852776548
 20
-92.29548608803725
 30
0.0
 10
90.38828122740293
 20
-92.39504934756097
 30
0.0
 10
90.41584199128494
 20
-92.33372664792351
 30
0.0
 10
90.49611271609125
 20
-92.15182560630232
 30
0.0
 10
90.77309839310534
 20
-92.15182560630232
 30
0.0
 10
91.1117512793054
 20
-92.15182560630232
 30
0.0
 10
91.27883841034001
 20
-92.39918346214327
 30
0.0
 10
91.27883841034001
 20
-92.67651364870588
 30
0.0
  0
HATCH
  5
204
330
1FF
100
AcDbEntity
  8
_U+30EC_U+30A4_U+30E4_U+30FC 1
 62
     7
420
 16777215
100
AcDbHatch
 10
0.0
 20
0.0
 30
0.0
210
0.0
220
0.0
230
1.0
  2
SOLID
 70
     1
 71
     0
 91
        1
 92
        1
 93
        1
 72
     4
 94
        3
 73
     0
 74
     1
 95
       62
 96
       58
 40
0.0
 40
0.0
 40
0.0
 40
0.0
 40
1.0
 40
1.0
 40
1.0
 40
2.0
 40
2.0
 40
2.0
 40
3.0
 40
3.0
 40
3.0
 40
4.0
 40
4.0
 40
4.0
 40
5.0
 40
5.0
 40
5.0
 40
6.0
 40
6.0
 40
6.0
 40
7.0
 40
7.0
 40
7.0
 40
8.0
 40
8.0
 40
8.0
 40
9.0
 40
9.0
 40
9.0
 40
10.0
 40
10.0
 40
10.0
 40
11.0
 40
11.0
 40
11.0
 40
12.0
 40
12.0
 40
12.0
 40
13.0
 40
13.0
 40
13.0
 40
14.0
 40
14.0
 40
14.0
 40
15.0
 40
15.0
 40
15.0
 40
16.0
 40
16.0
 40
16.0
 40
17.0
 40
17.0
 40
17.0
 40
18.0
 40
18.0
 40
18.0
 40
19.0
 40
19.0
 40
19.0
 40
19.0
 10
91.27883841034001
 20
-92.67651364870588
 10
91.27883841034001
 20
-92.77159828409877
 10
91.25782332787999
 20
-92.98967282831508
 10
91.07144366212798
 20
-93.11438528488112
 10
90.95947805885736
 20
-93.188454837814
 10
90.85991479933364
 20
-93.1925889523963
 10
90.77550995994501
 20
-93.1967230669786
 10
90.77550995994501
 20
-93.1967230669786
 10
90.77550995994501
 20
-92.97692597501967
 10
90.77550995994501
 20
-92.97692597501967
 10
90.84923500332937
 20
-92.97485891772851
 10
91.0841905154234
 20
-92.96417912172424
 10
91.0841905154234
 20
-92.68064776328818
 10
91.0841905154234
 20
-92.54318845342671
 10
91.01425507707283
 20
-92.39091523297867
 10
90.78584524640077
 20
-92.39091523297867
 10
90.66940101899932
 20
-92.39091523297867
 10
90.62082517265729
 20
-92.4288112833164
 10
90.589130294193
 20
-92.46050616178071
 10
90.51506074126013
 20
-92.53457571471358
 10
90.5023138879647
 20
-92.65101994211503
 10
90.5023138879647
 20
-92.70614146987903
 10
90.5023138879647
 20
-92.7250894950479
 10
90.50472545480437
 20
-92.7609184880945
 10
90.50885956938667
 20
-92.7884792519765
 10
90.50885956938667
 20
-92.7884792519765
 10
90.31421167447006
 20
-92.7884792519765
 10
90.31421167447006
 20
-92.7884792519765
 10
90.32041284634352
 20
-92.75058320163875
 10
90.32247990363466
 20
-92.70820852717017
 10
90.32247990363466
 20
-92.7016628457482
 10
90.32247990363466
 20
-92.63620603152846
 10
90.30146482117463
 20
-92.43742402202953
 10
90.06444225178944
 20
-92.43742402202953
 10
89.88667532475056
 20
-92.43742402202953
 10
89.83189830653508
 20
-92.56868216001756
 10
89.83189830653508
 20
-92.67858070599702
 10
89.83189830653508
 20
-92.94316403926422
 10
90.06444225178944
 20
-92.95143226842882
 10
90.13644474743117
 20
-92.95556638301112
 10
90.13644474743117
 20
-92.95556638301112
 10
90.13644474743117
 20
-93.15882701664086
 10
90.13644474743117
 20
-93.15882701664086
 10
90.01173229086513
 20
-93.15021427792773
 10
89.63518335432732
 20
-93.12265351404572
 10
89.63518335432732
 20
-92.6658338527016
 10
89.63518335432732
 20
-92.44155813661183
 10
89.76196286818451
 20
-92.20040145264434
 10
90.058241079916
 20
-92.20040145264434
 10
90.24427623611949
 20
-92.20040145264434
 10
90.32695852776548
 20
-92.29548608803725
 10
90.38828122740293
 20
-92.39504934756097
 10
90.41584199128494
 20
-92.33372664792351
 10
90.49611271609125
 20
-92.15182560630232
 10
90.77309839310534
 20
-92.15182560630232
 10
91.1117512793054
 20
-92.15182560630232
 10
91.27883841034001
 20
-92.39918346214327
 10
91.27883841034001
 20
-92.67651364870588
 97
        0
 97
        0
 75
     2
 76
     1
 98
        0
  0
ENDBLK
  5
202
330
1FF
100
AcDbEntity
  8
0
100
AcDbBlockEnd
  0
BLOCK
  5
216
330
214
100
AcDbEntity
  8
0
100
AcDbBlockBegin
  2
block 32
 70
     0
 10
0.0
 20
0.0
 30
0.0
  3
block 32
  1

  0
SPLINE
  5
218
330
214
100
AcDbEntity
  8
_U+30EC_U+30A4_U+30E4_U+30FC 1
370
     0
100
AcDbSpline
210
0.0
220
0.0
230
1.0
 70
    11
 71
     3
 72
    26
 73
    22
 74
     0
 42
0.0000000001
 43
0.0000000001
 12
1.0
 22
0.0
 32
0.0
 13
1.0
 23
0.0
 33
0.0
 40
0.0
 40
0.0
 40
0.0
 40
0.0
 40
1.0
 40
1.0
 40
1.0
 40
2.0
 40
2.0
 40
2.0
 40
3.0
 40
3.0
 40
3.0
 40
4.0
 40
4.0
 40
4.0
 40
5.0
 40
5.0
 40
5.0
 40
6.0
 40
6.0
 40
6.0
 40
7.0
 40
7.0
 40
7.0
 40
7.0
 10
91.22750648760979
 20
-78.71646997815074
 30
0.0
 10
91.22750648760979
 20
-78.71646997815074
 30
0.0
 10
90.12300887503869
 20
-78.71646997815074
 30
0.0
 10
90.12300887503869
 20
-78.71646997815074
 30
0.0
 10
90.12300887503869
 20
-78.71646997815074
 30
0.0
 10
90.12300887503869
 20
-79.04651012563768
 30
0.0
 10
90.12300887503869
 20
-79.04651012563768
 30
0.0
 10
90.12300887503869
 20
-79.04651012563768
 30
0.0
 10
89.97486976917295
 20
-79.04651012563768
 30
0.0
 10
89.97486976917295
 20
-79.04651012563768
 30
0.0
 10
89.96005585858637
 20
-78.7144029208596
 30
0.0
 10
89.79744735168259
 20
-78.66772187703447
 30
0.0
 10
89.68307018157229
 20
-78.63826631063557
 30
0.0
 10
89.68307018157229
 20
-78.63826631063557
 30
0.0
 10
89.68307018157229
 20
-78.49219426206098
 30
0.0
 10
89.68307018157229
 20
-78.49219426206098
 30
0.0
 10
89.68307018157229
 20
-78.49219426206098
 30
0.0
 10
91.22750648760979
 20
-78.49219426206098
 30
0.0
 10
91.22750648760979
 20
-78.49219426206098
 30
0.0
 10
91.22750648760979
 20
-78.49219426206098
 30
0.0
 10
91.22750648760979
 20
-78.71646997815074
 30
0.0
 10
91.22750648760979
 20
-78.71646997815074
 30
0.0
  0
HATCH
  5
219
330
214
100
AcDbEntity
  8
_U+30EC_U+30A4_U+30E4_U+30FC 1
 62
     7
420
 16777215
100
AcDbHatch
 10
0.0
 20
0.0
 30
0.0
210
0.0
220
0.0
230
1.0
  2
SOLID
 70
     1
 71
     0
 91
        1
 92
        1
 93
        1
 72
     4
 94
        3
 73
     0
 74
     1
 95
       26
 96
       22
 40
0.0
 40
0.0
 40
0.0
 40
0.0
 40
1.0
 40
1.0
 40
1.0
 40
2.0
 40
2.0
 40
2.0
 40
3.0
 40
3.0
 40
3.0
 40
4.0
 40
4.0
 40
4.0
 40
5.0
 40
5.0
 40
5.0
 40
6.0
 40
6.0
 40
6.0
 40
7.0
 40
7.0
 40
7.0
 40
7.0
 10
91.22750648760979
 20
-78.71646997815074
 10
91.22750648760979
 20
-78.71646997815074
 10
90.12300887503869
 20
-78.71646997815074
 10
90.12300887503869
 20
-78.71646997815074
 10
90.12300887503869
 20
-78.71646997815074
 10
90.12300887503869
 20
-79.04651012563768
 10
90.12300887503869
 20
-79.04651012563768
 10
90.12300887503869
 20
-79.04651012563768
 10
89.97486976917295
 20
-79.04651012563768
 10
89.97486976917295
 20
-79.04651012563768
 10
89.96005585858637
 20
-78.7144029208596
 10
89.79744735168259
 20
-78.66772187703447
 10
89.68307018157229
 20
-78.63826631063557
 10
89.68307018157229
 20
-78.63826631063557
 10
89.68307018157229
 20
-78.49219426206098
 10
89.68307018157229
 20
-78.49219426206098
 10
89.68307018157229
 20
-78.49219426206098
 10
91.22750648760979
 20
-78.49219426206098
 10
91.22750648760979
 20
-78.49219426206098
 10
91.22750648760979
 20
-78.49219426206098
 10
91.22750648760979
 20
-78.71646997815074
 10
91.22750648760979
 20
-78.71646997815074
 97
        0
 97
        0
 75
     2
 76
     1
 98
        0
  0
ENDBLK
  5
217
330
214
100
AcDbEntity
  8
0
100
AcDbBlockEnd
  0
BLOCK
  5
21C
330
21A
100
AcDbEntity
  8
0
100
AcDbBlockBegin
  2
block 33
 70
     0
 10
0.0
 20
0.0
 30
0.0
  3
block 33
  1

  0
SPLINE
  5
21E
330
21A
100
AcDbEntity
  8
_U+30EC_U+30A4_U+30E4_U+30FC 1
 62
     7
420
 16777215
370
    25
100
AcDbSpline
210
0.0
220
0.0
230
1.0
 70
    11
 71
     3
 72
    17
 73
    13
 74
     0
 42
0.0000000001
 43
0.0000000001
 12
1.0
 22
0.0
 32
0.0
 13
1.0
 23
0.0
 33
0.0
 40
0.0
 40
0.0
 40
0.0
 40
0.0
 40
1.0
 40
1.0
 40
1.0
 40
2.0
 40
2.0
 40
2.0
 40
3.0
 40
3.0
 40
3.0
 40
4.0
 40
4.0
 40
4.0
 40
4.0
 10
87.63634997809079
 20
-82.66729859044445
 30
0.0
 10
87.63634997809079
 20
-82.68694831266171
 30
0.0
 10
87.62047497809475
 20
-82.70278803487993
 30
0.0
 10
87.60121109844025
 20
-82.70278803487993
 30
0.0
 10
87.5819141544881
 20
-82.70278803487993
 30
0.0
 10
87.56607443266999
 20
-82.68694831266171
 30
0.0
 10
87.56607443266999
 20
-82.66729859044445
 30
0.0
 10
87.56607443266999
 20
-82.64800164600462
 30
0.0
 10
87.5819141544881
 20
-82.6321619237864
 30
0.0
 10
87.60121109844025
 20
-82.6321619237864
 30
0.0
 10
87.62047497809475
 20
-82.6321619237864
 30
0.0
 10
87.63634997809079
 20
-82.64800164600462
 30
0.0
 10
87.63634997809079
 20
-82.66729859044445
 30
0.0
  0
ENDBLK
  5
21D
330
21A
100
AcDbEntity
  8
0
100
AcDbBlockEnd
  0
BLOCK
  5
221
330
21F
100
AcDbEntity
  8
0
100
AcDbBlockBegin
  2
block 34
 70
     0
 10
0.0
 20
0.0
 30
0.0
  3
block 34
  1

  0
SPLINE
  5
223
330
21F
100
AcDbEntity
  8
_U+30EC_U+30A4_U+30E4_U+30FC 1
 62
     7
420
 16777215
370
    25
100
AcDbSpline
210
0.0
220
0.0
230
1.0
 70
    11
 71
     3
 72
    17
 73
    13
 74
     0
 42
0.0000000001
 43
0.0000000001
 12
1.0
 22
0.0
 32
0.0
 13
1.0
 23
0.0
 33
0.0
 40
0.0
 40
0.0
 40
0.0
 40
0.0
 40
1.0
 40
1.0
 40
1.0
 40
2.0
 40
2.0
 40
2.0
 40
3.0
 40
3.0
 40
3.0
 40
4.0
 40
4.0
 40
4.0
 40
4.0
 10
87.63634997809079
 20
-81.6675263684719
 30
0.0
 10
87.63634997809079
 20
-81.68682331291173
 30
0.0
 10
87.62047497809475
 20
-81.70266303512994
 30
0.0
 10
87.60121109844025
 20
-81.70266303512994
 30
0.0
 10
87.5819141544881
 20
-81.70266303512994
 30
0.0
 10
87.56607443266999
 20
-81.68682331291173
 30
0.0
 10
87.56607443266999
 20
-81.6675263684719
 30
0.0
 10
87.56607443266999
 20
-81.64791192403247
 30
0.0
 10
87.5819141544881
 20
-81.63203692403641
 30
0.0
 10
87.60121109844025
 20
-81.63203692403641
 30
0.0
 10
87.62047497809475
 20
-81.63203692403641
 30
0.0
 10
87.63634997809079
 20
-81.64791192403247
 30
0.0
 10
87.63634997809079
 20
-81.6675263684719
 30
0.0
  0
ENDBLK
  5
222
330
21F
100
AcDbEntity
  8
0
100
AcDbBlockEnd
  0
BLOCK
  5
226
330
224
100
AcDbEntity
  8
0
100
AcDbBlockBegin
  2
block 35
 70
     0
 10
0.0
 20
0.0
 30
0.0
  3
block 35
  1

  0
SPLINE
  5
228
330
224
100
AcDbEntity
  8
_U+30EC_U+30A4_U+30E4_U+30FC 1
 62
     7
420
 16777215
370
     9
100
AcDbSpline
210
0.0
220
0.0
230
1.0
 70
    11
 71
     3
 72
    17
 73
    13
 74
     0
 42
0.0000000001
 43
0.0000000001
 12
1.0
 22
0.0
 32
0.0
 13
1.0
 23
0.0
 33
0.0
 40
0.0
 40
0.0
 40
0.0
 40
0.0
 40
1.0
 40
1.0
 40
1.0
 40
2.0
 40
2.0
 40
2.0
 40
3.0
 40
3.0
 40
3.0
 40
4.0
 40
4.0
 40
4.0
 40
4.0
 10
91.63677710659549
 20
-81.6675263684719
 30
0.0
 10
91.63677710659549
 20
-81.68682331291173
 30
0.0
 10
91.62093738477738
 20
-81.70266303512994
 30
0.0
 10
91.60097016306456
 20
-81.70266303512994
 30
0.0
 10
91.58167321911242
 20
-81.70266303512994
 30
0.0
 10
91.56579821951743
 20
-81.68682331291173
 30
0.0
 10
91.56579821951743
 20
-81.6675263684719
 30
0.0
 10
91.56579821951743
 20
-81.64791192403247
 30
0.0
 10
91.58167321911242
 20
-81.63203692403641
 30
0.0
 10
91.60097016306456
 20
-81.63203692403641
 30
0.0
 10
91.62093738477738
 20
-81.63203692403641
 30
0.0
 10
91.63677710659549
 20
-81.64791192403247
 30
0.0
 10
91.63677710659549
 20
-81.6675263684719
 30
0.0
  0
ENDBLK
  5
227
330
224
100
AcDbEntity
  8
0
100
AcDbBlockEnd
  0
BLOCK
  5
22B
330
229
100
AcDbEntity
  8
0
100
AcDbBlockBegin
  2
block 36
 70
     0
 10
0.0
 20
0.0
 30
0.0
  3
block 36
  1

  0
SPLINE
  5
22D
330
229
100
AcDbEntity
  8
_U+30EC_U+30A4_U+30E4_U+30FC 1
 62
     7
420
 16777215
370
    25
100
AcDbSpline
210
0.0
220
0.0
230
1.0
 70
    11
 71
     3
 72
    17
 73
    13
 74
     0
 42
0.0000000001
 43
0.0000000001
 12
1.0
 22
0.0
 32
0.0
 13
1.0
 23
0.0
 33
0.0
 40
0.0
 40
0.0
 40
0.0
 40
0.0
 40
1.0
 40
1.0
 40
1.0
 40
2.0
 40
2.0
 40
2.0
 40
3.0
 40
3.0
 40
3.0
 40
4.0
 40
4.0
 40
4.0
 40
4.0
 10
75.6363650148
 20
-91.16754969943041
 30
0.0
 10
75.6363650148
 20
-91.18755219942511
 30
0.0
 10
75.6205252929819
 20
-91.20339192164366
 30
0.0
 10
75.60122834902975
 20
-91.20339192164366
 30
0.0
 10
75.5819333144377
 20
-91.20339192164366
 30
0.0
 10
75.5660916832595
 20
-91.18755219942511
 30
0.0
 10
75.5660916832595
 20
-91.16754969943041
 30
0.0
 10
75.5660916832595
 20
-91.14825275499058
 30
0.0
 10
75.5819333144377
 20
-91.13241303277267
 30
0.0
 10
75.60122834902975
 20
-91.13241303277267
 30
0.0
 10
75.6205252929819
 20
-91.13241303277267
 30
0.0
 10
75.6363650148
 20
-91.14825275499058
 30
0.0
 10
75.6363650148
 20
-91.16754969943041
 30
0.0
  0
ENDBLK
  5
22C
330
229
100
AcDbEntity
  8
0
100
AcDbBlockEnd
  0
BLOCK
  5
230
330
22E
100
AcDbEntity
  8
0
100
AcDbBlockBegin
  2
block 37
 70
     0
 10
0.0
 20
0.0
 30
0.0
  3
block 37
  1

  0
SPLINE
  5
232
330
22E
100
AcDbEntity
  8
_U+30EC_U+30A4_U+30E4_U+30FC 1
 62
     7
420
 16777215
370
    25
100
AcDbSpline
210
0.0
220
0.0
230
1.0
 70
    11
 71
     3
 72
    17
 73
    13
 74
     0
 42
0.0000000001
 43
0.0000000001
 12
1.0
 22
0.0
 32
0.0
 13
1.0
 23
0.0
 33
0.0
 40
0.0
 40
0.0
 40
0.0
 40
0.0
 40
1.0
 40
1.0
 40
1.0
 40
2.0
 40
2.0
 40
2.0
 40
3.0
 40
3.0
 40
3.0
 40
4.0
 40
4.0
 40
4.0
 40
4.0
 10
71.63664122795258
 20
-91.16754969943041
 30
0.0
 10
71.63664122795258
 20
-91.18755219942511
 30
0.0
 10
71.62076622835758
 20
-91.20339192164366
 30
0.0
 10
71.60146928440544
 20
-91.20339192164366
 30
0.0
 10
71.58150206269264
 20
-91.20339192164366
 30
0.0
 10
71.56566234087451
 20
-91.18755219942511
 30
0.0
 10
71.56566234087451
 20
-91.16754969943041
 30
0.0
 10
71.56566234087451
 20
-91.14825275499058
 30
0.0
 10
71.58150206269264
 20
-91.13241303277267
 30
0.0
 10
71.60146928440544
 20
-91.13241303277267
 30
0.0
 10
71.62076622835758
 20
-91.13241303277267
 30
0.0
 10
71.63664122795258
 20
-91.14825275499058
 30
0.0
 10
71.63664122795258
 20
-91.16754969943041
 30
0.0
  0
ENDBLK
  5
231
330
22E
100
AcDbEntity
  8
0
100
AcDbBlockEnd
  0
BLOCK
  5
23D
330
23B
100
AcDbEntity
  8
0
100
AcDbBlockBegin
  2
block 38
 70
     0
 10
0.0
 20
0.0
 30
0.0
  3
block 38
  1

  0
SPLINE
  5
23F
330
23B
100
AcDbEntity
  8
_U+30EC_U+30A4_U+30E4_U+30FC 1
370
     0
100
AcDbSpline
210
0.0
220
0.0
230
1.0
 70
    11
 71
     3
 72
    29
 73
    25
 74
     0
 42
0.0000000001
 43
0.0000000001
 12
1.0
 22
0.0
 32
0.0
 13
1.0
 23
0.0
 33
0.0
 40
0.0
 40
0.0
 40
0.0
 40
0.0
 40
1.0
 40
1.0
 40
1.0
 40
2.0
 40
2.0
 40
2.0
 40
3.0
 40
3.0
 40
3.0
 40
4.0
 40
4.0
 40
4.0
 40
5.0
 40
5.0
 40
5.0
 40
6.0
 40
6.0
 40
6.0
 40
7.0
 40
7.0
 40
7.0
 40
8.0
 40
8.0
 40
8.0
 40
8.0
 10
91.27814939124296
 20
-87.78068845461733
 30
0.0
 10
91.27814939124296
 20
-88.04733884517567
 30
0.0
 10
91.14069008138149
 20
-88.30107012766432
 30
0.0
 10
90.79170190872568
 20
-88.30107012766432
 30
0.0
 10
90.53573131417163
 20
-88.30107012766432
 30
0.0
 10
90.44030216923021
 20
-88.15930444844629
 30
0.0
 10
90.37897946959276
 20
-88.05354001704912
 30
0.0
 10
90.31972382724646
 20
-88.17842472838943
 30
0.0
 10
90.20569116668469
 20
-88.25456133861344
 30
0.0
 10
90.04480520752352
 20
-88.25456133861344
 30
0.0
 10
89.76988658780058
 20
-88.25456133861344
 30
0.0
 10
89.63449433523027
 20
-88.05577932911453
 30
0.0
 10
89.63449433523027
 20
-87.78068845461733
 30
0.0
 10
89.63449433523027
 20
-87.49715709618127
 30
0.0
 10
89.77815481696518
 20
-87.30681557062121
 30
0.0
 10
90.04480520752352
 20
-87.30681557062121
 30
0.0
 10
90.20569116668469
 20
-87.30681557062121
 30
0.0
 10
90.31972382724646
 20
-87.38519149291065
 30
0.0
 10
90.37897946959276
 20
-87.5099039494767
 30
0.0
 10
90.42996688277445
 20
-87.42102048595724
 30
0.0
 10
90.52505151816736
 20
-87.26237383886149
 30
0.0
 10
90.78722328459486
 20
-87.26237383886149
 30
0.0
 10
91.16170516384152
 20
-87.26237383886149
 30
0.0
 10
91.27814939124296
 20
-87.54159882794099
 30
0.0
 10
91.27814939124296
 20
-87.78068845461733
 30
0.0
  0
SPLINE
  5
240
330
23B
100
AcDbEntity
  8
_U+30EC_U+30A4_U+30E4_U+30FC 1
370
     0
100
AcDbSpline
210
0.0
220
0.0
230
1.0
 70
    11
 71
     3
 72
    17
 73
    13
 74
     0
 42
0.0000000001
 43
0.0000000001
 12
1.0
 22
0.0
 32
0.0
 13
1.0
 23
0.0
 33
0.0
 40
0.0
 40
0.0
 40
0.0
 40
0.0
 40
1.0
 40
1.0
 40
1.0
 40
2.0
 40
2.0
 40
2.0
 40
3.0
 40
3.0
 40
3.0
 40
4.0
 40
4.0
 40
4.0
 40
4.0
 10
89.82673066330722
 20
-87.78068845461733
 30
0.0
 10
89.82673066330722
 20
-87.9457085283608
 30
0.0
 10
89.92215980824864
 20
-88.03028562252368
 30
0.0
 10
90.05755206081895
 20
-88.03028562252368
 30
0.0
 10
90.18019746009385
 20
-88.03028562252368
 30
0.0
 10
90.29870874478644
 20
-87.95845538165622
 30
0.0
 10
90.29870874478644
 20
-87.78068845461733
 30
0.0
 10
90.29870874478644
 20
-87.6030937823527
 30
0.0
 10
90.18019746009385
 20
-87.53109128671097
 30
0.0
 10
90.05755206081895
 20
-87.53109128671097
 30
0.0
 10
89.92215980824864
 20
-87.53109128671097
 30
0.0
 10
89.82673066330722
 20
-87.61773543816501
 30
0.0
 10
89.82673066330722
 20
-87.78068845461733
 30
0.0
  0
SPLINE
  5
241
330
23B
100
AcDbEntity
  8
_U+30EC_U+30A4_U+30E4_U+30FC 1
370
     0
100
AcDbSpline
210
0.0
220
0.0
230
1.0
 70
    11
 71
     3
 72
    17
 73
    13
 74
     0
 42
0.0000000001
 43
0.0000000001
 12
1.0
 22
0.0
 32
0.0
 13
1.0
 23
0.0
 33
0.0
 40
0.0
 40
0.0
 40
0.0
 40
0.0
 40
1.0
 40
1.0
 40
1.0
 40
2.0
 40
2.0
 40
2.0
 40
3.0
 40
3.0
 40
3.0
 40
4.0
 40
4.0
 40
4.0
 40
4.0
 10
90.48681095828108
 20
-87.78068845461733
 30
0.0
 10
90.48681095828108
 20
-87.92452119112652
 30
0.0
 10
90.57362736450938
 20
-88.07696666634882
 30
0.0
 10
90.77688799813912
 20
-88.07696666634882
 30
0.0
 10
90.98187117951149
 20
-88.07696666634882
 30
0.0
 10
91.08350149632635
 20
-87.95001489771737
 30
0.0
 10
91.08350149632635
 20
-87.78068845461733
 30
0.0
 10
91.08350149632635
 20
-87.59448104363958
 30
0.0
 10
90.96085609705146
 20
-87.48458249766011
 30
0.0
 10
90.78308917001256
 20
-87.48458249766011
 30
0.0
 10
90.56088051121395
 20
-87.48458249766011
 30
0.0
 10
90.48681095828108
 20
-87.64736325933816
 30
0.0
 10
90.48681095828108
 20
-87.78068845461733
 30
0.0
  0
HATCH
  5
242
330
23B
100
AcDbEntity
  8
_U+30EC_U+30A4_U+30E4_U+30FC 1
 62
     7
420
 16777215
100
AcDbHatch
 10
0.0
 20
0.0
 30
0.0
210
0.0
220
0.0
230
1.0
  2
SOLID
 70
     1
 71
     0
 91
        3
 92
        1
 93
        1
 72
     4
 94
        3
 73
     0
 74
     1
 95
       29
 96
       25
 40
0.0
 40
0.0
 40
0.0
 40
0.0
 40
1.0
 40
1.0
 40
1.0
 40
2.0
 40
2.0
 40
2.0
 40
3.0
 40
3.0
 40
3.0
 40
4.0
 40
4.0
 40
4.0
 40
5.0
 40
5.0
 40
5.0
 40
6.0
 40
6.0
 40
6.0
 40
7.0
 40
7.0
 40
7.0
 40
8.0
 40
8.0
 40
8.0
 40
8.0
 10
91.27814939124296
 20
-87.78068845461733
 10
91.27814939124296
 20
-88.04733884517567
 10
91.14069008138149
 20
-88.30107012766432
 10
90.79170190872568
 20
-88.30107012766432
 10
90.53573131417163
 20
-88.30107012766432
 10
90.44030216923021
 20
-88.15930444844629
 10
90.37897946959276
 20
-88.05354001704912
 10
90.31972382724646
 20
-88.17842472838943
 10
90.20569116668469
 20
-88.25456133861344
 10
90.04480520752352
 20
-88.25456133861344
 10
89.76988658780058
 20
-88.25456133861344
 10
89.63449433523027
 20
-88.05577932911453
 10
89.63449433523027
 20
-87.78068845461733
 10
89.63449433523027
 20
-87.49715709618127
 10
89.77815481696518
 20
-87.30681557062121
 10
90.04480520752352
 20
-87.30681557062121
 10
90.20569116668469
 20
-87.30681557062121
 10
90.31972382724646
 20
-87.38519149291065
 10
90.37897946959276
 20
-87.5099039494767
 10
90.42996688277445
 20
-87.42102048595724
 10
90.52505151816736
 20
-87.26237383886149
 10
90.78722328459486
 20
-87.26237383886149
 10
91.16170516384152
 20
-87.26237383886149
 10
91.27814939124296
 20
-87.54159882794099
 10
91.27814939124296
 20
-87.78068845461733
 97
        0
 97
        0
 92
        1
 93
        1
 72
     4
 94
        3
 73
     0
 74
     1
 95
       17
 96
       13
 40
0.0
 40
0.0
 40
0.0
 40
0.0
 40
1.0
 40
1.0
 40
1.0
 40
2.0
 40
2.0
 40
2.0
 40
3.0
 40
3.0
 40
3.0
 40
4.0
 40
4.0
 40
4.0
 40
4.0
 10
89.82673066330722
 20
-87.78068845461733
 10
89.82673066330722
 20
-87.9457085283608
 10
89.92215980824864
 20
-88.03028562252368
 10
90.05755206081895
 20
-88.03028562252368
 10
90.18019746009385
 20
-88.03028562252368
 10
90.29870874478644
 20
-87.95845538165622
 10
90.29870874478644
 20
-87.78068845461733
 10
90.29870874478644
 20
-87.6030937823527
 10
90.18019746009385
 20
-87.53109128671097
 10
90.05755206081895
 20
-87.53109128671097
 10
89.92215980824864
 20
-87.53109128671097
 10
89.82673066330722
 20
-87.61773543816501
 10
89.82673066330722
 20
-87.78068845461733
 97
        0
 97
        0
 92
        1
 93
        1
 72
     4
 94
        3
 73
     0
 74
     1
 95
       17
 96
       13
 40
0.0
 40
0.0
 40
0.0
 40
0.0
 40
1.0
 40
1.0
 40
1.0
 40
2.0
 40
2.0
 40
2.0
 40
3.0
 40
3.0
 40
3.0
 40
4.0
 40
4.0
 40
4.0
 40
4.0
 10
90.48681095828108
 20
-87.78068845461733
 10
90.48681095828108
 20
-87.92452119112652
 10
90.57362736450938
 20
-88.07696666634882
 10
90.77688799813912
 20
-88.07696666634882
 10
90.98187117951149
 20
-88.07696666634882
 10
91.08350149632635
 20
-87.95001489771737
 10
91.08350149632635
 20
-87.78068845461733
 10
91.08350149632635
 20
-87.59448104363958
 10
90.96085609705146
 20
-87.48458249766011
 10
90.78308917001256
 20
-87.48458249766011
 10
90.56088051121395
 20
-87.48458249766011
 10
90.48681095828108
 20
-87.64736325933816
 10
90.48681095828108
 20
-87.78068845461733
 97
        0
 97
        0
 75
     2
 76
     1
 98
        0
  0
POLYLINE
  5
243
330
23B
100
AcDbEntity
  8
_U+30EC_U+30A4_U+30E4_U+30FC 1
370
     0
100
AcDb2dPolyline
 66
     1
 10
0.0
 20
0.0
 30
0.0
  0
VERTEX
  5
244
330
243
100
AcDbEntity
  8
_U+30EC_U+30A4_U+30E4_U+30FC 1
370
     0
100
AcDbVertex
100
AcDb2dVertex
 10
91.22750648760979
 20
-87.04395478509666
 30
0.0
  0
VERTEX
  5
245
330
243
100
AcDbEntity
  8
_U+30EC_U+30A4_U+30E4_U+30FC 1
370
     0
100
AcDbVertex
100
AcDb2dVertex
 10
90.97567000763803
 20
-87.04395478509666
 30
0.0
  0
VERTEX
  5
246
330
243
100
AcDbEntity
  8
_U+30EC_U+30A4_U+30E4_U+30FC 1
370
     0
100
AcDbVertex
100
AcDb2dVertex
 10
90.97567000763803
 20
-86.79211830512489
 30
0.0
  0
VERTEX
  5
247
330
243
100
AcDbEntity
  8
_U+30EC_U+30A4_U+30E4_U+30FC 1
370
     0
100
AcDbVertex
100
AcDb2dVertex
 10
91.22750648760979
 20
-86.79211830512489
 30
0.0
  0
VERTEX
  5
248
330
243
100
AcDbEntity
  8
_U+30EC_U+30A4_U+30E4_U+30FC 1
370
     0
100
AcDbVertex
100
AcDb2dVertex
 10
91.22750648760979
 20
-87.04395478509666
 30
0.0
  0
SEQEND
  5
249
330
243
100
AcDbEntity
  8
_U+30EC_U+30A4_U+30E4_U+30FC 1
370
     0
  0
HATCH
  5
24A
330
23B
100
AcDbEntity
  8
_U+30EC_U+30A4_U+30E4_U+30FC 1
 62
     7
420
 16777215
100
AcDbHatch
 10
0.0
 20
0.0
 30
0.0
210
0.0
220
0.0
230
1.0
  2
SOLID
 70
     1
 71
     0
 91
        1
 92
        1
 93
        4
 72
     1
 10
91.22750648760979
 20
-87.04395478509666
 11
90.97567000763803
 21
-87.04395478509666
 72
     1
 10
90.97567000763803
 20
-87.04395478509666
 11
90.97567000763803
 21
-86.79211830512489
 72
     1
 10
90.97567000763803
 20
-86.79211830512489
 11
91.22750648760979
 21
-86.79211830512489
 72
     1
 10
91.22750648760979
 20
-86.79211830512489
 11
91.22750648760979
 21
-87.04395478509666
 97
        0
 75
     2
 76
     1
 98
        0
  0
SPLINE
  5
24B
330
23B
100
AcDbEntity
  8
_U+30EC_U+30A4_U+30E4_U+30FC 1
370
     0
100
AcDbSpline
210
0.0
220
0.0
230
1.0
 70
    11
 71
     3
 72
    53
 73
    49
 74
     0
 42
0.0000000001
 43
0.0000000001
 12
1.0
 22
0.0
 32
0.0
 13
1.0
 23
0.0
 33
0.0
 40
0.0
 40
0.0
 40
0.0
 40
0.0
 40
1.0
 40
1.0
 40
1.0
 40
2.0
 40
2.0
 40
2.0
 40
3.0
 40
3.0
 40
3.0
 40
4.0
 40
4.0
 40
4.0
 40
5.0
 40
5.0
 40
5.0
 40
6.0
 40
6.0
 40
6.0
 40
7.0
 40
7.0
 40
7.0
 40
8.0
 40
8.0
 40
8.0
 40
9.0
 40
9.0
 40
9.0
 40
10.0
 40
10.0
 40
10.0
 40
11.0
 40
11.0
 40
11.0
 40
12.0
 40
12.0
 40
12.0
 40
13.0
 40
13.0
 40
13.0
 40
14.0
 40
14.0
 40
14.0
 40
15.0
 40
15.0
 40
15.0
 40
16.0
 40
16.0
 40
16.0
 40
16.0
 10
91.27814939124296
 20
-86.0746771703216
 30
0.0
 10
91.27814939124296
 20
-86.15305309261105
 30
0.0
 10
91.26126842336524
 20
-86.25451115465165
 30
0.0
 10
91.19787866643665
 20
-86.35614147146653
 30
0.0
 10
91.08763561090865
 20
-86.52960202914885
 30
0.0
 10
90.95672198246916
 20
-86.55061711160887
 30
0.0
 10
90.84854598423232
 20
-86.56973739155201
 30
0.0
 10
90.84854598423232
 20
-86.56973739155201
 30
0.0
 10
90.84854598423232
 20
-86.3475287327534
 30
0.0
 10
90.84854598423232
 20
-86.3475287327534
 30
0.0
 10
91.04767250327976
 20
-86.29257945976366
 30
0.0
 10
91.0773003244529
 20
-86.16562769113222
 30
0.0
 10
91.0773003244529
 20
-86.07261011303046
 30
0.0
 10
91.0773003244529
 20
-85.93291149110358
 30
0.0
 10
90.97773706492919
 20
-85.78063827065554
 30
0.0
 10
90.74519311967482
 20
-85.78063827065554
 30
0.0
 10
90.48922252512075
 20
-85.78063827065554
 30
0.0
 10
90.41928708677018
 20
-85.96047225498558
 30
0.0
 10
90.41928708677018
 20
-86.08105059696932
 30
0.0
 10
90.41928708677018
 20
-86.11274547543363
 30
0.0
 10
90.41928708677018
 20
-86.25451115465165
 30
0.0
 10
90.54813365791853
 20
-86.3433946181711
 30
0.0
 10
90.54813365791853
 20
-86.3433946181711
 30
0.0
 10
90.52918563274966
 20
-86.51892223314458
 30
0.0
 10
90.52918563274966
 20
-86.51892223314458
 30
0.0
 10
90.52918563274966
 20
-86.51892223314458
 30
0.0
 10
89.68307018157229
 20
-86.39834389116083
 30
0.0
 10
89.68307018157229
 20
-86.39834389116083
 30
0.0
 10
89.68307018157229
 20
-86.39834389116083
 30
0.0
 10
89.68307018157229
 20
-85.61992456626864
 30
0.0
 10
89.68307018157229
 20
-85.61992456626864
 30
0.0
 10
89.68307018157229
 20
-85.61992456626864
 30
0.0
 10
89.8777180764889
 20
-85.61992456626864
 30
0.0
 10
89.8777180764889
 20
-85.61992456626864
 30
0.0
 10
89.8777180764889
 20
-85.61992456626864
 30
0.0
 10
89.8777180764889
 20
-86.23556312948278
 30
0.0
 10
89.8777180764889
 20
-86.23556312948278
 30
0.0
 10
89.8777180764889
 20
-86.23556312948278
 30
0.0
 10
90.30077580207758
 20
-86.30101994370253
 30
0.0
 10
90.30077580207758
 20
-86.30101994370253
 30
0.0
 10
90.26701386632215
 20
-86.23969724406508
 30
0.0
 10
90.22670624914471
 20
-86.15718720719335
 30
0.0
 10
90.22670624914471
 20
-86.03867592250076
 30
0.0
 10
90.22670624914471
 20
-85.7849446400121
 30
0.0
 10
90.41274140534821
 20
-85.54792207062691
 30
0.0
 10
90.72590058495742
 20
-85.54792207062691
 30
0.0
 10
91.04319387914893
 20
-85.54792207062691
 30
0.0
 10
91.27814939124296
 20
-85.77219778671667
 30
0.0
 10
91.27814939124296
 20
-86.0746771703216
 30
0.0
  0
HATCH
  5
24C
330
23B
100
AcDbEntity
  8
_U+30EC_U+30A4_U+30E4_U+30FC 1
 62
     7
420
 16777215
100
AcDbHatch
 10
0.0
 20
0.0
 30
0.0
210
0.0
220
0.0
230
1.0
  2
SOLID
 70
     1
 71
     0
 91
        1
 92
        1
 93
        1
 72
     4
 94
        3
 73
     0
 74
     1
 95
       53
 96
       49
 40
0.0
 40
0.0
 40
0.0
 40
0.0
 40
1.0
 40
1.0
 40
1.0
 40
2.0
 40
2.0
 40
2.0
 40
3.0
 40
3.0
 40
3.0
 40
4.0
 40
4.0
 40
4.0
 40
5.0
 40
5.0
 40
5.0
 40
6.0
 40
6.0
 40
6.0
 40
7.0
 40
7.0
 40
7.0
 40
8.0
 40
8.0
 40
8.0
 40
9.0
 40
9.0
 40
9.0
 40
10.0
 40
10.0
 40
10.0
 40
11.0
 40
11.0
 40
11.0
 40
12.0
 40
12.0
 40
12.0
 40
13.0
 40
13.0
 40
13.0
 40
14.0
 40
14.0
 40
14.0
 40
15.0
 40
15.0
 40
15.0
 40
16.0
 40
16.0
 40
16.0
 40
16.0
 10
91.27814939124296
 20
-86.0746771703216
 10
91.27814939124296
 20
-86.15305309261105
 10
91.26126842336524
 20
-86.25451115465165
 10
91.19787866643665
 20
-86.35614147146653
 10
91.08763561090865
 20
-86.52960202914885
 10
90.95672198246916
 20
-86.55061711160887
 10
90.84854598423232
 20
-86.56973739155201
 10
90.84854598423232
 20
-86.56973739155201
 10
90.84854598423232
 20
-86.3475287327534
 10
90.84854598423232
 20
-86.3475287327534
 10
91.04767250327976
 20
-86.29257945976366
 10
91.0773003244529
 20
-86.16562769113222
 10
91.0773003244529
 20
-86.07261011303046
 10
91.0773003244529
 20
-85.93291149110358
 10
90.97773706492919
 20
-85.78063827065554
 10
90.74519311967482
 20
-85.78063827065554
 10
90.48922252512075
 20
-85.78063827065554
 10
90.41928708677018
 20
-85.96047225498558
 10
90.41928708677018
 20
-86.08105059696932
 10
90.41928708677018
 20
-86.11274547543363
 10
90.41928708677018
 20
-86.25451115465165
 10
90.54813365791853
 20
-86.3433946181711
 10
90.54813365791853
 20
-86.3433946181711
 10
90.52918563274966
 20
-86.51892223314458
 10
90.52918563274966
 20
-86.51892223314458
 10
90.52918563274966
 20
-86.51892223314458
 10
89.68307018157229
 20
-86.39834389116083
 10
89.68307018157229
 20
-86.39834389116083
 10
89.68307018157229
 20
-86.39834389116083
 10
89.68307018157229
 20
-85.61992456626864
 10
89.68307018157229
 20
-85.61992456626864
 10
89.68307018157229
 20
-85.61992456626864
 10
89.8777180764889
 20
-85.61992456626864
 10
89.8777180764889
 20
-85.61992456626864
 10
89.8777180764889
 20
-85.61992456626864
 10
89.8777180764889
 20
-86.23556312948278
 10
89.8777180764889
 20
-86.23556312948278
 10
89.8777180764889
 20
-86.23556312948278
 10
90.30077580207758
 20
-86.30101994370253
 10
90.30077580207758
 20
-86.30101994370253
 10
90.26701386632215
 20
-86.23969724406508
 10
90.22670624914471
 20
-86.15718720719335
 10
90.22670624914471
 20
-86.03867592250076
 10
90.22670624914471
 20
-85.7849446400121
 10
90.41274140534821
 20
-85.54792207062691
 10
90.72590058495742
 20
-85.54792207062691
 10
91.04319387914893
 20
-85.54792207062691
 10
91.27814939124296
 20
-85.77219778671667
 10
91.27814939124296
 20
-86.0746771703216
 97
        0
 97
        0
 75
     2
 76
     1
 98
        0
  0
ENDBLK
  5
23E
330
23B
100
AcDbEntity
  8
0
100
AcDbBlockEnd
  0
ENDSEC
  0
SECTION
  2
ENTITIES
  0
POLYLINE
  5
41
330
1F
100
AcDbEntity
  8
_U+30EC_U+30A4_U+30E4_U+30FC 1
 62
     7
420
 16777215
370
    25
100
AcDb2dPolyline
 66
     1
 10
0.0
 20
0.0
 30
0.0
  0
VERTEX
  5
42
330
41
100
AcDbEntity
  8
_U+30EC_U+30A4_U+30E4_U+30FC 1
 62
     7
420
 16777215
370
    25
100
AcDbVertex
100
AcDb2dVertex
 10
45.60135966994572
 20
-94.16753664312475
 30
0.0
  0
VERTEX
  5
43
330
41
100
AcDbEntity
  8
_U+30EC_U+30A4_U+30E4_U+30FC 1
 62
     7
420
 16777215
370
    25
100
AcDbVertex
100
AcDb2dVertex
 10
75.60122834902975
 20
-94.16753664312475
 30
0.0
  0
SEQEND
  5
44
330
41
100
AcDbEntity
  8
_U+30EC_U+30A4_U+30E4_U+30FC 1
 62
     7
420
 16777215
370
    25
  0
POLYLINE
  5
45
330
1F
100
AcDbEntity
  8
_U+30EC_U+30A4_U+30E4_U+30FC 1
 62
     7
420
 16777215
370
     9
100
AcDb2dPolyline
 66
     1
 10
0.0
 20
0.0
 30
0.0
  0
VERTEX
  5
46
330
45
100
AcDbEntity
  8
_U+30EC_U+30A4_U+30E4_U+30FC 1
 62
     7
420
 16777215
370
     9
100
AcDbVertex
100
AcDb2dVertex
 10
61.36198871230302
 20
-89.82879331087592
 30
0.0
  0
VERTEX
  5
47
330
45
100
AcDbEntity
  8
_U+30EC_U+30A4_U+30E4_U+30FC 1
 62
     7
420
 16777215
370
     9
100
AcDbVertex
100
AcDb2dVertex
 10
64.99930553930574
 20
-89.82879331087592
 30
0.0
  0
SEQEND
  5
48
330
45
100
AcDbEntity
  8
_U+30EC_U+30A4_U+30E4_U+30FC 1
 62
     7
420
 16777215
370
     9
  0
POLYLINE
  5
49
330
1F
100
AcDbEntity
  8
_U+30EC_U+30A4_U+30E4_U+30FC 1
 62
     7
420
 16777215
370
     9
100
AcDb2dPolyline
 66
     1
 10
0.0
 20
0.0
 30
0.0
  0
VERTEX
  5
4A
330
49
100
AcDbEntity
  8
_U+30EC_U+30A4_U+30E4_U+30FC 1
 62
     7
420
 16777215
370
     9
100
AcDbVertex
100
AcDb2dVertex
 10
60.60129400948774
 20
-92.66756081016666
 30
0.0
  0
VERTEX
  5
4B
330
49
100
AcDbEntity
  8
_U+30EC_U+30A4_U+30E4_U+30FC 1
 62
     7
420
 16777215
370
     9
100
AcDbVertex
100
AcDb2dVertex
 10
61.10082733007692
 20
-91.80145608816059
 30
0.0
  0
SEQEND
  5
4C
330
49
100
AcDbEntity
  8
_U+30EC_U+30A4_U+30E4_U+30FC 1
 62
     7
420
 16777215
370
     9
  0
POLYLINE
  5
4D
330
1F
100
AcDbEntity
  8
_U+30EC_U+30A4_U+30E4_U+30FC 1
 62
     7
420
 16777215
370
     9
100
AcDb2dPolyline
 66
     1
 10
0.0
 20
0.0
 30
0.0
  0
VERTEX
  5
4E
330
4D
100
AcDbEntity
  8
_U+30EC_U+30A4_U+30E4_U+30FC 1
 62
     7
420
 16777215
370
     9
100
AcDbVertex
100
AcDb2dVertex
 10
60.60129400948774
 20
-92.66756081016666
 30
0.0
  0
VERTEX
  5
4F
330
4D
100
AcDbEntity
  8
_U+30EC_U+30A4_U+30E4_U+30FC 1
 62
     7
420
 16777215
370
     9
100
AcDbVertex
100
AcDb2dVertex
 10
60.60129400948774
 20
-91.66778858819411
 30
0.0
  0
SEQEND
  5
50
330
4D
100
AcDbEntity
  8
_U+30EC_U+30A4_U+30E4_U+30FC 1
 62
     7
420
 16777215
370
     9
  0
POLYLINE
  5
51
330
1F
100
AcDbEntity
  8
_U+30EC_U+30A4_U+30E4_U+30FC 1
 62
     7
420
 16777215
370
     9
100
AcDb2dPolyline
 66
     1
 10
0.0
 20
0.0
 30
0.0
  0
VERTEX
  5
52
330
51
100
AcDbEntity
  8
_U+30EC_U+30A4_U+30E4_U+30FC 1
 62
     7
420
 16777215
370
     9
100
AcDbVertex
100
AcDb2dVertex
 10
60.60129400948774
 20
-92.66756081016666
 30
0.0
  0
VERTEX
  5
53
330
51
100
AcDbEntity
  8
_U+30EC_U+30A4_U+30E4_U+30FC 1
 62
     7
420
 16777215
370
     9
100
AcDbVertex
100
AcDb2dVertex
 10
61.36198871230302
 20
-89.82879331087592
 30
0.0
  0
SEQEND
  5
54
330
51
100
AcDbEntity
  8
_U+30EC_U+30A4_U+30E4_U+30FC 1
 62
     7
420
 16777215
370
     9
  0
POLYLINE
  5
55
330
1F
100
AcDbEntity
  8
_U+30EC_U+30A4_U+30E4_U+30FC 1
 62
     7
420
 16777215
370
    25
100
AcDb2dPolyline
 66
     1
 10
0.0
 20
0.0
 30
0.0
  0
VERTEX
  5
56
330
55
100
AcDbEntity
  8
_U+30EC_U+30A4_U+30E4_U+30FC 1
 62
     7
420
 16777215
370
    25
100
AcDbVertex
100
AcDb2dVertex
 10
55.60109247038685
 20
-81.6675263684719
 30
0.0
  0
VERTEX
  5
57
330
55
100
AcDbEntity
  8
_U+30EC_U+30A4_U+30E4_U+30FC 1
 62
     7
420
 16777215
370
    25
100
AcDbVertex
100
AcDb2dVertex
 10
55.60109247038685
 20
-93.16779969893037
 30
0.0
  0
SEQEND
  5
58
330
55
100
AcDbEntity
  8
_U+30EC_U+30A4_U+30E4_U+30FC 1
 62
     7
420
 16777215
370
    25
  0
POLYLINE
  5
59
330
1F
100
AcDbEntity
  8
_U+30EC_U+30A4_U+30E4_U+30FC 1
 62
     7
420
 16777215
370
    25
100
AcDb2dPolyline
 66
     1
 10
0.0
 20
0.0
 30
0.0
  0
VERTEX
  5
5A
330
59
100
AcDbEntity
  8
_U+30EC_U+30A4_U+30E4_U+30FC 1
 62
     7
420
 16777215
370
    25
100
AcDbVertex
100
AcDb2dVertex
 10
33.60070749159993
 20
-81.6675263684719
 30
0.0
  0
VERTEX
  5
5B
330
59
100
AcDbEntity
  8
_U+30EC_U+30A4_U+30E4_U+30FC 1
 62
     7
420
 16777215
370
    25
100
AcDbVertex
100
AcDb2dVertex
 10
33.60070749159993
 20
-82.66729859044445
 30
0.0
  0
SEQEND
  5
5C
330
59
100
AcDbEntity
  8
_U+30EC_U+30A4_U+30E4_U+30FC 1
 62
     7
420
 16777215
370
    25
  0
POLYLINE
  5
5D
330
1F
100
AcDbEntity
  8
_U+30EC_U+30A4_U+30E4_U+30FC 1
 62
     7
420
 16777215
370
    25
100
AcDb2dPolyline
 66
     1
 10
0.0
 20
0.0
 30
0.0
  0
VERTEX
  5
5E
330
5D
100
AcDbEntity
  8
_U+30EC_U+30A4_U+30E4_U+30FC 1
 62
     7
420
 16777215
370
    25
100
AcDbVertex
100
AcDb2dVertex
 10
45.60135966994572
 20
-91.16754969943041
 30
0.0
  0
VERTEX
  5
5F
330
5D
100
AcDbEntity
  8
_U+30EC_U+30A4_U+30E4_U+30FC 1
 62
     7
420
 16777215
370
    25
100
AcDbVertex
100
AcDb2dVertex
 10
49.60111873457004
 20
-91.16754969943041
 30
0.0
  0
SEQEND
  5
60
330
5D
100
AcDbEntity
  8
_U+30EC_U+30A4_U+30E4_U+30FC 1
 62
     7
420
 16777215
370
    25
  0
POLYLINE
  5
61
330
1F
100
AcDbEntity
  8
_U+30EC_U+30A4_U+30E4_U+30FC 1
 62
     7
420
 16777215
370
    25
100
AcDb2dPolyline
 66
     1
 10
0.0
 20
0.0
 30
0.0
  0
VERTEX
  5
62
330
61
100
AcDbEntity
  8
_U+30EC_U+30A4_U+30E4_U+30FC 1
 62
     7
420
 16777215
370
    25
100
AcDbVertex
100
AcDb2dVertex
 10
33.60070749159993
 20
-82.66729859044445
 30
0.0
  0
VERTEX
  5
63
330
61
100
AcDbEntity
  8
_U+30EC_U+30A4_U+30E4_U+30FC 1
 62
     7
420
 16777215
370
    25
100
AcDbVertex
100
AcDb2dVertex
 10
54.60132027367094
 20
-82.66729859044445
 30
0.0
  0
SEQEND
  5
64
330
61
100
AcDbEntity
  8
_U+30EC_U+30A4_U+30E4_U+30FC 1
 62
     7
420
 16777215
370
    25
  0
POLYLINE
  5
65
330
1F
100
AcDbEntity
  8
_U+30EC_U+30A4_U+30E4_U+30FC 1
 62
     7
420
 16777215
370
    25
100
AcDb2dPolyline
 66
     1
 10
0.0
 20
0.0
 30
0.0
  0
VERTEX
  5
66
330
65
100
AcDbEntity
  8
_U+30EC_U+30A4_U+30E4_U+30FC 1
 62
     7
420
 16777215
370
    25
100
AcDbVertex
100
AcDb2dVertex
 10
33.60070749159993
 20
-81.6675263684719
 30
0.0
  0
VERTEX
  5
67
330
65
100
AcDbEntity
  8
_U+30EC_U+30A4_U+30E4_U+30FC 1
 62
     7
420
 16777215
370
    25
100
AcDbVertex
100
AcDb2dVertex
 10
55.60109247038685
 20
-81.6675263684719
 30
0.0
  0
SEQEND
  5
68
330
65
100
AcDbEntity
  8
_U+30EC_U+30A4_U+30E4_U+30FC 1
 62
     7
420
 16777215
370
    25
  0
POLYLINE
  5
69
330
1F
100
AcDbEntity
  8
_U+30EC_U+30A4_U+30E4_U+30FC 1
 62
     7
420
 16777215
370
    25
100
AcDb2dPolyline
 66
     1
 10
0.0
 20
0.0
 30
0.0
  0
VERTEX
  5
6A
330
69
100
AcDbEntity
  8
_U+30EC_U+30A4_U+30E4_U+30FC 1
 62
     7
420
 16777215
370
    25
100
AcDbVertex
100
AcDb2dVertex
 10
45.60135966994572
 20
-91.16754969943041
 30
0.0
  0
VERTEX
  5
6B
330
69
100
AcDbEntity
  8
_U+30EC_U+30A4_U+30E4_U+30FC 1
 62
     7
420
 16777215
370
    25
100
AcDbVertex
100
AcDb2dVertex
 10
45.60135966994572
 20
-94.16753664312475
 30
0.0
  0
SEQEND
  5
6C
330
69
100
AcDbEntity
  8
_U+30EC_U+30A4_U+30E4_U+30FC 1
 62
     7
420
 16777215
370
    25
  0
POLYLINE
  5
6D
330
1F
100
AcDbEntity
  8
_U+30EC_U+30A4_U+30E4_U+30FC 1
 62
     7
420
 16777215
370
    25
100
AcDb2dPolyline
 66
     1
 10
0.0
 20
0.0
 30
0.0
  0
VERTEX
  5
6E
330
6D
100
AcDbEntity
  8
_U+30EC_U+30A4_U+30E4_U+30FC 1
 62
     7
420
 16777215
370
    25
100
AcDbVertex
100
AcDb2dVertex
 10
54.60132027367094
 20
-82.66729859044445
 30
0.0
  0
VERTEX
  5
6F
330
6D
100
AcDbEntity
  8
_U+30EC_U+30A4_U+30E4_U+30FC 1
 62
     7
420
 16777215
370
    25
100
AcDbVertex
100
AcDb2dVertex
 10
54.60132027367094
 20
-93.16779969893037
 30
0.0
  0
SEQEND
  5
70
330
6D
100
AcDbEntity
  8
_U+30EC_U+30A4_U+30E4_U+30FC 1
 62
     7
420
 16777215
370
    25
  0
POLYLINE
  5
71
330
1F
100
AcDbEntity
  8
_U+30EC_U+30A4_U+30E4_U+30FC 1
 62
     7
420
 16777215
370
    25
100
AcDb2dPolyline
 66
     1
 10
0.0
 20
0.0
 30
0.0
  0
VERTEX
  5
72
330
71
100
AcDbEntity
  8
_U+30EC_U+30A4_U+30E4_U+30FC 1
 62
     7
420
 16777215
370
    25
100
AcDbVertex
100
AcDb2dVertex
 10
46.60113186666163
 20
-93.16779969893037
 30
0.0
  0
VERTEX
  5
73
330
71
100
AcDbEntity
  8
_U+30EC_U+30A4_U+30E4_U+30FC 1
 62
     7
420
 16777215
370
    25
100
AcDbVertex
100
AcDb2dVertex
 10
54.60132027367094
 20
-93.16779969893037
 30
0.0
  0
SEQEND
  5
74
330
71
100
AcDbEntity
  8
_U+30EC_U+30A4_U+30E4_U+30FC 1
 62
     7
420
 16777215
370
    25
  0
POLYLINE
  5
75
330
1F
100
AcDbEntity
  8
_U+30EC_U+30A4_U+30E4_U+30FC 1
 62
     7
420
 16777215
370
    25
100
AcDb2dPolyline
 66
     1
 10
0.0
 20
0.0
 30
0.0
  0
VERTEX
  5
76
330
75
100
AcDbEntity
  8
_U+30EC_U+30A4_U+30E4_U+30FC 1
 62
     7
420
 16777215
370
    25
100
AcDbVertex
100
AcDb2dVertex
 10
46.60113186666163
 20
-92.16802747695783
 30
0.0
  0
VERTEX
  5
77
330
75
100
AcDbEntity
  8
_U+30EC_U+30A4_U+30E4_U+30FC 1
 62
     7
420
 16777215
370
    25
100
AcDbVertex
100
AcDb2dVertex
 10
49.60111873457004
 20
-92.16802747695783
 30
0.0
  0
SEQEND
  5
78
330
75
100
AcDbEntity
  8
_U+30EC_U+30A4_U+30E4_U+30FC 1
 62
     7
420
 16777215
370
    25
  0
POLYLINE
  5
79
330
1F
100
AcDbEntity
  8
_U+30EC_U+30A4_U+30E4_U+30FC 1
 62
     7
420
 16777215
370
    25
100
AcDb2dPolyline
 66
     1
 10
0.0
 20
0.0
 30
0.0
  0
VERTEX
  5
7A
330
79
100
AcDbEntity
  8
_U+30EC_U+30A4_U+30E4_U+30FC 1
 62
     7
420
 16777215
370
    25
100
AcDbVertex
100
AcDb2dVertex
 10
46.60113186666163
 20
-92.16802747695783
 30
0.0
  0
VERTEX
  5
7B
330
79
100
AcDbEntity
  8
_U+30EC_U+30A4_U+30E4_U+30FC 1
 62
     7
420
 16777215
370
    25
100
AcDbVertex
100
AcDb2dVertex
 10
46.60113186666163
 20
-93.16779969893037
 30
0.0
  0
SEQEND
  5
7C
330
79
100
AcDbEntity
  8
_U+30EC_U+30A4_U+30E4_U+30FC 1
 62
     7
420
 16777215
370
    25
  0
POLYLINE
  5
7D
330
1F
100
AcDbEntity
  8
_U+30EC_U+30A4_U+30E4_U+30FC 1
 62
     7
420
 16777215
370
    25
100
AcDb2dPolyline
 66
     1
 10
0.0
 20
0.0
 30
0.0
  0
VERTEX
  5
7E
330
7D
100
AcDbEntity
  8
_U+30EC_U+30A4_U+30E4_U+30FC 1
 62
     7
420
 16777215
370
    25
100
AcDbVertex
100
AcDb2dVertex
 10
49.60111873457004
 20
-91.16754969943041
 30
0.0
  0
VERTEX
  5
7F
330
7D
100
AcDbEntity
  8
_U+30EC_U+30A4_U+30E4_U+30FC 1
 62
     7
420
 16777215
370
    25
100
AcDbVertex
100
AcDb2dVertex
 10
49.60111873457004
 20
-92.16802747695783
 30
0.0
  0
SEQEND
  5
80
330
7D
100
AcDbEntity
  8
_U+30EC_U+30A4_U+30E4_U+30FC 1
 62
     7
420
 16777215
370
    25
  0
POLYLINE
  5
81
330
1F
100
AcDbEntity
  8
_U+30EC_U+30A4_U+30E4_U+30FC 1
 62
     7
420
 16777215
370
    25
100
AcDb2dPolyline
 66
     1
 10
0.0
 20
0.0
 30
0.0
  0
VERTEX
  5
82
330
81
100
AcDbEntity
  8
_U+30EC_U+30A4_U+30E4_U+30FC 1
 62
     7
420
 16777215
370
    25
100
AcDbVertex
100
AcDb2dVertex
 10
55.60109247038685
 20
-93.16779969893037
 30
0.0
  0
VERTEX
  5
83
330
81
100
AcDbEntity
  8
_U+30EC_U+30A4_U+30E4_U+30FC 1
 62
     7
420
 16777215
370
    25
100
AcDbVertex
100
AcDb2dVertex
 10
65.60149720582197
 20
-93.16779969893037
 30
0.0
  0
SEQEND
  5
84
330
81
100
AcDbEntity
  8
_U+30EC_U+30A4_U+30E4_U+30FC 1
 62
     7
420
 16777215
370
    25
  0
POLYLINE
  5
85
330
1F
100
AcDbEntity
  8
_U+30EC_U+30A4_U+30E4_U+30FC 1
 62
     7
420
 16777215
370
    25
100
AcDb2dPolyline
 66
     1
 10
0.0
 20
0.0
 30
0.0
  0
VERTEX
  5
86
330
85
100
AcDbEntity
  8
_U+30EC_U+30A4_U+30E4_U+30FC 1
 62
     7
420
 16777215
370
    25
100
AcDbVertex
100
AcDb2dVertex
 10
58.85119877635861
 20
-93.16779969893037
 30
0.0
  0
VERTEX
  5
87
330
85
100
AcDbEntity
  8
_U+30EC_U+30A4_U+30E4_U+30FC 1
 62
     7
420
 16777215
370
    25
100
AcDbVertex
100
AcDb2dVertex
 10
58.85119877635861
 20
-94.16753664312475
 30
0.0
  0
SEQEND
  5
88
330
85
100
AcDbEntity
  8
_U+30EC_U+30A4_U+30E4_U+30FC 1
 62
     7
420
 16777215
370
    25
  0
POLYLINE
  5
89
330
1F
100
AcDbEntity
  8
_U+30EC_U+30A4_U+30E4_U+30FC 1
 62
     7
420
 16777215
370
    25
100
AcDb2dPolyline
 66
     1
 10
0.0
 20
0.0
 30
0.0
  0
VERTEX
  5
8A
330
89
100
AcDbEntity
  8
_U+30EC_U+30A4_U+30E4_U+30FC 1
 62
     7
420
 16777215
370
    25
100
AcDbVertex
100
AcDb2dVertex
 10
62.35138924261687
 20
-93.16779969893037
 30
0.0
  0
VERTEX
  5
8B
330
89
100
AcDbEntity
  8
_U+30EC_U+30A4_U+30E4_U+30FC 1
 62
     7
420
 16777215
370
    25
100
AcDbVertex
100
AcDb2dVertex
 10
62.35138924261687
 20
-94.16753664312475
 30
0.0
  0
SEQEND
  5
8C
330
89
100
AcDbEntity
  8
_U+30EC_U+30A4_U+30E4_U+30FC 1
 62
     7
420
 16777215
370
    25
  0
POLYLINE
  5
8D
330
1F
100
AcDbEntity
  8
_U+30EC_U+30A4_U+30E4_U+30FC 1
 62
     7
420
 16777215
370
    25
100
AcDb2dPolyline
 66
     1
 10
0.0
 20
0.0
 30
0.0
  0
VERTEX
  5
8E
330
8D
100
AcDbEntity
  8
_U+30EC_U+30A4_U+30E4_U+30FC 1
 62
     7
420
 16777215
370
    25
100
AcDbVertex
100
AcDb2dVertex
 10
74.60149143009073
 20
-92.16802747695783
 30
0.0
  0
VERTEX
  5
8F
330
8D
100
AcDbEntity
  8
_U+30EC_U+30A4_U+30E4_U+30FC 1
 62
     7
420
 16777215
370
    25
100
AcDbVertex
100
AcDb2dVertex
 10
74.60149143009073
 20
-93.16779969893037
 30
0.0
  0
SEQEND
  5
90
330
8D
100
AcDbEntity
  8
_U+30EC_U+30A4_U+30E4_U+30FC 1
 62
     7
420
 16777215
370
    25
  0
POLYLINE
  5
91
330
1F
100
AcDbEntity
  8
_U+30EC_U+30A4_U+30E4_U+30FC 1
 62
     7
420
 16777215
370
    25
100
AcDb2dPolyline
 66
     1
 10
0.0
 20
0.0
 30
0.0
  0
VERTEX
  5
92
330
91
100
AcDbEntity
  8
_U+30EC_U+30A4_U+30E4_U+30FC 1
 62
     7
420
 16777215
370
    25
100
AcDbVertex
100
AcDb2dVertex
 10
71.60146928440544
 20
-91.16754969943041
 30
0.0
  0
VERTEX
  5
93
330
91
100
AcDbEntity
  8
_U+30EC_U+30A4_U+30E4_U+30FC 1
 62
     7
420
 16777215
370
    25
100
AcDbVertex
100
AcDb2dVertex
 10
71.60146928440544
 20
-92.16802747695783
 30
0.0
  0
SEQEND
  5
94
330
91
100
AcDbEntity
  8
_U+30EC_U+30A4_U+30E4_U+30FC 1
 62
     7
420
 16777215
370
    25
  0
POLYLINE
  5
95
330
1F
100
AcDbEntity
  8
_U+30EC_U+30A4_U+30E4_U+30FC 1
 62
     7
420
 16777215
370
    25
100
AcDb2dPolyline
 66
     1
 10
0.0
 20
0.0
 30
0.0
  0
VERTEX
  5
96
330
95
100
AcDbEntity
  8
_U+30EC_U+30A4_U+30E4_U+30FC 1
 62
     7
420
 16777215
370
    25
100
AcDbVertex
100
AcDb2dVertex
 10
74.60149143009073
 20
-92.16802747695783
 30
0.0
  0
VERTEX
  5
97
330
95
100
AcDbEntity
  8
_U+30EC_U+30A4_U+30E4_U+30FC 1
 62
     7
420
 16777215
370
    25
100
AcDbVertex
100
AcDb2dVertex
 10
71.60146928440544
 20
-92.16802747695783
 30
0.0
  0
SEQEND
  5
98
330
95
100
AcDbEntity
  8
_U+30EC_U+30A4_U+30E4_U+30FC 1
 62
     7
420
 16777215
370
    25
  0
POLYLINE
  5
99
330
1F
100
AcDbEntity
  8
_U+30EC_U+30A4_U+30E4_U+30FC 1
 62
     7
420
 16777215
370
    25
100
AcDb2dPolyline
 66
     1
 10
0.0
 20
0.0
 30
0.0
  0
VERTEX
  5
9A
330
99
100
AcDbEntity
  8
_U+30EC_U+30A4_U+30E4_U+30FC 1
 62
     7
420
 16777215
370
    25
100
AcDbVertex
100
AcDb2dVertex
 10
74.60149143009073
 20
-93.16779969893037
 30
0.0
  0
VERTEX
  5
9B
330
99
100
AcDbEntity
  8
_U+30EC_U+30A4_U+30E4_U+30FC 1
 62
     7
420
 16777215
370
    25
100
AcDbVertex
100
AcDb2dVertex
 10
66.60126942779387
 20
-93.16779969893037
 30
0.0
  0
SEQEND
  5
9C
330
99
100
AcDbEntity
  8
_U+30EC_U+30A4_U+30E4_U+30FC 1
 62
     7
420
 16777215
370
    25
  0
POLYLINE
  5
9D
330
1F
100
AcDbEntity
  8
_U+30EC_U+30A4_U+30E4_U+30FC 1
 62
     7
420
 16777215
370
    25
100
AcDb2dPolyline
 66
     1
 10
0.0
 20
0.0
 30
0.0
  0
VERTEX
  5
9E
330
9D
100
AcDbEntity
  8
_U+30EC_U+30A4_U+30E4_U+30FC 1
 62
     7
420
 16777215
370
    25
100
AcDbVertex
100
AcDb2dVertex
 10
66.60126942779387
 20
-82.66729859044445
 30
0.0
  0
VERTEX
  5
9F
330
9D
100
AcDbEntity
  8
_U+30EC_U+30A4_U+30E4_U+30FC 1
 62
     7
420
 16777215
370
    25
100
AcDbVertex
100
AcDb2dVertex
 10
66.60126942779387
 20
-93.16779969893037
 30
0.0
  0
SEQEND
  5
A0
330
9D
100
AcDbEntity
  8
_U+30EC_U+30A4_U+30E4_U+30FC 1
 62
     7
420
 16777215
370
    25
  0
POLYLINE
  5
A1
330
1F
100
AcDbEntity
  8
_U+30EC_U+30A4_U+30E4_U+30FC 1
 62
     7
420
 16777215
370
    25
100
AcDb2dPolyline
 66
     1
 10
0.0
 20
0.0
 30
0.0
  0
VERTEX
  5
A2
330
A1
100
AcDbEntity
  8
_U+30EC_U+30A4_U+30E4_U+30FC 1
 62
     7
420
 16777215
370
    25
100
AcDbVertex
100
AcDb2dVertex
 10
75.60122834902975
 20
-91.16754969943041
 30
0.0
  0
VERTEX
  5
A3
330
A1
100
AcDbEntity
  8
_U+30EC_U+30A4_U+30E4_U+30FC 1
 62
     7
420
 16777215
370
    25
100
AcDbVertex
100
AcDb2dVertex
 10
71.60146928440544
 20
-91.16754969943041
 30
0.0
  0
SEQEND
  5
A4
330
A1
100
AcDbEntity
  8
_U+30EC_U+30A4_U+30E4_U+30FC 1
 62
     7
420
 16777215
370
    25
  0
POLYLINE
  5
A5
330
1F
100
AcDbEntity
  8
_U+30EC_U+30A4_U+30E4_U+30FC 1
 62
     7
420
 16777215
370
    25
100
AcDb2dPolyline
 66
     1
 10
0.0
 20
0.0
 30
0.0
  0
VERTEX
  5
A6
330
A5
100
AcDbEntity
  8
_U+30EC_U+30A4_U+30E4_U+30FC 1
 62
     7
420
 16777215
370
    25
100
AcDbVertex
100
AcDb2dVertex
 10
87.60121109844025
 20
-82.66729859044445
 30
0.0
  0
VERTEX
  5
A7
330
A5
100
AcDbEntity
  8
_U+30EC_U+30A4_U+30E4_U+30FC 1
 62
     7
420
 16777215
370
    25
100
AcDbVertex
100
AcDb2dVertex
 10
66.60126942779387
 20
-82.66729859044445
 30
0.0
  0
SEQEND
  5
A8
330
A5
100
AcDbEntity
  8
_U+30EC_U+30A4_U+30E4_U+30FC 1
 62
     7
420
 16777215
370
    25
  0
POLYLINE
  5
A9
330
1F
100
AcDbEntity
  8
_U+30EC_U+30A4_U+30E4_U+30FC 1
 62
     7
420
 16777215
370
    25
100
AcDb2dPolyline
 66
     1
 10
0.0
 20
0.0
 30
0.0
  0
VERTEX
  5
AA
330
A9
100
AcDbEntity
  8
_U+30EC_U+30A4_U+30E4_U+30FC 1
 62
     7
420
 16777215
370
    25
100
AcDbVertex
100
AcDb2dVertex
 10
87.60121109844025
 20
-81.6675263684719
 30
0.0
  0
VERTEX
  5
AB
330
A9
100
AcDbEntity
  8
_U+30EC_U+30A4_U+30E4_U+30FC 1
 62
     7
420
 16777215
370
    25
100
AcDbVertex
100
AcDb2dVertex
 10
65.60149720582197
 20
-81.6675263684719
 30
0.0
  0
SEQEND
  5
AC
330
A9
100
AcDbEntity
  8
_U+30EC_U+30A4_U+30E4_U+30FC 1
 62
     7
420
 16777215
370
    25
  0
POLYLINE
  5
AD
330
1F
100
AcDbEntity
  8
_U+30EC_U+30A4_U+30E4_U+30FC 1
 62
     7
420
 16777215
370
    25
100
AcDb2dPolyline
 66
     1
 10
0.0
 20
0.0
 30
0.0
  0
VERTEX
  5
AE
330
AD
100
AcDbEntity
  8
_U+30EC_U+30A4_U+30E4_U+30FC 1
 62
     7
420
 16777215
370
    25
100
AcDbVertex
100
AcDb2dVertex
 10
75.60122834902975
 20
-91.16754969943041
 30
0.0
  0
VERTEX
  5
AF
330
AD
100
AcDbEntity
  8
_U+30EC_U+30A4_U+30E4_U+30FC 1
 62
     7
420
 16777215
370
    25
100
AcDbVertex
100
AcDb2dVertex
 10
75.60122834902975
 20
-94.16753664312475
 30
0.0
  0
SEQEND
  5
B0
330
AD
100
AcDbEntity
  8
_U+30EC_U+30A4_U+30E4_U+30FC 1
 62
     7
420
 16777215
370
    25
  0
POLYLINE
  5
B1
330
1F
100
AcDbEntity
  8
_U+30EC_U+30A4_U+30E4_U+30FC 1
 62
     7
420
 16777215
370
    25
100
AcDb2dPolyline
 66
     1
 10
0.0
 20
0.0
 30
0.0
  0
VERTEX
  5
B2
330
B1
100
AcDbEntity
  8
_U+30EC_U+30A4_U+30E4_U+30FC 1
 62
     7
420
 16777215
370
    25
100
AcDbVertex
100
AcDb2dVertex
 10
87.60121109844025
 20
-81.6675263684719
 30
0.0
  0
VERTEX
  5
B3
330
B1
100
AcDbEntity
  8
_U+30EC_U+30A4_U+30E4_U+30FC 1
 62
     7
420
 16777215
370
    25
100
AcDbVertex
100
AcDb2dVertex
 10
87.60121109844025
 20
-82.66729859044445
 30
0.0
  0
SEQEND
  5
B4
330
B1
100
AcDbEntity
  8
_U+30EC_U+30A4_U+30E4_U+30FC 1
 62
     7
420
 16777215
370
    25
  0
POLYLINE
  5
B5
330
1F
100
AcDbEntity
  8
_U+30EC_U+30A4_U+30E4_U+30FC 1
 62
     7
420
 16777215
370
    25
100
AcDb2dPolyline
 66
     1
 10
0.0
 20
0.0
 30
0.0
  0
VERTEX
  5
B6
330
B5
100
AcDbEntity
  8
_U+30EC_U+30A4_U+30E4_U+30FC 1
 62
     7
420
 16777215
370
    25
100
AcDbVertex
100
AcDb2dVertex
 10
65.60149720582197
 20
-81.6675263684719
 30
0.0
  0
VERTEX
  5
B7
330
B5
100
AcDbEntity
  8
_U+30EC_U+30A4_U+30E4_U+30FC 1
 62
     7
420
 16777215
370
    25
100
AcDbVertex
100
AcDb2dVertex
 10
65.60149720582197
 20
-93.16779969893037
 30
0.0
  0
SEQEND
  5
B8
330
B5
100
AcDbEntity
  8
_U+30EC_U+30A4_U+30E4_U+30FC 1
 62
     7
420
 16777215
370
    25
  0
SPLINE
  5
B9
330
1F
100
AcDbEntity
  8
_U+30EC_U+30A4_U+30E4_U+30FC 1
 62
     7
420
 16777215
370
     9
100
AcDbSpline
210
0.0
220
0.0
230
1.0
 70
    11
 71
     3
 72
    17
 73
    13
 74
     0
 42
0.0000000001
 43
0.0000000001
 12
1.0
 22
0.0
 32
0.0
 13
1.0
 23
0.0
 33
0.0
 40
0.0
 40
0.0
 40
0.0
 40
0.0
 40
1.0
 40
1.0
 40
1.0
 40
2.0
 40
2.0
 40
2.0
 40
3.0
 40
3.0
 40
3.0
 40
4.0
 40
4.0
 40
4.0
 40
4.0
 10
33.70131971379677
 20
-77.66744970280541
 30
0.0
 10
33.70131971379677
 20
-77.61231053615234
 30
0.0
 10
33.65651693603037
 20
-77.56754303616378
 30
0.0
 10
33.60070749159993
 20
-77.56754303616378
 30
0.0
 10
33.54556832494685
 20
-77.56754303616378
 30
0.0
 10
33.50080082495829
 20
-77.61231053615234
 30
0.0
 10
33.50080082495829
 20
-77.66744970280541
 30
0.0
 10
33.50080082495829
 20
-77.72255359168034
 30
0.0
 10
33.54556832494685
 20
-77.76735636944706
 30
0.0
 10
33.60070749159993
 20
-77.76735636944706
 30
0.0
 10
33.65651693603037
 20
-77.76735636944706
 30
0.0
 10
33.70131971379677
 20
-77.72255359168034
 30
0.0
 10
33.70131971379677
 20
-77.66744970280541
 30
0.0
  0
SPLINE
  5
BA
330
1F
100
AcDbEntity
  8
_U+30EC_U+30A4_U+30E4_U+30FC 1
 62
     7
420
 16777215
370
     9
100
AcDbSpline
210
0.0
220
0.0
230
1.0
 70
    11
 71
     3
 72
    17
 73
    13
 74
     0
 42
0.0000000001
 43
0.0000000001
 12
1.0
 22
0.0
 32
0.0
 13
1.0
 23
0.0
 33
0.0
 40
0.0
 40
0.0
 40
0.0
 40
0.0
 40
1.0
 40
1.0
 40
1.0
 40
2.0
 40
2.0
 40
2.0
 40
3.0
 40
3.0
 40
3.0
 40
4.0
 40
4.0
 40
4.0
 40
4.0
 10
55.70099913450468
 20
-77.66744970280541
 30
0.0
 10
55.70099913450468
 20
-77.61231053615234
 30
0.0
 10
55.65619635786992
 20
-77.56754303616378
 30
0.0
 10
55.60109247038685
 20
-77.56754303616378
 30
0.0
 10
55.54595330512689
 20
-77.56754303616378
 30
0.0
 10
55.50118580626901
 20
-77.61231053615234
 30
0.0
 10
55.50118580626901
 20
-77.66744970280541
 30
0.0
 10
55.50118580626901
 20
-77.72255359168034
 30
0.0
 10
55.54595330512689
 20
-77.76735636944706
 30
0.0
 10
55.60109247038685
 20
-77.76735636944706
 30
0.0
 10
55.65619635786992
 20
-77.76735636944706
 30
0.0
 10
55.70099913450468
 20
-77.72255359168034
 30
0.0
 10
55.70099913450468
 20
-77.66744970280541
 30
0.0
  0
SPLINE
  5
BB
330
1F
100
AcDbEntity
  8
_U+30EC_U+30A4_U+30E4_U+30FC 1
 62
     7
420
 16777215
370
     9
100
AcDbSpline
210
0.0
220
0.0
230
1.0
 70
    11
 71
     3
 72
    17
 73
    13
 74
     0
 42
0.0000000001
 43
0.0000000001
 12
1.0
 22
0.0
 32
0.0
 13
1.0
 23
0.0
 33
0.0
 40
0.0
 40
0.0
 40
0.0
 40
0.0
 40
1.0
 40
1.0
 40
1.0
 40
2.0
 40
2.0
 40
2.0
 40
3.0
 40
3.0
 40
3.0
 40
4.0
 40
4.0
 40
4.0
 40
4.0
 10
65.70140221270647
 20
-77.66744970280541
 30
0.0
 10
65.70140221270647
 20
-77.61231053615234
 30
0.0
 10
65.65663471384859
 20
-77.56754303616378
 30
0.0
 10
65.60149720582197
 20
-77.56754303616378
 30
0.0
 10
65.54568610556801
 20
-77.56754303616378
 30
0.0
 10
65.50091860671013
 20
-77.61231053615234
 30
0.0
 10
65.50091860671013
 20
-77.66744970280541
 30
0.0
 10
65.50091860671013
 20
-77.72255359168034
 30
0.0
 10
65.54568610556801
 20
-77.76735636944706
 30
0.0
 10
65.60149720582197
 20
-77.76735636944706
 30
0.0
 10
65.65663471384859
 20
-77.76735636944706
 30
0.0
 10
65.70140221270647
 20
-77.72255359168034
 30
0.0
 10
65.70140221270647
 20
-77.66744970280541
 30
0.0
  0
SPLINE
  5
BC
330
1F
100
AcDbEntity
  8
_U+30EC_U+30A4_U+30E4_U+30FC 1
 62
     7
420
 16777215
370
     9
100
AcDbSpline
210
0.0
220
0.0
230
1.0
 70
    11
 71
     3
 72
    17
 73
    13
 74
     0
 42
0.0000000001
 43
0.0000000001
 12
1.0
 22
0.0
 32
0.0
 13
1.0
 23
0.0
 33
0.0
 40
0.0
 40
0.0
 40
0.0
 40
0.0
 40
1.0
 40
1.0
 40
1.0
 40
2.0
 40
2.0
 40
2.0
 40
3.0
 40
3.0
 40
3.0
 40
4.0
 40
4.0
 40
4.0
 40
4.0
 10
87.70111776255808
 20
-77.66744970280541
 30
0.0
 10
87.70111776255808
 20
-77.61231053615234
 30
0.0
 10
87.65631498592332
 20
-77.56754303616378
 30
0.0
 10
87.60121109844025
 20
-77.56754303616378
 30
0.0
 10
87.5460719331803
 20
-77.56754303616378
 30
0.0
 10
87.5013044343224
 20
-77.61231053615234
 30
0.0
 10
87.5013044343224
 20
-77.66744970280541
 30
0.0
 10
87.5013044343224
 20
-77.72255359168034
 30
0.0
 10
87.5460719331803
 20
-77.76735636944706
 30
0.0
 10
87.60121109844025
 20
-77.76735636944706
 30
0.0
 10
87.65631498592332
 20
-77.76735636944706
 30
0.0
 10
87.70111776255808
 20
-77.72255359168034
 30
0.0
 10
87.70111776255808
 20
-77.66744970280541
 30
0.0
  0
SPLINE
  5
BD
330
1F
100
AcDbEntity
  8
_U+30EC_U+30A4_U+30E4_U+30FC 1
 62
     7
420
 16777215
370
     9
100
AcDbSpline
210
0.0
220
0.0
230
1.0
 70
    11
 71
     3
 72
    17
 73
    13
 74
     0
 42
0.0000000001
 43
0.0000000001
 12
1.0
 22
0.0
 32
0.0
 13
1.0
 23
0.0
 33
0.0
 40
0.0
 40
0.0
 40
0.0
 40
0.0
 40
1.0
 40
1.0
 40
1.0
 40
2.0
 40
2.0
 40
2.0
 40
3.0
 40
3.0
 40
3.0
 40
4.0
 40
4.0
 40
4.0
 40
4.0
 10
91.7008768271824
 20
-81.6675263684719
 30
0.0
 10
91.7008768271824
 20
-81.61206970181922
 30
0.0
 10
91.65607405054763
 20
-81.56730220183034
 30
0.0
 10
91.60097016306456
 20
-81.56730220183034
 30
0.0
 10
91.54583331044688
 20
-81.56730220183034
 30
0.0
 10
91.50103053268016
 20
-81.61206970181922
 30
0.0
 10
91.50103053268016
 20
-81.6675263684719
 30
0.0
 10
91.50103053268016
 20
-81.72266553512497
 30
0.0
 10
91.54583331044688
 20
-81.76743303511354
 30
0.0
 10
91.60097016306456
 20
-81.76743303511354
 30
0.0
 10
91.65607405054763
 20
-81.76743303511354
 30
0.0
 10
91.7008768271824
 20
-81.72266553512497
 30
0.0
 10
91.7008768271824
 20
-81.6675263684719
 30
0.0
  0
SPLINE
  5
BE
330
1F
100
AcDbEntity
  8
_U+30EC_U+30A4_U+30E4_U+30FC 1
 62
     7
420
 16777215
370
     9
100
AcDbSpline
210
0.0
220
0.0
230
1.0
 70
    11
 71
     3
 72
    17
 73
    13
 74
     0
 42
0.0000000001
 43
0.0000000001
 12
1.0
 22
0.0
 32
0.0
 13
1.0
 23
0.0
 33
0.0
 40
0.0
 40
0.0
 40
0.0
 40
0.0
 40
1.0
 40
1.0
 40
1.0
 40
2.0
 40
2.0
 40
2.0
 40
3.0
 40
3.0
 40
3.0
 40
4.0
 40
4.0
 40
4.0
 40
4.0
 10
91.7008768271824
 20
-82.66729859044445
 30
0.0
 10
91.7008768271824
 20
-82.61219470156921
 30
0.0
 10
91.65607405054763
 20
-82.56739192380249
 30
0.0
 10
91.60097016306456
 20
-82.56739192380249
 30
0.0
 10
91.54583331044688
 20
-82.56739192380249
 30
0.0
 10
91.50103053268016
 20
-82.61219470156921
 30
0.0
 10
91.50103053268016
 20
-82.66729859044445
 30
0.0
 10
91.50103053268016
 20
-82.72275525709712
 30
0.0
 10
91.54583331044688
 20
-82.76755803486353
 30
0.0
 10
91.60097016306456
 20
-82.76755803486353
 30
0.0
 10
91.65607405054763
 20
-82.76755803486353
 30
0.0
 10
91.7008768271824
 20
-82.72275525709712
 30
0.0
 10
91.7008768271824
 20
-82.66729859044445
 30
0.0
  0
SPLINE
  5
BF
330
1F
100
AcDbEntity
  8
_U+30EC_U+30A4_U+30E4_U+30FC 1
 62
     7
420
 16777215
370
     9
100
AcDbSpline
210
0.0
220
0.0
230
1.0
 70
    11
 71
     3
 72
    17
 73
    13
 74
     0
 42
0.0000000001
 43
0.0000000001
 12
1.0
 22
0.0
 32
0.0
 13
1.0
 23
0.0
 33
0.0
 40
0.0
 40
0.0
 40
0.0
 40
0.0
 40
1.0
 40
1.0
 40
1.0
 40
2.0
 40
2.0
 40
2.0
 40
3.0
 40
3.0
 40
3.0
 40
4.0
 40
4.0
 40
4.0
 40
4.0
 10
91.7008768271824
 20
-91.16754969943041
 30
0.0
 10
91.7008768271824
 20
-91.11244581055549
 30
0.0
 10
91.65607405054763
 20
-91.06764303278877
 30
0.0
 10
91.60097016306456
 20
-91.06764303278877
 30
0.0
 10
91.54583331044688
 20
-91.06764303278877
 30
0.0
 10
91.50103053268016
 20
-91.11244581055549
 30
0.0
 10
91.50103053268016
 20
-91.16754969943041
 30
0.0
 10
91.50103053268016
 20
-91.22268886608349
 30
0.0
 10
91.54583331044688
 20
-91.26745636607204
 30
0.0
 10
91.60097016306456
 20
-91.26745636607204
 30
0.0
 10
91.65607405054763
 20
-91.26745636607204
 30
0.0
 10
91.7008768271824
 20
-91.22268886608349
 30
0.0
 10
91.7008768271824
 20
-91.16754969943041
 30
0.0
  0
SPLINE
  5
C0
330
1F
100
AcDbEntity
  8
_U+30EC_U+30A4_U+30E4_U+30FC 1
 62
     7
420
 16777215
370
     9
100
AcDbSpline
210
0.0
220
0.0
230
1.0
 70
    11
 71
     3
 72
    17
 73
    13
 74
     0
 42
0.0000000001
 43
0.0000000001
 12
1.0
 22
0.0
 32
0.0
 13
1.0
 23
0.0
 33
0.0
 40
0.0
 40
0.0
 40
0.0
 40
0.0
 40
1.0
 40
1.0
 40
1.0
 40
2.0
 40
2.0
 40
2.0
 40
3.0
 40
3.0
 40
3.0
 40
4.0
 40
4.0
 40
4.0
 40
4.0
 10
91.7008768271824
 20
-94.16753664312475
 30
0.0
 10
91.7008768271824
 20
-94.11243275424984
 30
0.0
 10
91.65607405054763
 20
-94.0676299764831
 30
0.0
 10
91.60097016306456
 20
-94.0676299764831
 30
0.0
 10
91.54583331044688
 20
-94.0676299764831
 30
0.0
 10
91.50103053268016
 20
-94.11243275424984
 30
0.0
 10
91.50103053268016
 20
-94.16753664312475
 30
0.0
 10
91.50103053268016
 20
-94.22267580977783
 30
0.0
 10
91.54583331044688
 20
-94.26744330976639
 30
0.0
 10
91.60097016306456
 20
-94.26744330976639
 30
0.0
 10
91.65607405054763
 20
-94.26744330976639
 30
0.0
 10
91.7008768271824
 20
-94.22267580977783
 30
0.0
 10
91.7008768271824
 20
-94.16753664312475
 30
0.0
  0
SPLINE
  5
C1
330
1F
100
AcDbEntity
  8
_U+30EC_U+30A4_U+30E4_U+30FC 1
 62
     7
420
 16777215
370
     9
100
AcDbSpline
210
0.0
220
0.0
230
1.0
 70
    11
 71
     3
 72
    17
 73
    13
 74
     0
 42
0.0000000001
 43
0.0000000001
 12
1.0
 22
0.0
 32
0.0
 13
1.0
 23
0.0
 33
0.0
 40
0.0
 40
0.0
 40
0.0
 40
0.0
 40
1.0
 40
1.0
 40
1.0
 40
2.0
 40
2.0
 40
2.0
 40
3.0
 40
3.0
 40
3.0
 40
4.0
 40
4.0
 40
4.0
 40
4.0
 10
75.70113501314759
 20
-102.1677605300134
 30
0.0
 10
75.70113501314759
 20
-102.112621363361
 30
0.0
 10
75.65636942553061
 20
-102.0678538633718
 30
0.0
 10
75.60122834902975
 20
-102.0678538633718
 30
0.0
 10
75.54612446154668
 20
-102.0678538633718
 30
0.0
 10
75.50132168491193
 20
-102.112621363361
 30
0.0
 10
75.50132168491193
 20
-102.1677605300134
 30
0.0
 10
75.50132168491193
 20
-102.222864418889
 30
0.0
 10
75.54612446154668
 20
-102.267667196655
 30
0.0
 10
75.60122834902975
 20
-102.267667196655
 30
0.0
 10
75.65636942553061
 20
-102.267667196655
 30
0.0
 10
75.70113501314759
 20
-102.222864418889
 30
0.0
 10
75.70113501314759
 20
-102.1677605300134
 30
0.0
  0
SPLINE
  5
C2
330
1F
100
AcDbEntity
  8
_U+30EC_U+30A4_U+30E4_U+30FC 1
 62
     7
420
 16777215
370
     9
100
AcDbSpline
210
0.0
220
0.0
230
1.0
 70
    11
 71
     3
 72
    17
 73
    13
 74
     0
 42
0.0000000001
 43
0.0000000001
 12
1.0
 22
0.0
 32
0.0
 13
1.0
 23
0.0
 33
0.0
 40
0.0
 40
0.0
 40
0.0
 40
0.0
 40
1.0
 40
1.0
 40
1.0
 40
2.0
 40
2.0
 40
2.0
 40
3.0
 40
3.0
 40
3.0
 40
4.0
 40
4.0
 40
4.0
 40
4.0
 10
66.70117440942238
 20
-102.1677605300134
 30
0.0
 10
66.70117440942238
 20
-102.112621363361
 30
0.0
 10
66.6564069105645
 20
-102.0678538633718
 30
0.0
 10
66.60126942779387
 20
-102.0678538633718
 30
0.0
 10
66.54616385782147
 20
-102.0678538633718
 30
0.0
 10
66.50136108118672
 20
-102.112621363361
 30
0.0
 10
66.50136108118672
 20
-102.1677605300134
 30
0.0
 10
66.50136108118672
 20
-102.222864418889
 30
0.0
 10
66.54616385782147
 20
-102.267667196655
 30
0.0
 10
66.60126942779387
 20
-102.267667196655
 30
0.0
 10
66.6564069105645
 20
-102.267667196655
 30
0.0
 10
66.70117440942238
 20
-102.222864418889
 30
0.0
 10
66.70117440942238
 20
-102.1677605300134
 30
0.0
  0
SPLINE
  5
C3
330
1F
100
AcDbEntity
  8
_U+30EC_U+30A4_U+30E4_U+30FC 1
 62
     7
420
 16777215
370
     9
100
AcDbSpline
210
0.0
220
0.0
230
1.0
 70
    11
 71
     3
 72
    17
 73
    13
 74
     0
 42
0.0000000001
 43
0.0000000001
 12
1.0
 22
0.0
 32
0.0
 13
1.0
 23
0.0
 33
0.0
 40
0.0
 40
0.0
 40
0.0
 40
0.0
 40
1.0
 40
1.0
 40
1.0
 40
2.0
 40
2.0
 40
2.0
 40
3.0
 40
3.0
 40
3.0
 40
4.0
 40
4.0
 40
4.0
 40
4.0
 10
54.70122693778877
 20
-102.1677605300134
 30
0.0
 10
54.70122693778877
 20
-102.112621363361
 30
0.0
 10
54.65642416115401
 20
-102.0678538633718
 30
0.0
 10
54.60132027367094
 20
-102.0678538633718
 30
0.0
 10
54.54551083065031
 20
-102.0678538633718
 30
0.0
 10
54.50070805401555
 20
-102.112621363361
 30
0.0
 10
54.50070805401555
 20
-102.1677605300134
 30
0.0
 10
54.50070805401555
 20
-102.222864418889
 30
0.0
 10
54.54551083065031
 20
-102.267667196655
 30
0.0
 10
54.60132027367094
 20
-102.267667196655
 30
0.0
 10
54.65642416115401
 20
-102.267667196655
 30
0.0
 10
54.70122693778877
 20
-102.222864418889
 30
0.0
 10
54.70122693778877
 20
-102.1677605300134
 30
0.0
  0
SPLINE
  5
C4
330
1F
100
AcDbEntity
  8
_U+30EC_U+30A4_U+30E4_U+30FC 1
 62
     7
420
 16777215
370
     9
100
AcDbSpline
210
0.0
220
0.0
230
1.0
 70
    11
 71
     3
 72
    17
 73
    13
 74
     0
 42
0.0000000001
 43
0.0000000001
 12
1.0
 22
0.0
 32
0.0
 13
1.0
 23
0.0
 33
0.0
 40
0.0
 40
0.0
 40
0.0
 40
0.0
 40
1.0
 40
1.0
 40
1.0
 40
2.0
 40
2.0
 40
2.0
 40
3.0
 40
3.0
 40
3.0
 40
4.0
 40
4.0
 40
4.0
 40
4.0
 10
45.70126633406356
 20
-102.1677605300134
 30
0.0
 10
45.70126633406356
 20
-102.112621363361
 30
0.0
 10
45.6564635574288
 20
-102.0678538633718
 30
0.0
 10
45.60135966994572
 20
-102.0678538633718
 30
0.0
 10
45.5455502269251
 20
-102.0678538633718
 30
0.0
 10
45.50074745029033
 20
-102.112621363361
 30
0.0
 10
45.50074745029033
 20
-102.1677605300134
 30
0.0
 10
45.50074745029033
 20
-102.222864418889
 30
0.0
 10
45.5455502269251
 20
-102.267667196655
 30
0.0
 10
45.60135966994572
 20
-102.267667196655
 30
0.0
 10
45.6564635574288
 20
-102.267667196655
 30
0.0
 10
45.70126633406356
 20
-102.222864418889
 30
0.0
 10
45.70126633406356
 20
-102.1677605300134
 30
0.0
  0
SPLINE
  5
C5
330
1F
100
AcDbEntity
  8
_U+30EC_U+30A4_U+30E4_U+30FC 1
 62
     7
420
 16777215
370
     9
100
AcDbSpline
210
0.0
220
0.0
230
1.0
 70
    11
 71
     3
 72
    17
 73
    13
 74
     0
 42
0.0000000001
 43
0.0000000001
 12
1.0
 22
0.0
 32
0.0
 13
1.0
 23
0.0
 33
0.0
 40
0.0
 40
0.0
 40
0.0
 40
0.0
 40
1.0
 40
1.0
 40
1.0
 40
2.0
 40
2.0
 40
2.0
 40
3.0
 40
3.0
 40
3.0
 40
4.0
 40
4.0
 40
4.0
 40
4.0
 10
58.95110544047645
 20
-98.16800136434715
 30
0.0
 10
58.95110544047645
 20
-98.11286219769407
 30
0.0
 10
58.90630266384169
 20
-98.06809469770552
 30
0.0
 10
58.85119877635861
 20
-98.06809469770552
 30
0.0
 10
58.79606109641216
 20
-98.06809469770552
 30
0.0
 10
58.75129211224078
 20
-98.11286219769407
 30
0.0
 10
58.75129211224078
 20
-98.16800136434715
 30
0.0
 10
58.75129211224078
 20
-98.22310525322207
 30
0.0
 10
58.79606109641216
 20
-98.26790803098879
 30
0.0
 10
58.85119877635861
 20
-98.26790803098879
 30
0.0
 10
58.90630266384169
 20
-98.26790803098879
 30
0.0
 10
58.95110544047645
 20
-98.22310525322207
 30
0.0
 10
58.95110544047645
 20
-98.16800136434715
 30
0.0
  0
SPLINE
  5
C6
330
1F
100
AcDbEntity
  8
_U+30EC_U+30A4_U+30E4_U+30FC 1
 62
     7
420
 16777215
370
     9
100
AcDbSpline
210
0.0
220
0.0
230
1.0
 70
    11
 71
     3
 72
    17
 73
    13
 74
     0
 42
0.0000000001
 43
0.0000000001
 12
1.0
 22
0.0
 32
0.0
 13
1.0
 23
0.0
 33
0.0
 40
0.0
 40
0.0
 40
0.0
 40
0.0
 40
1.0
 40
1.0
 40
1.0
 40
2.0
 40
2.0
 40
2.0
 40
3.0
 40
3.0
 40
3.0
 40
4.0
 40
4.0
 40
4.0
 40
4.0
 10
62.45129590673471
 20
-98.16800136434715
 30
0.0
 10
62.45129590673471
 20
-98.11286219769407
 30
0.0
 10
62.40652840787682
 20
-98.06809469770552
 30
0.0
 10
62.35138924261687
 20
-98.06809469770552
 30
0.0
 10
62.2962853551338
 20
-98.06809469770552
 30
0.0
 10
62.25148257849904
 20
-98.11286219769407
 30
0.0
 10
62.25148257849904
 20
-98.16800136434715
 30
0.0
 10
62.25148257849904
 20
-98.22310525322207
 30
0.0
 10
62.2962853551338
 20
-98.26790803098879
 30
0.0
 10
62.35138924261687
 20
-98.26790803098879
 30
0.0
 10
62.40652840787682
 20
-98.26790803098879
 30
0.0
 10
62.45129590673471
 20
-98.22310525322207
 30
0.0
 10
62.45129590673471
 20
-98.16800136434715
 30
0.0
  0
INSERT
  5
C8
330
1F
100
AcDbEntity
  8
_U+30EC_U+30A4_U+30E4_U+30FC 1
100
AcDbBlockReference
  2
block 2
 10
0.0
 20
0.0
 30
0.0
  0
POLYLINE
  5
103
330
1F
100
AcDbEntity
  8
_U+30EC_U+30A4_U+30E4_U+30FC 1
 62
     7
420
 16777215
370
     9
100
AcDb2dPolyline
 66
     1
 10
0.0
 20
0.0
 30
0.0
  0
VERTEX
  5
104
330
103
100
AcDbEntity
  8
_U+30EC_U+30A4_U+30E4_U+30FC 1
 62
     7
420
 16777215
370
     9
100
AcDbVertex
100
AcDb2dVertex
 10
55.60109247038685
 20
-77.66744970280541
 30
0.0
  0
VERTEX
  5
105
330
103
100
AcDbEntity
  8
_U+30EC_U+30A4_U+30E4_U+30FC 1
 62
     7
420
 16777215
370
     9
100
AcDbVertex
100
AcDb2dVertex
 10
33.60070749159993
 20
-77.66744970280541
 30
0.0
  0
SEQEND
  5
106
330
103
100
AcDbEntity
  8
_U+30EC_U+30A4_U+30E4_U+30FC 1
 62
     7
420
 16777215
370
     9
  0
POLYLINE
  5
107
330
1F
100
AcDbEntity
  8
_U+30EC_U+30A4_U+30E4_U+30FC 1
 62
     7
420
 16777215
370
     9
100
AcDb2dPolyline
 66
     1
 10
0.0
 20
0.0
 30
0.0
  0
VERTEX
  5
108
330
107
100
AcDbEntity
  8
_U+30EC_U+30A4_U+30E4_U+30FC 1
 62
     7
420
 16777215
370
     9
100
AcDbVertex
100
AcDb2dVertex
 10
55.60109247038685
 20
-79.1274558135516
 30
0.0
  0
VERTEX
  5
109
330
107
100
AcDbEntity
  8
_U+30EC_U+30A4_U+30E4_U+30FC 1
 62
     7
420
 16777215
370
     9
100
AcDbVertex
100
AcDb2dVertex
 10
55.60109247038685
 20
-76.66732470305544
 30
0.0
  0
SEQEND
  5
10A
330
107
100
AcDbEntity
  8
_U+30EC_U+30A4_U+30E4_U+30FC 1
 62
     7
420
 16777215
370
     9
  0
POLYLINE
  5
10B
330
1F
100
AcDbEntity
  8
_U+30EC_U+30A4_U+30E4_U+30FC 1
 62
     7
420
 16777215
370
     9
100
AcDb2dPolyline
 66
     1
 10
0.0
 20
0.0
 30
0.0
  0
VERTEX
  5
10C
330
10B
100
AcDbEntity
  8
_U+30EC_U+30A4_U+30E4_U+30FC 1
 62
     7
420
 16777215
370
     9
100
AcDbVertex
100
AcDb2dVertex
 10
33.60070749159993
 20
-79.1274558135516
 30
0.0
  0
VERTEX
  5
10D
330
10B
100
AcDbEntity
  8
_U+30EC_U+30A4_U+30E4_U+30FC 1
 62
     7
420
 16777215
370
     9
100
AcDbVertex
100
AcDb2dVertex
 10
33.60070749159993
 20
-76.66732470305544
 30
0.0
  0
SEQEND
  5
10E
330
10B
100
AcDbEntity
  8
_U+30EC_U+30A4_U+30E4_U+30FC 1
 62
     7
420
 16777215
370
     9
  0
INSERT
  5
110
330
1F
100
AcDbEntity
  8
_U+30EC_U+30A4_U+30E4_U+30FC 1
100
AcDbBlockReference
  2
block 3
 10
0.0
 20
0.0
 30
0.0
  0
INSERT
  5
118
330
1F
100
AcDbEntity
  8
_U+30EC_U+30A4_U+30E4_U+30FC 1
100
AcDbBlockReference
  2
block 4
 10
0.0
 20
0.0
 30
0.0
  0
INSERT
  5
11D
330
1F
100
AcDbEntity
  8
_U+30EC_U+30A4_U+30E4_U+30FC 1
100
AcDbBlockReference
  2
block 5
 10
0.0
 20
0.0
 30
0.0
  0
INSERT
  5
122
330
1F
100
AcDbEntity
  8
_U+30EC_U+30A4_U+30E4_U+30FC 1
100
AcDbBlockReference
  2
block 6
 10
0.0
 20
0.0
 30
0.0
  0
POLYLINE
  5
126
330
1F
100
AcDbEntity
  8
_U+30EC_U+30A4_U+30E4_U+30FC 1
 62
     7
420
 16777215
370
     9
100
AcDb2dPolyline
 66
     1
 10
0.0
 20
0.0
 30
0.0
  0
VERTEX
  5
127
330
126
100
AcDbEntity
  8
_U+30EC_U+30A4_U+30E4_U+30FC 1
 62
     7
420
 16777215
370
     9
100
AcDbVertex
100
AcDb2dVertex
 10
55.60109247038685
 20
-77.66744970280541
 30
0.0
  0
VERTEX
  5
128
330
126
100
AcDbEntity
  8
_U+30EC_U+30A4_U+30E4_U+30FC 1
 62
     7
420
 16777215
370
     9
100
AcDbVertex
100
AcDb2dVertex
 10
65.60149720582197
 20
-77.66744970280541
 30
0.0
  0
SEQEND
  5
129
330
126
100
AcDbEntity
  8
_U+30EC_U+30A4_U+30E4_U+30FC 1
 62
     7
420
 16777215
370
     9
  0
POLYLINE
  5
12A
330
1F
100
AcDbEntity
  8
_U+30EC_U+30A4_U+30E4_U+30FC 1
 62
     7
420
 16777215
370
     9
100
AcDb2dPolyline
 66
     1
 10
0.0
 20
0.0
 30
0.0
  0
VERTEX
  5
12B
330
12A
100
AcDbEntity
  8
_U+30EC_U+30A4_U+30E4_U+30FC 1
 62
     7
420
 16777215
370
     9
100
AcDbVertex
100
AcDb2dVertex
 10
65.60149720582197
 20
-79.1274558135516
 30
0.0
  0
VERTEX
  5
12C
330
12A
100
AcDbEntity
  8
_U+30EC_U+30A4_U+30E4_U+30FC 1
 62
     7
420
 16777215
370
     9
100
AcDbVertex
100
AcDb2dVertex
 10
65.60149720582197
 20
-76.66732470305544
 30
0.0
  0
SEQEND
  5
12D
330
12A
100
AcDbEntity
  8
_U+30EC_U+30A4_U+30E4_U+30FC 1
 62
     7
420
 16777215
370
     9
  0
INSERT
  5
12F
330
1F
100
AcDbEntity
  8
_U+30EC_U+30A4_U+30E4_U+30FC 1
100
AcDbBlockReference
  2
block 7
 10
0.0
 20
0.0
 30
0.0
  0
INSERT
  5
138
330
1F
100
AcDbEntity
  8
_U+30EC_U+30A4_U+30E4_U+30FC 1
100
AcDbBlockReference
  2
block 8
 10
0.0
 20
0.0
 30
0.0
  0
INSERT
  5
13D
330
1F
100
AcDbEntity
  8
_U+30EC_U+30A4_U+30E4_U+30FC 1
100
AcDbBlockReference
  2
block 9
 10
0.0
 20
0.0
 30
0.0
  0
INSERT
  5
142
330
1F
100
AcDbEntity
  8
_U+30EC_U+30A4_U+30E4_U+30FC 1
100
AcDbBlockReference
  2
block 10
 10
0.0
 20
0.0
 30
0.0
  0
POLYLINE
  5
146
330
1F
100
AcDbEntity
  8
_U+30EC_U+30A4_U+30E4_U+30FC 1
 62
     7
420
 16777215
370
     9
100
AcDb2dPolyline
 66
     1
 10
0.0
 20
0.0
 30
0.0
  0
VERTEX
  5
147
330
146
100
AcDbEntity
  8
_U+30EC_U+30A4_U+30E4_U+30FC 1
 62
     7
420
 16777215
370
     9
100
AcDbVertex
100
AcDb2dVertex
 10
65.60149720582197
 20
-77.66744970280541
 30
0.0
  0
VERTEX
  5
148
330
146
100
AcDbEntity
  8
_U+30EC_U+30A4_U+30E4_U+30FC 1
 62
     7
420
 16777215
370
     9
100
AcDbVertex
100
AcDb2dVertex
 10
87.60121109844025
 20
-77.66744970280541
 30
0.0
  0
SEQEND
  5
149
330
146
100
AcDbEntity
  8
_U+30EC_U+30A4_U+30E4_U+30FC 1
 62
     7
420
 16777215
370
     9
  0
POLYLINE
  5
14A
330
1F
100
AcDbEntity
  8
_U+30EC_U+30A4_U+30E4_U+30FC 1
 62
     7
420
 16777215
370
     9
100
AcDb2dPolyline
 66
     1
 10
0.0
 20
0.0
 30
0.0
  0
VERTEX
  5
14B
330
14A
100
AcDbEntity
  8
_U+30EC_U+30A4_U+30E4_U+30FC 1
 62
     7
420
 16777215
370
     9
100
AcDbVertex
100
AcDb2dVertex
 10
87.60121109844025
 20
-79.1274558135516
 30
0.0
  0
VERTEX
  5
14C
330
14A
100
AcDbEntity
  8
_U+30EC_U+30A4_U+30E4_U+30FC 1
 62
     7
420
 16777215
370
     9
100
AcDbVertex
100
AcDb2dVertex
 10
87.60121109844025
 20
-76.66732470305544
 30
0.0
  0
SEQEND
  5
14D
330
14A
100
AcDbEntity
  8
_U+30EC_U+30A4_U+30E4_U+30FC 1
 62
     7
420
 16777215
370
     9
  0
INSERT
  5
14F
330
1F
100
AcDbEntity
  8
_U+30EC_U+30A4_U+30E4_U+30FC 1
100
AcDbBlockReference
  2
block 11
 10
0.0
 20
0.0
 30
0.0
  0
INSERT
  5
157
330
1F
100
AcDbEntity
  8
_U+30EC_U+30A4_U+30E4_U+30FC 1
100
AcDbBlockReference
  2
block 12
 10
0.0
 20
0.0
 30
0.0
  0
INSERT
  5
15C
330
1F
100
AcDbEntity
  8
_U+30EC_U+30A4_U+30E4_U+30FC 1
100
AcDbBlockReference
  2
block 13
 10
0.0
 20
0.0
 30
0.0
  0
INSERT
  5
161
330
1F
100
AcDbEntity
  8
_U+30EC_U+30A4_U+30E4_U+30FC 1
100
AcDbBlockReference
  2
block 14
 10
0.0
 20
0.0
 30
0.0
  0
POLYLINE
  5
165
330
1F
100
AcDbEntity
  8
_U+30EC_U+30A4_U+30E4_U+30FC 1
 62
     7
420
 16777215
370
     9
100
AcDb2dPolyline
 66
     1
 10
0.0
 20
0.0
 30
0.0
  0
VERTEX
  5
166
330
165
100
AcDbEntity
  8
_U+30EC_U+30A4_U+30E4_U+30FC 1
 62
     7
420
 16777215
370
     9
100
AcDbVertex
100
AcDb2dVertex
 10
58.85119877635861
 20
-98.16800136434715
 30
0.0
  0
VERTEX
  5
167
330
165
100
AcDbEntity
  8
_U+30EC_U+30A4_U+30E4_U+30FC 1
 62
     7
420
 16777215
370
     9
100
AcDbVertex
100
AcDb2dVertex
 10
49.18632263404125
 20
-98.16800136434715
 30
0.0
  0
SEQEND
  5
168
330
165
100
AcDbEntity
  8
_U+30EC_U+30A4_U+30E4_U+30FC 1
 62
     7
420
 16777215
370
     9
  0
POLYLINE
  5
169
330
1F
100
AcDbEntity
  8
_U+30EC_U+30A4_U+30E4_U+30FC 1
 62
     7
420
 16777215
370
     9
100
AcDb2dPolyline
 66
     1
 10
0.0
 20
0.0
 30
0.0
  0
VERTEX
  5
16A
330
169
100
AcDbEntity
  8
_U+30EC_U+30A4_U+30E4_U+30FC 1
 62
     7
420
 16777215
370
     9
100
AcDbVertex
100
AcDb2dVertex
 10
58.85119877635861
 20
-98.16800136434715
 30
0.0
  0
VERTEX
  5
16B
330
169
100
AcDbEntity
  8
_U+30EC_U+30A4_U+30E4_U+30FC 1
 62
     7
420
 16777215
370
     9
100
AcDbVertex
100
AcDb2dVertex
 10
62.35138924261687
 20
-98.16800136434715
 30
0.0
  0
SEQEND
  5
16C
330
169
100
AcDbEntity
  8
_U+30EC_U+30A4_U+30E4_U+30FC 1
 62
     7
420
 16777215
370
     9
  0
POLYLINE
  5
16D
330
1F
100
AcDbEntity
  8
_U+30EC_U+30A4_U+30E4_U+30FC 1
 62
     7
420
 16777215
370
     9
100
AcDb2dPolyline
 66
     1
 10
0.0
 20
0.0
 30
0.0
  0
VERTEX
  5
16E
330
16D
100
AcDbEntity
  8
_U+30EC_U+30A4_U+30E4_U+30FC 1
 62
     7
420
 16777215
370
     9
100
AcDbVertex
100
AcDb2dVertex
 10
58.85119877635861
 20
-96.7079599758228
 30
0.0
  0
VERTEX
  5
16F
330
16D
100
AcDbEntity
  8
_U+30EC_U+30A4_U+30E4_U+30FC 1
 62
     7
420
 16777215
370
     9
100
AcDbVertex
100
AcDb2dVertex
 10
58.85119877635861
 20
-99.16777358631906
 30
0.0
  0
SEQEND
  5
170
330
16D
100
AcDbEntity
  8
_U+30EC_U+30A4_U+30E4_U+30FC 1
 62
     7
420
 16777215
370
     9
  0
POLYLINE
  5
171
330
1F
100
AcDbEntity
  8
_U+30EC_U+30A4_U+30E4_U+30FC 1
 62
     7
420
 16777215
370
     9
100
AcDb2dPolyline
 66
     1
 10
0.0
 20
0.0
 30
0.0
  0
VERTEX
  5
172
330
171
100
AcDbEntity
  8
_U+30EC_U+30A4_U+30E4_U+30FC 1
 62
     7
420
 16777215
370
     9
100
AcDbVertex
100
AcDb2dVertex
 10
62.35138924261687
 20
-96.7079599758228
 30
0.0
  0
VERTEX
  5
173
330
171
100
AcDbEntity
  8
_U+30EC_U+30A4_U+30E4_U+30FC 1
 62
     7
420
 16777215
370
     9
100
AcDbVertex
100
AcDb2dVertex
 10
62.35138924261687
 20
-99.16777358631906
 30
0.0
  0
SEQEND
  5
174
330
171
100
AcDbEntity
  8
_U+30EC_U+30A4_U+30E4_U+30FC 1
 62
     7
420
 16777215
370
     9
  0
INSERT
  5
176
330
1F
100
AcDbEntity
  8
_U+30EC_U+30A4_U+30E4_U+30FC 1
100
AcDbBlockReference
  2
block 15
 10
0.0
 20
0.0
 30
0.0
  0
INSERT
  5
186
330
1F
100
AcDbEntity
  8
_U+30EC_U+30A4_U+30E4_U+30FC 1
100
AcDbBlockReference
  2
block 16
 10
0.0
 20
0.0
 30
0.0
  0
INSERT
  5
18B
330
1F
100
AcDbEntity
  8
_U+30EC_U+30A4_U+30E4_U+30FC 1
100
AcDbBlockReference
  2
block 17
 10
0.0
 20
0.0
 30
0.0
  0
INSERT
  5
190
330
1F
100
AcDbEntity
  8
_U+30EC_U+30A4_U+30E4_U+30FC 1
100
AcDbBlockReference
  2
block 18
 10
0.0
 20
0.0
 30
0.0
  0
POLYLINE
  5
194
330
1F
100
AcDbEntity
  8
_U+30EC_U+30A4_U+30E4_U+30FC 1
 62
     7
420
 16777215
370
     9
100
AcDb2dPolyline
 66
     1
 10
0.0
 20
0.0
 30
0.0
  0
VERTEX
  5
195
330
194
100
AcDbEntity
  8
_U+30EC_U+30A4_U+30E4_U+30FC 1
 62
     7
420
 16777215
370
     9
100
AcDbVertex
100
AcDb2dVertex
 10
54.60132027367094
 20
-102.1677605300134
 30
0.0
  0
VERTEX
  5
196
330
194
100
AcDbEntity
  8
_U+30EC_U+30A4_U+30E4_U+30FC 1
 62
     7
420
 16777215
370
     9
100
AcDbVertex
100
AcDb2dVertex
 10
66.60126942779387
 20
-102.1677605300134
 30
0.0
  0
SEQEND
  5
197
330
194
100
AcDbEntity
  8
_U+30EC_U+30A4_U+30E4_U+30FC 1
 62
     7
420
 16777215
370
     9
  0
POLYLINE
  5
198
330
1F
100
AcDbEntity
  8
_U+30EC_U+30A4_U+30E4_U+30FC 1
 62
     7
420
 16777215
370
     9
100
AcDb2dPolyline
 66
     1
 10
0.0
 20
0.0
 30
0.0
  0
VERTEX
  5
199
330
198
100
AcDbEntity
  8
_U+30EC_U+30A4_U+30E4_U+30FC 1
 62
     7
420
 16777215
370
     9
100
AcDbVertex
100
AcDb2dVertex
 10
54.60132027367094
 20
-95.70751747607291
 30
0.0
  0
VERTEX
  5
19A
330
198
100
AcDbEntity
  8
_U+30EC_U+30A4_U+30E4_U+30FC 1
 62
     7
420
 16777215
370
     9
100
AcDbVertex
100
AcDb2dVertex
 10
54.60132027367094
 20
-103.1675327519859
 30
0.0
  0
SEQEND
  5
19B
330
198
100
AcDbEntity
  8
_U+30EC_U+30A4_U+30E4_U+30FC 1
 62
     7
420
 16777215
370
     9
  0
POLYLINE
  5
19C
330
1F
100
AcDbEntity
  8
_U+30EC_U+30A4_U+30E4_U+30FC 1
 62
     7
420
 16777215
370
     9
100
AcDb2dPolyline
 66
     1
 10
0.0
 20
0.0
 30
0.0
  0
VERTEX
  5
19D
330
19C
100
AcDbEntity
  8
_U+30EC_U+30A4_U+30E4_U+30FC 1
 62
     7
420
 16777215
370
     9
100
AcDbVertex
100
AcDb2dVertex
 10
66.60126942779387
 20
-95.70751747607291
 30
0.0
  0
VERTEX
  5
19E
330
19C
100
AcDbEntity
  8
_U+30EC_U+30A4_U+30E4_U+30FC 1
 62
     7
420
 16777215
370
     9
100
AcDbVertex
100
AcDb2dVertex
 10
66.60126942779387
 20
-103.1675327519859
 30
0.0
  0
SEQEND
  5
19F
330
19C
100
AcDbEntity
  8
_U+30EC_U+30A4_U+30E4_U+30FC 1
 62
     7
420
 16777215
370
     9
  0
INSERT
  5
1A1
330
1F
100
AcDbEntity
  8
_U+30EC_U+30A4_U+30E4_U+30FC 1
100
AcDbBlockReference
  2
block 19
 10
0.0
 20
0.0
 30
0.0
  0
INSERT
  5
1A9
330
1F
100
AcDbEntity
  8
_U+30EC_U+30A4_U+30E4_U+30FC 1
100
AcDbBlockReference
  2
block 20
 10
0.0
 20
0.0
 30
0.0
  0
INSERT
  5
1AE
330
1F
100
AcDbEntity
  8
_U+30EC_U+30A4_U+30E4_U+30FC 1
100
AcDbBlockReference
  2
block 21
 10
0.0
 20
0.0
 30
0.0
  0
INSERT
  5
1B3
330
1F
100
AcDbEntity
  8
_U+30EC_U+30A4_U+30E4_U+30FC 1
100
AcDbBlockReference
  2
block 22
 10
0.0
 20
0.0
 30
0.0
  0
POLYLINE
  5
1B7
330
1F
100
AcDbEntity
  8
_U+30EC_U+30A4_U+30E4_U+30FC 1
 62
     7
420
 16777215
370
     9
100
AcDb2dPolyline
 66
     1
 10
0.0
 20
0.0
 30
0.0
  0
VERTEX
  5
1B8
330
1B7
100
AcDbEntity
  8
_U+30EC_U+30A4_U+30E4_U+30FC 1
 62
     7
420
 16777215
370
     9
100
AcDbVertex
100
AcDb2dVertex
 10
66.60126942779387
 20
-102.1677605300134
 30
0.0
  0
VERTEX
  5
1B9
330
1B7
100
AcDbEntity
  8
_U+30EC_U+30A4_U+30E4_U+30FC 1
 62
     7
420
 16777215
370
     9
100
AcDbVertex
100
AcDb2dVertex
 10
75.60122834902975
 20
-102.1677605300134
 30
0.0
  0
SEQEND
  5
1BA
330
1B7
100
AcDbEntity
  8
_U+30EC_U+30A4_U+30E4_U+30FC 1
 62
     7
420
 16777215
370
     9
  0
POLYLINE
  5
1BB
330
1F
100
AcDbEntity
  8
_U+30EC_U+30A4_U+30E4_U+30FC 1
 62
     7
420
 16777215
370
     9
100
AcDb2dPolyline
 66
     1
 10
0.0
 20
0.0
 30
0.0
  0
VERTEX
  5
1BC
330
1BB
100
AcDbEntity
  8
_U+30EC_U+30A4_U+30E4_U+30FC 1
 62
     7
420
 16777215
370
     9
100
AcDbVertex
100
AcDb2dVertex
 10
75.60122834902975
 20
-96.7079599758228
 30
0.0
  0
VERTEX
  5
1BD
330
1BB
100
AcDbEntity
  8
_U+30EC_U+30A4_U+30E4_U+30FC 1
 62
     7
420
 16777215
370
     9
100
AcDbVertex
100
AcDb2dVertex
 10
75.60122834902975
 20
-103.1675327519859
 30
0.0
  0
SEQEND
  5
1BE
330
1BB
100
AcDbEntity
  8
_U+30EC_U+30A4_U+30E4_U+30FC 1
 62
     7
420
 16777215
370
     9
  0
INSERT
  5
1C0
330
1F
100
AcDbEntity
  8
_U+30EC_U+30A4_U+30E4_U+30FC 1
100
AcDbBlockReference
  2
block 23
 10
0.0
 20
0.0
 30
0.0
  0
INSERT
  5
1C7
330
1F
100
AcDbEntity
  8
_U+30EC_U+30A4_U+30E4_U+30FC 1
100
AcDbBlockReference
  2
block 24
 10
0.0
 20
0.0
 30
0.0
  0
INSERT
  5
1CC
330
1F
100
AcDbEntity
  8
_U+30EC_U+30A4_U+30E4_U+30FC 1
100
AcDbBlockReference
  2
block 25
 10
0.0
 20
0.0
 30
0.0
  0
INSERT
  5
1D1
330
1F
100
AcDbEntity
  8
_U+30EC_U+30A4_U+30E4_U+30FC 1
100
AcDbBlockReference
  2
block 26
 10
0.0
 20
0.0
 30
0.0
  0
POLYLINE
  5
1D5
330
1F
100
AcDbEntity
  8
_U+30EC_U+30A4_U+30E4_U+30FC 1
 62
     7
420
 16777215
370
     9
100
AcDb2dPolyline
 66
     1
 10
0.0
 20
0.0
 30
0.0
  0
VERTEX
  5
1D6
330
1D5
100
AcDbEntity
  8
_U+30EC_U+30A4_U+30E4_U+30FC 1
 62
     7
420
 16777215
370
     9
100
AcDbVertex
100
AcDb2dVertex
 10
54.60132027367094
 20
-102.1677605300134
 30
0.0
  0
VERTEX
  5
1D7
330
1D5
100
AcDbEntity
  8
_U+30EC_U+30A4_U+30E4_U+30FC 1
 62
     7
420
 16777215
370
     9
100
AcDbVertex
100
AcDb2dVertex
 10
45.60135966994572
 20
-102.1677605300134
 30
0.0
  0
SEQEND
  5
1D8
330
1D5
100
AcDbEntity
  8
_U+30EC_U+30A4_U+30E4_U+30FC 1
 62
     7
420
 16777215
370
     9
  0
POLYLINE
  5
1D9
330
1F
100
AcDbEntity
  8
_U+30EC_U+30A4_U+30E4_U+30FC 1
 62
     7
420
 16777215
370
     9
100
AcDb2dPolyline
 66
     1
 10
0.0
 20
0.0
 30
0.0
  0
VERTEX
  5
1DA
330
1D9
100
AcDbEntity
  8
_U+30EC_U+30A4_U+30E4_U+30FC 1
 62
     7
420
 16777215
370
     9
100
AcDbVertex
100
AcDb2dVertex
 10
45.60135966994572
 20
-96.7079599758228
 30
0.0
  0
VERTEX
  5
1DB
330
1D9
100
AcDbEntity
  8
_U+30EC_U+30A4_U+30E4_U+30FC 1
 62
     7
420
 16777215
370
     9
100
AcDbVertex
100
AcDb2dVertex
 10
45.60135966994572
 20
-103.1675327519859
 30
0.0
  0
SEQEND
  5
1DC
330
1D9
100
AcDbEntity
  8
_U+30EC_U+30A4_U+30E4_U+30FC 1
 62
     7
420
 16777215
370
     9
  0
INSERT
  5
1DE
330
1F
100
AcDbEntity
  8
_U+30EC_U+30A4_U+30E4_U+30FC 1
100
AcDbBlockReference
  2
block 27
 10
0.0
 20
0.0
 30
0.0
  0
INSERT
  5
1E5
330
1F
100
AcDbEntity
  8
_U+30EC_U+30A4_U+30E4_U+30FC 1
100
AcDbBlockReference
  2
block 28
 10
0.0
 20
0.0
 30
0.0
  0
INSERT
  5
1EA
330
1F
100
AcDbEntity
  8
_U+30EC_U+30A4_U+30E4_U+30FC 1
100
AcDbBlockReference
  2
block 29
 10
0.0
 20
0.0
 30
0.0
  0
INSERT
  5
1EF
330
1F
100
AcDbEntity
  8
_U+30EC_U+30A4_U+30E4_U+30FC 1
100
AcDbBlockReference
  2
block 30
 10
0.0
 20
0.0
 30
0.0
  0
POLYLINE
  5
1F3
330
1F
100
AcDbEntity
  8
_U+30EC_U+30A4_U+30E4_U+30FC 1
 62
     7
420
 16777215
370
     9
100
AcDb2dPolyline
 66
     1
 10
0.0
 20
0.0
 30
0.0
  0
VERTEX
  5
1F4
330
1F3
100
AcDbEntity
  8
_U+30EC_U+30A4_U+30E4_U+30FC 1
 62
     7
420
 16777215
370
     9
100
AcDbVertex
100
AcDb2dVertex
 10
91.60097016306456
 20
-91.16754969943041
 30
0.0
  0
VERTEX
  5
1F5
330
1F3
100
AcDbEntity
  8
_U+30EC_U+30A4_U+30E4_U+30FC 1
 62
     7
420
 16777215
370
     9
100
AcDbVertex
100
AcDb2dVertex
 10
91.60097016306456
 20
-94.16753664312475
 30
0.0
  0
SEQEND
  5
1F6
330
1F3
100
AcDbEntity
  8
_U+30EC_U+30A4_U+30E4_U+30FC 1
 62
     7
420
 16777215
370
     9
  0
POLYLINE
  5
1F7
330
1F
100
AcDbEntity
  8
_U+30EC_U+30A4_U+30E4_U+30FC 1
 62
     7
420
 16777215
370
     9
100
AcDb2dPolyline
 66
     1
 10
0.0
 20
0.0
 30
0.0
  0
VERTEX
  5
1F8
330
1F7
100
AcDbEntity
  8
_U+30EC_U+30A4_U+30E4_U+30FC 1
 62
     7
420
 16777215
370
     9
100
AcDbVertex
100
AcDb2dVertex
 10
78.14098331379823
 20
-91.16754969943041
 30
0.0
  0
VERTEX
  5
1F9
330
1F7
100
AcDbEntity
  8
_U+30EC_U+30A4_U+30E4_U+30FC 1
 62
     7
420
 16777215
370
     9
100
AcDbVertex
100
AcDb2dVertex
 10
92.60141263754115
 20
-91.16754969943041
 30
0.0
  0
SEQEND
  5
1FA
330
1F7
100
AcDbEntity
  8
_U+30EC_U+30A4_U+30E4_U+30FC 1
 62
     7
420
 16777215
370
     9
  0
POLYLINE
  5
1FB
330
1F
100
AcDbEntity
  8
_U+30EC_U+30A4_U+30E4_U+30FC 1
 62
     7
420
 16777215
370
     9
100
AcDb2dPolyline
 66
     1
 10
0.0
 20
0.0
 30
0.0
  0
VERTEX
  5
1FC
330
1FB
100
AcDbEntity
  8
_U+30EC_U+30A4_U+30E4_U+30FC 1
 62
     7
420
 16777215
370
     9
100
AcDbVertex
100
AcDb2dVertex
 10
78.14098331379823
 20
-94.16753664312475
 30
0.0
  0
VERTEX
  5
1FD
330
1FB
100
AcDbEntity
  8
_U+30EC_U+30A4_U+30E4_U+30FC 1
 62
     7
420
 16777215
370
     9
100
AcDbVertex
100
AcDb2dVertex
 10
92.60141263754115
 20
-94.16753664312475
 30
0.0
  0
SEQEND
  5
1FE
330
1FB
100
AcDbEntity
  8
_U+30EC_U+30A4_U+30E4_U+30FC 1
 62
     7
420
 16777215
370
     9
  0
INSERT
  5
200
330
1F
100
AcDbEntity
  8
_U+30EC_U+30A4_U+30E4_U+30FC 1
100
AcDbBlockReference
  2
block 31
 10
0.0
 20
0.0
 30
0.0
  0
SPLINE
  5
205
330
1F
100
AcDbEntity
  8
_U+30EC_U+30A4_U+30E4_U+30FC 1
 62
     7
420
 16777215
370
    25
100
AcDbSpline
210
0.0
220
0.0
230
1.0
 70
    11
 71
     3
 72
    17
 73
    13
 74
     0
 42
0.0000000001
 43
0.0000000001
 12
1.0
 22
0.0
 32
0.0
 13
1.0
 23
0.0
 33
0.0
 40
0.0
 40
0.0
 40
0.0
 40
0.0
 40
1.0
 40
1.0
 40
1.0
 40
2.0
 40
2.0
 40
2.0
 40
3.0
 40
3.0
 40
3.0
 40
4.0
 40
4.0
 40
4.0
 40
4.0
 10
75.6363650148
 20
-91.16754969943041
 30
0.0
 10
75.6363650148
 20
-91.18755219942511
 30
0.0
 10
75.6205252929819
 20
-91.20339192164366
 30
0.0
 10
75.60122834902975
 20
-91.20339192164366
 30
0.0
 10
75.5819333144377
 20
-91.20339192164366
 30
0.0
 10
75.5660916832595
 20
-91.18755219942511
 30
0.0
 10
75.5660916832595
 20
-91.16754969943041
 30
0.0
 10
75.5660916832595
 20
-91.14825275499058
 30
0.0
 10
75.5819333144377
 20
-91.13241303277267
 30
0.0
 10
75.60122834902975
 20
-91.13241303277267
 30
0.0
 10
75.6205252929819
 20
-91.13241303277267
 30
0.0
 10
75.6363650148
 20
-91.14825275499058
 30
0.0
 10
75.6363650148
 20
-91.16754969943041
 30
0.0
  0
SPLINE
  5
206
330
1F
100
AcDbEntity
  8
_U+30EC_U+30A4_U+30E4_U+30FC 1
 62
     7
420
 16777215
370
    25
100
AcDbSpline
210
0.0
220
0.0
230
1.0
 70
    11
 71
     3
 72
    17
 73
    13
 74
     0
 42
0.0000000001
 43
0.0000000001
 12
1.0
 22
0.0
 32
0.0
 13
1.0
 23
0.0
 33
0.0
 40
0.0
 40
0.0
 40
0.0
 40
0.0
 40
1.0
 40
1.0
 40
1.0
 40
2.0
 40
2.0
 40
2.0
 40
3.0
 40
3.0
 40
3.0
 40
4.0
 40
4.0
 40
4.0
 40
4.0
 10
75.6363650148
 20
-94.16753664312475
 30
0.0
 10
75.6363650148
 20
-94.1875391431201
 30
0.0
 10
75.6205252929819
 20
-94.203378865338
 30
0.0
 10
75.60122834902975
 20
-94.203378865338
 30
0.0
 10
75.5819333144377
 20
-94.203378865338
 30
0.0
 10
75.5660916832595
 20
-94.1875391431201
 30
0.0
 10
75.5660916832595
 20
-94.16753664312475
 30
0.0
 10
75.5660916832595
 20
-94.14827497646309
 30
0.0
 10
75.5819333144377
 20
-94.13239997646703
 30
0.0
 10
75.60122834902975
 20
-94.13239997646703
 30
0.0
 10
75.6205252929819
 20
-94.13239997646703
 30
0.0
 10
75.6363650148
 20
-94.14827497646309
 30
0.0
 10
75.6363650148
 20
-94.16753664312475
 30
0.0
  0
SPLINE
  5
207
330
1F
100
AcDbEntity
  8
_U+30EC_U+30A4_U+30E4_U+30FC 1
 62
     7
420
 16777215
370
     9
100
AcDbSpline
210
0.0
220
0.0
230
1.0
 70
    11
 71
     3
 72
    17
 73
    13
 74
     0
 42
0.0000000001
 43
0.0000000001
 12
1.0
 22
0.0
 32
0.0
 13
1.0
 23
0.0
 33
0.0
 40
0.0
 40
0.0
 40
0.0
 40
0.0
 40
1.0
 40
1.0
 40
1.0
 40
2.0
 40
2.0
 40
2.0
 40
3.0
 40
3.0
 40
3.0
 40
4.0
 40
4.0
 40
4.0
 40
4.0
 10
91.63677710659549
 20
-94.16753664312475
 30
0.0
 10
91.63677710659549
 20
-94.1875391431201
 30
0.0
 10
91.62093738477738
 20
-94.203378865338
 30
0.0
 10
91.60097016306456
 20
-94.203378865338
 30
0.0
 10
91.58167321911242
 20
-94.203378865338
 30
0.0
 10
91.56579821951743
 20
-94.1875391431201
 30
0.0
 10
91.56579821951743
 20
-94.16753664312475
 30
0.0
 10
91.56579821951743
 20
-94.14827497646309
 30
0.0
 10
91.58167321911242
 20
-94.13239997646703
 30
0.0
 10
91.60097016306456
 20
-94.13239997646703
 30
0.0
 10
91.62093738477738
 20
-94.13239997646703
 30
0.0
 10
91.63677710659549
 20
-94.14827497646309
 30
0.0
 10
91.63677710659549
 20
-94.16753664312475
 30
0.0
  0
POLYLINE
  5
208
330
1F
100
AcDbEntity
  8
_U+30EC_U+30A4_U+30E4_U+30FC 1
 62
     7
420
 16777215
370
     9
100
AcDb2dPolyline
 66
     1
 10
0.0
 20
0.0
 30
0.0
  0
VERTEX
  5
209
330
208
100
AcDbEntity
  8
_U+30EC_U+30A4_U+30E4_U+30FC 1
 62
     7
420
 16777215
370
     9
100
AcDbVertex
100
AcDb2dVertex
 10
91.60097016306456
 20
-81.6675263684719
 30
0.0
  0
VERTEX
  5
20A
330
208
100
AcDbEntity
  8
_U+30EC_U+30A4_U+30E4_U+30FC 1
 62
     7
420
 16777215
370
     9
100
AcDbVertex
100
AcDb2dVertex
 10
91.60097016306456
 20
-77.89721386941449
 30
0.0
  0
SEQEND
  5
20B
330
208
100
AcDbEntity
  8
_U+30EC_U+30A4_U+30E4_U+30FC 1
 62
     7
420
 16777215
370
     9
  0
POLYLINE
  5
20C
330
1F
100
AcDbEntity
  8
_U+30EC_U+30A4_U+30E4_U+30FC 1
 62
     7
420
 16777215
370
     9
100
AcDb2dPolyline
 66
     1
 10
0.0
 20
0.0
 30
0.0
  0
VERTEX
  5
20D
330
20C
100
AcDbEntity
  8
_U+30EC_U+30A4_U+30E4_U+30FC 1
 62
     7
420
 16777215
370
     9
100
AcDbVertex
100
AcDb2dVertex
 10
91.60097016306456
 20
-82.66729859044445
 30
0.0
  0
VERTEX
  5
20E
330
20C
100
AcDbEntity
  8
_U+30EC_U+30A4_U+30E4_U+30FC 1
 62
     7
420
 16777215
370
     9
100
AcDbVertex
100
AcDb2dVertex
 10
91.60097016306456
 20
-81.6675263684719
 30
0.0
  0
SEQEND
  5
20F
330
20C
100
AcDbEntity
  8
_U+30EC_U+30A4_U+30E4_U+30FC 1
 62
     7
420
 16777215
370
     9
  0
POLYLINE
  5
210
330
1F
100
AcDbEntity
  8
_U+30EC_U+30A4_U+30E4_U+30FC 1
 62
     7
420
 16777215
370
     9
100
AcDb2dPolyline
 66
     1
 10
0.0
 20
0.0
 30
0.0
  0
VERTEX
  5
211
330
210
100
AcDbEntity
  8
_U+30EC_U+30A4_U+30E4_U+30FC 1
 62
     7
420
 16777215
370
     9
100
AcDbVertex
100
AcDb2dVertex
 10
90.14092881142443
 20
-81.6675263684719
 30
0.0
  0
VERTEX
  5
212
330
210
100
AcDbEntity
  8
_U+30EC_U+30A4_U+30E4_U+30FC 1
 62
     7
420
 16777215
370
     9
100
AcDbVertex
100
AcDb2dVertex
 10
92.60141263754115
 20
-81.6675263684719
 30
0.0
  0
SEQEND
  5
213
330
210
100
AcDbEntity
  8
_U+30EC_U+30A4_U+30E4_U+30FC 1
 62
     7
420
 16777215
370
     9
  0
INSERT
  5
215
330
1F
100
AcDbEntity
  8
_U+30EC_U+30A4_U+30E4_U+30FC 1
100
AcDbBlockReference
  2
block 32
 10
0.0
 20
0.0
 30
0.0
  0
INSERT
  5
21B
330
1F
100
AcDbEntity
  8
_U+30EC_U+30A4_U+30E4_U+30FC 1
100
AcDbBlockReference
  2
block 33
 10
0.0
 20
0.0
 30
0.0
  0
INSERT
  5
220
330
1F
100
AcDbEntity
  8
_U+30EC_U+30A4_U+30E4_U+30FC 1
100
AcDbBlockReference
  2
block 34
 10
0.0
 20
0.0
 30
0.0
  0
INSERT
  5
225
330
1F
100
AcDbEntity
  8
_U+30EC_U+30A4_U+30E4_U+30FC 1
100
AcDbBlockReference
  2
block 35
 10
0.0
 20
0.0
 30
0.0
  0
INSERT
  5
22A
330
1F
100
AcDbEntity
  8
_U+30EC_U+30A4_U+30E4_U+30FC 1
100
AcDbBlockReference
  2
block 36
 10
0.0
 20
0.0
 30
0.0
  0
INSERT
  5
22F
330
1F
100
AcDbEntity
  8
_U+30EC_U+30A4_U+30E4_U+30FC 1
100
AcDbBlockReference
  2
block 37
 10
0.0
 20
0.0
 30
0.0
  0
POLYLINE
  5
233
330
1F
100
AcDbEntity
  8
_U+30EC_U+30A4_U+30E4_U+30FC 1
 62
     7
420
 16777215
370
     9
100
AcDb2dPolyline
 66
     1
 10
0.0
 20
0.0
 30
0.0
  0
VERTEX
  5
234
330
233
100
AcDbEntity
  8
_U+30EC_U+30A4_U+30E4_U+30FC 1
 62
     7
420
 16777215
370
     9
100
AcDbVertex
100
AcDb2dVertex
 10
91.60097016306456
 20
-82.66729859044445
 30
0.0
  0
VERTEX
  5
235
330
233
100
AcDbEntity
  8
_U+30EC_U+30A4_U+30E4_U+30FC 1
 62
     7
420
 16777215
370
     9
100
AcDbVertex
100
AcDb2dVertex
 10
91.60097016306456
 20
-91.16754969943041
 30
0.0
  0
SEQEND
  5
236
330
233
100
AcDbEntity
  8
_U+30EC_U+30A4_U+30E4_U+30FC 1
 62
     7
420
 16777215
370
     9
  0
POLYLINE
  5
237
330
1F
100
AcDbEntity
  8
_U+30EC_U+30A4_U+30E4_U+30FC 1
 62
     7
420
 16777215
370
     9
100
AcDb2dPolyline
 66
     1
 10
0.0
 20
0.0
 30
0.0
  0
VERTEX
  5
238
330
237
100
AcDbEntity
  8
_U+30EC_U+30A4_U+30E4_U+30FC 1
 62
     7
420
 16777215
370
     9
100
AcDbVertex
100
AcDb2dVertex
 10
90.14092881142443
 20
-82.66729859044445
 30
0.0
  0
VERTEX
  5
239
330
237
100
AcDbEntity
  8
_U+30EC_U+30A4_U+30E4_U+30FC 1
 62
     7
420
 16777215
370
     9
100
AcDbVertex
100
AcDb2dVertex
 10
92.60141263754115
 20
-82.66729859044445
 30
0.0
  0
SEQEND
  5
23A
330
237
100
AcDbEntity
  8
_U+30EC_U+30A4_U+30E4_U+30FC 1
 62
     7
420
 16777215
370
     9
  0
INSERT
  5
23C
330
1F
100
AcDbEntity
  8
_U+30EC_U+30A4_U+30E4_U+30FC 1
100
AcDbBlockReference
  2
block 38
 10
0.0
 20
0.0
 30
0.0
  0
SPLINE
  5
24D
330
1F
100
AcDbEntity
  8
_U+30EC_U+30A4_U+30E4_U+30FC 1
 62
     7
420
 16777215
370
    25
100
AcDbSpline
210
0.0
220
0.0
230
1.0
 70
    11
 71
     3
 72
    17
 73
    13
 74
     0
 42
0.0000000001
 43
0.0000000001
 12
1.0
 22
0.0
 32
0.0
 13
1.0
 23
0.0
 33
0.0
 40
0.0
 40
0.0
 40
0.0
 40
0.0
 40
1.0
 40
1.0
 40
1.0
 40
2.0
 40
2.0
 40
2.0
 40
3.0
 40
3.0
 40
3.0
 40
4.0
 40
4.0
 40
4.0
 40
4.0
 10
87.63634997809079
 20
-82.66729859044445
 30
0.0
 10
87.63634997809079
 20
-82.68694831266171
 30
0.0
 10
87.62047497809475
 20
-82.70278803487993
 30
0.0
 10
87.60121109844025
 20
-82.70278803487993
 30
0.0
 10
87.5819141544881
 20
-82.70278803487993
 30
0.0
 10
87.56607443266999
 20
-82.68694831266171
 30
0.0
 10
87.56607443266999
 20
-82.66729859044445
 30
0.0
 10
87.56607443266999
 20
-82.64800164600462
 30
0.0
 10
87.5819141544881
 20
-82.6321619237864
 30
0.0
 10
87.60121109844025
 20
-82.6321619237864
 30
0.0
 10
87.62047497809475
 20
-82.6321619237864
 30
0.0
 10
87.63634997809079
 20
-82.64800164600462
 30
0.0
 10
87.63634997809079
 20
-82.66729859044445
 30
0.0
  0
SPLINE
  5
24E
330
1F
100
AcDbEntity
  8
_U+30EC_U+30A4_U+30E4_U+30FC 1
 62
     7
420
 16777215
370
    25
100
AcDbSpline
210
0.0
220
0.0
230
1.0
 70
    11
 71
     3
 72
    17
 73
    13
 74
     0
 42
0.0000000001
 43
0.0000000001
 12
1.0
 22
0.0
 32
0.0
 13
1.0
 23
0.0
 33
0.0
 40
0.0
 40
0.0
 40
0.0
 40
0.0
 40
1.0
 40
1.0
 40
1.0
 40
2.0
 40
2.0
 40
2.0
 40
3.0
 40
3.0
 40
3.0
 40
4.0
 40
4.0
 40
4.0
 40
4.0
 10
75.6363650148
 20
-91.16754969943041
 30
0.0
 10
75.6363650148
 20
-91.18755219942511
 30
0.0
 10
75.6205252929819
 20
-91.20339192164366
 30
0.0
 10
75.60122834902975
 20
-91.20339192164366
 30
0.0
 10
75.5819333144377
 20
-91.20339192164366
 30
0.0
 10
75.5660916832595
 20
-91.18755219942511
 30
0.0
 10
75.5660916832595
 20
-91.16754969943041
 30
0.0
 10
75.5660916832595
 20
-91.14825275499058
 30
0.0
 10
75.5819333144377
 20
-91.13241303277267
 30
0.0
 10
75.60122834902975
 20
-91.13241303277267
 30
0.0
 10
75.6205252929819
 20
-91.13241303277267
 30
0.0
 10
75.6363650148
 20
-91.14825275499058
 30
0.0
 10
75.6363650148
 20
-91.16754969943041
 30
0.0
  0
SPLINE
  5
24F
330
1F
100
AcDbEntity
  8
_U+30EC_U+30A4_U+30E4_U+30FC 1
 62
     7
420
 16777215
370
     9
100
AcDbSpline
210
0.0
220
0.0
230
1.0
 70
    11
 71
     3
 72
    17
 73
    13
 74
     0
 42
0.0000000001
 43
0.0000000001
 12
1.0
 22
0.0
 32
0.0
 13
1.0
 23
0.0
 33
0.0
 40
0.0
 40
0.0
 40
0.0
 40
0.0
 40
1.0
 40
1.0
 40
1.0
 40
2.0
 40
2.0
 40
2.0
 40
3.0
 40
3.0
 40
3.0
 40
4.0
 40
4.0
 40
4.0
 40
4.0
 10
91.63677710659549
 20
-91.16754969943041
 30
0.0
 10
91.63677710659549
 20
-91.18755219942511
 30
0.0
 10
91.62093738477738
 20
-91.20339192164366
 30
0.0
 10
91.60097016306456
 20
-91.20339192164366
 30
0.0
 10
91.58167321911242
 20
-91.20339192164366
 30
0.0
 10
91.56579821951743
 20
-91.18755219942511
 30
0.0
 10
91.56579821951743
 20
-91.16754969943041
 30
0.0
 10
91.56579821951743
 20
-91.14825275499058
 30
0.0
 10
91.58167321911242
 20
-91.13241303277267
 30
0.0
 10
91.60097016306456
 20
-91.13241303277267
 30
0.0
 10
91.62093738477738
 20
-91.13241303277267
 30
0.0
 10
91.63677710659549
 20
-91.14825275499058
 30
0.0
 10
91.63677710659549
 20
-91.16754969943041
 30
0.0
  0
ENDSEC
  0
SECTION
  2
OBJECTS
  0
DICTIONARY
  5
C
330
0
100
AcDbDictionary
281
     1
  3
ACAD_GROUP
350
D
  3
ACAD_LAYOUT
350
1A
  3
ACAD_MATERIAL
350
3B
  3
ACAD_MLEADERSTYLE
350
251
  3
ACAD_MLINESTYLE
350
17
  3
ACAD_PLOTSETTINGS
350
19
  3
ACAD_PLOTSTYLENAME
350
E
  3
ACAD_TABLESTYLE
350
250
  3
ACAD_VISUALSTYLE
350
2A
  0
SUN
  5
3F
330
29
100
AcDbSun
 90
        1
290
     0
 63
     7
421
 16777215
 40
1.0
291
     1
 91
  2455826
 92
 54000000
292
     0
 70
     2
 71
   256
280
     1
  0
DICTIONARY
  5
D
102
{ACAD_REACTORS
330
C
102
}
330
C
100
AcDbDictionary
281
     1
  0
DICTIONARY
  5
1A
102
{ACAD_REACTORS
330
C
102
}
330
C
100
AcDbDictionary
281
     1
  3
Layout1
350
1E
  3
Layout2
350
26
  3
Model
350
22
  0
DICTIONARY
  5
3B
102
{ACAD_REACTORS
330
C
102
}
330
C
100
AcDbDictionary
281
     1
  3
ByBlock
350
3D
  3
ByLayer
350
3C
  3
Global
350
3E
  0
DICTIONARY
  5
251
102
{ACAD_REACTORS
330
C
102
}
330
C
100
AcDbDictionary
281
     1
  0
DICTIONARY
  5
17
102
{ACAD_REACTORS
330
C
102
}
330
C
100
AcDbDictionary
281
     1
  3
Standard
350
18
  0
DICTIONARY
  5
19
102
{ACAD_REACTORS
330
C
102
}
330
C
100
AcDbDictionary
281
     1
  0
ACDBDICTIONARYWDFLT
  5
E
102
{ACAD_REACTORS
330
C
102
}
330
C
100
AcDbDictionary
281
     1
  3
Normal
350
F
100
AcDbDictionaryWithDefault
340
F
  0
DICTIONARY
  5
250
102
{ACAD_REACTORS
330
C
102
}
330
C
100
AcDbDictionary
281
     1
  0
DICTIONARY
  5
2A
102
{ACAD_REACTORS
330
C
102
}
330
C
100
AcDbDictionary
281
     1
  3
2dWireframe
350
2F
  3
3D Hidden
350
31
  3
3dWireframe
350
30
  3
Basic
350
32
  3
Brighten
350
36
  3
ColorChange
350
3A
  3
Conceptual
350
34
  3
Dim
350
35
  3
Facepattern
350
39
  3
Flat
350
2B
  3
FlatWithEdges
350
2C
  3
Gouraud
350
2D
  3
GouraudWithEdges
350
2E
  3
Linepattern
350
38
  3
Realistic
350
33
  3
Thicken
350
37
  0
LAYOUT
  5
1E
102
{ACAD_REACTORS
330
1A
102
}
330
1A
100
AcDbPlotSettings
  1

  2
none_device
  4

  6

 40
0.0
 41
0.0
 42
0.0
 43
0.0
 44
0.0
 45
0.0
 46
0.0
 47
0.0
 48
0.0
 49
0.0
140
0.0
141
0.0
142
1.0
143
1.0
 70
   688
 72
     0
 73
     0
 74
     5
  7

 75
    16
 76
     0
 77
     2
 78
   300
147
1.0
148
0.0
149
0.0
100
AcDbLayout
  1
Layout1
 70
     1
 71
     1
 10
0.0
 20
0.0
 11
12.0
 21
9.0
 12
0.0
 22
0.0
 32
0.0
 14
1.000000000000000E+20
 24
1.000000000000000E+20
 34
1.000000000000000E+20
 15
-1.000000000000000E+20
 25
-1.000000000000000E+20
 35
-1.000000000000000E+20
146
0.0
 13
0.0
 23
0.0
 33
0.0
 16
1.0
 26
0.0
 36
0.0
 17
0.0
 27
1.0
 37
0.0
 76
     0
330
1B
  0
LAYOUT
  5
26
102
{ACAD_REACTORS
330
1A
102
}
330
1A
100
AcDbPlotSettings
  1

  2
none_device
  4

  6

 40
0.0
 41
0.0
 42
0.0
 43
0.0
 44
0.0
 45
0.0
 46
0.0
 47
0.0
 48
0.0
 49
0.0
140
0.0
141
0.0
142
1.0
143
1.0
 70
   688
 72
     0
 73
     0
 74
     5
  7

 75
    16
 76
     0
 77
     2
 78
   300
147
1.0
148
0.0
149
0.0
100
AcDbLayout
  1
Layout2
 70
     1
 71
     2
 10
0.0
 20
0.0
 11
0.0
 21
0.0
 12
0.0
 22
0.0
 32
0.0
 14
0.0
 24
0.0
 34
0.0
 15
0.0
 25
0.0
 35
0.0
146
0.0
 13
0.0
 23
0.0
 33
0.0
 16
1.0
 26
0.0
 36
0.0
 17
0.0
 27
1.0
 37
0.0
 76
     0
330
23
  0
LAYOUT
  5
22
102
{ACAD_REACTORS
330
1A
102
}
330
1A
100
AcDbPlotSettings
  1

  2
none_device
  4

  6

 40
0.0
 41
0.0
 42
0.0
 43
0.0
 44
0.0
 45
0.0
 46
0.0
 47
0.0
 48
0.0
 49
0.0
140
0.0
141
0.0
142
1.0
143
1.0
 70
  1712
 72
     0
 73
     0
 74
     0
  7

 75
     0
 76
     0
 77
     2
 78
   300
147
1.0
148
0.0
149
0.0
100
AcDbLayout
  1
Model
 70
     1
 71
     0
 10
0.0
 20
0.0
 11
12.0
 21
9.0
 12
0.0
 22
0.0
 32
0.0
 14
1.000000000000000E+20
 24
1.000000000000000E+20
 34
1.000000000000000E+20
 15
-1.000000000000000E+20
 25
-1.000000000000000E+20
 35
-1.000000000000000E+20
146
0.0
 13
0.0
 23
0.0
 33
0.0
 16
1.0
 26
0.0
 36
0.0
 17
0.0
 27
1.0
 37
0.0
 76
     0
330
1F
331
29
  0
MATERIAL
  5
3D
102
{ACAD_REACTORS
330
3B
102
}
330
3B
100
AcDbMaterial
  1
ByBlock
 72
     1
 94
      127
  0
MATERIAL
  5
3C
102
{ACAD_REACTORS
330
3B
102
}
330
3B
100
AcDbMaterial
  1
ByLayer
 72
     1
 94
      127
  0
MATERIAL
  5
3E
102
{ACAD_REACTORS
330
3B
102
}
330
3B
100
AcDbMaterial
  1
Global
 72
     1
 94
      127
  0
MLINESTYLE
  5
18
102
{ACAD_REACTORS
330
17
102
}
330
17
100
AcDbMlineStyle
  2
Standard
 70
     0
  3

 62
   256
 51
90.0
 52
90.0
 71
     2
 49
0.5
 62
   256
  6
BYLAYER
 49
-0.5
 62
   256
  6
BYLAYER
  0
ACDBPLACEHOLDER
  5
F
102
{ACAD_REACTORS
330
E
102
}
330
E
  0
VISUALSTYLE
  5
2F
102
{ACAD_REACTORS
330
2A
102
}
330
2A
100
AcDbVisualStyle
  2
2dWireframe
 70
     4
177
     2
291
     0
 71
     0
176
     1
 72
     2
176
     1
 73
     0
176
     1
 90
        0
176
     1
 40
-0.6
176
     1
 41
-30.0
176
     1
 62
     5
 63
     7
421
 16777215
176
     1
 74
     1
176
     1
 91
        4
176
     1
 64
     7
176
     1
 65
   257
176
     1
 75
     1
176
     1
175
     1
176
     1
 42
1.0
176
     1
 92
        0
176
     1
 66
   257
176
     1
 43
1.0
176
     1
 76
     1
176
     1
 77
     6
176
     1
 78
     2
176
     1
 67
     7
176
     1
 79
     5
176
     1
170
     0
176
     1
171
     0
176
     1
290
     0
176
     1
 93
        1
176
     1
 44
0.0
176
     1
173
     0
176
     1
  0
VISUALSTYLE
  5
31
102
{ACAD_REACTORS
330
2A
102
}
330
2A
100
AcDbVisualStyle
  2
3D Hidden
 70
     6
177
     2
291
     0
 71
     1
176
     1
 72
     2
176
     1
 73
     2
176
     1
 90
        0
176
     1
 40
-0.6
176
     1
 41
-30.0
176
     1
 62
     5
 63
     7
421
 16777215
176
     1
 74
     2
176
     1
 91
        2
176
     1
 64
     7
176
     1
 65
   257
176
     1
 75
     2
176
     1
175
     1
176
     1
 42
40.0
176
     1
 92
        0
176
     1
 66
   257
176
     1
 43
1.0
176
     1
 76
     1
176
     1
 77
     6
176
     1
 78
     2
176
     1
 67
     7
176
     1
 79
     3
176
     1
170
     0
176
     1
171
     0
176
     1
290
     0
176
     1
 93
        1
176
     1
 44
0.0
176
     1
173
     0
176
     1
  0
VISUALSTYLE
  5
30
102
{ACAD_REACTORS
330
2A
102
}
330
2A
100
AcDbVisualStyle
  2
3dWireframe
 70
     5
177
     2
291
     0
 71
     0
176
     1
 72
     2
176
     1
 73
     0
176
     1
 90
        0
176
     1
 40
-0.6
176
     1
 41
-30.0
176
     1
 62
     5
 63
     7
421
 16777215
176
     1
 74
     1
176
     1
 91
        4
176
     1
 64
     7
176
     1
 65
   257
176
     1
 75
     1
176
     1
175
     1
176
     1
 42
1.0
176
     1
 92
        0
176
     1
 66
   257
176
     1
 43
1.0
176
     1
 76
     1
176
     1
 77
     6
176
     1
 78
     2
176
     1
 67
     7
176
     1
 79
     5
176
     1
170
     0
176
     1
171
     0
176
     1
290
     0
176
     1
 93
        1
176
     1
 44
0.0
176
     1
173
     0
176
     1
  0
VISUALSTYLE
  5
32
102
{ACAD_REACTORS
330
2A
102
}
330
2A
100
AcDbVisualStyle
  2
Basic
 70
     7
177
     2
291
     1
 71
     1
176
     1
 72
     0
176
     1
 73
     1
176
     1
 90
        0
176
     1
 40
-0.6
176
     1
 41
-30.0
176
     1
 62
     5
 63
     7
421
 16777215
176
     1
 74
     0
176
     1
 91
        4
176
     1
 64
     7
176
     1
 65
   257
176
     1
 75
     1
176
     1
175
     1
176
     1
 42
1.0
176
     1
 92
        8
176
     1
 66
     7
176
     1
 43
1.0
176
     1
 76
     1
176
     1
 77
     6
176
     1
 78
     2
176
     1
 67
     7
176
     1
 79
     5
176
     1
170
     0
176
     1
171
     0
176
     1
290
     0
176
     1
 93
        1
176
     1
 44
0.0
176
     1
173
     0
176
     1
  0
VISUALSTYLE
  5
36
102
{ACAD_REACTORS
330
2A
102
}
330
2A
100
AcDbVisualStyle
  2
Brighten
 70
    12
177
     2
291
     1
 71
     2
176
     1
 72
     2
176
     1
 73
     0
176
     1
 90
        0
176
     1
 40
-0.6
176
     1
 41
-30.0
176
     1
 62
     5
 63
     7
421
 16777215
176
     1
 74
     1
176
     1
 91
        4
176
     1
 64
     7
176
     1
 65
   257
176
     1
 75
     1
176
     1
175
     1
176
     1
 42
1.0
176
     1
 92
        8
176
     1
 66
     7
176
     1
 43
1.0
176
     1
 76
     1
176
     1
 77
     6
176
     1
 78
     2
176
     1
 67
     7
176
     1
 79
     5
176
     1
170
     0
176
     1
171
     0
176
     1
290
     0
176
     1
 93
        1
176
     1
 44
50.0
176
     1
173
     0
176
     1
  0
VISUALSTYLE
  5
3A
102
{ACAD_REACTORS
330
2A
102
}
330
2A
100
AcDbVisualStyle
  2
ColorChange
 70
    16
177
     2
291
     1
 71
     2
176
     1
 72
     2
176
     1
 73
     3
176
     1
 90
        0
176
     1
 40
-0.6
176
     1
 41
-30.0
176
     1
 62
     5
 63
     8
421
  8421504
176
     1
 74
     1
176
     1
 91
        4
176
     1
 64
     7
176
     1
 65
   257
176
     1
 75
     1
176
     1
175
     1
176
     1
 42
1.0
176
     1
 92
        8
176
     1
 66
     8
424
  8421504
176
     1
 43
1.0
176
     1
 76
     1
176
     1
 77
     6
176
     1
 78
     2
176
     1
 67
     7
176
     1
 79
     5
176
     1
170
     0
176
     1
171
     0
176
     1
290
     0
176
     1
 93
        1
176
     1
 44
0.0
176
     1
173
     0
176
     1
  0
VISUALSTYLE
  5
34
102
{ACAD_REACTORS
330
2A
102
}
330
2A
100
AcDbVisualStyle
  2
Conceptual
 70
     9
177
     2
291
     0
 71
     3
176
     1
 72
     2
176
     1
 73
     0
176
     1
 90
        0
176
     1
 40
-0.6
176
     1
 41
-30.0
176
     1
 62
     5
 63
     7
421
 16777215
176
     1
 74
     2
176
     1
 91
        2
176
     1
 64
     7
176
     1
 65
   257
176
     1
 75
     1
176
     1
175
     1
176
     1
 42
40.0
176
     1
 92
        8
176
     1
 66
     7
176
     1
 43
1.0
176
     1
 76
     1
176
     1
 77
     6
176
     1
 78
     2
176
     1
 67
     7
176
     1
 79
     3
176
     1
170
     0
176
     1
171
     0
176
     1
290
     0
176
     1
 93
        1
176
     1
 44
0.0
176
     1
173
     0
176
     1
  0
VISUALSTYLE
  5
35
102
{ACAD_REACTORS
330
2A
102
}
330
2A
100
AcDbVisualStyle
  2
Dim
 70
    11
177
     2
291
     1
 71
     2
176
     1
 72
     2
176
     1
 73
     0
176
     1
 90
        0
176
     1
 40
-0.6
176
     1
 41
-30.0
176
     1
 62
     5
 63
     7
421
 16777215
176
     1
 74
     1
176
     1
 91
        4
176
     1
 64
     7
176
     1
 65
   257
176
     1
 75
     1
176
     1
175
     1
176
     1
 42
1.0
176
     1
 92
        8
176
     1
 66
     7
176
     1
 43
1.0
176
     1
 76
     1
176
     1
 77
     6
176
     1
 78
     2
176
     1
 67
     7
176
     1
 79
     5
176
     1
170
     0
176
     1
171
     0
176
     1
290
     0
176
     1
 93
        1
176
     1
 44
-50.0
176
     1
173
     0
176
     1
  0
VISUALSTYLE
  5
39
102
{ACAD_REACTORS
330
2A
102
}
330
2A
100
AcDbVisualStyle
  2
Facepattern
 70
    15
177
     2
291
     1
 71
     2
176
     1
 72
     2
176
     1
 73
     0
176
     1
 90
        0
176
     1
 40
-0.6
176
     1
 41
-30.0
176
     1
 62
     5
 63
     7
421
 16777215
176
     1
 74
     1
176
     1
 91
        4
176
     1
 64
     7
176
     1
 65
   257
176
     1
 75
     1
176
     1
175
     1
176
     1
 42
1.0
176
     1
 92
        8
176
     1
 66
     7
176
     1
 43
1.0
176
     1
 76
     1
176
     1
 77
     6
176
     1
 78
     2
176
     1
 67
     7
176
     1
 79
     5
176
     1
170
     0
176
     1
171
     0
176
     1
290
     0
176
     1
 93
        1
176
     1
 44
0.0
176
     1
173
     0
176
     1
  0
VISUALSTYLE
  5
2B
102
{ACAD_REACTORS
330
2A
102
}
330
2A
100
AcDbVisualStyle
  2
Flat
 70
     0
177
     2
291
     1
 71
     2
176
     1
 72
     1
176
     1
 73
     1
176
     1
 90
        2
176
     1
 40
-0.6
176
     1
 41
30.0
176
     1
 62
     5
 63
     7
421
 16777215
176
     1
 74
     0
176
     1
 91
        4
176
     1
 64
     7
176
     1
 65
   257
176
     1
 75
     1
176
     1
175
     1
176
     1
 42
1.0
176
     1
 92
        8
176
     1
 66
     7
176
     1
 43
1.0
176
     1
 76
     1
176
     1
 77
     6
176
     1
 78
     2
176
     1
 67
     7
176
     1
 79
     5
176
     1
170
     0
176
     1
171
     0
176
     1
290
     0
176
     1
 93
       13
176
     1
 44
0.0
176
     1
173
     0
176
     1
  0
VISUALSTYLE
  5
2C
102
{ACAD_REACTORS
330
2A
102
}
330
2A
100
AcDbVisualStyle
  2
FlatWithEdges
 70
     1
177
     2
291
     1
 71
     2
176
     1
 72
     1
176
     1
 73
     1
176
     1
 90
        2
176
     1
 40
-0.6
176
     1
 41
30.0
176
     1
 62
     5
 63
     7
421
 16777215
176
     1
 74
     1
176
     1
 91
        4
176
     1
 64
     7
176
     1
 65
   257
176
     1
 75
     1
176
     1
175
     1
176
     1
 42
1.0
176
     1
 92
        0
176
     1
 66
   257
176
     1
 43
1.0
176
     1
 76
     1
176
     1
 77
     6
176
     1
 78
     2
176
     1
 67
     7
176
     1
 79
     5
176
     1
170
     0
176
     1
171
     0
176
     1
290
     0
176
     1
 93
       13
176
     1
 44
0.0
176
     1
173
     0
176
     1
  0
VISUALSTYLE
  5
2D
102
{ACAD_REACTORS
330
2A
102
}
330
2A
100
AcDbVisualStyle
  2
Gouraud
 70
     2
177
     2
291
     1
 71
     2
176
     1
 72
     2
176
     1
 73
     1
176
     1
 90
        2
176
     1
 40
-0.6
176
     1
 41
30.0
176
     1
 62
     5
 63
     7
421
 16777215
176
     1
 74
     0
176
     1
 91
        4
176
     1
 64
     7
176
     1
 65
   257
176
     1
 75
     1
176
     1
175
     1
176
     1
 42
1.0
176
     1
 92
        0
176
     1
 66
     7
176
     1
 43
1.0
176
     1
 76
     1
176
     1
 77
     6
176
     1
 78
     2
176
     1
 67
     7
176
     1
 79
     5
176
     1
170
     0
176
     1
171
     0
176
     1
290
     0
176
     1
 93
       13
176
     1
 44
0.0
176
     1
173
     0
176
     1
  0
VISUALSTYLE
  5
2E
102
{ACAD_REACTORS
330
2A
102
}
330
2A
100
AcDbVisualStyle
  2
GouraudWithEdges
 70
     3
177
     2
291
     1
 71
     2
176
     1
 72
     2
176
     1
 73
     1
176
     1
 90
        2
176
     1
 40
-0.6
176
     1
 41
30.0
176
     1
 62
     5
 63
     7
421
 16777215
176
     1
 74
     1
176
     1
 91
        4
176
     1
 64
     7
176
     1
 65
   257
176
     1
 75
     1
176
     1
175
     1
176
     1
 42
1.0
176
     1
 92
        0
176
     1
 66
   257
176
     1
 43
1.0
176
     1
 76
     1
176
     1
 77
     6
176
     1
 78
     2
176
     1
 67
     7
176
     1
 79
     5
176
     1
170
     0
176
     1
171
     0
176
     1
290
     0
176
     1
 93
       13
176
     1
 44
0.0
176
     1
173
     0
176
     1
  0
VISUALSTYLE
  5
38
102
{ACAD_REACTORS
330
2A
102
}
330
2A
100
AcDbVisualStyle
  2
Linepattern
 70
    14
177
     2
291
     1
 71
     2
176
     1
 72
     2
176
     1
 73
     0
176
     1
 90
        0
176
     1
 40
-0.6
176
     1
 41
-30.0
176
     1
 62
     5
 63
     7
421
 16777215
176
     1
 74
     1
176
     1
 91
        4
176
     1
 64
     7
176
     1
 65
   257
176
     1
 75
     7
176
     1
175
     7
176
     1
 42
1.0
176
     1
 92
        8
176
     1
 66
     7
176
     1
 43
1.0
176
     1
 76
     1
176
     1
 77
     6
176
     1
 78
     2
176
     1
 67
     7
176
     1
 79
     5
176
     1
170
     0
176
     1
171
     0
176
     1
290
     0
176
     1
 93
        1
176
     1
 44
0.0
176
     1
173
     0
176
     1
  0
VISUALSTYLE
  5
33
102
{ACAD_REACTORS
330
2A
102
}
330
2A
100
AcDbVisualStyle
  2
Realistic
 70
     8
177
     2
291
     0
 71
     2
176
     1
 72
     2
176
     1
 73
     0
176
     1
 90
        0
176
     1
 40
-0.6
176
     1
 41
-30.0
176
     1
 62
     5
 63
     7
421
 16777215
176
     1
 74
     1
176
     1
 91
        0
176
     1
 64
     7
176
     1
 65
   257
176
     1
 75
     1
176
     1
175
     1
176
     1
 42
1.0
176
     1
 92
        8
176
     1
 66
     8
424
  7895160
176
     1
 43
1.0
176
     1
 76
     1
176
     1
 77
     6
176
     1
 78
     2
176
     1
 67
     7
176
     1
 79
     5
176
     1
170
     0
176
     1
171
     0
176
     1
290
     0
176
     1
 93
       13
176
     1
 44
0.0
176
     1
173
     0
176
     1
  0
VISUALSTYLE
  5
37
102
{ACAD_REACTORS
330
2A
102
}
330
2A
100
AcDbVisualStyle
  2
Thicken
 70
    13
177
     2
291
     1
 71
     2
176
     1
 72
     2
176
     1
 73
     0
176
     1
 90
        0
176
     1
 40
-0.6
176
     1
 41
-30.0
176
     1
 62
     5
 63
     7
421
 16777215
176
     1
 74
     1
176
     1
 91
        4
176
     1
 64
     7
176
     1
 65
   257
176
     1
 75
     1
176
     1
175
     1
176
     1
 42
1.0
176
     1
 92
       12
176
     1
 66
     7
176
     1
 43
1.0
176
     1
 76
     1
176
     1
 77
     6
176
     1
 78
     2
176
     1
 67
     7
176
     1
 79
     5
176
     1
170
     0
176
     1
171
     0
176
     1
290
     0
176
     1
 93
        1
176
     1
 44
0.0
176
     1
173
     0
176
     1
  0
ENDSEC
  0
EOF
