  0
SECTION
  2
HEADER
  9
$ACADVER
  1
AC1024
  9
$ACADMAINTVER
 70
     6
  9
$DWGCODEPAGE
  3
UNDEFINED
  9
$INSBASE
 10
0.0
 20
0.0
 30
0.0
  9
$EXTMIN
 10
1.000000000000000E+20
 20
1.000000000000000E+20
 30
1.000000000000000E+20
  9
$EXTMAX
 10
-1.000000000000000E+20
 20
-1.000000000000000E+20
 30
-1.000000000000000E+20
  9
$LIMMIN
 10
0.0
 20
0.0
  9
$LIMMAX
 10
12.0
 20
9.0
  9
$ORTHOMODE
 70
     0
  9
$REGENMODE
 70
     1
  9
$FILLMODE
 70
     1
  9
$QTEXTMODE
 70
     0
  9
$MIRRTEXT
 70
     1
  9
$LTSCALE
 40
1.0
  9
$ATTMODE
 70
     1
  9
$TEXTSIZE
 40
0.2
  9
$TRACEWID
 40
0.05
  9
$TEXTSTYLE
  7
Standard
  9
$CLAYER
  8
0
  9
$CELTYPE
  6
ByLayer
  9
$CECOLOR
 62
   256
  9
$CELTSCALE
 40
1.0
  9
$DISPSILH
 70
     0
  9
$DIMSCALE
 40
1.0
  9
$DIMASZ
 40
0.18
  9
$DIMEXO
 40
0.0625
  9
$DIMDLI
 40
0.38
  9
$DIMRND
 40
0.0
  9
$DIMDLE
 40
0.0
  9
$DIMEXE
 40
0.18
  9
$DIMTP
 40
0.0
  9
$DIMTM
 40
0.0
  9
$DIMTXT
 40
0.18
  9
$DIMCEN
 40
0.09
  9
$DIMTSZ
 40
0.0
  9
$DIMTOL
 70
     0
  9
$DIMLIM
 70
     0
  9
$DIMTIH
 70
     1
  9
$DIMTOH
 70
     1
  9
$DIMSE1
 70
     0
  9
$DIMSE2
 70
     0
  9
$DIMTAD
 70
     0
  9
$DIMZIN
 70
     0
  9
$DIMBLK
  1

  9
$DIMASO
 70
     1
  9
$DIMSHO
 70
     1
  9
$DIMPOST
  1

  9
$DIMAPOST
  1

  9
$DIMALT
 70
     0
  9
$DIMALTD
 70
     2
  9
$DIMALTF
 40
25.4
  9
$DIMLFAC
 40
1.0
  9
$DIMTOFL
 70
     0
  9
$DIMTVP
 40
0.0
  9
$DIMTIX
 70
     0
  9
$DIMSOXD
 70
     0
  9
$DIMSAH
 70
     0
  9
$DIMBLK1
  1

  9
$DIMBLK2
  1

  9
$DIMSTYLE
  2
Standard
  9
$DIMCLRD
 70
     0
  9
$DIMCLRE
 70
     0
  9
$DIMCLRT
 70
     0
  9
$DIMTFAC
 40
1.0
  9
$DIMGAP
 40
0.09
  9
$DIMJUST
 70
     0
  9
$DIMSD1
 70
     0
  9
$DIMSD2
 70
     0
  9
$DIMTOLJ
 70
     1
  9
$DIMTZIN
 70
     0
  9
$DIMALTZ
 70
     0
  9
$DIMALTTZ
 70
     0
  9
$DIMUPT
 70
     0
  9
$DIMDEC
 70
     4
  9
$DIMTDEC
 70
     4
  9
$DIMALTU
 70
     2
  9
$DIMALTTD
 70
     2
  9
$DIMTXSTY
  7
Standard
  9
$DIMAUNIT
 70
     0
  9
$DIMADEC
 70
     0
  9
$DIMALTRND
 40
0.0
  9
$DIMAZIN
 70
     0
  9
$DIMDSEP
 70
    46
  9
$DIMATFIT
 70
     3
  9
$DIMFRAC
 70
     0
  9
$DIMLDRBLK
  1

  9
$DIMLUNIT
 70
     2
  9
$DIMLWD
 70
    -2
  9
$DIMLWE
 70
    -2
  9
$DIMTMOVE
 70
     0
  9
$DIMFXL
 40
1.0
  9
$DIMFXLON
 70
     0
  9
$DIMJOGANG
 40
0.7853981633974483
  9
$DIMTFILL
 70
     0
  9
$DIMTFILLCLR
 70
     0
  9
$DIMARCSYM
 70
     0
  9
$DIMLTYPE
  6

  9
$DIMLTEX1
  6

  9
$DIMLTEX2
  6

  9
$DIMTXTDIRECTION
 70
     0
  9
$LUNITS
 70
     2
  9
$LUPREC
 70
     4
  9
$SKETCHINC
 40
0.1
  9
$FILLETRAD
 40
0.5
  9
$AUNITS
 70
     0
  9
$AUPREC
 70
     0
  9
$MENU
  1
.
  9
$ELEVATION
 40
0.0
  9
$PELEVATION
 40
0.0
  9
$THICKNESS
 40
0.0
  9
$LIMCHECK
 70
     0
  9
$CHAMFERA
 40
0.5
  9
$CHAMFERB
 40
0.5
  9
$CHAMFERC
 40
1.0
  9
$CHAMFERD
 40
0.0
  9
$SKPOLY
 70
     0
  9
$TDCREATE
 40
2457917.585590278
  9
$TDUCREATE
 40
2457917.210590278
  9
$TDUPDATE
 40
2457917.585590278
  9
$TDUUPDATE
 40
2457917.210590278
  9
$TDINDWG
 40
0.0000000116
  9
$TDUSRTIMER
 40
0.0000000116
  9
$USRTIMER
 70
     1
  9
$ANGBASE
 50
0.0
  9
$ANGDIR
 70
     0
  9
$PDMODE
 70
     0
  9
$PDSIZE
 40
0.0
  9
$PLINEWID
 40
0.0
  9
$SPLFRAME
 70
     0
  9
$SPLINETYPE
 70
     6
  9
$SPLINESEGS
 70
     8
  9
$HANDSEED
  5
181
  9
$SURFTAB1
 70
     6
  9
$SURFTAB2
 70
     6
  9
$SURFTYPE
 70
     6
  9
$SURFU
 70
     6
  9
$SURFV
 70
     6
  9
$UCSBASE
  2

  9
$UCSNAME
  2

  9
$UCSORG
 10
0.0
 20
0.0
 30
0.0
  9
$UCSXDIR
 10
1.0
 20
0.0
 30
0.0
  9
$UCSYDIR
 10
0.0
 20
1.0
 30
0.0
  9
$UCSORTHOREF
  2

  9
$UCSORTHOVIEW
 70
     0
  9
$UCSORGTOP
 10
0.0
 20
0.0
 30
0.0
  9
$UCSORGBOTTOM
 10
0.0
 20
0.0
 30
0.0
  9
$UCSORGLEFT
 10
0.0
 20
0.0
 30
0.0
  9
$UCSORGRIGHT
 10
0.0
 20
0.0
 30
0.0
  9
$UCSORGFRONT
 10
0.0
 20
0.0
 30
0.0
  9
$UCSORGBACK
 10
0.0
 20
0.0
 30
0.0
  9
$PUCSBASE
  2

  9
$PUCSNAME
  2

  9
$PUCSORG
 10
0.0
 20
0.0
 30
0.0
  9
$PUCSXDIR
 10
1.0
 20
0.0
 30
0.0
  9
$PUCSYDIR
 10
0.0
 20
1.0
 30
0.0
  9
$PUCSORTHOREF
  2

  9
$PUCSORTHOVIEW
 70
     0
  9
$PUCSORGTOP
 10
0.0
 20
0.0
 30
0.0
  9
$PUCSORGBOTTOM
 10
0.0
 20
0.0
 30
0.0
  9
$PUCSORGLEFT
 10
0.0
 20
0.0
 30
0.0
  9
$PUCSORGRIGHT
 10
0.0
 20
0.0
 30
0.0
  9
$PUCSORGFRONT
 10
0.0
 20
0.0
 30
0.0
  9
$PUCSORGBACK
 10
0.0
 20
0.0
 30
0.0
  9
$USERI1
 70
     0
  9
$USERI2
 70
     0
  9
$USERI3
 70
     0
  9
$USERI4
 70
     0
  9
$USERI5
 70
     0
  9
$USERR1
 40
0.0
  9
$USERR2
 40
0.0
  9
$USERR3
 40
0.0
  9
$USERR4
 40
0.0
  9
$USERR5
 40
0.0
  9
$WORLDVIEW
 70
     1
  9
$SHADEDGE
 70
     3
  9
$SHADEDIF
 70
    70
  9
$TILEMODE
 70
     1
  9
$MAXACTVP
 70
    64
  9
$PINSBASE
 10
0.0
 20
0.0
 30
0.0
  9
$PLIMCHECK
 70
     0
  9
$PEXTMIN
 10
1.000000000000000E+20
 20
1.000000000000000E+20
 30
1.000000000000000E+20
  9
$PEXTMAX
 10
-1.000000000000000E+20
 20
-1.000000000000000E+20
 30
-1.000000000000000E+20
  9
$PLIMMIN
 10
0.0
 20
0.0
  9
$PLIMMAX
 10
12.0
 20
9.0
  9
$UNITMODE
 70
     0
  9
$VISRETAIN
 70
     1
  9
$PLINEGEN
 70
     0
  9
$PSLTSCALE
 70
     1
  9
$TREEDEPTH
 70
  3020
  9
$CMLSTYLE
  2
Standard
  9
$CMLJUST
 70
     0
  9
$CMLSCALE
 40
1.0
  9
$PROXYGRAPHICS
 70
     1
  9
$MEASUREMENT
 70
     0
  9
$CELWEIGHT
370
    -1
  9
$ENDCAPS
280
     0
  9
$JOINSTYLE
280
     0
  9
$LWDISPLAY
290
     1
  9
$INSUNITS
 70
     1
  9
$HYPERLINKBASE
  1

  9
$STYLESHEET
  1

  9
$XEDIT
290
     1
  9
$CEPSNTYPE
380
     0
  9
$PSTYLEMODE
290
     1
  9
$FINGERPRINTGUID
  2
{7B9C10CE-091C-FAB2-5723-B628C5BF85A7}
  9
$VERSIONGUID
  2
{FAEB1C32-E019-11D5-929B-00C0DF256EC4}
  9
$EXTNAMES
290
     1
  9
$PSVPSCALE
 40
0.0
  9
$OLESTARTUP
290
     0
  9
$SORTENTS
280
   127
  9
$INDEXCTL
280
     0
  9
$HIDETEXT
280
     1
  9
$XCLIPFRAME
280
     2
  9
$HALOGAP
280
     0
  9
$OBSCOLOR
 70
   257
  9
$OBSLTYPE
280
     0
  9
$INTERSECTIONDISPLAY
280
     0
  9
$INTERSECTIONCOLOR
 70
   257
  9
$DIMASSOC
280
     2
  9
$PROJECTNAME
  1

  9
$CAMERADISPLAY
290
     0
  9
$LENSLENGTH
 40
50.0
  9
$CAMERAHEIGHT
 40
0.0
  9
$STEPSPERSEC
 40
2.0
  9
$STEPSIZE
 40
6.0
  9
$3DDWFPREC
 40
2.0
  9
$PSOLWIDTH
 40
0.25
  9
$PSOLHEIGHT
 40
4.0
  9
$LOFTANG1
 40
1.570796326794897
  9
$LOFTANG2
 40
1.570796326794897
  9
$LOFTMAG1
 40
0.0
  9
$LOFTMAG2
 40
0.0
  9
$LOFTPARAM
 70
     7
  9
$LOFTNORMALS
280
     1
  9
$LATITUDE
 40
37.795
  9
$LONGITUDE
 40
-122.394
  9
$NORTHDIRECTION
 40
0.0
  9
$TIMEZONE
 70
 -8000
  9
$LIGHTGLYPHDISPLAY
280
     1
  9
$TILEMODELIGHTSYNCH
280
     1
  9
$CMATERIAL
347
3C
  9
$SOLIDHIST
280
     1
  9
$SHOWHIST
280
     1
  9
$DWFFRAME
280
     2
  9
$DGNFRAME
280
     2
  9
$REALWORLDSCALE
290
     1
  9
$INTERFERECOLOR
 62
   256
  9
$CSHADOW
280
     0
  9
$SHADOWPLANELOCATION
 40
0.0
  0
ENDSEC
  0
SECTION
  2
CLASSES
  0
CLASS
  1
ACDBDICTIONARYWDFLT
  2
AcDbDictionaryWithDefault
  3
ObjectDBX Classes
 90
        0
 91
        4
280
     0
281
     0
  0
CLASS
  1
VISUALSTYLE
  2
AcDbVisualStyle
  3
ObjectDBX Classes
 90
     4095
 91
        4
280
     0
281
     0
  0
CLASS
  1
MATERIAL
  2
AcDbMaterial
  3
ObjectDBX Classes
 90
     1153
 91
        4
280
     0
281
     0
  0
CLASS
  1
SUN
  2
AcDbSun
  3
SCENEOE
 90
     1024
 91
        4
280
     0
281
     0
  0
ENDSEC
  0
SECTION
  2
TABLES
  0
TABLE
  2
VPORT
  5
8
330
0
100
AcDbSymbolTable
 70
     1
  0
VPORT
  5
29
330
8
100
AcDbSymbolTableRecord
100
AcDbViewportTableRecord
  2
*Active
 70
     0
 10
0.0
 20
0.0
 11
1.0
 21
1.0
 12
0.0
 22
0.0
 13
0.0
 23
0.0
 14
0.5
 24
0.5
 15
0.5
 25
0.5
 16
0.0
 26
0.0
 36
1.0
 17
91.00082462281999
 27
-128.4993055234307
 37
0.0
 40
256.9986110468615
 41
0.7081814508812795
 42
50.0
 43
0.0
 44
0.0
 50
0.0
 51
0.0
 71
     0
 72
   100
 73
     1
 74
     3
 75
     0
 76
     0
 77
     0
 78
     0
281
     0
 65
     1
110
0.0
120
0.0
130
0.0
111
1.0
121
0.0
131
0.0
112
0.0
122
1.0
132
0.0
 79
     0
146
0.0
 60
     3
 61
     5
292
     1
282
     1
141
0.0
142
0.0
 63
   250
361
3F
  0
ENDTAB
  0
TABLE
  2
LTYPE
  5
5
330
0
100
AcDbSymbolTable
 70
     3
  0
LTYPE
  5
14
330
5
100
AcDbSymbolTableRecord
100
AcDbLinetypeTableRecord
  2
ByBlock
 70
     0
  3

 72
    65
 73
     0
 40
0.0
  0
LTYPE
  5
15
330
5
100
AcDbSymbolTableRecord
100
AcDbLinetypeTableRecord
  2
ByLayer
 70
     0
  3

 72
    65
 73
     0
 40
0.0
  0
LTYPE
  5
16
330
5
100
AcDbSymbolTableRecord
100
AcDbLinetypeTableRecord
  2
Continuous
 70
     0
  3
Solid line
 72
    65
 73
     0
 40
0.0
  0
LTYPE
  5
133
330
5
100
AcDbSymbolTableRecord
100
AcDbLinetypeTableRecord
  2
AI-Linetype-1
 70
     0
  3
Adobe Illustrator Linetype No. 1
 72
    65
 73
     2
 40
1.411111110758333
 49
0.7055555553791667
 74
     0
 49
-0.7055555553791667
 74
     0
  0
LTYPE
  5
17D
330
5
100
AcDbSymbolTableRecord
100
AcDbLinetypeTableRecord
  2
AI-Linetype-2
 70
     0
  3
Adobe Illustrator Linetype No. 2
 72
    65
 73
     2
 40
1.411111110758333
 49
0.7055555553791667
 74
     0
 49
-0.7055555553791667
 74
     0
  0
ENDTAB
  0
TABLE
  2
LAYER
  5
2
330
0
100
AcDbSymbolTable
 70
     2
  0
LAYER
  5
10
330
2
100
AcDbSymbolTableRecord
100
AcDbLayerTableRecord
  2
0
 70
     0
 62
     7
  6
Continuous
370
    -3
390
F
347
3E
  0
LAYER
  5
40
330
2
100
AcDbSymbolTableRecord
100
AcDbLayerTableRecord
  2
_U+30EC_U+30A4_U+30E4_U+30FC 1
 70
     0
 62
     7
  6
Continuous
370
    -3
390
F
347
3E
  0
ENDTAB
  0
TABLE
  2
STYLE
  5
3
330
0
100
AcDbSymbolTable
 70
     1
  0
STYLE
  5
11
330
3
100
AcDbSymbolTableRecord
100
AcDbTextStyleTableRecord
  2
Standard
 70
     0
 40
0.0
 41
1.0
 50
0.0
 71
     0
 42
0.2
  3
txt
  4

  0
ENDTAB
  0
TABLE
  2
VIEW
  5
6
330
0
100
AcDbSymbolTable
 70
     0
  0
ENDTAB
  0
TABLE
  2
UCS
  5
7
330
0
100
AcDbSymbolTable
 70
     0
  0
ENDTAB
  0
TABLE
  2
APPID
  5
9
330
0
100
AcDbSymbolTable
 70
     1
  0
APPID
  5
12
330
9
100
AcDbSymbolTableRecord
100
AcDbRegAppTableRecord
  2
ACAD
 70
     0
  0
ENDTAB
  0
TABLE
  2
DIMSTYLE
  5
A
330
0
100
AcDbSymbolTable
 70
     1
100
AcDbDimStyleTable
  0
DIMSTYLE
105
27
330
A
100
AcDbSymbolTableRecord
100
AcDbDimStyleTableRecord
  2
Standard
 70
     0
178
     0
340
11
  0
ENDTAB
  0
TABLE
  2
BLOCK_RECORD
  5
1
330
0
100
AcDbSymbolTable
 70
     7
  0
BLOCK_RECORD
  5
1F
330
1
100
AcDbSymbolTableRecord
100
AcDbBlockTableRecord
  2
*Model_Space
340
22
 70
     0
280
     1
281
     0
  0
BLOCK_RECORD
  5
1B
330
1
100
AcDbSymbolTableRecord
100
AcDbBlockTableRecord
  2
*Paper_Space
340
1E
 70
     0
280
     1
281
     0
  0
BLOCK_RECORD
  5
23
330
1
100
AcDbSymbolTableRecord
100
AcDbBlockTableRecord
  2
*Paper_Space0
340
26
 70
     0
280
     1
281
     0
  0
BLOCK_RECORD
  5
41
330
1
100
AcDbSymbolTableRecord
100
AcDbBlockTableRecord
  2
block 2
340
0
102
{BLKREFS
331
42
102
}
 70
     0
280
     1
281
     0
  0
BLOCK_RECORD
  5
45
330
1
100
AcDbSymbolTableRecord
100
AcDbBlockTableRecord
  2
block 3
340
0
102
{BLKREFS
331
46
102
}
 70
     0
280
     1
281
     0
  0
BLOCK_RECORD
  5
9F
330
1
100
AcDbSymbolTableRecord
100
AcDbBlockTableRecord
  2
block 4
340
0
102
{BLKREFS
331
A0
102
}
 70
     0
280
     1
281
     0
  0
BLOCK_RECORD
  5
108
330
1
100
AcDbSymbolTableRecord
100
AcDbBlockTableRecord
  2
block 5
340
0
102
{BLKREFS
331
109
102
}
 70
     0
280
     1
281
     0
  0
BLOCK_RECORD
  5
147
330
1
100
AcDbSymbolTableRecord
100
AcDbBlockTableRecord
  2
block 6
340
0
102
{BLKREFS
331
148
102
}
 70
     0
280
     1
281
     0
  0
BLOCK_RECORD
  5
162
330
1
100
AcDbSymbolTableRecord
100
AcDbBlockTableRecord
  2
block 7
340
0
102
{BLKREFS
331
163
102
}
 70
     0
280
     1
281
     0
  0
ENDTAB
  0
ENDSEC
  0
SECTION
  2
BLOCKS
  0
BLOCK
  5
20
330
1F
100
AcDbEntity
  8
0
100
AcDbBlockBegin
  2
*Model_Space
 70
     0
 10
0.0
 20
0.0
 30
0.0
  3
*Model_Space
  1

  0
ENDBLK
  5
21
330
1F
100
AcDbEntity
  8
0
100
AcDbBlockEnd
  0
BLOCK
  5
1C
330
1B
100
AcDbEntity
 67
     1
  8
0
100
AcDbBlockBegin
  2
*Paper_Space
 70
     0
 10
0.0
 20
0.0
 30
0.0
  3
*Paper_Space
  1

  0
ENDBLK
  5
1D
330
1B
100
AcDbEntity
 67
     1
  8
0
100
AcDbBlockEnd
  0
BLOCK
  5
24
330
23
100
AcDbEntity
  8
0
100
AcDbBlockBegin
  2
*Paper_Space0
 70
     0
 10
0.0
 20
0.0
 30
0.0
  3
*Paper_Space0
  1

  0
ENDBLK
  5
25
330
23
100
AcDbEntity
  8
0
100
AcDbBlockEnd
  0
BLOCK
  5
43
330
41
100
AcDbEntity
  8
0
100
AcDbBlockBegin
  2
block 2
 70
     0
 10
0.0
 20
0.0
 30
0.0
  3
block 2
  1

  0
INSERT
  5
46
330
41
100
AcDbEntity
  8
_U+30EC_U+30A4_U+30E4_U+30FC 1
100
AcDbBlockReference
  2
block 3
 10
0.0
 20
0.0
 30
0.0
  0
INSERT
  5
A0
330
41
100
AcDbEntity
  8
_U+30EC_U+30A4_U+30E4_U+30FC 1
100
AcDbBlockReference
  2
block 4
 10
0.0
 20
0.0
 30
0.0
  0
POLYLINE
  5
EE
330
41
100
AcDbEntity
  8
_U+30EC_U+30A4_U+30E4_U+30FC 1
 62
   179
420
  2234388
370
     9
100
AcDb2dPolyline
 66
     1
 10
0.0
 20
0.0
 30
0.0
  0
VERTEX
  5
EF
330
EE
100
AcDbEntity
  8
_U+30EC_U+30A4_U+30E4_U+30FC 1
 62
   179
420
  2234388
370
     9
100
AcDbVertex
100
AcDb2dVertex
 10
58.77573961161707
 20
-135.368488577269
 30
0.0
  0
VERTEX
  5
F0
330
EE
100
AcDbEntity
  8
_U+30EC_U+30A4_U+30E4_U+30FC 1
 62
   179
420
  2234388
370
     9
100
AcDbVertex
100
AcDb2dVertex
 10
66.12688747962922
 20
-138.8535449652865
 30
0.0
  0
VERTEX
  5
F1
330
EE
100
AcDbEntity
  8
_U+30EC_U+30A4_U+30E4_U+30FC 1
 62
   179
420
  2234388
370
     9
100
AcDbVertex
100
AcDb2dVertex
 10
71.28488651470437
 20
-138.8535449652865
 30
0.0
  0
SEQEND
  5
F2
330
EE
100
AcDbEntity
  8
_U+30EC_U+30A4_U+30E4_U+30FC 1
 62
   179
420
  2234388
370
     9
  0
POLYLINE
  5
F3
330
41
100
AcDbEntity
  8
_U+30EC_U+30A4_U+30E4_U+30FC 1
 62
   179
420
  2234388
370
     9
100
AcDb2dPolyline
 66
     1
 10
0.0
 20
0.0
 30
0.0
  0
VERTEX
  5
F4
330
F3
100
AcDbEntity
  8
_U+30EC_U+30A4_U+30E4_U+30FC 1
 62
   179
420
  2234388
370
     9
100
AcDbVertex
100
AcDb2dVertex
 10
58.77573961161707
 20
-135.368488577269
 30
0.0
  0
VERTEX
  5
F5
330
F3
100
AcDbEntity
  8
_U+30EC_U+30A4_U+30E4_U+30FC 1
 62
   179
420
  2234388
370
     9
100
AcDbVertex
100
AcDb2dVertex
 10
59.7589665309773
 20
-135.5482994105576
 30
0.0
  0
SEQEND
  5
F6
330
F3
100
AcDbEntity
  8
_U+30EC_U+30A4_U+30E4_U+30FC 1
 62
   179
420
  2234388
370
     9
  0
POLYLINE
  5
F7
330
41
100
AcDbEntity
  8
_U+30EC_U+30A4_U+30E4_U+30FC 1
 62
   179
420
  2234388
370
     9
100
AcDb2dPolyline
 66
     1
 10
0.0
 20
0.0
 30
0.0
  0
VERTEX
  5
F8
330
F7
100
AcDbEntity
  8
_U+30EC_U+30A4_U+30E4_U+30FC 1
 62
   179
420
  2234388
370
     9
100
AcDbVertex
100
AcDb2dVertex
 10
58.77573961161707
 20
-135.368488577269
 30
0.0
  0
VERTEX
  5
F9
330
F7
100
AcDbEntity
  8
_U+30EC_U+30A4_U+30E4_U+30FC 1
 62
   179
420
  2234388
370
     9
100
AcDbVertex
100
AcDb2dVertex
 10
59.53781014773059
 20
-136.0161532993293
 30
0.0
  0
SEQEND
  5
FA
330
F7
100
AcDbEntity
  8
_U+30EC_U+30A4_U+30E4_U+30FC 1
 62
   179
420
  2234388
370
     9
  0
POLYLINE
  5
FB
330
41
100
AcDbEntity
  8
_U+30EC_U+30A4_U+30E4_U+30FC 1
 62
   179
420
  2234388
370
     9
100
AcDb2dPolyline
 66
     1
 10
0.0
 20
0.0
 30
0.0
  0
VERTEX
  5
FC
330
FB
100
AcDbEntity
  8
_U+30EC_U+30A4_U+30E4_U+30FC 1
 62
   179
420
  2234388
370
     9
100
AcDbVertex
100
AcDb2dVertex
 10
95.16695368319985
 20
-135.368488577269
 30
0.0
  0
VERTEX
  5
FD
330
FB
100
AcDbEntity
  8
_U+30EC_U+30A4_U+30E4_U+30FC 1
 62
   179
420
  2234388
370
     9
100
AcDbVertex
100
AcDb2dVertex
 10
88.07488580857802
 20
-138.7302138542064
 30
0.0
  0
VERTEX
  5
FE
330
FB
100
AcDbEntity
  8
_U+30EC_U+30A4_U+30E4_U+30FC 1
 62
   179
420
  2234388
370
     9
100
AcDbVertex
100
AcDb2dVertex
 10
83.20905732160453
 20
-138.7302138542064
 30
0.0
  0
SEQEND
  5
FF
330
FB
100
AcDbEntity
  8
_U+30EC_U+30A4_U+30E4_U+30FC 1
 62
   179
420
  2234388
370
     9
  0
POLYLINE
  5
100
330
41
100
AcDbEntity
  8
_U+30EC_U+30A4_U+30E4_U+30FC 1
 62
   179
420
  2234388
370
     9
100
AcDb2dPolyline
 66
     1
 10
0.0
 20
0.0
 30
0.0
  0
VERTEX
  5
101
330
100
100
AcDbEntity
  8
_U+30EC_U+30A4_U+30E4_U+30FC 1
 62
   179
420
  2234388
370
     9
100
AcDbVertex
100
AcDb2dVertex
 10
95.16695368319985
 20
-135.368488577269
 30
0.0
  0
VERTEX
  5
102
330
100
100
AcDbEntity
  8
_U+30EC_U+30A4_U+30E4_U+30FC 1
 62
   179
420
  2234388
370
     9
100
AcDbVertex
100
AcDb2dVertex
 10
94.18372676383962
 20
-135.5482994105576
 30
0.0
  0
SEQEND
  5
103
330
100
100
AcDbEntity
  8
_U+30EC_U+30A4_U+30E4_U+30FC 1
 62
   179
420
  2234388
370
     9
  0
POLYLINE
  5
104
330
41
100
AcDbEntity
  8
_U+30EC_U+30A4_U+30E4_U+30FC 1
 62
   179
420
  2234388
370
     9
100
AcDb2dPolyline
 66
     1
 10
0.0
 20
0.0
 30
0.0
  0
VERTEX
  5
105
330
104
100
AcDbEntity
  8
_U+30EC_U+30A4_U+30E4_U+30FC 1
 62
   179
420
  2234388
370
     9
100
AcDbVertex
100
AcDb2dVertex
 10
95.16695368319985
 20
-135.368488577269
 30
0.0
  0
VERTEX
  5
106
330
104
100
AcDbEntity
  8
_U+30EC_U+30A4_U+30E4_U+30FC 1
 62
   179
420
  2234388
370
     9
100
AcDbVertex
100
AcDb2dVertex
 10
94.40491842486321
 20
-136.0161532993293
 30
0.0
  0
SEQEND
  5
107
330
104
100
AcDbEntity
  8
_U+30EC_U+30A4_U+30E4_U+30FC 1
 62
   179
420
  2234388
370
     9
  0
INSERT
  5
109
330
41
100
AcDbEntity
  8
_U+30EC_U+30A4_U+30E4_U+30FC 1
100
AcDbBlockReference
  2
block 5
 10
0.0
 20
0.0
 30
0.0
  0
POLYLINE
  5
130
330
41
100
AcDbEntity
  8
_U+30EC_U+30A4_U+30E4_U+30FC 1
  6
AI-Linetype-1
 62
   154
420
    23468
370
    25
100
AcDb2dPolyline
 66
     1
 10
0.0
 20
0.0
 30
0.0
  0
VERTEX
  5
131
330
130
100
AcDbEntity
  8
_U+30EC_U+30A4_U+30E4_U+30FC 1
  6
AI-Linetype-1
 62
   154
420
    23468
370
    25
100
AcDbVertex
100
AcDb2dVertex
 10
50.41518871380138
 20
-137.2991002434527
 30
0.0
  0
VERTEX
  5
132
330
130
100
AcDbEntity
  8
_U+30EC_U+30A4_U+30E4_U+30FC 1
  6
AI-Linetype-1
 62
   154
420
    23468
370
    25
100
AcDbVertex
100
AcDb2dVertex
 10
61.9824189742523
 20
-134.1048032998073
 30
0.0
  0
SEQEND
  5
134
330
130
100
AcDbEntity
  8
_U+30EC_U+30A4_U+30E4_U+30FC 1
  6
AI-Linetype-1
 62
   154
420
    23468
370
    25
  0
POLYLINE
  5
135
330
41
100
AcDbEntity
  8
_U+30EC_U+30A4_U+30E4_U+30FC 1
 62
   179
420
  2234388
370
     9
100
AcDb2dPolyline
 66
     1
 10
0.0
 20
0.0
 30
0.0
  0
VERTEX
  5
136
330
135
100
AcDbEntity
  8
_U+30EC_U+30A4_U+30E4_U+30FC 1
 62
   179
420
  2234388
370
     9
100
AcDbVertex
100
AcDb2dVertex
 10
77.3144935830985
 20
-119.9613424700095
 30
0.0
  0
VERTEX
  5
137
330
135
100
AcDbEntity
  8
_U+30EC_U+30A4_U+30E4_U+30FC 1
 62
   179
420
  2234388
370
     9
100
AcDbVertex
100
AcDb2dVertex
 10
77.3144935830985
 20
-125.8434885796503
 30
0.0
  0
SEQEND
  5
138
330
135
100
AcDbEntity
  8
_U+30EC_U+30A4_U+30E4_U+30FC 1
 62
   179
420
  2234388
370
     9
  0
POLYLINE
  5
139
330
41
100
AcDbEntity
  8
_U+30EC_U+30A4_U+30E4_U+30FC 1
 62
   179
420
  2234388
370
    25
100
AcDb2dPolyline
 66
     1
 10
0.0
 20
0.0
 30
0.0
  0
VERTEX
  5
13A
330
139
100
AcDbEntity
  8
_U+30EC_U+30A4_U+30E4_U+30FC 1
 62
   179
420
  2234388
370
    25
100
AcDbVertex
100
AcDb2dVertex
 10
73.14660063387475
 20
-129.0536252455142
 30
0.0
  0
VERTEX
  5
13B
330
139
100
AcDbEntity
  8
_U+30EC_U+30A4_U+30E4_U+30FC 1
 62
   179
420
  2234388
370
    25
100
AcDbVertex
100
AcDb2dVertex
 10
73.52901173522974
 20
-130.2394171896624
 30
0.0
  0
SEQEND
  5
13C
330
139
100
AcDbEntity
  8
_U+30EC_U+30A4_U+30E4_U+30FC 1
 62
   179
420
  2234388
370
    25
  0
POLYLINE
  5
13D
330
41
100
AcDbEntity
  8
_U+30EC_U+30A4_U+30E4_U+30FC 1
 62
   179
420
  2234388
370
     9
100
AcDb2dPolyline
 66
     1
 10
0.0
 20
0.0
 30
0.0
  0
VERTEX
  5
13E
330
13D
100
AcDbEntity
  8
_U+30EC_U+30A4_U+30E4_U+30FC 1
 62
   179
420
  2234388
370
     9
100
AcDbVertex
100
AcDb2dVertex
 10
76.98376442486943
 20
-124.6087663577367
 30
0.0
  0
VERTEX
  5
13F
330
13D
100
AcDbEntity
  8
_U+30EC_U+30A4_U+30E4_U+30FC 1
 62
   179
420
  2234388
370
     9
100
AcDbVertex
100
AcDb2dVertex
 10
77.3144935830985
 20
-125.8434885796503
 30
0.0
  0
SEQEND
  5
140
330
13D
100
AcDbEntity
  8
_U+30EC_U+30A4_U+30E4_U+30FC 1
 62
   179
420
  2234388
370
     9
  0
POLYLINE
  5
141
330
41
100
AcDbEntity
  8
_U+30EC_U+30A4_U+30E4_U+30FC 1
 62
   179
420
  2234388
370
     9
100
AcDb2dPolyline
 66
     1
 10
0.0
 20
0.0
 30
0.0
  0
VERTEX
  5
142
330
141
100
AcDbEntity
  8
_U+30EC_U+30A4_U+30E4_U+30FC 1
 62
   179
420
  2234388
370
     9
100
AcDbVertex
100
AcDb2dVertex
 10
77.64522274132756
 20
-124.6087663577367
 30
0.0
  0
VERTEX
  5
143
330
141
100
AcDbEntity
  8
_U+30EC_U+30A4_U+30E4_U+30FC 1
 62
   179
420
  2234388
370
     9
100
AcDbVertex
100
AcDb2dVertex
 10
77.3144935830985
 20
-125.8434885796503
 30
0.0
  0
SEQEND
  5
144
330
141
100
AcDbEntity
  8
_U+30EC_U+30A4_U+30E4_U+30FC 1
 62
   179
420
  2234388
370
     9
  0
SPLINE
  5
145
330
41
100
AcDbEntity
  8
_U+30EC_U+30A4_U+30E4_U+30FC 1
 62
   179
420
  2234388
370
     9
100
AcDbSpline
210
0.0
220
0.0
230
1.0
 70
    11
 71
     3
 72
    17
 73
    13
 74
     0
 42
0.0000000001
 43
0.0000000001
 12
1.0
 22
0.0
 32
0.0
 13
1.0
 23
0.0
 33
0.0
 40
0.0
 40
0.0
 40
0.0
 40
0.0
 40
1.0
 40
1.0
 40
1.0
 40
2.0
 40
2.0
 40
2.0
 40
3.0
 40
3.0
 40
3.0
 40
4.0
 40
4.0
 40
4.0
 40
4.0
 10
75.30944585647374
 20
-122.7924899693018
 30
0.0
 10
75.30944585647374
 20
-122.7215463582084
 30
0.0
 10
75.25226058015488
 20
-122.664361080445
 30
0.0
 10
75.18198724861438
 20
-122.664361080445
 30
0.0
 10
75.11168053677763
 20
-122.664361080445
 30
0.0
 10
75.05382498123662
 20
-122.7215463582084
 30
0.0
 10
75.05382498123662
 20
-122.7924899693018
 30
0.0
 10
75.05382498123662
 20
-122.8627985803954
 30
0.0
 10
75.11168053677763
 20
-122.9199838581588
 30
0.0
 10
75.18198724861438
 20
-122.9199838581588
 30
0.0
 10
75.25226058015488
 20
-122.9199838581588
 30
0.0
 10
75.30944585647374
 20
-122.8627985803954
 30
0.0
 10
75.30944585647374
 20
-122.7924899693018
 30
0.0
  0
SPLINE
  5
146
330
41
100
AcDbEntity
  8
_U+30EC_U+30A4_U+30E4_U+30FC 1
 62
   179
420
  2234388
370
     9
100
AcDbSpline
210
0.0
220
0.0
230
1.0
 70
    11
 71
     3
 72
    17
 73
    13
 74
     0
 42
0.0000000001
 43
0.0000000001
 12
1.0
 22
0.0
 32
0.0
 13
1.0
 23
0.0
 33
0.0
 40
0.0
 40
0.0
 40
0.0
 40
0.0
 40
1.0
 40
1.0
 40
1.0
 40
2.0
 40
2.0
 40
2.0
 40
3.0
 40
3.0
 40
3.0
 40
4.0
 40
4.0
 40
4.0
 40
4.0
 10
48.62925125936444
 20
-131.2853680227339
 30
0.0
 10
48.62925125936444
 20
-131.2150594116409
 30
0.0
 10
48.57136042750803
 20
-131.157874133877
 30
0.0
 10
48.50108709596751
 20
-131.157874133877
 30
0.0
 10
48.43081376442701
 20
-131.157874133877
 30
0.0
 10
48.37362848810815
 20
-131.2150594116409
 30
0.0
 10
48.37362848810815
 20
-131.2853680227339
 30
0.0
 10
48.37362848810815
 20
-131.3563116338274
 30
0.0
 10
48.43081376442701
 20
-131.4134969115913
 30
0.0
 10
48.50108709596751
 20
-131.4134969115913
 30
0.0
 10
48.57136042750803
 20
-131.4134969115913
 30
0.0
 10
48.62925125936444
 20
-131.3563116338274
 30
0.0
 10
48.62925125936444
 20
-131.2853680227339
 30
0.0
  0
INSERT
  5
148
330
41
100
AcDbEntity
  8
_U+30EC_U+30A4_U+30E4_U+30FC 1
100
AcDbBlockReference
  2
block 6
 10
0.0
 20
0.0
 30
0.0
  0
POLYLINE
  5
151
330
41
100
AcDbEntity
  8
_U+30EC_U+30A4_U+30E4_U+30FC 1
 62
   179
420
  2234388
370
     9
100
AcDb2dPolyline
 66
     1
 10
0.0
 20
0.0
 30
0.0
  0
VERTEX
  5
152
330
151
100
AcDbEntity
  8
_U+30EC_U+30A4_U+30E4_U+30FC 1
 62
   179
420
  2234388
370
     9
100
AcDbVertex
100
AcDb2dVertex
 10
75.18198724861438
 20
-122.7924899693018
 30
0.0
  0
VERTEX
  5
153
330
151
100
AcDbEntity
  8
_U+30EC_U+30A4_U+30E4_U+30FC 1
 62
   179
420
  2234388
370
     9
100
AcDbVertex
100
AcDb2dVertex
 10
48.50108709596751
 20
-131.2853680227339
 30
0.0
  0
SEQEND
  5
154
330
151
100
AcDbEntity
  8
_U+30EC_U+30A4_U+30E4_U+30FC 1
 62
   179
420
  2234388
370
     9
  0
POLYLINE
  5
155
330
41
100
AcDbEntity
  8
_U+30EC_U+30A4_U+30E4_U+30FC 1
 62
   179
420
  2234388
370
     9
100
AcDb2dPolyline
 66
     1
 10
0.0
 20
0.0
 30
0.0
  0
VERTEX
  5
156
330
155
100
AcDbEntity
  8
_U+30EC_U+30A4_U+30E4_U+30FC 1
 62
   179
420
  2234388
370
     9
100
AcDbVertex
100
AcDb2dVertex
 10
76.32989083044002
 20
-126.3974555239563
 30
0.0
  0
VERTEX
  5
157
330
155
100
AcDbEntity
  8
_U+30EC_U+30A4_U+30E4_U+30FC 1
 62
   179
420
  2234388
370
     9
100
AcDbVertex
100
AcDb2dVertex
 10
74.79403753628958
 20
-121.574313025162
 30
0.0
  0
SEQEND
  5
158
330
155
100
AcDbEntity
  8
_U+30EC_U+30A4_U+30E4_U+30FC 1
 62
   179
420
  2234388
370
     9
  0
SPLINE
  5
159
330
41
100
AcDbEntity
  8
_U+30EC_U+30A4_U+30E4_U+30FC 1
 62
   179
420
  2234388
370
     9
100
AcDbSpline
210
0.0
220
0.0
230
1.0
 70
    11
 71
     3
 72
    17
 73
    13
 74
     0
 42
0.0000000001
 43
0.0000000001
 12
1.0
 22
0.0
 32
0.0
 13
1.0
 23
0.0
 33
0.0
 40
0.0
 40
0.0
 40
0.0
 40
0.0
 40
1.0
 40
1.0
 40
1.0
 40
2.0
 40
2.0
 40
2.0
 40
3.0
 40
3.0
 40
3.0
 40
4.0
 40
4.0
 40
4.0
 40
4.0
 10
79.32021158748393
 20
-122.7924899693018
 30
0.0
 10
79.32021158748393
 20
-122.7215463582084
 30
0.0
 10
79.37739686380279
 20
-122.664361080445
 30
0.0
 10
79.44770547312017
 20
-122.664361080445
 30
0.0
 10
79.51797880466069
 20
-122.664361080445
 30
0.0
 10
79.57583435874022
 20
-122.7215463582084
 30
0.0
 10
79.57583435874022
 20
-122.7924899693018
 30
0.0
 10
79.57583435874022
 20
-122.8627985803954
 30
0.0
 10
79.51797880466069
 20
-122.9199838581588
 30
0.0
 10
79.44770547312017
 20
-122.9199838581588
 30
0.0
 10
79.37739686380279
 20
-122.9199838581588
 30
0.0
 10
79.32021158748393
 20
-122.8627985803954
 30
0.0
 10
79.32021158748393
 20
-122.7924899693018
 30
0.0
  0
POLYLINE
  5
15A
330
41
100
AcDbEntity
  8
_U+30EC_U+30A4_U+30E4_U+30FC 1
 62
   179
420
  2234388
370
     9
100
AcDb2dPolyline
 66
     1
 10
0.0
 20
0.0
 30
0.0
  0
VERTEX
  5
15B
330
15A
100
AcDbEntity
  8
_U+30EC_U+30A4_U+30E4_U+30FC 1
 62
   179
420
  2234388
370
     9
100
AcDbVertex
100
AcDb2dVertex
 10
78.29976661351765
 20
-126.3974555239563
 30
0.0
  0
VERTEX
  5
15C
330
15A
100
AcDbEntity
  8
_U+30EC_U+30A4_U+30E4_U+30FC 1
 62
   179
420
  2234388
370
     9
100
AcDbVertex
100
AcDb2dVertex
 10
79.83561990766809
 20
-121.574313025162
 30
0.0
  0
SEQEND
  5
15D
330
15A
100
AcDbEntity
  8
_U+30EC_U+30A4_U+30E4_U+30FC 1
 62
   179
420
  2234388
370
     9
  0
POLYLINE
  5
15E
330
41
100
AcDbEntity
  8
_U+30EC_U+30A4_U+30E4_U+30FC 1
 62
   179
420
  2234388
370
     9
100
AcDb2dPolyline
 66
     1
 10
0.0
 20
0.0
 30
0.0
  0
VERTEX
  5
15F
330
15E
100
AcDbEntity
  8
_U+30EC_U+30A4_U+30E4_U+30FC 1
 62
   179
420
  2234388
370
     9
100
AcDbVertex
100
AcDb2dVertex
 10
49.06747180374006
 20
-133.0637208000675
 30
0.0
  0
VERTEX
  5
160
330
15E
100
AcDbEntity
  8
_U+30EC_U+30A4_U+30E4_U+30FC 1
 62
   179
420
  2234388
370
     9
100
AcDbVertex
100
AcDb2dVertex
 10
48.11384293918027
 20
-130.0671558008163
 30
0.0
  0
SEQEND
  5
161
330
15E
100
AcDbEntity
  8
_U+30EC_U+30A4_U+30E4_U+30FC 1
 62
   179
420
  2234388
370
     9
  0
INSERT
  5
163
330
41
100
AcDbEntity
  8
_U+30EC_U+30A4_U+30E4_U+30FC 1
100
AcDbBlockReference
  2
block 7
 10
0.0
 20
0.0
 30
0.0
  0
POLYLINE
  5
16C
330
41
100
AcDbEntity
  8
_U+30EC_U+30A4_U+30E4_U+30FC 1
 62
   179
420
  2234388
370
    25
100
AcDb2dPolyline
 66
     1
 10
0.0
 20
0.0
 30
0.0
  0
VERTEX
  5
16D
330
16C
100
AcDbEntity
  8
_U+30EC_U+30A4_U+30E4_U+30FC 1
 62
   179
420
  2234388
370
    25
100
AcDbVertex
100
AcDb2dVertex
 10
81.49064153211164
 20
-128.9964399677509
 30
0.0
  0
VERTEX
  5
16E
330
16C
100
AcDbEntity
  8
_U+30EC_U+30A4_U+30E4_U+30FC 1
 62
   179
420
  2234388
370
    25
100
AcDbVertex
100
AcDb2dVertex
 10
81.09239070893854
 20
-130.2394171896624
 30
0.0
  0
SEQEND
  5
16F
330
16C
100
AcDbEntity
  8
_U+30EC_U+30A4_U+30E4_U+30FC 1
 62
   179
420
  2234388
370
    25
  0
SPLINE
  5
170
330
41
100
AcDbEntity
  8
_U+30EC_U+30A4_U+30E4_U+30FC 1
 62
   179
420
  2234388
370
     9
100
AcDbSpline
210
0.0
220
0.0
230
1.0
 70
    11
 71
     3
 72
    17
 73
    13
 74
     0
 42
0.0000000001
 43
0.0000000001
 12
1.0
 22
0.0
 32
0.0
 13
1.0
 23
0.0
 33
0.0
 40
0.0
 40
0.0
 40
0.0
 40
0.0
 40
1.0
 40
1.0
 40
1.0
 40
2.0
 40
2.0
 40
2.0
 40
3.0
 40
3.0
 40
3.0
 40
4.0
 40
4.0
 40
4.0
 40
4.0
 10
106.0004061845932
 20
-131.2853680227339
 30
0.0
 10
106.0004061845932
 20
-131.2150594116409
 30
0.0
 10
106.0582970164496
 20
-131.157874133877
 30
0.0
 10
106.1285703479902
 20
-131.157874133877
 30
0.0
 10
106.1988436795307
 20
-131.157874133877
 30
0.0
 10
106.2560289558495
 20
-131.2150594116409
 30
0.0
 10
106.2560289558495
 20
-131.2853680227339
 30
0.0
 10
106.2560289558495
 20
-131.3563116338274
 30
0.0
 10
106.1988436795307
 20
-131.4134969115913
 30
0.0
 10
106.1285703479902
 20
-131.4134969115913
 30
0.0
 10
106.0582970164496
 20
-131.4134969115913
 30
0.0
 10
106.0004061845932
 20
-131.3563116338274
 30
0.0
 10
106.0004061845932
 20
-131.2853680227339
 30
0.0
  0
POLYLINE
  5
171
330
41
100
AcDbEntity
  8
_U+30EC_U+30A4_U+30E4_U+30FC 1
 62
   179
420
  2234388
370
     9
100
AcDb2dPolyline
 66
     1
 10
0.0
 20
0.0
 30
0.0
  0
VERTEX
  5
172
330
171
100
AcDbEntity
  8
_U+30EC_U+30A4_U+30E4_U+30FC 1
 62
   179
420
  2234388
370
     9
100
AcDbVertex
100
AcDb2dVertex
 10
79.44770547312017
 20
-122.7924899693018
 30
0.0
  0
VERTEX
  5
173
330
171
100
AcDbEntity
  8
_U+30EC_U+30A4_U+30E4_U+30FC 1
 62
   179
420
  2234388
370
     9
100
AcDbVertex
100
AcDb2dVertex
 10
106.1285703479902
 20
-131.2853680227339
 30
0.0
  0
SEQEND
  5
174
330
171
100
AcDbEntity
  8
_U+30EC_U+30A4_U+30E4_U+30FC 1
 62
   179
420
  2234388
370
     9
  0
POLYLINE
  5
175
330
41
100
AcDbEntity
  8
_U+30EC_U+30A4_U+30E4_U+30FC 1
 62
   179
420
  2234388
370
     9
100
AcDb2dPolyline
 66
     1
 10
0.0
 20
0.0
 30
0.0
  0
VERTEX
  5
176
330
175
100
AcDbEntity
  8
_U+30EC_U+30A4_U+30E4_U+30FC 1
 62
   179
420
  2234388
370
     9
100
AcDbVertex
100
AcDb2dVertex
 10
105.5621856402176
 20
-133.0637208000675
 30
0.0
  0
VERTEX
  5
177
330
175
100
AcDbEntity
  8
_U+30EC_U+30A4_U+30E4_U+30FC 1
 62
   179
420
  2234388
370
     9
100
AcDbVertex
100
AcDb2dVertex
 10
106.5158145047774
 20
-130.0671558008163
 30
0.0
  0
SEQEND
  5
178
330
175
100
AcDbEntity
  8
_U+30EC_U+30A4_U+30E4_U+30FC 1
 62
   179
420
  2234388
370
     9
  0
SPLINE
  5
179
330
41
100
AcDbEntity
  8
_U+30EC_U+30A4_U+30E4_U+30FC 1
 62
   179
420
  2234388
370
    25
100
AcDbSpline
210
0.0
220
0.0
230
1.0
 70
    11
 71
     3
 72
    35
 73
    31
 74
     0
 42
0.0000000001
 43
0.0000000001
 12
1.0
 22
0.0
 32
0.0
 13
1.0
 23
0.0
 33
0.0
 40
0.0
 40
0.0
 40
0.0
 40
0.0
 40
1.0
 40
1.0
 40
1.0
 40
2.0
 40
2.0
 40
2.0
 40
3.0
 40
3.0
 40
3.0
 40
4.0
 40
4.0
 40
4.0
 40
5.0
 40
5.0
 40
5.0
 40
6.0
 40
6.0
 40
6.0
 40
7.0
 40
7.0
 40
7.0
 40
8.0
 40
8.0
 40
8.0
 40
9.0
 40
9.0
 40
9.0
 40
10.0
 40
10.0
 40
10.0
 40
10.0
 10
77.31516386085917
 20
-127.9622013568983
 30
0.0
 10
77.87258801330476
 20
-127.9622013568983
 30
0.0
 10
78.43068244351103
 20
-128.0455980235441
 30
0.0
 10
78.9681393742438
 20
-128.2123208012802
 30
0.0
 10
78.9681393742438
 20
-128.2123208012802
 30
0.0
 10
104.5596617769052
 20
-136.2145907992797
 30
0.0
 10
104.5596617769052
 20
-136.2145907992797
 30
0.0
 10
104.5596617769052
 20
-136.2145907992797
 30
0.0
 10
104.4018995587079
 20
-136.7099966324893
 30
0.0
 10
104.4018995587079
 20
-136.7099966324893
 30
0.0
 10
104.4018995587079
 20
-136.7099966324893
 30
0.0
 10
78.25983217009201
 20
-129.4601310787459
 30
0.0
 10
78.25983217009201
 20
-129.4601310787459
 30
0.0
 10
77.950446066874
 20
-129.3802269120996
 30
0.0
 10
77.63280496386659
 20
-129.3395516343315
 30
0.0
 10
77.31516386085917
 20
-129.3395516343315
 30
0.0
 10
76.99752275785177
 20
-129.3395516343315
 30
0.0
 10
76.67921137708367
 20
-129.3802269120996
 30
0.0
 10
76.36982527386566
 20
-129.4601310787459
 30
0.0
 10
76.36982527386566
 20
-129.4601310787459
 30
0.0
 10
50.22775788524981
 20
-136.7099966324893
 30
0.0
 10
50.22775788524981
 20
-136.7099966324893
 30
0.0
 10
50.22775788524981
 20
-136.7099966324893
 30
0.0
 10
50.06999566705243
 20
-136.2145907992797
 30
0.0
 10
50.06999566705243
 20
-136.2145907992797
 30
0.0
 10
50.06999566705243
 20
-136.2145907992797
 30
0.0
 10
75.66151806971386
 20
-128.2123208012802
 30
0.0
 10
75.66151806971386
 20
-128.2123208012802
 30
0.0
 10
76.19964720317225
 20
-128.0455980235441
 30
0.0
 10
76.7570694306529
 20
-127.9622013568983
 30
0.0
 10
77.31516386085917
 20
-127.9622013568983
 30
0.0
  0
POLYLINE
  5
17A
330
41
100
AcDbEntity
  8
_U+30EC_U+30A4_U+30E4_U+30FC 1
  6
AI-Linetype-2
 62
   154
420
    23468
370
    25
100
AcDb2dPolyline
 66
     1
 10
0.0
 20
0.0
 30
0.0
  0
VERTEX
  5
17B
330
17A
100
AcDbEntity
  8
_U+30EC_U+30A4_U+30E4_U+30FC 1
  6
AI-Linetype-2
 62
   154
420
    23468
370
    25
100
AcDbVertex
100
AcDb2dVertex
 10
104.2144687301563
 20
-137.2991002434527
 30
0.0
  0
VERTEX
  5
17C
330
17A
100
AcDbEntity
  8
_U+30EC_U+30A4_U+30E4_U+30FC 1
  6
AI-Linetype-2
 62
   154
420
    23468
370
    25
100
AcDbVertex
100
AcDb2dVertex
 10
92.64723846970537
 20
-134.1048032998073
 30
0.0
  0
SEQEND
  5
17E
330
17A
100
AcDbEntity
  8
_U+30EC_U+30A4_U+30E4_U+30FC 1
  6
AI-Linetype-2
 62
   154
420
    23468
370
    25
  0
ENDBLK
  5
44
330
41
100
AcDbEntity
  8
0
100
AcDbBlockEnd
  0
BLOCK
  5
47
330
45
100
AcDbEntity
  8
0
100
AcDbBlockBegin
  2
block 3
 70
     0
 10
0.0
 20
0.0
 30
0.0
  3
block 3
  1

  0
SPLINE
  5
49
330
45
100
AcDbEntity
  8
_U+30EC_U+30A4_U+30E4_U+30FC 1
370
     0
100
AcDbSpline
210
0.0
220
0.0
230
1.0
 70
    11
 71
     3
 72
   197
 73
   193
 74
     0
 42
0.0000000001
 43
0.0000000001
 12
1.0
 22
0.0
 32
0.0
 13
1.0
 23
0.0
 33
0.0
 40
0.0
 40
0.0
 40
0.0
 40
0.0
 40
1.0
 40
1.0
 40
1.0
 40
2.0
 40
2.0
 40
2.0
 40
3.0
 40
3.0
 40
3.0
 40
4.0
 40
4.0
 40
4.0
 40
5.0
 40
5.0
 40
5.0
 40
6.0
 40
6.0
 40
6.0
 40
7.0
 40
7.0
 40
7.0
 40
8.0
 40
8.0
 40
8.0
 40
9.0
 40
9.0
 40
9.0
 40
10.0
 40
10.0
 40
10.0
 40
11.0
 40
11.0
 40
11.0
 40
12.0
 40
12.0
 40
12.0
 40
13.0
 40
13.0
 40
13.0
 40
14.0
 40
14.0
 40
14.0
 40
15.0
 40
15.0
 40
15.0
 40
16.0
 40
16.0
 40
16.0
 40
17.0
 40
17.0
 40
17.0
 40
18.0
 40
18.0
 40
18.0
 40
19.0
 40
19.0
 40
19.0
 40
20.0
 40
20.0
 40
20.0
 40
21.0
 40
21.0
 40
21.0
 40
22.0
 40
22.0
 40
22.0
 40
23.0
 40
23.0
 40
23.0
 40
24.0
 40
24.0
 40
24.0
 40
25.0
 40
25.0
 40
25.0
 40
26.0
 40
26.0
 40
26.0
 40
27.0
 40
27.0
 40
27.0
 40
28.0
 40
28.0
 40
28.0
 40
29.0
 40
29.0
 40
29.0
 40
30.0
 40
30.0
 40
30.0
 40
31.0
 40
31.0
 40
31.0
 40
32.0
 40
32.0
 40
32.0
 40
33.0
 40
33.0
 40
33.0
 40
34.0
 40
34.0
 40
34.0
 40
35.0
 40
35.0
 40
35.0
 40
36.0
 40
36.0
 40
36.0
 40
37.0
 40
37.0
 40
37.0
 40
38.0
 40
38.0
 40
38.0
 40
39.0
 40
39.0
 40
39.0
 40
40.0
 40
40.0
 40
40.0
 40
41.0
 40
41.0
 40
41.0
 40
42.0
 40
42.0
 40
42.0
 40
43.0
 40
43.0
 40
43.0
 40
44.0
 40
44.0
 40
44.0
 40
45.0
 40
45.0
 40
45.0
 40
46.0
 40
46.0
 40
46.0
 40
47.0
 40
47.0
 40
47.0
 40
48.0
 40
48.0
 40
48.0
 40
49.0
 40
49.0
 40
49.0
 40
50.0
 40
50.0
 40
50.0
 40
51.0
 40
51.0
 40
51.0
 40
52.0
 40
52.0
 40
52.0
 40
53.0
 40
53.0
 40
53.0
 40
54.0
 40
54.0
 40
54.0
 40
55.0
 40
55.0
 40
55.0
 40
56.0
 40
56.0
 40
56.0
 40
57.0
 40
57.0
 40
57.0
 40
58.0
 40
58.0
 40
58.0
 40
59.0
 40
59.0
 40
59.0
 40
60.0
 40
60.0
 40
60.0
 40
61.0
 40
61.0
 40
61.0
 40
62.0
 40
62.0
 40
62.0
 40
63.0
 40
63.0
 40
63.0
 40
64.0
 40
64.0
 40
64.0
 40
64.0
 10
74.99232175859568
 20
-117.0364393153589
 30
0.0
 10
74.9816419625914
 20
-117.0660671365321
 30
0.0
 10
74.9582153132917
 20
-117.112575925583
 30
0.0
 10
74.94788002683595
 20
-117.1399644346907
 30
0.0
 10
74.94788002683595
 20
-117.1399644346907
 30
0.0
 10
74.8865573271985
 20
-117.292409909913
 30
0.0
 10
74.8865573271985
 20
-117.292409909913
 30
0.0
 10
74.87587753119423
 20
-117.3177313617296
 30
0.0
 10
74.8273016848522
 20
-117.4298692197745
 30
0.0
 10
74.81455483155678
 20
-117.4531236142999
 30
0.0
 10
74.81248777426563
 20
-117.4594970409476
 30
0.0
 10
74.80800915013481
 20
-117.4679375248865
 30
0.0
 10
74.80594209284365
 20
-117.4743109515342
 30
0.0
 10
74.80594209284365
 20
-117.4743109515342
 30
0.0
 10
74.59648028734047
 20
-117.4214287358356
 30
0.0
 10
74.59648028734047
 20
-117.4214287358356
 30
0.0
 10
74.67502846440416
 20
-117.3113579350819
 30
0.0
 10
74.73635116404161
 20
-117.1759656825116
 30
0.0
 10
74.76804604250592
 20
-117.0660671365321
 30
0.0
 10
74.76804604250592
 20
-117.0660671365321
 30
0.0
 10
74.30261364244866
 20
-117.0660671365321
 30
0.0
 10
74.30261364244866
 20
-117.0660671365321
 30
0.0
 10
74.22199840809381
 20
-117.2309149555013
 30
0.0
 10
74.15447453658291
 20
-117.3092908777907
 30
0.0
 10
74.12071260082746
 20
-117.3494262401939
 30
0.0
 10
74.12071260082746
 20
-117.3494262401939
 30
0.0
 10
73.99806720155257
 20
-117.2837971711999
 30
0.0
 10
73.99806720155257
 20
-117.2837971711999
 30
0.0
 10
73.99806720155257
 20
-117.2837971711999
 30
0.0
 10
73.99806720155257
 20
-117.4551906715911
 30
0.0
 10
73.99806720155257
 20
-117.4551906715911
 30
0.0
 10
73.99806720155257
 20
-117.5631944150537
 30
0.0
 10
74.00013425884372
 20
-117.6117702613957
 30
0.0
 10
74.01046954529947
 20
-117.7175346927928
 30
0.0
 10
73.93881155920627
 20
-117.7154676355017
 30
0.0
 10
73.91745196719772
 20
-117.7154676355017
 30
0.0
 10
73.71246878582537
 20
-117.7154676355017
 30
0.0
 10
73.71246878582537
 20
-117.7154676355017
 30
0.0
 10
73.65734725806136
 20
-117.7154676355017
 30
0.0
 10
73.65734725806136
 20
-117.7154676355017
 30
0.0
 10
73.65734725806136
 20
-117.7154676355017
 30
0.0
 10
73.65734725806136
 20
-117.850859888072
 30
0.0
 10
73.65734725806136
 20
-117.850859888072
 30
0.0
 10
73.65734725806136
 20
-117.850859888072
 30
0.0
 10
73.72934975370308
 20
-117.850859888072
 30
0.0
 10
73.72934975370308
 20
-117.850859888072
 30
0.0
 10
73.79480656792283
 20
-117.850859888072
 30
0.0
 10
73.94087861649743
 20
-117.8465535187155
 30
0.0
 10
74.04664304789459
 20
-117.8381130347766
 30
0.0
 10
74.04664304789459
 20
-117.8381130347766
 30
0.0
 10
74.04664304789459
 20
-118.0158799618155
 30
0.0
 10
74.04664304789459
 20
-118.0158799618155
 30
0.0
 10
73.94914684566203
 20
-118.0095065351678
 30
0.0
 10
73.79067245334053
 20
-118.0052001658112
 30
0.0
 10
73.72934975370308
 20
-118.0052001658112
 30
0.0
 10
73.72934975370308
 20
-118.0052001658112
 30
0.0
 10
73.65734725806136
 20
-118.0052001658112
 30
0.0
 10
73.65734725806136
 20
-118.0052001658112
 30
0.0
 10
73.6594143153525
 20
-118.0940836293307
 30
0.0
 10
73.6635484299348
 20
-118.333173256007
 30
0.0
 10
73.66561548722596
 20
-118.4072428089399
 30
0.0
 10
73.66561548722596
 20
-118.4072428089399
 30
0.0
 10
73.4647664204359
 20
-118.4072428089399
 30
0.0
 10
73.4647664204359
 20
-118.4072428089399
 30
0.0
 10
73.47751327373132
 20
-118.1934746340801
 30
0.0
 10
73.47751327373132
 20
-118.163846812907
 30
0.0
 10
73.48164738831362
 20
-118.0052001658112
 30
0.0
 10
73.48164738831362
 20
-118.0052001658112
 30
0.0
 10
73.41205645951158
 20
-118.0052001658112
 30
0.0
 10
73.41205645951158
 20
-118.0052001658112
 30
0.0
 10
73.35486787445643
 20
-118.0052001658112
 30
0.0
 10
73.20259465400838
 20
-118.0095065351678
 30
0.0
 10
73.09235159848039
 20
-118.0158799618155
 30
0.0
 10
73.09235159848039
 20
-118.0158799618155
 30
0.0
 10
73.09235159848039
 20
-117.8381130347766
 30
0.0
 10
73.09235159848039
 20
-117.8381130347766
 30
0.0
 10
73.19811602987755
 20
-117.8465535187155
 30
0.0
 10
73.342121021161
 20
-117.850859888072
 30
0.0
 10
73.41205645951158
 20
-117.850859888072
 30
0.0
 10
73.41205645951158
 20
-117.850859888072
 30
0.0
 10
73.48578150289592
 20
-117.850859888072
 30
0.0
 10
73.48578150289592
 20
-117.850859888072
 30
0.0
 10
73.48578150289592
 20
-117.850859888072
 30
0.0
 10
73.48578150289592
 20
-117.7154676355017
 30
0.0
 10
73.48578150289592
 20
-117.7154676355017
 30
0.0
 10
73.48578150289592
 20
-117.7154676355017
 30
0.0
 10
73.44168428068473
 20
-117.7154676355017
 30
0.0
 10
73.44168428068473
 20
-117.7154676355017
 30
0.0
 10
73.36520316091217
 20
-117.7154676355017
 30
0.0
 10
73.17296683283523
 20
-117.7175346927928
 30
0.0
 10
73.13886038753127
 20
-117.7175346927928
 30
0.0
 10
73.14540606895324
 20
-117.6457044519254
 30
0.0
 10
73.15367429811783
 20
-117.5652614723448
 30
0.0
 10
73.15367429811783
 20
-117.4446831303611
 30
0.0
 10
73.15367429811783
 20
-117.4446831303611
 30
0.0
 10
73.15367429811783
 20
-117.2712225726787
 30
0.0
 10
73.15367429811783
 20
-117.2712225726787
 30
0.0
 10
73.15367429811783
 20
-117.199220077037
 30
0.0
 10
73.14540606895324
 20
-117.0786417350533
 30
0.0
 10
73.13886038753127
 20
-116.9981987554727
 30
0.0
 10
73.21740856459496
 20
-117.0025051248292
 30
0.0
 10
73.25530461493271
 20
-117.0045721821204
 30
0.0
 10
73.38242863833842
 20
-117.0045721821204
 30
0.0
 10
73.38242863833842
 20
-117.0045721821204
 30
0.0
 10
73.48578150289592
 20
-117.0045721821204
 30
0.0
 10
73.48578150289592
 20
-117.0045721821204
 30
0.0
 10
73.48578150289592
 20
-117.0045721821204
 30
0.0
 10
73.48578150289592
 20
-116.8586723883201
 30
0.0
 10
73.48578150289592
 20
-116.8586723883201
 30
0.0
 10
73.48578150289592
 20
-116.8586723883201
 30
0.0
 10
73.40757783538075
 20
-116.8586723883201
 30
0.0
 10
73.40757783538075
 20
-116.8586723883201
 30
0.0
 10
73.35280081716527
 20
-116.8586723883201
 30
0.0
 10
73.18123506199983
 20
-116.8628065029024
 30
0.0
 10
73.09683022261122
 20
-116.8691799295501
 30
0.0
 10
73.09683022261122
 20
-116.8691799295501
 30
0.0
 10
73.09683022261122
 20
-116.6915852572854
 30
0.0
 10
73.09683022261122
 20
-116.6915852572854
 30
0.0
 10
73.17916800470869
 20
-116.6979586839332
 30
0.0
 10
73.342121021161
 20
-116.7020927985155
 30
0.0
 10
73.40757783538075
 20
-116.7020927985155
 30
0.0
 10
73.40757783538075
 20
-116.7020927985155
 30
0.0
 10
73.48578150289592
 20
-116.7020927985155
 30
0.0
 10
73.48578150289592
 20
-116.7020927985155
 30
0.0
 10
73.48578150289592
 20
-116.66833086276
 30
0.0
 10
73.48164738831362
 20
-116.5138183302466
 30
0.0
 10
73.48164738831362
 20
-116.4821234517823
 30
0.0
 10
73.48164738831362
 20
-116.4821234517823
 30
0.0
 10
73.67836234052139
 20
-116.49900441966
 30
0.0
 10
73.67836234052139
 20
-116.49900441966
 30
0.0
 10
73.69524330839911
 20
-116.5010714769511
 30
0.0
 10
73.71660290040766
 20
-116.5033107890165
 30
0.0
 10
73.71660290040766
 20
-116.5244981262508
 30
0.0
 10
73.71660290040766
 20
-116.5477525207763
 30
0.0
 10
73.69524330839911
 20
-116.5561930047151
 30
0.0
 10
73.66802705406563
 20
-116.5687676032363
 30
0.0
 10
73.66802705406563
 20
-116.5899549404706
 30
0.0
 10
73.66561548722596
 20
-116.6852118306377
 30
0.0
 10
73.66561548722596
 20
-116.7020927985155
 30
0.0
 10
73.66561548722596
 20
-116.7020927985155
 30
0.0
 10
73.72487112957226
 20
-116.7020927985155
 30
0.0
 10
73.72487112957226
 20
-116.7020927985155
 30
0.0
 10
73.79273951063168
 20
-116.7020927985155
 30
0.0
 10
73.9363999923666
 20
-116.6979586839332
 30
0.0
 10
74.04216442376377
 20
-116.6915852572854
 30
0.0
 10
74.04216442376377
 20
-116.6915852572854
 30
0.0
 10
74.04216442376377
 20
-116.8691799295501
 30
0.0
 10
74.04216442376377
 20
-116.8691799295501
 30
0.0
 10
73.94501273107973
 20
-116.8628065029024
 30
0.0
 10
73.78860539604938
 20
-116.8586723883201
 30
0.0
 10
73.72487112957226
 20
-116.8586723883201
 30
0.0
 10
73.72487112957226
 20
-116.8586723883201
 30
0.0
 10
73.65734725806136
 20
-116.8586723883201
 30
0.0
 10
73.65734725806136
 20
-116.8586723883201
 30
0.0
 10
73.65734725806136
 20
-116.8586723883201
 30
0.0
 10
73.65734725806136
 20
-117.0045721821204
 30
0.0
 10
73.65734725806136
 20
-117.0045721821204
 30
0.0
 10
73.65734725806136
 20
-117.0045721821204
 30
0.0
 10
73.72728269641193
 20
-117.0045721821204
 30
0.0
 10
73.72728269641193
 20
-117.0045721821204
 30
0.0
 10
73.8771443500203
 20
-117.0045721821204
 30
0.0
 10
73.94914684566203
 20
-117.0004380675381
 30
0.0
 10
74.01046954529947
 20
-116.9981987554727
 30
0.0
 10
74.00220131613487
 20
-117.0934556456398
 30
0.0
 10
74.00013425884372
 20
-117.1718315679293
 30
0.0
 10
73.99806720155257
 20
-117.2098998730413
 30
0.0
 10
74.15240747929177
 20
-116.9981987554727
 30
0.0
 10
74.25817191068893
 20
-116.7508408996317
 30
0.0
 10
74.27505287856665
 20
-116.48849687843
 30
0.0
 10
74.27505287856665
 20
-116.48849687843
 30
0.0
 10
74.4907158559433
 20
-116.5391397820631
 30
0.0
 10
74.4907158559433
 20
-116.5391397820631
 30
0.0
 10
74.50552976652988
 20
-116.5434461514197
 30
0.0
 10
74.52034367711644
 20
-116.5498195780674
 30
0.0
 10
74.52034367711644
 20
-116.5667005459451
 30
0.0
 10
74.52034367711644
 20
-116.5835815138229
 30
0.0
 10
74.51620956253414
 20
-116.5858208258883
 30
0.0
 10
74.46556665890097
 20
-116.6068359083483
 30
0.0
 10
74.44834118147472
 20
-116.6831447733466
 30
0.0
 10
74.4231919844324
 20
-116.7740952941572
 30
0.0
 10
74.37461613809037
 20
-116.9010470627886
 30
0.0
 10
74.37461613809037
 20
-116.9010470627886
 30
0.0
 10
74.71292451474191
 20
-116.9010470627886
 30
0.0
 10
74.71292451474191
 20
-116.9010470627886
 30
0.0
 10
74.75116507462819
 20
-116.9010470627886
 30
0.0
 10
74.88001164577653
 20
-116.8967406934321
 30
0.0
 10
74.92858749211855
 20
-116.8903672667844
 30
0.0
 10
74.92858749211855
 20
-116.8903672667844
 30
0.0
 10
75.02194957976882
 20
-116.9601304503607
 30
0.0
 10
75.02194957976882
 20
-116.9601304503607
 30
0.0
 10
75.0133368410557
 20
-116.981317787595
 30
0.0
 10
75.00713566918225
 20
-117.0004380675381
 30
0.0
 10
74.99232175859568
 20
-117.0364393153589
 30
0.0
  0
POLYLINE
  5
4A
330
45
100
AcDbEntity
  8
_U+30EC_U+30A4_U+30E4_U+30FC 1
370
     0
100
AcDb2dPolyline
 66
     1
 10
0.0
 20
0.0
 30
0.0
  0
VERTEX
  5
4B
330
4A
100
AcDbEntity
  8
_U+30EC_U+30A4_U+30E4_U+30FC 1
370
     0
100
AcDbVertex
100
AcDb2dVertex
 10
73.48578150289592
 20
-117.161151771925
 30
0.0
  0
VERTEX
  5
4C
330
4A
100
AcDbEntity
  8
_U+30EC_U+30A4_U+30E4_U+30FC 1
370
     0
100
AcDbVertex
100
AcDb2dVertex
 10
73.32730711057442
 20
-117.161151771925
 30
0.0
  0
VERTEX
  5
4D
330
4A
100
AcDbEntity
  8
_U+30EC_U+30A4_U+30E4_U+30FC 1
370
     0
100
AcDbVertex
100
AcDb2dVertex
 10
73.32730711057442
 20
-117.2901705978476
 30
0.0
  0
VERTEX
  5
4E
330
4A
100
AcDbEntity
  8
_U+30EC_U+30A4_U+30E4_U+30FC 1
370
     0
100
AcDbVertex
100
AcDb2dVertex
 10
73.48578150289592
 20
-117.2901705978476
 30
0.0
  0
VERTEX
  5
4F
330
4A
100
AcDbEntity
  8
_U+30EC_U+30A4_U+30E4_U+30FC 1
370
     0
100
AcDbVertex
100
AcDb2dVertex
 10
73.48578150289592
 20
-117.161151771925
 30
0.0
  0
SEQEND
  5
50
330
4A
100
AcDbEntity
  8
_U+30EC_U+30A4_U+30E4_U+30FC 1
370
     0
  0
POLYLINE
  5
51
330
45
100
AcDbEntity
  8
_U+30EC_U+30A4_U+30E4_U+30FC 1
370
     0
100
AcDb2dPolyline
 66
     1
 10
0.0
 20
0.0
 30
0.0
  0
VERTEX
  5
52
330
51
100
AcDbEntity
  8
_U+30EC_U+30A4_U+30E4_U+30FC 1
370
     0
100
AcDbVertex
100
AcDb2dVertex
 10
73.48578150289592
 20
-117.4340033343568
 30
0.0
  0
VERTEX
  5
53
330
51
100
AcDbEntity
  8
_U+30EC_U+30A4_U+30E4_U+30FC 1
370
     0
100
AcDbVertex
100
AcDb2dVertex
 10
73.32730711057442
 20
-117.4340033343568
 30
0.0
  0
VERTEX
  5
54
330
51
100
AcDbEntity
  8
_U+30EC_U+30A4_U+30E4_U+30FC 1
370
     0
100
AcDbVertex
100
AcDb2dVertex
 10
73.32730711057442
 20
-117.5631944150537
 30
0.0
  0
VERTEX
  5
55
330
51
100
AcDbEntity
  8
_U+30EC_U+30A4_U+30E4_U+30FC 1
370
     0
100
AcDbVertex
100
AcDb2dVertex
 10
73.48578150289592
 20
-117.5631944150537
 30
0.0
  0
VERTEX
  5
56
330
51
100
AcDbEntity
  8
_U+30EC_U+30A4_U+30E4_U+30FC 1
370
     0
100
AcDbVertex
100
AcDb2dVertex
 10
73.48578150289592
 20
-117.4340033343568
 30
0.0
  0
SEQEND
  5
57
330
51
100
AcDbEntity
  8
_U+30EC_U+30A4_U+30E4_U+30FC 1
370
     0
  0
POLYLINE
  5
58
330
45
100
AcDbEntity
  8
_U+30EC_U+30A4_U+30E4_U+30FC 1
370
     0
100
AcDb2dPolyline
 66
     1
 10
0.0
 20
0.0
 30
0.0
  0
VERTEX
  5
59
330
58
100
AcDbEntity
  8
_U+30EC_U+30A4_U+30E4_U+30FC 1
370
     0
100
AcDbVertex
100
AcDb2dVertex
 10
73.81823321722253
 20
-117.161151771925
 30
0.0
  0
VERTEX
  5
5A
330
58
100
AcDbEntity
  8
_U+30EC_U+30A4_U+30E4_U+30FC 1
370
     0
100
AcDbVertex
100
AcDb2dVertex
 10
73.65734725806136
 20
-117.161151771925
 30
0.0
  0
VERTEX
  5
5B
330
58
100
AcDbEntity
  8
_U+30EC_U+30A4_U+30E4_U+30FC 1
370
     0
100
AcDbVertex
100
AcDb2dVertex
 10
73.65734725806136
 20
-117.2901705978476
 30
0.0
  0
VERTEX
  5
5C
330
58
100
AcDbEntity
  8
_U+30EC_U+30A4_U+30E4_U+30FC 1
370
     0
100
AcDbVertex
100
AcDb2dVertex
 10
73.81823321722253
 20
-117.2901705978476
 30
0.0
  0
VERTEX
  5
5D
330
58
100
AcDbEntity
  8
_U+30EC_U+30A4_U+30E4_U+30FC 1
370
     0
100
AcDbVertex
100
AcDb2dVertex
 10
73.81823321722253
 20
-117.161151771925
 30
0.0
  0
SEQEND
  5
5E
330
58
100
AcDbEntity
  8
_U+30EC_U+30A4_U+30E4_U+30FC 1
370
     0
  0
POLYLINE
  5
5F
330
45
100
AcDbEntity
  8
_U+30EC_U+30A4_U+30E4_U+30FC 1
370
     0
100
AcDb2dPolyline
 66
     1
 10
0.0
 20
0.0
 30
0.0
  0
VERTEX
  5
60
330
5F
100
AcDbEntity
  8
_U+30EC_U+30A4_U+30E4_U+30FC 1
370
     0
100
AcDbVertex
100
AcDb2dVertex
 10
73.81823321722253
 20
-117.4340033343568
 30
0.0
  0
VERTEX
  5
61
330
5F
100
AcDbEntity
  8
_U+30EC_U+30A4_U+30E4_U+30FC 1
370
     0
100
AcDbVertex
100
AcDb2dVertex
 10
73.65734725806136
 20
-117.4340033343568
 30
0.0
  0
VERTEX
  5
62
330
5F
100
AcDbEntity
  8
_U+30EC_U+30A4_U+30E4_U+30FC 1
370
     0
100
AcDbVertex
100
AcDb2dVertex
 10
73.65734725806136
 20
-117.5631944150537
 30
0.0
  0
VERTEX
  5
63
330
5F
100
AcDbEntity
  8
_U+30EC_U+30A4_U+30E4_U+30FC 1
370
     0
100
AcDbVertex
100
AcDb2dVertex
 10
73.81823321722253
 20
-117.5631944150537
 30
0.0
  0
VERTEX
  5
64
330
5F
100
AcDbEntity
  8
_U+30EC_U+30A4_U+30E4_U+30FC 1
370
     0
100
AcDbVertex
100
AcDb2dVertex
 10
73.81823321722253
 20
-117.4340033343568
 30
0.0
  0
SEQEND
  5
65
330
5F
100
AcDbEntity
  8
_U+30EC_U+30A4_U+30E4_U+30FC 1
370
     0
  0
SPLINE
  5
66
330
45
100
AcDbEntity
  8
_U+30EC_U+30A4_U+30E4_U+30FC 1
370
     0
100
AcDbSpline
210
0.0
220
0.0
230
1.0
 70
    11
 71
     3
 72
    41
 73
    37
 74
     0
 42
0.0000000001
 43
0.0000000001
 12
1.0
 22
0.0
 32
0.0
 13
1.0
 23
0.0
 33
0.0
 40
0.0
 40
0.0
 40
0.0
 40
0.0
 40
1.0
 40
1.0
 40
1.0
 40
2.0
 40
2.0
 40
2.0
 40
3.0
 40
3.0
 40
3.0
 40
4.0
 40
4.0
 40
4.0
 40
5.0
 40
5.0
 40
5.0
 40
6.0
 40
6.0
 40
6.0
 40
7.0
 40
7.0
 40
7.0
 40
8.0
 40
8.0
 40
8.0
 40
9.0
 40
9.0
 40
9.0
 40
10.0
 40
10.0
 40
10.0
 40
11.0
 40
11.0
 40
11.0
 40
12.0
 40
12.0
 40
12.0
 40
12.0
 10
74.90757240965853
 20
-118.3924288983533
 30
0.0
 10
74.66641572569104
 20
-118.257036645783
 30
0.0
 10
74.48864879865215
 20
-117.9607584340515
 30
0.0
 10
74.44834118147472
 20
-117.8317396081289
 30
0.0
 10
74.32776283949097
 20
-118.0961506866218
 30
0.0
 10
74.16515433258719
 20
-118.2739176136607
 30
0.0
 10
73.98325329096599
 20
-118.3881225289967
 30
0.0
 10
73.98325329096599
 20
-118.3881225289967
 30
0.0
 10
73.78619382920971
 20
-118.2506632191353
 30
0.0
 10
73.78619382920971
 20
-118.2506632191353
 30
0.0
 10
73.85612926756028
 20
-118.2253417673187
 30
0.0
 10
74.00220131613487
 20
-118.163846812907
 30
0.0
 10
74.12484671540976
 20
-118.0095065351678
 30
0.0
 10
74.2495591719758
 20
-117.8529269453632
 30
0.0
 10
74.33844263549526
 20
-117.6202107453345
 30
0.0
 10
74.33844263549526
 20
-117.3601060361982
 30
0.0
 10
74.33844263549526
 20
-117.2584757193833
 30
0.0
 10
74.32569578219983
 20
-117.1866454785158
 30
0.0
 10
74.31536049574407
 20
-117.1399644346907
 30
0.0
 10
74.31536049574407
 20
-117.1399644346907
 30
0.0
 10
74.52034367711644
 20
-117.161151771925
 30
0.0
 10
74.52034367711644
 20
-117.161151771925
 30
0.0
 10
74.541703269125
 20
-117.1632188292161
 30
0.0
 10
74.56271835158502
 20
-117.1654581412816
 30
0.0
 10
74.56271835158502
 20
-117.1866454785158
 30
0.0
 10
74.56271835158502
 20
-117.2055935036847
 30
0.0
 10
74.55203855558075
 20
-117.2140339876236
 30
0.0
 10
74.5182766198253
 20
-117.2352213248579
 30
0.0
 10
74.5100083906607
 20
-117.4362426464222
 30
0.0
 10
74.56685246616732
 20
-117.6794663876808
 30
0.0
 10
74.62817516580476
 20
-117.8000447296646
 30
0.0
 10
74.71912568661536
 20
-117.9755723446381
 30
0.0
 10
74.91377358153197
 20
-118.1554063289681
 30
0.0
 10
75.0491658341023
 20
-118.2125949140232
 30
0.0
 10
75.0491658341023
 20
-118.2125949140232
 30
0.0
 10
74.90757240965853
 20
-118.3924288983533
 30
0.0
 10
74.90757240965853
 20
-118.3924288983533
 30
0.0
  0
HATCH
  5
67
330
45
100
AcDbEntity
  8
_U+30EC_U+30A4_U+30E4_U+30FC 1
 62
   179
420
  2234388
100
AcDbHatch
 10
0.0
 20
0.0
 30
0.0
210
0.0
220
0.0
230
1.0
  2
SOLID
 70
     1
 71
     0
 91
        6
 92
        1
 93
        1
 72
     4
 94
        3
 73
     0
 74
     1
 95
      197
 96
      193
 40
0.0
 40
0.0
 40
0.0
 40
0.0
 40
1.0
 40
1.0
 40
1.0
 40
2.0
 40
2.0
 40
2.0
 40
3.0
 40
3.0
 40
3.0
 40
4.0
 40
4.0
 40
4.0
 40
5.0
 40
5.0
 40
5.0
 40
6.0
 40
6.0
 40
6.0
 40
7.0
 40
7.0
 40
7.0
 40
8.0
 40
8.0
 40
8.0
 40
9.0
 40
9.0
 40
9.0
 40
10.0
 40
10.0
 40
10.0
 40
11.0
 40
11.0
 40
11.0
 40
12.0
 40
12.0
 40
12.0
 40
13.0
 40
13.0
 40
13.0
 40
14.0
 40
14.0
 40
14.0
 40
15.0
 40
15.0
 40
15.0
 40
16.0
 40
16.0
 40
16.0
 40
17.0
 40
17.0
 40
17.0
 40
18.0
 40
18.0
 40
18.0
 40
19.0
 40
19.0
 40
19.0
 40
20.0
 40
20.0
 40
20.0
 40
21.0
 40
21.0
 40
21.0
 40
22.0
 40
22.0
 40
22.0
 40
23.0
 40
23.0
 40
23.0
 40
24.0
 40
24.0
 40
24.0
 40
25.0
 40
25.0
 40
25.0
 40
26.0
 40
26.0
 40
26.0
 40
27.0
 40
27.0
 40
27.0
 40
28.0
 40
28.0
 40
28.0
 40
29.0
 40
29.0
 40
29.0
 40
30.0
 40
30.0
 40
30.0
 40
31.0
 40
31.0
 40
31.0
 40
32.0
 40
32.0
 40
32.0
 40
33.0
 40
33.0
 40
33.0
 40
34.0
 40
34.0
 40
34.0
 40
35.0
 40
35.0
 40
35.0
 40
36.0
 40
36.0
 40
36.0
 40
37.0
 40
37.0
 40
37.0
 40
38.0
 40
38.0
 40
38.0
 40
39.0
 40
39.0
 40
39.0
 40
40.0
 40
40.0
 40
40.0
 40
41.0
 40
41.0
 40
41.0
 40
42.0
 40
42.0
 40
42.0
 40
43.0
 40
43.0
 40
43.0
 40
44.0
 40
44.0
 40
44.0
 40
45.0
 40
45.0
 40
45.0
 40
46.0
 40
46.0
 40
46.0
 40
47.0
 40
47.0
 40
47.0
 40
48.0
 40
48.0
 40
48.0
 40
49.0
 40
49.0
 40
49.0
 40
50.0
 40
50.0
 40
50.0
 40
51.0
 40
51.0
 40
51.0
 40
52.0
 40
52.0
 40
52.0
 40
53.0
 40
53.0
 40
53.0
 40
54.0
 40
54.0
 40
54.0
 40
55.0
 40
55.0
 40
55.0
 40
56.0
 40
56.0
 40
56.0
 40
57.0
 40
57.0
 40
57.0
 40
58.0
 40
58.0
 40
58.0
 40
59.0
 40
59.0
 40
59.0
 40
60.0
 40
60.0
 40
60.0
 40
61.0
 40
61.0
 40
61.0
 40
62.0
 40
62.0
 40
62.0
 40
63.0
 40
63.0
 40
63.0
 40
64.0
 40
64.0
 40
64.0
 40
64.0
 10
74.99232175859568
 20
-117.0364393153589
 10
74.9816419625914
 20
-117.0660671365321
 10
74.9582153132917
 20
-117.112575925583
 10
74.94788002683595
 20
-117.1399644346907
 10
74.94788002683595
 20
-117.1399644346907
 10
74.8865573271985
 20
-117.292409909913
 10
74.8865573271985
 20
-117.292409909913
 10
74.87587753119423
 20
-117.3177313617296
 10
74.8273016848522
 20
-117.4298692197745
 10
74.81455483155678
 20
-117.4531236142999
 10
74.81248777426563
 20
-117.4594970409476
 10
74.80800915013481
 20
-117.4679375248865
 10
74.80594209284365
 20
-117.4743109515342
 10
74.80594209284365
 20
-117.4743109515342
 10
74.59648028734047
 20
-117.4214287358356
 10
74.59648028734047
 20
-117.4214287358356
 10
74.67502846440416
 20
-117.3113579350819
 10
74.73635116404161
 20
-117.1759656825116
 10
74.76804604250592
 20
-117.0660671365321
 10
74.76804604250592
 20
-117.0660671365321
 10
74.30261364244866
 20
-117.0660671365321
 10
74.30261364244866
 20
-117.0660671365321
 10
74.22199840809381
 20
-117.2309149555013
 10
74.15447453658291
 20
-117.3092908777907
 10
74.12071260082746
 20
-117.3494262401939
 10
74.12071260082746
 20
-117.3494262401939
 10
73.99806720155257
 20
-117.2837971711999
 10
73.99806720155257
 20
-117.2837971711999
 10
73.99806720155257
 20
-117.2837971711999
 10
73.99806720155257
 20
-117.4551906715911
 10
73.99806720155257
 20
-117.4551906715911
 10
73.99806720155257
 20
-117.5631944150537
 10
74.00013425884372
 20
-117.6117702613957
 10
74.01046954529947
 20
-117.7175346927928
 10
73.93881155920627
 20
-117.7154676355017
 10
73.91745196719772
 20
-117.7154676355017
 10
73.71246878582537
 20
-117.7154676355017
 10
73.71246878582537
 20
-117.7154676355017
 10
73.65734725806136
 20
-117.7154676355017
 10
73.65734725806136
 20
-117.7154676355017
 10
73.65734725806136
 20
-117.7154676355017
 10
73.65734725806136
 20
-117.850859888072
 10
73.65734725806136
 20
-117.850859888072
 10
73.65734725806136
 20
-117.850859888072
 10
73.72934975370308
 20
-117.850859888072
 10
73.72934975370308
 20
-117.850859888072
 10
73.79480656792283
 20
-117.850859888072
 10
73.94087861649743
 20
-117.8465535187155
 10
74.04664304789459
 20
-117.8381130347766
 10
74.04664304789459
 20
-117.8381130347766
 10
74.04664304789459
 20
-118.0158799618155
 10
74.04664304789459
 20
-118.0158799618155
 10
73.94914684566203
 20
-118.0095065351678
 10
73.79067245334053
 20
-118.0052001658112
 10
73.72934975370308
 20
-118.0052001658112
 10
73.72934975370308
 20
-118.0052001658112
 10
73.65734725806136
 20
-118.0052001658112
 10
73.65734725806136
 20
-118.0052001658112
 10
73.6594143153525
 20
-118.0940836293307
 10
73.6635484299348
 20
-118.333173256007
 10
73.66561548722596
 20
-118.4072428089399
 10
73.66561548722596
 20
-118.4072428089399
 10
73.4647664204359
 20
-118.4072428089399
 10
73.4647664204359
 20
-118.4072428089399
 10
73.47751327373132
 20
-118.1934746340801
 10
73.47751327373132
 20
-118.163846812907
 10
73.48164738831362
 20
-118.0052001658112
 10
73.48164738831362
 20
-118.0052001658112
 10
73.41205645951158
 20
-118.0052001658112
 10
73.41205645951158
 20
-118.0052001658112
 10
73.35486787445643
 20
-118.0052001658112
 10
73.20259465400838
 20
-118.0095065351678
 10
73.09235159848039
 20
-118.0158799618155
 10
73.09235159848039
 20
-118.0158799618155
 10
73.09235159848039
 20
-117.8381130347766
 10
73.09235159848039
 20
-117.8381130347766
 10
73.19811602987755
 20
-117.8465535187155
 10
73.342121021161
 20
-117.850859888072
 10
73.41205645951158
 20
-117.850859888072
 10
73.41205645951158
 20
-117.850859888072
 10
73.48578150289592
 20
-117.850859888072
 10
73.48578150289592
 20
-117.850859888072
 10
73.48578150289592
 20
-117.850859888072
 10
73.48578150289592
 20
-117.7154676355017
 10
73.48578150289592
 20
-117.7154676355017
 10
73.48578150289592
 20
-117.7154676355017
 10
73.44168428068473
 20
-117.7154676355017
 10
73.44168428068473
 20
-117.7154676355017
 10
73.36520316091217
 20
-117.7154676355017
 10
73.17296683283523
 20
-117.7175346927928
 10
73.13886038753127
 20
-117.7175346927928
 10
73.14540606895324
 20
-117.6457044519254
 10
73.15367429811783
 20
-117.5652614723448
 10
73.15367429811783
 20
-117.4446831303611
 10
73.15367429811783
 20
-117.4446831303611
 10
73.15367429811783
 20
-117.2712225726787
 10
73.15367429811783
 20
-117.2712225726787
 10
73.15367429811783
 20
-117.199220077037
 10
73.14540606895324
 20
-117.0786417350533
 10
73.13886038753127
 20
-116.9981987554727
 10
73.21740856459496
 20
-117.0025051248292
 10
73.25530461493271
 20
-117.0045721821204
 10
73.38242863833842
 20
-117.0045721821204
 10
73.38242863833842
 20
-117.0045721821204
 10
73.48578150289592
 20
-117.0045721821204
 10
73.48578150289592
 20
-117.0045721821204
 10
73.48578150289592
 20
-117.0045721821204
 10
73.48578150289592
 20
-116.8586723883201
 10
73.48578150289592
 20
-116.8586723883201
 10
73.48578150289592
 20
-116.8586723883201
 10
73.40757783538075
 20
-116.8586723883201
 10
73.40757783538075
 20
-116.8586723883201
 10
73.35280081716527
 20
-116.8586723883201
 10
73.18123506199983
 20
-116.8628065029024
 10
73.09683022261122
 20
-116.8691799295501
 10
73.09683022261122
 20
-116.8691799295501
 10
73.09683022261122
 20
-116.6915852572854
 10
73.09683022261122
 20
-116.6915852572854
 10
73.17916800470869
 20
-116.6979586839332
 10
73.342121021161
 20
-116.7020927985155
 10
73.40757783538075
 20
-116.7020927985155
 10
73.40757783538075
 20
-116.7020927985155
 10
73.48578150289592
 20
-116.7020927985155
 10
73.48578150289592
 20
-116.7020927985155
 10
73.48578150289592
 20
-116.66833086276
 10
73.48164738831362
 20
-116.5138183302466
 10
73.48164738831362
 20
-116.4821234517823
 10
73.48164738831362
 20
-116.4821234517823
 10
73.67836234052139
 20
-116.49900441966
 10
73.67836234052139
 20
-116.49900441966
 10
73.69524330839911
 20
-116.5010714769511
 10
73.71660290040766
 20
-116.5033107890165
 10
73.71660290040766
 20
-116.5244981262508
 10
73.71660290040766
 20
-116.5477525207763
 10
73.69524330839911
 20
-116.5561930047151
 10
73.66802705406563
 20
-116.5687676032363
 10
73.66802705406563
 20
-116.5899549404706
 10
73.66561548722596
 20
-116.6852118306377
 10
73.66561548722596
 20
-116.7020927985155
 10
73.66561548722596
 20
-116.7020927985155
 10
73.72487112957226
 20
-116.7020927985155
 10
73.72487112957226
 20
-116.7020927985155
 10
73.79273951063168
 20
-116.7020927985155
 10
73.9363999923666
 20
-116.6979586839332
 10
74.04216442376377
 20
-116.6915852572854
 10
74.04216442376377
 20
-116.6915852572854
 10
74.04216442376377
 20
-116.8691799295501
 10
74.04216442376377
 20
-116.8691799295501
 10
73.94501273107973
 20
-116.8628065029024
 10
73.78860539604938
 20
-116.8586723883201
 10
73.72487112957226
 20
-116.8586723883201
 10
73.72487112957226
 20
-116.8586723883201
 10
73.65734725806136
 20
-116.8586723883201
 10
73.65734725806136
 20
-116.8586723883201
 10
73.65734725806136
 20
-116.8586723883201
 10
73.65734725806136
 20
-117.0045721821204
 10
73.65734725806136
 20
-117.0045721821204
 10
73.65734725806136
 20
-117.0045721821204
 10
73.72728269641193
 20
-117.0045721821204
 10
73.72728269641193
 20
-117.0045721821204
 10
73.8771443500203
 20
-117.0045721821204
 10
73.94914684566203
 20
-117.0004380675381
 10
74.01046954529947
 20
-116.9981987554727
 10
74.00220131613487
 20
-117.0934556456398
 10
74.00013425884372
 20
-117.1718315679293
 10
73.99806720155257
 20
-117.2098998730413
 10
74.15240747929177
 20
-116.9981987554727
 10
74.25817191068893
 20
-116.7508408996317
 10
74.27505287856665
 20
-116.48849687843
 10
74.27505287856665
 20
-116.48849687843
 10
74.4907158559433
 20
-116.5391397820631
 10
74.4907158559433
 20
-116.5391397820631
 10
74.50552976652988
 20
-116.5434461514197
 10
74.52034367711644
 20
-116.5498195780674
 10
74.52034367711644
 20
-116.5667005459451
 10
74.52034367711644
 20
-116.5835815138229
 10
74.51620956253414
 20
-116.5858208258883
 10
74.46556665890097
 20
-116.6068359083483
 10
74.44834118147472
 20
-116.6831447733466
 10
74.4231919844324
 20
-116.7740952941572
 10
74.37461613809037
 20
-116.9010470627886
 10
74.37461613809037
 20
-116.9010470627886
 10
74.71292451474191
 20
-116.9010470627886
 10
74.71292451474191
 20
-116.9010470627886
 10
74.75116507462819
 20
-116.9010470627886
 10
74.88001164577653
 20
-116.8967406934321
 10
74.92858749211855
 20
-116.8903672667844
 10
74.92858749211855
 20
-116.8903672667844
 10
75.02194957976882
 20
-116.9601304503607
 10
75.02194957976882
 20
-116.9601304503607
 10
75.0133368410557
 20
-116.981317787595
 10
75.00713566918225
 20
-117.0004380675381
 10
74.99232175859568
 20
-117.0364393153589
 97
        0
 97
        0
 92
        1
 93
        4
 72
     1
 10
73.48578150289592
 20
-117.161151771925
 11
73.32730711057442
 21
-117.161151771925
 72
     1
 10
73.32730711057442
 20
-117.161151771925
 11
73.32730711057442
 21
-117.2901705978476
 72
     1
 10
73.32730711057442
 20
-117.2901705978476
 11
73.48578150289592
 21
-117.2901705978476
 72
     1
 10
73.48578150289592
 20
-117.2901705978476
 11
73.48578150289592
 21
-117.161151771925
 97
        0
 92
        1
 93
        4
 72
     1
 10
73.48578150289592
 20
-117.4340033343568
 11
73.32730711057442
 21
-117.4340033343568
 72
     1
 10
73.32730711057442
 20
-117.4340033343568
 11
73.32730711057442
 21
-117.5631944150537
 72
     1
 10
73.32730711057442
 20
-117.5631944150537
 11
73.48578150289592
 21
-117.5631944150537
 72
     1
 10
73.48578150289592
 20
-117.5631944150537
 11
73.48578150289592
 21
-117.4340033343568
 97
        0
 92
        1
 93
        4
 72
     1
 10
73.81823321722253
 20
-117.161151771925
 11
73.65734725806136
 21
-117.161151771925
 72
     1
 10
73.65734725806136
 20
-117.161151771925
 11
73.65734725806136
 21
-117.2901705978476
 72
     1
 10
73.65734725806136
 20
-117.2901705978476
 11
73.81823321722253
 21
-117.2901705978476
 72
     1
 10
73.81823321722253
 20
-117.2901705978476
 11
73.81823321722253
 21
-117.161151771925
 97
        0
 92
        1
 93
        4
 72
     1
 10
73.81823321722253
 20
-117.4340033343568
 11
73.65734725806136
 21
-117.4340033343568
 72
     1
 10
73.65734725806136
 20
-117.4340033343568
 11
73.65734725806136
 21
-117.5631944150537
 72
     1
 10
73.65734725806136
 20
-117.5631944150537
 11
73.81823321722253
 21
-117.5631944150537
 72
     1
 10
73.81823321722253
 20
-117.5631944150537
 11
73.81823321722253
 21
-117.4340033343568
 97
        0
 92
        1
 93
        1
 72
     4
 94
        3
 73
     0
 74
     1
 95
       41
 96
       37
 40
0.0
 40
0.0
 40
0.0
 40
0.0
 40
1.0
 40
1.0
 40
1.0
 40
2.0
 40
2.0
 40
2.0
 40
3.0
 40
3.0
 40
3.0
 40
4.0
 40
4.0
 40
4.0
 40
5.0
 40
5.0
 40
5.0
 40
6.0
 40
6.0
 40
6.0
 40
7.0
 40
7.0
 40
7.0
 40
8.0
 40
8.0
 40
8.0
 40
9.0
 40
9.0
 40
9.0
 40
10.0
 40
10.0
 40
10.0
 40
11.0
 40
11.0
 40
11.0
 40
12.0
 40
12.0
 40
12.0
 40
12.0
 10
74.90757240965853
 20
-118.3924288983533
 10
74.66641572569104
 20
-118.257036645783
 10
74.48864879865215
 20
-117.9607584340515
 10
74.44834118147472
 20
-117.8317396081289
 10
74.32776283949097
 20
-118.0961506866218
 10
74.16515433258719
 20
-118.2739176136607
 10
73.98325329096599
 20
-118.3881225289967
 10
73.98325329096599
 20
-118.3881225289967
 10
73.78619382920971
 20
-118.2506632191353
 10
73.78619382920971
 20
-118.2506632191353
 10
73.85612926756028
 20
-118.2253417673187
 10
74.00220131613487
 20
-118.163846812907
 10
74.12484671540976
 20
-118.0095065351678
 10
74.2495591719758
 20
-117.8529269453632
 10
74.33844263549526
 20
-117.6202107453345
 10
74.33844263549526
 20
-117.3601060361982
 10
74.33844263549526
 20
-117.2584757193833
 10
74.32569578219983
 20
-117.1866454785158
 10
74.31536049574407
 20
-117.1399644346907
 10
74.31536049574407
 20
-117.1399644346907
 10
74.52034367711644
 20
-117.161151771925
 10
74.52034367711644
 20
-117.161151771925
 10
74.541703269125
 20
-117.1632188292161
 10
74.56271835158502
 20
-117.1654581412816
 10
74.56271835158502
 20
-117.1866454785158
 10
74.56271835158502
 20
-117.2055935036847
 10
74.55203855558075
 20
-117.2140339876236
 10
74.5182766198253
 20
-117.2352213248579
 10
74.5100083906607
 20
-117.4362426464222
 10
74.56685246616732
 20
-117.6794663876808
 10
74.62817516580476
 20
-117.8000447296646
 10
74.71912568661536
 20
-117.9755723446381
 10
74.91377358153197
 20
-118.1554063289681
 10
75.0491658341023
 20
-118.2125949140232
 10
75.0491658341023
 20
-118.2125949140232
 10
74.90757240965853
 20
-118.3924288983533
 10
74.90757240965853
 20
-118.3924288983533
 97
        0
 97
        0
 75
     2
 76
     1
 98
        0
  0
SPLINE
  5
68
330
45
100
AcDbEntity
  8
_U+30EC_U+30A4_U+30E4_U+30FC 1
370
     0
100
AcDbSpline
210
0.0
220
0.0
230
1.0
 70
    11
 71
     3
 72
    71
 73
    67
 74
     0
 42
0.0000000001
 43
0.0000000001
 12
1.0
 22
0.0
 32
0.0
 13
1.0
 23
0.0
 33
0.0
 40
0.0
 40
0.0
 40
0.0
 40
0.0
 40
1.0
 40
1.0
 40
1.0
 40
2.0
 40
2.0
 40
2.0
 40
3.0
 40
3.0
 40
3.0
 40
4.0
 40
4.0
 40
4.0
 40
5.0
 40
5.0
 40
5.0
 40
6.0
 40
6.0
 40
6.0
 40
7.0
 40
7.0
 40
7.0
 40
8.0
 40
8.0
 40
8.0
 40
9.0
 40
9.0
 40
9.0
 40
10.0
 40
10.0
 40
10.0
 40
11.0
 40
11.0
 40
11.0
 40
12.0
 40
12.0
 40
12.0
 40
13.0
 40
13.0
 40
13.0
 40
14.0
 40
14.0
 40
14.0
 40
15.0
 40
15.0
 40
15.0
 40
16.0
 40
16.0
 40
16.0
 40
17.0
 40
17.0
 40
17.0
 40
18.0
 40
18.0
 40
18.0
 40
19.0
 40
19.0
 40
19.0
 40
20.0
 40
20.0
 40
20.0
 40
21.0
 40
21.0
 40
21.0
 40
22.0
 40
22.0
 40
22.0
 40
22.0
 10
76.10198701439465
 20
-116.6598903788211
 30
0.0
 10
76.08717310380807
 20
-116.6598903788211
 30
0.0
 10
76.07442625051264
 20
-116.6555840094646
 30
0.0
 10
76.0489325439218
 20
-116.6471435255257
 30
0.0
 10
75.90733911947802
 20
-116.6936523145766
 30
0.0
 10
75.73370630702144
 20
-116.7105332824543
 30
0.0
 10
75.59417993986882
 20
-116.7148396518109
 30
0.0
 10
75.59417993986882
 20
-116.7148396518109
 30
0.0
 10
75.59211288257767
 20
-116.8037231153303
 30
0.0
 10
75.59211288257767
 20
-116.8037231153303
 30
0.0
 10
75.59211288257767
 20
-116.8037231153303
 30
0.0
 10
75.85221759171404
 20
-116.8037231153303
 30
0.0
 10
75.85221759171404
 20
-116.8037231153303
 30
0.0
 10
75.90527206218688
 20
-116.8037231153303
 30
0.0
 10
76.08717310380807
 20
-116.7952826313915
 30
0.0
 10
76.13161483556779
 20
-116.7889092047437
 30
0.0
 10
76.13161483556779
 20
-116.7889092047437
 30
0.0
 10
76.13161483556779
 20
-116.9496229091307
 30
0.0
 10
76.13161483556779
 20
-116.9496229091307
 30
0.0
 10
76.0764933078038
 20
-116.9432494824829
 30
0.0
 10
75.95178085123776
 20
-116.9411824251918
 30
0.0
 10
75.91354029135148
 20
-116.9432494824829
 30
0.0
 10
75.91354029135148
 20
-116.9432494824829
 30
0.0
 10
75.91354029135148
 20
-117.0533202832367
 30
0.0
 10
75.91354029135148
 20
-117.0533202832367
 30
0.0
 10
75.91354029135148
 20
-117.0998290722875
 30
0.0
 10
75.91560734864262
 20
-117.1632188292161
 30
0.0
 10
75.9221530300646
 20
-117.2014593891024
 30
0.0
 10
75.9221530300646
 20
-117.2014593891024
 30
0.0
 10
75.72957219243914
 20
-117.2014593891024
 30
0.0
 10
75.72957219243914
 20
-117.2014593891024
 30
0.0
 10
75.73577336431259
 20
-117.161151771925
 30
0.0
 10
75.74231904573456
 20
-117.0786417350533
 30
0.0
 10
75.74231904573456
 20
-117.0638278244667
 30
0.0
 10
75.74231904573456
 20
-117.0638278244667
 30
0.0
 10
75.74231904573456
 20
-116.9432494824829
 30
0.0
 10
75.74231904573456
 20
-116.9432494824829
 30
0.0
 10
75.74231904573456
 20
-116.9432494824829
 30
0.0
 10
75.5772989719911
 20
-116.9432494824829
 30
0.0
 10
75.5772989719911
 20
-116.9432494824829
 30
0.0
 10
75.53492429752252
 20
-117.1632188292161
 30
0.0
 10
75.47980276975852
 20
-117.2436618087967
 30
0.0
 10
75.37403833836136
 20
-117.3430528135462
 30
0.0
 10
75.37403833836136
 20
-117.3430528135462
 30
0.0
 10
75.20695120732674
 20
-117.2288478982101
 30
0.0
 10
75.20695120732674
 20
-117.2288478982101
 30
0.0
 10
75.27034096425534
 20
-117.1802720518681
 30
0.0
 10
75.42054712741223
 20
-117.0681341938233
 30
0.0
 10
75.42054712741223
 20
-116.7189737663932
 30
0.0
 10
75.42054712741223
 20
-116.6364637295214
 30
0.0
 10
75.41227889824764
 20
-116.5899549404706
 30
0.0
 10
75.40366615953451
 20
-116.5413790941285
 30
0.0
 10
75.54973820810909
 20
-116.5561930047151
 30
0.0
 10
75.56455211869567
 20
-116.5561930047151
 30
0.0
 10
75.60038111174227
 20
-116.5561930047151
 30
0.0
 10
75.70855710997911
 20
-116.5561930047151
 30
0.0
 10
75.85015053442288
 20
-116.5391397820631
 30
0.0
 10
76.01103649358404
 20
-116.4778170824257
 30
0.0
 10
76.01103649358404
 20
-116.4778170824257
 30
0.0
 10
76.12506915414582
 20
-116.6090752204137
 30
0.0
 10
76.12506915414582
 20
-116.6090752204137
 30
0.0
 10
76.13161483556779
 20
-116.6154486470614
 30
0.0
 10
76.13574895015009
 20
-116.6238891310003
 30
0.0
 10
76.13574895015009
 20
-116.6323296149391
 30
0.0
 10
76.13574895015009
 20
-116.6555840094646
 30
0.0
 10
76.11680092498122
 20
-116.6598903788211
 30
0.0
 10
76.10198701439465
 20
-116.6598903788211
 30
0.0
  0
SPLINE
  5
69
330
45
100
AcDbEntity
  8
_U+30EC_U+30A4_U+30E4_U+30FC 1
370
     0
100
AcDbSpline
210
0.0
220
0.0
230
1.0
 70
    11
 71
     3
 72
    74
 73
    70
 74
     0
 42
0.0000000001
 43
0.0000000001
 12
1.0
 22
0.0
 32
0.0
 13
1.0
 23
0.0
 33
0.0
 40
0.0
 40
0.0
 40
0.0
 40
0.0
 40
1.0
 40
1.0
 40
1.0
 40
2.0
 40
2.0
 40
2.0
 40
3.0
 40
3.0
 40
3.0
 40
4.0
 40
4.0
 40
4.0
 40
5.0
 40
5.0
 40
5.0
 40
6.0
 40
6.0
 40
6.0
 40
7.0
 40
7.0
 40
7.0
 40
8.0
 40
8.0
 40
8.0
 40
9.0
 40
9.0
 40
9.0
 40
10.0
 40
10.0
 40
10.0
 40
11.0
 40
11.0
 40
11.0
 40
12.0
 40
12.0
 40
12.0
 40
13.0
 40
13.0
 40
13.0
 40
14.0
 40
14.0
 40
14.0
 40
15.0
 40
15.0
 40
15.0
 40
16.0
 40
16.0
 40
16.0
 40
17.0
 40
17.0
 40
17.0
 40
18.0
 40
18.0
 40
18.0
 40
19.0
 40
19.0
 40
19.0
 40
20.0
 40
20.0
 40
20.0
 40
21.0
 40
21.0
 40
21.0
 40
22.0
 40
22.0
 40
22.0
 40
23.0
 40
23.0
 40
23.0
 40
23.0
 10
76.93948972685888
 20
-118.4261908341087
 30
0.0
 10
76.72589380677339
 20
-118.4156832928787
 30
0.0
 10
76.52504473998333
 20
-118.3288668866504
 30
0.0
 10
76.34934487023558
 20
-118.2082885446667
 30
0.0
 10
76.34934487023558
 20
-118.2082885446667
 30
0.0
 10
76.44684107246816
 20
-118.1216443932126
 30
0.0
 10
76.44684107246816
 20
-118.1216443932126
 30
0.0
 10
76.44684107246816
 20
-118.1216443932126
 30
0.0
 10
75.8945922661826
 20
-118.1216443932126
 30
0.0
 10
75.8945922661826
 20
-118.1216443932126
 30
0.0
 10
75.8945922661826
 20
-118.1216443932126
 30
0.0
 10
75.97486299098892
 20
-118.1850341501412
 30
0.0
 10
75.97486299098892
 20
-118.1850341501412
 30
0.0
 10
75.98140867241091
 20
-118.1893405194978
 30
0.0
 10
75.99174395886665
 20
-118.1998480607278
 30
0.0
 10
75.99174395886665
 20
-118.2146619713144
 30
0.0
 10
75.99174395886665
 20
-118.2549695884918
 30
0.0
 10
75.91767440593378
 20
-118.2485961618441
 30
0.0
 10
75.9028604953472
 20
-118.2463568497787
 30
0.0
 10
75.67238360738399
 20
-118.3860554717056
 30
0.0
 10
75.52872312564907
 20
-118.4177503501699
 30
0.0
 10
75.42502575154305
 20
-118.4346313180476
 30
0.0
 10
75.42502575154305
 20
-118.4346313180476
 30
0.0
 10
75.29583467084619
 20
-118.257036645783
 30
0.0
 10
75.29583467084619
 20
-118.257036645783
 30
0.0
 10
75.54353703623565
 20
-118.2253417673187
 30
0.0
 10
75.644822843502
 20
-118.1786607234935
 30
0.0
 10
75.73370630702144
 20
-118.1257785077949
 30
0.0
 10
75.65963675408857
 20
-118.1280178198604
 30
0.0
 10
75.54560409352679
 20
-118.1300848771515
 30
0.0
 10
75.5139092150625
 20
-118.1321519344427
 30
0.0
 10
75.52872312564907
 20
-118.0432684709232
 30
0.0
 10
75.53079018294022
 20
-117.9142496450006
 30
0.0
 10
75.53079018294022
 20
-117.8401800920677
 30
0.0
 10
75.53079018294022
 20
-117.8401800920677
 30
0.0
 10
75.53079018294022
 20
-117.539767765754
 30
0.0
 10
75.53079018294022
 20
-117.539767765754
 30
0.0
 10
75.53079018294022
 20
-117.4403767610045
 30
0.0
 10
75.52424450151825
 20
-117.340985756255
 30
0.0
 10
75.5139092150625
 20
-117.2436618087967
 30
0.0
 10
75.61519502232885
 20
-117.2500352354444
 30
0.0
 10
75.84601641984058
 20
-117.2564086620922
 30
0.0
 10
75.9538479085289
 20
-117.2564086620922
 30
0.0
 10
75.9538479085289
 20
-117.2564086620922
 30
0.0
 10
76.37690563411758
 20
-117.2564086620922
 30
0.0
 10
76.37690563411758
 20
-117.2564086620922
 30
0.0
 10
76.49541691881018
 20
-117.2564086620922
 30
0.0
 10
76.53779159327875
 20
-117.2564086620922
 30
0.0
 10
76.62012937537622
 20
-117.2521022927356
 30
0.0
 10
76.76826848124196
 20
-117.2457288660879
 30
0.0
 10
76.78514944911969
 20
-117.2457288660879
 30
0.0
 10
76.83165823817056
 20
-117.2436618087967
 30
0.0
 10
76.82339000900596
 20
-117.3241047883773
 30
0.0
 10
76.81891138487514
 20
-117.4827514354731
 30
0.0
 10
76.81891138487514
 20
-117.5652614723448
 30
0.0
 10
76.81891138487514
 20
-117.5652614723448
 30
0.0
 10
76.81891138487514
 20
-117.850859888072
 30
0.0
 10
76.81891138487514
 20
-117.850859888072
 30
0.0
 10
76.81891138487514
 20
-117.9226901289395
 30
0.0
 10
76.8209784421663
 20
-118.0539482669275
 30
0.0
 10
76.83165823817056
 20
-118.1321519344427
 30
0.0
 10
76.75965574252884
 20
-118.1280178198604
 30
0.0
 10
76.63701034325395
 20
-118.1257785077949
 30
0.0
 10
76.55880667573878
 20
-118.1237114505038
 30
0.0
 10
76.66870522171824
 20
-118.191407576789
 30
0.0
 10
76.8209784421663
 20
-118.2422227351964
 30
0.0
 10
77.03285181450916
 20
-118.2463568497787
 30
0.0
 10
77.03285181450916
 20
-118.2463568497787
 30
0.0
 10
76.93948972685888
 20
-118.4261908341087
 30
0.0
 10
76.93948972685888
 20
-118.4261908341087
 30
0.0
  0
POLYLINE
  5
6A
330
45
100
AcDbEntity
  8
_U+30EC_U+30A4_U+30E4_U+30FC 1
370
     0
100
AcDb2dPolyline
 66
     1
 10
0.0
 20
0.0
 30
0.0
  0
VERTEX
  5
6B
330
6A
100
AcDbEntity
  8
_U+30EC_U+30A4_U+30E4_U+30FC 1
370
     0
100
AcDbVertex
100
AcDb2dVertex
 10
76.63494328596279
 20
-117.3918009146625
 30
0.0
  0
VERTEX
  5
6C
330
6A
100
AcDbEntity
  8
_U+30EC_U+30A4_U+30E4_U+30FC 1
370
     0
100
AcDbVertex
100
AcDb2dVertex
 10
75.72302651101717
 20
-117.3918009146625
 30
0.0
  0
VERTEX
  5
6D
330
6A
100
AcDbEntity
  8
_U+30EC_U+30A4_U+30E4_U+30FC 1
370
     0
100
AcDbVertex
100
AcDb2dVertex
 10
75.72302651101717
 20
-117.5039387727074
 30
0.0
  0
VERTEX
  5
6E
330
6A
100
AcDbEntity
  8
_U+30EC_U+30A4_U+30E4_U+30FC 1
370
     0
100
AcDbVertex
100
AcDb2dVertex
 10
76.63494328596279
 20
-117.5039387727074
 30
0.0
  0
VERTEX
  5
6F
330
6A
100
AcDbEntity
  8
_U+30EC_U+30A4_U+30E4_U+30FC 1
370
     0
100
AcDbVertex
100
AcDb2dVertex
 10
76.63494328596279
 20
-117.3918009146625
 30
0.0
  0
SEQEND
  5
70
330
6A
100
AcDbEntity
  8
_U+30EC_U+30A4_U+30E4_U+30FC 1
370
     0
  0
POLYLINE
  5
71
330
45
100
AcDbEntity
  8
_U+30EC_U+30A4_U+30E4_U+30FC 1
370
     0
100
AcDb2dPolyline
 66
     1
 10
0.0
 20
0.0
 30
0.0
  0
VERTEX
  5
72
330
71
100
AcDbEntity
  8
_U+30EC_U+30A4_U+30E4_U+30FC 1
370
     0
100
AcDbVertex
100
AcDb2dVertex
 10
76.63494328596279
 20
-117.6370917132123
 30
0.0
  0
VERTEX
  5
73
330
71
100
AcDbEntity
  8
_U+30EC_U+30A4_U+30E4_U+30FC 1
370
     0
100
AcDbVertex
100
AcDb2dVertex
 10
75.72302651101717
 20
-117.6370917132123
 30
0.0
  0
VERTEX
  5
74
330
71
100
AcDbEntity
  8
_U+30EC_U+30A4_U+30E4_U+30FC 1
370
     0
100
AcDbVertex
100
AcDb2dVertex
 10
75.72302651101717
 20
-117.747162513966
 30
0.0
  0
VERTEX
  5
75
330
71
100
AcDbEntity
  8
_U+30EC_U+30A4_U+30E4_U+30FC 1
370
     0
100
AcDbVertex
100
AcDb2dVertex
 10
76.63494328596279
 20
-117.747162513966
 30
0.0
  0
VERTEX
  5
76
330
71
100
AcDbEntity
  8
_U+30EC_U+30A4_U+30E4_U+30FC 1
370
     0
100
AcDbVertex
100
AcDb2dVertex
 10
76.63494328596279
 20
-117.6370917132123
 30
0.0
  0
SEQEND
  5
77
330
71
100
AcDbEntity
  8
_U+30EC_U+30A4_U+30E4_U+30FC 1
370
     0
  0
POLYLINE
  5
78
330
45
100
AcDbEntity
  8
_U+30EC_U+30A4_U+30E4_U+30FC 1
370
     0
100
AcDb2dPolyline
 66
     1
 10
0.0
 20
0.0
 30
0.0
  0
VERTEX
  5
79
330
78
100
AcDbEntity
  8
_U+30EC_U+30A4_U+30E4_U+30FC 1
370
     0
100
AcDbVertex
100
AcDb2dVertex
 10
76.63494328596279
 20
-117.8825547665363
 30
0.0
  0
VERTEX
  5
7A
330
78
100
AcDbEntity
  8
_U+30EC_U+30A4_U+30E4_U+30FC 1
370
     0
100
AcDbVertex
100
AcDb2dVertex
 10
75.72302651101717
 20
-117.8825547665363
 30
0.0
  0
VERTEX
  5
7B
330
78
100
AcDbEntity
  8
_U+30EC_U+30A4_U+30E4_U+30FC 1
370
     0
100
AcDbVertex
100
AcDb2dVertex
 10
75.72302651101717
 20
-117.9903862552246
 30
0.0
  0
VERTEX
  5
7C
330
78
100
AcDbEntity
  8
_U+30EC_U+30A4_U+30E4_U+30FC 1
370
     0
100
AcDbVertex
100
AcDb2dVertex
 10
76.63494328596279
 20
-117.9903862552246
 30
0.0
  0
VERTEX
  5
7D
330
78
100
AcDbEntity
  8
_U+30EC_U+30A4_U+30E4_U+30FC 1
370
     0
100
AcDbVertex
100
AcDb2dVertex
 10
76.63494328596279
 20
-117.8825547665363
 30
0.0
  0
SEQEND
  5
7E
330
78
100
AcDbEntity
  8
_U+30EC_U+30A4_U+30E4_U+30FC 1
370
     0
  0
SPLINE
  5
7F
330
45
100
AcDbEntity
  8
_U+30EC_U+30A4_U+30E4_U+30FC 1
370
     0
100
AcDbSpline
210
0.0
220
0.0
230
1.0
 70
    11
 71
     3
 72
    74
 73
    70
 74
     0
 42
0.0000000001
 43
0.0000000001
 12
1.0
 22
0.0
 32
0.0
 13
1.0
 23
0.0
 33
0.0
 40
0.0
 40
0.0
 40
0.0
 40
0.0
 40
1.0
 40
1.0
 40
1.0
 40
2.0
 40
2.0
 40
2.0
 40
3.0
 40
3.0
 40
3.0
 40
4.0
 40
4.0
 40
4.0
 40
5.0
 40
5.0
 40
5.0
 40
6.0
 40
6.0
 40
6.0
 40
7.0
 40
7.0
 40
7.0
 40
8.0
 40
8.0
 40
8.0
 40
9.0
 40
9.0
 40
9.0
 40
10.0
 40
10.0
 40
10.0
 40
11.0
 40
11.0
 40
11.0
 40
12.0
 40
12.0
 40
12.0
 40
13.0
 40
13.0
 40
13.0
 40
14.0
 40
14.0
 40
14.0
 40
15.0
 40
15.0
 40
15.0
 40
16.0
 40
16.0
 40
16.0
 40
17.0
 40
17.0
 40
17.0
 40
18.0
 40
18.0
 40
18.0
 40
19.0
 40
19.0
 40
19.0
 40
20.0
 40
20.0
 40
20.0
 40
21.0
 40
21.0
 40
21.0
 40
22.0
 40
22.0
 40
22.0
 40
23.0
 40
23.0
 40
23.0
 40
23.0
 10
76.9522365801543
 20
-116.9391153679006
 30
0.0
 10
76.9522365801543
 20
-116.9391153679006
 30
0.0
 10
76.79169513054167
 20
-116.9391153679006
 30
0.0
 10
76.79169513054167
 20
-116.9391153679006
 30
0.0
 10
76.79169513054167
 20
-116.9391153679006
 30
0.0
 10
76.79169513054167
 20
-117.0533202832367
 30
0.0
 10
76.79169513054167
 20
-117.0533202832367
 30
0.0
 10
76.79169513054167
 20
-117.0934556456398
 30
0.0
 10
76.79789630241511
 20
-117.1675251985727
 30
0.0
 10
76.80203041699741
 20
-117.1928466503893
 30
0.0
 10
76.80203041699741
 20
-117.1928466503893
 30
0.0
 10
76.59050155420307
 20
-117.1928466503893
 30
0.0
 10
76.59050155420307
 20
-117.1928466503893
 30
0.0
 10
76.60118135020734
 20
-117.1273898361695
 30
0.0
 10
76.6032484074985
 20
-117.0681341938233
 30
0.0
 10
76.6032484074985
 20
-117.0660671365321
 30
0.0
 10
76.6032484074985
 20
-117.0660671365321
 30
0.0
 10
76.6032484074985
 20
-116.9432494824829
 30
0.0
 10
76.6032484074985
 20
-116.9432494824829
 30
0.0
 10
76.6032484074985
 20
-116.9432494824829
 30
0.0
 10
76.42341442316845
 20
-116.9432494824829
 30
0.0
 10
76.42341442316845
 20
-116.9432494824829
 30
0.0
 10
76.40446639799958
 20
-117.0025051248292
 30
0.0
 10
76.35795760894871
 20
-117.1484049186296
 30
0.0
 10
76.2435804388384
 20
-117.2309149555013
 30
0.0
 10
76.2435804388384
 20
-117.2309149555013
 30
0.0
 10
76.08717310380807
 20
-117.1251505241041
 30
0.0
 10
76.08717310380807
 20
-117.1251505241041
 30
0.0
 10
76.16124265674094
 20
-117.0786417350533
 30
0.0
 10
76.27734237459386
 20
-117.0045721821204
 30
0.0
 10
76.27734237459386
 20
-116.6831447733466
 30
0.0
 10
76.27734237459386
 20
-116.6280232455826
 30
0.0
 10
76.27320826001156
 20
-116.5835815138229
 30
0.0
 10
76.27114120272041
 20
-116.5455132087108
 30
0.0
 10
76.34727781294444
 20
-116.5539536926497
 30
0.0
 10
76.42134736587731
 20
-116.5603271192974
 30
0.0
 10
76.4847371228059
 20
-116.5603271192974
 30
0.0
 10
76.6625040498448
 20
-116.5603271192974
 30
0.0
 10
76.86128605934371
 20
-116.5010714769511
 30
0.0
 10
76.92260875898116
 20
-116.471443655778
 30
0.0
 10
76.92260875898116
 20
-116.471443655778
 30
0.0
 10
77.04973278238688
 20
-116.6068359083483
 30
0.0
 10
77.04973278238688
 20
-116.6068359083483
 30
0.0
 10
77.05386689696918
 20
-116.6111422777049
 30
0.0
 10
77.05593395426033
 20
-116.6195827616437
 30
0.0
 10
77.05593395426033
 20
-116.6259561882914
 30
0.0
 10
77.05593395426033
 20
-116.6471435255257
 30
0.0
 10
77.04112004367376
 20
-116.6535169521734
 30
0.0
 10
77.02423907579603
 20
-116.6535169521734
 30
0.0
 10
77.00322399333601
 20
-116.6535169521734
 30
0.0
 10
76.98841008274943
 20
-116.6450764682346
 30
0.0
 10
76.96911754803203
 20
-116.6343966722303
 30
0.0
 10
76.79582924512397
 20
-116.6915852572854
 30
0.0
 10
76.57775470090765
 20
-116.716906709102
 30
0.0
 10
76.44442950562848
 20
-116.7189737663932
 30
0.0
 10
76.44442950562848
 20
-116.7189737663932
 30
0.0
 10
76.44029539104618
 20
-116.8014838032649
 30
0.0
 10
76.44029539104618
 20
-116.8014838032649
 30
0.0
 10
76.44029539104618
 20
-116.8014838032649
 30
0.0
 10
76.71314695347796
 20
-116.8014838032649
 30
0.0
 10
76.71314695347796
 20
-116.8014838032649
 30
0.0
 10
76.77033553853312
 20
-116.8014838032649
 30
0.0
 10
77.03285181450916
 20
-116.782535778096
 30
0.0
 10
77.07694903672035
 20
-116.7761623514483
 30
0.0
 10
77.07694903672035
 20
-116.7761623514483
 30
0.0
 10
77.07694903672035
 20
-116.9453165397741
 30
0.0
 10
77.07694903672035
 20
-116.9453165397741
 30
0.0
 10
77.0431871009649
 20
-116.9411824251918
 30
0.0
 10
77.03044024766947
 20
-116.9391153679006
 30
0.0
 10
76.9522365801543
 20
-116.9391153679006
 30
0.0
  0
HATCH
  5
80
330
45
100
AcDbEntity
  8
_U+30EC_U+30A4_U+30E4_U+30FC 1
 62
   179
420
  2234388
100
AcDbHatch
 10
0.0
 20
0.0
 30
0.0
210
0.0
220
0.0
230
1.0
  2
SOLID
 70
     1
 71
     0
 91
        6
 92
        1
 93
        1
 72
     4
 94
        3
 73
     0
 74
     1
 95
       71
 96
       67
 40
0.0
 40
0.0
 40
0.0
 40
0.0
 40
1.0
 40
1.0
 40
1.0
 40
2.0
 40
2.0
 40
2.0
 40
3.0
 40
3.0
 40
3.0
 40
4.0
 40
4.0
 40
4.0
 40
5.0
 40
5.0
 40
5.0
 40
6.0
 40
6.0
 40
6.0
 40
7.0
 40
7.0
 40
7.0
 40
8.0
 40
8.0
 40
8.0
 40
9.0
 40
9.0
 40
9.0
 40
10.0
 40
10.0
 40
10.0
 40
11.0
 40
11.0
 40
11.0
 40
12.0
 40
12.0
 40
12.0
 40
13.0
 40
13.0
 40
13.0
 40
14.0
 40
14.0
 40
14.0
 40
15.0
 40
15.0
 40
15.0
 40
16.0
 40
16.0
 40
16.0
 40
17.0
 40
17.0
 40
17.0
 40
18.0
 40
18.0
 40
18.0
 40
19.0
 40
19.0
 40
19.0
 40
20.0
 40
20.0
 40
20.0
 40
21.0
 40
21.0
 40
21.0
 40
22.0
 40
22.0
 40
22.0
 40
22.0
 10
76.10198701439465
 20
-116.6598903788211
 10
76.08717310380807
 20
-116.6598903788211
 10
76.07442625051264
 20
-116.6555840094646
 10
76.0489325439218
 20
-116.6471435255257
 10
75.90733911947802
 20
-116.6936523145766
 10
75.73370630702144
 20
-116.7105332824543
 10
75.59417993986882
 20
-116.7148396518109
 10
75.59417993986882
 20
-116.7148396518109
 10
75.59211288257767
 20
-116.8037231153303
 10
75.59211288257767
 20
-116.8037231153303
 10
75.59211288257767
 20
-116.8037231153303
 10
75.85221759171404
 20
-116.8037231153303
 10
75.85221759171404
 20
-116.8037231153303
 10
75.90527206218688
 20
-116.8037231153303
 10
76.08717310380807
 20
-116.7952826313915
 10
76.13161483556779
 20
-116.7889092047437
 10
76.13161483556779
 20
-116.7889092047437
 10
76.13161483556779
 20
-116.9496229091307
 10
76.13161483556779
 20
-116.9496229091307
 10
76.0764933078038
 20
-116.9432494824829
 10
75.95178085123776
 20
-116.9411824251918
 10
75.91354029135148
 20
-116.9432494824829
 10
75.91354029135148
 20
-116.9432494824829
 10
75.91354029135148
 20
-117.0533202832367
 10
75.91354029135148
 20
-117.0533202832367
 10
75.91354029135148
 20
-117.0998290722875
 10
75.91560734864262
 20
-117.1632188292161
 10
75.9221530300646
 20
-117.2014593891024
 10
75.9221530300646
 20
-117.2014593891024
 10
75.72957219243914
 20
-117.2014593891024
 10
75.72957219243914
 20
-117.2014593891024
 10
75.73577336431259
 20
-117.161151771925
 10
75.74231904573456
 20
-117.0786417350533
 10
75.74231904573456
 20
-117.0638278244667
 10
75.74231904573456
 20
-117.0638278244667
 10
75.74231904573456
 20
-116.9432494824829
 10
75.74231904573456
 20
-116.9432494824829
 10
75.74231904573456
 20
-116.9432494824829
 10
75.5772989719911
 20
-116.9432494824829
 10
75.5772989719911
 20
-116.9432494824829
 10
75.53492429752252
 20
-117.1632188292161
 10
75.47980276975852
 20
-117.2436618087967
 10
75.37403833836136
 20
-117.3430528135462
 10
75.37403833836136
 20
-117.3430528135462
 10
75.20695120732674
 20
-117.2288478982101
 10
75.20695120732674
 20
-117.2288478982101
 10
75.27034096425534
 20
-117.1802720518681
 10
75.42054712741223
 20
-117.0681341938233
 10
75.42054712741223
 20
-116.7189737663932
 10
75.42054712741223
 20
-116.6364637295214
 10
75.41227889824764
 20
-116.5899549404706
 10
75.40366615953451
 20
-116.5413790941285
 10
75.54973820810909
 20
-116.5561930047151
 10
75.56455211869567
 20
-116.5561930047151
 10
75.60038111174227
 20
-116.5561930047151
 10
75.70855710997911
 20
-116.5561930047151
 10
75.85015053442288
 20
-116.5391397820631
 10
76.01103649358404
 20
-116.4778170824257
 10
76.01103649358404
 20
-116.4778170824257
 10
76.12506915414582
 20
-116.6090752204137
 10
76.12506915414582
 20
-116.6090752204137
 10
76.13161483556779
 20
-116.6154486470614
 10
76.13574895015009
 20
-116.6238891310003
 10
76.13574895015009
 20
-116.6323296149391
 10
76.13574895015009
 20
-116.6555840094646
 10
76.11680092498122
 20
-116.6598903788211
 10
76.10198701439465
 20
-116.6598903788211
 97
        0
 97
        0
 92
        1
 93
        1
 72
     4
 94
        3
 73
     0
 74
     1
 95
       74
 96
       70
 40
0.0
 40
0.0
 40
0.0
 40
0.0
 40
1.0
 40
1.0
 40
1.0
 40
2.0
 40
2.0
 40
2.0
 40
3.0
 40
3.0
 40
3.0
 40
4.0
 40
4.0
 40
4.0
 40
5.0
 40
5.0
 40
5.0
 40
6.0
 40
6.0
 40
6.0
 40
7.0
 40
7.0
 40
7.0
 40
8.0
 40
8.0
 40
8.0
 40
9.0
 40
9.0
 40
9.0
 40
10.0
 40
10.0
 40
10.0
 40
11.0
 40
11.0
 40
11.0
 40
12.0
 40
12.0
 40
12.0
 40
13.0
 40
13.0
 40
13.0
 40
14.0
 40
14.0
 40
14.0
 40
15.0
 40
15.0
 40
15.0
 40
16.0
 40
16.0
 40
16.0
 40
17.0
 40
17.0
 40
17.0
 40
18.0
 40
18.0
 40
18.0
 40
19.0
 40
19.0
 40
19.0
 40
20.0
 40
20.0
 40
20.0
 40
21.0
 40
21.0
 40
21.0
 40
22.0
 40
22.0
 40
22.0
 40
23.0
 40
23.0
 40
23.0
 40
23.0
 10
76.93948972685888
 20
-118.4261908341087
 10
76.72589380677339
 20
-118.4156832928787
 10
76.52504473998333
 20
-118.3288668866504
 10
76.34934487023558
 20
-118.2082885446667
 10
76.34934487023558
 20
-118.2082885446667
 10
76.44684107246816
 20
-118.1216443932126
 10
76.44684107246816
 20
-118.1216443932126
 10
76.44684107246816
 20
-118.1216443932126
 10
75.8945922661826
 20
-118.1216443932126
 10
75.8945922661826
 20
-118.1216443932126
 10
75.8945922661826
 20
-118.1216443932126
 10
75.97486299098892
 20
-118.1850341501412
 10
75.97486299098892
 20
-118.1850341501412
 10
75.98140867241091
 20
-118.1893405194978
 10
75.99174395886665
 20
-118.1998480607278
 10
75.99174395886665
 20
-118.2146619713144
 10
75.99174395886665
 20
-118.2549695884918
 10
75.91767440593378
 20
-118.2485961618441
 10
75.9028604953472
 20
-118.2463568497787
 10
75.67238360738399
 20
-118.3860554717056
 10
75.52872312564907
 20
-118.4177503501699
 10
75.42502575154305
 20
-118.4346313180476
 10
75.42502575154305
 20
-118.4346313180476
 10
75.29583467084619
 20
-118.257036645783
 10
75.29583467084619
 20
-118.257036645783
 10
75.54353703623565
 20
-118.2253417673187
 10
75.644822843502
 20
-118.1786607234935
 10
75.73370630702144
 20
-118.1257785077949
 10
75.65963675408857
 20
-118.1280178198604
 10
75.54560409352679
 20
-118.1300848771515
 10
75.5139092150625
 20
-118.1321519344427
 10
75.52872312564907
 20
-118.0432684709232
 10
75.53079018294022
 20
-117.9142496450006
 10
75.53079018294022
 20
-117.8401800920677
 10
75.53079018294022
 20
-117.8401800920677
 10
75.53079018294022
 20
-117.539767765754
 10
75.53079018294022
 20
-117.539767765754
 10
75.53079018294022
 20
-117.4403767610045
 10
75.52424450151825
 20
-117.340985756255
 10
75.5139092150625
 20
-117.2436618087967
 10
75.61519502232885
 20
-117.2500352354444
 10
75.84601641984058
 20
-117.2564086620922
 10
75.9538479085289
 20
-117.2564086620922
 10
75.9538479085289
 20
-117.2564086620922
 10
76.37690563411758
 20
-117.2564086620922
 10
76.37690563411758
 20
-117.2564086620922
 10
76.49541691881018
 20
-117.2564086620922
 10
76.53779159327875
 20
-117.2564086620922
 10
76.62012937537622
 20
-117.2521022927356
 10
76.76826848124196
 20
-117.2457288660879
 10
76.78514944911969
 20
-117.2457288660879
 10
76.83165823817056
 20
-117.2436618087967
 10
76.82339000900596
 20
-117.3241047883773
 10
76.81891138487514
 20
-117.4827514354731
 10
76.81891138487514
 20
-117.5652614723448
 10
76.81891138487514
 20
-117.5652614723448
 10
76.81891138487514
 20
-117.850859888072
 10
76.81891138487514
 20
-117.850859888072
 10
76.81891138487514
 20
-117.9226901289395
 10
76.8209784421663
 20
-118.0539482669275
 10
76.83165823817056
 20
-118.1321519344427
 10
76.75965574252884
 20
-118.1280178198604
 10
76.63701034325395
 20
-118.1257785077949
 10
76.55880667573878
 20
-118.1237114505038
 10
76.66870522171824
 20
-118.191407576789
 10
76.8209784421663
 20
-118.2422227351964
 10
77.03285181450916
 20
-118.2463568497787
 10
77.03285181450916
 20
-118.2463568497787
 10
76.93948972685888
 20
-118.4261908341087
 10
76.93948972685888
 20
-118.4261908341087
 97
        0
 97
        0
 92
        1
 93
        4
 72
     1
 10
76.63494328596279
 20
-117.3918009146625
 11
75.72302651101717
 21
-117.3918009146625
 72
     1
 10
75.72302651101717
 20
-117.3918009146625
 11
75.72302651101717
 21
-117.5039387727074
 72
     1
 10
75.72302651101717
 20
-117.5039387727074
 11
76.63494328596279
 21
-117.5039387727074
 72
     1
 10
76.63494328596279
 20
-117.5039387727074
 11
76.63494328596279
 21
-117.3918009146625
 97
        0
 92
        1
 93
        4
 72
     1
 10
76.63494328596279
 20
-117.6370917132123
 11
75.72302651101717
 21
-117.6370917132123
 72
     1
 10
75.72302651101717
 20
-117.6370917132123
 11
75.72302651101717
 21
-117.747162513966
 72
     1
 10
75.72302651101717
 20
-117.747162513966
 11
76.63494328596279
 21
-117.747162513966
 72
     1
 10
76.63494328596279
 20
-117.747162513966
 11
76.63494328596279
 21
-117.6370917132123
 97
        0
 92
        1
 93
        4
 72
     1
 10
76.63494328596279
 20
-117.8825547665363
 11
75.72302651101717
 21
-117.8825547665363
 72
     1
 10
75.72302651101717
 20
-117.8825547665363
 11
75.72302651101717
 21
-117.9903862552246
 72
     1
 10
75.72302651101717
 20
-117.9903862552246
 11
76.63494328596279
 21
-117.9903862552246
 72
     1
 10
76.63494328596279
 20
-117.9903862552246
 11
76.63494328596279
 21
-117.8825547665363
 97
        0
 92
        1
 93
        1
 72
     4
 94
        3
 73
     0
 74
     1
 95
       74
 96
       70
 40
0.0
 40
0.0
 40
0.0
 40
0.0
 40
1.0
 40
1.0
 40
1.0
 40
2.0
 40
2.0
 40
2.0
 40
3.0
 40
3.0
 40
3.0
 40
4.0
 40
4.0
 40
4.0
 40
5.0
 40
5.0
 40
5.0
 40
6.0
 40
6.0
 40
6.0
 40
7.0
 40
7.0
 40
7.0
 40
8.0
 40
8.0
 40
8.0
 40
9.0
 40
9.0
 40
9.0
 40
10.0
 40
10.0
 40
10.0
 40
11.0
 40
11.0
 40
11.0
 40
12.0
 40
12.0
 40
12.0
 40
13.0
 40
13.0
 40
13.0
 40
14.0
 40
14.0
 40
14.0
 40
15.0
 40
15.0
 40
15.0
 40
16.0
 40
16.0
 40
16.0
 40
17.0
 40
17.0
 40
17.0
 40
18.0
 40
18.0
 40
18.0
 40
19.0
 40
19.0
 40
19.0
 40
20.0
 40
20.0
 40
20.0
 40
21.0
 40
21.0
 40
21.0
 40
22.0
 40
22.0
 40
22.0
 40
23.0
 40
23.0
 40
23.0
 40
23.0
 10
76.9522365801543
 20
-116.9391153679006
 10
76.9522365801543
 20
-116.9391153679006
 10
76.79169513054167
 20
-116.9391153679006
 10
76.79169513054167
 20
-116.9391153679006
 10
76.79169513054167
 20
-116.9391153679006
 10
76.79169513054167
 20
-117.0533202832367
 10
76.79169513054167
 20
-117.0533202832367
 10
76.79169513054167
 20
-117.0934556456398
 10
76.79789630241511
 20
-117.1675251985727
 10
76.80203041699741
 20
-117.1928466503893
 10
76.80203041699741
 20
-117.1928466503893
 10
76.59050155420307
 20
-117.1928466503893
 10
76.59050155420307
 20
-117.1928466503893
 10
76.60118135020734
 20
-117.1273898361695
 10
76.6032484074985
 20
-117.0681341938233
 10
76.6032484074985
 20
-117.0660671365321
 10
76.6032484074985
 20
-117.0660671365321
 10
76.6032484074985
 20
-116.9432494824829
 10
76.6032484074985
 20
-116.9432494824829
 10
76.6032484074985
 20
-116.9432494824829
 10
76.42341442316845
 20
-116.9432494824829
 10
76.42341442316845
 20
-116.9432494824829
 10
76.40446639799958
 20
-117.0025051248292
 10
76.35795760894871
 20
-117.1484049186296
 10
76.2435804388384
 20
-117.2309149555013
 10
76.2435804388384
 20
-117.2309149555013
 10
76.08717310380807
 20
-117.1251505241041
 10
76.08717310380807
 20
-117.1251505241041
 10
76.16124265674094
 20
-117.0786417350533
 10
76.27734237459386
 20
-117.0045721821204
 10
76.27734237459386
 20
-116.6831447733466
 10
76.27734237459386
 20
-116.6280232455826
 10
76.27320826001156
 20
-116.5835815138229
 10
76.27114120272041
 20
-116.5455132087108
 10
76.34727781294444
 20
-116.5539536926497
 10
76.42134736587731
 20
-116.5603271192974
 10
76.4847371228059
 20
-116.5603271192974
 10
76.6625040498448
 20
-116.5603271192974
 10
76.86128605934371
 20
-116.5010714769511
 10
76.92260875898116
 20
-116.471443655778
 10
76.92260875898116
 20
-116.471443655778
 10
77.04973278238688
 20
-116.6068359083483
 10
77.04973278238688
 20
-116.6068359083483
 10
77.05386689696918
 20
-116.6111422777049
 10
77.05593395426033
 20
-116.6195827616437
 10
77.05593395426033
 20
-116.6259561882914
 10
77.05593395426033
 20
-116.6471435255257
 10
77.04112004367376
 20
-116.6535169521734
 10
77.02423907579603
 20
-116.6535169521734
 10
77.00322399333601
 20
-116.6535169521734
 10
76.98841008274943
 20
-116.6450764682346
 10
76.96911754803203
 20
-116.6343966722303
 10
76.79582924512397
 20
-116.6915852572854
 10
76.57775470090765
 20
-116.716906709102
 10
76.44442950562848
 20
-116.7189737663932
 10
76.44442950562848
 20
-116.7189737663932
 10
76.44029539104618
 20
-116.8014838032649
 10
76.44029539104618
 20
-116.8014838032649
 10
76.44029539104618
 20
-116.8014838032649
 10
76.71314695347796
 20
-116.8014838032649
 10
76.71314695347796
 20
-116.8014838032649
 10
76.77033553853312
 20
-116.8014838032649
 10
77.03285181450916
 20
-116.782535778096
 10
77.07694903672035
 20
-116.7761623514483
 10
77.07694903672035
 20
-116.7761623514483
 10
77.07694903672035
 20
-116.9453165397741
 10
77.07694903672035
 20
-116.9453165397741
 10
77.0431871009649
 20
-116.9411824251918
 10
77.03044024766947
 20
-116.9391153679006
 10
76.9522365801543
 20
-116.9391153679006
 97
        0
 97
        0
 75
     2
 76
     1
 98
        0
  0
SPLINE
  5
81
330
45
100
AcDbEntity
  8
_U+30EC_U+30A4_U+30E4_U+30FC 1
370
     0
100
AcDbSpline
210
0.0
220
0.0
230
1.0
 70
    11
 71
     3
 72
    53
 73
    49
 74
     0
 42
0.0000000001
 43
0.0000000001
 12
1.0
 22
0.0
 32
0.0
 13
1.0
 23
0.0
 33
0.0
 40
0.0
 40
0.0
 40
0.0
 40
0.0
 40
1.0
 40
1.0
 40
1.0
 40
2.0
 40
2.0
 40
2.0
 40
3.0
 40
3.0
 40
3.0
 40
4.0
 40
4.0
 40
4.0
 40
5.0
 40
5.0
 40
5.0
 40
6.0
 40
6.0
 40
6.0
 40
7.0
 40
7.0
 40
7.0
 40
8.0
 40
8.0
 40
8.0
 40
9.0
 40
9.0
 40
9.0
 40
10.0
 40
10.0
 40
10.0
 40
11.0
 40
11.0
 40
11.0
 40
12.0
 40
12.0
 40
12.0
 40
13.0
 40
13.0
 40
13.0
 40
14.0
 40
14.0
 40
14.0
 40
15.0
 40
15.0
 40
15.0
 40
16.0
 40
16.0
 40
16.0
 40
16.0
 10
78.40503334628416
 20
-118.3014783775427
 30
0.0
 10
78.21486407549837
 20
-118.3014783775427
 30
0.0
 10
78.15560843315207
 20
-118.1765936662024
 30
0.0
 10
78.15560843315207
 20
-118.0284545603366
 30
0.0
 10
78.15560843315207
 20
-118.0284545603366
 30
0.0
 10
78.15560843315207
 20
-117.3346123296073
 30
0.0
 10
78.15560843315207
 20
-117.3346123296073
 30
0.0
 10
78.15560843315207
 20
-117.3346123296073
 30
0.0
 10
77.97370739153088
 20
-117.3346123296073
 30
0.0
 10
77.97370739153088
 20
-117.3346123296073
 30
0.0
 10
77.97370739153088
 20
-117.3346123296073
 30
0.0
 10
77.97370739153088
 20
-117.1422037467561
 30
0.0
 10
77.97370739153088
 20
-117.1422037467561
 30
0.0
 10
77.97370739153088
 20
-117.1422037467561
 30
0.0
 10
78.15560843315207
 20
-117.1422037467561
 30
0.0
 10
78.15560843315207
 20
-117.1422037467561
 30
0.0
 10
78.15560843315207
 20
-117.1422037467561
 30
0.0
 10
78.15560843315207
 20
-116.8269775098558
 30
0.0
 10
78.15560843315207
 20
-116.8269775098558
 30
0.0
 10
78.15560843315207
 20
-116.8269775098558
 30
0.0
 10
78.37333846781986
 20
-116.8269775098558
 30
0.0
 10
78.37333846781986
 20
-116.8269775098558
 30
0.0
 10
78.37333846781986
 20
-116.8269775098558
 30
0.0
 10
78.37333846781986
 20
-117.1422037467561
 30
0.0
 10
78.37333846781986
 20
-117.1422037467561
 30
0.0
 10
78.37333846781986
 20
-117.1422037467561
 30
0.0
 10
78.56385224815418
 20
-117.1422037467561
 30
0.0
 10
78.56385224815418
 20
-117.1422037467561
 30
0.0
 10
78.56385224815418
 20
-117.1422037467561
 30
0.0
 10
78.56385224815418
 20
-117.3346123296073
 30
0.0
 10
78.56385224815418
 20
-117.3346123296073
 30
0.0
 10
78.56385224815418
 20
-117.3346123296073
 30
0.0
 10
78.37333846781986
 20
-117.3346123296073
 30
0.0
 10
78.37333846781986
 20
-117.3346123296073
 30
0.0
 10
78.37333846781986
 20
-117.3346123296073
 30
0.0
 10
78.37333846781986
 20
-118.0031331085201
 30
0.0
 10
78.37333846781986
 20
-118.0031331085201
 30
0.0
 10
78.37333846781986
 20
-118.0877102026829
 30
0.0
 10
78.42639293829271
 20
-118.1109645972084
 30
0.0
 10
78.49805092438591
 20
-118.1109645972084
 30
0.0
 10
78.50873072039018
 20
-118.1109645972084
 30
0.0
 10
78.53215736968988
 20
-118.1109645972084
 30
0.0
 10
78.56385224815418
 20
-118.1068304826261
 30
0.0
 10
78.56385224815418
 20
-118.1068304826261
 30
0.0
 10
78.56385224815418
 20
-118.2782239830173
 30
0.0
 10
78.56385224815418
 20
-118.2782239830173
 30
0.0
 10
78.53009031239873
 20
-118.2907985815384
 30
0.0
 10
78.45602075946586
 20
-118.3014783775427
 30
0.0
 10
78.40503334628416
 20
-118.3014783775427
 30
0.0
  0
HATCH
  5
82
330
45
100
AcDbEntity
  8
_U+30EC_U+30A4_U+30E4_U+30FC 1
 62
   179
420
  2234388
100
AcDbHatch
 10
0.0
 20
0.0
 30
0.0
210
0.0
220
0.0
230
1.0
  2
SOLID
 70
     1
 71
     0
 91
        1
 92
        1
 93
        1
 72
     4
 94
        3
 73
     0
 74
     1
 95
       53
 96
       49
 40
0.0
 40
0.0
 40
0.0
 40
0.0
 40
1.0
 40
1.0
 40
1.0
 40
2.0
 40
2.0
 40
2.0
 40
3.0
 40
3.0
 40
3.0
 40
4.0
 40
4.0
 40
4.0
 40
5.0
 40
5.0
 40
5.0
 40
6.0
 40
6.0
 40
6.0
 40
7.0
 40
7.0
 40
7.0
 40
8.0
 40
8.0
 40
8.0
 40
9.0
 40
9.0
 40
9.0
 40
10.0
 40
10.0
 40
10.0
 40
11.0
 40
11.0
 40
11.0
 40
12.0
 40
12.0
 40
12.0
 40
13.0
 40
13.0
 40
13.0
 40
14.0
 40
14.0
 40
14.0
 40
15.0
 40
15.0
 40
15.0
 40
16.0
 40
16.0
 40
16.0
 40
16.0
 10
78.40503334628416
 20
-118.3014783775427
 10
78.21486407549837
 20
-118.3014783775427
 10
78.15560843315207
 20
-118.1765936662024
 10
78.15560843315207
 20
-118.0284545603366
 10
78.15560843315207
 20
-118.0284545603366
 10
78.15560843315207
 20
-117.3346123296073
 10
78.15560843315207
 20
-117.3346123296073
 10
78.15560843315207
 20
-117.3346123296073
 10
77.97370739153088
 20
-117.3346123296073
 10
77.97370739153088
 20
-117.3346123296073
 10
77.97370739153088
 20
-117.3346123296073
 10
77.97370739153088
 20
-117.1422037467561
 10
77.97370739153088
 20
-117.1422037467561
 10
77.97370739153088
 20
-117.1422037467561
 10
78.15560843315207
 20
-117.1422037467561
 10
78.15560843315207
 20
-117.1422037467561
 10
78.15560843315207
 20
-117.1422037467561
 10
78.15560843315207
 20
-116.8269775098558
 10
78.15560843315207
 20
-116.8269775098558
 10
78.15560843315207
 20
-116.8269775098558
 10
78.37333846781986
 20
-116.8269775098558
 10
78.37333846781986
 20
-116.8269775098558
 10
78.37333846781986
 20
-116.8269775098558
 10
78.37333846781986
 20
-117.1422037467561
 10
78.37333846781986
 20
-117.1422037467561
 10
78.37333846781986
 20
-117.1422037467561
 10
78.56385224815418
 20
-117.1422037467561
 10
78.56385224815418
 20
-117.1422037467561
 10
78.56385224815418
 20
-117.1422037467561
 10
78.56385224815418
 20
-117.3346123296073
 10
78.56385224815418
 20
-117.3346123296073
 10
78.56385224815418
 20
-117.3346123296073
 10
78.37333846781986
 20
-117.3346123296073
 10
78.37333846781986
 20
-117.3346123296073
 10
78.37333846781986
 20
-117.3346123296073
 10
78.37333846781986
 20
-118.0031331085201
 10
78.37333846781986
 20
-118.0031331085201
 10
78.37333846781986
 20
-118.0877102026829
 10
78.42639293829271
 20
-118.1109645972084
 10
78.49805092438591
 20
-118.1109645972084
 10
78.50873072039018
 20
-118.1109645972084
 10
78.53215736968988
 20
-118.1109645972084
 10
78.56385224815418
 20
-118.1068304826261
 10
78.56385224815418
 20
-118.1068304826261
 10
78.56385224815418
 20
-118.2782239830173
 10
78.56385224815418
 20
-118.2782239830173
 10
78.53009031239873
 20
-118.2907985815384
 10
78.45602075946586
 20
-118.3014783775427
 10
78.40503334628416
 20
-118.3014783775427
 97
        0
 97
        0
 75
     2
 76
     1
 98
        0
  0
POLYLINE
  5
83
330
45
100
AcDbEntity
  8
_U+30EC_U+30A4_U+30E4_U+30FC 1
370
     0
100
AcDb2dPolyline
 66
     1
 10
0.0
 20
0.0
 30
0.0
  0
VERTEX
  5
84
330
83
100
AcDbEntity
  8
_U+30EC_U+30A4_U+30E4_U+30FC 1
370
     0
100
AcDbVertex
100
AcDb2dVertex
 10
78.73748506061077
 20
-117.3642401507805
 30
0.0
  0
VERTEX
  5
85
330
83
100
AcDbEntity
  8
_U+30EC_U+30A4_U+30E4_U+30FC 1
370
     0
100
AcDbVertex
100
AcDb2dVertex
 10
78.73748506061077
 20
-117.1590847146338
 30
0.0
  0
VERTEX
  5
86
330
83
100
AcDbEntity
  8
_U+30EC_U+30A4_U+30E4_U+30FC 1
370
     0
100
AcDbVertex
100
AcDb2dVertex
 10
79.91570771656622
 20
-117.1590847146338
 30
0.0
  0
VERTEX
  5
87
330
83
100
AcDbEntity
  8
_U+30EC_U+30A4_U+30E4_U+30FC 1
370
     0
100
AcDbVertex
100
AcDb2dVertex
 10
79.91570771656622
 20
-117.3642401507805
 30
0.0
  0
VERTEX
  5
88
330
83
100
AcDbEntity
  8
_U+30EC_U+30A4_U+30E4_U+30FC 1
370
     0
100
AcDbVertex
100
AcDb2dVertex
 10
78.73748506061077
 20
-117.3642401507805
 30
0.0
  0
SEQEND
  5
89
330
83
100
AcDbEntity
  8
_U+30EC_U+30A4_U+30E4_U+30FC 1
370
     0
  0
POLYLINE
  5
8A
330
45
100
AcDbEntity
  8
_U+30EC_U+30A4_U+30E4_U+30FC 1
370
     0
100
AcDb2dPolyline
 66
     1
 10
0.0
 20
0.0
 30
0.0
  0
VERTEX
  5
8B
330
8A
100
AcDbEntity
  8
_U+30EC_U+30A4_U+30E4_U+30FC 1
370
     0
100
AcDbVertex
100
AcDb2dVertex
 10
78.73748506061077
 20
-117.7979776723734
 30
0.0
  0
VERTEX
  5
8C
330
8A
100
AcDbEntity
  8
_U+30EC_U+30A4_U+30E4_U+30FC 1
370
     0
100
AcDbVertex
100
AcDb2dVertex
 10
78.73748506061077
 20
-117.5928222362268
 30
0.0
  0
VERTEX
  5
8D
330
8A
100
AcDbEntity
  8
_U+30EC_U+30A4_U+30E4_U+30FC 1
370
     0
100
AcDbVertex
100
AcDb2dVertex
 10
79.91570771656622
 20
-117.5928222362268
 30
0.0
  0
VERTEX
  5
8E
330
8A
100
AcDbEntity
  8
_U+30EC_U+30A4_U+30E4_U+30FC 1
370
     0
100
AcDbVertex
100
AcDb2dVertex
 10
79.91570771656622
 20
-117.7979776723734
 30
0.0
  0
VERTEX
  5
8F
330
8A
100
AcDbEntity
  8
_U+30EC_U+30A4_U+30E4_U+30FC 1
370
     0
100
AcDbVertex
100
AcDb2dVertex
 10
78.73748506061077
 20
-117.7979776723734
 30
0.0
  0
SEQEND
  5
90
330
8A
100
AcDbEntity
  8
_U+30EC_U+30A4_U+30E4_U+30FC 1
370
     0
  0
HATCH
  5
91
330
45
100
AcDbEntity
  8
_U+30EC_U+30A4_U+30E4_U+30FC 1
 62
   179
420
  2234388
100
AcDbHatch
 10
0.0
 20
0.0
 30
0.0
210
0.0
220
0.0
230
1.0
  2
SOLID
 70
     1
 71
     0
 91
        2
 92
        1
 93
        4
 72
     1
 10
78.73748506061077
 20
-117.3642401507805
 11
78.73748506061077
 21
-117.1590847146338
 72
     1
 10
78.73748506061077
 20
-117.1590847146338
 11
79.91570771656622
 21
-117.1590847146338
 72
     1
 10
79.91570771656622
 20
-117.1590847146338
 11
79.91570771656622
 21
-117.3642401507805
 72
     1
 10
79.91570771656622
 20
-117.3642401507805
 11
78.73748506061077
 21
-117.3642401507805
 97
        0
 92
        1
 93
        4
 72
     1
 10
78.73748506061077
 20
-117.7979776723734
 11
78.73748506061077
 21
-117.5928222362268
 72
     1
 10
78.73748506061077
 20
-117.5928222362268
 11
79.91570771656622
 21
-117.5928222362268
 72
     1
 10
79.91570771656622
 20
-117.5928222362268
 11
79.91570771656622
 21
-117.7979776723734
 72
     1
 10
79.91570771656622
 20
-117.7979776723734
 11
78.73748506061077
 21
-117.7979776723734
 97
        0
 75
     2
 76
     1
 98
        0
  0
SPLINE
  5
92
330
45
100
AcDbEntity
  8
_U+30EC_U+30A4_U+30E4_U+30FC 1
370
     0
100
AcDbSpline
210
0.0
220
0.0
230
1.0
 70
    11
 71
     3
 72
    26
 73
    22
 74
     0
 42
0.0000000001
 43
0.0000000001
 12
1.0
 22
0.0
 32
0.0
 13
1.0
 23
0.0
 33
0.0
 40
0.0
 40
0.0
 40
0.0
 40
0.0
 40
1.0
 40
1.0
 40
1.0
 40
2.0
 40
2.0
 40
2.0
 40
3.0
 40
3.0
 40
3.0
 40
4.0
 40
4.0
 40
4.0
 40
5.0
 40
5.0
 40
5.0
 40
6.0
 40
6.0
 40
6.0
 40
7.0
 40
7.0
 40
7.0
 40
7.0
 10
80.59163545077223
 20
-118.2506632191353
 30
0.0
 10
80.59163545077223
 20
-118.2506632191353
 30
0.0
 10
80.59163545077223
 20
-117.1463378613384
 30
0.0
 10
80.59163545077223
 20
-117.1463378613384
 30
0.0
 10
80.59163545077223
 20
-117.1463378613384
 30
0.0
 10
80.2615953032853
 20
-117.1463378613384
 30
0.0
 10
80.2615953032853
 20
-117.1463378613384
 30
0.0
 10
80.2615953032853
 20
-117.1463378613384
 30
0.0
 10
80.2615953032853
 20
-116.9981987554727
 30
0.0
 10
80.2615953032853
 20
-116.9981987554727
 30
0.0
 10
80.59370250806339
 20
-116.9835570996604
 30
0.0
 10
80.64021129711426
 20
-116.8206040832081
 30
0.0
 10
80.6698391182874
 20
-116.706399167872
 30
0.0
 10
80.6698391182874
 20
-116.706399167872
 30
0.0
 10
80.815911166862
 20
-116.706399167872
 30
0.0
 10
80.815911166862
 20
-116.706399167872
 30
0.0
 10
80.815911166862
 20
-116.706399167872
 30
0.0
 10
80.815911166862
 20
-118.2506632191353
 30
0.0
 10
80.815911166862
 20
-118.2506632191353
 30
0.0
 10
80.815911166862
 20
-118.2506632191353
 30
0.0
 10
80.59163545077223
 20
-118.2506632191353
 30
0.0
 10
80.59163545077223
 20
-118.2506632191353
 30
0.0
  0
HATCH
  5
93
330
45
100
AcDbEntity
  8
_U+30EC_U+30A4_U+30E4_U+30FC 1
 62
   179
420
  2234388
100
AcDbHatch
 10
0.0
 20
0.0
 30
0.0
210
0.0
220
0.0
230
1.0
  2
SOLID
 70
     1
 71
     0
 91
        1
 92
        1
 93
        1
 72
     4
 94
        3
 73
     0
 74
     1
 95
       26
 96
       22
 40
0.0
 40
0.0
 40
0.0
 40
0.0
 40
1.0
 40
1.0
 40
1.0
 40
2.0
 40
2.0
 40
2.0
 40
3.0
 40
3.0
 40
3.0
 40
4.0
 40
4.0
 40
4.0
 40
5.0
 40
5.0
 40
5.0
 40
6.0
 40
6.0
 40
6.0
 40
7.0
 40
7.0
 40
7.0
 40
7.0
 10
80.59163545077223
 20
-118.2506632191353
 10
80.59163545077223
 20
-118.2506632191353
 10
80.59163545077223
 20
-117.1463378613384
 10
80.59163545077223
 20
-117.1463378613384
 10
80.59163545077223
 20
-117.1463378613384
 10
80.2615953032853
 20
-117.1463378613384
 10
80.2615953032853
 20
-117.1463378613384
 10
80.2615953032853
 20
-117.1463378613384
 10
80.2615953032853
 20
-116.9981987554727
 10
80.2615953032853
 20
-116.9981987554727
 10
80.59370250806339
 20
-116.9835570996604
 10
80.64021129711426
 20
-116.8206040832081
 10
80.6698391182874
 20
-116.706399167872
 10
80.6698391182874
 20
-116.706399167872
 10
80.815911166862
 20
-116.706399167872
 10
80.815911166862
 20
-116.706399167872
 10
80.815911166862
 20
-116.706399167872
 10
80.815911166862
 20
-118.2506632191353
 10
80.815911166862
 20
-118.2506632191353
 10
80.815911166862
 20
-118.2506632191353
 10
80.59163545077223
 20
-118.2506632191353
 10
80.59163545077223
 20
-118.2506632191353
 97
        0
 97
        0
 75
     2
 76
     1
 98
        0
  0
POLYLINE
  5
94
330
45
100
AcDbEntity
  8
_U+30EC_U+30A4_U+30E4_U+30FC 1
370
     0
100
AcDb2dPolyline
 66
     1
 10
0.0
 20
0.0
 30
0.0
  0
VERTEX
  5
95
330
94
100
AcDbEntity
  8
_U+30EC_U+30A4_U+30E4_U+30FC 1
370
     0
100
AcDbVertex
100
AcDb2dVertex
 10
81.3771172214092
 20
-118.2506632191353
 30
0.0
  0
VERTEX
  5
96
330
94
100
AcDbEntity
  8
_U+30EC_U+30A4_U+30E4_U+30FC 1
370
     0
100
AcDbVertex
100
AcDb2dVertex
 10
81.3771172214092
 20
-117.9989989939378
 30
0.0
  0
VERTEX
  5
97
330
94
100
AcDbEntity
  8
_U+30EC_U+30A4_U+30E4_U+30FC 1
370
     0
100
AcDbVertex
100
AcDb2dVertex
 10
81.62895370138096
 20
-117.9989989939378
 30
0.0
  0
VERTEX
  5
98
330
94
100
AcDbEntity
  8
_U+30EC_U+30A4_U+30E4_U+30FC 1
370
     0
100
AcDbVertex
100
AcDb2dVertex
 10
81.62895370138096
 20
-118.2506632191353
 30
0.0
  0
VERTEX
  5
99
330
94
100
AcDbEntity
  8
_U+30EC_U+30A4_U+30E4_U+30FC 1
370
     0
100
AcDbVertex
100
AcDb2dVertex
 10
81.3771172214092
 20
-118.2506632191353
 30
0.0
  0
SEQEND
  5
9A
330
94
100
AcDbEntity
  8
_U+30EC_U+30A4_U+30E4_U+30FC 1
370
     0
  0
HATCH
  5
9B
330
45
100
AcDbEntity
  8
_U+30EC_U+30A4_U+30E4_U+30FC 1
 62
   179
420
  2234388
100
AcDbHatch
 10
0.0
 20
0.0
 30
0.0
210
0.0
220
0.0
230
1.0
  2
SOLID
 70
     1
 71
     0
 91
        1
 92
        1
 93
        4
 72
     1
 10
81.3771172214092
 20
-118.2506632191353
 11
81.3771172214092
 21
-117.9989989939378
 72
     1
 10
81.3771172214092
 20
-117.9989989939378
 11
81.62895370138096
 21
-117.9989989939378
 72
     1
 10
81.62895370138096
 20
-117.9989989939378
 11
81.62895370138096
 21
-118.2506632191353
 72
     1
 10
81.62895370138096
 20
-118.2506632191353
 11
81.3771172214092
 21
-118.2506632191353
 97
        0
 75
     2
 76
     1
 98
        0
  0
SPLINE
  5
9C
330
45
100
AcDbEntity
  8
_U+30EC_U+30A4_U+30E4_U+30FC 1
370
     0
100
AcDbSpline
210
0.0
220
0.0
230
1.0
 70
    11
 71
     3
 72
    29
 73
    25
 74
     0
 42
0.0000000001
 43
0.0000000001
 12
1.0
 22
0.0
 32
0.0
 13
1.0
 23
0.0
 33
0.0
 40
0.0
 40
0.0
 40
0.0
 40
0.0
 40
1.0
 40
1.0
 40
1.0
 40
2.0
 40
2.0
 40
2.0
 40
3.0
 40
3.0
 40
3.0
 40
4.0
 40
4.0
 40
4.0
 40
5.0
 40
5.0
 40
5.0
 40
6.0
 40
6.0
 40
6.0
 40
7.0
 40
7.0
 40
7.0
 40
8.0
 40
8.0
 40
8.0
 40
8.0
 10
82.76307913512521
 20
-118.0728962920964
 30
0.0
 10
82.65490313688836
 20
-118.2823580975996
 30
0.0
 10
82.48161483398029
 20
-118.3014783775427
 30
0.0
 10
82.36517060657884
 20
-118.3014783775427
 30
0.0
 10
82.20428464741768
 20
-118.3014783775427
 30
0.0
 10
82.06269122297391
 20
-118.2549695884918
 30
0.0
 10
81.96760658758102
 20
-118.0728962920964
 30
0.0
 10
81.863909213475
 20
-117.878420651954
 30
0.0
 10
81.84496118830613
 20
-117.6413980825688
 30
0.0
 10
81.84496118830613
 20
-117.4784450661165
 30
0.0
 10
81.84496118830613
 20
-117.3346123296073
 30
0.0
 10
81.86184215618385
 20
-117.0829481044098
 30
0.0
 10
81.96760658758102
 20
-116.8839938401366
 30
0.0
 10
82.07543807626934
 20
-116.6809054612812
 30
0.0
 10
82.2363240354305
 20
-116.6576510667557
 30
0.0
 10
82.36517060657884
 20
-116.6576510667557
 30
0.0
 10
82.52398950844886
 20
-116.6576510667557
 30
0.0
 10
82.66764999018379
 20
-116.7020927985155
 30
0.0
 10
82.76307913512521
 20
-116.8839938401366
 30
0.0
 10
82.8622978851004
 20
-117.0765746777621
 30
0.0
 10
82.8857245344001
 20
-117.3049845084342
 30
0.0
 10
82.8857245344001
 20
-117.4784450661165
 30
0.0
 10
82.8857245344001
 20
-117.6498385665077
 30
0.0
 10
82.86436494239155
 20
-117.8804877092452
 30
0.0
 10
82.76307913512521
 20
-118.0728962920964
 30
0.0
  0
SPLINE
  5
9D
330
45
100
AcDbEntity
  8
_U+30EC_U+30A4_U+30E4_U+30FC 1
370
     0
100
AcDbSpline
210
0.0
220
0.0
230
1.0
 70
    11
 71
     3
 72
    17
 73
    13
 74
     0
 42
0.0000000001
 43
0.0000000001
 12
1.0
 22
0.0
 32
0.0
 13
1.0
 23
0.0
 33
0.0
 40
0.0
 40
0.0
 40
0.0
 40
0.0
 40
1.0
 40
1.0
 40
1.0
 40
2.0
 40
2.0
 40
2.0
 40
3.0
 40
3.0
 40
3.0
 40
4.0
 40
4.0
 40
4.0
 40
4.0
 10
82.36517060657884
 20
-116.8502319043812
 30
0.0
 10
82.11574569344675
 20
-116.8502319043812
 30
0.0
 10
82.06889239484737
 20
-117.133591008043
 30
0.0
 10
82.06889239484737
 20
-117.4784450661165
 30
0.0
 10
82.06889239484737
 20
-117.7979776723734
 30
0.0
 10
82.10506589744249
 20
-118.1068304826261
 30
0.0
 10
82.36517060657884
 20
-118.1068304826261
 30
0.0
 10
82.61287297196832
 20
-118.1068304826261
 30
0.0
 10
82.66144881831033
 20
-117.8253661814812
 30
0.0
 10
82.66144881831033
 20
-117.4784450661165
 30
0.0
 10
82.66144881831033
 20
-117.1590847146338
 30
0.0
 10
82.62320825842406
 20
-116.8502319043812
 30
0.0
 10
82.36517060657884
 20
-116.8502319043812
 30
0.0
  0
HATCH
  5
9E
330
45
100
AcDbEntity
  8
_U+30EC_U+30A4_U+30E4_U+30FC 1
 62
   179
420
  2234388
100
AcDbHatch
 10
0.0
 20
0.0
 30
0.0
210
0.0
220
0.0
230
1.0
  2
SOLID
 70
     1
 71
     0
 91
        2
 92
        1
 93
        1
 72
     4
 94
        3
 73
     0
 74
     1
 95
       29
 96
       25
 40
0.0
 40
0.0
 40
0.0
 40
0.0
 40
1.0
 40
1.0
 40
1.0
 40
2.0
 40
2.0
 40
2.0
 40
3.0
 40
3.0
 40
3.0
 40
4.0
 40
4.0
 40
4.0
 40
5.0
 40
5.0
 40
5.0
 40
6.0
 40
6.0
 40
6.0
 40
7.0
 40
7.0
 40
7.0
 40
8.0
 40
8.0
 40
8.0
 40
8.0
 10
82.76307913512521
 20
-118.0728962920964
 10
82.65490313688836
 20
-118.2823580975996
 10
82.48161483398029
 20
-118.3014783775427
 10
82.36517060657884
 20
-118.3014783775427
 10
82.20428464741768
 20
-118.3014783775427
 10
82.06269122297391
 20
-118.2549695884918
 10
81.96760658758102
 20
-118.0728962920964
 10
81.863909213475
 20
-117.878420651954
 10
81.84496118830613
 20
-117.6413980825688
 10
81.84496118830613
 20
-117.4784450661165
 10
81.84496118830613
 20
-117.3346123296073
 10
81.86184215618385
 20
-117.0829481044098
 10
81.96760658758102
 20
-116.8839938401366
 10
82.07543807626934
 20
-116.6809054612812
 10
82.2363240354305
 20
-116.6576510667557
 10
82.36517060657884
 20
-116.6576510667557
 10
82.52398950844886
 20
-116.6576510667557
 10
82.66764999018379
 20
-116.7020927985155
 10
82.76307913512521
 20
-116.8839938401366
 10
82.8622978851004
 20
-117.0765746777621
 10
82.8857245344001
 20
-117.3049845084342
 10
82.8857245344001
 20
-117.4784450661165
 10
82.8857245344001
 20
-117.6498385665077
 10
82.86436494239155
 20
-117.8804877092452
 10
82.76307913512521
 20
-118.0728962920964
 97
        0
 97
        0
 92
        1
 93
        1
 72
     4
 94
        3
 73
     0
 74
     1
 95
       17
 96
       13
 40
0.0
 40
0.0
 40
0.0
 40
0.0
 40
1.0
 40
1.0
 40
1.0
 40
2.0
 40
2.0
 40
2.0
 40
3.0
 40
3.0
 40
3.0
 40
4.0
 40
4.0
 40
4.0
 40
4.0
 10
82.36517060657884
 20
-116.8502319043812
 10
82.11574569344675
 20
-116.8502319043812
 10
82.06889239484737
 20
-117.133591008043
 10
82.06889239484737
 20
-117.4784450661165
 10
82.06889239484737
 20
-117.7979776723734
 10
82.10506589744249
 20
-118.1068304826261
 10
82.36517060657884
 20
-118.1068304826261
 10
82.61287297196832
 20
-118.1068304826261
 10
82.66144881831033
 20
-117.8253661814812
 10
82.66144881831033
 20
-117.4784450661165
 10
82.66144881831033
 20
-117.1590847146338
 10
82.62320825842406
 20
-116.8502319043812
 10
82.36517060657884
 20
-116.8502319043812
 97
        0
 97
        0
 75
     2
 76
     1
 98
        0
  0
ENDBLK
  5
48
330
45
100
AcDbEntity
  8
0
100
AcDbBlockEnd
  0
BLOCK
  5
A1
330
9F
100
AcDbEntity
  8
0
100
AcDbBlockBegin
  2
block 4
 70
     0
 10
0.0
 20
0.0
 30
0.0
  3
block 4
  1

  0
SPLINE
  5
A3
330
9F
100
AcDbEntity
  8
_U+30EC_U+30A4_U+30E4_U+30FC 1
 62
   179
420
  2234388
370
     9
100
AcDbSpline
210
0.0
220
0.0
230
1.0
 70
    11
 71
     3
 72
    17
 73
    13
 74
     0
 42
0.0000000001
 43
0.0000000001
 12
1.0
 22
0.0
 32
0.0
 13
1.0
 23
0.0
 33
0.0
 40
0.0
 40
0.0
 40
0.0
 40
0.0
 40
1.0
 40
1.0
 40
1.0
 40
2.0
 40
2.0
 40
2.0
 40
3.0
 40
3.0
 40
3.0
 40
4.0
 40
4.0
 40
4.0
 40
4.0
 10
117.6875456086517
 20
-133.2924619111214
 30
0.0
 10
117.7165086634683
 20
-133.4164985777571
 30
0.0
 10
117.9197439360612
 20
-133.4516352444148
 30
0.0
 10
118.1402300415472
 20
-133.3716957999903
 30
0.0
 10
118.3607161470332
 20
-133.2910860777885
 30
0.0
 10
118.5150564208735
 20
-133.125739133385
 30
0.0
 10
118.4861286438337
 20
-133.0017024667494
 30
0.0
 10
118.4572008667939
 20
-132.8783713556692
 30
0.0
 10
118.2546388593249
 20
-132.842529133456
 30
0.0
 10
118.033447192714
 20
-132.9231388556584
 30
0.0
 10
117.8129610816581
 20
-133.0037838556377
 30
0.0
 10
117.6579475538512
 20
-133.1691308000413
 30
0.0
 10
117.6875456086517
 20
-133.2924619111214
 30
0.0
  0
SPLINE
  5
A4
330
9F
100
AcDbEntity
  8
_U+30EC_U+30A4_U+30E4_U+30FC 1
 62
   179
420
  2234388
370
     9
100
AcDbSpline
210
0.0
220
0.0
230
1.0
 70
     8
 71
     3
 72
    11
 73
     7
 74
     0
 42
0.0000000001
 43
0.0000000001
 12
1.0
 22
0.0
 32
0.0
 13
1.0
 23
0.0
 33
0.0
 40
0.0
 40
0.0
 40
0.0
 40
0.0
 40
1.0
 40
1.0
 40
1.0
 40
2.0
 40
2.0
 40
2.0
 40
2.0
 10
117.946625602042
 20
-133.3930741333186
 30
0.0
 10
117.946625602042
 20
-133.3930741333186
 30
0.0
 10
117.6028083885913
 20
-133.3213896888921
 30
0.0
 10
117.9507531019367
 20
-132.9555238556497
 30
0.0
 10
117.9507531019367
 20
-132.9555238556497
 30
0.0
 10
117.7213064411237
 20
-133.0912727445053
 30
0.0
 10
117.7199306078255
 20
-133.2166852444738
 30
0.0
  0
SPLINE
  5
A5
330
9F
100
AcDbEntity
  8
_U+30EC_U+30A4_U+30E4_U+30FC 1
 62
   179
420
  2234388
370
     9
100
AcDbSpline
210
0.0
220
0.0
230
1.0
 70
    11
 71
     3
 72
    17
 73
    13
 74
     0
 42
0.0000000001
 43
0.0000000001
 12
1.0
 22
0.0
 32
0.0
 13
1.0
 23
0.0
 33
0.0
 40
0.0
 40
0.0
 40
0.0
 40
0.0
 40
1.0
 40
1.0
 40
1.0
 40
2.0
 40
2.0
 40
2.0
 40
3.0
 40
3.0
 40
3.0
 40
4.0
 40
4.0
 40
4.0
 40
4.0
 10
117.4767256140302
 20
-134.188199966453
 30
0.0
 10
117.5063589466075
 20
-134.3122013553111
 30
0.0
 10
117.7089239414396
 20
-134.3473380219689
 30
0.0
 10
117.9300833038511
 20
-134.2674338553219
 30
0.0
 10
118.1505694149071
 20
-134.1874944108975
 30
0.0
 10
118.3049067040126
 20
-134.0214419109391
 30
0.0
 10
118.2753086492121
 20
-133.897440522081
 30
0.0
 10
118.2477214276937
 20
-133.7740741332233
 30
0.0
 10
118.0437805995634
 20
-133.7382671887876
 30
0.0
 10
117.8232944940773
 20
-133.81887691099
 30
0.0
 10
117.6028083885913
 20
-133.8988163554145
 30
0.0
 10
117.4477978369904
 20
-134.0648688553729
 30
0.0
 10
117.4767256140302
 20
-134.188199966453
 30
0.0
  0
SPLINE
  5
A6
330
9F
100
AcDbEntity
  8
_U+30EC_U+30A4_U+30E4_U+30FC 1
 62
   179
420
  2234388
370
     9
100
AcDbSpline
210
0.0
220
0.0
230
1.0
 70
     8
 71
     3
 72
    11
 73
     7
 74
     0
 42
0.0000000001
 43
0.0000000001
 12
1.0
 22
0.0
 32
0.0
 13
1.0
 23
0.0
 33
0.0
 40
0.0
 40
0.0
 40
0.0
 40
0.0
 40
1.0
 40
1.0
 40
1.0
 40
2.0
 40
2.0
 40
2.0
 40
2.0
 10
117.7358056074205
 20
-134.2881066330947
 30
0.0
 10
117.7358056074205
 20
-134.2881066330947
 30
0.0
 10
117.3919531161929
 20
-134.2171277442237
 30
0.0
 10
117.7406033850758
 20
-133.8512619109813
 30
0.0
 10
117.7406033850758
 20
-133.8512619109813
 30
0.0
 10
117.5104864465022
 20
-133.9870107998369
 30
0.0
 10
117.5091106132039
 20
-134.1123880220272
 30
0.0
  0
SPLINE
  5
A7
330
9F
100
AcDbEntity
  8
_U+30EC_U+30A4_U+30E4_U+30FC 1
 62
   179
420
  2234388
370
     9
100
AcDbSpline
210
0.0
220
0.0
230
1.0
 70
    11
 71
     3
 72
    17
 73
    13
 74
     0
 42
0.0000000001
 43
0.0000000001
 12
1.0
 22
0.0
 32
0.0
 13
1.0
 23
0.0
 33
0.0
 40
0.0
 40
0.0
 40
0.0
 40
0.0
 40
1.0
 40
1.0
 40
1.0
 40
2.0
 40
2.0
 40
2.0
 40
3.0
 40
3.0
 40
3.0
 40
4.0
 40
4.0
 40
4.0
 40
4.0
 10
115.7913651014717
 20
-135.162466355098
 30
0.0
 10
115.820998434049
 20
-135.2871732995117
 30
0.0
 10
116.0228931511205
 20
-135.3216396883921
 30
0.0
 10
116.2440495343672
 20
-135.2424057995225
 30
0.0
 10
116.4652411953908
 20
-135.1617607995431
 30
0.0
 10
116.6195814692311
 20
-134.9957082995847
 30
0.0
 10
116.5906536921913
 20
-134.8723771885039
 30
0.0
 10
116.5616906373746
 20
-134.747670244091
 30
0.0
 10
116.3584583042434
 20
-134.7118632996552
 30
0.0
 10
116.1372666376325
 20
-134.7938488551906
 30
0.0
 10
115.9174860821314
 20
-134.8737530218368
 30
0.0
 10
115.7617670466713
 20
-135.0391352440179
 30
0.0
 10
115.7913651014717
 20
-135.162466355098
 30
0.0
  0
SPLINE
  5
A8
330
9F
100
AcDbEntity
  8
_U+30EC_U+30A4_U+30E4_U+30FC 1
 62
   179
420
  2234388
370
     9
100
AcDbSpline
210
0.0
220
0.0
230
1.0
 70
     8
 71
     3
 72
    11
 73
     7
 74
     0
 42
0.0000000001
 43
0.0000000001
 12
1.0
 22
0.0
 32
0.0
 13
1.0
 23
0.0
 33
0.0
 40
0.0
 40
0.0
 40
0.0
 40
0.0
 40
1.0
 40
1.0
 40
1.0
 40
2.0
 40
2.0
 40
2.0
 40
2.0
 10
116.050445094862
 20
-135.2623730217397
 30
0.0
 10
116.050445094862
 20
-135.2623730217397
 30
0.0
 10
115.7066278814113
 20
-135.1913941328687
 30
0.0
 10
116.0545725947567
 20
-134.825528299627
 30
0.0
 10
116.0545725947567
 20
-134.825528299627
 30
0.0
 10
115.8251259339438
 20
-134.9612771884819
 30
0.0
 10
115.8237501006455
 20
-135.0866896884504
 30
0.0
  0
SPLINE
  5
A9
330
9F
100
AcDbEntity
  8
_U+30EC_U+30A4_U+30E4_U+30FC 1
 62
   179
420
  2234388
370
     9
100
AcDbSpline
210
0.0
220
0.0
230
1.0
 70
    11
 71
     3
 72
    17
 73
    13
 74
     0
 42
0.0000000001
 43
0.0000000001
 12
1.0
 22
0.0
 32
0.0
 13
1.0
 23
0.0
 33
0.0
 40
0.0
 40
0.0
 40
0.0
 40
0.0
 40
1.0
 40
1.0
 40
1.0
 40
2.0
 40
2.0
 40
2.0
 40
3.0
 40
3.0
 40
3.0
 40
4.0
 40
4.0
 40
4.0
 40
4.0
 10
119.6367838922558
 20
-132.1804005225106
 30
0.0
 10
119.6657499700833
 20
-132.3044019113681
 30
0.0
 10
119.8683119419046
 20
-132.3395385780265
 30
0.0
 10
120.0887980473906
 20
-132.2596344113796
 30
0.0
 10
120.3099544306373
 20
-132.1790246891778
 30
0.0
 10
120.4642947044776
 20
-132.0136424669967
 30
0.0
 10
120.4346613719003
 20
-131.888935522583
 30
0.0
 10
120.4071094281587
 20
-131.7656044115029
 30
0.0
 10
120.2031686000283
 20
-131.7297621892897
 30
0.0
 10
119.9826824945423
 20
-131.811077467047
 30
0.0
 10
119.7621963890563
 20
-131.8910169114714
 30
0.0
 10
119.6071505596785
 20
-132.056363855875
 30
0.0
 10
119.6367838922558
 20
-132.1804005225106
 30
0.0
  0
SPLINE
  5
AA
330
9F
100
AcDbEntity
  8
_U+30EC_U+30A4_U+30E4_U+30FC 1
 62
   179
420
  2234388
370
     9
100
AcDbSpline
210
0.0
220
0.0
230
1.0
 70
    11
 71
     3
 72
    14
 73
    10
 74
     0
 42
0.0000000001
 43
0.0000000001
 12
1.0
 22
0.0
 32
0.0
 13
1.0
 23
0.0
 33
0.0
 40
0.0
 40
0.0
 40
0.0
 40
0.0
 40
1.0
 40
1.0
 40
1.0
 40
2.0
 40
2.0
 40
2.0
 40
3.0
 40
3.0
 40
3.0
 40
3.0
 10
119.8558971922582
 20
-131.8668869114774
 30
0.0
 10
119.8558971922582
 20
-131.8668869114774
 30
0.0
 10
119.6257772258699
 20
-132.0033060781103
 30
0.0
 10
119.6244013925717
 20
-132.1280130225233
 30
0.0
 10
119.6244013925717
 20
-132.1280130225233
 30
0.0
 10
119.6388652810916
 20
-132.3195713558093
 30
0.0
 10
119.8517666645489
 20
-132.3044019113681
 30
0.0
 10
119.8517666645489
 20
-132.3044019113681
 30
0.0
 10
119.5072438955606
 20
-132.2327527447198
 30
0.0
 10
119.8558971922582
 20
-131.8668869114774
 30
0.0
  0
SPLINE
  5
AB
330
9F
100
AcDbEntity
  8
_U+30EC_U+30A4_U+30E4_U+30FC 1
 62
   179
420
  2234388
370
     9
100
AcDbSpline
210
0.0
220
0.0
230
1.0
 70
    11
 71
     3
 72
    17
 73
    13
 74
     0
 42
0.0000000001
 43
0.0000000001
 12
1.0
 22
0.0
 32
0.0
 13
1.0
 23
0.0
 33
0.0
 40
0.0
 40
0.0
 40
0.0
 40
0.0
 40
1.0
 40
1.0
 40
1.0
 40
2.0
 40
2.0
 40
2.0
 40
3.0
 40
3.0
 40
3.0
 40
4.0
 40
4.0
 40
4.0
 40
4.0
 10
118.3242036479647
 20
-132.362292744687
 30
0.0
 10
118.3531667027814
 20
-132.4863294113226
 30
0.0
 10
118.5564019753742
 20
-132.5221363557583
 30
0.0
 10
118.7768880808602
 20
-132.4415266335565
 30
0.0
 10
118.9973741863463
 20
-132.3609169113541
 30
0.0
 10
119.1517144601865
 20
-132.1955346891737
 30
0.0
 10
119.1227866831467
 20
-132.07082774476
 30
0.0
 10
119.093858906107
 20
-131.9474966336799
 30
0.0
 10
118.8905883557373
 20
-131.9116896892442
 30
0.0
 10
118.6693966947137
 20
-131.992969689224
 30
0.0
 10
118.4496161447652
 20
-132.0729091336484
 30
0.0
 10
118.2945703153874
 20
-132.2389616336068
 30
0.0
 10
118.3242036479647
 20
-132.362292744687
 30
0.0
  0
SPLINE
  5
AC
330
9F
100
AcDbEntity
  8
_U+30EC_U+30A4_U+30E4_U+30FC 1
 62
   179
420
  2234388
370
     9
100
AcDbSpline
210
0.0
220
0.0
230
1.0
 70
    11
 71
     3
 72
    14
 73
    10
 74
     0
 42
0.0000000001
 43
0.0000000001
 12
1.0
 22
0.0
 32
0.0
 13
1.0
 23
0.0
 33
0.0
 40
0.0
 40
0.0
 40
0.0
 40
0.0
 40
1.0
 40
1.0
 40
1.0
 40
2.0
 40
2.0
 40
2.0
 40
3.0
 40
3.0
 40
3.0
 40
3.0
 10
118.5440194756901
 20
-132.0487791336544
 30
0.0
 10
118.5440194756901
 20
-132.0487791336544
 30
0.0
 10
118.3131999704218
 20
-132.1845280225093
 30
0.0
 10
118.3118211482806
 20
-132.3099405224778
 30
0.0
 10
118.3118211482806
 20
-132.3099405224778
 30
0.0
 10
118.3262850368005
 20
-132.5014635779856
 30
0.0
 10
118.5391864202578
 20
-132.4856238557677
 30
0.0
 10
118.5391864202578
 20
-132.4856238557677
 30
0.0
 10
118.1953721926732
 20
-132.4153505224516
 30
0.0
 10
118.5440194756901
 20
-132.0487791336544
 30
0.0
  0
SPLINE
  5
AD
330
9F
100
AcDbEntity
  8
_U+30EC_U+30A4_U+30E4_U+30FC 1
 62
   179
420
  2234388
370
     9
100
AcDbSpline
210
0.0
220
0.0
230
1.0
 70
    11
 71
     3
 72
    17
 73
    13
 74
     0
 42
0.0000000001
 43
0.0000000001
 12
1.0
 22
0.0
 32
0.0
 13
1.0
 23
0.0
 33
0.0
 40
0.0
 40
0.0
 40
0.0
 40
0.0
 40
1.0
 40
1.0
 40
1.0
 40
2.0
 40
2.0
 40
2.0
 40
3.0
 40
3.0
 40
3.0
 40
4.0
 40
4.0
 40
4.0
 40
4.0
 10
120.1811199894798
 20
-130.9725246894793
 30
0.0
 10
120.2114235998177
 20
-131.096561356115
 30
0.0
 10
120.4140238724268
 20
-131.1324035783283
 30
0.0
 10
120.6345099779128
 20
-131.0517938561258
 30
0.0
 10
120.8549960833988
 20
-130.9711488561458
 30
0.0
 10
121.0100066349998
 20
-130.8058019117429
 30
0.0
 10
120.9803733024224
 20
-130.6817652451073
 30
0.0
 10
120.9514455253827
 20
-130.5584341340272
 30
0.0
 10
120.7488805305505
 20
-130.5226271895914
 30
0.0
 10
120.5276888695269
 20
-130.6032369117939
 30
0.0
 10
120.3072027640409
 20
-130.6831410784401
 30
0.0
 10
120.15219221244
 20
-130.8491935783986
 30
0.0
 10
120.1811199894798
 20
-130.9725246894793
 30
0.0
  0
SPLINE
  5
AE
330
9F
100
AcDbEntity
  8
_U+30EC_U+30A4_U+30E4_U+30FC 1
 62
   179
420
  2234388
370
     9
100
AcDbSpline
210
0.0
220
0.0
230
1.0
 70
    11
 71
     3
 72
    14
 73
    10
 74
     0
 42
0.0000000001
 43
0.0000000001
 12
1.0
 22
0.0
 32
0.0
 13
1.0
 23
0.0
 33
0.0
 40
0.0
 40
0.0
 40
0.0
 40
0.0
 40
1.0
 40
1.0
 40
1.0
 40
2.0
 40
2.0
 40
2.0
 40
3.0
 40
3.0
 40
3.0
 40
3.0
 10
120.4016060949658
 20
-130.6590463562243
 30
0.0
 10
120.4016060949658
 20
-130.6590463562243
 30
0.0
 10
120.1721594341528
 20
-130.7954655228565
 30
0.0
 10
120.170078045317
 20
-130.9201724672702
 30
0.0
 10
120.170078045317
 20
-130.9201724672702
 30
0.0
 10
120.1838716560762
 20
-131.1117308005555
 30
0.0
 10
120.3974785950711
 20
-131.095891078337
 30
0.0
 10
120.3974785950711
 20
-131.095891078337
 30
0.0
 10
120.0529558260828
 20
-131.024912189466
 30
0.0
 10
120.4016060949658
 20
-130.6590463562243
 30
0.0
  0
SPLINE
  5
AF
330
9F
100
AcDbEntity
  8
_U+30EC_U+30A4_U+30E4_U+30FC 1
 62
   179
420
  2234388
370
     9
100
AcDbSpline
210
0.0
220
0.0
230
1.0
 70
    11
 71
     3
 72
    17
 73
    13
 74
     0
 42
0.0000000001
 43
0.0000000001
 12
1.0
 22
0.0
 32
0.0
 13
1.0
 23
0.0
 33
0.0
 40
0.0
 40
0.0
 40
0.0
 40
0.0
 40
1.0
 40
1.0
 40
1.0
 40
2.0
 40
2.0
 40
2.0
 40
3.0
 40
3.0
 40
3.0
 40
4.0
 40
4.0
 40
4.0
 40
4.0
 10
122.3467168786752
 20
-128.722190523375
 30
0.0
 10
122.3770204890132
 20
-128.8469327455659
 30
0.0
 10
122.5782096505471
 20
-128.8813638566687
 30
0.0
 10
122.7994013115707
 20
-128.8014244122443
 30
0.0
 10
123.0198874170568
 20
-128.7208146900422
 30
0.0
 10
123.1748979686577
 20
-128.5554677456389
 30
0.0
 10
123.1459701916179
 20
-128.4314310790033
 30
0.0
 10
123.1163368590406
 20
-128.3074296901455
 30
0.0
 10
122.9137749692714
 20
-128.2722577457096
 30
0.0
 10
122.6932888582154
 20
-128.3535730234672
 30
0.0
 10
122.4728027471594
 20
-128.4328069123362
 30
0.0
 10
122.3177538238586
 20
-128.5988594122946
 30
0.0
 10
122.3467168786752
 20
-128.722190523375
 30
0.0
  0
SPLINE
  5
B0
330
9F
100
AcDbEntity
  8
_U+30EC_U+30A4_U+30E4_U+30FC 1
 62
   179
420
  2234388
370
     9
100
AcDbSpline
210
0.0
220
0.0
230
1.0
 70
    11
 71
     3
 72
    14
 73
    10
 74
     0
 42
0.0000000001
 43
0.0000000001
 12
1.0
 22
0.0
 32
0.0
 13
1.0
 23
0.0
 33
0.0
 40
0.0
 40
0.0
 40
0.0
 40
0.0
 40
1.0
 40
1.0
 40
1.0
 40
2.0
 40
2.0
 40
2.0
 40
3.0
 40
3.0
 40
3.0
 40
3.0
 10
122.5672029841613
 20
-128.40871219012
 30
0.0
 10
122.5672029841613
 20
-128.40871219012
 30
0.0
 10
122.33638049005
 20
-128.5451313567526
 30
0.0
 10
122.3356749345125
 20
-128.6698383011659
 30
0.0
 10
122.3356749345125
 20
-128.6698383011659
 30
0.0
 10
122.3494685452717
 20
-128.8613966344516
 30
0.0
 10
122.562369928729
 20
-128.8462271900104
 30
0.0
 10
122.562369928729
 20
-128.8462271900104
 30
0.0
 10
122.2178471597407
 20
-128.7752483011394
 30
0.0
 10
122.5672029841613
 20
-128.40871219012
 30
0.0
  0
SPLINE
  5
B1
330
9F
100
AcDbEntity
  8
_U+30EC_U+30A4_U+30E4_U+30FC 1
 62
   179
420
  2234388
370
     9
100
AcDbSpline
210
0.0
220
0.0
230
1.0
 70
    11
 71
     3
 72
    17
 73
    13
 74
     0
 42
0.0000000001
 43
0.0000000001
 12
1.0
 22
0.0
 32
0.0
 13
1.0
 23
0.0
 33
0.0
 40
0.0
 40
0.0
 40
0.0
 40
0.0
 40
1.0
 40
1.0
 40
1.0
 40
2.0
 40
2.0
 40
2.0
 40
3.0
 40
3.0
 40
3.0
 40
4.0
 40
4.0
 40
4.0
 40
4.0
 10
123.7206098991798
 20
-127.9139766346882
 30
0.0
 10
123.7495376762196
 20
-128.0380133013238
 30
0.0
 10
123.9528082265893
 20
-128.0731499679819
 30
0.0
 10
124.1732943320753
 20
-127.9925402457797
 30
0.0
 10
124.3937804375614
 20
-127.9126008013553
 30
0.0
 10
124.5488262669392
 20
-127.7465483013968
 30
0.0
 10
124.5191929343618
 20
-127.6225116347612
 30
0.0
 10
124.4909354350827
 20
-127.4991805236807
 30
0.0
 10
124.2869946069524
 20
-127.4633735792453
 30
0.0
 10
124.0665085014663
 20
-127.5446535792248
 30
0.0
 10
123.8460223959803
 20
-127.6245930236493
 30
0.0
 10
123.6909765666025
 20
-127.7899752458303
 30
0.0
 10
123.7206098991798
 20
-127.9139766346882
 30
0.0
  0
SPLINE
  5
B2
330
9F
100
AcDbEntity
  8
_U+30EC_U+30A4_U+30E4_U+30FC 1
 62
   179
420
  2234388
370
     9
100
AcDbSpline
210
0.0
220
0.0
230
1.0
 70
    11
 71
     3
 72
    14
 73
    10
 74
     0
 42
0.0000000001
 43
0.0000000001
 12
1.0
 22
0.0
 32
0.0
 13
1.0
 23
0.0
 33
0.0
 40
0.0
 40
0.0
 40
0.0
 40
0.0
 40
1.0
 40
1.0
 40
1.0
 40
2.0
 40
2.0
 40
2.0
 40
3.0
 40
3.0
 40
3.0
 40
3.0
 10
123.9403904491283
 20
-127.5997927458779
 30
0.0
 10
123.9403904491283
 20
-127.5997927458779
 30
0.0
 10
123.709603232794
 20
-127.7369174680657
 30
0.0
 10
123.7081921217189
 20
-127.861624412479
 30
0.0
 10
123.7081921217189
 20
-127.861624412479
 30
0.0
 10
123.7226944135135
 20
-128.0531827457643
 30
0.0
 10
123.9362629492336
 20
-128.0373077457686
 30
0.0
 10
123.9362629492336
 20
-128.0373077457686
 30
0.0
 10
123.5917754580222
 20
-127.9663641346751
 30
0.0
 10
123.9403904491283
 20
-127.5997927458779
 30
0.0
  0
SPLINE
  5
B3
330
9F
100
AcDbEntity
  8
_U+30EC_U+30A4_U+30E4_U+30FC 1
 62
   179
420
  2234388
370
     9
100
AcDbSpline
210
0.0
220
0.0
230
1.0
 70
    11
 71
     3
 72
    17
 73
    13
 74
     0
 42
0.0000000001
 43
0.0000000001
 12
1.0
 22
0.0
 32
0.0
 13
1.0
 23
0.0
 33
0.0
 40
0.0
 40
0.0
 40
0.0
 40
0.0
 40
1.0
 40
1.0
 40
1.0
 40
2.0
 40
2.0
 40
2.0
 40
3.0
 40
3.0
 40
3.0
 40
4.0
 40
4.0
 40
4.0
 40
4.0
 10
122.2440585479609
 20
-129.6461860786996
 30
0.0
 10
122.2729863250007
 20
-129.7695171897798
 30
0.0
 10
122.4755513198328
 20
-129.8053241342155
 30
0.0
 10
122.6960374253189
 20
-129.724714412013
 30
0.0
 10
122.9158532530442
 20
-129.6441046898112
 30
0.0
 10
123.0715693601827
 20
-129.4787577454083
 30
0.0
 10
123.0419360276054
 20
-129.3547210787727
 30
0.0
 10
123.0136785283263
 20
-129.2313899676919
 30
0.0
 10
122.811116635964
 20
-129.1955477454787
 30
0.0
 10
122.5899249693525
 20
-129.2761574676811
 30
0.0
 10
122.3687654892238
 20
-129.3568024676611
 30
0.0
 10
122.2144252153836
 20
-129.522149412064
 30
0.0
 10
122.2440585479609
 20
-129.6461860786996
 30
0.0
  0
SPLINE
  5
B4
330
9F
100
AcDbEntity
  8
_U+30EC_U+30A4_U+30E4_U+30FC 1
 62
   179
420
  2234388
370
     9
100
AcDbSpline
210
0.0
220
0.0
230
1.0
 70
    11
 71
     3
 72
    14
 73
    10
 74
     0
 42
0.0000000001
 43
0.0000000001
 12
1.0
 22
0.0
 32
0.0
 13
1.0
 23
0.0
 33
0.0
 40
0.0
 40
0.0
 40
0.0
 40
0.0
 40
1.0
 40
1.0
 40
1.0
 40
2.0
 40
2.0
 40
2.0
 40
3.0
 40
3.0
 40
3.0
 40
3.0
 10
122.4638390979094
 20
-129.3326724676671
 30
0.0
 10
122.4638390979094
 20
-129.3326724676671
 30
0.0
 10
122.2337221593357
 20
-129.468421356522
 30
0.0
 10
122.2316407704999
 20
-129.593128300935
 30
0.0
 10
122.2316407704999
 20
-129.593128300935
 30
0.0
 10
122.2461046590198
 20
-129.7846866342203
 30
0.0
 10
122.4583388582744
 20
-129.7695171897798
 30
0.0
 10
122.4583388582744
 20
-129.7695171897798
 30
0.0
 10
122.1151888290264
 20
-129.6985383009088
 30
0.0
 10
122.4638390979094
 20
-129.3326724676671
 30
0.0
  0
SPLINE
  5
B5
330
9F
100
AcDbEntity
  8
_U+30EC_U+30A4_U+30E4_U+30FC 1
 62
   179
420
  2234388
370
     9
100
AcDbSpline
210
0.0
220
0.0
230
1.0
 70
    11
 71
     3
 72
    17
 73
    13
 74
     0
 42
0.0000000001
 43
0.0000000001
 12
1.0
 22
0.0
 32
0.0
 13
1.0
 23
0.0
 33
0.0
 40
0.0
 40
0.0
 40
0.0
 40
0.0
 40
1.0
 40
1.0
 40
1.0
 40
2.0
 40
2.0
 40
2.0
 40
3.0
 40
3.0
 40
3.0
 40
4.0
 40
4.0
 40
4.0
 40
4.0
 10
120.7309594198966
 20
-129.9741635786179
 30
0.0
 10
120.7598871969364
 20
-130.0981649674753
 30
0.0
 10
120.9624521917685
 20
-130.1333016341331
 30
0.0
 10
121.1829382972546
 20
-130.0533974674868
 30
0.0
 10
121.4034244027406
 20
-129.9727877452843
 30
0.0
 10
121.5584702321184
 20
-129.8074055231039
 30
0.0
 10
121.5288368995411
 20
-129.6833688564683
 30
0.0
 10
121.500579400262
 20
-129.5593674676101
 30
0.0
 10
121.2973471918976
 20
-129.5242308009524
 30
0.0
 10
121.0761555252867
 20
-129.6048405231542
 30
0.0
 10
120.8556694142307
 20
-129.6854502453567
 30
0.0
 10
120.7013260873193
 20
-129.8508324675371
 30
0.0
 10
120.7309594198966
 20
-129.9741635786179
 30
0.0
  0
SPLINE
  5
B6
330
9F
100
AcDbEntity
  8
_U+30EC_U+30A4_U+30E4_U+30FC 1
 62
   179
420
  2234388
370
     9
100
AcDbSpline
210
0.0
220
0.0
230
1.0
 70
    11
 71
     3
 72
    14
 73
    10
 74
     0
 42
0.0000000001
 43
0.0000000001
 12
1.0
 22
0.0
 32
0.0
 13
1.0
 23
0.0
 33
0.0
 40
0.0
 40
0.0
 40
0.0
 40
0.0
 40
1.0
 40
1.0
 40
1.0
 40
2.0
 40
2.0
 40
2.0
 40
3.0
 40
3.0
 40
3.0
 40
3.0
 10
120.9507399698451
 20
-129.6606499675846
 30
0.0
 10
120.9507399698451
 20
-129.6606499675846
 30
0.0
 10
120.7199174757339
 20
-129.7970691342175
 30
0.0
 10
120.7185416424356
 20
-129.9217760786306
 30
0.0
 10
120.7185416424356
 20
-129.9217760786306
 30
0.0
 10
120.7330408087324
 20
-130.1133344119159
 30
0.0
 10
120.9452366366522
 20
-130.097494689698
 30
0.0
 10
120.9452366366522
 20
-130.097494689698
 30
0.0
 10
120.6014194232015
 20
-130.026515800827
 30
0.0
 10
120.9507399698451
 20
-129.6606499675846
 30
0.0
  0
SPLINE
  5
B7
330
9F
100
AcDbEntity
  8
_U+30EC_U+30A4_U+30E4_U+30FC 1
 62
   179
420
  2234388
370
     9
100
AcDbSpline
210
0.0
220
0.0
230
1.0
 70
    11
 71
     3
 72
    17
 73
    13
 74
     0
 42
0.0000000001
 43
0.0000000001
 12
1.0
 22
0.0
 32
0.0
 13
1.0
 23
0.0
 33
0.0
 40
0.0
 40
0.0
 40
0.0
 40
0.0
 40
1.0
 40
1.0
 40
1.0
 40
2.0
 40
2.0
 40
2.0
 40
3.0
 40
3.0
 40
3.0
 40
4.0
 40
4.0
 40
4.0
 40
4.0
 10
121.8478538358467
 20
-134.0738294109257
 30
0.0
 10
121.8788630017223
 20
-134.2929396886488
 30
0.0
 10
121.6322007857929
 20
-134.5072169108178
 30
0.0
 10
121.2980144054298
 20
-134.5526899663618
 30
0.0
 10
120.9659094139026
 20
-134.5988332996839
 30
0.0
 10
120.6696466436831
 20
-134.4596624663853
 30
0.0
 10
120.6393077555682
 20
-134.2405521886622
 30
0.0
 10
120.6082985896926
 20
-134.0228177442719
 30
0.0
 10
120.8556694142307
 20
-133.8078702443257
 30
0.0
 10
121.1898527415226
 20
-133.7623619110041
 30
0.0
 10
121.5226280108106
 20
-133.7155130221265
 30
0.0
 10
121.8175502255087
 20
-133.8553894109806
 30
0.0
 10
121.8478538358467
 20
-134.0738294109257
 30
0.0
  0
SPLINE
  5
B8
330
9F
100
AcDbEntity
  8
_U+30EC_U+30A4_U+30E4_U+30FC 1
 62
   179
420
  2234388
370
     9
100
AcDbSpline
210
0.0
220
0.0
230
1.0
 70
    11
 71
     3
 72
    14
 73
    10
 74
     0
 42
0.0000000001
 43
0.0000000001
 12
1.0
 22
0.0
 32
0.0
 13
1.0
 23
0.0
 33
0.0
 40
0.0
 40
0.0
 40
0.0
 40
0.0
 40
1.0
 40
1.0
 40
1.0
 40
2.0
 40
2.0
 40
2.0
 40
3.0
 40
3.0
 40
3.0
 40
3.0
 10
121.38554163632
 20
-133.7513552443397
 30
0.0
 10
121.38554163632
 20
-133.7513552443397
 30
0.0
 10
121.763786893547
 20
-133.7858216332201
 30
0.0
 10
121.8340602250875
 20
-133.9814721887272
 30
0.0
 10
121.8340602250875
 20
-133.9814721887272
 30
0.0
 10
121.9222546672819
 20
-134.2956913553153
 30
0.0
 10
121.6342499695917
 20
-134.4376138552797
 30
0.0
 10
121.6342499695917
 20
-134.4376138552797
 30
0.0
 10
122.0469999694879
 20
-134.0552027442639
 30
0.0
 10
121.38554163632
 20
-133.7513552443397
 30
0.0
  0
SPLINE
  5
B9
330
9F
100
AcDbEntity
  8
_U+30EC_U+30A4_U+30E4_U+30FC 1
 62
   179
420
  2234388
370
     9
100
AcDbSpline
210
0.0
220
0.0
230
1.0
 70
    11
 71
     3
 72
    17
 73
    13
 74
     0
 42
0.0000000001
 43
0.0000000001
 12
1.0
 22
0.0
 32
0.0
 13
1.0
 23
0.0
 33
0.0
 40
0.0
 40
0.0
 40
0.0
 40
0.0
 40
1.0
 40
1.0
 40
1.0
 40
2.0
 40
2.0
 40
2.0
 40
3.0
 40
3.0
 40
3.0
 40
4.0
 40
4.0
 40
4.0
 40
4.0
 10
124.7479340396373
 20
-135.8335555215975
 30
0.0
 10
124.7796487610504
 20
-136.0519955215426
 30
0.0
 10
124.5329512673442
 20
-136.2669782992664
 30
0.0
 10
124.198800164758
 20
-136.3124513548105
 30
0.0
 10
123.8653193399324
 20
-136.3579244103552
 30
0.0
 10
123.5703971252343
 20
-136.2194238548339
 30
0.0
 10
123.5400935148963
 20
-136.0003135771108
 30
0.0
 10
123.5090843490208
 20
-135.7819088549432
 30
0.0
 10
123.7564521204877
 20
-135.5675963549968
 30
0.0
 10
124.0899360800887
 20
-135.5221232994527
 30
0.0
 10
124.4234137701387
 20
-135.4746041327977
 30
0.0
 10
124.71830070706
 20
-135.6151507994292
 30
0.0
 10
124.7479340396373
 20
-135.8335555215975
 30
0.0
  0
SPLINE
  5
BA
330
9F
100
AcDbEntity
  8
_U+30EC_U+30A4_U+30E4_U+30FC 1
 62
   179
420
  2234388
370
     9
100
AcDbSpline
210
0.0
220
0.0
230
1.0
 70
    11
 71
     3
 72
    14
 73
    10
 74
     0
 42
0.0000000001
 43
0.0000000001
 12
1.0
 22
0.0
 32
0.0
 13
1.0
 23
0.0
 33
0.0
 40
0.0
 40
0.0
 40
0.0
 40
0.0
 40
1.0
 40
1.0
 40
1.0
 40
2.0
 40
2.0
 40
2.0
 40
3.0
 40
3.0
 40
3.0
 40
3.0
 10
124.2869946069524
 20
-135.511116632789
 30
0.0
 10
124.2869946069524
 20
-135.511116632789
 30
0.0
 10
124.6638670973376
 20
-135.5455477438912
 30
0.0
 10
124.7348459844156
 20
-135.7405632993984
 30
0.0
 10
124.7348459844156
 20
-135.7405632993984
 30
0.0
 10
124.8223348710725
 20
-136.0547471882084
 30
0.0
 10
124.53503265618
 20
-136.1973752437283
 30
0.0
 10
124.53503265618
 20
-136.1973752437283
 30
0.0
 10
124.9470770901123
 20
-135.8142938549352
 30
0.0
 10
124.2869946069524
 20
-135.511116632789
 30
0.0
  0
SPLINE
  5
BB
330
9F
100
AcDbEntity
  8
_U+30EC_U+30A4_U+30E4_U+30FC 1
 62
   179
420
  2234388
370
     9
100
AcDbSpline
210
0.0
220
0.0
230
1.0
 70
    11
 71
     3
 72
    17
 73
    13
 74
     0
 42
0.0000000001
 43
0.0000000001
 12
1.0
 22
0.0
 32
0.0
 13
1.0
 23
0.0
 33
0.0
 40
0.0
 40
0.0
 40
0.0
 40
0.0
 40
1.0
 40
1.0
 40
1.0
 40
2.0
 40
2.0
 40
2.0
 40
3.0
 40
3.0
 40
3.0
 40
4.0
 40
4.0
 40
4.0
 40
4.0
 10
124.4626779358037
 20
-133.9787205220608
 30
0.0
 10
124.4930168239185
 20
-134.1978307997839
 30
0.0
 10
124.2470248857499
 20
-134.4121080219528
 30
0.0
 10
123.9135471912439
 20
-134.4575810774969
 30
0.0
 10
123.5800632360988
 20
-134.5037596885965
 30
0.0
 10
123.28447074364
 20
-134.3645888552978
 30
0.0
 10
123.2548374110627
 20
-134.1454785775747
 30
0.0
 10
123.2245338007247
 20
-133.9277441331845
 30
0.0
 10
123.471196016654
 20
-133.7127613554607
 30
0.0
 10
123.8046768414795
 20
-133.6672882999166
 30
0.0
 10
124.1388279440658
 20
-133.6204394110396
 30
0.0
 10
124.4330446032263
 20
-133.7609860776712
 30
0.0
 10
124.4626779358037
 20
-133.9787205220608
 30
0.0
  0
SPLINE
  5
BC
330
9F
100
AcDbEntity
  8
_U+30EC_U+30A4_U+30E4_U+30FC 1
 62
   179
420
  2234388
370
     9
100
AcDbSpline
210
0.0
220
0.0
230
1.0
 70
    11
 71
     3
 72
    14
 73
    10
 74
     0
 42
0.0000000001
 43
0.0000000001
 12
1.0
 22
0.0
 32
0.0
 13
1.0
 23
0.0
 33
0.0
 40
0.0
 40
0.0
 40
0.0
 40
0.0
 40
1.0
 40
1.0
 40
1.0
 40
2.0
 40
2.0
 40
2.0
 40
3.0
 40
3.0
 40
3.0
 40
3.0
 10
124.0010360801108
 20
-133.6562816332529
 30
0.0
 10
124.0010360801108
 20
-133.6562816332529
 30
0.0
 10
124.3786109935039
 20
-133.6900424665777
 30
0.0
 10
124.4502954361196
 20
-133.8863985776397
 30
0.0
 10
124.4502954361196
 20
-133.8863985776397
 30
0.0
 10
124.5371140450157
 20
-134.2005824664496
 30
0.0
 10
124.2504821078839
 20
-134.3425402441922
 30
0.0
 10
124.2504821078839
 20
-134.3425402441922
 30
0.0
 10
124.6618209862787
 20
-133.9601291331765
 30
0.0
 10
124.0010360801108
 20
-133.6562816332529
 30
0.0
  0
SPLINE
  5
BD
330
9F
100
AcDbEntity
  8
_U+30EC_U+30A4_U+30E4_U+30FC 1
 62
   179
420
  2234388
370
     9
100
AcDbSpline
210
0.0
220
0.0
230
1.0
 70
    11
 71
     3
 72
    17
 73
    13
 74
     0
 42
0.0000000001
 43
0.0000000001
 12
1.0
 22
0.0
 32
0.0
 13
1.0
 23
0.0
 33
0.0
 40
0.0
 40
0.0
 40
0.0
 40
0.0
 40
1.0
 40
1.0
 40
1.0
 40
2.0
 40
2.0
 40
2.0
 40
3.0
 40
3.0
 40
3.0
 40
4.0
 40
4.0
 40
4.0
 40
4.0
 10
123.773667675604
 20
-132.1480155225187
 30
0.0
 10
123.803971285942
 20
-132.3671258002418
 30
0.0
 10
123.5580146255502
 20
-132.5806974668546
 30
0.0
 10
123.2245338007247
 20
-132.6268760779542
 30
0.0
 10
122.8910176981223
 20
-132.6730546890538
 30
0.0
 10
122.596130761201
 20
-132.5331783002002
 30
0.0
 10
122.565827150863
 20
-132.3147383002545
 30
0.0
 10
122.5348179849875
 20
-132.0963335780869
 30
0.0
 10
122.7814833026378
 20
-131.8820563559186
 30
0.0
 10
123.1149610257423
 20
-131.8365833003739
 30
0.0
 10
123.4491474061054
 20
-131.7896991337194
 30
0.0
 10
123.7440343430267
 20
-131.9302810781285
 30
0.0
 10
123.773667675604
 20
-132.1480155225187
 30
0.0
  0
SPLINE
  5
BE
330
9F
100
AcDbEntity
  8
_U+30EC_U+30A4_U+30E4_U+30FC 1
 62
   179
420
  2234388
370
     9
100
AcDbSpline
210
0.0
220
0.0
230
1.0
 70
    11
 71
     3
 72
    14
 73
    10
 74
     0
 42
0.0000000001
 43
0.0000000001
 12
1.0
 22
0.0
 32
0.0
 13
1.0
 23
0.0
 33
0.0
 40
0.0
 40
0.0
 40
0.0
 40
0.0
 40
1.0
 40
1.0
 40
1.0
 40
2.0
 40
2.0
 40
2.0
 40
3.0
 40
3.0
 40
3.0
 40
3.0
 10
123.3120226873815
 20
-131.8248710781546
 30
0.0
 10
123.3120226873815
 20
-131.8248710781546
 30
0.0
 10
123.6896007333043
 20
-131.8593021892575
 30
0.0
 10
123.7605796203823
 20
-132.0549880225421
 30
0.0
 10
123.7605796203823
 20
-132.0549880225421
 30
0.0
 10
123.8473982292785
 20
-132.369171911352
 30
0.0
 10
123.5607694135543
 20
-132.511799966872
 30
0.0
 10
123.5607694135543
 20
-132.511799966872
 30
0.0
 10
123.9721083023401
 20
-132.1293888558569
 30
0.0
 10
123.3120226873815
 20
-131.8248710781546
 30
0.0
  0
SPLINE
  5
BF
330
9F
100
AcDbEntity
  8
_U+30EC_U+30A4_U+30E4_U+30FC 1
 62
   179
420
  2234388
370
     9
100
AcDbSpline
210
0.0
220
0.0
230
1.0
 70
    11
 71
     3
 72
    17
 73
    13
 74
     0
 42
0.0000000001
 43
0.0000000001
 12
1.0
 22
0.0
 32
0.0
 13
1.0
 23
0.0
 33
0.0
 40
0.0
 40
0.0
 40
0.0
 40
0.0
 40
1.0
 40
1.0
 40
1.0
 40
2.0
 40
2.0
 40
2.0
 40
3.0
 40
3.0
 40
3.0
 40
4.0
 40
4.0
 40
4.0
 40
4.0
 10
126.6744181571552
 20
-133.9070713554124
 30
0.0
 10
126.7047570452701
 20
-134.1261816331349
 30
0.0
 10
126.459470662639
 20
-134.3404588553038
 30
0.0
 10
126.1252842822759
 20
-134.3866374664034
 30
0.0
 10
125.7910979019128
 20
-134.431404966392
 30
0.0
 10
125.4962109649916
 20
-134.2929396886488
 30
0.0
 10
125.4665776324143
 20
-134.0744996887038
 30
0.0
 10
125.4362740220763
 20
-133.8560949665361
 30
0.0
 10
125.6822306824681
 20
-133.6417824665897
 30
0.0
 10
126.0150444129409
 20
-133.5956391332676
 30
0.0
 10
126.3498978876567
 20
-133.549460522168
 30
0.0
 10
126.6448201023548
 20
-133.6893369110222
 30
0.0
 10
126.6744181571552
 20
-133.9070713554124
 30
0.0
  0
SPLINE
  5
C0
330
9F
100
AcDbEntity
  8
_U+30EC_U+30A4_U+30E4_U+30FC 1
 62
   179
420
  2234388
370
     9
100
AcDbSpline
210
0.0
220
0.0
230
1.0
 70
    11
 71
     3
 72
    14
 73
    10
 74
     0
 42
0.0000000001
 43
0.0000000001
 12
1.0
 22
0.0
 32
0.0
 13
1.0
 23
0.0
 33
0.0
 40
0.0
 40
0.0
 40
0.0
 40
0.0
 40
1.0
 40
1.0
 40
1.0
 40
2.0
 40
2.0
 40
2.0
 40
3.0
 40
3.0
 40
3.0
 40
3.0
 10
126.2121028911721
 20
-133.5853027443813
 30
0.0
 10
126.2121028911721
 20
-133.5853027443813
 30
0.0
 10
126.5903864926324
 20
-133.6190635777061
 30
0.0
 10
126.6613333016683
 20
-133.8147494109907
 30
0.0
 10
126.6613333016683
 20
-133.8147494109907
 30
0.0
 10
126.7481487108298
 20
-134.1289332998013
 30
0.0
 10
126.4615167736979
 20
-134.2708910775432
 30
0.0
 10
126.4615167736979
 20
-134.2708910775432
 30
0.0
 10
126.8728556520927
 20
-133.8884799665281
 30
0.0
 10
126.2121028911721
 20
-133.5853027443813
 30
0.0
  0
SPLINE
  5
C1
330
9F
100
AcDbEntity
  8
_U+30EC_U+30A4_U+30E4_U+30FC 1
 62
   179
420
  2234388
370
     9
100
AcDbSpline
210
0.0
220
0.0
230
1.0
 70
    11
 71
     3
 72
    17
 73
    13
 74
     0
 42
0.0000000001
 43
0.0000000001
 12
1.0
 22
0.0
 32
0.0
 13
1.0
 23
0.0
 33
0.0
 40
0.0
 40
0.0
 40
0.0
 40
0.0
 40
1.0
 40
1.0
 40
1.0
 40
2.0
 40
2.0
 40
2.0
 40
3.0
 40
3.0
 40
3.0
 40
4.0
 40
4.0
 40
4.0
 40
4.0
 10
126.388491775561
 20
-132.0522363558757
 30
0.0
 10
126.4195009414365
 20
-132.2713466335988
 30
0.0
 10
126.1742145588054
 20
-132.4856238557677
 30
0.0
 10
125.839361079651
 20
-132.5324727446447
 30
0.0
 10
125.5065473536168
 20
-132.5772755224114
 30
0.0
 10
125.210954861158
 20
-132.4380694113352
 30
0.0
 10
125.18065125082
 20
-132.219664689167
 30
0.0
 10
125.1496420849444
 20
-132.0012599669994
 30
0.0
 10
125.3963043008738
 20
-131.786947467053
 30
0.0
 10
125.7304906812368
 20
-131.7414744115089
 30
0.0
 10
126.0639715060624
 20
-131.694625522632
 30
0.0
 10
126.3588584429836
 20
-131.8345019114861
 30
0.0
 10
126.388491775561
 20
-132.0522363558757
 30
0.0
  0
SPLINE
  5
C2
330
9F
100
AcDbEntity
  8
_U+30EC_U+30A4_U+30E4_U+30FC 1
 62
   179
420
  2234388
370
     9
100
AcDbSpline
210
0.0
220
0.0
230
1.0
 70
    11
 71
     3
 72
    14
 73
    10
 74
     0
 42
0.0000000001
 43
0.0000000001
 12
1.0
 22
0.0
 32
0.0
 13
1.0
 23
0.0
 33
0.0
 40
0.0
 40
0.0
 40
0.0
 40
0.0
 40
1.0
 40
1.0
 40
1.0
 40
2.0
 40
2.0
 40
2.0
 40
3.0
 40
3.0
 40
3.0
 40
3.0
 10
125.9268499685185
 20
-131.7304677448452
 30
0.0
 10
125.9268499685185
 20
-131.7304677448452
 30
0.0
 10
126.3044248332612
 20
-131.76422857817
 30
0.0
 10
126.3754037203393
 20
-131.9599144114547
 30
0.0
 10
126.3754037203393
 20
-131.9599144114547
 30
0.0
 10
126.4628926069961
 20
-132.2747685780426
 30
0.0
 10
126.1755903921036
 20
-132.4167263557845
 30
0.0
 10
126.1755903921036
 20
-132.4167263557845
 30
0.0
 10
126.5876348260359
 20
-132.0336449669914
 30
0.0
 10
125.9268499685185
 20
-131.7304677448452
 30
0.0
  0
SPLINE
  5
C3
330
9F
100
AcDbEntity
  8
_U+30EC_U+30A4_U+30E4_U+30FC 1
 62
   179
420
  2234388
370
     9
100
AcDbSpline
210
0.0
220
0.0
230
1.0
 70
    11
 71
     3
 72
    17
 73
    13
 74
     0
 42
0.0000000001
 43
0.0000000001
 12
1.0
 22
0.0
 32
0.0
 13
1.0
 23
0.0
 33
0.0
 40
0.0
 40
0.0
 40
0.0
 40
0.0
 40
1.0
 40
1.0
 40
1.0
 40
2.0
 40
2.0
 40
2.0
 40
3.0
 40
3.0
 40
3.0
 40
4.0
 40
4.0
 40
4.0
 40
4.0
 10
125.8427798450388
 20
-130.079573578591
 30
0.0
 10
125.8731187331536
 20
-130.2979783007586
 30
0.0
 10
125.627126794985
 20
-130.5129610784831
 30
0.0
 10
125.2936459701595
 20
-130.5584341340272
 30
0.0
 10
124.9601651453339
 20
-130.6039071895712
 30
0.0
 10
124.6638670973376
 20
-130.4647363562726
 30
0.0
 10
124.6342337647602
 20
-130.2462963563275
 30
0.0
 10
124.6032598766616
 20
-130.0278916341599
 30
0.0
 10
124.8505923703516
 20
-129.813614411991
 30
0.0
 10
125.1834029174164
 20
-129.7681413564469
 30
0.0
 10
125.516883742242
 20
-129.7212924675699
 30
0.0
 10
125.8124762347008
 20
-129.8611688564235
 30
0.0
 10
125.8427798450388
 20
-130.079573578591
 30
0.0
  0
SPLINE
  5
C4
330
9F
100
AcDbEntity
  8
_U+30EC_U+30A4_U+30E4_U+30FC 1
 62
   179
420
  2234388
370
     9
100
AcDbSpline
210
0.0
220
0.0
230
1.0
 70
    11
 71
     3
 72
    14
 73
    10
 74
     0
 42
0.0000000001
 43
0.0000000001
 12
1.0
 22
0.0
 32
0.0
 13
1.0
 23
0.0
 33
0.0
 40
0.0
 40
0.0
 40
0.0
 40
0.0
 40
1.0
 40
1.0
 40
1.0
 40
2.0
 40
2.0
 40
2.0
 40
3.0
 40
3.0
 40
3.0
 40
3.0
 10
125.3811348568163
 20
-129.757099412005
 30
0.0
 10
125.3811348568163
 20
-129.757099412005
 30
0.0
 10
125.7580426249784
 20
-129.7908602453298
 30
0.0
 10
125.8290215120564
 20
-129.9865460786145
 30
0.0
 10
125.8290215120564
 20
-129.9865460786145
 30
0.0
 10
125.9165103987133
 20
-130.300729967425
 30
0.0
 10
125.6292081838208
 20
-130.442687745167
 30
0.0
 10
125.6292081838208
 20
-130.442687745167
 30
0.0
 10
126.0405470622155
 20
-130.0602766341518
 30
0.0
 10
125.3811348568163
 20
-129.757099412005
 30
0.0
  0
SPLINE
  5
C5
330
9F
100
AcDbEntity
  8
_U+30EC_U+30A4_U+30E4_U+30FC 1
 62
   179
420
  2234388
370
     9
100
AcDbSpline
210
0.0
220
0.0
230
1.0
 70
    11
 71
     3
 72
    17
 73
    13
 74
     0
 42
0.0000000001
 43
0.0000000001
 12
1.0
 22
0.0
 32
0.0
 13
1.0
 23
0.0
 33
0.0
 40
0.0
 40
0.0
 40
0.0
 40
0.0
 40
1.0
 40
1.0
 40
1.0
 40
2.0
 40
2.0
 40
2.0
 40
3.0
 40
3.0
 40
3.0
 40
4.0
 40
4.0
 40
4.0
 40
4.0
 10
128.7428600488293
 20
-131.8386294114848
 30
0.0
 10
128.7738692147049
 20
-132.0577396892079
 30
0.0
 10
128.5272069987755
 20
-132.2720169113762
 30
0.0
 10
128.19372617395
 20
-132.3181955224758
 30
0.0
 10
127.8602453491245
 20
-132.3636685780205
 30
0.0
 10
127.5653231344264
 20
-132.2244977447218
 30
0.0
 10
127.5350195240884
 20
-132.0053874669987
 30
0.0
 10
127.5040103582128
 20
-131.7876530226085
 30
0.0
 10
127.7513781296797
 20
-131.5726702448847
 30
0.0
 10
128.0841533989677
 20
-131.5271971893406
 30
0.0
 10
128.4183397793308
 20
-131.480348300463
 30
0.0
 10
128.7125564384913
 20
-131.6208949670946
 30
0.0
 10
128.7428600488293
 20
-131.8386294114848
 30
0.0
  0
SPLINE
  5
C6
330
9F
100
AcDbEntity
  8
_U+30EC_U+30A4_U+30E4_U+30FC 1
 62
   179
420
  2234388
370
     9
100
AcDbSpline
210
0.0
220
0.0
230
1.0
 70
    11
 71
     3
 72
    14
 73
    10
 74
     0
 42
0.0000000001
 43
0.0000000001
 12
1.0
 22
0.0
 32
0.0
 13
1.0
 23
0.0
 33
0.0
 40
0.0
 40
0.0
 40
0.0
 40
0.0
 40
1.0
 40
1.0
 40
1.0
 40
2.0
 40
2.0
 40
2.0
 40
3.0
 40
3.0
 40
3.0
 40
3.0
 10
128.2819206161444
 20
-131.5161905226763
 30
0.0
 10
128.2819206161444
 20
-131.5161905226763
 30
0.0
 10
128.6587931065296
 20
-131.5506216337791
 30
0.0
 10
128.7297719936077
 20
-131.7470130226186
 30
0.0
 10
128.7297719936077
 20
-131.7470130226186
 30
0.0
 10
128.8172961580414
 20
-132.0604913558736
 30
0.0
 10
128.5306642209096
 20
-132.2024491336162
 30
0.0
 10
128.5306642209096
 20
-132.2024491336162
 30
0.0
 10
128.9420030993043
 20
-131.8200380226005
 30
0.0
 10
128.2819206161444
 20
-131.5161905226763
 30
0.0
  0
SPLINE
  5
C7
330
9F
100
AcDbEntity
  8
_U+30EC_U+30A4_U+30E4_U+30FC 1
 62
   179
420
  2234388
370
     9
100
AcDbSpline
210
0.0
220
0.0
230
1.0
 70
    11
 71
     3
 72
    17
 73
    13
 74
     0
 42
0.0000000001
 43
0.0000000001
 12
1.0
 22
0.0
 32
0.0
 13
1.0
 23
0.0
 33
0.0
 40
0.0
 40
0.0
 40
0.0
 40
0.0
 40
1.0
 40
1.0
 40
1.0
 40
2.0
 40
2.0
 40
2.0
 40
3.0
 40
3.0
 40
3.0
 40
4.0
 40
4.0
 40
4.0
 40
4.0
 10
128.4576039449957
 20
-129.9844999675036
 30
0.0
 10
128.4879428331106
 20
-130.2029046896718
 30
0.0
 10
128.2426564504795
 20
-130.4178874673956
 30
0.0
 10
127.9077645145788
 20
-130.4633605229397
 30
0.0
 10
127.5756595230516
 20
-130.5088335784838
 30
0.0
 10
127.27939996818
 20
-130.3703330229631
 30
0.0
 10
127.2490931424941
 20
-130.15122274524
 30
0.0
 10
127.2187542543792
 20
-129.9328180230724
 30
0.0
 10
127.4654164703085
 20
-129.7185408009035
 30
0.0
 10
127.7996028506716
 20
-129.6730324675819
 30
0.0
 10
128.1330836754971
 20
-129.6261835787043
 30
0.0
 10
128.4280058901953
 20
-129.7660599675585
 30
0.0
 10
128.4576039449957
 20
-129.9844999675036
 30
0.0
  0
SPLINE
  5
C8
330
9F
100
AcDbEntity
  8
_U+30EC_U+30A4_U+30E4_U+30FC 1
 62
   179
420
  2234388
370
     9
100
AcDbSpline
210
0.0
220
0.0
230
1.0
 70
    11
 71
     3
 72
    14
 73
    10
 74
     0
 42
0.0000000001
 43
0.0000000001
 12
1.0
 22
0.0
 32
0.0
 13
1.0
 23
0.0
 33
0.0
 40
0.0
 40
0.0
 40
0.0
 40
0.0
 40
1.0
 40
1.0
 40
1.0
 40
2.0
 40
2.0
 40
2.0
 40
3.0
 40
3.0
 40
3.0
 40
3.0
 10
127.9959589567733
 20
-129.6620258009175
 30
0.0
 10
127.9959589567733
 20
-129.6620258009175
 30
0.0
 10
128.3728667249353
 20
-129.695786634243
 30
0.0
 10
128.4438456120134
 20
-129.891472467527
 30
0.0
 10
128.4438456120134
 20
-129.891472467527
 30
0.0
 10
128.5313344986702
 20
-130.2056563563376
 30
0.0
 10
128.2447025615384
 20
-130.3482844118575
 30
0.0
 10
128.2447025615384
 20
-130.3482844118575
 30
0.0
 10
128.6560414399331
 20
-129.9652030230644
 30
0.0
 10
127.9959589567733
 20
-129.6620258009175
 30
0.0
  0
SPLINE
  5
C9
330
9F
100
AcDbEntity
  8
_U+30EC_U+30A4_U+30E4_U+30FC 1
 62
   179
420
  2234388
370
     9
100
AcDbSpline
210
0.0
220
0.0
230
1.0
 70
    11
 71
     3
 72
    17
 73
    13
 74
     0
 42
0.0000000001
 43
0.0000000001
 12
1.0
 22
0.0
 32
0.0
 13
1.0
 23
0.0
 33
0.0
 40
0.0
 40
0.0
 40
0.0
 40
0.0
 40
1.0
 40
1.0
 40
1.0
 40
2.0
 40
2.0
 40
2.0
 40
3.0
 40
3.0
 40
3.0
 40
4.0
 40
4.0
 40
4.0
 40
4.0
 10
127.6728145205729
 20
-128.2481630234934
 30
0.0
 10
127.7031534086878
 20
-128.4672733012166
 30
0.0
 10
127.4578670260567
 20
-128.6815505233851
 30
0.0
 10
127.1243509234543
 20
-128.7277291344847
 30
0.0
 10
126.7908700986287
 20
-128.7732021900292
 30
0.0
 10
126.4952776061699
 20
-128.6339960789527
 30
0.0
 10
126.4649739958319
 20
-128.4148858012296
 30
0.0
 10
126.4346703854939
 20
-128.1971866346175
 30
0.0
 10
126.6813326014233
 20
-127.9828741346711
 30
0.0
 10
127.0148166349128
 20
-127.9374010791266
 30
0.0
 10
127.3489998066119
 20
-127.8905521902497
 30
0.0
 10
127.6431811879956
 20
-128.0304285791035
 30
0.0
 10
127.6728145205729
 20
-128.2481630234934
 30
0.0
  0
SPLINE
  5
CA
330
9F
100
AcDbEntity
  8
_U+30EC_U+30A4_U+30E4_U+30FC 1
 62
   179
420
  2234388
370
     9
100
AcDbSpline
210
0.0
220
0.0
230
1.0
 70
    11
 71
     3
 72
    14
 73
    10
 74
     0
 42
0.0000000001
 43
0.0000000001
 12
1.0
 22
0.0
 32
0.0
 13
1.0
 23
0.0
 33
0.0
 40
0.0
 40
0.0
 40
0.0
 40
0.0
 40
1.0
 40
1.0
 40
1.0
 40
2.0
 40
2.0
 40
2.0
 40
3.0
 40
3.0
 40
3.0
 40
3.0
 10
127.211875087888
 20
-127.9256888569074
 30
0.0
 10
127.211875087888
 20
-127.9256888569074
 30
0.0
 10
127.5901586893483
 20
-127.9601552457878
 30
0.0
 10
127.6604320208888
 20
-128.1558410790721
 30
0.0
 10
127.6604320208888
 20
-128.1558410790721
 30
0.0
 10
127.747250629785
 20
-128.4700249678826
 30
0.0
 10
127.4606186926532
 20
-128.611947467847
 30
0.0
 10
127.4606186926532
 20
-128.611947467847
 30
0.0
 10
127.8719575710479
 20
-128.2295716346091
 30
0.0
 10
127.211875087888
 20
-127.9256888569074
 30
0.0
  0
SPLINE
  5
CB
330
9F
100
AcDbEntity
  8
_U+30EC_U+30A4_U+30E4_U+30FC 1
 62
   179
420
  2234388
370
     9
100
AcDbSpline
210
0.0
220
0.0
230
1.0
 70
    11
 71
     3
 72
    17
 73
    13
 74
     0
 42
0.0000000001
 43
0.0000000001
 12
1.0
 22
0.0
 32
0.0
 13
1.0
 23
0.0
 33
0.0
 40
0.0
 40
0.0
 40
0.0
 40
0.0
 40
1.0
 40
1.0
 40
1.0
 40
2.0
 40
2.0
 40
2.0
 40
3.0
 40
3.0
 40
3.0
 40
4.0
 40
4.0
 40
4.0
 40
4.0
 10
130.573600279901
 20
-130.0079244119427
 30
0.0
 10
130.6046094457766
 20
-130.2270346896652
 30
0.0
 10
130.3586175076079
 20
-130.4413119118341
 30
0.0
 10
130.0251366827824
 20
-130.4867849673782
 30
0.0
 10
129.6916558579569
 20
-130.5322580229223
 30
0.0
 10
129.3967336432588
 20
-130.3937574674016
 30
0.0
 10
129.3664333009919
 20
-130.1746471896785
 30
0.0
 10
129.3347505892845
 20
-129.9569127452883
 30
0.0
 10
129.5820830829745
 20
-129.741965245342
 30
0.0
 10
129.9155639078
 20
-129.6964921897979
 30
0.0
 10
130.2497502881631
 20
-129.6496080231434
 30
0.0
 10
130.5439669473237
 20
-129.7901899675525
 30
0.0
 10
130.573600279901
 20
-130.0079244119427
 30
0.0
  0
SPLINE
  5
CC
330
9F
100
AcDbEntity
  8
_U+30EC_U+30A4_U+30E4_U+30FC 1
 62
   179
420
  2234388
370
     9
100
AcDbSpline
210
0.0
220
0.0
230
1.0
 70
    11
 71
     3
 72
    14
 73
    10
 74
     0
 42
0.0000000001
 43
0.0000000001
 12
1.0
 22
0.0
 32
0.0
 13
1.0
 23
0.0
 33
0.0
 40
0.0
 40
0.0
 40
0.0
 40
0.0
 40
1.0
 40
1.0
 40
1.0
 40
2.0
 40
2.0
 40
2.0
 40
3.0
 40
3.0
 40
3.0
 40
3.0
 10
130.1126255694393
 20
-129.6854502453567
 30
0.0
 10
130.1126255694393
 20
-129.6854502453567
 30
0.0
 10
130.4902388931389
 20
-129.7199166342364
 30
0.0
 10
130.5605122246794
 20
-129.9155671897435
 30
0.0
 10
130.5605122246794
 20
-129.9155671897435
 30
0.0
 10
130.6473308335756
 20
-130.2297863563316
 30
0.0
 10
130.3613691742044
 20
-130.371708856296
 30
0.0
 10
130.3613691742044
 20
-130.371708856296
 30
0.0
 10
130.7720377748385
 20
-129.9886274675029
 30
0.0
 10
130.1126255694393
 20
-129.6854502453567
 30
0.0
  0
SPLINE
  5
CD
330
9F
100
AcDbEntity
  8
_U+30EC_U+30A4_U+30E4_U+30FC 1
 62
   179
420
  2234388
370
     9
100
AcDbSpline
210
0.0
220
0.0
230
1.0
 70
    11
 71
     3
 72
    17
 73
    13
 74
     0
 42
0.0000000001
 43
0.0000000001
 12
1.0
 22
0.0
 32
0.0
 13
1.0
 23
0.0
 33
0.0
 40
0.0
 40
0.0
 40
0.0
 40
0.0
 40
1.0
 40
1.0
 40
1.0
 40
2.0
 40
2.0
 40
2.0
 40
3.0
 40
3.0
 40
3.0
 40
4.0
 40
4.0
 40
4.0
 40
4.0
 10
128.9971069867874
 20
-126.6165658016791
 30
0.0
 10
129.0288249677429
 20
-126.8356760794022
 30
0.0
 10
128.7828297700318
 20
-127.0499533015708
 30
0.0
 10
128.4486433896688
 20
-127.0961319126704
 30
0.0
 10
128.1151625648432
 20
-127.1416049682145
 30
0.0
 10
127.8195700723844
 20
-127.0023988571383
 30
0.0
 10
127.7906422953447
 20
-126.7832885794152
 30
0.0
 10
127.7596331294691
 20
-126.5655894128032
 30
0.0
 10
128.0062953453985
 20
-126.3512769128567
 30
0.0
 10
128.3398114480009
 20
-126.3058038573123
 30
0.0
 10
128.6732922728264
 20
-126.2582846906577
 30
0.0
 10
128.9681792097476
 20
-126.3988313572892
 30
0.0
 10
128.9971069867874
 20
-126.6165658016791
 30
0.0
  0
SPLINE
  5
CE
330
9F
100
AcDbEntity
  8
_U+30EC_U+30A4_U+30E4_U+30FC 1
 62
   179
420
  2234388
370
     9
100
AcDbSpline
210
0.0
220
0.0
230
1.0
 70
    11
 71
     3
 72
    14
 73
    10
 74
     0
 42
0.0000000001
 43
0.0000000001
 12
1.0
 22
0.0
 32
0.0
 13
1.0
 23
0.0
 33
0.0
 40
0.0
 40
0.0
 40
0.0
 40
0.0
 40
1.0
 40
1.0
 40
1.0
 40
2.0
 40
2.0
 40
2.0
 40
3.0
 40
3.0
 40
3.0
 40
3.0
 10
128.5368378318632
 20
-126.2940916350931
 30
0.0
 10
128.5368378318632
 20
-126.2940916350931
 30
0.0
 10
128.9137456000252
 20
-126.3278524684179
 30
0.0
 10
128.985394764864
 20
-126.5242438572577
 30
0.0
 10
128.985394764864
 20
-126.5242438572577
 30
0.0
 10
129.0715430959995
 20
-126.8384277460683
 30
0.0
 10
128.7849111588676
 20
-126.9810558015879
 30
0.0
 10
128.7849111588676
 20
-126.9810558015879
 30
0.0
 10
129.1969203150231
 20
-126.5979744127948
 30
0.0
 10
128.5368378318632
 20
-126.2940916350931
 30
0.0
  0
SPLINE
  5
CF
330
9F
100
AcDbEntity
  8
_U+30EC_U+30A4_U+30E4_U+30FC 1
 62
   179
420
  2234388
370
     9
100
AcDbSpline
210
0.0
220
0.0
230
1.0
 70
    11
 71
     3
 72
    17
 73
    13
 74
     0
 42
0.0000000001
 43
0.0000000001
 12
1.0
 22
0.0
 32
0.0
 13
1.0
 23
0.0
 33
0.0
 40
0.0
 40
0.0
 40
0.0
 40
0.0
 40
1.0
 40
1.0
 40
1.0
 40
2.0
 40
2.0
 40
2.0
 40
3.0
 40
3.0
 40
3.0
 40
4.0
 40
4.0
 40
4.0
 40
4.0
 10
132.2086194048549
 20
-128.4996583012085
 30
0.0
 10
132.2389582929698
 20
-128.7187685789316
 30
0.0
 10
131.9929663548011
 20
-128.932340245545
 30
0.0
 10
131.6594888559742
 20
-128.9792244121995
 30
0.0
 10
131.32600470515
 20
-129.0246974677436
 30
0.0
 10
131.0311177682288
 20
-128.8854913566674
 30
0.0
 10
131.0007788801139
 20
-128.6663810789446
 30
0.0
 10
130.9704752697759
 20
-128.4486466345544
 30
0.0
 10
131.2171374857053
 20
-128.2336991346084
 30
0.0
 10
131.5506183105308
 20
-128.188226079064
 30
0.0
 10
131.8834288575956
 20
-128.1413771901867
 30
0.0
 10
132.1790213500545
 20
-128.2819238568183
 30
0.0
 10
132.2086194048549
 20
-128.4996583012085
 30
0.0
  0
SPLINE
  5
D0
330
9F
100
AcDbEntity
  8
_U+30EC_U+30A4_U+30E4_U+30FC 1
 62
   179
420
  2234388
370
     9
100
AcDbSpline
210
0.0
220
0.0
230
1.0
 70
    11
 71
     3
 72
    14
 73
    10
 74
     0
 42
0.0000000001
 43
0.0000000001
 12
1.0
 22
0.0
 32
0.0
 13
1.0
 23
0.0
 33
0.0
 40
0.0
 40
0.0
 40
0.0
 40
0.0
 40
1.0
 40
1.0
 40
1.0
 40
2.0
 40
2.0
 40
2.0
 40
3.0
 40
3.0
 40
3.0
 40
3.0
 10
131.7476833003966
 20
-128.1771841346225
 30
0.0
 10
131.7476833003966
 20
-128.1771841346225
 30
0.0
 10
132.1245877403321
 20
-128.2116505235025
 30
0.0
 10
132.1962369051708
 20
-128.4073363567871
 30
0.0
 10
132.1962369051708
 20
-128.4073363567871
 30
0.0
 10
132.2823499585294
 20
-128.7215202455974
 30
0.0
 10
131.9964235769351
 20
-128.8634427455618
 30
0.0
 10
131.9964235769351
 20
-128.8634427455618
 30
0.0
 10
132.4077624553299
 20
-128.4803613567687
 30
0.0
 10
131.7476833003966
 20
-128.1771841346225
 30
0.0
  0
SPLINE
  5
D1
330
9F
100
AcDbEntity
  8
_U+30EC_U+30A4_U+30E4_U+30FC 1
 62
   179
420
  2234388
370
     9
100
AcDbSpline
210
0.0
220
0.0
230
1.0
 70
    11
 71
     3
 72
    17
 73
    13
 74
     0
 42
0.0000000001
 43
0.0000000001
 12
1.0
 22
0.0
 32
0.0
 13
1.0
 23
0.0
 33
0.0
 40
0.0
 40
0.0
 40
0.0
 40
0.0
 40
1.0
 40
1.0
 40
1.0
 40
2.0
 40
2.0
 40
2.0
 40
3.0
 40
3.0
 40
3.0
 40
4.0
 40
4.0
 40
4.0
 40
4.0
 10
130.2876386205299
 20
-128.1530894124063
 30
0.0
 10
130.3186477864054
 20
-128.3728699679068
 30
0.0
 10
130.0733614037743
 20
-128.586476912298
 30
0.0
 10
129.7391750234112
 20
-128.6326202456198
 30
0.0
 10
129.4056941985857
 20
-128.6780933011639
 30
0.0
 10
129.1108072616644
 20
-128.5389224678652
 30
0.0
 10
129.0805036513264
 20
-128.3205177456976
 30
0.0
 10
129.0501647632116
 20
-128.1020777457522
 30
0.0
 10
129.2975325346785
 20
-127.8878005235836
 30
0.0
 10
129.6310166342591
 20
-127.841621912484
 30
0.0
 10
129.9638239065688
 20
-127.7954785791622
 30
0.0
 10
130.2587108434901
 20
-127.9353549680161
 30
0.0
 10
130.2876386205299
 20
-128.1530894124063
 30
0.0
  0
SPLINE
  5
D2
330
9F
100
AcDbEntity
  8
_U+30EC_U+30A4_U+30E4_U+30FC 1
 62
   179
420
  2234388
370
     9
100
AcDbSpline
210
0.0
220
0.0
230
1.0
 70
    11
 71
     3
 72
    14
 73
    10
 74
     0
 42
0.0000000001
 43
0.0000000001
 12
1.0
 22
0.0
 32
0.0
 13
1.0
 23
0.0
 33
0.0
 40
0.0
 40
0.0
 40
0.0
 40
0.0
 40
1.0
 40
1.0
 40
1.0
 40
2.0
 40
2.0
 40
2.0
 40
3.0
 40
3.0
 40
3.0
 40
3.0
 10
129.8273694656056
 20
-127.8312855235976
 30
0.0
 10
129.8273694656056
 20
-127.8312855235976
 30
0.0
 10
130.2049860785596
 20
-127.8650463569228
 30
0.0
 10
130.2752561208458
 20
-128.0607321902071
 30
0.0
 10
130.2752561208458
 20
-128.0607321902071
 30
0.0
 10
130.3627450075026
 20
-128.3756216345729
 30
0.0
 10
130.0761130703708
 20
-128.5175794123151
 30
0.0
 10
130.0761130703708
 20
-128.5175794123151
 30
0.0
 10
130.4874519487655
 20
-128.1344627457441
 30
0.0
 10
129.8273694656056
 20
-127.8312855235976
 30
0.0
  0
POLYLINE
  5
D3
330
9F
100
AcDbEntity
  8
_U+30EC_U+30A4_U+30E4_U+30FC 1
 62
     7
420
 16777215
370
     9
100
AcDb2dPolyline
 66
     1
 10
0.0
 20
0.0
 30
0.0
  0
VERTEX
  5
D4
330
D3
100
AcDbEntity
  8
_U+30EC_U+30A4_U+30E4_U+30FC 1
 62
     7
420
 16777215
370
     9
100
AcDbVertex
100
AcDb2dVertex
 10
118.4578711445546
 20
-134.5375205219213
 30
0.0
  0
VERTEX
  5
D5
330
D3
100
AcDbEntity
  8
_U+30EC_U+30A4_U+30E4_U+30FC 1
 62
     7
420
 16777215
370
     9
100
AcDbVertex
100
AcDb2dVertex
 10
112.5171640738924
 20
-138.1534927432396
 30
0.0
  0
VERTEX
  5
D6
330
D3
100
AcDbEntity
  8
_U+30EC_U+30A4_U+30E4_U+30FC 1
 62
     7
420
 16777215
370
     9
100
AcDbVertex
100
AcDb2dVertex
 10
112.3938329659278
 20
-137.9509277432899
 30
0.0
  0
VERTEX
  5
D7
330
D3
100
AcDbEntity
  8
_U+30EC_U+30A4_U+30E4_U+30FC 1
 62
     7
420
 16777215
370
     9
100
AcDbVertex
100
AcDb2dVertex
 10
118.4992166990553
 20
-134.2226310775552
 30
0.0
  0
SEQEND
  5
D8
330
D3
100
AcDbEntity
  8
_U+30EC_U+30A4_U+30E4_U+30FC 1
 62
     7
420
 16777215
370
     9
  0
POLYLINE
  5
D9
330
9F
100
AcDbEntity
  8
_U+30EC_U+30A4_U+30E4_U+30FC 1
 62
     7
420
 16777215
370
     9
100
AcDb2dPolyline
 66
     1
 10
0.0
 20
0.0
 30
0.0
  0
VERTEX
  5
DA
330
D9
100
AcDbEntity
  8
_U+30EC_U+30A4_U+30E4_U+30FC 1
 62
     7
420
 16777215
370
     9
100
AcDbVertex
100
AcDb2dVertex
 10
118.4916319770266
 20
-134.5037596885965
 30
0.0
  0
VERTEX
  5
DB
330
D9
100
AcDbEntity
  8
_U+30EC_U+30A4_U+30E4_U+30FC 1
 62
     7
420
 16777215
370
     9
100
AcDbVertex
100
AcDb2dVertex
 10
124.4661351579377
 20
-138.1528224654616
 30
0.0
  0
VERTEX
  5
DC
330
D9
100
AcDbEntity
  8
_U+30EC_U+30A4_U+30E4_U+30FC 1
 62
     7
420
 16777215
370
     9
100
AcDbVertex
100
AcDb2dVertex
 10
124.5894694132969
 20
-137.9509277432899
 30
0.0
  0
VERTEX
  5
DD
330
D9
100
AcDbEntity
  8
_U+30EC_U+30A4_U+30E4_U+30FC 1
 62
     7
420
 16777215
370
     9
100
AcDbVertex
100
AcDb2dVertex
 10
118.4847528105355
 20
-134.2219607997779
 30
0.0
  0
SEQEND
  5
DE
330
D9
100
AcDbEntity
  8
_U+30EC_U+30A4_U+30E4_U+30FC 1
 62
     7
420
 16777215
370
     9
  0
POLYLINE
  5
DF
330
9F
100
AcDbEntity
  8
_U+30EC_U+30A4_U+30E4_U+30FC 1
 62
     7
420
 16777215
370
     9
100
AcDb2dPolyline
 66
     1
 10
0.0
 20
0.0
 30
0.0
  0
VERTEX
  5
E0
330
DF
100
AcDbEntity
  8
_U+30EC_U+30A4_U+30E4_U+30FC 1
 62
     7
420
 16777215
370
     9
100
AcDbVertex
100
AcDb2dVertex
 10
122.2378527472184
 20
-128.3680369123526
 30
0.0
  0
VERTEX
  5
E1
330
DF
100
AcDbEntity
  8
_U+30EC_U+30A4_U+30E4_U+30FC 1
 62
     7
420
 16777215
370
     9
100
AcDbVertex
100
AcDb2dVertex
 10
127.6576803542924
 20
-125.0738333020649
 30
0.0
  0
VERTEX
  5
E2
330
DF
100
AcDbEntity
  8
_U+30EC_U+30A4_U+30E4_U+30FC 1
 62
     7
420
 16777215
370
     9
100
AcDbVertex
100
AcDb2dVertex
 10
118.4778736440443
 20
-134.2536402442143
 30
0.0
  0
SEQEND
  5
E3
330
DF
100
AcDbEntity
  8
_U+30EC_U+30A4_U+30E4_U+30FC 1
 62
     7
420
 16777215
370
     9
  0
POLYLINE
  5
E4
330
9F
100
AcDbEntity
  8
_U+30EC_U+30A4_U+30E4_U+30FC 1
 62
     7
420
 16777215
370
     9
100
AcDb2dPolyline
 66
     1
 10
0.0
 20
0.0
 30
0.0
  0
VERTEX
  5
E5
330
E4
100
AcDbEntity
  8
_U+30EC_U+30A4_U+30E4_U+30FC 1
 62
     7
420
 16777215
370
     9
100
AcDbVertex
100
AcDb2dVertex
 10
112.3938329659278
 20
-137.9509277432899
 30
0.0
  0
VERTEX
  5
E6
330
E4
100
AcDbEntity
  8
_U+30EC_U+30A4_U+30E4_U+30FC 1
 62
     7
420
 16777215
370
     9
100
AcDbVertex
100
AcDb2dVertex
 10
121.5743099539365
 20
-128.7704505233627
 30
0.0
  0
VERTEX
  5
E7
330
E4
100
AcDbEntity
  8
_U+30EC_U+30A4_U+30E4_U+30FC 1
 62
     7
420
 16777215
370
     9
100
AcDbVertex
100
AcDb2dVertex
 10
122.2378527472184
 20
-128.3680369123526
 30
0.0
  0
SEQEND
  5
E8
330
E4
100
AcDbEntity
  8
_U+30EC_U+30A4_U+30E4_U+30FC 1
 62
     7
420
 16777215
370
     9
  0
POLYLINE
  5
E9
330
9F
100
AcDbEntity
  8
_U+30EC_U+30A4_U+30E4_U+30FC 1
 62
     7
420
 16777215
370
     9
100
AcDb2dPolyline
 66
     1
 10
0.0
 20
0.0
 30
0.0
  0
VERTEX
  5
EA
330
E9
100
AcDbEntity
  8
_U+30EC_U+30A4_U+30E4_U+30FC 1
 62
     7
420
 16777215
370
     9
100
AcDbVertex
100
AcDb2dVertex
 10
124.6135962652867
 20
-137.9509277432899
 30
0.0
  0
VERTEX
  5
EB
330
E9
100
AcDbEntity
  8
_U+30EC_U+30A4_U+30E4_U+30FC 1
 62
     7
420
 16777215
370
     9
100
AcDbVertex
100
AcDb2dVertex
 10
133.7940732532955
 20
-128.7704505233627
 30
0.0
  0
VERTEX
  5
EC
330
E9
100
AcDbEntity
  8
_U+30EC_U+30A4_U+30E4_U+30FC 1
 62
     7
420
 16777215
370
     9
100
AcDbVertex
100
AcDb2dVertex
 10
127.6576803542924
 20
-125.0738333020649
 30
0.0
  0
SEQEND
  5
ED
330
E9
100
AcDbEntity
  8
_U+30EC_U+30A4_U+30E4_U+30FC 1
 62
     7
420
 16777215
370
     9
  0
ENDBLK
  5
A2
330
9F
100
AcDbEntity
  8
0
100
AcDbBlockEnd
  0
BLOCK
  5
10A
330
108
100
AcDbEntity
  8
0
100
AcDbBlockBegin
  2
block 5
 70
     0
 10
0.0
 20
0.0
 30
0.0
  3
block 5
  1

  0
SPLINE
  5
10C
330
108
100
AcDbEntity
  8
_U+30EC_U+30A4_U+30E4_U+30FC 1
370
     0
100
AcDbSpline
210
0.0
220
0.0
230
1.0
 70
    11
 71
     3
 72
   242
 73
   238
 74
     0
 42
0.0000000001
 43
0.0000000001
 12
1.0
 22
0.0
 32
0.0
 13
1.0
 23
0.0
 33
0.0
 40
0.0
 40
0.0
 40
0.0
 40
0.0
 40
1.0
 40
1.0
 40
1.0
 40
2.0
 40
2.0
 40
2.0
 40
3.0
 40
3.0
 40
3.0
 40
4.0
 40
4.0
 40
4.0
 40
5.0
 40
5.0
 40
5.0
 40
6.0
 40
6.0
 40
6.0
 40
7.0
 40
7.0
 40
7.0
 40
8.0
 40
8.0
 40
8.0
 40
9.0
 40
9.0
 40
9.0
 40
10.0
 40
10.0
 40
10.0
 40
11.0
 40
11.0
 40
11.0
 40
12.0
 40
12.0
 40
12.0
 40
13.0
 40
13.0
 40
13.0
 40
14.0
 40
14.0
 40
14.0
 40
15.0
 40
15.0
 40
15.0
 40
16.0
 40
16.0
 40
16.0
 40
17.0
 40
17.0
 40
17.0
 40
18.0
 40
18.0
 40
18.0
 40
19.0
 40
19.0
 40
19.0
 40
20.0
 40
20.0
 40
20.0
 40
21.0
 40
21.0
 40
21.0
 40
22.0
 40
22.0
 40
22.0
 40
23.0
 40
23.0
 40
23.0
 40
24.0
 40
24.0
 40
24.0
 40
25.0
 40
25.0
 40
25.0
 40
26.0
 40
26.0
 40
26.0
 40
27.0
 40
27.0
 40
27.0
 40
28.0
 40
28.0
 40
28.0
 40
29.0
 40
29.0
 40
29.0
 40
30.0
 40
30.0
 40
30.0
 40
31.0
 40
31.0
 40
31.0
 40
32.0
 40
32.0
 40
32.0
 40
33.0
 40
33.0
 40
33.0
 40
34.0
 40
34.0
 40
34.0
 40
35.0
 40
35.0
 40
35.0
 40
36.0
 40
36.0
 40
36.0
 40
37.0
 40
37.0
 40
37.0
 40
38.0
 40
38.0
 40
38.0
 40
39.0
 40
39.0
 40
39.0
 40
40.0
 40
40.0
 40
40.0
 40
41.0
 40
41.0
 40
41.0
 40
42.0
 40
42.0
 40
42.0
 40
43.0
 40
43.0
 40
43.0
 40
44.0
 40
44.0
 40
44.0
 40
45.0
 40
45.0
 40
45.0
 40
46.0
 40
46.0
 40
46.0
 40
47.0
 40
47.0
 40
47.0
 40
48.0
 40
48.0
 40
48.0
 40
49.0
 40
49.0
 40
49.0
 40
50.0
 40
50.0
 40
50.0
 40
51.0
 40
51.0
 40
51.0
 40
52.0
 40
52.0
 40
52.0
 40
53.0
 40
53.0
 40
53.0
 40
54.0
 40
54.0
 40
54.0
 40
55.0
 40
55.0
 40
55.0
 40
56.0
 40
56.0
 40
56.0
 40
57.0
 40
57.0
 40
57.0
 40
58.0
 40
58.0
 40
58.0
 40
59.0
 40
59.0
 40
59.0
 40
60.0
 40
60.0
 40
60.0
 40
61.0
 40
61.0
 40
61.0
 40
62.0
 40
62.0
 40
62.0
 40
63.0
 40
63.0
 40
63.0
 40
64.0
 40
64.0
 40
64.0
 40
65.0
 40
65.0
 40
65.0
 40
66.0
 40
66.0
 40
66.0
 40
67.0
 40
67.0
 40
67.0
 40
68.0
 40
68.0
 40
68.0
 40
69.0
 40
69.0
 40
69.0
 40
70.0
 40
70.0
 40
70.0
 40
71.0
 40
71.0
 40
71.0
 40
72.0
 40
72.0
 40
72.0
 40
73.0
 40
73.0
 40
73.0
 40
74.0
 40
74.0
 40
74.0
 40
75.0
 40
75.0
 40
75.0
 40
76.0
 40
76.0
 40
76.0
 40
77.0
 40
77.0
 40
77.0
 40
78.0
 40
78.0
 40
78.0
 40
79.0
 40
79.0
 40
79.0
 40
79.0
 10
73.79325627495447
 20
-138.8945366406236
 30
0.0
 10
73.79325627495447
 20
-138.8945366406236
 30
0.0
 10
73.53935273769156
 20
-138.8945366406236
 30
0.0
 10
73.53935273769156
 20
-138.8945366406236
 30
0.0
 10
73.53935273769156
 20
-138.8945366406236
 30
0.0
 10
73.2621948059032
 20
-138.8945366406236
 30
0.0
 10
73.2621948059032
 20
-138.8945366406236
 30
0.0
 10
73.2621948059032
 20
-138.8945366406236
 30
0.0
 10
73.38914657453466
 20
-138.9365668055436
 30
0.0
 10
73.38914657453466
 20
-138.9365668055436
 30
0.0
 10
73.39965411576468
 20
-138.9410454296745
 30
0.0
 10
73.4124009690601
 20
-138.9472466015479
 30
0.0
 10
73.4124009690601
 20
-138.9599934548433
 30
0.0
 10
73.4124009690601
 20
-138.9810085373034
 30
0.0
 10
73.3807060905958
 20
-138.9875542187253
 30
0.0
 10
73.35951875336151
 20
-138.9916883333076
 30
0.0
 10
73.3490112121315
 20
-139.0151149826073
 30
0.0
 10
73.31938339095835
 20
-139.0805717968271
 30
0.0
 10
73.30026311101521
 20
-139.1250135285868
 30
0.0
 10
73.30026311101521
 20
-139.1250135285868
 30
0.0
 10
73.57104761615585
 20
-139.1250135285868
 30
0.0
 10
73.57104761615585
 20
-139.1250135285868
 30
0.0
 10
73.66199813696645
 20
-139.1250135285868
 30
0.0
 10
73.85871308917422
 20
-139.1208794140045
 30
0.0
 10
74.00047876839224
 20
-139.1122666752914
 30
0.0
 10
74.00047876839224
 20
-139.1122666752914
 30
0.0
 10
74.00047876839224
 20
-139.2900336023303
 30
0.0
 10
74.00047876839224
 20
-139.2900336023303
 30
0.0
 10
73.91796873152052
 20
-139.285899487748
 30
0.0
 10
73.89678139428622
 20
-139.285899487748
 30
0.0
 10
73.71711966473045
 20
-139.2814208636171
 30
0.0
 10
73.68525253149188
 20
-139.4361056509049
 30
0.0
 10
73.64081079973217
 20
-139.5163763757112
 30
0.0
 10
73.59636906797243
 20
-139.5863118140618
 30
0.0
 10
73.71711966473045
 20
-139.6455674564081
 30
0.0
 10
73.82288409612761
 20
-139.713091327919
 30
0.0
 10
73.92640921545937
 20
-139.795773619565
 30
0.0
 10
73.92640921545937
 20
-139.795773619565
 30
0.0
 10
73.80807018554104
 20
-139.9628607505996
 30
0.0
 10
73.80807018554104
 20
-139.9628607505996
 30
0.0
 10
73.78464353624135
 20
-139.9435682158822
 30
0.0
 10
73.77206893772018
 20
-139.9352999867176
 30
0.0
 10
73.6599310796753
 20
-139.8505506377804
 30
0.0
 10
73.61118297855901
 20
-139.8126545874427
 30
0.0
 10
73.55209959098698
 20
-139.7764810848475
 30
0.0
 10
73.47165661140639
 20
-139.7320393530878
 30
0.0
 10
73.26012774861205
 20
-139.9184190188398
 30
0.0
 10
73.05480005769117
 20
-139.941501158591
 30
0.0
 10
72.76506752738165
 20
-139.9711289797642
 30
0.0
 10
72.76506752738165
 20
-139.9711289797642
 30
0.0
 10
72.66137015327563
 20
-139.7912949954341
 30
0.0
 10
72.66137015327563
 20
-139.7912949954341
 30
0.0
 10
72.97866344746714
 20
-139.7871608808518
 30
0.0
 10
73.15436331721489
 20
-139.761667174261
 30
0.0
 10
73.30663653766292
 20
-139.6517686282815
 30
0.0
 10
73.18812525297034
 20
-139.6011257246483
 30
0.0
 10
73.09924178945089
 20
-139.5735649607663
 30
0.0
 10
73.0634127964043
 20
-139.5608181074709
 30
0.0
 10
73.04429251646116
 20
-139.5883788713529
 30
0.0
 10
73.02947860587457
 20
-139.6073268965218
 30
0.0
 10
73.00191784199258
 20
-139.6410888322772
 30
0.0
 10
73.00191784199258
 20
-139.6410888322772
 30
0.0
 10
72.80520288978481
 20
-139.5587510501798
 30
0.0
 10
72.80520288978481
 20
-139.5587510501798
 30
0.0
 10
72.88771292665655
 20
-139.4781358158249
 30
0.0
 10
72.94903562629399
 20
-139.383051180432
 30
0.0
 10
73.00622421134914
 20
-139.2814208636171
 30
0.0
 10
72.81588268578909
 20
-139.285899487748
 30
0.0
 10
72.7946953485548
 20
-139.285899487748
 30
0.0
 10
72.71218531168307
 20
-139.2900336023303
 30
0.0
 10
72.71218531168307
 20
-139.2900336023303
 30
0.0
 10
72.71218531168307
 20
-139.1122666752914
 30
0.0
 10
72.71218531168307
 20
-139.1122666752914
 30
0.0
 10
72.85171167883568
 20
-139.1188123567134
 30
0.0
 10
73.06117348433888
 20
-139.1229464712956
 30
0.0
 10
73.08666719092973
 20
-139.1229464712956
 30
0.0
 10
73.10354815880746
 20
-139.0891845355402
 30
0.0
 10
73.15849743179719
 20
-138.9686061935565
 30
0.0
 10
73.17761771174033
 20
-138.8945366406236
 30
0.0
 10
73.15849743179719
 20
-138.8945366406236
 30
0.0
 10
72.98090275953255
 20
-138.9007378124971
 30
0.0
 10
72.78625486461594
 20
-138.9134846657925
 30
0.0
 10
72.78625486461594
 20
-138.9134846657925
 30
0.0
 10
72.78625486461594
 20
-139.0468098610716
 30
0.0
 10
72.78625486461594
 20
-139.0468098610716
 30
0.0
 10
72.73750676349965
 20
-139.0723035676625
 30
0.0
 10
72.67825112115335
 20
-139.1039984461268
 30
0.0
 10
72.54509818064845
 20
-139.1694552603465
 30
0.0
 10
72.54509818064845
 20
-139.1694552603465
 30
0.0
 10
72.54509818064845
 20
-139.3155273089211
 30
0.0
 10
72.54509818064845
 20
-139.3155273089211
 30
0.0
 10
72.54509818064845
 20
-139.3155273089211
 30
0.0
 10
72.54509818064845
 20
-139.7830267662695
 30
0.0
 10
72.54509818064845
 20
-139.7830267662695
 30
0.0
 10
72.54509818064845
 20
-139.9098062801267
 30
0.0
 10
72.50909693282759
 20
-139.969061922473
 30
0.0
 10
72.22556557439152
 20
-139.9607936933084
 30
0.0
 10
72.22556557439152
 20
-139.9607936933084
 30
0.0
 10
72.1218682002855
 20
-139.7533989450964
 30
0.0
 10
72.1218682002855
 20
-139.7533989450964
 30
0.0
 10
72.18543021198836
 20
-139.7661457983918
 30
0.0
 10
72.2340060583304
 20
-139.7702799129741
 30
0.0
 10
72.27431367550781
 20
-139.7702799129741
 30
0.0
 10
72.35045028573184
 20
-139.7702799129741
 30
0.0
 10
72.36095782696185
 20
-139.7468532636744
 30
0.0
 10
72.36095782696185
 20
-139.6813964494547
 30
0.0
 10
72.36095782696185
 20
-139.6813964494547
 30
0.0
 10
72.36095782696185
 20
-139.251793042444
 30
0.0
 10
72.36095782696185
 20
-139.251793042444
 30
0.0
 10
72.26363387950354
 20
-139.2921006596214
 30
0.0
 10
72.24675291162582
 20
-139.2986463410434
 30
0.0
 10
72.20024412257494
 20
-139.3175943662123
 30
0.0
 10
72.19593775321837
 20
-139.3386094486723
 30
0.0
 10
72.19180363863607
 20
-139.3682372698455
 30
0.0
 10
72.17268335869295
 20
-139.3682372698455
 30
0.0
 10
72.16424287475408
 20
-139.3682372698455
 30
0.0
 10
72.15373533352407
 20
-139.3641031552631
 30
0.0
 10
72.14736190687636
 20
-139.3406765059634
 30
0.0
 10
72.14736190687636
 20
-139.3406765059634
 30
0.0
 10
72.09447969117777
 20
-139.1484401778865
 30
0.0
 10
72.09447969117777
 20
-139.1484401778865
 30
0.0
 10
72.2403794849781
 20
-139.1015868792871
 30
0.0
 10
72.3060085539721
 20
-139.0785047395359
 30
0.0
 10
72.36095782696185
 20
-139.0574896570759
 30
0.0
 10
72.36095782696185
 20
-139.0574896570759
 30
0.0
 10
72.36095782696185
 20
-138.644767217943
 30
0.0
 10
72.36095782696185
 20
-138.644767217943
 30
0.0
 10
72.36095782696185
 20
-138.644767217943
 30
0.0
 10
72.30807561126326
 20
-138.644767217943
 30
0.0
 10
72.30807561126326
 20
-138.644767217943
 30
0.0
 10
72.30807561126326
 20
-138.644767217943
 30
0.0
 10
72.2298719437481
 20
-138.644767217943
 30
0.0
 10
72.2298719437481
 20
-138.644767217943
 30
0.0
 10
72.16217581746294
 20
-138.644767217943
 30
0.0
 10
72.15373533352407
 20
-138.644767217943
 30
0.0
 10
72.1177340857032
 20
-138.651312899365
 30
0.0
 10
72.1177340857032
 20
-138.651312899365
 30
0.0
 10
72.1177340857032
 20
-138.4566650044484
 30
0.0
 10
72.1177340857032
 20
-138.4566650044484
 30
0.0
 10
72.14529484958521
 20
-138.4628661763218
 30
0.0
 10
72.15373533352407
 20
-138.4628661763218
 30
0.0
 10
72.22349851710038
 20
-138.4628661763218
 30
0.0
 10
72.22349851710038
 20
-138.4628661763218
 30
0.0
 10
72.35682371237955
 20
-138.4628661763218
 30
0.0
 10
72.35682371237955
 20
-138.4628661763218
 30
0.0
 10
72.35682371237955
 20
-138.3929307379712
 30
0.0
 10
72.35682371237955
 20
-138.3105929558737
 30
0.0
 10
72.35458440031414
 20
-138.3064588412915
 30
0.0
 10
72.34614391637527
 20
-138.1266248569614
 30
0.0
 10
72.34614391637527
 20
-138.107332322244
 30
0.0
 10
72.34407685908413
 20
-138.0608235331931
 30
0.0
 10
72.34407685908413
 20
-138.0608235331931
 30
0.0
 10
72.55991209123502
 20
-138.0694362719063
 30
0.0
 10
72.55991209123502
 20
-138.0694362719063
 30
0.0
 10
72.57041963246503
 20
-138.0694362719063
 30
0.0
 10
72.59160696969933
 20
-138.0715033291974
 30
0.0
 10
72.59160696969933
 20
-138.0883842970751
 30
0.0
 10
72.59160696969933
 20
-138.107332322244
 30
0.0
 10
72.57679305911275
 20
-138.1180121182483
 30
0.0
 10
72.55147160729616
 20
-138.1369601434172
 30
0.0
 10
72.55147160729616
 20
-138.1879475565989
 30
0.0
 10
72.54509818064845
 20
-138.4163573872709
 30
0.0
 10
72.5471652379396
 20
-138.4628661763218
 30
0.0
 10
72.67618406386221
 20
-138.4628661763218
 30
0.0
 10
72.68893091715763
 20
-138.4628661763218
 30
0.0
 10
72.78625486461594
 20
-138.4542534376087
 30
0.0
 10
72.78625486461594
 20
-138.4542534376087
 30
0.0
 10
72.78625486461594
 20
-138.6489013325253
 30
0.0
 10
72.78625486461594
 20
-138.6489013325253
 30
0.0
 10
72.74818655950394
 20
-138.6468342752341
 30
0.0
 10
72.68049043321876
 20
-138.6427001606518
 30
0.0
 10
72.54509818064845
 20
-138.644767217943
 30
0.0
 10
72.54509818064845
 20
-138.644767217943
 30
0.0
 10
72.54509818064845
 20
-138.9834201041431
 30
0.0
 10
72.54509818064845
 20
-138.9834201041431
 30
0.0
 10
72.60004745363818
 20
-138.9599934548433
 30
0.0
 10
72.6656765226322
 20
-138.9324326909613
 30
0.0
 10
72.71425236897421
 20
-138.9093505512102
 30
0.0
 10
72.71425236897421
 20
-138.9093505512102
 30
0.0
 10
72.71425236897421
 20
-138.7315836241713
 30
0.0
 10
72.71425236897421
 20
-138.7315836241713
 30
0.0
 10
72.82845728431025
 20
-138.7443304774667
 30
0.0
 10
72.94696856900285
 20
-138.7443304774667
 30
0.0
 10
73.0634127964043
 20
-138.7443304774667
 30
0.0
 10
73.04015840187886
 20
-138.6489013325253
 30
0.0
 10
73.01259763799685
 20
-138.5665635504278
 30
0.0
 10
72.94903562629399
 20
-138.4332383551486
 30
0.0
 10
72.90476614930853
 20
-138.4353054124398
 30
0.0
 10
72.8222561124368
 20
-138.4394395270221
 30
0.0
 10
72.78401555255053
 20
-138.4418510938618
 30
0.0
 10
72.78401555255053
 20
-138.4418510938618
 30
0.0
 10
72.78401555255053
 20
-138.2620171095317
 30
0.0
 10
72.78401555255053
 20
-138.2620171095317
 30
0.0
 10
72.90890026389083
 20
-138.2702853386963
 30
0.0
 10
73.08236082157316
 20
-138.2744194532786
 30
0.0
 10
73.1648708584449
 20
-138.2744194532786
 30
0.0
 10
73.1648708584449
 20
-138.2744194532786
 30
0.0
 10
73.24738089531662
 20
-138.2744194532786
 30
0.0
 10
73.24738089531662
 20
-138.2744194532786
 30
0.0
 10
73.24738089531662
 20
-138.1118109463748
 30
0.0
 10
73.24738089531662
 20
-138.1011311503705
 30
0.0
 10
73.24531383802548
 20
-138.0460096226066
 30
0.0
 10
73.24531383802548
 20
-138.0460096226066
 30
0.0
 10
73.46958955411525
 20
-138.0715033291974
 30
0.0
 10
73.46958955411525
 20
-138.0715033291974
 30
0.0
 10
73.47372366869755
 20
-138.0715033291974
 30
0.0
 10
73.49491100593183
 20
-138.0735703864886
 30
0.0
 10
73.49491100593183
 20
-138.0904513543663
 30
0.0
 10
73.49491100593183
 20
-138.1052652649529
 30
0.0
 10
73.48440346470181
 20
-138.113878003666
 30
0.0
 10
73.45684270081982
 20
-138.1286919142526
 30
0.0
 10
73.45046927417211
 20
-138.1941487284723
 30
0.0
 10
73.44840221688096
 20
-138.2155083204809
 30
0.0
 10
73.44840221688096
 20
-138.2744194532786
 30
0.0
 10
73.44840221688096
 20
-138.2744194532786
 30
0.0
 10
73.54348685227386
 20
-138.2744194532786
 30
0.0
 10
73.54348685227386
 20
-138.2744194532786
 30
0.0
 10
73.62599688914558
 20
-138.2744194532786
 30
0.0
 10
73.79945744682792
 20
-138.2702853386963
 30
0.0
 10
73.92434215816823
 20
-138.2620171095317
 30
0.0
 10
73.92434215816823
 20
-138.2620171095317
 30
0.0
 10
73.92434215816823
 20
-138.4418510938618
 30
0.0
 10
73.92434215816823
 20
-138.4418510938618
 30
0.0
 10
73.89471433699508
 20
-138.4394395270221
 30
0.0
 10
73.77620305230248
 20
-138.4353054124398
 30
0.0
 10
73.73606768989931
 20
-138.4332383551486
 30
0.0
 10
73.72125377931275
 20
-138.4838812587818
 30
0.0
 10
73.6874918435573
 20
-138.596191371601
 30
0.0
 10
73.62186277456328
 20
-138.7357177387536
 30
0.0
 10
73.6640651942576
 20
-138.7357177387536
 30
0.0
 10
73.94122312604594
 20
-138.7167697135847
 30
0.0
 10
74.0025458256834
 20
-138.7147026562936
 30
0.0
 10
74.0025458256834
 20
-138.7147026562936
 30
0.0
 10
74.0025458256834
 20
-138.8986707552059
 30
0.0
 10
74.0025458256834
 20
-138.8986707552059
 30
0.0
 10
73.9730902592845
 20
-138.8986707552059
 30
0.0
 10
73.95603703663252
 20
-138.8945366406236
 30
0.0
 10
73.79325627495447
 20
-138.8945366406236
 30
0.0
  0
SPLINE
  5
10D
330
108
100
AcDbEntity
  8
_U+30EC_U+30A4_U+30E4_U+30FC 1
370
     0
100
AcDbSpline
210
0.0
220
0.0
230
1.0
 70
    11
 71
     3
 72
    20
 73
    16
 74
     0
 42
0.0000000001
 43
0.0000000001
 12
1.0
 22
0.0
 32
0.0
 13
1.0
 23
0.0
 33
0.0
 40
0.0
 40
0.0
 40
0.0
 40
0.0
 40
1.0
 40
1.0
 40
1.0
 40
2.0
 40
2.0
 40
2.0
 40
3.0
 40
3.0
 40
3.0
 40
4.0
 40
4.0
 40
4.0
 40
5.0
 40
5.0
 40
5.0
 40
5.0
 10
73.1648708584449
 20
-138.4291042405663
 30
0.0
 10
73.1648708584449
 20
-138.4291042405663
 30
0.0
 10
73.13317597998059
 20
-138.4291042405663
 30
0.0
 10
73.13317597998059
 20
-138.4291042405663
 30
0.0
 10
73.17968476903147
 20
-138.5283229905415
 30
0.0
 10
73.21137964749578
 20
-138.6089382248964
 30
0.0
 10
73.24531383802548
 20
-138.7357177387536
 30
0.0
 10
73.24531383802548
 20
-138.7357177387536
 30
0.0
 10
73.45253633146326
 20
-138.7357177387536
 30
0.0
 10
73.45253633146326
 20
-138.7357177387536
 30
0.0
 10
73.48440346470181
 20
-138.6427001606518
 30
0.0
 10
73.50765785922725
 20
-138.5579508117147
 30
0.0
 10
73.53091225375269
 20
-138.4291042405663
 30
0.0
 10
73.53091225375269
 20
-138.4291042405663
 30
0.0
 10
73.1648708584449
 20
-138.4291042405663
 30
0.0
 10
73.1648708584449
 20
-138.4291042405663
 30
0.0
  0
SPLINE
  5
10E
330
108
100
AcDbEntity
  8
_U+30EC_U+30A4_U+30E4_U+30FC 1
370
     0
100
AcDbSpline
210
0.0
220
0.0
230
1.0
 70
    11
 71
     3
 72
    17
 73
    13
 74
     0
 42
0.0000000001
 43
0.0000000001
 12
1.0
 22
0.0
 32
0.0
 13
1.0
 23
0.0
 33
0.0
 40
0.0
 40
0.0
 40
0.0
 40
0.0
 40
1.0
 40
1.0
 40
1.0
 40
2.0
 40
2.0
 40
2.0
 40
3.0
 40
3.0
 40
3.0
 40
4.0
 40
4.0
 40
4.0
 40
4.0
 10
73.22843287014776
 20
-139.279353806326
 30
0.0
 10
73.21137964749578
 20
-139.3089816274992
 30
0.0
 10
73.1607367438626
 20
-139.4019992056009
 30
0.0
 10
73.15005694785832
 20
-139.4212917403183
 30
0.0
 10
73.34039847341838
 20
-139.4805473826646
 30
0.0
 10
73.36158581065266
 20
-139.4867485545381
 30
0.0
 10
73.43358830629438
 20
-139.51430931842
 30
0.0
 10
73.48853757928411
 20
-139.4274929121918
 30
0.0
 10
73.51179197380955
 20
-139.3534233592589
 30
0.0
 10
73.52660588439613
 20
-139.279353806326
 30
0.0
 10
73.52660588439613
 20
-139.279353806326
 30
0.0
 10
73.22843287014776
 20
-139.279353806326
 30
0.0
 10
73.22843287014776
 20
-139.279353806326
 30
0.0
  0
HATCH
  5
10F
330
108
100
AcDbEntity
  8
_U+30EC_U+30A4_U+30E4_U+30FC 1
 62
   179
420
  2234388
100
AcDbHatch
 10
0.0
 20
0.0
 30
0.0
210
0.0
220
0.0
230
1.0
  2
SOLID
 70
     1
 71
     0
 91
        3
 92
        1
 93
        1
 72
     4
 94
        3
 73
     0
 74
     1
 95
      242
 96
      238
 40
0.0
 40
0.0
 40
0.0
 40
0.0
 40
1.0
 40
1.0
 40
1.0
 40
2.0
 40
2.0
 40
2.0
 40
3.0
 40
3.0
 40
3.0
 40
4.0
 40
4.0
 40
4.0
 40
5.0
 40
5.0
 40
5.0
 40
6.0
 40
6.0
 40
6.0
 40
7.0
 40
7.0
 40
7.0
 40
8.0
 40
8.0
 40
8.0
 40
9.0
 40
9.0
 40
9.0
 40
10.0
 40
10.0
 40
10.0
 40
11.0
 40
11.0
 40
11.0
 40
12.0
 40
12.0
 40
12.0
 40
13.0
 40
13.0
 40
13.0
 40
14.0
 40
14.0
 40
14.0
 40
15.0
 40
15.0
 40
15.0
 40
16.0
 40
16.0
 40
16.0
 40
17.0
 40
17.0
 40
17.0
 40
18.0
 40
18.0
 40
18.0
 40
19.0
 40
19.0
 40
19.0
 40
20.0
 40
20.0
 40
20.0
 40
21.0
 40
21.0
 40
21.0
 40
22.0
 40
22.0
 40
22.0
 40
23.0
 40
23.0
 40
23.0
 40
24.0
 40
24.0
 40
24.0
 40
25.0
 40
25.0
 40
25.0
 40
26.0
 40
26.0
 40
26.0
 40
27.0
 40
27.0
 40
27.0
 40
28.0
 40
28.0
 40
28.0
 40
29.0
 40
29.0
 40
29.0
 40
30.0
 40
30.0
 40
30.0
 40
31.0
 40
31.0
 40
31.0
 40
32.0
 40
32.0
 40
32.0
 40
33.0
 40
33.0
 40
33.0
 40
34.0
 40
34.0
 40
34.0
 40
35.0
 40
35.0
 40
35.0
 40
36.0
 40
36.0
 40
36.0
 40
37.0
 40
37.0
 40
37.0
 40
38.0
 40
38.0
 40
38.0
 40
39.0
 40
39.0
 40
39.0
 40
40.0
 40
40.0
 40
40.0
 40
41.0
 40
41.0
 40
41.0
 40
42.0
 40
42.0
 40
42.0
 40
43.0
 40
43.0
 40
43.0
 40
44.0
 40
44.0
 40
44.0
 40
45.0
 40
45.0
 40
45.0
 40
46.0
 40
46.0
 40
46.0
 40
47.0
 40
47.0
 40
47.0
 40
48.0
 40
48.0
 40
48.0
 40
49.0
 40
49.0
 40
49.0
 40
50.0
 40
50.0
 40
50.0
 40
51.0
 40
51.0
 40
51.0
 40
52.0
 40
52.0
 40
52.0
 40
53.0
 40
53.0
 40
53.0
 40
54.0
 40
54.0
 40
54.0
 40
55.0
 40
55.0
 40
55.0
 40
56.0
 40
56.0
 40
56.0
 40
57.0
 40
57.0
 40
57.0
 40
58.0
 40
58.0
 40
58.0
 40
59.0
 40
59.0
 40
59.0
 40
60.0
 40
60.0
 40
60.0
 40
61.0
 40
61.0
 40
61.0
 40
62.0
 40
62.0
 40
62.0
 40
63.0
 40
63.0
 40
63.0
 40
64.0
 40
64.0
 40
64.0
 40
65.0
 40
65.0
 40
65.0
 40
66.0
 40
66.0
 40
66.0
 40
67.0
 40
67.0
 40
67.0
 40
68.0
 40
68.0
 40
68.0
 40
69.0
 40
69.0
 40
69.0
 40
70.0
 40
70.0
 40
70.0
 40
71.0
 40
71.0
 40
71.0
 40
72.0
 40
72.0
 40
72.0
 40
73.0
 40
73.0
 40
73.0
 40
74.0
 40
74.0
 40
74.0
 40
75.0
 40
75.0
 40
75.0
 40
76.0
 40
76.0
 40
76.0
 40
77.0
 40
77.0
 40
77.0
 40
78.0
 40
78.0
 40
78.0
 40
79.0
 40
79.0
 40
79.0
 40
79.0
 10
73.79325627495447
 20
-138.8945366406236
 10
73.79325627495447
 20
-138.8945366406236
 10
73.53935273769156
 20
-138.8945366406236
 10
73.53935273769156
 20
-138.8945366406236
 10
73.53935273769156
 20
-138.8945366406236
 10
73.2621948059032
 20
-138.8945366406236
 10
73.2621948059032
 20
-138.8945366406236
 10
73.2621948059032
 20
-138.8945366406236
 10
73.38914657453466
 20
-138.9365668055436
 10
73.38914657453466
 20
-138.9365668055436
 10
73.39965411576468
 20
-138.9410454296745
 10
73.4124009690601
 20
-138.9472466015479
 10
73.4124009690601
 20
-138.9599934548433
 10
73.4124009690601
 20
-138.9810085373034
 10
73.3807060905958
 20
-138.9875542187253
 10
73.35951875336151
 20
-138.9916883333076
 10
73.3490112121315
 20
-139.0151149826073
 10
73.31938339095835
 20
-139.0805717968271
 10
73.30026311101521
 20
-139.1250135285868
 10
73.30026311101521
 20
-139.1250135285868
 10
73.57104761615585
 20
-139.1250135285868
 10
73.57104761615585
 20
-139.1250135285868
 10
73.66199813696645
 20
-139.1250135285868
 10
73.85871308917422
 20
-139.1208794140045
 10
74.00047876839224
 20
-139.1122666752914
 10
74.00047876839224
 20
-139.1122666752914
 10
74.00047876839224
 20
-139.2900336023303
 10
74.00047876839224
 20
-139.2900336023303
 10
73.91796873152052
 20
-139.285899487748
 10
73.89678139428622
 20
-139.285899487748
 10
73.71711966473045
 20
-139.2814208636171
 10
73.68525253149188
 20
-139.4361056509049
 10
73.64081079973217
 20
-139.5163763757112
 10
73.59636906797243
 20
-139.5863118140618
 10
73.71711966473045
 20
-139.6455674564081
 10
73.82288409612761
 20
-139.713091327919
 10
73.92640921545937
 20
-139.795773619565
 10
73.92640921545937
 20
-139.795773619565
 10
73.80807018554104
 20
-139.9628607505996
 10
73.80807018554104
 20
-139.9628607505996
 10
73.78464353624135
 20
-139.9435682158822
 10
73.77206893772018
 20
-139.9352999867176
 10
73.6599310796753
 20
-139.8505506377804
 10
73.61118297855901
 20
-139.8126545874427
 10
73.55209959098698
 20
-139.7764810848475
 10
73.47165661140639
 20
-139.7320393530878
 10
73.26012774861205
 20
-139.9184190188398
 10
73.05480005769117
 20
-139.941501158591
 10
72.76506752738165
 20
-139.9711289797642
 10
72.76506752738165
 20
-139.9711289797642
 10
72.66137015327563
 20
-139.7912949954341
 10
72.66137015327563
 20
-139.7912949954341
 10
72.97866344746714
 20
-139.7871608808518
 10
73.15436331721489
 20
-139.761667174261
 10
73.30663653766292
 20
-139.6517686282815
 10
73.18812525297034
 20
-139.6011257246483
 10
73.09924178945089
 20
-139.5735649607663
 10
73.0634127964043
 20
-139.5608181074709
 10
73.04429251646116
 20
-139.5883788713529
 10
73.02947860587457
 20
-139.6073268965218
 10
73.00191784199258
 20
-139.6410888322772
 10
73.00191784199258
 20
-139.6410888322772
 10
72.80520288978481
 20
-139.5587510501798
 10
72.80520288978481
 20
-139.5587510501798
 10
72.88771292665655
 20
-139.4781358158249
 10
72.94903562629399
 20
-139.383051180432
 10
73.00622421134914
 20
-139.2814208636171
 10
72.81588268578909
 20
-139.285899487748
 10
72.7946953485548
 20
-139.285899487748
 10
72.71218531168307
 20
-139.2900336023303
 10
72.71218531168307
 20
-139.2900336023303
 10
72.71218531168307
 20
-139.1122666752914
 10
72.71218531168307
 20
-139.1122666752914
 10
72.85171167883568
 20
-139.1188123567134
 10
73.06117348433888
 20
-139.1229464712956
 10
73.08666719092973
 20
-139.1229464712956
 10
73.10354815880746
 20
-139.0891845355402
 10
73.15849743179719
 20
-138.9686061935565
 10
73.17761771174033
 20
-138.8945366406236
 10
73.15849743179719
 20
-138.8945366406236
 10
72.98090275953255
 20
-138.9007378124971
 10
72.78625486461594
 20
-138.9134846657925
 10
72.78625486461594
 20
-138.9134846657925
 10
72.78625486461594
 20
-139.0468098610716
 10
72.78625486461594
 20
-139.0468098610716
 10
72.73750676349965
 20
-139.0723035676625
 10
72.67825112115335
 20
-139.1039984461268
 10
72.54509818064845
 20
-139.1694552603465
 10
72.54509818064845
 20
-139.1694552603465
 10
72.54509818064845
 20
-139.3155273089211
 10
72.54509818064845
 20
-139.3155273089211
 10
72.54509818064845
 20
-139.3155273089211
 10
72.54509818064845
 20
-139.7830267662695
 10
72.54509818064845
 20
-139.7830267662695
 10
72.54509818064845
 20
-139.9098062801267
 10
72.50909693282759
 20
-139.969061922473
 10
72.22556557439152
 20
-139.9607936933084
 10
72.22556557439152
 20
-139.9607936933084
 10
72.1218682002855
 20
-139.7533989450964
 10
72.1218682002855
 20
-139.7533989450964
 10
72.18543021198836
 20
-139.7661457983918
 10
72.2340060583304
 20
-139.7702799129741
 10
72.27431367550781
 20
-139.7702799129741
 10
72.35045028573184
 20
-139.7702799129741
 10
72.36095782696185
 20
-139.7468532636744
 10
72.36095782696185
 20
-139.6813964494547
 10
72.36095782696185
 20
-139.6813964494547
 10
72.36095782696185
 20
-139.251793042444
 10
72.36095782696185
 20
-139.251793042444
 10
72.26363387950354
 20
-139.2921006596214
 10
72.24675291162582
 20
-139.2986463410434
 10
72.20024412257494
 20
-139.3175943662123
 10
72.19593775321837
 20
-139.3386094486723
 10
72.19180363863607
 20
-139.3682372698455
 10
72.17268335869295
 20
-139.3682372698455
 10
72.16424287475408
 20
-139.3682372698455
 10
72.15373533352407
 20
-139.3641031552631
 10
72.14736190687636
 20
-139.3406765059634
 10
72.14736190687636
 20
-139.3406765059634
 10
72.09447969117777
 20
-139.1484401778865
 10
72.09447969117777
 20
-139.1484401778865
 10
72.2403794849781
 20
-139.1015868792871
 10
72.3060085539721
 20
-139.0785047395359
 10
72.36095782696185
 20
-139.0574896570759
 10
72.36095782696185
 20
-139.0574896570759
 10
72.36095782696185
 20
-138.644767217943
 10
72.36095782696185
 20
-138.644767217943
 10
72.36095782696185
 20
-138.644767217943
 10
72.30807561126326
 20
-138.644767217943
 10
72.30807561126326
 20
-138.644767217943
 10
72.30807561126326
 20
-138.644767217943
 10
72.2298719437481
 20
-138.644767217943
 10
72.2298719437481
 20
-138.644767217943
 10
72.16217581746294
 20
-138.644767217943
 10
72.15373533352407
 20
-138.644767217943
 10
72.1177340857032
 20
-138.651312899365
 10
72.1177340857032
 20
-138.651312899365
 10
72.1177340857032
 20
-138.4566650044484
 10
72.1177340857032
 20
-138.4566650044484
 10
72.14529484958521
 20
-138.4628661763218
 10
72.15373533352407
 20
-138.4628661763218
 10
72.22349851710038
 20
-138.4628661763218
 10
72.22349851710038
 20
-138.4628661763218
 10
72.35682371237955
 20
-138.4628661763218
 10
72.35682371237955
 20
-138.4628661763218
 10
72.35682371237955
 20
-138.3929307379712
 10
72.35682371237955
 20
-138.3105929558737
 10
72.35458440031414
 20
-138.3064588412915
 10
72.34614391637527
 20
-138.1266248569614
 10
72.34614391637527
 20
-138.107332322244
 10
72.34407685908413
 20
-138.0608235331931
 10
72.34407685908413
 20
-138.0608235331931
 10
72.55991209123502
 20
-138.0694362719063
 10
72.55991209123502
 20
-138.0694362719063
 10
72.57041963246503
 20
-138.0694362719063
 10
72.59160696969933
 20
-138.0715033291974
 10
72.59160696969933
 20
-138.0883842970751
 10
72.59160696969933
 20
-138.107332322244
 10
72.57679305911275
 20
-138.1180121182483
 10
72.55147160729616
 20
-138.1369601434172
 10
72.55147160729616
 20
-138.1879475565989
 10
72.54509818064845
 20
-138.4163573872709
 10
72.5471652379396
 20
-138.4628661763218
 10
72.67618406386221
 20
-138.4628661763218
 10
72.68893091715763
 20
-138.4628661763218
 10
72.78625486461594
 20
-138.4542534376087
 10
72.78625486461594
 20
-138.4542534376087
 10
72.78625486461594
 20
-138.6489013325253
 10
72.78625486461594
 20
-138.6489013325253
 10
72.74818655950394
 20
-138.6468342752341
 10
72.68049043321876
 20
-138.6427001606518
 10
72.54509818064845
 20
-138.644767217943
 10
72.54509818064845
 20
-138.644767217943
 10
72.54509818064845
 20
-138.9834201041431
 10
72.54509818064845
 20
-138.9834201041431
 10
72.60004745363818
 20
-138.9599934548433
 10
72.6656765226322
 20
-138.9324326909613
 10
72.71425236897421
 20
-138.9093505512102
 10
72.71425236897421
 20
-138.9093505512102
 10
72.71425236897421
 20
-138.7315836241713
 10
72.71425236897421
 20
-138.7315836241713
 10
72.82845728431025
 20
-138.7443304774667
 10
72.94696856900285
 20
-138.7443304774667
 10
73.0634127964043
 20
-138.7443304774667
 10
73.04015840187886
 20
-138.6489013325253
 10
73.01259763799685
 20
-138.5665635504278
 10
72.94903562629399
 20
-138.4332383551486
 10
72.90476614930853
 20
-138.4353054124398
 10
72.8222561124368
 20
-138.4394395270221
 10
72.78401555255053
 20
-138.4418510938618
 10
72.78401555255053
 20
-138.4418510938618
 10
72.78401555255053
 20
-138.2620171095317
 10
72.78401555255053
 20
-138.2620171095317
 10
72.90890026389083
 20
-138.2702853386963
 10
73.08236082157316
 20
-138.2744194532786
 10
73.1648708584449
 20
-138.2744194532786
 10
73.1648708584449
 20
-138.2744194532786
 10
73.24738089531662
 20
-138.2744194532786
 10
73.24738089531662
 20
-138.2744194532786
 10
73.24738089531662
 20
-138.1118109463748
 10
73.24738089531662
 20
-138.1011311503705
 10
73.24531383802548
 20
-138.0460096226066
 10
73.24531383802548
 20
-138.0460096226066
 10
73.46958955411525
 20
-138.0715033291974
 10
73.46958955411525
 20
-138.0715033291974
 10
73.47372366869755
 20
-138.0715033291974
 10
73.49491100593183
 20
-138.0735703864886
 10
73.49491100593183
 20
-138.0904513543663
 10
73.49491100593183
 20
-138.1052652649529
 10
73.48440346470181
 20
-138.113878003666
 10
73.45684270081982
 20
-138.1286919142526
 10
73.45046927417211
 20
-138.1941487284723
 10
73.44840221688096
 20
-138.2155083204809
 10
73.44840221688096
 20
-138.2744194532786
 10
73.44840221688096
 20
-138.2744194532786
 10
73.54348685227386
 20
-138.2744194532786
 10
73.54348685227386
 20
-138.2744194532786
 10
73.62599688914558
 20
-138.2744194532786
 10
73.79945744682792
 20
-138.2702853386963
 10
73.92434215816823
 20
-138.2620171095317
 10
73.92434215816823
 20
-138.2620171095317
 10
73.92434215816823
 20
-138.4418510938618
 10
73.92434215816823
 20
-138.4418510938618
 10
73.89471433699508
 20
-138.4394395270221
 10
73.77620305230248
 20
-138.4353054124398
 10
73.73606768989931
 20
-138.4332383551486
 10
73.72125377931275
 20
-138.4838812587818
 10
73.6874918435573
 20
-138.596191371601
 10
73.62186277456328
 20
-138.7357177387536
 10
73.6640651942576
 20
-138.7357177387536
 10
73.94122312604594
 20
-138.7167697135847
 10
74.0025458256834
 20
-138.7147026562936
 10
74.0025458256834
 20
-138.7147026562936
 10
74.0025458256834
 20
-138.8986707552059
 10
74.0025458256834
 20
-138.8986707552059
 10
73.9730902592845
 20
-138.8986707552059
 10
73.95603703663252
 20
-138.8945366406236
 10
73.79325627495447
 20
-138.8945366406236
 97
        0
 97
        0
 92
        1
 93
        1
 72
     4
 94
        3
 73
     0
 74
     1
 95
       20
 96
       16
 40
0.0
 40
0.0
 40
0.0
 40
0.0
 40
1.0
 40
1.0
 40
1.0
 40
2.0
 40
2.0
 40
2.0
 40
3.0
 40
3.0
 40
3.0
 40
4.0
 40
4.0
 40
4.0
 40
5.0
 40
5.0
 40
5.0
 40
5.0
 10
73.1648708584449
 20
-138.4291042405663
 10
73.1648708584449
 20
-138.4291042405663
 10
73.13317597998059
 20
-138.4291042405663
 10
73.13317597998059
 20
-138.4291042405663
 10
73.17968476903147
 20
-138.5283229905415
 10
73.21137964749578
 20
-138.6089382248964
 10
73.24531383802548
 20
-138.7357177387536
 10
73.24531383802548
 20
-138.7357177387536
 10
73.45253633146326
 20
-138.7357177387536
 10
73.45253633146326
 20
-138.7357177387536
 10
73.48440346470181
 20
-138.6427001606518
 10
73.50765785922725
 20
-138.5579508117147
 10
73.53091225375269
 20
-138.4291042405663
 10
73.53091225375269
 20
-138.4291042405663
 10
73.1648708584449
 20
-138.4291042405663
 10
73.1648708584449
 20
-138.4291042405663
 97
        0
 97
        0
 92
        1
 93
        1
 72
     4
 94
        3
 73
     0
 74
     1
 95
       17
 96
       13
 40
0.0
 40
0.0
 40
0.0
 40
0.0
 40
1.0
 40
1.0
 40
1.0
 40
2.0
 40
2.0
 40
2.0
 40
3.0
 40
3.0
 40
3.0
 40
4.0
 40
4.0
 40
4.0
 40
4.0
 10
73.22843287014776
 20
-139.279353806326
 10
73.21137964749578
 20
-139.3089816274992
 10
73.1607367438626
 20
-139.4019992056009
 10
73.15005694785832
 20
-139.4212917403183
 10
73.34039847341838
 20
-139.4805473826646
 10
73.36158581065266
 20
-139.4867485545381
 10
73.43358830629438
 20
-139.51430931842
 10
73.48853757928411
 20
-139.4274929121918
 10
73.51179197380955
 20
-139.3534233592589
 10
73.52660588439613
 20
-139.279353806326
 10
73.52660588439613
 20
-139.279353806326
 10
73.22843287014776
 20
-139.279353806326
 10
73.22843287014776
 20
-139.279353806326
 97
        0
 97
        0
 75
     2
 76
     1
 98
        0
  0
SPLINE
  5
110
330
108
100
AcDbEntity
  8
_U+30EC_U+30A4_U+30E4_U+30FC 1
370
     0
100
AcDbSpline
210
0.0
220
0.0
230
1.0
 70
    11
 71
     3
 72
   203
 73
   199
 74
     0
 42
0.0000000001
 43
0.0000000001
 12
1.0
 22
0.0
 32
0.0
 13
1.0
 23
0.0
 33
0.0
 40
0.0
 40
0.0
 40
0.0
 40
0.0
 40
1.0
 40
1.0
 40
1.0
 40
2.0
 40
2.0
 40
2.0
 40
3.0
 40
3.0
 40
3.0
 40
4.0
 40
4.0
 40
4.0
 40
5.0
 40
5.0
 40
5.0
 40
6.0
 40
6.0
 40
6.0
 40
7.0
 40
7.0
 40
7.0
 40
8.0
 40
8.0
 40
8.0
 40
9.0
 40
9.0
 40
9.0
 40
10.0
 40
10.0
 40
10.0
 40
11.0
 40
11.0
 40
11.0
 40
12.0
 40
12.0
 40
12.0
 40
13.0
 40
13.0
 40
13.0
 40
14.0
 40
14.0
 40
14.0
 40
15.0
 40
15.0
 40
15.0
 40
16.0
 40
16.0
 40
16.0
 40
17.0
 40
17.0
 40
17.0
 40
18.0
 40
18.0
 40
18.0
 40
19.0
 40
19.0
 40
19.0
 40
20.0
 40
20.0
 40
20.0
 40
21.0
 40
21.0
 40
21.0
 40
22.0
 40
22.0
 40
22.0
 40
23.0
 40
23.0
 40
23.0
 40
24.0
 40
24.0
 40
24.0
 40
25.0
 40
25.0
 40
25.0
 40
26.0
 40
26.0
 40
26.0
 40
27.0
 40
27.0
 40
27.0
 40
28.0
 40
28.0
 40
28.0
 40
29.0
 40
29.0
 40
29.0
 40
30.0
 40
30.0
 40
30.0
 40
31.0
 40
31.0
 40
31.0
 40
32.0
 40
32.0
 40
32.0
 40
33.0
 40
33.0
 40
33.0
 40
34.0
 40
34.0
 40
34.0
 40
35.0
 40
35.0
 40
35.0
 40
36.0
 40
36.0
 40
36.0
 40
37.0
 40
37.0
 40
37.0
 40
38.0
 40
38.0
 40
38.0
 40
39.0
 40
39.0
 40
39.0
 40
40.0
 40
40.0
 40
40.0
 40
41.0
 40
41.0
 40
41.0
 40
42.0
 40
42.0
 40
42.0
 40
43.0
 40
43.0
 40
43.0
 40
44.0
 40
44.0
 40
44.0
 40
45.0
 40
45.0
 40
45.0
 40
46.0
 40
46.0
 40
46.0
 40
47.0
 40
47.0
 40
47.0
 40
48.0
 40
48.0
 40
48.0
 40
49.0
 40
49.0
 40
49.0
 40
50.0
 40
50.0
 40
50.0
 40
51.0
 40
51.0
 40
51.0
 40
52.0
 40
52.0
 40
52.0
 40
53.0
 40
53.0
 40
53.0
 40
54.0
 40
54.0
 40
54.0
 40
55.0
 40
55.0
 40
55.0
 40
56.0
 40
56.0
 40
56.0
 40
57.0
 40
57.0
 40
57.0
 40
58.0
 40
58.0
 40
58.0
 40
59.0
 40
59.0
 40
59.0
 40
60.0
 40
60.0
 40
60.0
 40
61.0
 40
61.0
 40
61.0
 40
62.0
 40
62.0
 40
62.0
 40
63.0
 40
63.0
 40
63.0
 40
64.0
 40
64.0
 40
64.0
 40
65.0
 40
65.0
 40
65.0
 40
66.0
 40
66.0
 40
66.0
 40
66.0
 10
75.48462590343787
 20
-138.9620605121345
 30
0.0
 10
75.48462590343787
 20
-138.9620605121345
 30
0.0
 10
74.92617592527887
 20
-138.9620605121345
 30
0.0
 10
74.92617592527887
 20
-138.9620605121345
 30
0.0
 10
74.9154961292746
 20
-139.0065022438942
 30
0.0
 10
74.90705564533575
 20
-139.0381971223585
 30
0.0
 10
74.89448104681458
 20
-139.0764376822448
 30
0.0
 10
74.91980249863117
 20
-139.0764376822448
 30
0.0
 10
74.93461640921774
 20
-139.0785047395359
 30
0.0
 10
74.94098983586545
 20
-139.0785047395359
 30
0.0
 10
74.94098983586545
 20
-139.0785047395359
 30
0.0
 10
75.12926430413435
 20
-139.0785047395359
 30
0.0
 10
75.12926430413435
 20
-139.0785047395359
 30
0.0
 10
75.12926430413435
 20
-139.0785047395359
 30
0.0
 10
75.50374618338101
 20
-139.0785047395359
 30
0.0
 10
75.50374618338101
 20
-139.0785047395359
 30
0.0
 10
75.55438908701419
 20
-139.0785047395359
 30
0.0
 10
75.83792044545025
 20
-139.0657578862405
 30
0.0
 10
75.86961532391454
 20
-139.0657578862405
 30
0.0
 10
75.86754826662339
 20
-139.0933186501225
 30
0.0
 10
75.86548120933224
 20
-139.1122666752914
 30
0.0
 10
75.86548120933224
 20
-139.1418944964645
 30
0.0
 10
75.86324189726683
 20
-139.1735893749288
 30
0.0
 10
75.86324189726683
 20
-139.3089816274992
 30
0.0
 10
75.86324189726683
 20
-139.3365423913812
 30
0.0
 10
75.86324189726683
 20
-139.3365423913812
 30
0.0
 10
75.86324189726683
 20
-139.5818331899309
 30
0.0
 10
75.86324189726683
 20
-139.5818331899309
 30
0.0
 10
75.86324189726683
 20
-139.6262749216907
 30
0.0
 10
75.86754826662339
 20
-139.8229898738984
 30
0.0
 10
75.87185463597996
 20
-139.975607603895
 30
0.0
 10
75.87185463597996
 20
-139.975607603895
 30
0.0
 10
75.64533960782478
 20
-139.975607603895
 30
0.0
 10
75.64533960782478
 20
-139.975607603895
 30
0.0
 10
75.64533960782478
 20
-139.975607603895
 30
0.0
 10
75.6475789198902
 20
-139.941501158591
 30
0.0
 10
75.6475789198902
 20
-139.941501158591
 30
0.0
 10
75.6475789198902
 20
-139.941501158591
 30
0.0
 10
74.94512395044775
 20
-139.941501158591
 30
0.0
 10
74.94512395044775
 20
-139.941501158591
 30
0.0
 10
74.94512395044775
 20
-139.941501158591
 30
0.0
 10
74.94736326251316
 20
-139.975607603895
 30
0.0
 10
74.94736326251316
 20
-139.975607603895
 30
0.0
 10
74.94736326251316
 20
-139.975607603895
 30
0.0
 10
74.72946097307111
 20
-139.975607603895
 30
0.0
 10
74.72946097307111
 20
-139.975607603895
 30
0.0
 10
74.73359508765341
 20
-139.920486076131
 30
0.0
 10
74.73359508765341
 20
-139.9077392228356
 30
0.0
 10
74.73996851430113
 20
-139.7933620527253
 30
0.0
 10
74.74203557159227
 20
-139.7661457983918
 30
0.0
 10
74.74427488365768
 20
-139.6328206031126
 30
0.0
 10
74.74427488365768
 20
-139.6138725779438
 30
0.0
 10
74.74427488365768
 20
-139.6138725779438
 30
0.0
 10
74.74427488365768
 20
-139.410611944314
 30
0.0
 10
74.74427488365768
 20
-139.410611944314
 30
0.0
 10
74.6045762617308
 20
-139.6603813669946
 30
0.0
 10
74.43542207340504
 20
-139.7912949954341
 30
0.0
 10
74.32965764200787
 20
-139.8570963192024
 30
0.0
 10
74.32965764200787
 20
-139.8570963192024
 30
0.0
 10
74.15602482955127
 20
-139.7172254425012
 30
0.0
 10
74.15602482955127
 20
-139.7172254425012
 30
0.0
 10
74.24490829307072
 20
-139.6665825388681
 30
0.0
 10
74.3887410295799
 20
-139.5797661326398
 30
0.0
 10
74.52637259421563
 20
-139.3851182377232
 30
0.0
 10
74.61732311502622
 20
-139.258338723866
 30
0.0
 10
74.68277992924598
 20
-139.1143337325825
 30
0.0
 10
74.71671411977569
 20
-138.9620605121345
 30
0.0
 10
74.48830428910362
 20
-138.9641275694256
 30
0.0
 10
74.30847030477358
 20
-138.9706732508476
 30
0.0
 10
74.21321341460643
 20
-138.9727403081388
 30
0.0
 10
74.21321341460643
 20
-138.9727403081388
 30
0.0
 10
74.21321341460643
 20
-138.7949733810999
 30
0.0
 10
74.21321341460643
 20
-138.7949733810999
 30
0.0
 10
74.40992836681419
 20
-138.8015190625219
 30
0.0
 10
74.69345972525025
 20
-138.8056531771041
 30
0.0
 10
74.84366588840714
 20
-138.8056531771041
 30
0.0
 10
74.84366588840714
 20
-138.8056531771041
 30
0.0
 10
75.05726180849263
 20
-138.8056531771041
 30
0.0
 10
75.05726180849263
 20
-138.8056531771041
 30
0.0
 10
75.05726180849263
 20
-138.8056531771041
 30
0.0
 10
75.05726180849263
 20
-138.6978216884158
 30
0.0
 10
75.05726180849263
 20
-138.6978216884158
 30
0.0
 10
75.05726180849263
 20
-138.6978216884158
 30
0.0
 10
74.9113620146923
 20
-138.6978216884158
 30
0.0
 10
74.9113620146923
 20
-138.6978216884158
 30
0.0
 10
74.74203557159227
 20
-138.6978216884158
 30
0.0
 10
74.5728813832665
 20
-138.7019558029981
 30
0.0
 10
74.40579425223189
 20
-138.7081569748716
 30
0.0
 10
74.40579425223189
 20
-138.7081569748716
 30
0.0
 10
74.40579425223189
 20
-138.5369357292547
 30
0.0
 10
74.40579425223189
 20
-138.5369357292547
 30
0.0
 10
74.56013452997108
 20
-138.5476155252589
 30
0.0
 10
74.74634194094884
 20
-138.5476155252589
 30
0.0
 10
74.9113620146923
 20
-138.5476155252589
 30
0.0
 10
74.9113620146923
 20
-138.5476155252589
 30
0.0
 10
75.05726180849263
 20
-138.5476155252589
 30
0.0
 10
75.05726180849263
 20
-138.5476155252589
 30
0.0
 10
75.05726180849263
 20
-138.5476155252589
 30
0.0
 10
75.05726180849263
 20
-138.4291042405663
 30
0.0
 10
75.05726180849263
 20
-138.4291042405663
 30
0.0
 10
75.05726180849263
 20
-138.4291042405663
 30
0.0
 10
74.92617592527887
 20
-138.4291042405663
 30
0.0
 10
74.92617592527887
 20
-138.4291042405663
 30
0.0
 10
74.87966713622801
 20
-138.4291042405663
 30
0.0
 10
74.67657875737252
 20
-138.4373724697309
 30
0.0
 10
74.63420408290395
 20
-138.4373724697309
 30
0.0
 10
74.43111570404848
 20
-138.4418510938618
 30
0.0
 10
74.35497909382445
 20
-138.4439181511529
 30
0.0
 10
74.27660317153502
 20
-138.4459852084441
 30
0.0
 10
74.27660317153502
 20
-138.4459852084441
 30
0.0
 10
74.27660317153502
 20
-138.2620171095317
 30
0.0
 10
74.27660317153502
 20
-138.2620171095317
 30
0.0
 10
74.39098034164532
 20
-138.2702853386963
 30
0.0
 10
74.43542207340504
 20
-138.2702853386963
 30
0.0
 10
74.8181721818163
 20
-138.2788980774095
 30
0.0
 10
74.7547824248877
 20
-138.183468932468
 30
0.0
 10
74.7272216610057
 20
-138.1562526781346
 30
0.0
 10
74.6913926679591
 20
-138.1200791755394
 30
0.0
 10
74.6913926679591
 20
-138.1200791755394
 30
0.0
 10
74.86692028293258
 20
-138.037741393442
 30
0.0
 10
74.86692028293258
 20
-138.037741393442
 30
0.0
 10
74.90705564533575
 20
-138.0735703864886
 30
0.0
 10
74.95149737709546
 20
-138.1159450609571
 30
0.0
 10
75.02556693002833
 20
-138.2258436069366
 30
0.0
 10
75.02556693002833
 20
-138.2258436069366
 30
0.0
 10
74.9113620146923
 20
-138.2809651347006
 30
0.0
 10
74.9113620146923
 20
-138.2809651347006
 30
0.0
 10
74.9113620146923
 20
-138.2809651347006
 30
0.0
 10
74.92186955592231
 20
-138.2809651347006
 30
0.0
 10
74.92186955592231
 20
-138.2809651347006
 30
0.0
 10
74.92186955592231
 20
-138.2809651347006
 30
0.0
 10
75.44449054103471
 20
-138.2809651347006
 30
0.0
 10
75.44449054103471
 20
-138.2809651347006
 30
0.0
 10
75.44449054103471
 20
-138.2809651347006
 30
0.0
 10
75.34923365086756
 20
-138.2365234029409
 30
0.0
 10
75.34923365086756
 20
-138.2365234029409
 30
0.0
 10
75.37679441474955
 20
-138.1982828430546
 30
0.0
 10
75.43381074503044
 20
-138.1180121182483
 30
0.0
 10
75.44862465561701
 20
-138.0439425653154
 30
0.0
 10
75.44862465561701
 20
-138.0439425653154
 30
0.0
 10
75.66239283047676
 20
-138.107332322244
 30
0.0
 10
75.66239283047676
 20
-138.107332322244
 30
0.0
 10
75.67083331441563
 20
-138.1097438890837
 30
0.0
 10
75.69202065164991
 20
-138.1200791755394
 30
0.0
 10
75.69202065164991
 20
-138.141438767548
 30
0.0
 10
75.69202065164991
 20
-138.1793348178857
 30
0.0
 10
75.6263915826559
 20
-138.1793348178857
 30
0.0
 10
75.60727130271277
 20
-138.1793348178857
 30
0.0
 10
75.59676376148276
 20
-138.1982828430546
 30
0.0
 10
75.57350936695732
 20
-138.238590460232
 30
0.0
 10
75.54388154578417
 20
-138.2788980774095
 30
0.0
 10
75.94368487684741
 20
-138.2723523959875
 30
0.0
 10
75.97331269802056
 20
-138.2702853386963
 30
0.0
 10
76.04944930824459
 20
-138.2640841668229
 30
0.0
 10
76.04944930824459
 20
-138.2640841668229
 30
0.0
 10
76.04944930824459
 20
-138.4459852084441
 30
0.0
 10
76.04944930824459
 20
-138.4459852084441
 30
0.0
 10
76.03050128307571
 20
-138.4459852084441
 30
0.0
 10
76.00500757648486
 20
-138.4439181511529
 30
0.0
 10
75.78503822975166
 20
-138.4353054124398
 30
0.0
 10
75.73422307134423
 20
-138.4332383551486
 30
0.0
 10
75.51425372461102
 20
-138.4291042405663
 30
0.0
 10
75.4698119928513
 20
-138.4291042405663
 30
0.0
 10
75.4698119928513
 20
-138.4291042405663
 30
0.0
 10
75.2539767607004
 20
-138.4291042405663
 30
0.0
 10
75.2539767607004
 20
-138.4291042405663
 30
0.0
 10
75.2539767607004
 20
-138.4291042405663
 30
0.0
 10
75.2539767607004
 20
-138.5476155252589
 30
0.0
 10
75.2539767607004
 20
-138.5476155252589
 30
0.0
 10
75.2539767607004
 20
-138.5476155252589
 30
0.0
 10
75.42760957315699
 20
-138.5476155252589
 30
0.0
 10
75.42760957315699
 20
-138.5476155252589
 30
0.0
 10
75.59039033483505
 20
-138.5476155252589
 30
0.0
 10
75.7807318603951
 20
-138.5476155252589
 30
0.0
 10
75.9373114501997
 20
-138.5369357292547
 30
0.0
 10
75.9373114501997
 20
-138.5369357292547
 30
0.0
 10
75.9373114501997
 20
-138.7081569748716
 30
0.0
 10
75.9373114501997
 20
-138.7081569748716
 30
0.0
 10
75.72784964469652
 20
-138.699888745707
 30
0.0
 10
75.53113469248875
 20
-138.6978216884158
 30
0.0
 10
75.42760957315699
 20
-138.6978216884158
 30
0.0
 10
75.42760957315699
 20
-138.6978216884158
 30
0.0
 10
75.2539767607004
 20
-138.6978216884158
 30
0.0
 10
75.2539767607004
 20
-138.6978216884158
 30
0.0
 10
75.2539767607004
 20
-138.6978216884158
 30
0.0
 10
75.2539767607004
 20
-138.8056531771041
 30
0.0
 10
75.2539767607004
 20
-138.8056531771041
 30
0.0
 10
75.2539767607004
 20
-138.8056531771041
 30
0.0
 10
75.48462590343787
 20
-138.8056531771041
 30
0.0
 10
75.48462590343787
 20
-138.8056531771041
 30
0.0
 10
75.61795109871704
 20
-138.8056531771041
 30
0.0
 10
75.90561657173541
 20
-138.8015190625219
 30
0.0
 10
76.11507837723859
 20
-138.7949733810999
 30
0.0
 10
76.11507837723859
 20
-138.7949733810999
 30
0.0
 10
76.11507837723859
 20
-138.9727403081388
 30
0.0
 10
76.11507837723859
 20
-138.9727403081388
 30
0.0
 10
75.92249753961313
 20
-138.9661946267168
 30
0.0
 10
75.60951061477819
 20
-138.9620605121345
 30
0.0
 10
75.48462590343787
 20
-138.9620605121345
 30
0.0
  0
POLYLINE
  5
111
330
108
100
AcDbEntity
  8
_U+30EC_U+30A4_U+30E4_U+30FC 1
370
     0
100
AcDb2dPolyline
 66
     1
 10
0.0
 20
0.0
 30
0.0
  0
VERTEX
  5
112
330
111
100
AcDbEntity
  8
_U+30EC_U+30A4_U+30E4_U+30FC 1
370
     0
100
AcDbVertex
100
AcDb2dVertex
 10
75.64964597718134
 20
-139.2180311066886
 30
0.0
  0
VERTEX
  5
113
330
111
100
AcDbEntity
  8
_U+30EC_U+30A4_U+30E4_U+30FC 1
370
     0
100
AcDbVertex
100
AcDb2dVertex
 10
74.9430568931566
 20
-139.2180311066886
 30
0.0
  0
VERTEX
  5
114
330
111
100
AcDbEntity
  8
_U+30EC_U+30A4_U+30E4_U+30FC 1
370
     0
100
AcDbVertex
100
AcDb2dVertex
 10
74.9430568931566
 20
-139.3258625953769
 30
0.0
  0
VERTEX
  5
115
330
111
100
AcDbEntity
  8
_U+30EC_U+30A4_U+30E4_U+30FC 1
370
     0
100
AcDbVertex
100
AcDb2dVertex
 10
75.64964597718134
 20
-139.3258625953769
 30
0.0
  0
VERTEX
  5
116
330
111
100
AcDbEntity
  8
_U+30EC_U+30A4_U+30E4_U+30FC 1
370
     0
100
AcDbVertex
100
AcDb2dVertex
 10
75.64964597718134
 20
-139.2180311066886
 30
0.0
  0
SEQEND
  5
117
330
111
100
AcDbEntity
  8
_U+30EC_U+30A4_U+30E4_U+30FC 1
370
     0
  0
POLYLINE
  5
118
330
108
100
AcDbEntity
  8
_U+30EC_U+30A4_U+30E4_U+30FC 1
370
     0
100
AcDb2dPolyline
 66
     1
 10
0.0
 20
0.0
 30
0.0
  0
VERTEX
  5
119
330
118
100
AcDbEntity
  8
_U+30EC_U+30A4_U+30E4_U+30FC 1
370
     0
100
AcDbVertex
100
AcDb2dVertex
 10
75.64964597718134
 20
-139.4509195614914
 30
0.0
  0
VERTEX
  5
11A
330
118
100
AcDbEntity
  8
_U+30EC_U+30A4_U+30E4_U+30FC 1
370
     0
100
AcDbVertex
100
AcDb2dVertex
 10
74.9430568931566
 20
-139.4509195614914
 30
0.0
  0
VERTEX
  5
11B
330
118
100
AcDbEntity
  8
_U+30EC_U+30A4_U+30E4_U+30FC 1
370
     0
100
AcDbVertex
100
AcDb2dVertex
 10
74.9430568931566
 20
-139.5649522220532
 30
0.0
  0
VERTEX
  5
11C
330
118
100
AcDbEntity
  8
_U+30EC_U+30A4_U+30E4_U+30FC 1
370
     0
100
AcDbVertex
100
AcDb2dVertex
 10
75.64964597718134
 20
-139.5649522220532
 30
0.0
  0
VERTEX
  5
11D
330
118
100
AcDbEntity
  8
_U+30EC_U+30A4_U+30E4_U+30FC 1
370
     0
100
AcDbVertex
100
AcDb2dVertex
 10
75.64964597718134
 20
-139.4509195614914
 30
0.0
  0
SEQEND
  5
11E
330
118
100
AcDbEntity
  8
_U+30EC_U+30A4_U+30E4_U+30FC 1
370
     0
  0
POLYLINE
  5
11F
330
108
100
AcDbEntity
  8
_U+30EC_U+30A4_U+30E4_U+30FC 1
370
     0
100
AcDb2dPolyline
 66
     1
 10
0.0
 20
0.0
 30
0.0
  0
VERTEX
  5
120
330
11F
100
AcDbEntity
  8
_U+30EC_U+30A4_U+30E4_U+30FC 1
370
     0
100
AcDbVertex
100
AcDb2dVertex
 10
75.64964597718134
 20
-139.6941433027501
 30
0.0
  0
VERTEX
  5
121
330
11F
100
AcDbEntity
  8
_U+30EC_U+30A4_U+30E4_U+30FC 1
370
     0
100
AcDbVertex
100
AcDb2dVertex
 10
74.9430568931566
 20
-139.6941433027501
 30
0.0
  0
VERTEX
  5
122
330
11F
100
AcDbEntity
  8
_U+30EC_U+30A4_U+30E4_U+30FC 1
370
     0
100
AcDbVertex
100
AcDb2dVertex
 10
74.9430568931566
 20
-139.8081759633118
 30
0.0
  0
VERTEX
  5
123
330
11F
100
AcDbEntity
  8
_U+30EC_U+30A4_U+30E4_U+30FC 1
370
     0
100
AcDbVertex
100
AcDb2dVertex
 10
75.64964597718134
 20
-139.8081759633118
 30
0.0
  0
VERTEX
  5
124
330
11F
100
AcDbEntity
  8
_U+30EC_U+30A4_U+30E4_U+30FC 1
370
     0
100
AcDbVertex
100
AcDb2dVertex
 10
75.64964597718134
 20
-139.6941433027501
 30
0.0
  0
SEQEND
  5
125
330
11F
100
AcDbEntity
  8
_U+30EC_U+30A4_U+30E4_U+30FC 1
370
     0
  0
HATCH
  5
126
330
108
100
AcDbEntity
  8
_U+30EC_U+30A4_U+30E4_U+30FC 1
 62
   179
420
  2234388
100
AcDbHatch
 10
0.0
 20
0.0
 30
0.0
210
0.0
220
0.0
230
1.0
  2
SOLID
 70
     1
 71
     0
 91
        4
 92
        1
 93
        1
 72
     4
 94
        3
 73
     0
 74
     1
 95
      203
 96
      199
 40
0.0
 40
0.0
 40
0.0
 40
0.0
 40
1.0
 40
1.0
 40
1.0
 40
2.0
 40
2.0
 40
2.0
 40
3.0
 40
3.0
 40
3.0
 40
4.0
 40
4.0
 40
4.0
 40
5.0
 40
5.0
 40
5.0
 40
6.0
 40
6.0
 40
6.0
 40
7.0
 40
7.0
 40
7.0
 40
8.0
 40
8.0
 40
8.0
 40
9.0
 40
9.0
 40
9.0
 40
10.0
 40
10.0
 40
10.0
 40
11.0
 40
11.0
 40
11.0
 40
12.0
 40
12.0
 40
12.0
 40
13.0
 40
13.0
 40
13.0
 40
14.0
 40
14.0
 40
14.0
 40
15.0
 40
15.0
 40
15.0
 40
16.0
 40
16.0
 40
16.0
 40
17.0
 40
17.0
 40
17.0
 40
18.0
 40
18.0
 40
18.0
 40
19.0
 40
19.0
 40
19.0
 40
20.0
 40
20.0
 40
20.0
 40
21.0
 40
21.0
 40
21.0
 40
22.0
 40
22.0
 40
22.0
 40
23.0
 40
23.0
 40
23.0
 40
24.0
 40
24.0
 40
24.0
 40
25.0
 40
25.0
 40
25.0
 40
26.0
 40
26.0
 40
26.0
 40
27.0
 40
27.0
 40
27.0
 40
28.0
 40
28.0
 40
28.0
 40
29.0
 40
29.0
 40
29.0
 40
30.0
 40
30.0
 40
30.0
 40
31.0
 40
31.0
 40
31.0
 40
32.0
 40
32.0
 40
32.0
 40
33.0
 40
33.0
 40
33.0
 40
34.0
 40
34.0
 40
34.0
 40
35.0
 40
35.0
 40
35.0
 40
36.0
 40
36.0
 40
36.0
 40
37.0
 40
37.0
 40
37.0
 40
38.0
 40
38.0
 40
38.0
 40
39.0
 40
39.0
 40
39.0
 40
40.0
 40
40.0
 40
40.0
 40
41.0
 40
41.0
 40
41.0
 40
42.0
 40
42.0
 40
42.0
 40
43.0
 40
43.0
 40
43.0
 40
44.0
 40
44.0
 40
44.0
 40
45.0
 40
45.0
 40
45.0
 40
46.0
 40
46.0
 40
46.0
 40
47.0
 40
47.0
 40
47.0
 40
48.0
 40
48.0
 40
48.0
 40
49.0
 40
49.0
 40
49.0
 40
50.0
 40
50.0
 40
50.0
 40
51.0
 40
51.0
 40
51.0
 40
52.0
 40
52.0
 40
52.0
 40
53.0
 40
53.0
 40
53.0
 40
54.0
 40
54.0
 40
54.0
 40
55.0
 40
55.0
 40
55.0
 40
56.0
 40
56.0
 40
56.0
 40
57.0
 40
57.0
 40
57.0
 40
58.0
 40
58.0
 40
58.0
 40
59.0
 40
59.0
 40
59.0
 40
60.0
 40
60.0
 40
60.0
 40
61.0
 40
61.0
 40
61.0
 40
62.0
 40
62.0
 40
62.0
 40
63.0
 40
63.0
 40
63.0
 40
64.0
 40
64.0
 40
64.0
 40
65.0
 40
65.0
 40
65.0
 40
66.0
 40
66.0
 40
66.0
 40
66.0
 10
75.48462590343787
 20
-138.9620605121345
 10
75.48462590343787
 20
-138.9620605121345
 10
74.92617592527887
 20
-138.9620605121345
 10
74.92617592527887
 20
-138.9620605121345
 10
74.9154961292746
 20
-139.0065022438942
 10
74.90705564533575
 20
-139.0381971223585
 10
74.89448104681458
 20
-139.0764376822448
 10
74.91980249863117
 20
-139.0764376822448
 10
74.93461640921774
 20
-139.0785047395359
 10
74.94098983586545
 20
-139.0785047395359
 10
74.94098983586545
 20
-139.0785047395359
 10
75.12926430413435
 20
-139.0785047395359
 10
75.12926430413435
 20
-139.0785047395359
 10
75.12926430413435
 20
-139.0785047395359
 10
75.50374618338101
 20
-139.0785047395359
 10
75.50374618338101
 20
-139.0785047395359
 10
75.55438908701419
 20
-139.0785047395359
 10
75.83792044545025
 20
-139.0657578862405
 10
75.86961532391454
 20
-139.0657578862405
 10
75.86754826662339
 20
-139.0933186501225
 10
75.86548120933224
 20
-139.1122666752914
 10
75.86548120933224
 20
-139.1418944964645
 10
75.86324189726683
 20
-139.1735893749288
 10
75.86324189726683
 20
-139.3089816274992
 10
75.86324189726683
 20
-139.3365423913812
 10
75.86324189726683
 20
-139.3365423913812
 10
75.86324189726683
 20
-139.5818331899309
 10
75.86324189726683
 20
-139.5818331899309
 10
75.86324189726683
 20
-139.6262749216907
 10
75.86754826662339
 20
-139.8229898738984
 10
75.87185463597996
 20
-139.975607603895
 10
75.87185463597996
 20
-139.975607603895
 10
75.64533960782478
 20
-139.975607603895
 10
75.64533960782478
 20
-139.975607603895
 10
75.64533960782478
 20
-139.975607603895
 10
75.6475789198902
 20
-139.941501158591
 10
75.6475789198902
 20
-139.941501158591
 10
75.6475789198902
 20
-139.941501158591
 10
74.94512395044775
 20
-139.941501158591
 10
74.94512395044775
 20
-139.941501158591
 10
74.94512395044775
 20
-139.941501158591
 10
74.94736326251316
 20
-139.975607603895
 10
74.94736326251316
 20
-139.975607603895
 10
74.94736326251316
 20
-139.975607603895
 10
74.72946097307111
 20
-139.975607603895
 10
74.72946097307111
 20
-139.975607603895
 10
74.73359508765341
 20
-139.920486076131
 10
74.73359508765341
 20
-139.9077392228356
 10
74.73996851430113
 20
-139.7933620527253
 10
74.74203557159227
 20
-139.7661457983918
 10
74.74427488365768
 20
-139.6328206031126
 10
74.74427488365768
 20
-139.6138725779438
 10
74.74427488365768
 20
-139.6138725779438
 10
74.74427488365768
 20
-139.410611944314
 10
74.74427488365768
 20
-139.410611944314
 10
74.6045762617308
 20
-139.6603813669946
 10
74.43542207340504
 20
-139.7912949954341
 10
74.32965764200787
 20
-139.8570963192024
 10
74.32965764200787
 20
-139.8570963192024
 10
74.15602482955127
 20
-139.7172254425012
 10
74.15602482955127
 20
-139.7172254425012
 10
74.24490829307072
 20
-139.6665825388681
 10
74.3887410295799
 20
-139.5797661326398
 10
74.52637259421563
 20
-139.3851182377232
 10
74.61732311502622
 20
-139.258338723866
 10
74.68277992924598
 20
-139.1143337325825
 10
74.71671411977569
 20
-138.9620605121345
 10
74.48830428910362
 20
-138.9641275694256
 10
74.30847030477358
 20
-138.9706732508476
 10
74.21321341460643
 20
-138.9727403081388
 10
74.21321341460643
 20
-138.9727403081388
 10
74.21321341460643
 20
-138.7949733810999
 10
74.21321341460643
 20
-138.7949733810999
 10
74.40992836681419
 20
-138.8015190625219
 10
74.69345972525025
 20
-138.8056531771041
 10
74.84366588840714
 20
-138.8056531771041
 10
74.84366588840714
 20
-138.8056531771041
 10
75.05726180849263
 20
-138.8056531771041
 10
75.05726180849263
 20
-138.8056531771041
 10
75.05726180849263
 20
-138.8056531771041
 10
75.05726180849263
 20
-138.6978216884158
 10
75.05726180849263
 20
-138.6978216884158
 10
75.05726180849263
 20
-138.6978216884158
 10
74.9113620146923
 20
-138.6978216884158
 10
74.9113620146923
 20
-138.6978216884158
 10
74.74203557159227
 20
-138.6978216884158
 10
74.5728813832665
 20
-138.7019558029981
 10
74.40579425223189
 20
-138.7081569748716
 10
74.40579425223189
 20
-138.7081569748716
 10
74.40579425223189
 20
-138.5369357292547
 10
74.40579425223189
 20
-138.5369357292547
 10
74.56013452997108
 20
-138.5476155252589
 10
74.74634194094884
 20
-138.5476155252589
 10
74.9113620146923
 20
-138.5476155252589
 10
74.9113620146923
 20
-138.5476155252589
 10
75.05726180849263
 20
-138.5476155252589
 10
75.05726180849263
 20
-138.5476155252589
 10
75.05726180849263
 20
-138.5476155252589
 10
75.05726180849263
 20
-138.4291042405663
 10
75.05726180849263
 20
-138.4291042405663
 10
75.05726180849263
 20
-138.4291042405663
 10
74.92617592527887
 20
-138.4291042405663
 10
74.92617592527887
 20
-138.4291042405663
 10
74.87966713622801
 20
-138.4291042405663
 10
74.67657875737252
 20
-138.4373724697309
 10
74.63420408290395
 20
-138.4373724697309
 10
74.43111570404848
 20
-138.4418510938618
 10
74.35497909382445
 20
-138.4439181511529
 10
74.27660317153502
 20
-138.4459852084441
 10
74.27660317153502
 20
-138.4459852084441
 10
74.27660317153502
 20
-138.2620171095317
 10
74.27660317153502
 20
-138.2620171095317
 10
74.39098034164532
 20
-138.2702853386963
 10
74.43542207340504
 20
-138.2702853386963
 10
74.8181721818163
 20
-138.2788980774095
 10
74.7547824248877
 20
-138.183468932468
 10
74.7272216610057
 20
-138.1562526781346
 10
74.6913926679591
 20
-138.1200791755394
 10
74.6913926679591
 20
-138.1200791755394
 10
74.86692028293258
 20
-138.037741393442
 10
74.86692028293258
 20
-138.037741393442
 10
74.90705564533575
 20
-138.0735703864886
 10
74.95149737709546
 20
-138.1159450609571
 10
75.02556693002833
 20
-138.2258436069366
 10
75.02556693002833
 20
-138.2258436069366
 10
74.9113620146923
 20
-138.2809651347006
 10
74.9113620146923
 20
-138.2809651347006
 10
74.9113620146923
 20
-138.2809651347006
 10
74.92186955592231
 20
-138.2809651347006
 10
74.92186955592231
 20
-138.2809651347006
 10
74.92186955592231
 20
-138.2809651347006
 10
75.44449054103471
 20
-138.2809651347006
 10
75.44449054103471
 20
-138.2809651347006
 10
75.44449054103471
 20
-138.2809651347006
 10
75.34923365086756
 20
-138.2365234029409
 10
75.34923365086756
 20
-138.2365234029409
 10
75.37679441474955
 20
-138.1982828430546
 10
75.43381074503044
 20
-138.1180121182483
 10
75.44862465561701
 20
-138.0439425653154
 10
75.44862465561701
 20
-138.0439425653154
 10
75.66239283047676
 20
-138.107332322244
 10
75.66239283047676
 20
-138.107332322244
 10
75.67083331441563
 20
-138.1097438890837
 10
75.69202065164991
 20
-138.1200791755394
 10
75.69202065164991
 20
-138.141438767548
 10
75.69202065164991
 20
-138.1793348178857
 10
75.6263915826559
 20
-138.1793348178857
 10
75.60727130271277
 20
-138.1793348178857
 10
75.59676376148276
 20
-138.1982828430546
 10
75.57350936695732
 20
-138.238590460232
 10
75.54388154578417
 20
-138.2788980774095
 10
75.94368487684741
 20
-138.2723523959875
 10
75.97331269802056
 20
-138.2702853386963
 10
76.04944930824459
 20
-138.2640841668229
 10
76.04944930824459
 20
-138.2640841668229
 10
76.04944930824459
 20
-138.4459852084441
 10
76.04944930824459
 20
-138.4459852084441
 10
76.03050128307571
 20
-138.4459852084441
 10
76.00500757648486
 20
-138.4439181511529
 10
75.78503822975166
 20
-138.4353054124398
 10
75.73422307134423
 20
-138.4332383551486
 10
75.51425372461102
 20
-138.4291042405663
 10
75.4698119928513
 20
-138.4291042405663
 10
75.4698119928513
 20
-138.4291042405663
 10
75.2539767607004
 20
-138.4291042405663
 10
75.2539767607004
 20
-138.4291042405663
 10
75.2539767607004
 20
-138.4291042405663
 10
75.2539767607004
 20
-138.5476155252589
 10
75.2539767607004
 20
-138.5476155252589
 10
75.2539767607004
 20
-138.5476155252589
 10
75.42760957315699
 20
-138.5476155252589
 10
75.42760957315699
 20
-138.5476155252589
 10
75.59039033483505
 20
-138.5476155252589
 10
75.7807318603951
 20
-138.5476155252589
 10
75.9373114501997
 20
-138.5369357292547
 10
75.9373114501997
 20
-138.5369357292547
 10
75.9373114501997
 20
-138.7081569748716
 10
75.9373114501997
 20
-138.7081569748716
 10
75.72784964469652
 20
-138.699888745707
 10
75.53113469248875
 20
-138.6978216884158
 10
75.42760957315699
 20
-138.6978216884158
 10
75.42760957315699
 20
-138.6978216884158
 10
75.2539767607004
 20
-138.6978216884158
 10
75.2539767607004
 20
-138.6978216884158
 10
75.2539767607004
 20
-138.6978216884158
 10
75.2539767607004
 20
-138.8056531771041
 10
75.2539767607004
 20
-138.8056531771041
 10
75.2539767607004
 20
-138.8056531771041
 10
75.48462590343787
 20
-138.8056531771041
 10
75.48462590343787
 20
-138.8056531771041
 10
75.61795109871704
 20
-138.8056531771041
 10
75.90561657173541
 20
-138.8015190625219
 10
76.11507837723859
 20
-138.7949733810999
 10
76.11507837723859
 20
-138.7949733810999
 10
76.11507837723859
 20
-138.9727403081388
 10
76.11507837723859
 20
-138.9727403081388
 10
75.92249753961313
 20
-138.9661946267168
 10
75.60951061477819
 20
-138.9620605121345
 10
75.48462590343787
 20
-138.9620605121345
 97
        0
 97
        0
 92
        1
 93
        4
 72
     1
 10
75.64964597718134
 20
-139.2180311066886
 11
74.9430568931566
 21
-139.2180311066886
 72
     1
 10
74.9430568931566
 20
-139.2180311066886
 11
74.9430568931566
 21
-139.3258625953769
 72
     1
 10
74.9430568931566
 20
-139.3258625953769
 11
75.64964597718134
 21
-139.3258625953769
 72
     1
 10
75.64964597718134
 20
-139.3258625953769
 11
75.64964597718134
 21
-139.2180311066886
 97
        0
 92
        1
 93
        4
 72
     1
 10
75.64964597718134
 20
-139.4509195614914
 11
74.9430568931566
 21
-139.4509195614914
 72
     1
 10
74.9430568931566
 20
-139.4509195614914
 11
74.9430568931566
 21
-139.5649522220532
 72
     1
 10
74.9430568931566
 20
-139.5649522220532
 11
75.64964597718134
 21
-139.5649522220532
 72
     1
 10
75.64964597718134
 20
-139.5649522220532
 11
75.64964597718134
 21
-139.4509195614914
 97
        0
 92
        1
 93
        4
 72
     1
 10
75.64964597718134
 20
-139.6941433027501
 11
74.9430568931566
 21
-139.6941433027501
 72
     1
 10
74.9430568931566
 20
-139.6941433027501
 11
74.9430568931566
 21
-139.8081759633118
 72
     1
 10
74.9430568931566
 20
-139.8081759633118
 11
75.64964597718134
 21
-139.8081759633118
 72
     1
 10
75.64964597718134
 20
-139.8081759633118
 11
75.64964597718134
 21
-139.6941433027501
 97
        0
 75
     2
 76
     1
 98
        0
  0
SPLINE
  5
127
330
108
100
AcDbEntity
  8
_U+30EC_U+30A4_U+30E4_U+30FC 1
370
     0
100
AcDbSpline
210
0.0
220
0.0
230
1.0
 70
    11
 71
     3
 72
    47
 73
    43
 74
     0
 42
0.0000000001
 43
0.0000000001
 12
1.0
 22
0.0
 32
0.0
 13
1.0
 23
0.0
 33
0.0
 40
0.0
 40
0.0
 40
0.0
 40
0.0
 40
1.0
 40
1.0
 40
1.0
 40
2.0
 40
2.0
 40
2.0
 40
3.0
 40
3.0
 40
3.0
 40
4.0
 40
4.0
 40
4.0
 40
5.0
 40
5.0
 40
5.0
 40
6.0
 40
6.0
 40
6.0
 40
7.0
 40
7.0
 40
7.0
 40
8.0
 40
8.0
 40
8.0
 40
9.0
 40
9.0
 40
9.0
 40
10.0
 40
10.0
 40
10.0
 40
11.0
 40
11.0
 40
11.0
 40
12.0
 40
12.0
 40
12.0
 40
13.0
 40
13.0
 40
13.0
 40
14.0
 40
14.0
 40
14.0
 40
14.0
 10
77.4615939476485
 20
-138.9389783723833
 30
0.0
 10
77.4615939476485
 20
-138.9389783723833
 30
0.0
 10
77.36013588560789
 20
-138.9389783723833
 30
0.0
 10
77.36013588560789
 20
-138.9389783723833
 30
0.0
 10
77.36013588560789
 20
-139.0254502690631
 30
0.0
 10
77.3389485483736
 20
-139.4147460588963
 30
0.0
 10
77.14223359616584
 20
-139.6348876604038
 30
0.0
 10
76.98996037571779
 20
-139.8040418487296
 30
0.0
 10
76.78256562750575
 20
-139.8739772870801
 30
0.0
 10
76.69798853334287
 20
-139.9015380509621
 30
0.0
 10
76.69798853334287
 20
-139.9015380509621
 30
0.0
 10
76.50334063842625
 20
-139.7344509199275
 30
0.0
 10
76.50334063842625
 20
-139.7344509199275
 30
0.0
 10
76.60066458588456
 20
-139.7217040666321
 30
0.0
 10
76.77619220085803
 20
-139.6982774173324
 30
0.0
 10
76.96446666912695
 20
-139.5101752038377
 30
0.0
 10
77.03853622205982
 20
-139.438172708196
 30
0.0
 10
77.14223359616584
 20
-139.2986463410434
 30
0.0
 10
77.14223359616584
 20
-138.9389783723833
 30
0.0
 10
77.14223359616584
 20
-138.9389783723833
 30
0.0
 10
76.91158445342836
 20
-138.9389783723833
 30
0.0
 10
76.91158445342836
 20
-138.9389783723833
 30
0.0
 10
76.7253770424506
 20
-138.9389783723833
 30
0.0
 10
76.53934188624712
 20
-138.9431124869656
 30
0.0
 10
76.35313447526936
 20
-138.9579263975522
 30
0.0
 10
76.35313447526936
 20
-138.9579263975522
 30
0.0
 10
76.35313447526936
 20
-138.7377847960447
 30
0.0
 10
76.35313447526936
 20
-138.7377847960447
 30
0.0
 10
76.54140894353826
 20
-138.7525987066313
 30
0.0
 10
76.82700735926548
 20
-138.7570773307621
 30
0.0
 10
76.91158445342836
 20
-138.7570773307621
 30
0.0
 10
76.91158445342836
 20
-138.7570773307621
 30
0.0
 10
77.4615939476485
 20
-138.7570773307621
 30
0.0
 10
77.4615939476485
 20
-138.7570773307621
 30
0.0
 10
77.48071422759163
 20
-138.7570773307621
 30
0.0
 10
77.79800752178313
 20
-138.7570773307621
 30
0.0
 10
78.0264173524552
 20
-138.7377847960447
 30
0.0
 10
78.0264173524552
 20
-138.7377847960447
 30
0.0
 10
78.0264173524552
 20
-138.9579263975522
 30
0.0
 10
78.0264173524552
 20
-138.9579263975522
 30
0.0
 10
77.8381428841863
 20
-138.9431124869656
 30
0.0
 10
77.6498684159174
 20
-138.9389783723833
 30
0.0
 10
77.4615939476485
 20
-138.9389783723833
 30
0.0
  0
SPLINE
  5
128
330
108
100
AcDbEntity
  8
_U+30EC_U+30A4_U+30E4_U+30FC 1
370
     0
100
AcDbSpline
210
0.0
220
0.0
230
1.0
 70
    11
 71
     3
 72
    29
 73
    25
 74
     0
 42
0.0000000001
 43
0.0000000001
 12
1.0
 22
0.0
 32
0.0
 13
1.0
 23
0.0
 33
0.0
 40
0.0
 40
0.0
 40
0.0
 40
0.0
 40
1.0
 40
1.0
 40
1.0
 40
2.0
 40
2.0
 40
2.0
 40
3.0
 40
3.0
 40
3.0
 40
4.0
 40
4.0
 40
4.0
 40
5.0
 40
5.0
 40
5.0
 40
6.0
 40
6.0
 40
6.0
 40
7.0
 40
7.0
 40
7.0
 40
8.0
 40
8.0
 40
8.0
 40
8.0
 10
77.36013588560789
 20
-138.4098117058489
 30
0.0
 10
77.36013588560789
 20
-138.4098117058489
 30
0.0
 10
77.00684134359551
 20
-138.4098117058489
 30
0.0
 10
77.00684134359551
 20
-138.4098117058489
 30
0.0
 10
76.89470348555064
 20
-138.4098117058489
 30
0.0
 10
76.75500486362375
 20
-138.4163573872709
 30
0.0
 10
76.64717337493543
 20
-138.4291042405663
 30
0.0
 10
76.64717337493543
 20
-138.4291042405663
 30
0.0
 10
76.64717337493543
 20
-138.1941487284723
 30
0.0
 10
76.64717337493543
 20
-138.1941487284723
 30
0.0
 10
76.76568465962802
 20
-138.2089626390589
 30
0.0
 10
76.94965275854037
 20
-138.2130967536412
 30
0.0
 10
77.00684134359551
 20
-138.2130967536412
 30
0.0
 10
77.00684134359551
 20
-138.2130967536412
 30
0.0
 10
77.36013588560789
 20
-138.2130967536412
 30
0.0
 10
77.36013588560789
 20
-138.2130967536412
 30
0.0
 10
77.37908391077676
 20
-138.2130967536412
 30
0.0
 10
77.58217228963224
 20
-138.2130967536412
 30
0.0
 10
77.72393796885027
 20
-138.1941487284723
 30
0.0
 10
77.72393796885027
 20
-138.1941487284723
 30
0.0
 10
77.72393796885027
 20
-138.4291042405663
 30
0.0
 10
77.72393796885027
 20
-138.4291042405663
 30
0.0
 10
77.56735837904566
 20
-138.4098117058489
 30
0.0
 10
77.37701685348561
 20
-138.4098117058489
 30
0.0
 10
77.36013588560789
 20
-138.4098117058489
 30
0.0
  0
HATCH
  5
129
330
108
100
AcDbEntity
  8
_U+30EC_U+30A4_U+30E4_U+30FC 1
 62
   179
420
  2234388
100
AcDbHatch
 10
0.0
 20
0.0
 30
0.0
210
0.0
220
0.0
230
1.0
  2
SOLID
 70
     1
 71
     0
 91
        2
 92
        1
 93
        1
 72
     4
 94
        3
 73
     0
 74
     1
 95
       47
 96
       43
 40
0.0
 40
0.0
 40
0.0
 40
0.0
 40
1.0
 40
1.0
 40
1.0
 40
2.0
 40
2.0
 40
2.0
 40
3.0
 40
3.0
 40
3.0
 40
4.0
 40
4.0
 40
4.0
 40
5.0
 40
5.0
 40
5.0
 40
6.0
 40
6.0
 40
6.0
 40
7.0
 40
7.0
 40
7.0
 40
8.0
 40
8.0
 40
8.0
 40
9.0
 40
9.0
 40
9.0
 40
10.0
 40
10.0
 40
10.0
 40
11.0
 40
11.0
 40
11.0
 40
12.0
 40
12.0
 40
12.0
 40
13.0
 40
13.0
 40
13.0
 40
14.0
 40
14.0
 40
14.0
 40
14.0
 10
77.4615939476485
 20
-138.9389783723833
 10
77.4615939476485
 20
-138.9389783723833
 10
77.36013588560789
 20
-138.9389783723833
 10
77.36013588560789
 20
-138.9389783723833
 10
77.36013588560789
 20
-139.0254502690631
 10
77.3389485483736
 20
-139.4147460588963
 10
77.14223359616584
 20
-139.6348876604038
 10
76.98996037571779
 20
-139.8040418487296
 10
76.78256562750575
 20
-139.8739772870801
 10
76.69798853334287
 20
-139.9015380509621
 10
76.69798853334287
 20
-139.9015380509621
 10
76.50334063842625
 20
-139.7344509199275
 10
76.50334063842625
 20
-139.7344509199275
 10
76.60066458588456
 20
-139.7217040666321
 10
76.77619220085803
 20
-139.6982774173324
 10
76.96446666912695
 20
-139.5101752038377
 10
77.03853622205982
 20
-139.438172708196
 10
77.14223359616584
 20
-139.2986463410434
 10
77.14223359616584
 20
-138.9389783723833
 10
77.14223359616584
 20
-138.9389783723833
 10
76.91158445342836
 20
-138.9389783723833
 10
76.91158445342836
 20
-138.9389783723833
 10
76.7253770424506
 20
-138.9389783723833
 10
76.53934188624712
 20
-138.9431124869656
 10
76.35313447526936
 20
-138.9579263975522
 10
76.35313447526936
 20
-138.9579263975522
 10
76.35313447526936
 20
-138.7377847960447
 10
76.35313447526936
 20
-138.7377847960447
 10
76.54140894353826
 20
-138.7525987066313
 10
76.82700735926548
 20
-138.7570773307621
 10
76.91158445342836
 20
-138.7570773307621
 10
76.91158445342836
 20
-138.7570773307621
 10
77.4615939476485
 20
-138.7570773307621
 10
77.4615939476485
 20
-138.7570773307621
 10
77.48071422759163
 20
-138.7570773307621
 10
77.79800752178313
 20
-138.7570773307621
 10
78.0264173524552
 20
-138.7377847960447
 10
78.0264173524552
 20
-138.7377847960447
 10
78.0264173524552
 20
-138.9579263975522
 10
78.0264173524552
 20
-138.9579263975522
 10
77.8381428841863
 20
-138.9431124869656
 10
77.6498684159174
 20
-138.9389783723833
 10
77.4615939476485
 20
-138.9389783723833
 97
        0
 97
        0
 92
        1
 93
        1
 72
     4
 94
        3
 73
     0
 74
     1
 95
       29
 96
       25
 40
0.0
 40
0.0
 40
0.0
 40
0.0
 40
1.0
 40
1.0
 40
1.0
 40
2.0
 40
2.0
 40
2.0
 40
3.0
 40
3.0
 40
3.0
 40
4.0
 40
4.0
 40
4.0
 40
5.0
 40
5.0
 40
5.0
 40
6.0
 40
6.0
 40
6.0
 40
7.0
 40
7.0
 40
7.0
 40
8.0
 40
8.0
 40
8.0
 40
8.0
 10
77.36013588560789
 20
-138.4098117058489
 10
77.36013588560789
 20
-138.4098117058489
 10
77.00684134359551
 20
-138.4098117058489
 10
77.00684134359551
 20
-138.4098117058489
 10
76.89470348555064
 20
-138.4098117058489
 10
76.75500486362375
 20
-138.4163573872709
 10
76.64717337493543
 20
-138.4291042405663
 10
76.64717337493543
 20
-138.4291042405663
 10
76.64717337493543
 20
-138.1941487284723
 10
76.64717337493543
 20
-138.1941487284723
 10
76.76568465962802
 20
-138.2089626390589
 10
76.94965275854037
 20
-138.2130967536412
 10
77.00684134359551
 20
-138.2130967536412
 10
77.00684134359551
 20
-138.2130967536412
 10
77.36013588560789
 20
-138.2130967536412
 10
77.36013588560789
 20
-138.2130967536412
 10
77.37908391077676
 20
-138.2130967536412
 10
77.58217228963224
 20
-138.2130967536412
 10
77.72393796885027
 20
-138.1941487284723
 10
77.72393796885027
 20
-138.1941487284723
 10
77.72393796885027
 20
-138.4291042405663
 10
77.72393796885027
 20
-138.4291042405663
 10
77.56735837904566
 20
-138.4098117058489
 10
77.37701685348561
 20
-138.4098117058489
 10
77.36013588560789
 20
-138.4098117058489
 97
        0
 97
        0
 75
     2
 76
     1
 98
        0
  0
SPLINE
  5
12A
330
108
100
AcDbEntity
  8
_U+30EC_U+30A4_U+30E4_U+30FC 1
370
     0
100
AcDbSpline
210
0.0
220
0.0
230
1.0
 70
    11
 71
     3
 72
    29
 73
    25
 74
     0
 42
0.0000000001
 43
0.0000000001
 12
1.0
 22
0.0
 32
0.0
 13
1.0
 23
0.0
 33
0.0
 40
0.0
 40
0.0
 40
0.0
 40
0.0
 40
1.0
 40
1.0
 40
1.0
 40
2.0
 40
2.0
 40
2.0
 40
3.0
 40
3.0
 40
3.0
 40
4.0
 40
4.0
 40
4.0
 40
5.0
 40
5.0
 40
5.0
 40
6.0
 40
6.0
 40
6.0
 40
7.0
 40
7.0
 40
7.0
 40
8.0
 40
8.0
 40
8.0
 40
8.0
 10
79.30747610864536
 20
-139.1015868792871
 30
0.0
 10
79.30747610864536
 20
-139.1015868792871
 30
0.0
 10
78.82292342864497
 20
-139.1015868792871
 30
0.0
 10
78.82292342864497
 20
-139.1015868792871
 30
0.0
 10
78.79553491953723
 20
-139.1015868792871
 30
0.0
 10
78.47806937057146
 20
-139.1015868792871
 30
0.0
 10
78.26654050777712
 20
-139.127080585878
 30
0.0
 10
78.26654050777712
 20
-139.127080585878
 30
0.0
 10
78.26654050777712
 20
-138.8966036979147
 30
0.0
 10
78.26654050777712
 20
-138.8966036979147
 30
0.0
 10
78.42518715487287
 20
-138.9196858376659
 30
0.0
 10
78.61570093520719
 20
-138.9220974045056
 30
0.0
 10
78.82292342864497
 20
-138.9220974045056
 30
0.0
 10
78.82292342864497
 20
-138.9220974045056
 30
0.0
 10
79.30747610864536
 20
-138.9220974045056
 30
0.0
 10
79.30747610864536
 20
-138.9220974045056
 30
0.0
 10
79.49351126484885
 20
-138.9220974045056
 30
0.0
 10
79.6797186758266
 20
-138.9196858376659
 30
0.0
 10
79.86385902951321
 20
-138.8966036979147
 30
0.0
 10
79.86385902951321
 20
-138.8966036979147
 30
0.0
 10
79.86385902951321
 20
-139.127080585878
 30
0.0
 10
79.86385902951321
 20
-139.127080585878
 30
0.0
 10
79.6797186758266
 20
-139.1039984461268
 30
0.0
 10
79.4321885652114
 20
-139.1015868792871
 30
0.0
 10
79.30747610864536
 20
-139.1015868792871
 30
0.0
  0
HATCH
  5
12B
330
108
100
AcDbEntity
  8
_U+30EC_U+30A4_U+30E4_U+30FC 1
 62
   179
420
  2234388
100
AcDbHatch
 10
0.0
 20
0.0
 30
0.0
210
0.0
220
0.0
230
1.0
  2
SOLID
 70
     1
 71
     0
 91
        1
 92
        1
 93
        1
 72
     4
 94
        3
 73
     0
 74
     1
 95
       29
 96
       25
 40
0.0
 40
0.0
 40
0.0
 40
0.0
 40
1.0
 40
1.0
 40
1.0
 40
2.0
 40
2.0
 40
2.0
 40
3.0
 40
3.0
 40
3.0
 40
4.0
 40
4.0
 40
4.0
 40
5.0
 40
5.0
 40
5.0
 40
6.0
 40
6.0
 40
6.0
 40
7.0
 40
7.0
 40
7.0
 40
8.0
 40
8.0
 40
8.0
 40
8.0
 10
79.30747610864536
 20
-139.1015868792871
 10
79.30747610864536
 20
-139.1015868792871
 10
78.82292342864497
 20
-139.1015868792871
 10
78.82292342864497
 20
-139.1015868792871
 10
78.79553491953723
 20
-139.1015868792871
 10
78.47806937057146
 20
-139.1015868792871
 10
78.26654050777712
 20
-139.127080585878
 10
78.26654050777712
 20
-139.127080585878
 10
78.26654050777712
 20
-138.8966036979147
 10
78.26654050777712
 20
-138.8966036979147
 10
78.42518715487287
 20
-138.9196858376659
 10
78.61570093520719
 20
-138.9220974045056
 10
78.82292342864497
 20
-138.9220974045056
 10
78.82292342864497
 20
-138.9220974045056
 10
79.30747610864536
 20
-138.9220974045056
 10
79.30747610864536
 20
-138.9220974045056
 10
79.49351126484885
 20
-138.9220974045056
 10
79.6797186758266
 20
-138.9196858376659
 10
79.86385902951321
 20
-138.8966036979147
 10
79.86385902951321
 20
-138.8966036979147
 10
79.86385902951321
 20
-139.127080585878
 10
79.86385902951321
 20
-139.127080585878
 10
79.6797186758266
 20
-139.1039984461268
 10
79.4321885652114
 20
-139.1015868792871
 10
79.30747610864536
 20
-139.1015868792871
 97
        0
 97
        0
 75
     2
 76
     1
 98
        0
  0
SPLINE
  5
12C
330
108
100
AcDbEntity
  8
_U+30EC_U+30A4_U+30E4_U+30FC 1
370
     0
100
AcDbSpline
210
0.0
220
0.0
230
1.0
 70
    11
 71
     3
 72
    44
 73
    40
 74
     0
 42
0.0000000001
 43
0.0000000001
 12
1.0
 22
0.0
 32
0.0
 13
1.0
 23
0.0
 33
0.0
 40
0.0
 40
0.0
 40
0.0
 40
0.0
 40
1.0
 40
1.0
 40
1.0
 40
2.0
 40
2.0
 40
2.0
 40
3.0
 40
3.0
 40
3.0
 40
4.0
 40
4.0
 40
4.0
 40
5.0
 40
5.0
 40
5.0
 40
6.0
 40
6.0
 40
6.0
 40
7.0
 40
7.0
 40
7.0
 40
8.0
 40
8.0
 40
8.0
 40
9.0
 40
9.0
 40
9.0
 40
10.0
 40
10.0
 40
10.0
 40
11.0
 40
11.0
 40
11.0
 40
12.0
 40
12.0
 40
12.0
 40
13.0
 40
13.0
 40
13.0
 40
13.0
 10
81.51922741017576
 20
-138.6637152431119
 30
0.0
 10
81.40708955213087
 20
-139.0319959504851
 30
0.0
 10
81.35627439372344
 20
-139.1904703428065
 30
0.0
 10
81.15955944151567
 20
-139.4402397654872
 30
0.0
 10
80.97541908782907
 20
-139.6707166534504
 30
0.0
 10
80.73856877321813
 20
-139.8570963192024
 30
0.0
 10
80.45934378413864
 20
-139.9501138973041
 30
0.0
 10
80.45934378413864
 20
-139.9501138973041
 30
0.0
 10
80.26676294651317
 20
-139.7702799129741
 30
0.0
 10
80.26676294651317
 20
-139.7702799129741
 30
0.0
 10
80.90772296154391
 20
-139.6180066925261
 30
0.0
 10
81.23776310903084
 20
-139.0616237716582
 30
0.0
 10
81.3013251207337
 20
-138.6216850781918
 30
0.0
 10
81.3013251207337
 20
-138.6216850781918
 30
0.0
 10
80.53548039436266
 20
-138.6216850781918
 30
0.0
 10
80.53548039436266
 20
-138.6216850781918
 30
0.0
 10
80.44229056148666
 20
-138.6216850781918
 30
0.0
 10
80.25832246257431
 20
-138.6258191927741
 30
0.0
 10
80.1017428727697
 20
-138.644767217943
 30
0.0
 10
80.1017428727697
 20
-138.644767217943
 30
0.0
 10
80.1017428727697
 20
-138.4246256164355
 30
0.0
 10
80.1017428727697
 20
-138.4246256164355
 30
0.0
 10
80.188559278998
 20
-138.4459852084441
 30
0.0
 10
80.4402235041955
 20
-138.4459852084441
 30
0.0
 10
80.53961450894496
 20
-138.4459852084441
 30
0.0
 10
80.53961450894496
 20
-138.4459852084441
 30
0.0
 10
80.97128497324677
 20
-138.4459852084441
 30
0.0
 10
80.97128497324677
 20
-138.4459852084441
 30
0.0
 10
81.01348739294107
 20
-138.4459852084441
 30
0.0
 10
81.24844290503512
 20
-138.4439181511529
 30
0.0
 10
81.28651121014713
 20
-138.4373724697309
 30
0.0
 10
81.32871362984143
 20
-138.4311712978575
 30
0.0
 10
81.33095294190684
 20
-138.4291042405663
 30
0.0
 10
81.3922756415443
 20
-138.3887966233889
 30
0.0
 10
81.3922756415443
 20
-138.3887966233889
 30
0.0
 10
81.5805501098132
 20
-138.5431369011281
 30
0.0
 10
81.5805501098132
 20
-138.5431369011281
 30
0.0
 10
81.55092228864005
 20
-138.5727647223013
 30
0.0
 10
81.53610837805347
 20
-138.6044596007656
 30
0.0
 10
81.51922741017576
 20
-138.6637152431119
 30
0.0
  0
SPLINE
  5
12D
330
108
100
AcDbEntity
  8
_U+30EC_U+30A4_U+30E4_U+30FC 1
370
     0
100
AcDbSpline
210
0.0
220
0.0
230
1.0
 70
    11
 71
     3
 72
    17
 73
    13
 74
     0
 42
0.0000000001
 43
0.0000000001
 12
1.0
 22
0.0
 32
0.0
 13
1.0
 23
0.0
 33
0.0
 40
0.0
 40
0.0
 40
0.0
 40
0.0
 40
1.0
 40
1.0
 40
1.0
 40
2.0
 40
2.0
 40
2.0
 40
3.0
 40
3.0
 40
3.0
 40
4.0
 40
4.0
 40
4.0
 40
4.0
 10
81.72851696090468
 20
-138.464933233613
 30
0.0
 10
81.60173744704748
 20
-138.464933233613
 30
0.0
 10
81.50010713023262
 20
-138.3633029167981
 30
0.0
 10
81.50010713023262
 20
-138.2365234029409
 30
0.0
 10
81.50010713023262
 20
-138.1097438890837
 30
0.0
 10
81.60173744704748
 20
-138.0060465149777
 30
0.0
 10
81.72851696090468
 20
-138.0060465149777
 30
0.0
 10
81.85546872953614
 20
-138.0060465149777
 30
0.0
 10
81.95916610364216
 20
-138.1097438890837
 30
0.0
 10
81.95916610364216
 20
-138.2365234029409
 30
0.0
 10
81.95916610364216
 20
-138.3633029167981
 30
0.0
 10
81.85546872953614
 20
-138.464933233613
 30
0.0
 10
81.72851696090468
 20
-138.464933233613
 30
0.0
  0
SPLINE
  5
12E
330
108
100
AcDbEntity
  8
_U+30EC_U+30A4_U+30E4_U+30FC 1
370
     0
100
AcDbSpline
210
0.0
220
0.0
230
1.0
 70
    11
 71
     3
 72
    17
 73
    13
 74
     0
 42
0.0000000001
 43
0.0000000001
 12
1.0
 22
0.0
 32
0.0
 13
1.0
 23
0.0
 33
0.0
 40
0.0
 40
0.0
 40
0.0
 40
0.0
 40
1.0
 40
1.0
 40
1.0
 40
2.0
 40
2.0
 40
2.0
 40
3.0
 40
3.0
 40
3.0
 40
4.0
 40
4.0
 40
4.0
 40
4.0
 10
81.72644990361353
 20
-138.134893086126
 30
0.0
 10
81.6715006306238
 20
-138.134893086126
 30
0.0
 10
81.62705889886408
 20
-138.1793348178857
 30
0.0
 10
81.62705889886408
 20
-138.2344563456497
 30
0.0
 10
81.62705889886408
 20
-138.2916449307049
 30
0.0
 10
81.6715006306238
 20
-138.3402207770469
 30
0.0
 10
81.7307562729701
 20
-138.3402207770469
 30
0.0
 10
81.79001191531638
 20
-138.3402207770469
 30
0.0
 10
81.83014727771955
 20
-138.2892333638652
 30
0.0
 10
81.83014727771955
 20
-138.2365234029409
 30
0.0
 10
81.83014727771955
 20
-138.1793348178857
 30
0.0
 10
81.78363848866867
 20
-138.134893086126
 30
0.0
 10
81.72644990361353
 20
-138.134893086126
 30
0.0
  0
HATCH
  5
12F
330
108
100
AcDbEntity
  8
_U+30EC_U+30A4_U+30E4_U+30FC 1
 62
   179
420
  2234388
100
AcDbHatch
 10
0.0
 20
0.0
 30
0.0
210
0.0
220
0.0
230
1.0
  2
SOLID
 70
     1
 71
     0
 91
        3
 92
        1
 93
        1
 72
     4
 94
        3
 73
     0
 74
     1
 95
       44
 96
       40
 40
0.0
 40
0.0
 40
0.0
 40
0.0
 40
1.0
 40
1.0
 40
1.0
 40
2.0
 40
2.0
 40
2.0
 40
3.0
 40
3.0
 40
3.0
 40
4.0
 40
4.0
 40
4.0
 40
5.0
 40
5.0
 40
5.0
 40
6.0
 40
6.0
 40
6.0
 40
7.0
 40
7.0
 40
7.0
 40
8.0
 40
8.0
 40
8.0
 40
9.0
 40
9.0
 40
9.0
 40
10.0
 40
10.0
 40
10.0
 40
11.0
 40
11.0
 40
11.0
 40
12.0
 40
12.0
 40
12.0
 40
13.0
 40
13.0
 40
13.0
 40
13.0
 10
81.51922741017576
 20
-138.6637152431119
 10
81.40708955213087
 20
-139.0319959504851
 10
81.35627439372344
 20
-139.1904703428065
 10
81.15955944151567
 20
-139.4402397654872
 10
80.97541908782907
 20
-139.6707166534504
 10
80.73856877321813
 20
-139.8570963192024
 10
80.45934378413864
 20
-139.9501138973041
 10
80.45934378413864
 20
-139.9501138973041
 10
80.26676294651317
 20
-139.7702799129741
 10
80.26676294651317
 20
-139.7702799129741
 10
80.90772296154391
 20
-139.6180066925261
 10
81.23776310903084
 20
-139.0616237716582
 10
81.3013251207337
 20
-138.6216850781918
 10
81.3013251207337
 20
-138.6216850781918
 10
80.53548039436266
 20
-138.6216850781918
 10
80.53548039436266
 20
-138.6216850781918
 10
80.44229056148666
 20
-138.6216850781918
 10
80.25832246257431
 20
-138.6258191927741
 10
80.1017428727697
 20
-138.644767217943
 10
80.1017428727697
 20
-138.644767217943
 10
80.1017428727697
 20
-138.4246256164355
 10
80.1017428727697
 20
-138.4246256164355
 10
80.188559278998
 20
-138.4459852084441
 10
80.4402235041955
 20
-138.4459852084441
 10
80.53961450894496
 20
-138.4459852084441
 10
80.53961450894496
 20
-138.4459852084441
 10
80.97128497324677
 20
-138.4459852084441
 10
80.97128497324677
 20
-138.4459852084441
 10
81.01348739294107
 20
-138.4459852084441
 10
81.24844290503512
 20
-138.4439181511529
 10
81.28651121014713
 20
-138.4373724697309
 10
81.32871362984143
 20
-138.4311712978575
 10
81.33095294190684
 20
-138.4291042405663
 10
81.3922756415443
 20
-138.3887966233889
 10
81.3922756415443
 20
-138.3887966233889
 10
81.5805501098132
 20
-138.5431369011281
 10
81.5805501098132
 20
-138.5431369011281
 10
81.55092228864005
 20
-138.5727647223013
 10
81.53610837805347
 20
-138.6044596007656
 10
81.51922741017576
 20
-138.6637152431119
 97
        0
 97
        0
 92
        1
 93
        1
 72
     4
 94
        3
 73
     0
 74
     1
 95
       17
 96
       13
 40
0.0
 40
0.0
 40
0.0
 40
0.0
 40
1.0
 40
1.0
 40
1.0
 40
2.0
 40
2.0
 40
2.0
 40
3.0
 40
3.0
 40
3.0
 40
4.0
 40
4.0
 40
4.0
 40
4.0
 10
81.72851696090468
 20
-138.464933233613
 10
81.60173744704748
 20
-138.464933233613
 10
81.50010713023262
 20
-138.3633029167981
 10
81.50010713023262
 20
-138.2365234029409
 10
81.50010713023262
 20
-138.1097438890837
 10
81.60173744704748
 20
-138.0060465149777
 10
81.72851696090468
 20
-138.0060465149777
 10
81.85546872953614
 20
-138.0060465149777
 10
81.95916610364216
 20
-138.1097438890837
 10
81.95916610364216
 20
-138.2365234029409
 10
81.95916610364216
 20
-138.3633029167981
 10
81.85546872953614
 20
-138.464933233613
 10
81.72851696090468
 20
-138.464933233613
 97
        0
 97
        0
 92
        1
 93
        1
 72
     4
 94
        3
 73
     0
 74
     1
 95
       17
 96
       13
 40
0.0
 40
0.0
 40
0.0
 40
0.0
 40
1.0
 40
1.0
 40
1.0
 40
2.0
 40
2.0
 40
2.0
 40
3.0
 40
3.0
 40
3.0
 40
4.0
 40
4.0
 40
4.0
 40
4.0
 10
81.72644990361353
 20
-138.134893086126
 10
81.6715006306238
 20
-138.134893086126
 10
81.62705889886408
 20
-138.1793348178857
 10
81.62705889886408
 20
-138.2344563456497
 10
81.62705889886408
 20
-138.2916449307049
 10
81.6715006306238
 20
-138.3402207770469
 10
81.7307562729701
 20
-138.3402207770469
 10
81.79001191531638
 20
-138.3402207770469
 10
81.83014727771955
 20
-138.2892333638652
 10
81.83014727771955
 20
-138.2365234029409
 10
81.83014727771955
 20
-138.1793348178857
 10
81.78363848866867
 20
-138.134893086126
 10
81.72644990361353
 20
-138.134893086126
 97
        0
 97
        0
 75
     2
 76
     1
 98
        0
  0
ENDBLK
  5
10B
330
108
100
AcDbEntity
  8
0
100
AcDbBlockEnd
  0
BLOCK
  5
149
330
147
100
AcDbEntity
  8
0
100
AcDbBlockBegin
  2
block 6
 70
     0
 10
0.0
 20
0.0
 30
0.0
  3
block 6
  1

  0
SPLINE
  5
14B
330
147
100
AcDbEntity
  8
_U+30EC_U+30A4_U+30E4_U+30FC 1
370
     0
100
AcDbSpline
210
0.0
220
0.0
230
1.0
 70
    11
 71
     3
 72
    44
 73
    40
 74
     0
 42
0.0000000001
 43
0.0000000001
 12
1.0
 22
0.0
 32
0.0
 13
1.0
 23
0.0
 33
0.0
 40
0.0
 40
0.0
 40
0.0
 40
0.0
 40
1.0
 40
1.0
 40
1.0
 40
2.0
 40
2.0
 40
2.0
 40
3.0
 40
3.0
 40
3.0
 40
4.0
 40
4.0
 40
4.0
 40
5.0
 40
5.0
 40
5.0
 40
6.0
 40
6.0
 40
6.0
 40
7.0
 40
7.0
 40
7.0
 40
8.0
 40
8.0
 40
8.0
 40
9.0
 40
9.0
 40
9.0
 40
10.0
 40
10.0
 40
10.0
 40
11.0
 40
11.0
 40
11.0
 40
12.0
 40
12.0
 40
12.0
 40
13.0
 40
13.0
 40
13.0
 40
13.0
 10
92.80949433443652
 20
-125.3401529634566
 30
0.0
 10
92.55386824943098
 20
-125.425074567168
 30
0.0
 10
92.44293617480594
 20
-125.4674492416366
 30
0.0
 10
92.3526746730924
 20
-125.5895778765887
 30
0.0
 10
92.3526746730924
 20
-125.5895778765887
 30
0.0
 10
93.09405922151815
 20
-125.8262559364254
 30
0.0
 10
93.09405922151815
 20
-125.8262559364254
 30
0.0
 10
93.09405922151815
 20
-125.8262559364254
 30
0.0
 10
93.03204750278366
 20
-126.021592850439
 30
0.0
 10
93.03204750278366
 20
-126.021592850439
 30
0.0
 10
93.03204750278366
 20
-126.021592850439
 30
0.0
 10
92.0522623467786
 20
-125.7091226899269
 30
0.0
 10
92.0522623467786
 20
-125.7091226899269
 30
0.0
 10
92.1914442043827
 20
-125.3780490137944
 30
0.0
 10
92.27757159151395
 20
-125.3236165051274
 30
0.0
 10
92.73508027195513
 20
-125.1565293740928
 30
0.0
 10
93.0396267128512
 20
-125.0449082803707
 30
0.0
 10
93.12230900449721
 20
-125.0002942938367
 30
0.0
 10
93.16433916941725
 20
-124.8693806653972
 30
0.0
 10
93.20016816246385
 20
-124.756381533481
 30
0.0
 10
93.17122936038776
 20
-124.6096204658094
 30
0.0
 10
92.98381616599016
 20
-124.5498480591403
 30
0.0
 10
92.73576929105218
 20
-124.4706108629796
 30
0.0
 10
92.65791013308552
 20
-124.6878241333246
 30
0.0
 10
92.61863604455368
 20
-124.7973781697555
 30
0.0
 10
92.61863604455368
 20
-124.7973781697555
 30
0.0
 10
92.40504012446819
 20
-124.7293375339218
 30
0.0
 10
92.40504012446819
 20
-124.7293375339218
 30
0.0
 10
92.45189342306759
 20
-124.6108262492292
 30
0.0
 10
92.49599064527878
 20
-124.5074733846718
 30
0.0
 10
92.60830075809793
 20
-124.4187621759266
 30
0.0
 10
92.76195201674007
 20
-124.2990451078141
 30
0.0
 10
92.95005423023471
 20
-124.3235052857594
 30
0.0
 10
93.06098630485975
 20
-124.3588175144832
 30
0.0
 10
93.3248806190299
 20
-124.4430500990976
 30
0.0
 10
93.46612953392514
 20
-124.6814507066769
 30
0.0
 10
93.38344724227915
 20
-124.941383161039
 30
0.0
 10
93.31385631347709
 20
-125.1589409409325
 30
0.0
 10
93.17260739858185
 20
-125.2185410928273
 30
0.0
 10
92.80949433443652
 20
-125.3401529634566
 30
0.0
  0
HATCH
  5
14C
330
147
100
AcDbEntity
  8
_U+30EC_U+30A4_U+30E4_U+30FC 1
 62
   179
420
  2234388
100
AcDbHatch
 10
0.0
 20
0.0
 30
0.0
210
0.0
220
0.0
230
1.0
  2
SOLID
 70
     1
 71
     0
 91
        1
 92
        1
 93
        1
 72
     4
 94
        3
 73
     0
 74
     1
 95
       44
 96
       40
 40
0.0
 40
0.0
 40
0.0
 40
0.0
 40
1.0
 40
1.0
 40
1.0
 40
2.0
 40
2.0
 40
2.0
 40
3.0
 40
3.0
 40
3.0
 40
4.0
 40
4.0
 40
4.0
 40
5.0
 40
5.0
 40
5.0
 40
6.0
 40
6.0
 40
6.0
 40
7.0
 40
7.0
 40
7.0
 40
8.0
 40
8.0
 40
8.0
 40
9.0
 40
9.0
 40
9.0
 40
10.0
 40
10.0
 40
10.0
 40
11.0
 40
11.0
 40
11.0
 40
12.0
 40
12.0
 40
12.0
 40
13.0
 40
13.0
 40
13.0
 40
13.0
 10
92.80949433443652
 20
-125.3401529634566
 10
92.55386824943098
 20
-125.425074567168
 10
92.44293617480594
 20
-125.4674492416366
 10
92.3526746730924
 20
-125.5895778765887
 10
92.3526746730924
 20
-125.5895778765887
 10
93.09405922151815
 20
-125.8262559364254
 10
93.09405922151815
 20
-125.8262559364254
 10
93.09405922151815
 20
-125.8262559364254
 10
93.03204750278366
 20
-126.021592850439
 10
93.03204750278366
 20
-126.021592850439
 10
93.03204750278366
 20
-126.021592850439
 10
92.0522623467786
 20
-125.7091226899269
 10
92.0522623467786
 20
-125.7091226899269
 10
92.1914442043827
 20
-125.3780490137944
 10
92.27757159151395
 20
-125.3236165051274
 10
92.73508027195513
 20
-125.1565293740928
 10
93.0396267128512
 20
-125.0449082803707
 10
93.12230900449721
 20
-125.0002942938367
 10
93.16433916941725
 20
-124.8693806653972
 10
93.20016816246385
 20
-124.756381533481
 10
93.17122936038776
 20
-124.6096204658094
 10
92.98381616599016
 20
-124.5498480591403
 10
92.73576929105218
 20
-124.4706108629796
 10
92.65791013308552
 20
-124.6878241333246
 10
92.61863604455368
 20
-124.7973781697555
 10
92.61863604455368
 20
-124.7973781697555
 10
92.40504012446819
 20
-124.7293375339218
 10
92.40504012446819
 20
-124.7293375339218
 10
92.45189342306759
 20
-124.6108262492292
 10
92.49599064527878
 20
-124.5074733846718
 10
92.60830075809793
 20
-124.4187621759266
 10
92.76195201674007
 20
-124.2990451078141
 10
92.95005423023471
 20
-124.3235052857594
 10
93.06098630485975
 20
-124.3588175144832
 10
93.3248806190299
 20
-124.4430500990976
 10
93.46612953392514
 20
-124.6814507066769
 10
93.38344724227915
 20
-124.941383161039
 10
93.31385631347709
 20
-125.1589409409325
 10
93.17260739858185
 20
-125.2185410928273
 10
92.80949433443652
 20
-125.3401529634566
 97
        0
 97
        0
 75
     2
 76
     1
 98
        0
  0
SPLINE
  5
14D
330
147
100
AcDbEntity
  8
_U+30EC_U+30A4_U+30E4_U+30FC 1
370
     0
100
AcDbSpline
210
0.0
220
0.0
230
1.0
 70
    11
 71
     3
 72
    29
 73
    25
 74
     0
 42
0.0000000001
 43
0.0000000001
 12
1.0
 22
0.0
 32
0.0
 13
1.0
 23
0.0
 33
0.0
 40
0.0
 40
0.0
 40
0.0
 40
0.0
 40
1.0
 40
1.0
 40
1.0
 40
2.0
 40
2.0
 40
2.0
 40
3.0
 40
3.0
 40
3.0
 40
4.0
 40
4.0
 40
4.0
 40
5.0
 40
5.0
 40
5.0
 40
6.0
 40
6.0
 40
6.0
 40
7.0
 40
7.0
 40
7.0
 40
8.0
 40
8.0
 40
8.0
 40
8.0
 10
93.65009763283749
 20
-126.272223546991
 30
0.0
 10
93.39584958602605
 20
-126.1910915483133
 30
0.0
 10
93.19603404788155
 20
-125.9830077810042
 30
0.0
 10
93.30214298882724
 20
-125.6505560666776
 30
0.0
 10
93.3800021467939
 20
-125.406643306322
 30
0.0
 10
93.54398869189178
 20
-125.3589287338512
 30
0.0
 10
93.66318899568142
 20
-125.3325737533891
 30
0.0
 10
93.56259220751214
 20
-125.2381781370932
 30
0.0
 10
93.52469615717439
 20
-125.1064032347824
 30
0.0
 10
93.57361651306493
 20
-124.9532687404631
 30
0.0
 10
93.65698782380798
 20
-124.6910969740356
 30
0.0
 10
93.88780922131971
 20
-124.6227118286534
 30
0.0
 10
94.1496364781987
 20
-124.7062553941707
 30
0.0
 10
94.41973196424229
 20
-124.7923827813019
 30
0.0
 10
94.55753578365228
 20
-124.987375185767
 30
0.0
 10
94.4762315302004
 20
-125.24127872303
 30
0.0
 10
94.42731117430985
 20
-125.3945854721236
 30
0.0
 10
94.3177571378789
 20
-125.4793348210607
 30
0.0
 10
94.18064233756596
 20
-125.4979383366811
 30
0.0
 10
94.250233266368
 20
-125.573385927808
 30
0.0
 10
94.3728786656429
 20
-125.7123955306379
 30
0.0
 10
94.2929524503851
 20
-125.9623372080927
 30
0.0
 10
94.17926429937185
 20
-126.3189045908161
 30
0.0
 10
93.87747393486397
 20
-126.3449150617298
 30
0.0
 10
93.65009763283749
 20
-126.272223546991
 30
0.0
  0
SPLINE
  5
14E
330
147
100
AcDbEntity
  8
_U+30EC_U+30A4_U+30E4_U+30FC 1
370
     0
100
AcDbSpline
210
0.0
220
0.0
230
1.0
 70
    11
 71
     3
 72
    17
 73
    13
 74
     0
 42
0.0000000001
 43
0.0000000001
 12
1.0
 22
0.0
 32
0.0
 13
1.0
 23
0.0
 33
0.0
 40
0.0
 40
0.0
 40
0.0
 40
0.0
 40
1.0
 40
1.0
 40
1.0
 40
2.0
 40
2.0
 40
2.0
 40
3.0
 40
3.0
 40
3.0
 40
4.0
 40
4.0
 40
4.0
 40
4.0
 10
93.89056529770792
 20
-125.5184366548183
 30
0.0
 10
93.75345049739498
 20
-125.4748561969299
 30
0.0
 10
93.58188474222953
 20
-125.5108574447508
 30
0.0
 10
93.51987302349504
 20
-125.7044718110218
 30
0.0
 10
93.45717228566349
 20
-125.8998087250355
 30
0.0
 10
93.54812280647408
 20
-126.0353732323801
 30
0.0
 10
93.70935327518377
 20
-126.0867051551103
 30
0.0
 10
93.88643118312562
 20
-126.1432047210684
 30
0.0
 10
94.02836911711792
 20
-126.0600056650996
 30
0.0
 10
94.08280162578485
 20
-125.8906792219996
 30
0.0
 10
94.15032549729575
 20
-125.678978104431
 30
0.0
 10
94.01734481156511
 20
-125.55891652677
 30
0.0
 10
93.89056529770792
 20
-125.5184366548183
 30
0.0
  0
SPLINE
  5
14F
330
147
100
AcDbEntity
  8
_U+30EC_U+30A4_U+30E4_U+30FC 1
370
     0
100
AcDbSpline
210
0.0
220
0.0
230
1.0
 70
    11
 71
     3
 72
    17
 73
    13
 74
     0
 42
0.0000000001
 43
0.0000000001
 12
1.0
 22
0.0
 32
0.0
 13
1.0
 23
0.0
 33
0.0
 40
0.0
 40
0.0
 40
0.0
 40
0.0
 40
1.0
 40
1.0
 40
1.0
 40
2.0
 40
2.0
 40
2.0
 40
3.0
 40
3.0
 40
3.0
 40
4.0
 40
4.0
 40
4.0
 40
4.0
 10
94.09106985494945
 20
-124.8897067287602
 30
0.0
 10
93.93397350082206
 20
-124.8395805894498
 30
0.0
 10
93.82441946439113
 20
-124.9045206393468
 30
0.0
 10
93.78307831856813
 20
-125.0333672104951
 30
0.0
 10
93.74587128732743
 20
-125.1505004569936
 30
0.0
 10
93.77825518488878
 20
-125.2850314356926
 30
0.0
 10
93.94775388276307
 20
-125.3391194348111
 30
0.0
 10
94.1165635615403
 20
-125.3932074339295
 30
0.0
 10
94.2212944642919
 20
-125.3022569131189
 30
0.0
 10
94.2585014955326
 20
-125.1851236666204
 30
0.0
 10
94.2998426413556
 20
-125.056277095472
 30
0.0
 10
94.2460991517857
 20
-124.9391438489736
 30
0.0
 10
94.09106985494945
 20
-124.8897067287602
 30
0.0
  0
HATCH
  5
150
330
147
100
AcDbEntity
  8
_U+30EC_U+30A4_U+30E4_U+30FC 1
 62
   179
420
  2234388
100
AcDbHatch
 10
0.0
 20
0.0
 30
0.0
210
0.0
220
0.0
230
1.0
  2
SOLID
 70
     1
 71
     0
 91
        3
 92
        1
 93
        1
 72
     4
 94
        3
 73
     0
 74
     1
 95
       29
 96
       25
 40
0.0
 40
0.0
 40
0.0
 40
0.0
 40
1.0
 40
1.0
 40
1.0
 40
2.0
 40
2.0
 40
2.0
 40
3.0
 40
3.0
 40
3.0
 40
4.0
 40
4.0
 40
4.0
 40
5.0
 40
5.0
 40
5.0
 40
6.0
 40
6.0
 40
6.0
 40
7.0
 40
7.0
 40
7.0
 40
8.0
 40
8.0
 40
8.0
 40
8.0
 10
93.65009763283749
 20
-126.272223546991
 10
93.39584958602605
 20
-126.1910915483133
 10
93.19603404788155
 20
-125.9830077810042
 10
93.30214298882724
 20
-125.6505560666776
 10
93.3800021467939
 20
-125.406643306322
 10
93.54398869189178
 20
-125.3589287338512
 10
93.66318899568142
 20
-125.3325737533891
 10
93.56259220751214
 20
-125.2381781370932
 10
93.52469615717439
 20
-125.1064032347824
 10
93.57361651306493
 20
-124.9532687404631
 10
93.65698782380798
 20
-124.6910969740356
 10
93.88780922131971
 20
-124.6227118286534
 10
94.1496364781987
 20
-124.7062553941707
 10
94.41973196424229
 20
-124.7923827813019
 10
94.55753578365228
 20
-124.987375185767
 10
94.4762315302004
 20
-125.24127872303
 10
94.42731117430985
 20
-125.3945854721236
 10
94.3177571378789
 20
-125.4793348210607
 10
94.18064233756596
 20
-125.4979383366811
 10
94.250233266368
 20
-125.573385927808
 10
94.3728786656429
 20
-125.7123955306379
 10
94.2929524503851
 20
-125.9623372080927
 10
94.17926429937185
 20
-126.3189045908161
 10
93.87747393486397
 20
-126.3449150617298
 10
93.65009763283749
 20
-126.272223546991
 97
        0
 97
        0
 92
        1
 93
        1
 72
     4
 94
        3
 73
     0
 74
     1
 95
       17
 96
       13
 40
0.0
 40
0.0
 40
0.0
 40
0.0
 40
1.0
 40
1.0
 40
1.0
 40
2.0
 40
2.0
 40
2.0
 40
3.0
 40
3.0
 40
3.0
 40
4.0
 40
4.0
 40
4.0
 40
4.0
 10
93.89056529770792
 20
-125.5184366548183
 10
93.75345049739498
 20
-125.4748561969299
 10
93.58188474222953
 20
-125.5108574447508
 10
93.51987302349504
 20
-125.7044718110218
 10
93.45717228566349
 20
-125.8998087250355
 10
93.54812280647408
 20
-126.0353732323801
 10
93.70935327518377
 20
-126.0867051551103
 10
93.88643118312562
 20
-126.1432047210684
 10
94.02836911711792
 20
-126.0600056650996
 10
94.08280162578485
 20
-125.8906792219996
 10
94.15032549729575
 20
-125.678978104431
 10
94.01734481156511
 20
-125.55891652677
 10
93.89056529770792
 20
-125.5184366548183
 97
        0
 97
        0
 92
        1
 93
        1
 72
     4
 94
        3
 73
     0
 74
     1
 95
       17
 96
       13
 40
0.0
 40
0.0
 40
0.0
 40
0.0
 40
1.0
 40
1.0
 40
1.0
 40
2.0
 40
2.0
 40
2.0
 40
3.0
 40
3.0
 40
3.0
 40
4.0
 40
4.0
 40
4.0
 40
4.0
 10
94.09106985494945
 20
-124.8897067287602
 10
93.93397350082206
 20
-124.8395805894498
 10
93.82441946439113
 20
-124.9045206393468
 10
93.78307831856813
 20
-125.0333672104951
 10
93.74587128732743
 20
-125.1505004569936
 10
93.77825518488878
 20
-125.2850314356926
 10
93.94775388276307
 20
-125.3391194348111
 10
94.1165635615403
 20
-125.3932074339295
 10
94.2212944642919
 20
-125.3022569131189
 10
94.2585014955326
 20
-125.1851236666204
 10
94.2998426413556
 20
-125.056277095472
 10
94.2460991517857
 20
-124.9391438489736
 10
94.09106985494945
 20
-124.8897067287602
 97
        0
 97
        0
 75
     2
 76
     1
 98
        0
  0
ENDBLK
  5
14A
330
147
100
AcDbEntity
  8
0
100
AcDbBlockEnd
  0
BLOCK
  5
164
330
162
100
AcDbEntity
  8
0
100
AcDbBlockBegin
  2
block 7
 70
     0
 10
0.0
 20
0.0
 30
0.0
  3
block 7
  1

  0
SPLINE
  5
166
330
162
100
AcDbEntity
  8
_U+30EC_U+30A4_U+30E4_U+30FC 1
370
     0
100
AcDbSpline
210
0.0
220
0.0
230
1.0
 70
    11
 71
     3
 72
    44
 73
    40
 74
     0
 42
0.0000000001
 43
0.0000000001
 12
1.0
 22
0.0
 32
0.0
 13
1.0
 23
0.0
 33
0.0
 40
0.0
 40
0.0
 40
0.0
 40
0.0
 40
1.0
 40
1.0
 40
1.0
 40
2.0
 40
2.0
 40
2.0
 40
3.0
 40
3.0
 40
3.0
 40
4.0
 40
4.0
 40
4.0
 40
5.0
 40
5.0
 40
5.0
 40
6.0
 40
6.0
 40
6.0
 40
7.0
 40
7.0
 40
7.0
 40
8.0
 40
8.0
 40
8.0
 40
9.0
 40
9.0
 40
9.0
 40
10.0
 40
10.0
 40
10.0
 40
11.0
 40
11.0
 40
11.0
 40
12.0
 40
12.0
 40
12.0
 40
13.0
 40
13.0
 40
13.0
 40
13.0
 10
60.96802705724063
 20
-125.9297810557571
 30
0.0
 10
60.80886364582209
 20
-126.1473388356507
 30
0.0
 10
60.7427178125053
 20
-126.2462130760773
 30
0.0
 10
60.7399617361171
 20
-126.3981417869769
 30
0.0
 10
60.7399617361171
 20
-126.3981417869769
 30
0.0
 10
61.48134628454286
 20
-126.1614637271402
 30
0.0
 10
61.48134628454286
 20
-126.1614637271402
 30
0.0
 10
61.48134628454286
 20
-126.1614637271402
 30
0.0
 10
61.54404702237441
 20
-126.3568006411539
 30
0.0
 10
61.54404702237441
 20
-126.3568006411539
 30
0.0
 10
61.54404702237441
 20
-126.3568006411539
 30
0.0
 10
60.56460637591788
 20
-126.669270801666
 30
0.0
 10
60.56460637591788
 20
-126.669270801666
 30
0.0
 10
60.48605819885418
 20
-126.3189045908161
 30
0.0
 10
60.52464326828898
 20
-126.2246812292945
 30
0.0
 10
60.80093992620602
 20
-125.8233276052629
 30
0.0
 10
60.98421900602131
 20
-125.5565049599303
 30
0.0
 10
61.02590466139283
 20
-125.4717556109932
 30
0.0
 10
60.98421900602131
 20
-125.3408419825537
 30
0.0
 10
60.94804550342619
 20
-125.2278428506375
 30
0.0
 10
60.83986950518934
 20
-125.1250067504028
 30
0.0
 10
60.65245631079175
 20
-125.1847791570719
 30
0.0
 10
60.40440943585376
 20
-125.2638440984583
 30
0.0
 10
60.46642115458826
 20
-125.4858805024827
 30
0.0
 10
60.49811603305255
 20
-125.5981906153018
 30
0.0
 10
60.49811603305255
 20
-125.5981906153018
 30
0.0
 10
60.28452011296707
 20
-125.6662312511355
 30
0.0
 10
60.28452011296707
 20
-125.6662312511355
 30
0.0
 10
60.25385876314834
 20
-125.5427245779893
 30
0.0
 10
60.2297430947516
 20
-125.4328260320099
 30
0.0
 10
60.27039522147754
 20
-125.2953667221484
 30
0.0
 10
60.32620576833859
 20
-125.1089870563964
 30
0.0
 10
60.49329289937321
 20
-125.0199313381027
 30
0.0
 10
60.60422497399825
 20
-124.9846191093789
 30
0.0
 10
60.86811928816839
 20
-124.9002142699902
 30
0.0
 10
61.12167831588278
 20
-125.0126966375836
 30
0.0
 10
61.20436060752878
 20
-125.2724568371715
 30
0.0
 10
61.27395153633082
 20
-125.4905313813878
 30
0.0
 10
61.19333630197598
 20
-125.6202392264074
 30
0.0
 10
60.96802705724063
 20
-125.9297810557571
 30
0.0
  0
HATCH
  5
167
330
162
100
AcDbEntity
  8
_U+30EC_U+30A4_U+30E4_U+30FC 1
 62
   179
420
  2234388
100
AcDbHatch
 10
0.0
 20
0.0
 30
0.0
210
0.0
220
0.0
230
1.0
  2
SOLID
 70
     1
 71
     0
 91
        1
 92
        1
 93
        1
 72
     4
 94
        3
 73
     0
 74
     1
 95
       44
 96
       40
 40
0.0
 40
0.0
 40
0.0
 40
0.0
 40
1.0
 40
1.0
 40
1.0
 40
2.0
 40
2.0
 40
2.0
 40
3.0
 40
3.0
 40
3.0
 40
4.0
 40
4.0
 40
4.0
 40
5.0
 40
5.0
 40
5.0
 40
6.0
 40
6.0
 40
6.0
 40
7.0
 40
7.0
 40
7.0
 40
8.0
 40
8.0
 40
8.0
 40
9.0
 40
9.0
 40
9.0
 40
10.0
 40
10.0
 40
10.0
 40
11.0
 40
11.0
 40
11.0
 40
12.0
 40
12.0
 40
12.0
 40
13.0
 40
13.0
 40
13.0
 40
13.0
 10
60.96802705724063
 20
-125.9297810557571
 10
60.80886364582209
 20
-126.1473388356507
 10
60.7427178125053
 20
-126.2462130760773
 10
60.7399617361171
 20
-126.3981417869769
 10
60.7399617361171
 20
-126.3981417869769
 10
61.48134628454286
 20
-126.1614637271402
 10
61.48134628454286
 20
-126.1614637271402
 10
61.48134628454286
 20
-126.1614637271402
 10
61.54404702237441
 20
-126.3568006411539
 10
61.54404702237441
 20
-126.3568006411539
 10
61.54404702237441
 20
-126.3568006411539
 10
60.56460637591788
 20
-126.669270801666
 10
60.56460637591788
 20
-126.669270801666
 10
60.48605819885418
 20
-126.3189045908161
 10
60.52464326828898
 20
-126.2246812292945
 10
60.80093992620602
 20
-125.8233276052629
 10
60.98421900602131
 20
-125.5565049599303
 10
61.02590466139283
 20
-125.4717556109932
 10
60.98421900602131
 20
-125.3408419825537
 10
60.94804550342619
 20
-125.2278428506375
 10
60.83986950518934
 20
-125.1250067504028
 10
60.65245631079175
 20
-125.1847791570719
 10
60.40440943585376
 20
-125.2638440984583
 10
60.46642115458826
 20
-125.4858805024827
 10
60.49811603305255
 20
-125.5981906153018
 10
60.49811603305255
 20
-125.5981906153018
 10
60.28452011296707
 20
-125.6662312511355
 10
60.28452011296707
 20
-125.6662312511355
 10
60.25385876314834
 20
-125.5427245779893
 10
60.2297430947516
 20
-125.4328260320099
 10
60.27039522147754
 20
-125.2953667221484
 10
60.32620576833859
 20
-125.1089870563964
 10
60.49329289937321
 20
-125.0199313381027
 10
60.60422497399825
 20
-124.9846191093789
 10
60.86811928816839
 20
-124.9002142699902
 10
61.12167831588278
 20
-125.0126966375836
 10
61.20436060752878
 20
-125.2724568371715
 10
61.27395153633082
 20
-125.4905313813878
 10
61.19333630197598
 20
-125.6202392264074
 10
60.96802705724063
 20
-125.9297810557571
 97
        0
 97
        0
 75
     2
 76
     1
 98
        0
  0
SPLINE
  5
168
330
162
100
AcDbEntity
  8
_U+30EC_U+30A4_U+30E4_U+30FC 1
370
     0
100
AcDbSpline
210
0.0
220
0.0
230
1.0
 70
    11
 71
     3
 72
    29
 73
    25
 74
     0
 42
0.0000000001
 43
0.0000000001
 12
1.0
 22
0.0
 32
0.0
 13
1.0
 23
0.0
 33
0.0
 40
0.0
 40
0.0
 40
0.0
 40
0.0
 40
1.0
 40
1.0
 40
1.0
 40
2.0
 40
2.0
 40
2.0
 40
3.0
 40
3.0
 40
3.0
 40
4.0
 40
4.0
 40
4.0
 40
5.0
 40
5.0
 40
5.0
 40
6.0
 40
6.0
 40
6.0
 40
7.0
 40
7.0
 40
7.0
 40
8.0
 40
8.0
 40
8.0
 40
8.0
 10
62.19241399269843
 20
-126.2029771277375
 30
0.0
 10
61.93885496498404
 20
-126.2839368716408
 30
0.0
 10
61.65497909699945
 20
-126.2301933820709
 30
0.0
 10
61.54887015605376
 20
-125.8977416677443
 30
0.0
 10
61.47101099808711
 20
-125.6538289073886
 30
0.0
 10
61.57711993903281
 20
-125.5201592025609
 30
0.0
 10
61.65945772113028
 20
-125.4297254460731
 30
0.0
 10
61.52268743036586
 20
-125.4111219304528
 30
0.0
 10
61.41520045122606
 20
-125.3255113076443
 30
0.0
 10
61.36628009533552
 20
-125.1722045585507
 30
0.0
 10
61.28290878459247
 20
-124.9103773016717
 30
0.0
 10
61.43104789045821
 20
-124.7207247952087
 30
0.0
 10
61.6928751473372
 20
-124.6371812296914
 30
0.0
 10
61.96297063338078
 20
-124.5508815877859
 30
0.0
 10
62.18827987811613
 20
-124.6301187839466
 30
0.0
 10
62.2692396220195
 20
-124.8840223212096
 30
0.0
 10
62.31815997791005
 20
-125.0373290703032
 30
0.0
 10
62.27854137982968
 20
-125.1699652464853
 30
0.0
 10
62.17725557256333
 20
-125.2645331175554
 30
0.0
 10
62.2775078511841
 20
-125.2857204547897
 30
0.0
 10
62.45768634506266
 20
-125.3280951292583
 30
0.0
 10
62.53726805077194
 20
-125.5782090614874
 30
0.0
 10
62.6513007113337
 20
-125.9347764442108
 30
0.0
 10
62.42047931382196
 20
-126.1302856129987
 30
0.0
 10
62.19241399269843
 20
-126.2029771277375
 30
0.0
  0
SPLINE
  5
169
330
162
100
AcDbEntity
  8
_U+30EC_U+30A4_U+30E4_U+30FC 1
370
     0
100
AcDbSpline
210
0.0
220
0.0
230
1.0
 70
    11
 71
     3
 72
    17
 73
    13
 74
     0
 42
0.0000000001
 43
0.0000000001
 12
1.0
 22
0.0
 32
0.0
 13
1.0
 23
0.0
 33
0.0
 40
0.0
 40
0.0
 40
0.0
 40
0.0
 40
1.0
 40
1.0
 40
1.0
 40
2.0
 40
2.0
 40
2.0
 40
3.0
 40
3.0
 40
3.0
 40
4.0
 40
4.0
 40
4.0
 40
4.0
 10
61.75144177058645
 20
-124.8208048190552
 30
0.0
 10
61.59434541645906
 20
-124.8709309583656
 30
0.0
 10
61.54266898418031
 20
-124.9872029309928
 30
0.0
 10
61.58401013000331
 20
-125.1160495021411
 30
0.0
 10
61.621217161244
 20
-125.2328382390911
 30
0.0
 10
61.7259480639956
 20
-125.323961014676
 30
0.0
 10
61.89475774277284
 20
-125.2700452703318
 30
0.0
 10
62.06425644064714
 20
-125.2159572712134
 30
0.0
 10
62.09664033820848
 20
-125.0810817829659
 30
0.0
 10
62.05943330696778
 20
-124.9642930460159
 30
0.0
 10
62.01809216114479
 20
-124.8354464748675
 30
0.0
 10
61.90681557697121
 20
-124.7711954440676
 30
0.0
 10
61.75144177058645
 20
-124.8208048190552
 30
0.0
  0
SPLINE
  5
16A
330
162
100
AcDbEntity
  8
_U+30EC_U+30A4_U+30E4_U+30FC 1
370
     0
100
AcDbSpline
210
0.0
220
0.0
230
1.0
 70
    11
 71
     3
 72
    17
 73
    13
 74
     0
 42
0.0000000001
 43
0.0000000001
 12
1.0
 22
0.0
 32
0.0
 13
1.0
 23
0.0
 33
0.0
 40
0.0
 40
0.0
 40
0.0
 40
0.0
 40
1.0
 40
1.0
 40
1.0
 40
2.0
 40
2.0
 40
2.0
 40
3.0
 40
3.0
 40
3.0
 40
4.0
 40
4.0
 40
4.0
 40
4.0
 10
61.95229083737652
 20
-125.4495347451133
 30
0.0
 10
61.81517603706357
 20
-125.4931152030017
 30
0.0
 10
61.69666475237098
 20
-125.6221340289243
 30
0.0
 10
61.75833196155695
 20
-125.8154038856468
 30
0.0
 10
61.82068818983997
 20
-126.011085309209
 30
0.0
 10
61.97227239119096
 20
-126.0689629133612
 30
0.0
 10
62.13350285990065
 20
-126.017630990631
 30
0.0
 10
62.31092527739102
 20
-125.9609591698987
 30
0.0
 10
62.37844914890192
 20
-125.8107530067418
 30
0.0
 10
62.3243611497835
 20
-125.6412543088675
 30
0.0
 10
62.25718178782112
 20
-125.4300699556217
 30
0.0
 10
62.07941486078223
 20
-125.4090548731616
 30
0.0
 10
61.95229083737652
 20
-125.4495347451133
 30
0.0
  0
HATCH
  5
16B
330
162
100
AcDbEntity
  8
_U+30EC_U+30A4_U+30E4_U+30FC 1
 62
   179
420
  2234388
100
AcDbHatch
 10
0.0
 20
0.0
 30
0.0
210
0.0
220
0.0
230
1.0
  2
SOLID
 70
     1
 71
     0
 91
        3
 92
        1
 93
        1
 72
     4
 94
        3
 73
     0
 74
     1
 95
       29
 96
       25
 40
0.0
 40
0.0
 40
0.0
 40
0.0
 40
1.0
 40
1.0
 40
1.0
 40
2.0
 40
2.0
 40
2.0
 40
3.0
 40
3.0
 40
3.0
 40
4.0
 40
4.0
 40
4.0
 40
5.0
 40
5.0
 40
5.0
 40
6.0
 40
6.0
 40
6.0
 40
7.0
 40
7.0
 40
7.0
 40
8.0
 40
8.0
 40
8.0
 40
8.0
 10
62.19241399269843
 20
-126.2029771277375
 10
61.93885496498404
 20
-126.2839368716408
 10
61.65497909699945
 20
-126.2301933820709
 10
61.54887015605376
 20
-125.8977416677443
 10
61.47101099808711
 20
-125.6538289073886
 10
61.57711993903281
 20
-125.5201592025609
 10
61.65945772113028
 20
-125.4297254460731
 10
61.52268743036586
 20
-125.4111219304528
 10
61.41520045122606
 20
-125.3255113076443
 10
61.36628009533552
 20
-125.1722045585507
 10
61.28290878459247
 20
-124.9103773016717
 10
61.43104789045821
 20
-124.7207247952087
 10
61.6928751473372
 20
-124.6371812296914
 10
61.96297063338078
 20
-124.5508815877859
 10
62.18827987811613
 20
-124.6301187839466
 10
62.2692396220195
 20
-124.8840223212096
 10
62.31815997791005
 20
-125.0373290703032
 10
62.27854137982968
 20
-125.1699652464853
 10
62.17725557256333
 20
-125.2645331175554
 10
62.2775078511841
 20
-125.2857204547897
 10
62.45768634506266
 20
-125.3280951292583
 10
62.53726805077194
 20
-125.5782090614874
 10
62.6513007113337
 20
-125.9347764442108
 10
62.42047931382196
 20
-126.1302856129987
 10
62.19241399269843
 20
-126.2029771277375
 97
        0
 97
        0
 92
        1
 93
        1
 72
     4
 94
        3
 73
     0
 74
     1
 95
       17
 96
       13
 40
0.0
 40
0.0
 40
0.0
 40
0.0
 40
1.0
 40
1.0
 40
1.0
 40
2.0
 40
2.0
 40
2.0
 40
3.0
 40
3.0
 40
3.0
 40
4.0
 40
4.0
 40
4.0
 40
4.0
 10
61.75144177058645
 20
-124.8208048190552
 10
61.59434541645906
 20
-124.8709309583656
 10
61.54266898418031
 20
-124.9872029309928
 10
61.58401013000331
 20
-125.1160495021411
 10
61.621217161244
 20
-125.2328382390911
 10
61.7259480639956
 20
-125.323961014676
 10
61.89475774277284
 20
-125.2700452703318
 10
62.06425644064714
 20
-125.2159572712134
 10
62.09664033820848
 20
-125.0810817829659
 10
62.05943330696778
 20
-124.9642930460159
 10
62.01809216114479
 20
-124.8354464748675
 10
61.90681557697121
 20
-124.7711954440676
 10
61.75144177058645
 20
-124.8208048190552
 97
        0
 97
        0
 92
        1
 93
        1
 72
     4
 94
        3
 73
     0
 74
     1
 95
       17
 96
       13
 40
0.0
 40
0.0
 40
0.0
 40
0.0
 40
1.0
 40
1.0
 40
1.0
 40
2.0
 40
2.0
 40
2.0
 40
3.0
 40
3.0
 40
3.0
 40
4.0
 40
4.0
 40
4.0
 40
4.0
 10
61.95229083737652
 20
-125.4495347451133
 10
61.81517603706357
 20
-125.4931152030017
 10
61.69666475237098
 20
-125.6221340289243
 10
61.75833196155695
 20
-125.8154038856468
 10
61.82068818983997
 20
-126.011085309209
 10
61.97227239119096
 20
-126.0689629133612
 10
62.13350285990065
 20
-126.017630990631
 10
62.31092527739102
 20
-125.9609591698987
 10
62.37844914890192
 20
-125.8107530067418
 10
62.3243611497835
 20
-125.6412543088675
 10
62.25718178782112
 20
-125.4300699556217
 10
62.07941486078223
 20
-125.4090548731616
 10
61.95229083737652
 20
-125.4495347451133
 97
        0
 97
        0
 75
     2
 76
     1
 98
        0
  0
ENDBLK
  5
165
330
162
100
AcDbEntity
  8
0
100
AcDbBlockEnd
  0
ENDSEC
  0
SECTION
  2
ENTITIES
  0
INSERT
  5
42
330
1F
100
AcDbEntity
  8
_U+30EC_U+30A4_U+30E4_U+30FC 1
100
AcDbBlockReference
  2
block 2
 10
0.0
 20
0.0
 30
0.0
  0
ENDSEC
  0
SECTION
  2
OBJECTS
  0
DICTIONARY
  5
C
330
0
100
AcDbDictionary
281
     1
  3
ACAD_GROUP
350
D
  3
ACAD_LAYOUT
350
1A
  3
ACAD_MATERIAL
350
3B
  3
ACAD_MLEADERSTYLE
350
180
  3
ACAD_MLINESTYLE
350
17
  3
ACAD_PLOTSETTINGS
350
19
  3
ACAD_PLOTSTYLENAME
350
E
  3
ACAD_TABLESTYLE
350
17F
  3
ACAD_VISUALSTYLE
350
2A
  0
SUN
  5
3F
330
29
100
AcDbSun
 90
        1
290
     0
 63
     7
421
 16777215
 40
1.0
291
     1
 91
  2455826
 92
 54000000
292
     0
 70
     2
 71
   256
280
     1
  0
DICTIONARY
  5
D
102
{ACAD_REACTORS
330
C
102
}
330
C
100
AcDbDictionary
281
     1
  0
DICTIONARY
  5
1A
102
{ACAD_REACTORS
330
C
102
}
330
C
100
AcDbDictionary
281
     1
  3
Layout1
350
1E
  3
Layout2
350
26
  3
Model
350
22
  0
DICTIONARY
  5
3B
102
{ACAD_REACTORS
330
C
102
}
330
C
100
AcDbDictionary
281
     1
  3
ByBlock
350
3D
  3
ByLayer
350
3C
  3
Global
350
3E
  0
DICTIONARY
  5
180
102
{ACAD_REACTORS
330
C
102
}
330
C
100
AcDbDictionary
281
     1
  0
DICTIONARY
  5
17
102
{ACAD_REACTORS
330
C
102
}
330
C
100
AcDbDictionary
281
     1
  3
Standard
350
18
  0
DICTIONARY
  5
19
102
{ACAD_REACTORS
330
C
102
}
330
C
100
AcDbDictionary
281
     1
  0
ACDBDICTIONARYWDFLT
  5
E
102
{ACAD_REACTORS
330
C
102
}
330
C
100
AcDbDictionary
281
     1
  3
Normal
350
F
100
AcDbDictionaryWithDefault
340
F
  0
DICTIONARY
  5
17F
102
{ACAD_REACTORS
330
C
102
}
330
C
100
AcDbDictionary
281
     1
  0
DICTIONARY
  5
2A
102
{ACAD_REACTORS
330
C
102
}
330
C
100
AcDbDictionary
281
     1
  3
2dWireframe
350
2F
  3
3D Hidden
350
31
  3
3dWireframe
350
30
  3
Basic
350
32
  3
Brighten
350
36
  3
ColorChange
350
3A
  3
Conceptual
350
34
  3
Dim
350
35
  3
Facepattern
350
39
  3
Flat
350
2B
  3
FlatWithEdges
350
2C
  3
Gouraud
350
2D
  3
GouraudWithEdges
350
2E
  3
Linepattern
350
38
  3
Realistic
350
33
  3
Thicken
350
37
  0
LAYOUT
  5
1E
102
{ACAD_REACTORS
330
1A
102
}
330
1A
100
AcDbPlotSettings
  1

  2
none_device
  4

  6

 40
0.0
 41
0.0
 42
0.0
 43
0.0
 44
0.0
 45
0.0
 46
0.0
 47
0.0
 48
0.0
 49
0.0
140
0.0
141
0.0
142
1.0
143
1.0
 70
   688
 72
     0
 73
     0
 74
     5
  7

 75
    16
 76
     0
 77
     2
 78
   300
147
1.0
148
0.0
149
0.0
100
AcDbLayout
  1
Layout1
 70
     1
 71
     1
 10
0.0
 20
0.0
 11
12.0
 21
9.0
 12
0.0
 22
0.0
 32
0.0
 14
1.000000000000000E+20
 24
1.000000000000000E+20
 34
1.000000000000000E+20
 15
-1.000000000000000E+20
 25
-1.000000000000000E+20
 35
-1.000000000000000E+20
146
0.0
 13
0.0
 23
0.0
 33
0.0
 16
1.0
 26
0.0
 36
0.0
 17
0.0
 27
1.0
 37
0.0
 76
     0
330
1B
  0
LAYOUT
  5
26
102
{ACAD_REACTORS
330
1A
102
}
330
1A
100
AcDbPlotSettings
  1

  2
none_device
  4

  6

 40
0.0
 41
0.0
 42
0.0
 43
0.0
 44
0.0
 45
0.0
 46
0.0
 47
0.0
 48
0.0
 49
0.0
140
0.0
141
0.0
142
1.0
143
1.0
 70
   688
 72
     0
 73
     0
 74
     5
  7

 75
    16
 76
     0
 77
     2
 78
   300
147
1.0
148
0.0
149
0.0
100
AcDbLayout
  1
Layout2
 70
     1
 71
     2
 10
0.0
 20
0.0
 11
0.0
 21
0.0
 12
0.0
 22
0.0
 32
0.0
 14
0.0
 24
0.0
 34
0.0
 15
0.0
 25
0.0
 35
0.0
146
0.0
 13
0.0
 23
0.0
 33
0.0
 16
1.0
 26
0.0
 36
0.0
 17
0.0
 27
1.0
 37
0.0
 76
     0
330
23
  0
LAYOUT
  5
22
102
{ACAD_REACTORS
330
1A
102
}
330
1A
100
AcDbPlotSettings
  1

  2
none_device
  4

  6

 40
0.0
 41
0.0
 42
0.0
 43
0.0
 44
0.0
 45
0.0
 46
0.0
 47
0.0
 48
0.0
 49
0.0
140
0.0
141
0.0
142
1.0
143
1.0
 70
  1712
 72
     0
 73
     0
 74
     0
  7

 75
     0
 76
     0
 77
     2
 78
   300
147
1.0
148
0.0
149
0.0
100
AcDbLayout
  1
Model
 70
     1
 71
     0
 10
0.0
 20
0.0
 11
12.0
 21
9.0
 12
0.0
 22
0.0
 32
0.0
 14
1.000000000000000E+20
 24
1.000000000000000E+20
 34
1.000000000000000E+20
 15
-1.000000000000000E+20
 25
-1.000000000000000E+20
 35
-1.000000000000000E+20
146
0.0
 13
0.0
 23
0.0
 33
0.0
 16
1.0
 26
0.0
 36
0.0
 17
0.0
 27
1.0
 37
0.0
 76
     0
330
1F
331
29
  0
MATERIAL
  5
3D
102
{ACAD_REACTORS
330
3B
102
}
330
3B
100
AcDbMaterial
  1
ByBlock
 72
     1
 94
      127
  0
MATERIAL
  5
3C
102
{ACAD_REACTORS
330
3B
102
}
330
3B
100
AcDbMaterial
  1
ByLayer
 72
     1
 94
      127
  0
MATERIAL
  5
3E
102
{ACAD_REACTORS
330
3B
102
}
330
3B
100
AcDbMaterial
  1
Global
 72
     1
 94
      127
  0
MLINESTYLE
  5
18
102
{ACAD_REACTORS
330
17
102
}
330
17
100
AcDbMlineStyle
  2
Standard
 70
     0
  3

 62
   256
 51
90.0
 52
90.0
 71
     2
 49
0.5
 62
   256
  6
BYLAYER
 49
-0.5
 62
   256
  6
BYLAYER
  0
ACDBPLACEHOLDER
  5
F
102
{ACAD_REACTORS
330
E
102
}
330
E
  0
VISUALSTYLE
  5
2F
102
{ACAD_REACTORS
330
2A
102
}
330
2A
100
AcDbVisualStyle
  2
2dWireframe
 70
     4
177
     2
291
     0
 71
     0
176
     1
 72
     2
176
     1
 73
     0
176
     1
 90
        0
176
     1
 40
-0.6
176
     1
 41
-30.0
176
     1
 62
     5
 63
     7
421
 16777215
176
     1
 74
     1
176
     1
 91
        4
176
     1
 64
     7
176
     1
 65
   257
176
     1
 75
     1
176
     1
175
     1
176
     1
 42
1.0
176
     1
 92
        0
176
     1
 66
   257
176
     1
 43
1.0
176
     1
 76
     1
176
     1
 77
     6
176
     1
 78
     2
176
     1
 67
     7
176
     1
 79
     5
176
     1
170
     0
176
     1
171
     0
176
     1
290
     0
176
     1
 93
        1
176
     1
 44
0.0
176
     1
173
     0
176
     1
  0
VISUALSTYLE
  5
31
102
{ACAD_REACTORS
330
2A
102
}
330
2A
100
AcDbVisualStyle
  2
3D Hidden
 70
     6
177
     2
291
     0
 71
     1
176
     1
 72
     2
176
     1
 73
     2
176
     1
 90
        0
176
     1
 40
-0.6
176
     1
 41
-30.0
176
     1
 62
     5
 63
     7
421
 16777215
176
     1
 74
     2
176
     1
 91
        2
176
     1
 64
     7
176
     1
 65
   257
176
     1
 75
     2
176
     1
175
     1
176
     1
 42
40.0
176
     1
 92
        0
176
     1
 66
   257
176
     1
 43
1.0
176
     1
 76
     1
176
     1
 77
     6
176
     1
 78
     2
176
     1
 67
     7
176
     1
 79
     3
176
     1
170
     0
176
     1
171
     0
176
     1
290
     0
176
     1
 93
        1
176
     1
 44
0.0
176
     1
173
     0
176
     1
  0
VISUALSTYLE
  5
30
102
{ACAD_REACTORS
330
2A
102
}
330
2A
100
AcDbVisualStyle
  2
3dWireframe
 70
     5
177
     2
291
     0
 71
     0
176
     1
 72
     2
176
     1
 73
     0
176
     1
 90
        0
176
     1
 40
-0.6
176
     1
 41
-30.0
176
     1
 62
     5
 63
     7
421
 16777215
176
     1
 74
     1
176
     1
 91
        4
176
     1
 64
     7
176
     1
 65
   257
176
     1
 75
     1
176
     1
175
     1
176
     1
 42
1.0
176
     1
 92
        0
176
     1
 66
   257
176
     1
 43
1.0
176
     1
 76
     1
176
     1
 77
     6
176
     1
 78
     2
176
     1
 67
     7
176
     1
 79
     5
176
     1
170
     0
176
     1
171
     0
176
     1
290
     0
176
     1
 93
        1
176
     1
 44
0.0
176
     1
173
     0
176
     1
  0
VISUALSTYLE
  5
32
102
{ACAD_REACTORS
330
2A
102
}
330
2A
100
AcDbVisualStyle
  2
Basic
 70
     7
177
     2
291
     1
 71
     1
176
     1
 72
     0
176
     1
 73
     1
176
     1
 90
        0
176
     1
 40
-0.6
176
     1
 41
-30.0
176
     1
 62
     5
 63
     7
421
 16777215
176
     1
 74
     0
176
     1
 91
        4
176
     1
 64
     7
176
     1
 65
   257
176
     1
 75
     1
176
     1
175
     1
176
     1
 42
1.0
176
     1
 92
        8
176
     1
 66
     7
176
     1
 43
1.0
176
     1
 76
     1
176
     1
 77
     6
176
     1
 78
     2
176
     1
 67
     7
176
     1
 79
     5
176
     1
170
     0
176
     1
171
     0
176
     1
290
     0
176
     1
 93
        1
176
     1
 44
0.0
176
     1
173
     0
176
     1
  0
VISUALSTYLE
  5
36
102
{ACAD_REACTORS
330
2A
102
}
330
2A
100
AcDbVisualStyle
  2
Brighten
 70
    12
177
     2
291
     1
 71
     2
176
     1
 72
     2
176
     1
 73
     0
176
     1
 90
        0
176
     1
 40
-0.6
176
     1
 41
-30.0
176
     1
 62
     5
 63
     7
421
 16777215
176
     1
 74
     1
176
     1
 91
        4
176
     1
 64
     7
176
     1
 65
   257
176
     1
 75
     1
176
     1
175
     1
176
     1
 42
1.0
176
     1
 92
        8
176
     1
 66
     7
176
     1
 43
1.0
176
     1
 76
     1
176
     1
 77
     6
176
     1
 78
     2
176
     1
 67
     7
176
     1
 79
     5
176
     1
170
     0
176
     1
171
     0
176
     1
290
     0
176
     1
 93
        1
176
     1
 44
50.0
176
     1
173
     0
176
     1
  0
VISUALSTYLE
  5
3A
102
{ACAD_REACTORS
330
2A
102
}
330
2A
100
AcDbVisualStyle
  2
ColorChange
 70
    16
177
     2
291
     1
 71
     2
176
     1
 72
     2
176
     1
 73
     3
176
     1
 90
        0
176
     1
 40
-0.6
176
     1
 41
-30.0
176
     1
 62
     5
 63
     8
421
  8421504
176
     1
 74
     1
176
     1
 91
        4
176
     1
 64
     7
176
     1
 65
   257
176
     1
 75
     1
176
     1
175
     1
176
     1
 42
1.0
176
     1
 92
        8
176
     1
 66
     8
424
  8421504
176
     1
 43
1.0
176
     1
 76
     1
176
     1
 77
     6
176
     1
 78
     2
176
     1
 67
     7
176
     1
 79
     5
176
     1
170
     0
176
     1
171
     0
176
     1
290
     0
176
     1
 93
        1
176
     1
 44
0.0
176
     1
173
     0
176
     1
  0
VISUALSTYLE
  5
34
102
{ACAD_REACTORS
330
2A
102
}
330
2A
100
AcDbVisualStyle
  2
Conceptual
 70
     9
177
     2
291
     0
 71
     3
176
     1
 72
     2
176
     1
 73
     0
176
     1
 90
        0
176
     1
 40
-0.6
176
     1
 41
-30.0
176
     1
 62
     5
 63
     7
421
 16777215
176
     1
 74
     2
176
     1
 91
        2
176
     1
 64
     7
176
     1
 65
   257
176
     1
 75
     1
176
     1
175
     1
176
     1
 42
40.0
176
     1
 92
        8
176
     1
 66
     7
176
     1
 43
1.0
176
     1
 76
     1
176
     1
 77
     6
176
     1
 78
     2
176
     1
 67
     7
176
     1
 79
     3
176
     1
170
     0
176
     1
171
     0
176
     1
290
     0
176
     1
 93
        1
176
     1
 44
0.0
176
     1
173
     0
176
     1
  0
VISUALSTYLE
  5
35
102
{ACAD_REACTORS
330
2A
102
}
330
2A
100
AcDbVisualStyle
  2
Dim
 70
    11
177
     2
291
     1
 71
     2
176
     1
 72
     2
176
     1
 73
     0
176
     1
 90
        0
176
     1
 40
-0.6
176
     1
 41
-30.0
176
     1
 62
     5
 63
     7
421
 16777215
176
     1
 74
     1
176
     1
 91
        4
176
     1
 64
     7
176
     1
 65
   257
176
     1
 75
     1
176
     1
175
     1
176
     1
 42
1.0
176
     1
 92
        8
176
     1
 66
     7
176
     1
 43
1.0
176
     1
 76
     1
176
     1
 77
     6
176
     1
 78
     2
176
     1
 67
     7
176
     1
 79
     5
176
     1
170
     0
176
     1
171
     0
176
     1
290
     0
176
     1
 93
        1
176
     1
 44
-50.0
176
     1
173
     0
176
     1
  0
VISUALSTYLE
  5
39
102
{ACAD_REACTORS
330
2A
102
}
330
2A
100
AcDbVisualStyle
  2
Facepattern
 70
    15
177
     2
291
     1
 71
     2
176
     1
 72
     2
176
     1
 73
     0
176
     1
 90
        0
176
     1
 40
-0.6
176
     1
 41
-30.0
176
     1
 62
     5
 63
     7
421
 16777215
176
     1
 74
     1
176
     1
 91
        4
176
     1
 64
     7
176
     1
 65
   257
176
     1
 75
     1
176
     1
175
     1
176
     1
 42
1.0
176
     1
 92
        8
176
     1
 66
     7
176
     1
 43
1.0
176
     1
 76
     1
176
     1
 77
     6
176
     1
 78
     2
176
     1
 67
     7
176
     1
 79
     5
176
     1
170
     0
176
     1
171
     0
176
     1
290
     0
176
     1
 93
        1
176
     1
 44
0.0
176
     1
173
     0
176
     1
  0
VISUALSTYLE
  5
2B
102
{ACAD_REACTORS
330
2A
102
}
330
2A
100
AcDbVisualStyle
  2
Flat
 70
     0
177
     2
291
     1
 71
     2
176
     1
 72
     1
176
     1
 73
     1
176
     1
 90
        2
176
     1
 40
-0.6
176
     1
 41
30.0
176
     1
 62
     5
 63
     7
421
 16777215
176
     1
 74
     0
176
     1
 91
        4
176
     1
 64
     7
176
     1
 65
   257
176
     1
 75
     1
176
     1
175
     1
176
     1
 42
1.0
176
     1
 92
        8
176
     1
 66
     7
176
     1
 43
1.0
176
     1
 76
     1
176
     1
 77
     6
176
     1
 78
     2
176
     1
 67
     7
176
     1
 79
     5
176
     1
170
     0
176
     1
171
     0
176
     1
290
     0
176
     1
 93
       13
176
     1
 44
0.0
176
     1
173
     0
176
     1
  0
VISUALSTYLE
  5
2C
102
{ACAD_REACTORS
330
2A
102
}
330
2A
100
AcDbVisualStyle
  2
FlatWithEdges
 70
     1
177
     2
291
     1
 71
     2
176
     1
 72
     1
176
     1
 73
     1
176
     1
 90
        2
176
     1
 40
-0.6
176
     1
 41
30.0
176
     1
 62
     5
 63
     7
421
 16777215
176
     1
 74
     1
176
     1
 91
        4
176
     1
 64
     7
176
     1
 65
   257
176
     1
 75
     1
176
     1
175
     1
176
     1
 42
1.0
176
     1
 92
        0
176
     1
 66
   257
176
     1
 43
1.0
176
     1
 76
     1
176
     1
 77
     6
176
     1
 78
     2
176
     1
 67
     7
176
     1
 79
     5
176
     1
170
     0
176
     1
171
     0
176
     1
290
     0
176
     1
 93
       13
176
     1
 44
0.0
176
     1
173
     0
176
     1
  0
VISUALSTYLE
  5
2D
102
{ACAD_REACTORS
330
2A
102
}
330
2A
100
AcDbVisualStyle
  2
Gouraud
 70
     2
177
     2
291
     1
 71
     2
176
     1
 72
     2
176
     1
 73
     1
176
     1
 90
        2
176
     1
 40
-0.6
176
     1
 41
30.0
176
     1
 62
     5
 63
     7
421
 16777215
176
     1
 74
     0
176
     1
 91
        4
176
     1
 64
     7
176
     1
 65
   257
176
     1
 75
     1
176
     1
175
     1
176
     1
 42
1.0
176
     1
 92
        0
176
     1
 66
     7
176
     1
 43
1.0
176
     1
 76
     1
176
     1
 77
     6
176
     1
 78
     2
176
     1
 67
     7
176
     1
 79
     5
176
     1
170
     0
176
     1
171
     0
176
     1
290
     0
176
     1
 93
       13
176
     1
 44
0.0
176
     1
173
     0
176
     1
  0
VISUALSTYLE
  5
2E
102
{ACAD_REACTORS
330
2A
102
}
330
2A
100
AcDbVisualStyle
  2
GouraudWithEdges
 70
     3
177
     2
291
     1
 71
     2
176
     1
 72
     2
176
     1
 73
     1
176
     1
 90
        2
176
     1
 40
-0.6
176
     1
 41
30.0
176
     1
 62
     5
 63
     7
421
 16777215
176
     1
 74
     1
176
     1
 91
        4
176
     1
 64
     7
176
     1
 65
   257
176
     1
 75
     1
176
     1
175
     1
176
     1
 42
1.0
176
     1
 92
        0
176
     1
 66
   257
176
     1
 43
1.0
176
     1
 76
     1
176
     1
 77
     6
176
     1
 78
     2
176
     1
 67
     7
176
     1
 79
     5
176
     1
170
     0
176
     1
171
     0
176
     1
290
     0
176
     1
 93
       13
176
     1
 44
0.0
176
     1
173
     0
176
     1
  0
VISUALSTYLE
  5
38
102
{ACAD_REACTORS
330
2A
102
}
330
2A
100
AcDbVisualStyle
  2
Linepattern
 70
    14
177
     2
291
     1
 71
     2
176
     1
 72
     2
176
     1
 73
     0
176
     1
 90
        0
176
     1
 40
-0.6
176
     1
 41
-30.0
176
     1
 62
     5
 63
     7
421
 16777215
176
     1
 74
     1
176
     1
 91
        4
176
     1
 64
     7
176
     1
 65
   257
176
     1
 75
     7
176
     1
175
     7
176
     1
 42
1.0
176
     1
 92
        8
176
     1
 66
     7
176
     1
 43
1.0
176
     1
 76
     1
176
     1
 77
     6
176
     1
 78
     2
176
     1
 67
     7
176
     1
 79
     5
176
     1
170
     0
176
     1
171
     0
176
     1
290
     0
176
     1
 93
        1
176
     1
 44
0.0
176
     1
173
     0
176
     1
  0
VISUALSTYLE
  5
33
102
{ACAD_REACTORS
330
2A
102
}
330
2A
100
AcDbVisualStyle
  2
Realistic
 70
     8
177
     2
291
     0
 71
     2
176
     1
 72
     2
176
     1
 73
     0
176
     1
 90
        0
176
     1
 40
-0.6
176
     1
 41
-30.0
176
     1
 62
     5
 63
     7
421
 16777215
176
     1
 74
     1
176
     1
 91
        0
176
     1
 64
     7
176
     1
 65
   257
176
     1
 75
     1
176
     1
175
     1
176
     1
 42
1.0
176
     1
 92
        8
176
     1
 66
     8
424
  7895160
176
     1
 43
1.0
176
     1
 76
     1
176
     1
 77
     6
176
     1
 78
     2
176
     1
 67
     7
176
     1
 79
     5
176
     1
170
     0
176
     1
171
     0
176
     1
290
     0
176
     1
 93
       13
176
     1
 44
0.0
176
     1
173
     0
176
     1
  0
VISUALSTYLE
  5
37
102
{ACAD_REACTORS
330
2A
102
}
330
2A
100
AcDbVisualStyle
  2
Thicken
 70
    13
177
     2
291
     1
 71
     2
176
     1
 72
     2
176
     1
 73
     0
176
     1
 90
        0
176
     1
 40
-0.6
176
     1
 41
-30.0
176
     1
 62
     5
 63
     7
421
 16777215
176
     1
 74
     1
176
     1
 91
        4
176
     1
 64
     7
176
     1
 65
   257
176
     1
 75
     1
176
     1
175
     1
176
     1
 42
1.0
176
     1
 92
       12
176
     1
 66
     7
176
     1
 43
1.0
176
     1
 76
     1
176
     1
 77
     6
176
     1
 78
     2
176
     1
 67
     7
176
     1
 79
     5
176
     1
170
     0
176
     1
171
     0
176
     1
290
     0
176
     1
 93
        1
176
     1
 44
0.0
176
     1
173
     0
176
     1
  0
ENDSEC
  0
EOF
