  0
SECTION
  2
HEADER
  9
$ACADVER
  1
AC1024
  9
$ACADMAINTVER
 70
     6
  9
$DWGCODEPAGE
  3
UNDEFINED
  9
$INSBASE
 10
0.0
 20
0.0
 30
0.0
  9
$EXTMIN
 10
1.000000000000000E+20
 20
1.000000000000000E+20
 30
1.000000000000000E+20
  9
$EXTMAX
 10
-1.000000000000000E+20
 20
-1.000000000000000E+20
 30
-1.000000000000000E+20
  9
$LIMMIN
 10
0.0
 20
0.0
  9
$LIMMAX
 10
12.0
 20
9.0
  9
$ORTHOMODE
 70
     0
  9
$REGENMODE
 70
     1
  9
$FILLMODE
 70
     1
  9
$QTEXTMODE
 70
     0
  9
$MIRRTEXT
 70
     1
  9
$LTSCALE
 40
1.0
  9
$ATTMODE
 70
     1
  9
$TEXTSIZE
 40
0.2
  9
$TRACEWID
 40
0.05
  9
$TEXTSTYLE
  7
Standard
  9
$CLAYER
  8
0
  9
$CELTYPE
  6
ByLayer
  9
$CECOLOR
 62
   256
  9
$CELTSCALE
 40
1.0
  9
$DISPSILH
 70
     0
  9
$DIMSCALE
 40
1.0
  9
$DIMASZ
 40
0.18
  9
$DIMEXO
 40
0.0625
  9
$DIMDLI
 40
0.38
  9
$DIMRND
 40
0.0
  9
$DIMDLE
 40
0.0
  9
$DIMEXE
 40
0.18
  9
$DIMTP
 40
0.0
  9
$DIMTM
 40
0.0
  9
$DIMTXT
 40
0.18
  9
$DIMCEN
 40
0.09
  9
$DIMTSZ
 40
0.0
  9
$DIMTOL
 70
     0
  9
$DIMLIM
 70
     0
  9
$DIMTIH
 70
     1
  9
$DIMTOH
 70
     1
  9
$DIMSE1
 70
     0
  9
$DIMSE2
 70
     0
  9
$DIMTAD
 70
     0
  9
$DIMZIN
 70
     0
  9
$DIMBLK
  1

  9
$DIMASO
 70
     1
  9
$DIMSHO
 70
     1
  9
$DIMPOST
  1

  9
$DIMAPOST
  1

  9
$DIMALT
 70
     0
  9
$DIMALTD
 70
     2
  9
$DIMALTF
 40
25.4
  9
$DIMLFAC
 40
1.0
  9
$DIMTOFL
 70
     0
  9
$DIMTVP
 40
0.0
  9
$DIMTIX
 70
     0
  9
$DIMSOXD
 70
     0
  9
$DIMSAH
 70
     0
  9
$DIMBLK1
  1

  9
$DIMBLK2
  1

  9
$DIMSTYLE
  2
Standard
  9
$DIMCLRD
 70
     0
  9
$DIMCLRE
 70
     0
  9
$DIMCLRT
 70
     0
  9
$DIMTFAC
 40
1.0
  9
$DIMGAP
 40
0.09
  9
$DIMJUST
 70
     0
  9
$DIMSD1
 70
     0
  9
$DIMSD2
 70
     0
  9
$DIMTOLJ
 70
     1
  9
$DIMTZIN
 70
     0
  9
$DIMALTZ
 70
     0
  9
$DIMALTTZ
 70
     0
  9
$DIMUPT
 70
     0
  9
$DIMDEC
 70
     4
  9
$DIMTDEC
 70
     4
  9
$DIMALTU
 70
     2
  9
$DIMALTTD
 70
     2
  9
$DIMTXSTY
  7
Standard
  9
$DIMAUNIT
 70
     0
  9
$DIMADEC
 70
     0
  9
$DIMALTRND
 40
0.0
  9
$DIMAZIN
 70
     0
  9
$DIMDSEP
 70
    46
  9
$DIMATFIT
 70
     3
  9
$DIMFRAC
 70
     0
  9
$DIMLDRBLK
  1

  9
$DIMLUNIT
 70
     2
  9
$DIMLWD
 70
    -2
  9
$DIMLWE
 70
    -2
  9
$DIMTMOVE
 70
     0
  9
$DIMFXL
 40
1.0
  9
$DIMFXLON
 70
     0
  9
$DIMJOGANG
 40
0.7853981633974483
  9
$DIMTFILL
 70
     0
  9
$DIMTFILLCLR
 70
     0
  9
$DIMARCSYM
 70
     0
  9
$DIMLTYPE
  6

  9
$DIMLTEX1
  6

  9
$DIMLTEX2
  6

  9
$DIMTXTDIRECTION
 70
     0
  9
$LUNITS
 70
     2
  9
$LUPREC
 70
     4
  9
$SKETCHINC
 40
0.1
  9
$FILLETRAD
 40
0.5
  9
$AUNITS
 70
     0
  9
$AUPREC
 70
     0
  9
$MENU
  1
.
  9
$ELEVATION
 40
0.0
  9
$PELEVATION
 40
0.0
  9
$THICKNESS
 40
0.0
  9
$LIMCHECK
 70
     0
  9
$CHAMFERA
 40
0.5
  9
$CHAMFERB
 40
0.5
  9
$CHAMFERC
 40
1.0
  9
$CHAMFERD
 40
0.0
  9
$SKPOLY
 70
     0
  9
$TDCREATE
 40
2457917.585578704
  9
$TDUCREATE
 40
2457917.210578704
  9
$TDUPDATE
 40
2457917.585578704
  9
$TDUUPDATE
 40
2457917.210578704
  9
$TDINDWG
 40
0.0000000116
  9
$TDUSRTIMER
 40
0.0000000116
  9
$USRTIMER
 70
     1
  9
$ANGBASE
 50
0.0
  9
$ANGDIR
 70
     0
  9
$PDMODE
 70
     0
  9
$PDSIZE
 40
0.0
  9
$PLINEWID
 40
0.0
  9
$SPLFRAME
 70
     0
  9
$SPLINETYPE
 70
     6
  9
$SPLINESEGS
 70
     8
  9
$HANDSEED
  5
E6
  9
$SURFTAB1
 70
     6
  9
$SURFTAB2
 70
     6
  9
$SURFTYPE
 70
     6
  9
$SURFU
 70
     6
  9
$SURFV
 70
     6
  9
$UCSBASE
  2

  9
$UCSNAME
  2

  9
$UCSORG
 10
0.0
 20
0.0
 30
0.0
  9
$UCSXDIR
 10
1.0
 20
0.0
 30
0.0
  9
$UCSYDIR
 10
0.0
 20
1.0
 30
0.0
  9
$UCSORTHOREF
  2

  9
$UCSORTHOVIEW
 70
     0
  9
$UCSORGTOP
 10
0.0
 20
0.0
 30
0.0
  9
$UCSORGBOTTOM
 10
0.0
 20
0.0
 30
0.0
  9
$UCSORGLEFT
 10
0.0
 20
0.0
 30
0.0
  9
$UCSORGRIGHT
 10
0.0
 20
0.0
 30
0.0
  9
$UCSORGFRONT
 10
0.0
 20
0.0
 30
0.0
  9
$UCSORGBACK
 10
0.0
 20
0.0
 30
0.0
  9
$PUCSBASE
  2

  9
$PUCSNAME
  2

  9
$PUCSORG
 10
0.0
 20
0.0
 30
0.0
  9
$PUCSXDIR
 10
1.0
 20
0.0
 30
0.0
  9
$PUCSYDIR
 10
0.0
 20
1.0
 30
0.0
  9
$PUCSORTHOREF
  2

  9
$PUCSORTHOVIEW
 70
     0
  9
$PUCSORGTOP
 10
0.0
 20
0.0
 30
0.0
  9
$PUCSORGBOTTOM
 10
0.0
 20
0.0
 30
0.0
  9
$PUCSORGLEFT
 10
0.0
 20
0.0
 30
0.0
  9
$PUCSORGRIGHT
 10
0.0
 20
0.0
 30
0.0
  9
$PUCSORGFRONT
 10
0.0
 20
0.0
 30
0.0
  9
$PUCSORGBACK
 10
0.0
 20
0.0
 30
0.0
  9
$USERI1
 70
     0
  9
$USERI2
 70
     0
  9
$USERI3
 70
     0
  9
$USERI4
 70
     0
  9
$USERI5
 70
     0
  9
$USERR1
 40
0.0
  9
$USERR2
 40
0.0
  9
$USERR3
 40
0.0
  9
$USERR4
 40
0.0
  9
$USERR5
 40
0.0
  9
$WORLDVIEW
 70
     1
  9
$SHADEDGE
 70
     3
  9
$SHADEDIF
 70
    70
  9
$TILEMODE
 70
     1
  9
$MAXACTVP
 70
    64
  9
$PINSBASE
 10
0.0
 20
0.0
 30
0.0
  9
$PLIMCHECK
 70
     0
  9
$PEXTMIN
 10
1.000000000000000E+20
 20
1.000000000000000E+20
 30
1.000000000000000E+20
  9
$PEXTMAX
 10
-1.000000000000000E+20
 20
-1.000000000000000E+20
 30
-1.000000000000000E+20
  9
$PLIMMIN
 10
0.0
 20
0.0
  9
$PLIMMAX
 10
12.0
 20
9.0
  9
$UNITMODE
 70
     0
  9
$VISRETAIN
 70
     1
  9
$PLINEGEN
 70
     0
  9
$PSLTSCALE
 70
     1
  9
$TREEDEPTH
 70
  3020
  9
$CMLSTYLE
  2
Standard
  9
$CMLJUST
 70
     0
  9
$CMLSCALE
 40
1.0
  9
$PROXYGRAPHICS
 70
     1
  9
$MEASUREMENT
 70
     0
  9
$CELWEIGHT
370
    -1
  9
$ENDCAPS
280
     0
  9
$JOINSTYLE
280
     0
  9
$LWDISPLAY
290
     1
  9
$INSUNITS
 70
     1
  9
$HYPERLINKBASE
  1

  9
$STYLESHEET
  1

  9
$XEDIT
290
     1
  9
$CEPSNTYPE
380
     0
  9
$PSTYLEMODE
290
     1
  9
$FINGERPRINTGUID
  2
{735C9601-DF16-0489-EE9E-880BB9830465}
  9
$VERSIONGUID
  2
{FAEB1C32-E019-11D5-929B-00C0DF256EC4}
  9
$EXTNAMES
290
     1
  9
$PSVPSCALE
 40
0.0
  9
$OLESTARTUP
290
     0
  9
$SORTENTS
280
   127
  9
$INDEXCTL
280
     0
  9
$HIDETEXT
280
     1
  9
$XCLIPFRAME
280
     2
  9
$HALOGAP
280
     0
  9
$OBSCOLOR
 70
   257
  9
$OBSLTYPE
280
     0
  9
$INTERSECTIONDISPLAY
280
     0
  9
$INTERSECTIONCOLOR
 70
   257
  9
$DIMASSOC
280
     2
  9
$PROJECTNAME
  1

  9
$CAMERADISPLAY
290
     0
  9
$LENSLENGTH
 40
50.0
  9
$CAMERAHEIGHT
 40
0.0
  9
$STEPSPERSEC
 40
2.0
  9
$STEPSIZE
 40
6.0
  9
$3DDWFPREC
 40
2.0
  9
$PSOLWIDTH
 40
0.25
  9
$PSOLHEIGHT
 40
4.0
  9
$LOFTANG1
 40
1.570796326794897
  9
$LOFTANG2
 40
1.570796326794897
  9
$LOFTMAG1
 40
0.0
  9
$LOFTMAG2
 40
0.0
  9
$LOFTPARAM
 70
     7
  9
$LOFTNORMALS
280
     1
  9
$LATITUDE
 40
37.795
  9
$LONGITUDE
 40
-122.394
  9
$NORTHDIRECTION
 40
0.0
  9
$TIMEZONE
 70
 -8000
  9
$LIGHTGLYPHDISPLAY
280
     1
  9
$TILEMODELIGHTSYNCH
280
     1
  9
$CMATERIAL
347
3C
  9
$SOLIDHIST
280
     1
  9
$SHOWHIST
280
     1
  9
$DWFFRAME
280
     2
  9
$DGNFRAME
280
     2
  9
$REALWORLDSCALE
290
     1
  9
$INTERFERECOLOR
 62
   256
  9
$CSHADOW
280
     0
  9
$SHADOWPLANELOCATION
 40
0.0
  0
ENDSEC
  0
SECTION
  2
CLASSES
  0
CLASS
  1
ACDBDICTIONARYWDFLT
  2
AcDbDictionaryWithDefault
  3
ObjectDBX Classes
 90
        0
 91
        4
280
     0
281
     0
  0
CLASS
  1
VISUALSTYLE
  2
AcDbVisualStyle
  3
ObjectDBX Classes
 90
     4095
 91
        4
280
     0
281
     0
  0
CLASS
  1
MATERIAL
  2
AcDbMaterial
  3
ObjectDBX Classes
 90
     1153
 91
        4
280
     0
281
     0
  0
CLASS
  1
SUN
  2
AcDbSun
  3
SCENEOE
 90
     1024
 91
        4
280
     0
281
     0
  0
ENDSEC
  0
SECTION
  2
TABLES
  0
TABLE
  2
VPORT
  5
8
330
0
100
AcDbSymbolTable
 70
     1
  0
VPORT
  5
29
330
8
100
AcDbSymbolTableRecord
100
AcDbViewportTableRecord
  2
*Active
 70
     0
 10
0.0
 20
0.0
 11
1.0
 21
1.0
 12
0.0
 22
0.0
 13
0.0
 23
0.0
 14
0.5
 24
0.5
 15
0.5
 25
0.5
 16
0.0
 26
0.0
 36
1.0
 17
91.00082462281999
 27
-128.4993055234307
 37
0.0
 40
256.9986110468615
 41
0.7081814508812795
 42
50.0
 43
0.0
 44
0.0
 50
0.0
 51
0.0
 71
     0
 72
   100
 73
     1
 74
     3
 75
     0
 76
     0
 77
     0
 78
     0
281
     0
 65
     1
110
0.0
120
0.0
130
0.0
111
1.0
121
0.0
131
0.0
112
0.0
122
1.0
132
0.0
 79
     0
146
0.0
 60
     3
 61
     5
292
     1
282
     1
141
0.0
142
0.0
 63
   250
361
3F
  0
ENDTAB
  0
TABLE
  2
LTYPE
  5
5
330
0
100
AcDbSymbolTable
 70
     1
  0
LTYPE
  5
14
330
5
100
AcDbSymbolTableRecord
100
AcDbLinetypeTableRecord
  2
ByBlock
 70
     0
  3

 72
    65
 73
     0
 40
0.0
  0
LTYPE
  5
15
330
5
100
AcDbSymbolTableRecord
100
AcDbLinetypeTableRecord
  2
ByLayer
 70
     0
  3

 72
    65
 73
     0
 40
0.0
  0
LTYPE
  5
16
330
5
100
AcDbSymbolTableRecord
100
AcDbLinetypeTableRecord
  2
Continuous
 70
     0
  3
Solid line
 72
    65
 73
     0
 40
0.0
  0
ENDTAB
  0
TABLE
  2
LAYER
  5
2
330
0
100
AcDbSymbolTable
 70
     2
  0
LAYER
  5
10
330
2
100
AcDbSymbolTableRecord
100
AcDbLayerTableRecord
  2
0
 70
     0
 62
     7
  6
Continuous
370
    -3
390
F
347
3E
  0
LAYER
  5
40
330
2
100
AcDbSymbolTableRecord
100
AcDbLayerTableRecord
  2
_U+30EC_U+30A4_U+30E4_U+30FC 1
 70
     0
 62
     7
  6
Continuous
370
    -3
390
F
347
3E
  0
ENDTAB
  0
TABLE
  2
STYLE
  5
3
330
0
100
AcDbSymbolTable
 70
     1
  0
STYLE
  5
11
330
3
100
AcDbSymbolTableRecord
100
AcDbTextStyleTableRecord
  2
Standard
 70
     0
 40
0.0
 41
1.0
 50
0.0
 71
     0
 42
0.2
  3
txt
  4

  0
ENDTAB
  0
TABLE
  2
VIEW
  5
6
330
0
100
AcDbSymbolTable
 70
     0
  0
ENDTAB
  0
TABLE
  2
UCS
  5
7
330
0
100
AcDbSymbolTable
 70
     0
  0
ENDTAB
  0
TABLE
  2
APPID
  5
9
330
0
100
AcDbSymbolTable
 70
     1
  0
APPID
  5
12
330
9
100
AcDbSymbolTableRecord
100
AcDbRegAppTableRecord
  2
ACAD
 70
     0
  0
ENDTAB
  0
TABLE
  2
DIMSTYLE
  5
A
330
0
100
AcDbSymbolTable
 70
     1
100
AcDbDimStyleTable
  0
DIMSTYLE
105
27
330
A
100
AcDbSymbolTableRecord
100
AcDbDimStyleTableRecord
  2
Standard
 70
     0
178
     0
340
11
  0
ENDTAB
  0
TABLE
  2
BLOCK_RECORD
  5
1
330
0
100
AcDbSymbolTable
 70
     5
  0
BLOCK_RECORD
  5
1F
330
1
100
AcDbSymbolTableRecord
100
AcDbBlockTableRecord
  2
*Model_Space
340
22
 70
     0
280
     1
281
     0
  0
BLOCK_RECORD
  5
1B
330
1
100
AcDbSymbolTableRecord
100
AcDbBlockTableRecord
  2
*Paper_Space
340
1E
 70
     0
280
     1
281
     0
  0
BLOCK_RECORD
  5
23
330
1
100
AcDbSymbolTableRecord
100
AcDbBlockTableRecord
  2
*Paper_Space0
340
26
 70
     0
280
     1
281
     0
  0
BLOCK_RECORD
  5
41
330
1
100
AcDbSymbolTableRecord
100
AcDbBlockTableRecord
  2
block 2
340
0
102
{BLKREFS
331
42
102
}
 70
     0
280
     1
281
     0
  0
BLOCK_RECORD
  5
45
330
1
100
AcDbSymbolTableRecord
100
AcDbBlockTableRecord
  2
block 3
340
0
102
{BLKREFS
331
46
102
}
 70
     0
280
     1
281
     0
  0
BLOCK_RECORD
  5
B1
330
1
100
AcDbSymbolTableRecord
100
AcDbBlockTableRecord
  2
block 4
340
0
102
{BLKREFS
331
B2
102
}
 70
     0
280
     1
281
     0
  0
BLOCK_RECORD
  5
CC
330
1
100
AcDbSymbolTableRecord
100
AcDbBlockTableRecord
  2
block 5
340
0
102
{BLKREFS
331
CD
102
}
 70
     0
280
     1
281
     0
  0
ENDTAB
  0
ENDSEC
  0
SECTION
  2
BLOCKS
  0
BLOCK
  5
20
330
1F
100
AcDbEntity
  8
0
100
AcDbBlockBegin
  2
*Model_Space
 70
     0
 10
0.0
 20
0.0
 30
0.0
  3
*Model_Space
  1

  0
ENDBLK
  5
21
330
1F
100
AcDbEntity
  8
0
100
AcDbBlockEnd
  0
BLOCK
  5
1C
330
1B
100
AcDbEntity
 67
     1
  8
0
100
AcDbBlockBegin
  2
*Paper_Space
 70
     0
 10
0.0
 20
0.0
 30
0.0
  3
*Paper_Space
  1

  0
ENDBLK
  5
1D
330
1B
100
AcDbEntity
 67
     1
  8
0
100
AcDbBlockEnd
  0
BLOCK
  5
24
330
23
100
AcDbEntity
  8
0
100
AcDbBlockBegin
  2
*Paper_Space0
 70
     0
 10
0.0
 20
0.0
 30
0.0
  3
*Paper_Space0
  1

  0
ENDBLK
  5
25
330
23
100
AcDbEntity
  8
0
100
AcDbBlockEnd
  0
BLOCK
  5
43
330
41
100
AcDbEntity
  8
0
100
AcDbBlockBegin
  2
block 2
 70
     0
 10
0.0
 20
0.0
 30
0.0
  3
block 2
  1

  0
INSERT
  5
46
330
41
100
AcDbEntity
  8
_U+30EC_U+30A4_U+30E4_U+30FC 1
100
AcDbBlockReference
  2
block 3
 10
0.0
 20
0.0
 30
0.0
  0
POLYLINE
  5
9F
330
41
100
AcDbEntity
  8
_U+30EC_U+30A4_U+30E4_U+30FC 1
 62
   179
420
  2234388
370
     9
100
AcDb2dPolyline
 66
     1
 10
0.0
 20
0.0
 30
0.0
  0
VERTEX
  5
A0
330
9F
100
AcDbEntity
  8
_U+30EC_U+30A4_U+30E4_U+30FC 1
 62
   179
420
  2234388
370
     9
100
AcDbVertex
100
AcDb2dVertex
 10
90.85629157095178
 20
-121.9305480250729
 30
0.0
  0
VERTEX
  5
A1
330
9F
100
AcDbEntity
  8
_U+30EC_U+30A4_U+30E4_U+30FC 1
 62
   179
420
  2234388
370
     9
100
AcDbVertex
100
AcDb2dVertex
 10
90.85629157095178
 20
-127.8126941347136
 30
0.0
  0
SEQEND
  5
A2
330
9F
100
AcDbEntity
  8
_U+30EC_U+30A4_U+30E4_U+30FC 1
 62
   179
420
  2234388
370
     9
  0
POLYLINE
  5
A3
330
41
100
AcDbEntity
  8
_U+30EC_U+30A4_U+30E4_U+30FC 1
 62
   179
420
  2234388
370
    25
100
AcDb2dPolyline
 66
     1
 10
0.0
 20
0.0
 30
0.0
  0
VERTEX
  5
A4
330
A3
100
AcDbEntity
  8
_U+30EC_U+30A4_U+30E4_U+30FC 1
 62
   179
420
  2234388
370
    25
100
AcDbVertex
100
AcDb2dVertex
 10
86.71838473207414
 20
-131.0028635783604
 30
0.0
  0
VERTEX
  5
A5
330
A3
100
AcDbEntity
  8
_U+30EC_U+30A4_U+30E4_U+30FC 1
 62
   179
420
  2234388
370
    25
100
AcDbVertex
100
AcDb2dVertex
 10
87.08012305617875
 20
-132.1569760780721
 30
0.0
  0
SEQEND
  5
A6
330
A3
100
AcDbEntity
  8
_U+30EC_U+30A4_U+30E4_U+30FC 1
 62
   179
420
  2234388
370
    25
  0
POLYLINE
  5
A7
330
41
100
AcDbEntity
  8
_U+30EC_U+30A4_U+30E4_U+30FC 1
 62
   179
420
  2234388
370
     9
100
AcDb2dPolyline
 66
     1
 10
0.0
 20
0.0
 30
0.0
  0
VERTEX
  5
A8
330
A7
100
AcDbEntity
  8
_U+30EC_U+30A4_U+30E4_U+30FC 1
 62
   179
420
  2234388
370
     9
100
AcDbVertex
100
AcDb2dVertex
 10
90.52556241272272
 20
-126.5779719128001
 30
0.0
  0
VERTEX
  5
A9
330
A7
100
AcDbEntity
  8
_U+30EC_U+30A4_U+30E4_U+30FC 1
 62
   179
420
  2234388
370
     9
100
AcDbVertex
100
AcDb2dVertex
 10
90.85629157095178
 20
-127.8126941347136
 30
0.0
  0
SEQEND
  5
AA
330
A7
100
AcDbEntity
  8
_U+30EC_U+30A4_U+30E4_U+30FC 1
 62
   179
420
  2234388
370
     9
  0
POLYLINE
  5
AB
330
41
100
AcDbEntity
  8
_U+30EC_U+30A4_U+30E4_U+30FC 1
 62
   179
420
  2234388
370
     9
100
AcDb2dPolyline
 66
     1
 10
0.0
 20
0.0
 30
0.0
  0
VERTEX
  5
AC
330
AB
100
AcDbEntity
  8
_U+30EC_U+30A4_U+30E4_U+30FC 1
 62
   179
420
  2234388
370
     9
100
AcDbVertex
100
AcDb2dVertex
 10
91.18702072918084
 20
-126.5779719128001
 30
0.0
  0
VERTEX
  5
AD
330
AB
100
AcDbEntity
  8
_U+30EC_U+30A4_U+30E4_U+30FC 1
 62
   179
420
  2234388
370
     9
100
AcDbVertex
100
AcDb2dVertex
 10
90.85629157095178
 20
-127.8126941347136
 30
0.0
  0
SEQEND
  5
AE
330
AB
100
AcDbEntity
  8
_U+30EC_U+30A4_U+30E4_U+30FC 1
 62
   179
420
  2234388
370
     9
  0
SPLINE
  5
AF
330
41
100
AcDbEntity
  8
_U+30EC_U+30A4_U+30E4_U+30FC 1
 62
   179
420
  2234388
370
     9
100
AcDbSpline
210
0.0
220
0.0
230
1.0
 70
    11
 71
     3
 72
    17
 73
    13
 74
     0
 42
0.0000000001
 43
0.0000000001
 12
1.0
 22
0.0
 32
0.0
 13
1.0
 23
0.0
 33
0.0
 40
0.0
 40
0.0
 40
0.0
 40
0.0
 40
1.0
 40
1.0
 40
1.0
 40
2.0
 40
2.0
 40
2.0
 40
3.0
 40
3.0
 40
3.0
 40
4.0
 40
4.0
 40
4.0
 40
4.0
 10
88.85124384432703
 20
-124.761730802143
 30
0.0
 10
88.85124384432703
 20
-124.6900463577165
 30
0.0
 10
88.79405856800817
 20
-124.6328610799529
 30
0.0
 10
88.72378523646766
 20
-124.6328610799529
 30
0.0
 10
88.65351190492716
 20
-124.6328610799529
 30
0.0
 10
88.59562107307073
 20
-124.6900463577165
 30
0.0
 10
88.59562107307073
 20
-124.761730802143
 30
0.0
 10
88.59562107307073
 20
-124.8320041354588
 30
0.0
 10
88.65351190492716
 20
-124.8891894132221
 30
0.0
 10
88.72378523646766
 20
-124.8891894132221
 30
0.0
 10
88.79405856800817
 20
-124.8891894132221
 30
0.0
 10
88.85124384432703
 20
-124.8320041354588
 30
0.0
 10
88.85124384432703
 20
-124.761730802143
 30
0.0
  0
SPLINE
  5
B0
330
41
100
AcDbEntity
  8
_U+30EC_U+30A4_U+30E4_U+30FC 1
 62
   179
420
  2234388
370
     9
100
AcDbSpline
210
0.0
220
0.0
230
1.0
 70
    11
 71
     3
 72
    17
 73
    13
 74
     0
 42
0.0000000001
 43
0.0000000001
 12
1.0
 22
0.0
 32
0.0
 13
1.0
 23
0.0
 33
0.0
 40
0.0
 40
0.0
 40
0.0
 40
0.0
 40
1.0
 40
1.0
 40
1.0
 40
2.0
 40
2.0
 40
2.0
 40
3.0
 40
3.0
 40
3.0
 40
4.0
 40
4.0
 40
4.0
 40
4.0
 10
62.17087285833334
 20
-133.2545735777973
 30
0.0
 10
62.17087285833334
 20
-133.1843002444818
 30
0.0
 10
62.1130173042538
 20
-133.1271149667185
 30
0.0
 10
62.04270869493641
 20
-133.1271149667185
 30
0.0
 10
61.9724353633959
 20
-133.1271149667185
 30
0.0
 10
61.91525008707704
 20
-133.1843002444818
 30
0.0
 10
61.91525008707704
 20
-133.2545735777973
 30
0.0
 10
61.91525008707704
 20
-133.3248469111134
 30
0.0
 10
61.9724353633959
 20
-133.3827377444322
 30
0.0
 10
62.04270869493641
 20
-133.3827377444322
 30
0.0
 10
62.1130173042538
 20
-133.3827377444322
 30
0.0
 10
62.17087285833334
 20
-133.3248469111134
 30
0.0
 10
62.17087285833334
 20
-133.2545735777973
 30
0.0
  0
INSERT
  5
B2
330
41
100
AcDbEntity
  8
_U+30EC_U+30A4_U+30E4_U+30FC 1
100
AcDbBlockReference
  2
block 4
 10
0.0
 20
0.0
 30
0.0
  0
POLYLINE
  5
BB
330
41
100
AcDbEntity
  8
_U+30EC_U+30A4_U+30E4_U+30FC 1
 62
   179
420
  2234388
370
     9
100
AcDb2dPolyline
 66
     1
 10
0.0
 20
0.0
 30
0.0
  0
VERTEX
  5
BC
330
BB
100
AcDbEntity
  8
_U+30EC_U+30A4_U+30E4_U+30FC 1
 62
   179
420
  2234388
370
     9
100
AcDbVertex
100
AcDb2dVertex
 10
88.72378523646766
 20
-124.761730802143
 30
0.0
  0
VERTEX
  5
BD
330
BB
100
AcDbEntity
  8
_U+30EC_U+30A4_U+30E4_U+30FC 1
 62
   179
420
  2234388
370
     9
100
AcDbVertex
100
AcDb2dVertex
 10
62.04270869493641
 20
-133.2545735777973
 30
0.0
  0
SEQEND
  5
BE
330
BB
100
AcDbEntity
  8
_U+30EC_U+30A4_U+30E4_U+30FC 1
 62
   179
420
  2234388
370
     9
  0
POLYLINE
  5
BF
330
41
100
AcDbEntity
  8
_U+30EC_U+30A4_U+30E4_U+30FC 1
 62
   179
420
  2234388
370
     9
100
AcDb2dPolyline
 66
     1
 10
0.0
 20
0.0
 30
0.0
  0
VERTEX
  5
C0
330
BF
100
AcDbEntity
  8
_U+30EC_U+30A4_U+30E4_U+30FC 1
 62
   179
420
  2234388
370
     9
100
AcDbVertex
100
AcDb2dVertex
 10
89.87168881829331
 20
-128.3666610790194
 30
0.0
  0
VERTEX
  5
C1
330
BF
100
AcDbEntity
  8
_U+30EC_U+30A4_U+30E4_U+30FC 1
 62
   179
420
  2234388
370
     9
100
AcDbVertex
100
AcDb2dVertex
 10
88.33587080191974
 20
-123.5435185802254
 30
0.0
  0
SEQEND
  5
C2
330
BF
100
AcDbEntity
  8
_U+30EC_U+30A4_U+30E4_U+30FC 1
 62
   179
420
  2234388
370
     9
  0
SPLINE
  5
C3
330
41
100
AcDbEntity
  8
_U+30EC_U+30A4_U+30E4_U+30FC 1
 62
   179
420
  2234388
370
     9
100
AcDbSpline
210
0.0
220
0.0
230
1.0
 70
    11
 71
     3
 72
    17
 73
    13
 74
     0
 42
0.0000000001
 43
0.0000000001
 12
1.0
 22
0.0
 32
0.0
 13
1.0
 23
0.0
 33
0.0
 40
0.0
 40
0.0
 40
0.0
 40
0.0
 40
1.0
 40
1.0
 40
1.0
 40
2.0
 40
2.0
 40
2.0
 40
3.0
 40
3.0
 40
3.0
 40
4.0
 40
4.0
 40
4.0
 40
4.0
 10
92.8618684642297
 20
-124.761730802143
 30
0.0
 10
92.8618684642297
 20
-124.6900463577165
 30
0.0
 10
92.91905374054856
 20
-124.6328610799529
 30
0.0
 10
92.98932707208907
 20
-124.6328610799529
 30
0.0
 10
93.05960275451262
 20
-124.6328610799529
 30
0.0
 10
93.117491235486
 20
-124.6900463577165
 30
0.0
 10
93.117491235486
 20
-124.761730802143
 30
0.0
 10
93.117491235486
 20
-124.8320041354588
 30
0.0
 10
93.05960275451262
 20
-124.8891894132221
 30
0.0
 10
92.98932707208907
 20
-124.8891894132221
 30
0.0
 10
92.91905374054856
 20
-124.8891894132221
 30
0.0
 10
92.8618684642297
 20
-124.8320041354588
 30
0.0
 10
92.8618684642297
 20
-124.761730802143
 30
0.0
  0
POLYLINE
  5
C4
330
41
100
AcDbEntity
  8
_U+30EC_U+30A4_U+30E4_U+30FC 1
 62
   179
420
  2234388
370
     9
100
AcDb2dPolyline
 66
     1
 10
0.0
 20
0.0
 30
0.0
  0
VERTEX
  5
C5
330
C4
100
AcDbEntity
  8
_U+30EC_U+30A4_U+30E4_U+30FC 1
 62
   179
420
  2234388
370
     9
100
AcDbVertex
100
AcDb2dVertex
 10
91.84142349026342
 20
-128.3666610790194
 30
0.0
  0
VERTEX
  5
C6
330
C4
100
AcDbEntity
  8
_U+30EC_U+30A4_U+30E4_U+30FC 1
 62
   179
420
  2234388
370
     9
100
AcDbVertex
100
AcDb2dVertex
 10
93.37724150663699
 20
-123.5435185802254
 30
0.0
  0
SEQEND
  5
C7
330
C4
100
AcDbEntity
  8
_U+30EC_U+30A4_U+30E4_U+30FC 1
 62
   179
420
  2234388
370
     9
  0
POLYLINE
  5
C8
330
41
100
AcDbEntity
  8
_U+30EC_U+30A4_U+30E4_U+30FC 1
 62
   179
420
  2234388
370
     9
100
AcDb2dPolyline
 66
     1
 10
0.0
 20
0.0
 30
0.0
  0
VERTEX
  5
C9
330
C8
100
AcDbEntity
  8
_U+30EC_U+30A4_U+30E4_U+30FC 1
 62
   179
420
  2234388
370
     9
100
AcDbVertex
100
AcDb2dVertex
 10
62.60909340270896
 20
-135.0329263551309
 30
0.0
  0
VERTEX
  5
CA
330
C8
100
AcDbEntity
  8
_U+30EC_U+30A4_U+30E4_U+30FC 1
 62
   179
420
  2234388
370
     9
100
AcDbVertex
100
AcDb2dVertex
 10
61.65549981592604
 20
-132.0363966336578
 30
0.0
  0
SEQEND
  5
CB
330
C8
100
AcDbEntity
  8
_U+30EC_U+30A4_U+30E4_U+30FC 1
 62
   179
420
  2234388
370
     9
  0
INSERT
  5
CD
330
41
100
AcDbEntity
  8
_U+30EC_U+30A4_U+30E4_U+30FC 1
100
AcDbBlockReference
  2
block 5
 10
0.0
 20
0.0
 30
0.0
  0
POLYLINE
  5
D6
330
41
100
AcDbEntity
  8
_U+30EC_U+30A4_U+30E4_U+30FC 1
 62
   179
420
  2234388
370
    25
100
AcDb2dPolyline
 66
     1
 10
0.0
 20
0.0
 30
0.0
  0
VERTEX
  5
D7
330
D6
100
AcDbEntity
  8
_U+30EC_U+30A4_U+30E4_U+30FC 1
 62
   179
420
  2234388
370
    25
100
AcDbVertex
100
AcDb2dVertex
 10
95.03501479767701
 20
-130.985648022809
 30
0.0
  0
VERTEX
  5
D8
330
D6
100
AcDbEntity
  8
_U+30EC_U+30A4_U+30E4_U+30FC 1
 62
   179
420
  2234388
370
    25
100
AcDbVertex
100
AcDb2dVertex
 10
94.65606091845603
 20
-132.1569760780721
 30
0.0
  0
SEQEND
  5
D9
330
D6
100
AcDbEntity
  8
_U+30EC_U+30A4_U+30E4_U+30FC 1
 62
   179
420
  2234388
370
    25
  0
SPLINE
  5
DA
330
41
100
AcDbEntity
  8
_U+30EC_U+30A4_U+30E4_U+30FC 1
 62
   179
420
  2234388
370
     9
100
AcDbSpline
210
0.0
220
0.0
230
1.0
 70
    11
 71
     3
 72
    17
 73
    13
 74
     0
 42
0.0000000001
 43
0.0000000001
 12
1.0
 22
0.0
 32
0.0
 13
1.0
 23
0.0
 33
0.0
 40
0.0
 40
0.0
 40
0.0
 40
0.0
 40
1.0
 40
1.0
 40
1.0
 40
2.0
 40
2.0
 40
2.0
 40
3.0
 40
3.0
 40
3.0
 40
4.0
 40
4.0
 40
4.0
 40
4.0
 10
119.542063061339
 20
-133.2545735777973
 30
0.0
 10
119.542063061339
 20
-133.1843002444818
 30
0.0
 10
119.5999186154185
 20
-133.1271149667185
 30
0.0
 10
119.6702272247359
 20
-133.1271149667185
 30
0.0
 10
119.7405005562764
 20
-133.1271149667185
 30
0.0
 10
119.7976888589397
 20
-133.1843002444818
 30
0.0
 10
119.7976888589397
 20
-133.2545735777973
 30
0.0
 10
119.7976888589397
 20
-133.3248469111134
 30
0.0
 10
119.7405005562764
 20
-133.3827377444322
 30
0.0
 10
119.6702272247359
 20
-133.3827377444322
 30
0.0
 10
119.5999186154185
 20
-133.3827377444322
 30
0.0
 10
119.542063061339
 20
-133.3248469111134
 30
0.0
 10
119.542063061339
 20
-133.2545735777973
 30
0.0
  0
POLYLINE
  5
DB
330
41
100
AcDbEntity
  8
_U+30EC_U+30A4_U+30E4_U+30FC 1
 62
   179
420
  2234388
370
     9
100
AcDb2dPolyline
 66
     1
 10
0.0
 20
0.0
 30
0.0
  0
VERTEX
  5
DC
330
DB
100
AcDbEntity
  8
_U+30EC_U+30A4_U+30E4_U+30FC 1
 62
   179
420
  2234388
370
     9
100
AcDbVertex
100
AcDb2dVertex
 10
92.98932707208907
 20
-124.761730802143
 30
0.0
  0
VERTEX
  5
DD
330
DB
100
AcDbEntity
  8
_U+30EC_U+30A4_U+30E4_U+30FC 1
 62
   179
420
  2234388
370
     9
100
AcDbVertex
100
AcDb2dVertex
 10
119.6702272247359
 20
-133.2545735777973
 30
0.0
  0
SEQEND
  5
DE
330
DB
100
AcDbEntity
  8
_U+30EC_U+30A4_U+30E4_U+30FC 1
 62
   179
420
  2234388
370
     9
  0
POLYLINE
  5
DF
330
41
100
AcDbEntity
  8
_U+30EC_U+30A4_U+30E4_U+30FC 1
 62
   179
420
  2234388
370
     9
100
AcDb2dPolyline
 66
     1
 10
0.0
 20
0.0
 30
0.0
  0
VERTEX
  5
E0
330
DF
100
AcDbEntity
  8
_U+30EC_U+30A4_U+30E4_U+30FC 1
 62
   179
420
  2234388
370
     9
100
AcDbVertex
100
AcDb2dVertex
 10
119.1038425169634
 20
-135.0329263551309
 30
0.0
  0
VERTEX
  5
E1
330
DF
100
AcDbEntity
  8
_U+30EC_U+30A4_U+30E4_U+30FC 1
 62
   179
420
  2234388
370
     9
100
AcDbVertex
100
AcDb2dVertex
 10
120.0574361037463
 20
-132.0363966336578
 30
0.0
  0
SEQEND
  5
E2
330
DF
100
AcDbEntity
  8
_U+30EC_U+30A4_U+30E4_U+30FC 1
 62
   179
420
  2234388
370
     9
  0
SPLINE
  5
E3
330
41
100
AcDbEntity
  8
_U+30EC_U+30A4_U+30E4_U+30FC 1
 62
   179
420
  2234388
370
    25
100
AcDbSpline
210
0.0
220
0.0
230
1.0
 70
    11
 71
     3
 72
    35
 73
    31
 74
     0
 42
0.0000000001
 43
0.0000000001
 12
1.0
 22
0.0
 32
0.0
 13
1.0
 23
0.0
 33
0.0
 40
0.0
 40
0.0
 40
0.0
 40
0.0
 40
1.0
 40
1.0
 40
1.0
 40
2.0
 40
2.0
 40
2.0
 40
3.0
 40
3.0
 40
3.0
 40
4.0
 40
4.0
 40
4.0
 40
5.0
 40
5.0
 40
5.0
 40
6.0
 40
6.0
 40
6.0
 40
7.0
 40
7.0
 40
7.0
 40
8.0
 40
8.0
 40
8.0
 40
9.0
 40
9.0
 40
9.0
 40
10.0
 40
10.0
 40
10.0
 40
10.0
 10
90.85664434872056
 20
-129.9527852452896
 30
0.0
 10
91.4142471993688
 20
-129.9527852452896
 30
0.0
 10
91.97234164367384
 20
-130.0361466341578
 30
0.0
 10
92.5097609732127
 20
-130.2029046896718
 30
0.0
 10
92.5097609732127
 20
-130.2029046896718
 30
0.0
 10
118.101318653651
 20
-138.1837963543431
 30
0.0
 10
118.101318653651
 20
-138.1837963543431
 30
0.0
 10
118.101318653651
 20
-138.1837963543431
 30
0.0
 10
117.9435211576768
 20
-138.6785319097746
 30
0.0
 10
117.9435211576768
 20
-138.6785319097746
 30
0.0
 10
117.9435211576768
 20
-138.6785319097746
 30
0.0
 10
91.80145376906091
 20
-131.3693996893801
 30
0.0
 10
91.80145376906091
 20
-131.3693996893801
 30
0.0
 10
91.49210294361977
 20
-131.2887899671777
 30
0.0
 10
91.17428545172797
 20
-131.2488202449658
 30
0.0
 10
90.85664434872056
 20
-131.2488202449658
 30
0.0
 10
90.53900553292071
 20
-131.2488202449658
 30
0.0
 10
90.22100936493696
 20
-131.2887899671777
 30
0.0
 10
89.91165853949582
 20
-131.3693996893801
 30
0.0
 10
89.91165853949582
 20
-131.3693996893801
 30
0.0
 10
63.76959115087997
 20
-138.6785319097746
 30
0.0
 10
63.76959115087997
 20
-138.6785319097746
 30
0.0
 10
63.76959115087997
 20
-138.6785319097746
 30
0.0
 10
63.61179365490572
 20
-138.1837963543431
 30
0.0
 10
63.61179365490572
 20
-138.1837963543431
 30
0.0
 10
63.61179365490572
 20
-138.1837963543431
 30
0.0
 10
89.20335133534402
 20
-130.2029046896718
 30
0.0
 10
89.20335133534402
 20
-130.2029046896718
 30
0.0
 10
89.74112576606869
 20
-130.0361466341578
 30
0.0
 10
90.29886741850619
 20
-129.9527852452896
 30
0.0
 10
90.85664434872056
 20
-129.9527852452896
 30
0.0
  0
ENDBLK
  5
44
330
41
100
AcDbEntity
  8
0
100
AcDbBlockEnd
  0
BLOCK
  5
47
330
45
100
AcDbEntity
  8
0
100
AcDbBlockBegin
  2
block 3
 70
     0
 10
0.0
 20
0.0
 30
0.0
  3
block 3
  1

  0
SPLINE
  5
49
330
45
100
AcDbEntity
  8
_U+30EC_U+30A4_U+30E4_U+30FC 1
370
     0
100
AcDbSpline
210
0.0
220
0.0
230
1.0
 70
    11
 71
     3
 72
   197
 73
   193
 74
     0
 42
0.0000000001
 43
0.0000000001
 12
1.0
 22
0.0
 32
0.0
 13
1.0
 23
0.0
 33
0.0
 40
0.0
 40
0.0
 40
0.0
 40
0.0
 40
1.0
 40
1.0
 40
1.0
 40
2.0
 40
2.0
 40
2.0
 40
3.0
 40
3.0
 40
3.0
 40
4.0
 40
4.0
 40
4.0
 40
5.0
 40
5.0
 40
5.0
 40
6.0
 40
6.0
 40
6.0
 40
7.0
 40
7.0
 40
7.0
 40
8.0
 40
8.0
 40
8.0
 40
9.0
 40
9.0
 40
9.0
 40
10.0
 40
10.0
 40
10.0
 40
11.0
 40
11.0
 40
11.0
 40
12.0
 40
12.0
 40
12.0
 40
13.0
 40
13.0
 40
13.0
 40
14.0
 40
14.0
 40
14.0
 40
15.0
 40
15.0
 40
15.0
 40
16.0
 40
16.0
 40
16.0
 40
17.0
 40
17.0
 40
17.0
 40
18.0
 40
18.0
 40
18.0
 40
19.0
 40
19.0
 40
19.0
 40
20.0
 40
20.0
 40
20.0
 40
21.0
 40
21.0
 40
21.0
 40
22.0
 40
22.0
 40
22.0
 40
23.0
 40
23.0
 40
23.0
 40
24.0
 40
24.0
 40
24.0
 40
25.0
 40
25.0
 40
25.0
 40
26.0
 40
26.0
 40
26.0
 40
27.0
 40
27.0
 40
27.0
 40
28.0
 40
28.0
 40
28.0
 40
29.0
 40
29.0
 40
29.0
 40
30.0
 40
30.0
 40
30.0
 40
31.0
 40
31.0
 40
31.0
 40
32.0
 40
32.0
 40
32.0
 40
33.0
 40
33.0
 40
33.0
 40
34.0
 40
34.0
 40
34.0
 40
35.0
 40
35.0
 40
35.0
 40
36.0
 40
36.0
 40
36.0
 40
37.0
 40
37.0
 40
37.0
 40
38.0
 40
38.0
 40
38.0
 40
39.0
 40
39.0
 40
39.0
 40
40.0
 40
40.0
 40
40.0
 40
41.0
 40
41.0
 40
41.0
 40
42.0
 40
42.0
 40
42.0
 40
43.0
 40
43.0
 40
43.0
 40
44.0
 40
44.0
 40
44.0
 40
45.0
 40
45.0
 40
45.0
 40
46.0
 40
46.0
 40
46.0
 40
47.0
 40
47.0
 40
47.0
 40
48.0
 40
48.0
 40
48.0
 40
49.0
 40
49.0
 40
49.0
 40
50.0
 40
50.0
 40
50.0
 40
51.0
 40
51.0
 40
51.0
 40
52.0
 40
52.0
 40
52.0
 40
53.0
 40
53.0
 40
53.0
 40
54.0
 40
54.0
 40
54.0
 40
55.0
 40
55.0
 40
55.0
 40
56.0
 40
56.0
 40
56.0
 40
57.0
 40
57.0
 40
57.0
 40
58.0
 40
58.0
 40
58.0
 40
59.0
 40
59.0
 40
59.0
 40
60.0
 40
60.0
 40
60.0
 40
61.0
 40
61.0
 40
61.0
 40
62.0
 40
62.0
 40
62.0
 40
63.0
 40
63.0
 40
63.0
 40
64.0
 40
64.0
 40
64.0
 40
64.0
 10
88.53413083724148
 20
-118.6728596708526
 30
0.0
 10
88.5234510412372
 20
-118.7024874920258
 30
0.0
 10
88.5000243919375
 20
-118.7489962810766
 30
0.0
 10
88.48968910548174
 20
-118.7763847901844
 30
0.0
 10
88.48968910548174
 20
-118.7763847901844
 30
0.0
 10
88.4283664058443
 20
-118.9288302654067
 30
0.0
 10
88.4283664058443
 20
-118.9288302654067
 30
0.0
 10
88.41768660984003
 20
-118.9541517172233
 30
0.0
 10
88.369110763498
 20
-119.0662895752682
 30
0.0
 10
88.35636391020257
 20
-119.0895439697936
 30
0.0
 10
88.35429685291143
 20
-119.0959173964413
 30
0.0
 10
88.3498182287806
 20
-119.1043578803802
 30
0.0
 10
88.34775117148945
 20
-119.1107313070279
 30
0.0
 10
88.34775117148945
 20
-119.1107313070279
 30
0.0
 10
88.13828936598627
 20
-119.0578490913293
 30
0.0
 10
88.13828936598627
 20
-119.0578490913293
 30
0.0
 10
88.21683754304996
 20
-118.9477782905756
 30
0.0
 10
88.2781602426874
 20
-118.8123860380052
 30
0.0
 10
88.30985512115171
 20
-118.7024874920258
 30
0.0
 10
88.30985512115171
 20
-118.7024874920258
 30
0.0
 10
87.84442272109446
 20
-118.7024874920258
 30
0.0
 10
87.84442272109446
 20
-118.7024874920258
 30
0.0
 10
87.76380748673961
 20
-118.867335310995
 30
0.0
 10
87.69628361522871
 20
-118.9457112332844
 30
0.0
 10
87.66252167947326
 20
-118.9858465956876
 30
0.0
 10
87.66252167947326
 20
-118.9858465956876
 30
0.0
 10
87.53987628019837
 20
-118.9202175266936
 30
0.0
 10
87.53987628019837
 20
-118.9202175266936
 30
0.0
 10
87.53987628019837
 20
-118.9202175266936
 30
0.0
 10
87.53987628019837
 20
-119.0916110270847
 30
0.0
 10
87.53987628019837
 20
-119.0916110270847
 30
0.0
 10
87.53987628019837
 20
-119.1996147705473
 30
0.0
 10
87.54194333748951
 20
-119.2481906168893
 30
0.0
 10
87.55227862394527
 20
-119.3539550482865
 30
0.0
 10
87.48062063785207
 20
-119.3518879909954
 30
0.0
 10
87.45926104584352
 20
-119.3518879909954
 30
0.0
 10
87.25427786447116
 20
-119.3518879909954
 30
0.0
 10
87.25427786447116
 20
-119.3518879909954
 30
0.0
 10
87.19915633670716
 20
-119.3518879909954
 30
0.0
 10
87.19915633670716
 20
-119.3518879909954
 30
0.0
 10
87.19915633670716
 20
-119.3518879909954
 30
0.0
 10
87.19915633670716
 20
-119.4872802435657
 30
0.0
 10
87.19915633670716
 20
-119.4872802435657
 30
0.0
 10
87.19915633670716
 20
-119.4872802435657
 30
0.0
 10
87.27115883234887
 20
-119.4872802435657
 30
0.0
 10
87.27115883234887
 20
-119.4872802435657
 30
0.0
 10
87.33661564656863
 20
-119.4872802435657
 30
0.0
 10
87.48268769514323
 20
-119.4829738742091
 30
0.0
 10
87.58845212654039
 20
-119.4745333902703
 30
0.0
 10
87.58845212654039
 20
-119.4745333902703
 30
0.0
 10
87.58845212654039
 20
-119.6523003173092
 30
0.0
 10
87.58845212654039
 20
-119.6523003173092
 30
0.0
 10
87.49095592430783
 20
-119.6459268906614
 30
0.0
 10
87.33248153198633
 20
-119.6416205213049
 30
0.0
 10
87.27115883234887
 20
-119.6416205213049
 30
0.0
 10
87.27115883234887
 20
-119.6416205213049
 30
0.0
 10
87.19915633670716
 20
-119.6416205213049
 30
0.0
 10
87.19915633670716
 20
-119.6416205213049
 30
0.0
 10
87.2012233939983
 20
-119.7305039848243
 30
0.0
 10
87.2053575085806
 20
-119.9695936115007
 30
0.0
 10
87.20742456587176
 20
-120.0436631644335
 30
0.0
 10
87.20742456587176
 20
-120.0436631644335
 30
0.0
 10
87.00657549908169
 20
-120.0436631644335
 30
0.0
 10
87.00657549908169
 20
-120.0436631644335
 30
0.0
 10
87.01932235237712
 20
-119.8298949895738
 30
0.0
 10
87.01932235237712
 20
-119.8002671684006
 30
0.0
 10
87.02345646695942
 20
-119.6416205213049
 30
0.0
 10
87.02345646695942
 20
-119.6416205213049
 30
0.0
 10
86.95386553815737
 20
-119.6416205213049
 30
0.0
 10
86.95386553815737
 20
-119.6416205213049
 30
0.0
 10
86.89667695310223
 20
-119.6416205213049
 30
0.0
 10
86.74440373265418
 20
-119.6459268906614
 30
0.0
 10
86.63416067712619
 20
-119.6523003173092
 30
0.0
 10
86.63416067712619
 20
-119.6523003173092
 30
0.0
 10
86.63416067712619
 20
-119.4745333902703
 30
0.0
 10
86.63416067712619
 20
-119.4745333902703
 30
0.0
 10
86.73992510852335
 20
-119.4829738742091
 30
0.0
 10
86.8839300998068
 20
-119.4872802435657
 30
0.0
 10
86.95386553815737
 20
-119.4872802435657
 30
0.0
 10
86.95386553815737
 20
-119.4872802435657
 30
0.0
 10
87.02759058154172
 20
-119.4872802435657
 30
0.0
 10
87.02759058154172
 20
-119.4872802435657
 30
0.0
 10
87.02759058154172
 20
-119.4872802435657
 30
0.0
 10
87.02759058154172
 20
-119.3518879909954
 30
0.0
 10
87.02759058154172
 20
-119.3518879909954
 30
0.0
 10
87.02759058154172
 20
-119.3518879909954
 30
0.0
 10
86.98349335933052
 20
-119.3518879909954
 30
0.0
 10
86.98349335933052
 20
-119.3518879909954
 30
0.0
 10
86.90701223955797
 20
-119.3518879909954
 30
0.0
 10
86.71477591148103
 20
-119.3539550482865
 30
0.0
 10
86.68066946617706
 20
-119.3539550482865
 30
0.0
 10
86.68721514759903
 20
-119.2821248074191
 30
0.0
 10
86.69548337676363
 20
-119.2016818278385
 30
0.0
 10
86.69548337676363
 20
-119.0811034858547
 30
0.0
 10
86.69548337676363
 20
-119.0811034858547
 30
0.0
 10
86.69548337676363
 20
-118.9076429281724
 30
0.0
 10
86.69548337676363
 20
-118.9076429281724
 30
0.0
 10
86.69548337676363
 20
-118.8356404325307
 30
0.0
 10
86.68721514759903
 20
-118.7150620905469
 30
0.0
 10
86.68066946617706
 20
-118.6346191109664
 30
0.0
 10
86.75921764324076
 20
-118.6389254803229
 30
0.0
 10
86.79711369357851
 20
-118.6409925376141
 30
0.0
 10
86.92423771698422
 20
-118.6409925376141
 30
0.0
 10
86.92423771698422
 20
-118.6409925376141
 30
0.0
 10
87.02759058154172
 20
-118.6409925376141
 30
0.0
 10
87.02759058154172
 20
-118.6409925376141
 30
0.0
 10
87.02759058154172
 20
-118.6409925376141
 30
0.0
 10
87.02759058154172
 20
-118.4950927438137
 30
0.0
 10
87.02759058154172
 20
-118.4950927438137
 30
0.0
 10
87.02759058154172
 20
-118.4950927438137
 30
0.0
 10
86.94938691402655
 20
-118.4950927438137
 30
0.0
 10
86.94938691402655
 20
-118.4950927438137
 30
0.0
 10
86.89460989581107
 20
-118.4950927438137
 30
0.0
 10
86.72304414064563
 20
-118.499226858396
 30
0.0
 10
86.63863930125702
 20
-118.5056002850437
 30
0.0
 10
86.63863930125702
 20
-118.5056002850437
 30
0.0
 10
86.63863930125702
 20
-118.3280056127791
 30
0.0
 10
86.63863930125702
 20
-118.3280056127791
 30
0.0
 10
86.72097708335448
 20
-118.3343790394268
 30
0.0
 10
86.8839300998068
 20
-118.3385131540091
 30
0.0
 10
86.94938691402655
 20
-118.3385131540091
 30
0.0
 10
86.94938691402655
 20
-118.3385131540091
 30
0.0
 10
87.02759058154172
 20
-118.3385131540091
 30
0.0
 10
87.02759058154172
 20
-118.3385131540091
 30
0.0
 10
87.02759058154172
 20
-118.3047512182537
 30
0.0
 10
87.02345646695942
 20
-118.1502386857402
 30
0.0
 10
87.02345646695942
 20
-118.1185438072759
 30
0.0
 10
87.02345646695942
 20
-118.1185438072759
 30
0.0
 10
87.22017141916719
 20
-118.1354247751537
 30
0.0
 10
87.22017141916719
 20
-118.1354247751537
 30
0.0
 10
87.23705238704491
 20
-118.1374918324448
 30
0.0
 10
87.25841197905346
 20
-118.1397311445102
 30
0.0
 10
87.25841197905346
 20
-118.1609184817445
 30
0.0
 10
87.25841197905346
 20
-118.1841728762699
 30
0.0
 10
87.23705238704491
 20
-118.1926133602088
 30
0.0
 10
87.20983613271143
 20
-118.20518795873
 30
0.0
 10
87.20983613271143
 20
-118.2263752959642
 30
0.0
 10
87.20742456587176
 20
-118.3216321861314
 30
0.0
 10
87.20742456587176
 20
-118.3385131540091
 30
0.0
 10
87.20742456587176
 20
-118.3385131540091
 30
0.0
 10
87.26668020821806
 20
-118.3385131540091
 30
0.0
 10
87.26668020821806
 20
-118.3385131540091
 30
0.0
 10
87.33454858927747
 20
-118.3385131540091
 30
0.0
 10
87.4782090710124
 20
-118.3343790394268
 30
0.0
 10
87.58397350240956
 20
-118.3280056127791
 30
0.0
 10
87.58397350240956
 20
-118.3280056127791
 30
0.0
 10
87.58397350240956
 20
-118.5056002850437
 30
0.0
 10
87.58397350240956
 20
-118.5056002850437
 30
0.0
 10
87.48682180972553
 20
-118.499226858396
 30
0.0
 10
87.33041447469517
 20
-118.4950927438137
 30
0.0
 10
87.26668020821806
 20
-118.4950927438137
 30
0.0
 10
87.26668020821806
 20
-118.4950927438137
 30
0.0
 10
87.19915633670716
 20
-118.4950927438137
 30
0.0
 10
87.19915633670716
 20
-118.4950927438137
 30
0.0
 10
87.19915633670716
 20
-118.4950927438137
 30
0.0
 10
87.19915633670716
 20
-118.6409925376141
 30
0.0
 10
87.19915633670716
 20
-118.6409925376141
 30
0.0
 10
87.19915633670716
 20
-118.6409925376141
 30
0.0
 10
87.26909177505773
 20
-118.6409925376141
 30
0.0
 10
87.26909177505773
 20
-118.6409925376141
 30
0.0
 10
87.4189534286661
 20
-118.6409925376141
 30
0.0
 10
87.49095592430783
 20
-118.6368584230318
 30
0.0
 10
87.55227862394527
 20
-118.6346191109664
 30
0.0
 10
87.54401039478067
 20
-118.7298760011335
 30
0.0
 10
87.54194333748951
 20
-118.8082519234229
 30
0.0
 10
87.53987628019837
 20
-118.8463202285349
 30
0.0
 10
87.69421655793757
 20
-118.6346191109664
 30
0.0
 10
87.79998098933473
 20
-118.3872612551254
 30
0.0
 10
87.81686195721245
 20
-118.1249172339236
 30
0.0
 10
87.81686195721245
 20
-118.1249172339236
 30
0.0
 10
88.03252493458909
 20
-118.1755601375568
 30
0.0
 10
88.03252493458909
 20
-118.1755601375568
 30
0.0
 10
88.04733884517567
 20
-118.1798665069134
 30
0.0
 10
88.06215275576224
 20
-118.1862399335611
 30
0.0
 10
88.06215275576224
 20
-118.2031209014388
 30
0.0
 10
88.06215275576224
 20
-118.2200018693165
 30
0.0
 10
88.05801864117994
 20
-118.2222411813819
 30
0.0
 10
88.00737573754677
 20
-118.243256263842
 30
0.0
 10
87.99015026012052
 20
-118.3195651288403
 30
0.0
 10
87.9650010630782
 20
-118.4105156496508
 30
0.0
 10
87.91642521673617
 20
-118.5374674182823
 30
0.0
 10
87.91642521673617
 20
-118.5374674182823
 30
0.0
 10
88.25473359338771
 20
-118.5374674182823
 30
0.0
 10
88.25473359338771
 20
-118.5374674182823
 30
0.0
 10
88.29297415327399
 20
-118.5374674182823
 30
0.0
 10
88.42182072442233
 20
-118.5331610489257
 30
0.0
 10
88.47039657076435
 20
-118.526787622278
 30
0.0
 10
88.47039657076435
 20
-118.526787622278
 30
0.0
 10
88.56375865841461
 20
-118.5965508058543
 30
0.0
 10
88.56375865841461
 20
-118.5965508058543
 30
0.0
 10
88.5551459197015
 20
-118.6177381430886
 30
0.0
 10
88.54894474782805
 20
-118.6368584230318
 30
0.0
 10
88.53413083724148
 20
-118.6728596708526
 30
0.0
  0
POLYLINE
  5
4A
330
45
100
AcDbEntity
  8
_U+30EC_U+30A4_U+30E4_U+30FC 1
370
     0
100
AcDb2dPolyline
 66
     1
 10
0.0
 20
0.0
 30
0.0
  0
VERTEX
  5
4B
330
4A
100
AcDbEntity
  8
_U+30EC_U+30A4_U+30E4_U+30FC 1
370
     0
100
AcDbVertex
100
AcDb2dVertex
 10
87.02759058154172
 20
-118.7975721274187
 30
0.0
  0
VERTEX
  5
4C
330
4A
100
AcDbEntity
  8
_U+30EC_U+30A4_U+30E4_U+30FC 1
370
     0
100
AcDbVertex
100
AcDb2dVertex
 10
86.86911618922022
 20
-118.7975721274187
 30
0.0
  0
VERTEX
  5
4D
330
4A
100
AcDbEntity
  8
_U+30EC_U+30A4_U+30E4_U+30FC 1
370
     0
100
AcDbVertex
100
AcDb2dVertex
 10
86.86911618922022
 20
-118.9265909533413
 30
0.0
  0
VERTEX
  5
4E
330
4A
100
AcDbEntity
  8
_U+30EC_U+30A4_U+30E4_U+30FC 1
370
     0
100
AcDbVertex
100
AcDb2dVertex
 10
87.02759058154172
 20
-118.9265909533413
 30
0.0
  0
VERTEX
  5
4F
330
4A
100
AcDbEntity
  8
_U+30EC_U+30A4_U+30E4_U+30FC 1
370
     0
100
AcDbVertex
100
AcDb2dVertex
 10
87.02759058154172
 20
-118.7975721274187
 30
0.0
  0
SEQEND
  5
50
330
4A
100
AcDbEntity
  8
_U+30EC_U+30A4_U+30E4_U+30FC 1
370
     0
  0
POLYLINE
  5
51
330
45
100
AcDbEntity
  8
_U+30EC_U+30A4_U+30E4_U+30FC 1
370
     0
100
AcDb2dPolyline
 66
     1
 10
0.0
 20
0.0
 30
0.0
  0
VERTEX
  5
52
330
51
100
AcDbEntity
  8
_U+30EC_U+30A4_U+30E4_U+30FC 1
370
     0
100
AcDbVertex
100
AcDb2dVertex
 10
87.02759058154172
 20
-119.0704236898505
 30
0.0
  0
VERTEX
  5
53
330
51
100
AcDbEntity
  8
_U+30EC_U+30A4_U+30E4_U+30FC 1
370
     0
100
AcDbVertex
100
AcDb2dVertex
 10
86.86911618922022
 20
-119.0704236898505
 30
0.0
  0
VERTEX
  5
54
330
51
100
AcDbEntity
  8
_U+30EC_U+30A4_U+30E4_U+30FC 1
370
     0
100
AcDbVertex
100
AcDb2dVertex
 10
86.86911618922022
 20
-119.1996147705473
 30
0.0
  0
VERTEX
  5
55
330
51
100
AcDbEntity
  8
_U+30EC_U+30A4_U+30E4_U+30FC 1
370
     0
100
AcDbVertex
100
AcDb2dVertex
 10
87.02759058154172
 20
-119.1996147705473
 30
0.0
  0
VERTEX
  5
56
330
51
100
AcDbEntity
  8
_U+30EC_U+30A4_U+30E4_U+30FC 1
370
     0
100
AcDbVertex
100
AcDb2dVertex
 10
87.02759058154172
 20
-119.0704236898505
 30
0.0
  0
SEQEND
  5
57
330
51
100
AcDbEntity
  8
_U+30EC_U+30A4_U+30E4_U+30FC 1
370
     0
  0
POLYLINE
  5
58
330
45
100
AcDbEntity
  8
_U+30EC_U+30A4_U+30E4_U+30FC 1
370
     0
100
AcDb2dPolyline
 66
     1
 10
0.0
 20
0.0
 30
0.0
  0
VERTEX
  5
59
330
58
100
AcDbEntity
  8
_U+30EC_U+30A4_U+30E4_U+30FC 1
370
     0
100
AcDbVertex
100
AcDb2dVertex
 10
87.36004229586833
 20
-118.7975721274187
 30
0.0
  0
VERTEX
  5
5A
330
58
100
AcDbEntity
  8
_U+30EC_U+30A4_U+30E4_U+30FC 1
370
     0
100
AcDbVertex
100
AcDb2dVertex
 10
87.19915633670716
 20
-118.7975721274187
 30
0.0
  0
VERTEX
  5
5B
330
58
100
AcDbEntity
  8
_U+30EC_U+30A4_U+30E4_U+30FC 1
370
     0
100
AcDbVertex
100
AcDb2dVertex
 10
87.19915633670716
 20
-118.9265909533413
 30
0.0
  0
VERTEX
  5
5C
330
58
100
AcDbEntity
  8
_U+30EC_U+30A4_U+30E4_U+30FC 1
370
     0
100
AcDbVertex
100
AcDb2dVertex
 10
87.36004229586833
 20
-118.9265909533413
 30
0.0
  0
VERTEX
  5
5D
330
58
100
AcDbEntity
  8
_U+30EC_U+30A4_U+30E4_U+30FC 1
370
     0
100
AcDbVertex
100
AcDb2dVertex
 10
87.36004229586833
 20
-118.7975721274187
 30
0.0
  0
SEQEND
  5
5E
330
58
100
AcDbEntity
  8
_U+30EC_U+30A4_U+30E4_U+30FC 1
370
     0
  0
POLYLINE
  5
5F
330
45
100
AcDbEntity
  8
_U+30EC_U+30A4_U+30E4_U+30FC 1
370
     0
100
AcDb2dPolyline
 66
     1
 10
0.0
 20
0.0
 30
0.0
  0
VERTEX
  5
60
330
5F
100
AcDbEntity
  8
_U+30EC_U+30A4_U+30E4_U+30FC 1
370
     0
100
AcDbVertex
100
AcDb2dVertex
 10
87.36004229586833
 20
-119.0704236898505
 30
0.0
  0
VERTEX
  5
61
330
5F
100
AcDbEntity
  8
_U+30EC_U+30A4_U+30E4_U+30FC 1
370
     0
100
AcDbVertex
100
AcDb2dVertex
 10
87.19915633670716
 20
-119.0704236898505
 30
0.0
  0
VERTEX
  5
62
330
5F
100
AcDbEntity
  8
_U+30EC_U+30A4_U+30E4_U+30FC 1
370
     0
100
AcDbVertex
100
AcDb2dVertex
 10
87.19915633670716
 20
-119.1996147705473
 30
0.0
  0
VERTEX
  5
63
330
5F
100
AcDbEntity
  8
_U+30EC_U+30A4_U+30E4_U+30FC 1
370
     0
100
AcDbVertex
100
AcDb2dVertex
 10
87.36004229586833
 20
-119.1996147705473
 30
0.0
  0
VERTEX
  5
64
330
5F
100
AcDbEntity
  8
_U+30EC_U+30A4_U+30E4_U+30FC 1
370
     0
100
AcDbVertex
100
AcDb2dVertex
 10
87.36004229586833
 20
-119.0704236898505
 30
0.0
  0
SEQEND
  5
65
330
5F
100
AcDbEntity
  8
_U+30EC_U+30A4_U+30E4_U+30FC 1
370
     0
  0
SPLINE
  5
66
330
45
100
AcDbEntity
  8
_U+30EC_U+30A4_U+30E4_U+30FC 1
370
     0
100
AcDbSpline
210
0.0
220
0.0
230
1.0
 70
    11
 71
     3
 72
    41
 73
    37
 74
     0
 42
0.0000000001
 43
0.0000000001
 12
1.0
 22
0.0
 32
0.0
 13
1.0
 23
0.0
 33
0.0
 40
0.0
 40
0.0
 40
0.0
 40
0.0
 40
1.0
 40
1.0
 40
1.0
 40
2.0
 40
2.0
 40
2.0
 40
3.0
 40
3.0
 40
3.0
 40
4.0
 40
4.0
 40
4.0
 40
5.0
 40
5.0
 40
5.0
 40
6.0
 40
6.0
 40
6.0
 40
7.0
 40
7.0
 40
7.0
 40
8.0
 40
8.0
 40
8.0
 40
9.0
 40
9.0
 40
9.0
 40
10.0
 40
10.0
 40
10.0
 40
11.0
 40
11.0
 40
11.0
 40
12.0
 40
12.0
 40
12.0
 40
12.0
 10
88.44938148830433
 20
-120.028849253847
 30
0.0
 10
88.20822480433684
 20
-119.8934570012766
 30
0.0
 10
88.03045787729795
 20
-119.5971787895452
 30
0.0
 10
87.99015026012052
 20
-119.4681599636226
 30
0.0
 10
87.86957191813677
 20
-119.7325710421155
 30
0.0
 10
87.70696341123299
 20
-119.9103379691544
 30
0.0
 10
87.52506236961179
 20
-120.0245428844904
 30
0.0
 10
87.52506236961179
 20
-120.0245428844904
 30
0.0
 10
87.3280029078555
 20
-119.8870835746289
 30
0.0
 10
87.3280029078555
 20
-119.8870835746289
 30
0.0
 10
87.39793834620608
 20
-119.8617621228123
 30
0.0
 10
87.54401039478067
 20
-119.8002671684006
 30
0.0
 10
87.66665579405556
 20
-119.6459268906614
 30
0.0
 10
87.7913682506216
 20
-119.4893473008568
 30
0.0
 10
87.88025171414105
 20
-119.2566311008282
 30
0.0
 10
87.88025171414105
 20
-118.9965263916918
 30
0.0
 10
87.88025171414105
 20
-118.894896074877
 30
0.0
 10
87.86750486084563
 20
-118.8230658340095
 30
0.0
 10
87.85716957438987
 20
-118.7763847901844
 30
0.0
 10
87.85716957438987
 20
-118.7763847901844
 30
0.0
 10
88.06215275576224
 20
-118.7975721274187
 30
0.0
 10
88.06215275576224
 20
-118.7975721274187
 30
0.0
 10
88.08351234777079
 20
-118.7996391847098
 30
0.0
 10
88.10452743023082
 20
-118.8018784967752
 30
0.0
 10
88.10452743023082
 20
-118.8230658340095
 30
0.0
 10
88.10452743023082
 20
-118.8420138591784
 30
0.0
 10
88.09384763422655
 20
-118.8504543431172
 30
0.0
 10
88.0600856984711
 20
-118.8716416803515
 30
0.0
 10
88.0518174693065
 20
-119.0726630019159
 30
0.0
 10
88.10866154481312
 20
-119.3158867431745
 30
0.0
 10
88.16998424445056
 20
-119.4364650851582
 30
0.0
 10
88.26093476526115
 20
-119.6119927001317
 30
0.0
 10
88.45558266017777
 20
-119.7918266844618
 30
0.0
 10
88.5909749127481
 20
-119.8490152695169
 30
0.0
 10
88.5909749127481
 20
-119.8490152695169
 30
0.0
 10
88.44938148830433
 20
-120.028849253847
 30
0.0
 10
88.44938148830433
 20
-120.028849253847
 30
0.0
  0
HATCH
  5
67
330
45
100
AcDbEntity
  8
_U+30EC_U+30A4_U+30E4_U+30FC 1
 62
     7
420
 16777215
100
AcDbHatch
 10
0.0
 20
0.0
 30
0.0
210
0.0
220
0.0
230
1.0
  2
SOLID
 70
     1
 71
     0
 91
        6
 92
        1
 93
        1
 72
     4
 94
        3
 73
     0
 74
     1
 95
      197
 96
      193
 40
0.0
 40
0.0
 40
0.0
 40
0.0
 40
1.0
 40
1.0
 40
1.0
 40
2.0
 40
2.0
 40
2.0
 40
3.0
 40
3.0
 40
3.0
 40
4.0
 40
4.0
 40
4.0
 40
5.0
 40
5.0
 40
5.0
 40
6.0
 40
6.0
 40
6.0
 40
7.0
 40
7.0
 40
7.0
 40
8.0
 40
8.0
 40
8.0
 40
9.0
 40
9.0
 40
9.0
 40
10.0
 40
10.0
 40
10.0
 40
11.0
 40
11.0
 40
11.0
 40
12.0
 40
12.0
 40
12.0
 40
13.0
 40
13.0
 40
13.0
 40
14.0
 40
14.0
 40
14.0
 40
15.0
 40
15.0
 40
15.0
 40
16.0
 40
16.0
 40
16.0
 40
17.0
 40
17.0
 40
17.0
 40
18.0
 40
18.0
 40
18.0
 40
19.0
 40
19.0
 40
19.0
 40
20.0
 40
20.0
 40
20.0
 40
21.0
 40
21.0
 40
21.0
 40
22.0
 40
22.0
 40
22.0
 40
23.0
 40
23.0
 40
23.0
 40
24.0
 40
24.0
 40
24.0
 40
25.0
 40
25.0
 40
25.0
 40
26.0
 40
26.0
 40
26.0
 40
27.0
 40
27.0
 40
27.0
 40
28.0
 40
28.0
 40
28.0
 40
29.0
 40
29.0
 40
29.0
 40
30.0
 40
30.0
 40
30.0
 40
31.0
 40
31.0
 40
31.0
 40
32.0
 40
32.0
 40
32.0
 40
33.0
 40
33.0
 40
33.0
 40
34.0
 40
34.0
 40
34.0
 40
35.0
 40
35.0
 40
35.0
 40
36.0
 40
36.0
 40
36.0
 40
37.0
 40
37.0
 40
37.0
 40
38.0
 40
38.0
 40
38.0
 40
39.0
 40
39.0
 40
39.0
 40
40.0
 40
40.0
 40
40.0
 40
41.0
 40
41.0
 40
41.0
 40
42.0
 40
42.0
 40
42.0
 40
43.0
 40
43.0
 40
43.0
 40
44.0
 40
44.0
 40
44.0
 40
45.0
 40
45.0
 40
45.0
 40
46.0
 40
46.0
 40
46.0
 40
47.0
 40
47.0
 40
47.0
 40
48.0
 40
48.0
 40
48.0
 40
49.0
 40
49.0
 40
49.0
 40
50.0
 40
50.0
 40
50.0
 40
51.0
 40
51.0
 40
51.0
 40
52.0
 40
52.0
 40
52.0
 40
53.0
 40
53.0
 40
53.0
 40
54.0
 40
54.0
 40
54.0
 40
55.0
 40
55.0
 40
55.0
 40
56.0
 40
56.0
 40
56.0
 40
57.0
 40
57.0
 40
57.0
 40
58.0
 40
58.0
 40
58.0
 40
59.0
 40
59.0
 40
59.0
 40
60.0
 40
60.0
 40
60.0
 40
61.0
 40
61.0
 40
61.0
 40
62.0
 40
62.0
 40
62.0
 40
63.0
 40
63.0
 40
63.0
 40
64.0
 40
64.0
 40
64.0
 40
64.0
 10
88.53413083724148
 20
-118.6728596708526
 10
88.5234510412372
 20
-118.7024874920258
 10
88.5000243919375
 20
-118.7489962810766
 10
88.48968910548174
 20
-118.7763847901844
 10
88.48968910548174
 20
-118.7763847901844
 10
88.4283664058443
 20
-118.9288302654067
 10
88.4283664058443
 20
-118.9288302654067
 10
88.41768660984003
 20
-118.9541517172233
 10
88.369110763498
 20
-119.0662895752682
 10
88.35636391020257
 20
-119.0895439697936
 10
88.35429685291143
 20
-119.0959173964413
 10
88.3498182287806
 20
-119.1043578803802
 10
88.34775117148945
 20
-119.1107313070279
 10
88.34775117148945
 20
-119.1107313070279
 10
88.13828936598627
 20
-119.0578490913293
 10
88.13828936598627
 20
-119.0578490913293
 10
88.21683754304996
 20
-118.9477782905756
 10
88.2781602426874
 20
-118.8123860380052
 10
88.30985512115171
 20
-118.7024874920258
 10
88.30985512115171
 20
-118.7024874920258
 10
87.84442272109446
 20
-118.7024874920258
 10
87.84442272109446
 20
-118.7024874920258
 10
87.76380748673961
 20
-118.867335310995
 10
87.69628361522871
 20
-118.9457112332844
 10
87.66252167947326
 20
-118.9858465956876
 10
87.66252167947326
 20
-118.9858465956876
 10
87.53987628019837
 20
-118.9202175266936
 10
87.53987628019837
 20
-118.9202175266936
 10
87.53987628019837
 20
-118.9202175266936
 10
87.53987628019837
 20
-119.0916110270847
 10
87.53987628019837
 20
-119.0916110270847
 10
87.53987628019837
 20
-119.1996147705473
 10
87.54194333748951
 20
-119.2481906168893
 10
87.55227862394527
 20
-119.3539550482865
 10
87.48062063785207
 20
-119.3518879909954
 10
87.45926104584352
 20
-119.3518879909954
 10
87.25427786447116
 20
-119.3518879909954
 10
87.25427786447116
 20
-119.3518879909954
 10
87.19915633670716
 20
-119.3518879909954
 10
87.19915633670716
 20
-119.3518879909954
 10
87.19915633670716
 20
-119.3518879909954
 10
87.19915633670716
 20
-119.4872802435657
 10
87.19915633670716
 20
-119.4872802435657
 10
87.19915633670716
 20
-119.4872802435657
 10
87.27115883234887
 20
-119.4872802435657
 10
87.27115883234887
 20
-119.4872802435657
 10
87.33661564656863
 20
-119.4872802435657
 10
87.48268769514323
 20
-119.4829738742091
 10
87.58845212654039
 20
-119.4745333902703
 10
87.58845212654039
 20
-119.4745333902703
 10
87.58845212654039
 20
-119.6523003173092
 10
87.58845212654039
 20
-119.6523003173092
 10
87.49095592430783
 20
-119.6459268906614
 10
87.33248153198633
 20
-119.6416205213049
 10
87.27115883234887
 20
-119.6416205213049
 10
87.27115883234887
 20
-119.6416205213049
 10
87.19915633670716
 20
-119.6416205213049
 10
87.19915633670716
 20
-119.6416205213049
 10
87.2012233939983
 20
-119.7305039848243
 10
87.2053575085806
 20
-119.9695936115007
 10
87.20742456587176
 20
-120.0436631644335
 10
87.20742456587176
 20
-120.0436631644335
 10
87.00657549908169
 20
-120.0436631644335
 10
87.00657549908169
 20
-120.0436631644335
 10
87.01932235237712
 20
-119.8298949895738
 10
87.01932235237712
 20
-119.8002671684006
 10
87.02345646695942
 20
-119.6416205213049
 10
87.02345646695942
 20
-119.6416205213049
 10
86.95386553815737
 20
-119.6416205213049
 10
86.95386553815737
 20
-119.6416205213049
 10
86.89667695310223
 20
-119.6416205213049
 10
86.74440373265418
 20
-119.6459268906614
 10
86.63416067712619
 20
-119.6523003173092
 10
86.63416067712619
 20
-119.6523003173092
 10
86.63416067712619
 20
-119.4745333902703
 10
86.63416067712619
 20
-119.4745333902703
 10
86.73992510852335
 20
-119.4829738742091
 10
86.8839300998068
 20
-119.4872802435657
 10
86.95386553815737
 20
-119.4872802435657
 10
86.95386553815737
 20
-119.4872802435657
 10
87.02759058154172
 20
-119.4872802435657
 10
87.02759058154172
 20
-119.4872802435657
 10
87.02759058154172
 20
-119.4872802435657
 10
87.02759058154172
 20
-119.3518879909954
 10
87.02759058154172
 20
-119.3518879909954
 10
87.02759058154172
 20
-119.3518879909954
 10
86.98349335933052
 20
-119.3518879909954
 10
86.98349335933052
 20
-119.3518879909954
 10
86.90701223955797
 20
-119.3518879909954
 10
86.71477591148103
 20
-119.3539550482865
 10
86.68066946617706
 20
-119.3539550482865
 10
86.68721514759903
 20
-119.2821248074191
 10
86.69548337676363
 20
-119.2016818278385
 10
86.69548337676363
 20
-119.0811034858547
 10
86.69548337676363
 20
-119.0811034858547
 10
86.69548337676363
 20
-118.9076429281724
 10
86.69548337676363
 20
-118.9076429281724
 10
86.69548337676363
 20
-118.8356404325307
 10
86.68721514759903
 20
-118.7150620905469
 10
86.68066946617706
 20
-118.6346191109664
 10
86.75921764324076
 20
-118.6389254803229
 10
86.79711369357851
 20
-118.6409925376141
 10
86.92423771698422
 20
-118.6409925376141
 10
86.92423771698422
 20
-118.6409925376141
 10
87.02759058154172
 20
-118.6409925376141
 10
87.02759058154172
 20
-118.6409925376141
 10
87.02759058154172
 20
-118.6409925376141
 10
87.02759058154172
 20
-118.4950927438137
 10
87.02759058154172
 20
-118.4950927438137
 10
87.02759058154172
 20
-118.4950927438137
 10
86.94938691402655
 20
-118.4950927438137
 10
86.94938691402655
 20
-118.4950927438137
 10
86.89460989581107
 20
-118.4950927438137
 10
86.72304414064563
 20
-118.499226858396
 10
86.63863930125702
 20
-118.5056002850437
 10
86.63863930125702
 20
-118.5056002850437
 10
86.63863930125702
 20
-118.3280056127791
 10
86.63863930125702
 20
-118.3280056127791
 10
86.72097708335448
 20
-118.3343790394268
 10
86.8839300998068
 20
-118.3385131540091
 10
86.94938691402655
 20
-118.3385131540091
 10
86.94938691402655
 20
-118.3385131540091
 10
87.02759058154172
 20
-118.3385131540091
 10
87.02759058154172
 20
-118.3385131540091
 10
87.02759058154172
 20
-118.3047512182537
 10
87.02345646695942
 20
-118.1502386857402
 10
87.02345646695942
 20
-118.1185438072759
 10
87.02345646695942
 20
-118.1185438072759
 10
87.22017141916719
 20
-118.1354247751537
 10
87.22017141916719
 20
-118.1354247751537
 10
87.23705238704491
 20
-118.1374918324448
 10
87.25841197905346
 20
-118.1397311445102
 10
87.25841197905346
 20
-118.1609184817445
 10
87.25841197905346
 20
-118.1841728762699
 10
87.23705238704491
 20
-118.1926133602088
 10
87.20983613271143
 20
-118.20518795873
 10
87.20983613271143
 20
-118.2263752959642
 10
87.20742456587176
 20
-118.3216321861314
 10
87.20742456587176
 20
-118.3385131540091
 10
87.20742456587176
 20
-118.3385131540091
 10
87.26668020821806
 20
-118.3385131540091
 10
87.26668020821806
 20
-118.3385131540091
 10
87.33454858927747
 20
-118.3385131540091
 10
87.4782090710124
 20
-118.3343790394268
 10
87.58397350240956
 20
-118.3280056127791
 10
87.58397350240956
 20
-118.3280056127791
 10
87.58397350240956
 20
-118.5056002850437
 10
87.58397350240956
 20
-118.5056002850437
 10
87.48682180972553
 20
-118.499226858396
 10
87.33041447469517
 20
-118.4950927438137
 10
87.26668020821806
 20
-118.4950927438137
 10
87.26668020821806
 20
-118.4950927438137
 10
87.19915633670716
 20
-118.4950927438137
 10
87.19915633670716
 20
-118.4950927438137
 10
87.19915633670716
 20
-118.4950927438137
 10
87.19915633670716
 20
-118.6409925376141
 10
87.19915633670716
 20
-118.6409925376141
 10
87.19915633670716
 20
-118.6409925376141
 10
87.26909177505773
 20
-118.6409925376141
 10
87.26909177505773
 20
-118.6409925376141
 10
87.4189534286661
 20
-118.6409925376141
 10
87.49095592430783
 20
-118.6368584230318
 10
87.55227862394527
 20
-118.6346191109664
 10
87.54401039478067
 20
-118.7298760011335
 10
87.54194333748951
 20
-118.8082519234229
 10
87.53987628019837
 20
-118.8463202285349
 10
87.69421655793757
 20
-118.6346191109664
 10
87.79998098933473
 20
-118.3872612551254
 10
87.81686195721245
 20
-118.1249172339236
 10
87.81686195721245
 20
-118.1249172339236
 10
88.03252493458909
 20
-118.1755601375568
 10
88.03252493458909
 20
-118.1755601375568
 10
88.04733884517567
 20
-118.1798665069134
 10
88.06215275576224
 20
-118.1862399335611
 10
88.06215275576224
 20
-118.2031209014388
 10
88.06215275576224
 20
-118.2200018693165
 10
88.05801864117994
 20
-118.2222411813819
 10
88.00737573754677
 20
-118.243256263842
 10
87.99015026012052
 20
-118.3195651288403
 10
87.9650010630782
 20
-118.4105156496508
 10
87.91642521673617
 20
-118.5374674182823
 10
87.91642521673617
 20
-118.5374674182823
 10
88.25473359338771
 20
-118.5374674182823
 10
88.25473359338771
 20
-118.5374674182823
 10
88.29297415327399
 20
-118.5374674182823
 10
88.42182072442233
 20
-118.5331610489257
 10
88.47039657076435
 20
-118.526787622278
 10
88.47039657076435
 20
-118.526787622278
 10
88.56375865841461
 20
-118.5965508058543
 10
88.56375865841461
 20
-118.5965508058543
 10
88.5551459197015
 20
-118.6177381430886
 10
88.54894474782805
 20
-118.6368584230318
 10
88.53413083724148
 20
-118.6728596708526
 97
        0
 97
        0
 92
        1
 93
        4
 72
     1
 10
87.02759058154172
 20
-118.7975721274187
 11
86.86911618922022
 21
-118.7975721274187
 72
     1
 10
86.86911618922022
 20
-118.7975721274187
 11
86.86911618922022
 21
-118.9265909533413
 72
     1
 10
86.86911618922022
 20
-118.9265909533413
 11
87.02759058154172
 21
-118.9265909533413
 72
     1
 10
87.02759058154172
 20
-118.9265909533413
 11
87.02759058154172
 21
-118.7975721274187
 97
        0
 92
        1
 93
        4
 72
     1
 10
87.02759058154172
 20
-119.0704236898505
 11
86.86911618922022
 21
-119.0704236898505
 72
     1
 10
86.86911618922022
 20
-119.0704236898505
 11
86.86911618922022
 21
-119.1996147705473
 72
     1
 10
86.86911618922022
 20
-119.1996147705473
 11
87.02759058154172
 21
-119.1996147705473
 72
     1
 10
87.02759058154172
 20
-119.1996147705473
 11
87.02759058154172
 21
-119.0704236898505
 97
        0
 92
        1
 93
        4
 72
     1
 10
87.36004229586833
 20
-118.7975721274187
 11
87.19915633670716
 21
-118.7975721274187
 72
     1
 10
87.19915633670716
 20
-118.7975721274187
 11
87.19915633670716
 21
-118.9265909533413
 72
     1
 10
87.19915633670716
 20
-118.9265909533413
 11
87.36004229586833
 21
-118.9265909533413
 72
     1
 10
87.36004229586833
 20
-118.9265909533413
 11
87.36004229586833
 21
-118.7975721274187
 97
        0
 92
        1
 93
        4
 72
     1
 10
87.36004229586833
 20
-119.0704236898505
 11
87.19915633670716
 21
-119.0704236898505
 72
     1
 10
87.19915633670716
 20
-119.0704236898505
 11
87.19915633670716
 21
-119.1996147705473
 72
     1
 10
87.19915633670716
 20
-119.1996147705473
 11
87.36004229586833
 21
-119.1996147705473
 72
     1
 10
87.36004229586833
 20
-119.1996147705473
 11
87.36004229586833
 21
-119.0704236898505
 97
        0
 92
        1
 93
        1
 72
     4
 94
        3
 73
     0
 74
     1
 95
       41
 96
       37
 40
0.0
 40
0.0
 40
0.0
 40
0.0
 40
1.0
 40
1.0
 40
1.0
 40
2.0
 40
2.0
 40
2.0
 40
3.0
 40
3.0
 40
3.0
 40
4.0
 40
4.0
 40
4.0
 40
5.0
 40
5.0
 40
5.0
 40
6.0
 40
6.0
 40
6.0
 40
7.0
 40
7.0
 40
7.0
 40
8.0
 40
8.0
 40
8.0
 40
9.0
 40
9.0
 40
9.0
 40
10.0
 40
10.0
 40
10.0
 40
11.0
 40
11.0
 40
11.0
 40
12.0
 40
12.0
 40
12.0
 40
12.0
 10
88.44938148830433
 20
-120.028849253847
 10
88.20822480433684
 20
-119.8934570012766
 10
88.03045787729795
 20
-119.5971787895452
 10
87.99015026012052
 20
-119.4681599636226
 10
87.86957191813677
 20
-119.7325710421155
 10
87.70696341123299
 20
-119.9103379691544
 10
87.52506236961179
 20
-120.0245428844904
 10
87.52506236961179
 20
-120.0245428844904
 10
87.3280029078555
 20
-119.8870835746289
 10
87.3280029078555
 20
-119.8870835746289
 10
87.39793834620608
 20
-119.8617621228123
 10
87.54401039478067
 20
-119.8002671684006
 10
87.66665579405556
 20
-119.6459268906614
 10
87.7913682506216
 20
-119.4893473008568
 10
87.88025171414105
 20
-119.2566311008282
 10
87.88025171414105
 20
-118.9965263916918
 10
87.88025171414105
 20
-118.894896074877
 10
87.86750486084563
 20
-118.8230658340095
 10
87.85716957438987
 20
-118.7763847901844
 10
87.85716957438987
 20
-118.7763847901844
 10
88.06215275576224
 20
-118.7975721274187
 10
88.06215275576224
 20
-118.7975721274187
 10
88.08351234777079
 20
-118.7996391847098
 10
88.10452743023082
 20
-118.8018784967752
 10
88.10452743023082
 20
-118.8230658340095
 10
88.10452743023082
 20
-118.8420138591784
 10
88.09384763422655
 20
-118.8504543431172
 10
88.0600856984711
 20
-118.8716416803515
 10
88.0518174693065
 20
-119.0726630019159
 10
88.10866154481312
 20
-119.3158867431745
 10
88.16998424445056
 20
-119.4364650851582
 10
88.26093476526115
 20
-119.6119927001317
 10
88.45558266017777
 20
-119.7918266844618
 10
88.5909749127481
 20
-119.8490152695169
 10
88.5909749127481
 20
-119.8490152695169
 10
88.44938148830433
 20
-120.028849253847
 10
88.44938148830433
 20
-120.028849253847
 97
        0
 97
        0
 75
     2
 76
     1
 98
        0
  0
SPLINE
  5
68
330
45
100
AcDbEntity
  8
_U+30EC_U+30A4_U+30E4_U+30FC 1
370
     0
100
AcDbSpline
210
0.0
220
0.0
230
1.0
 70
    11
 71
     3
 72
    71
 73
    67
 74
     0
 42
0.0000000001
 43
0.0000000001
 12
1.0
 22
0.0
 32
0.0
 13
1.0
 23
0.0
 33
0.0
 40
0.0
 40
0.0
 40
0.0
 40
0.0
 40
1.0
 40
1.0
 40
1.0
 40
2.0
 40
2.0
 40
2.0
 40
3.0
 40
3.0
 40
3.0
 40
4.0
 40
4.0
 40
4.0
 40
5.0
 40
5.0
 40
5.0
 40
6.0
 40
6.0
 40
6.0
 40
7.0
 40
7.0
 40
7.0
 40
8.0
 40
8.0
 40
8.0
 40
9.0
 40
9.0
 40
9.0
 40
10.0
 40
10.0
 40
10.0
 40
11.0
 40
11.0
 40
11.0
 40
12.0
 40
12.0
 40
12.0
 40
13.0
 40
13.0
 40
13.0
 40
14.0
 40
14.0
 40
14.0
 40
15.0
 40
15.0
 40
15.0
 40
16.0
 40
16.0
 40
16.0
 40
17.0
 40
17.0
 40
17.0
 40
18.0
 40
18.0
 40
18.0
 40
19.0
 40
19.0
 40
19.0
 40
20.0
 40
20.0
 40
20.0
 40
21.0
 40
21.0
 40
21.0
 40
22.0
 40
22.0
 40
22.0
 40
22.0
 10
89.64379609304045
 20
-118.2963107343148
 30
0.0
 10
89.62898218245387
 20
-118.2963107343148
 30
0.0
 10
89.61623532915844
 20
-118.2920043649583
 30
0.0
 10
89.59074162256759
 20
-118.2835638810194
 30
0.0
 10
89.44914819812382
 20
-118.3300726700703
 30
0.0
 10
89.27551538566723
 20
-118.346953637948
 30
0.0
 10
89.13598901851462
 20
-118.3512600073045
 30
0.0
 10
89.13598901851462
 20
-118.3512600073045
 30
0.0
 10
89.13392196122346
 20
-118.440143470824
 30
0.0
 10
89.13392196122346
 20
-118.440143470824
 30
0.0
 10
89.13392196122346
 20
-118.440143470824
 30
0.0
 10
89.39402667035984
 20
-118.440143470824
 30
0.0
 10
89.39402667035984
 20
-118.440143470824
 30
0.0
 10
89.44708114083268
 20
-118.440143470824
 30
0.0
 10
89.62898218245387
 20
-118.4317029868851
 30
0.0
 10
89.67342391421359
 20
-118.4253295602374
 30
0.0
 10
89.67342391421359
 20
-118.4253295602374
 30
0.0
 10
89.67342391421359
 20
-118.5860432646243
 30
0.0
 10
89.67342391421359
 20
-118.5860432646243
 30
0.0
 10
89.6183023864496
 20
-118.5796698379766
 30
0.0
 10
89.49358992988356
 20
-118.5776027806855
 30
0.0
 10
89.45534936999728
 20
-118.5796698379766
 30
0.0
 10
89.45534936999728
 20
-118.5796698379766
 30
0.0
 10
89.45534936999728
 20
-118.6897406387303
 30
0.0
 10
89.45534936999728
 20
-118.6897406387303
 30
0.0
 10
89.45534936999728
 20
-118.7362494277812
 30
0.0
 10
89.45741642728842
 20
-118.7996391847098
 30
0.0
 10
89.4639621087104
 20
-118.8378797445961
 30
0.0
 10
89.4639621087104
 20
-118.8378797445961
 30
0.0
 10
89.27138127108493
 20
-118.8378797445961
 30
0.0
 10
89.27138127108493
 20
-118.8378797445961
 30
0.0
 10
89.27758244295839
 20
-118.7975721274187
 30
0.0
 10
89.28412812438036
 20
-118.7150620905469
 30
0.0
 10
89.28412812438036
 20
-118.7002481799604
 30
0.0
 10
89.28412812438036
 20
-118.7002481799604
 30
0.0
 10
89.28412812438036
 20
-118.5796698379766
 30
0.0
 10
89.28412812438036
 20
-118.5796698379766
 30
0.0
 10
89.28412812438036
 20
-118.5796698379766
 30
0.0
 10
89.1191080506369
 20
-118.5796698379766
 30
0.0
 10
89.1191080506369
 20
-118.5796698379766
 30
0.0
 10
89.07673337616832
 20
-118.7996391847098
 30
0.0
 10
89.02161184840432
 20
-118.8800821642904
 30
0.0
 10
88.91584741700716
 20
-118.9794731690399
 30
0.0
 10
88.91584741700716
 20
-118.9794731690399
 30
0.0
 10
88.74876028597254
 20
-118.8652682537038
 30
0.0
 10
88.74876028597254
 20
-118.8652682537038
 30
0.0
 10
88.81215004290114
 20
-118.8166924073618
 30
0.0
 10
88.96235620605803
 20
-118.7045545493169
 30
0.0
 10
88.96235620605803
 20
-118.3553941218868
 30
0.0
 10
88.96235620605803
 20
-118.2728840850151
 30
0.0
 10
88.95408797689343
 20
-118.2263752959642
 30
0.0
 10
88.94547523818031
 20
-118.1777994496222
 30
0.0
 10
89.09154728675489
 20
-118.1926133602088
 30
0.0
 10
89.10636119734147
 20
-118.1926133602088
 30
0.0
 10
89.14219019038806
 20
-118.1926133602088
 30
0.0
 10
89.25036618862491
 20
-118.1926133602088
 30
0.0
 10
89.39195961306868
 20
-118.1755601375568
 30
0.0
 10
89.55284557222984
 20
-118.1142374379194
 30
0.0
 10
89.55284557222984
 20
-118.1142374379194
 30
0.0
 10
89.66687823279162
 20
-118.2454955759074
 30
0.0
 10
89.66687823279162
 20
-118.2454955759074
 30
0.0
 10
89.67342391421359
 20
-118.2518690025551
 30
0.0
 10
89.67755802879589
 20
-118.260309486494
 30
0.0
 10
89.67755802879589
 20
-118.2687499704328
 30
0.0
 10
89.67755802879589
 20
-118.2920043649583
 30
0.0
 10
89.65861000362702
 20
-118.2963107343148
 30
0.0
 10
89.64379609304045
 20
-118.2963107343148
 30
0.0
  0
SPLINE
  5
69
330
45
100
AcDbEntity
  8
_U+30EC_U+30A4_U+30E4_U+30FC 1
370
     0
100
AcDbSpline
210
0.0
220
0.0
230
1.0
 70
    11
 71
     3
 72
    74
 73
    70
 74
     0
 42
0.0000000001
 43
0.0000000001
 12
1.0
 22
0.0
 32
0.0
 13
1.0
 23
0.0
 33
0.0
 40
0.0
 40
0.0
 40
0.0
 40
0.0
 40
1.0
 40
1.0
 40
1.0
 40
2.0
 40
2.0
 40
2.0
 40
3.0
 40
3.0
 40
3.0
 40
4.0
 40
4.0
 40
4.0
 40
5.0
 40
5.0
 40
5.0
 40
6.0
 40
6.0
 40
6.0
 40
7.0
 40
7.0
 40
7.0
 40
8.0
 40
8.0
 40
8.0
 40
9.0
 40
9.0
 40
9.0
 40
10.0
 40
10.0
 40
10.0
 40
11.0
 40
11.0
 40
11.0
 40
12.0
 40
12.0
 40
12.0
 40
13.0
 40
13.0
 40
13.0
 40
14.0
 40
14.0
 40
14.0
 40
15.0
 40
15.0
 40
15.0
 40
16.0
 40
16.0
 40
16.0
 40
17.0
 40
17.0
 40
17.0
 40
18.0
 40
18.0
 40
18.0
 40
19.0
 40
19.0
 40
19.0
 40
20.0
 40
20.0
 40
20.0
 40
21.0
 40
21.0
 40
21.0
 40
22.0
 40
22.0
 40
22.0
 40
23.0
 40
23.0
 40
23.0
 40
23.0
 10
90.48129880550468
 20
-120.0626111896024
 30
0.0
 10
90.26770288541918
 20
-120.0521036483724
 30
0.0
 10
90.06685381862913
 20
-119.9652872421441
 30
0.0
 10
89.89115394888138
 20
-119.8447089001604
 30
0.0
 10
89.89115394888138
 20
-119.8447089001604
 30
0.0
 10
89.98865015111396
 20
-119.7580647487063
 30
0.0
 10
89.98865015111396
 20
-119.7580647487063
 30
0.0
 10
89.98865015111396
 20
-119.7580647487063
 30
0.0
 10
89.4364013448284
 20
-119.7580647487063
 30
0.0
 10
89.4364013448284
 20
-119.7580647487063
 30
0.0
 10
89.4364013448284
 20
-119.7580647487063
 30
0.0
 10
89.51667206963472
 20
-119.8214545056349
 30
0.0
 10
89.51667206963472
 20
-119.8214545056349
 30
0.0
 10
89.5232177510567
 20
-119.8257608749915
 30
0.0
 10
89.53355303751245
 20
-119.8362684162215
 30
0.0
 10
89.53355303751245
 20
-119.8510823268081
 30
0.0
 10
89.53355303751245
 20
-119.8913899439855
 30
0.0
 10
89.45948348457958
 20
-119.8850165173378
 30
0.0
 10
89.444669573993
 20
-119.8827772052724
 30
0.0
 10
89.21419268602979
 20
-120.0224758271992
 30
0.0
 10
89.07053220429488
 20
-120.0541707056636
 30
0.0
 10
88.96683483018884
 20
-120.0710516735413
 30
0.0
 10
88.96683483018884
 20
-120.0710516735413
 30
0.0
 10
88.83764374949199
 20
-119.8934570012766
 30
0.0
 10
88.83764374949199
 20
-119.8934570012766
 30
0.0
 10
89.08534611488145
 20
-119.8617621228123
 30
0.0
 10
89.1866319221478
 20
-119.8150810789872
 30
0.0
 10
89.27551538566723
 20
-119.7621988632886
 30
0.0
 10
89.20144583273436
 20
-119.764438175354
 30
0.0
 10
89.08741317217259
 20
-119.7665052326452
 30
0.0
 10
89.0557182937083
 20
-119.7685722899363
 30
0.0
 10
89.07053220429488
 20
-119.6796888264169
 30
0.0
 10
89.07259926158602
 20
-119.5506700004943
 30
0.0
 10
89.07259926158602
 20
-119.4766004475614
 30
0.0
 10
89.07259926158602
 20
-119.4766004475614
 30
0.0
 10
89.07259926158602
 20
-119.1761881212476
 30
0.0
 10
89.07259926158602
 20
-119.1761881212476
 30
0.0
 10
89.07259926158602
 20
-119.0767971164982
 30
0.0
 10
89.06605358016405
 20
-118.9774061117487
 30
0.0
 10
89.0557182937083
 20
-118.8800821642904
 30
0.0
 10
89.15700410097465
 20
-118.8864555909381
 30
0.0
 10
89.38782549848638
 20
-118.8928290175858
 30
0.0
 10
89.4956569871747
 20
-118.8928290175858
 30
0.0
 10
89.4956569871747
 20
-118.8928290175858
 30
0.0
 10
89.91871471276338
 20
-118.8928290175858
 30
0.0
 10
89.91871471276338
 20
-118.8928290175858
 30
0.0
 10
90.03722599745598
 20
-118.8928290175858
 30
0.0
 10
90.07960067192455
 20
-118.8928290175858
 30
0.0
 10
90.16193845402202
 20
-118.8885226482293
 30
0.0
 10
90.31007755988776
 20
-118.8821492215816
 30
0.0
 10
90.32695852776548
 20
-118.8821492215816
 30
0.0
 10
90.37346731681636
 20
-118.8800821642904
 30
0.0
 10
90.36519908765176
 20
-118.960525143871
 30
0.0
 10
90.36072046352093
 20
-119.1191717909667
 30
0.0
 10
90.36072046352093
 20
-119.2016818278385
 30
0.0
 10
90.36072046352093
 20
-119.2016818278385
 30
0.0
 10
90.36072046352093
 20
-119.4872802435657
 30
0.0
 10
90.36072046352093
 20
-119.4872802435657
 30
0.0
 10
90.36072046352093
 20
-119.5591104844331
 30
0.0
 10
90.36278752081209
 20
-119.6903686224212
 30
0.0
 10
90.37346731681636
 20
-119.7685722899363
 30
0.0
 10
90.30146482117463
 20
-119.764438175354
 30
0.0
 10
90.17881942189975
 20
-119.7621988632886
 30
0.0
 10
90.10061575438458
 20
-119.7601318059975
 30
0.0
 10
90.21051430036404
 20
-119.8278279322826
 30
0.0
 10
90.36278752081209
 20
-119.8786430906901
 30
0.0
 10
90.57466089315496
 20
-119.8827772052724
 30
0.0
 10
90.57466089315496
 20
-119.8827772052724
 30
0.0
 10
90.48129880550468
 20
-120.0626111896024
 30
0.0
 10
90.48129880550468
 20
-120.0626111896024
 30
0.0
  0
POLYLINE
  5
6A
330
45
100
AcDbEntity
  8
_U+30EC_U+30A4_U+30E4_U+30FC 1
370
     0
100
AcDb2dPolyline
 66
     1
 10
0.0
 20
0.0
 30
0.0
  0
VERTEX
  5
6B
330
6A
100
AcDbEntity
  8
_U+30EC_U+30A4_U+30E4_U+30FC 1
370
     0
100
AcDbVertex
100
AcDb2dVertex
 10
90.17675236460859
 20
-119.0282212701561
 30
0.0
  0
VERTEX
  5
6C
330
6A
100
AcDbEntity
  8
_U+30EC_U+30A4_U+30E4_U+30FC 1
370
     0
100
AcDbVertex
100
AcDb2dVertex
 10
89.26483558966297
 20
-119.0282212701561
 30
0.0
  0
VERTEX
  5
6D
330
6A
100
AcDbEntity
  8
_U+30EC_U+30A4_U+30E4_U+30FC 1
370
     0
100
AcDbVertex
100
AcDb2dVertex
 10
89.26483558966297
 20
-119.140359128201
 30
0.0
  0
VERTEX
  5
6E
330
6A
100
AcDbEntity
  8
_U+30EC_U+30A4_U+30E4_U+30FC 1
370
     0
100
AcDbVertex
100
AcDb2dVertex
 10
90.17675236460859
 20
-119.140359128201
 30
0.0
  0
VERTEX
  5
6F
330
6A
100
AcDbEntity
  8
_U+30EC_U+30A4_U+30E4_U+30FC 1
370
     0
100
AcDbVertex
100
AcDb2dVertex
 10
90.17675236460859
 20
-119.0282212701561
 30
0.0
  0
SEQEND
  5
70
330
6A
100
AcDbEntity
  8
_U+30EC_U+30A4_U+30E4_U+30FC 1
370
     0
  0
POLYLINE
  5
71
330
45
100
AcDbEntity
  8
_U+30EC_U+30A4_U+30E4_U+30FC 1
370
     0
100
AcDb2dPolyline
 66
     1
 10
0.0
 20
0.0
 30
0.0
  0
VERTEX
  5
72
330
71
100
AcDbEntity
  8
_U+30EC_U+30A4_U+30E4_U+30FC 1
370
     0
100
AcDbVertex
100
AcDb2dVertex
 10
90.17675236460859
 20
-119.2735120687059
 30
0.0
  0
VERTEX
  5
73
330
71
100
AcDbEntity
  8
_U+30EC_U+30A4_U+30E4_U+30FC 1
370
     0
100
AcDbVertex
100
AcDb2dVertex
 10
89.26483558966297
 20
-119.2735120687059
 30
0.0
  0
VERTEX
  5
74
330
71
100
AcDbEntity
  8
_U+30EC_U+30A4_U+30E4_U+30FC 1
370
     0
100
AcDbVertex
100
AcDb2dVertex
 10
89.26483558966297
 20
-119.3835828694597
 30
0.0
  0
VERTEX
  5
75
330
71
100
AcDbEntity
  8
_U+30EC_U+30A4_U+30E4_U+30FC 1
370
     0
100
AcDbVertex
100
AcDb2dVertex
 10
90.17675236460859
 20
-119.3835828694597
 30
0.0
  0
VERTEX
  5
76
330
71
100
AcDbEntity
  8
_U+30EC_U+30A4_U+30E4_U+30FC 1
370
     0
100
AcDbVertex
100
AcDb2dVertex
 10
90.17675236460859
 20
-119.2735120687059
 30
0.0
  0
SEQEND
  5
77
330
71
100
AcDbEntity
  8
_U+30EC_U+30A4_U+30E4_U+30FC 1
370
     0
  0
POLYLINE
  5
78
330
45
100
AcDbEntity
  8
_U+30EC_U+30A4_U+30E4_U+30FC 1
370
     0
100
AcDb2dPolyline
 66
     1
 10
0.0
 20
0.0
 30
0.0
  0
VERTEX
  5
79
330
78
100
AcDbEntity
  8
_U+30EC_U+30A4_U+30E4_U+30FC 1
370
     0
100
AcDbVertex
100
AcDb2dVertex
 10
90.17675236460859
 20
-119.51897512203
 30
0.0
  0
VERTEX
  5
7A
330
78
100
AcDbEntity
  8
_U+30EC_U+30A4_U+30E4_U+30FC 1
370
     0
100
AcDbVertex
100
AcDb2dVertex
 10
89.26483558966297
 20
-119.51897512203
 30
0.0
  0
VERTEX
  5
7B
330
78
100
AcDbEntity
  8
_U+30EC_U+30A4_U+30E4_U+30FC 1
370
     0
100
AcDbVertex
100
AcDb2dVertex
 10
89.26483558966297
 20
-119.6268066107183
 30
0.0
  0
VERTEX
  5
7C
330
78
100
AcDbEntity
  8
_U+30EC_U+30A4_U+30E4_U+30FC 1
370
     0
100
AcDbVertex
100
AcDb2dVertex
 10
90.17675236460859
 20
-119.6268066107183
 30
0.0
  0
VERTEX
  5
7D
330
78
100
AcDbEntity
  8
_U+30EC_U+30A4_U+30E4_U+30FC 1
370
     0
100
AcDbVertex
100
AcDb2dVertex
 10
90.17675236460859
 20
-119.51897512203
 30
0.0
  0
SEQEND
  5
7E
330
78
100
AcDbEntity
  8
_U+30EC_U+30A4_U+30E4_U+30FC 1
370
     0
  0
SPLINE
  5
7F
330
45
100
AcDbEntity
  8
_U+30EC_U+30A4_U+30E4_U+30FC 1
370
     0
100
AcDbSpline
210
0.0
220
0.0
230
1.0
 70
    11
 71
     3
 72
    74
 73
    70
 74
     0
 42
0.0000000001
 43
0.0000000001
 12
1.0
 22
0.0
 32
0.0
 13
1.0
 23
0.0
 33
0.0
 40
0.0
 40
0.0
 40
0.0
 40
0.0
 40
1.0
 40
1.0
 40
1.0
 40
2.0
 40
2.0
 40
2.0
 40
3.0
 40
3.0
 40
3.0
 40
4.0
 40
4.0
 40
4.0
 40
5.0
 40
5.0
 40
5.0
 40
6.0
 40
6.0
 40
6.0
 40
7.0
 40
7.0
 40
7.0
 40
8.0
 40
8.0
 40
8.0
 40
9.0
 40
9.0
 40
9.0
 40
10.0
 40
10.0
 40
10.0
 40
11.0
 40
11.0
 40
11.0
 40
12.0
 40
12.0
 40
12.0
 40
13.0
 40
13.0
 40
13.0
 40
14.0
 40
14.0
 40
14.0
 40
15.0
 40
15.0
 40
15.0
 40
16.0
 40
16.0
 40
16.0
 40
17.0
 40
17.0
 40
17.0
 40
18.0
 40
18.0
 40
18.0
 40
19.0
 40
19.0
 40
19.0
 40
20.0
 40
20.0
 40
20.0
 40
21.0
 40
21.0
 40
21.0
 40
22.0
 40
22.0
 40
22.0
 40
23.0
 40
23.0
 40
23.0
 40
23.0
 10
90.4940456588001
 20
-118.5755357233943
 30
0.0
 10
90.4940456588001
 20
-118.5755357233943
 30
0.0
 10
90.33350420918747
 20
-118.5755357233943
 30
0.0
 10
90.33350420918747
 20
-118.5755357233943
 30
0.0
 10
90.33350420918747
 20
-118.5755357233943
 30
0.0
 10
90.33350420918747
 20
-118.6897406387303
 30
0.0
 10
90.33350420918747
 20
-118.6897406387303
 30
0.0
 10
90.33350420918747
 20
-118.7298760011335
 30
0.0
 10
90.33970538106091
 20
-118.8039455540664
 30
0.0
 10
90.34383949564321
 20
-118.829267005883
 30
0.0
 10
90.34383949564321
 20
-118.829267005883
 30
0.0
 10
90.13231063284887
 20
-118.829267005883
 30
0.0
 10
90.13231063284887
 20
-118.829267005883
 30
0.0
 10
90.14299042885314
 20
-118.7638101916632
 30
0.0
 10
90.1450574861443
 20
-118.7045545493169
 30
0.0
 10
90.1450574861443
 20
-118.7024874920258
 30
0.0
 10
90.1450574861443
 20
-118.7024874920258
 30
0.0
 10
90.1450574861443
 20
-118.5796698379766
 30
0.0
 10
90.1450574861443
 20
-118.5796698379766
 30
0.0
 10
90.1450574861443
 20
-118.5796698379766
 30
0.0
 10
89.96522350181425
 20
-118.5796698379766
 30
0.0
 10
89.96522350181425
 20
-118.5796698379766
 30
0.0
 10
89.94627547664538
 20
-118.6389254803229
 30
0.0
 10
89.89976668759451
 20
-118.7848252741232
 30
0.0
 10
89.78538951748422
 20
-118.867335310995
 30
0.0
 10
89.78538951748422
 20
-118.867335310995
 30
0.0
 10
89.62898218245387
 20
-118.7615708795978
 30
0.0
 10
89.62898218245387
 20
-118.7615708795978
 30
0.0
 10
89.70305173538674
 20
-118.7150620905469
 30
0.0
 10
89.81915145323966
 20
-118.6409925376141
 30
0.0
 10
89.81915145323966
 20
-118.3195651288403
 30
0.0
 10
89.81915145323966
 20
-118.2644436010763
 30
0.0
 10
89.81501733865736
 20
-118.2200018693165
 30
0.0
 10
89.81295028136621
 20
-118.1819335642045
 30
0.0
 10
89.88908689159024
 20
-118.1903740481434
 30
0.0
 10
89.96315644452311
 20
-118.1967474747911
 30
0.0
 10
90.0265462014517
 20
-118.1967474747911
 30
0.0
 10
90.2043131284906
 20
-118.1967474747911
 30
0.0
 10
90.40309513798951
 20
-118.1374918324448
 30
0.0
 10
90.46441783762695
 20
-118.1078640112716
 30
0.0
 10
90.46441783762695
 20
-118.1078640112716
 30
0.0
 10
90.59154186103268
 20
-118.243256263842
 30
0.0
 10
90.59154186103268
 20
-118.243256263842
 30
0.0
 10
90.59567597561498
 20
-118.2475626331985
 30
0.0
 10
90.59774303290612
 20
-118.2560031171374
 30
0.0
 10
90.59774303290612
 20
-118.2623765437851
 30
0.0
 10
90.59774303290612
 20
-118.2835638810194
 30
0.0
 10
90.58292912231956
 20
-118.2899373076671
 30
0.0
 10
90.56604815444183
 20
-118.2899373076671
 30
0.0
 10
90.5450330719818
 20
-118.2899373076671
 30
0.0
 10
90.53021916139522
 20
-118.2814968237282
 30
0.0
 10
90.51092662667783
 20
-118.270817027724
 30
0.0
 10
90.33763832376977
 20
-118.3280056127791
 30
0.0
 10
90.11956377955345
 20
-118.3533270645957
 30
0.0
 10
89.98623858427428
 20
-118.3553941218868
 30
0.0
 10
89.98623858427428
 20
-118.3553941218868
 30
0.0
 10
89.98210446969198
 20
-118.4379041587586
 30
0.0
 10
89.98210446969198
 20
-118.4379041587586
 30
0.0
 10
89.98210446969198
 20
-118.4379041587586
 30
0.0
 10
90.25495603212377
 20
-118.4379041587586
 30
0.0
 10
90.25495603212377
 20
-118.4379041587586
 30
0.0
 10
90.31214461717892
 20
-118.4379041587586
 30
0.0
 10
90.57466089315496
 20
-118.4189561335897
 30
0.0
 10
90.61875811536615
 20
-118.412582706942
 30
0.0
 10
90.61875811536615
 20
-118.412582706942
 30
0.0
 10
90.61875811536615
 20
-118.5817368952678
 30
0.0
 10
90.61875811536615
 20
-118.5817368952678
 30
0.0
 10
90.5849961796107
 20
-118.5776027806855
 30
0.0
 10
90.57224932631527
 20
-118.5755357233943
 30
0.0
 10
90.4940456588001
 20
-118.5755357233943
 30
0.0
  0
HATCH
  5
80
330
45
100
AcDbEntity
  8
_U+30EC_U+30A4_U+30E4_U+30FC 1
 62
     7
420
 16777215
100
AcDbHatch
 10
0.0
 20
0.0
 30
0.0
210
0.0
220
0.0
230
1.0
  2
SOLID
 70
     1
 71
     0
 91
        6
 92
        1
 93
        1
 72
     4
 94
        3
 73
     0
 74
     1
 95
       71
 96
       67
 40
0.0
 40
0.0
 40
0.0
 40
0.0
 40
1.0
 40
1.0
 40
1.0
 40
2.0
 40
2.0
 40
2.0
 40
3.0
 40
3.0
 40
3.0
 40
4.0
 40
4.0
 40
4.0
 40
5.0
 40
5.0
 40
5.0
 40
6.0
 40
6.0
 40
6.0
 40
7.0
 40
7.0
 40
7.0
 40
8.0
 40
8.0
 40
8.0
 40
9.0
 40
9.0
 40
9.0
 40
10.0
 40
10.0
 40
10.0
 40
11.0
 40
11.0
 40
11.0
 40
12.0
 40
12.0
 40
12.0
 40
13.0
 40
13.0
 40
13.0
 40
14.0
 40
14.0
 40
14.0
 40
15.0
 40
15.0
 40
15.0
 40
16.0
 40
16.0
 40
16.0
 40
17.0
 40
17.0
 40
17.0
 40
18.0
 40
18.0
 40
18.0
 40
19.0
 40
19.0
 40
19.0
 40
20.0
 40
20.0
 40
20.0
 40
21.0
 40
21.0
 40
21.0
 40
22.0
 40
22.0
 40
22.0
 40
22.0
 10
89.64379609304045
 20
-118.2963107343148
 10
89.62898218245387
 20
-118.2963107343148
 10
89.61623532915844
 20
-118.2920043649583
 10
89.59074162256759
 20
-118.2835638810194
 10
89.44914819812382
 20
-118.3300726700703
 10
89.27551538566723
 20
-118.346953637948
 10
89.13598901851462
 20
-118.3512600073045
 10
89.13598901851462
 20
-118.3512600073045
 10
89.13392196122346
 20
-118.440143470824
 10
89.13392196122346
 20
-118.440143470824
 10
89.13392196122346
 20
-118.440143470824
 10
89.39402667035984
 20
-118.440143470824
 10
89.39402667035984
 20
-118.440143470824
 10
89.44708114083268
 20
-118.440143470824
 10
89.62898218245387
 20
-118.4317029868851
 10
89.67342391421359
 20
-118.4253295602374
 10
89.67342391421359
 20
-118.4253295602374
 10
89.67342391421359
 20
-118.5860432646243
 10
89.67342391421359
 20
-118.5860432646243
 10
89.6183023864496
 20
-118.5796698379766
 10
89.49358992988356
 20
-118.5776027806855
 10
89.45534936999728
 20
-118.5796698379766
 10
89.45534936999728
 20
-118.5796698379766
 10
89.45534936999728
 20
-118.6897406387303
 10
89.45534936999728
 20
-118.6897406387303
 10
89.45534936999728
 20
-118.7362494277812
 10
89.45741642728842
 20
-118.7996391847098
 10
89.4639621087104
 20
-118.8378797445961
 10
89.4639621087104
 20
-118.8378797445961
 10
89.27138127108493
 20
-118.8378797445961
 10
89.27138127108493
 20
-118.8378797445961
 10
89.27758244295839
 20
-118.7975721274187
 10
89.28412812438036
 20
-118.7150620905469
 10
89.28412812438036
 20
-118.7002481799604
 10
89.28412812438036
 20
-118.7002481799604
 10
89.28412812438036
 20
-118.5796698379766
 10
89.28412812438036
 20
-118.5796698379766
 10
89.28412812438036
 20
-118.5796698379766
 10
89.1191080506369
 20
-118.5796698379766
 10
89.1191080506369
 20
-118.5796698379766
 10
89.07673337616832
 20
-118.7996391847098
 10
89.02161184840432
 20
-118.8800821642904
 10
88.91584741700716
 20
-118.9794731690399
 10
88.91584741700716
 20
-118.9794731690399
 10
88.74876028597254
 20
-118.8652682537038
 10
88.74876028597254
 20
-118.8652682537038
 10
88.81215004290114
 20
-118.8166924073618
 10
88.96235620605803
 20
-118.7045545493169
 10
88.96235620605803
 20
-118.3553941218868
 10
88.96235620605803
 20
-118.2728840850151
 10
88.95408797689343
 20
-118.2263752959642
 10
88.94547523818031
 20
-118.1777994496222
 10
89.09154728675489
 20
-118.1926133602088
 10
89.10636119734147
 20
-118.1926133602088
 10
89.14219019038806
 20
-118.1926133602088
 10
89.25036618862491
 20
-118.1926133602088
 10
89.39195961306868
 20
-118.1755601375568
 10
89.55284557222984
 20
-118.1142374379194
 10
89.55284557222984
 20
-118.1142374379194
 10
89.66687823279162
 20
-118.2454955759074
 10
89.66687823279162
 20
-118.2454955759074
 10
89.67342391421359
 20
-118.2518690025551
 10
89.67755802879589
 20
-118.260309486494
 10
89.67755802879589
 20
-118.2687499704328
 10
89.67755802879589
 20
-118.2920043649583
 10
89.65861000362702
 20
-118.2963107343148
 10
89.64379609304045
 20
-118.2963107343148
 97
        0
 97
        0
 92
        1
 93
        1
 72
     4
 94
        3
 73
     0
 74
     1
 95
       74
 96
       70
 40
0.0
 40
0.0
 40
0.0
 40
0.0
 40
1.0
 40
1.0
 40
1.0
 40
2.0
 40
2.0
 40
2.0
 40
3.0
 40
3.0
 40
3.0
 40
4.0
 40
4.0
 40
4.0
 40
5.0
 40
5.0
 40
5.0
 40
6.0
 40
6.0
 40
6.0
 40
7.0
 40
7.0
 40
7.0
 40
8.0
 40
8.0
 40
8.0
 40
9.0
 40
9.0
 40
9.0
 40
10.0
 40
10.0
 40
10.0
 40
11.0
 40
11.0
 40
11.0
 40
12.0
 40
12.0
 40
12.0
 40
13.0
 40
13.0
 40
13.0
 40
14.0
 40
14.0
 40
14.0
 40
15.0
 40
15.0
 40
15.0
 40
16.0
 40
16.0
 40
16.0
 40
17.0
 40
17.0
 40
17.0
 40
18.0
 40
18.0
 40
18.0
 40
19.0
 40
19.0
 40
19.0
 40
20.0
 40
20.0
 40
20.0
 40
21.0
 40
21.0
 40
21.0
 40
22.0
 40
22.0
 40
22.0
 40
23.0
 40
23.0
 40
23.0
 40
23.0
 10
90.48129880550468
 20
-120.0626111896024
 10
90.26770288541918
 20
-120.0521036483724
 10
90.06685381862913
 20
-119.9652872421441
 10
89.89115394888138
 20
-119.8447089001604
 10
89.89115394888138
 20
-119.8447089001604
 10
89.98865015111396
 20
-119.7580647487063
 10
89.98865015111396
 20
-119.7580647487063
 10
89.98865015111396
 20
-119.7580647487063
 10
89.4364013448284
 20
-119.7580647487063
 10
89.4364013448284
 20
-119.7580647487063
 10
89.4364013448284
 20
-119.7580647487063
 10
89.51667206963472
 20
-119.8214545056349
 10
89.51667206963472
 20
-119.8214545056349
 10
89.5232177510567
 20
-119.8257608749915
 10
89.53355303751245
 20
-119.8362684162215
 10
89.53355303751245
 20
-119.8510823268081
 10
89.53355303751245
 20
-119.8913899439855
 10
89.45948348457958
 20
-119.8850165173378
 10
89.444669573993
 20
-119.8827772052724
 10
89.21419268602979
 20
-120.0224758271992
 10
89.07053220429488
 20
-120.0541707056636
 10
88.96683483018884
 20
-120.0710516735413
 10
88.96683483018884
 20
-120.0710516735413
 10
88.83764374949199
 20
-119.8934570012766
 10
88.83764374949199
 20
-119.8934570012766
 10
89.08534611488145
 20
-119.8617621228123
 10
89.1866319221478
 20
-119.8150810789872
 10
89.27551538566723
 20
-119.7621988632886
 10
89.20144583273436
 20
-119.764438175354
 10
89.08741317217259
 20
-119.7665052326452
 10
89.0557182937083
 20
-119.7685722899363
 10
89.07053220429488
 20
-119.6796888264169
 10
89.07259926158602
 20
-119.5506700004943
 10
89.07259926158602
 20
-119.4766004475614
 10
89.07259926158602
 20
-119.4766004475614
 10
89.07259926158602
 20
-119.1761881212476
 10
89.07259926158602
 20
-119.1761881212476
 10
89.07259926158602
 20
-119.0767971164982
 10
89.06605358016405
 20
-118.9774061117487
 10
89.0557182937083
 20
-118.8800821642904
 10
89.15700410097465
 20
-118.8864555909381
 10
89.38782549848638
 20
-118.8928290175858
 10
89.4956569871747
 20
-118.8928290175858
 10
89.4956569871747
 20
-118.8928290175858
 10
89.91871471276338
 20
-118.8928290175858
 10
89.91871471276338
 20
-118.8928290175858
 10
90.03722599745598
 20
-118.8928290175858
 10
90.07960067192455
 20
-118.8928290175858
 10
90.16193845402202
 20
-118.8885226482293
 10
90.31007755988776
 20
-118.8821492215816
 10
90.32695852776548
 20
-118.8821492215816
 10
90.37346731681636
 20
-118.8800821642904
 10
90.36519908765176
 20
-118.960525143871
 10
90.36072046352093
 20
-119.1191717909667
 10
90.36072046352093
 20
-119.2016818278385
 10
90.36072046352093
 20
-119.2016818278385
 10
90.36072046352093
 20
-119.4872802435657
 10
90.36072046352093
 20
-119.4872802435657
 10
90.36072046352093
 20
-119.5591104844331
 10
90.36278752081209
 20
-119.6903686224212
 10
90.37346731681636
 20
-119.7685722899363
 10
90.30146482117463
 20
-119.764438175354
 10
90.17881942189975
 20
-119.7621988632886
 10
90.10061575438458
 20
-119.7601318059975
 10
90.21051430036404
 20
-119.8278279322826
 10
90.36278752081209
 20
-119.8786430906901
 10
90.57466089315496
 20
-119.8827772052724
 10
90.57466089315496
 20
-119.8827772052724
 10
90.48129880550468
 20
-120.0626111896024
 10
90.48129880550468
 20
-120.0626111896024
 97
        0
 97
        0
 92
        1
 93
        4
 72
     1
 10
90.17675236460859
 20
-119.0282212701561
 11
89.26483558966297
 21
-119.0282212701561
 72
     1
 10
89.26483558966297
 20
-119.0282212701561
 11
89.26483558966297
 21
-119.140359128201
 72
     1
 10
89.26483558966297
 20
-119.140359128201
 11
90.17675236460859
 21
-119.140359128201
 72
     1
 10
90.17675236460859
 20
-119.140359128201
 11
90.17675236460859
 21
-119.0282212701561
 97
        0
 92
        1
 93
        4
 72
     1
 10
90.17675236460859
 20
-119.2735120687059
 11
89.26483558966297
 21
-119.2735120687059
 72
     1
 10
89.26483558966297
 20
-119.2735120687059
 11
89.26483558966297
 21
-119.3835828694597
 72
     1
 10
89.26483558966297
 20
-119.3835828694597
 11
90.17675236460859
 21
-119.3835828694597
 72
     1
 10
90.17675236460859
 20
-119.3835828694597
 11
90.17675236460859
 21
-119.2735120687059
 97
        0
 92
        1
 93
        4
 72
     1
 10
90.17675236460859
 20
-119.51897512203
 11
89.26483558966297
 21
-119.51897512203
 72
     1
 10
89.26483558966297
 20
-119.51897512203
 11
89.26483558966297
 21
-119.6268066107183
 72
     1
 10
89.26483558966297
 20
-119.6268066107183
 11
90.17675236460859
 21
-119.6268066107183
 72
     1
 10
90.17675236460859
 20
-119.6268066107183
 11
90.17675236460859
 21
-119.51897512203
 97
        0
 92
        1
 93
        1
 72
     4
 94
        3
 73
     0
 74
     1
 95
       74
 96
       70
 40
0.0
 40
0.0
 40
0.0
 40
0.0
 40
1.0
 40
1.0
 40
1.0
 40
2.0
 40
2.0
 40
2.0
 40
3.0
 40
3.0
 40
3.0
 40
4.0
 40
4.0
 40
4.0
 40
5.0
 40
5.0
 40
5.0
 40
6.0
 40
6.0
 40
6.0
 40
7.0
 40
7.0
 40
7.0
 40
8.0
 40
8.0
 40
8.0
 40
9.0
 40
9.0
 40
9.0
 40
10.0
 40
10.0
 40
10.0
 40
11.0
 40
11.0
 40
11.0
 40
12.0
 40
12.0
 40
12.0
 40
13.0
 40
13.0
 40
13.0
 40
14.0
 40
14.0
 40
14.0
 40
15.0
 40
15.0
 40
15.0
 40
16.0
 40
16.0
 40
16.0
 40
17.0
 40
17.0
 40
17.0
 40
18.0
 40
18.0
 40
18.0
 40
19.0
 40
19.0
 40
19.0
 40
20.0
 40
20.0
 40
20.0
 40
21.0
 40
21.0
 40
21.0
 40
22.0
 40
22.0
 40
22.0
 40
23.0
 40
23.0
 40
23.0
 40
23.0
 10
90.4940456588001
 20
-118.5755357233943
 10
90.4940456588001
 20
-118.5755357233943
 10
90.33350420918747
 20
-118.5755357233943
 10
90.33350420918747
 20
-118.5755357233943
 10
90.33350420918747
 20
-118.5755357233943
 10
90.33350420918747
 20
-118.6897406387303
 10
90.33350420918747
 20
-118.6897406387303
 10
90.33350420918747
 20
-118.7298760011335
 10
90.33970538106091
 20
-118.8039455540664
 10
90.34383949564321
 20
-118.829267005883
 10
90.34383949564321
 20
-118.829267005883
 10
90.13231063284887
 20
-118.829267005883
 10
90.13231063284887
 20
-118.829267005883
 10
90.14299042885314
 20
-118.7638101916632
 10
90.1450574861443
 20
-118.7045545493169
 10
90.1450574861443
 20
-118.7024874920258
 10
90.1450574861443
 20
-118.7024874920258
 10
90.1450574861443
 20
-118.5796698379766
 10
90.1450574861443
 20
-118.5796698379766
 10
90.1450574861443
 20
-118.5796698379766
 10
89.96522350181425
 20
-118.5796698379766
 10
89.96522350181425
 20
-118.5796698379766
 10
89.94627547664538
 20
-118.6389254803229
 10
89.89976668759451
 20
-118.7848252741232
 10
89.78538951748422
 20
-118.867335310995
 10
89.78538951748422
 20
-118.867335310995
 10
89.62898218245387
 20
-118.7615708795978
 10
89.62898218245387
 20
-118.7615708795978
 10
89.70305173538674
 20
-118.7150620905469
 10
89.81915145323966
 20
-118.6409925376141
 10
89.81915145323966
 20
-118.3195651288403
 10
89.81915145323966
 20
-118.2644436010763
 10
89.81501733865736
 20
-118.2200018693165
 10
89.81295028136621
 20
-118.1819335642045
 10
89.88908689159024
 20
-118.1903740481434
 10
89.96315644452311
 20
-118.1967474747911
 10
90.0265462014517
 20
-118.1967474747911
 10
90.2043131284906
 20
-118.1967474747911
 10
90.40309513798951
 20
-118.1374918324448
 10
90.46441783762695
 20
-118.1078640112716
 10
90.46441783762695
 20
-118.1078640112716
 10
90.59154186103268
 20
-118.243256263842
 10
90.59154186103268
 20
-118.243256263842
 10
90.59567597561498
 20
-118.2475626331985
 10
90.59774303290612
 20
-118.2560031171374
 10
90.59774303290612
 20
-118.2623765437851
 10
90.59774303290612
 20
-118.2835638810194
 10
90.58292912231956
 20
-118.2899373076671
 10
90.56604815444183
 20
-118.2899373076671
 10
90.5450330719818
 20
-118.2899373076671
 10
90.53021916139522
 20
-118.2814968237282
 10
90.51092662667783
 20
-118.270817027724
 10
90.33763832376977
 20
-118.3280056127791
 10
90.11956377955345
 20
-118.3533270645957
 10
89.98623858427428
 20
-118.3553941218868
 10
89.98623858427428
 20
-118.3553941218868
 10
89.98210446969198
 20
-118.4379041587586
 10
89.98210446969198
 20
-118.4379041587586
 10
89.98210446969198
 20
-118.4379041587586
 10
90.25495603212377
 20
-118.4379041587586
 10
90.25495603212377
 20
-118.4379041587586
 10
90.31214461717892
 20
-118.4379041587586
 10
90.57466089315496
 20
-118.4189561335897
 10
90.61875811536615
 20
-118.412582706942
 10
90.61875811536615
 20
-118.412582706942
 10
90.61875811536615
 20
-118.5817368952678
 10
90.61875811536615
 20
-118.5817368952678
 10
90.5849961796107
 20
-118.5776027806855
 10
90.57224932631527
 20
-118.5755357233943
 10
90.4940456588001
 20
-118.5755357233943
 97
        0
 97
        0
 75
     2
 76
     1
 98
        0
  0
SPLINE
  5
81
330
45
100
AcDbEntity
  8
_U+30EC_U+30A4_U+30E4_U+30FC 1
370
     0
100
AcDbSpline
210
0.0
220
0.0
230
1.0
 70
    11
 71
     3
 72
    53
 73
    49
 74
     0
 42
0.0000000001
 43
0.0000000001
 12
1.0
 22
0.0
 32
0.0
 13
1.0
 23
0.0
 33
0.0
 40
0.0
 40
0.0
 40
0.0
 40
0.0
 40
1.0
 40
1.0
 40
1.0
 40
2.0
 40
2.0
 40
2.0
 40
3.0
 40
3.0
 40
3.0
 40
4.0
 40
4.0
 40
4.0
 40
5.0
 40
5.0
 40
5.0
 40
6.0
 40
6.0
 40
6.0
 40
7.0
 40
7.0
 40
7.0
 40
8.0
 40
8.0
 40
8.0
 40
9.0
 40
9.0
 40
9.0
 40
10.0
 40
10.0
 40
10.0
 40
11.0
 40
11.0
 40
11.0
 40
12.0
 40
12.0
 40
12.0
 40
13.0
 40
13.0
 40
13.0
 40
14.0
 40
14.0
 40
14.0
 40
15.0
 40
15.0
 40
15.0
 40
16.0
 40
16.0
 40
16.0
 40
16.0
 10
91.947531444027
 20
-119.9378987330364
 30
0.0
 10
91.75736217324122
 20
-119.9378987330364
 30
0.0
 10
91.69810653089492
 20
-119.8130140216961
 30
0.0
 10
91.69810653089492
 20
-119.6648749158303
 30
0.0
 10
91.69810653089492
 20
-119.6648749158303
 30
0.0
 10
91.69810653089492
 20
-118.971032685101
 30
0.0
 10
91.69810653089492
 20
-118.971032685101
 30
0.0
 10
91.69810653089492
 20
-118.971032685101
 30
0.0
 10
91.51620548927373
 20
-118.971032685101
 30
0.0
 10
91.51620548927373
 20
-118.971032685101
 30
0.0
 10
91.51620548927373
 20
-118.971032685101
 30
0.0
 10
91.51620548927373
 20
-118.7786241022498
 30
0.0
 10
91.51620548927373
 20
-118.7786241022498
 30
0.0
 10
91.51620548927373
 20
-118.7786241022498
 30
0.0
 10
91.69810653089492
 20
-118.7786241022498
 30
0.0
 10
91.69810653089492
 20
-118.7786241022498
 30
0.0
 10
91.69810653089492
 20
-118.7786241022498
 30
0.0
 10
91.69810653089492
 20
-118.4633978653494
 30
0.0
 10
91.69810653089492
 20
-118.4633978653494
 30
0.0
 10
91.69810653089492
 20
-118.4633978653494
 30
0.0
 10
91.91583656556271
 20
-118.4633978653494
 30
0.0
 10
91.91583656556271
 20
-118.4633978653494
 30
0.0
 10
91.91583656556271
 20
-118.4633978653494
 30
0.0
 10
91.91583656556271
 20
-118.7786241022498
 30
0.0
 10
91.91583656556271
 20
-118.7786241022498
 30
0.0
 10
91.91583656556271
 20
-118.7786241022498
 30
0.0
 10
92.10635034589703
 20
-118.7786241022498
 30
0.0
 10
92.10635034589703
 20
-118.7786241022498
 30
0.0
 10
92.10635034589703
 20
-118.7786241022498
 30
0.0
 10
92.10635034589703
 20
-118.971032685101
 30
0.0
 10
92.10635034589703
 20
-118.971032685101
 30
0.0
 10
92.10635034589703
 20
-118.971032685101
 30
0.0
 10
91.91583656556271
 20
-118.971032685101
 30
0.0
 10
91.91583656556271
 20
-118.971032685101
 30
0.0
 10
91.91583656556271
 20
-118.971032685101
 30
0.0
 10
91.91583656556271
 20
-119.6395534640137
 30
0.0
 10
91.91583656556271
 20
-119.6395534640137
 30
0.0
 10
91.91583656556271
 20
-119.7241305581766
 30
0.0
 10
91.96889103603556
 20
-119.747384952702
 30
0.0
 10
92.04054902212876
 20
-119.747384952702
 30
0.0
 10
92.05122881813303
 20
-119.747384952702
 30
0.0
 10
92.07465546743273
 20
-119.747384952702
 30
0.0
 10
92.10635034589703
 20
-119.7432508381197
 30
0.0
 10
92.10635034589703
 20
-119.7432508381197
 30
0.0
 10
92.10635034589703
 20
-119.9146443385109
 30
0.0
 10
92.10635034589703
 20
-119.9146443385109
 30
0.0
 10
92.07258841014158
 20
-119.9272189370321
 30
0.0
 10
91.99851885720871
 20
-119.9378987330364
 30
0.0
 10
91.947531444027
 20
-119.9378987330364
 30
0.0
  0
HATCH
  5
82
330
45
100
AcDbEntity
  8
_U+30EC_U+30A4_U+30E4_U+30FC 1
 62
     7
420
 16777215
100
AcDbHatch
 10
0.0
 20
0.0
 30
0.0
210
0.0
220
0.0
230
1.0
  2
SOLID
 70
     1
 71
     0
 91
        1
 92
        1
 93
        1
 72
     4
 94
        3
 73
     0
 74
     1
 95
       53
 96
       49
 40
0.0
 40
0.0
 40
0.0
 40
0.0
 40
1.0
 40
1.0
 40
1.0
 40
2.0
 40
2.0
 40
2.0
 40
3.0
 40
3.0
 40
3.0
 40
4.0
 40
4.0
 40
4.0
 40
5.0
 40
5.0
 40
5.0
 40
6.0
 40
6.0
 40
6.0
 40
7.0
 40
7.0
 40
7.0
 40
8.0
 40
8.0
 40
8.0
 40
9.0
 40
9.0
 40
9.0
 40
10.0
 40
10.0
 40
10.0
 40
11.0
 40
11.0
 40
11.0
 40
12.0
 40
12.0
 40
12.0
 40
13.0
 40
13.0
 40
13.0
 40
14.0
 40
14.0
 40
14.0
 40
15.0
 40
15.0
 40
15.0
 40
16.0
 40
16.0
 40
16.0
 40
16.0
 10
91.947531444027
 20
-119.9378987330364
 10
91.75736217324122
 20
-119.9378987330364
 10
91.69810653089492
 20
-119.8130140216961
 10
91.69810653089492
 20
-119.6648749158303
 10
91.69810653089492
 20
-119.6648749158303
 10
91.69810653089492
 20
-118.971032685101
 10
91.69810653089492
 20
-118.971032685101
 10
91.69810653089492
 20
-118.971032685101
 10
91.51620548927373
 20
-118.971032685101
 10
91.51620548927373
 20
-118.971032685101
 10
91.51620548927373
 20
-118.971032685101
 10
91.51620548927373
 20
-118.7786241022498
 10
91.51620548927373
 20
-118.7786241022498
 10
91.51620548927373
 20
-118.7786241022498
 10
91.69810653089492
 20
-118.7786241022498
 10
91.69810653089492
 20
-118.7786241022498
 10
91.69810653089492
 20
-118.7786241022498
 10
91.69810653089492
 20
-118.4633978653494
 10
91.69810653089492
 20
-118.4633978653494
 10
91.69810653089492
 20
-118.4633978653494
 10
91.91583656556271
 20
-118.4633978653494
 10
91.91583656556271
 20
-118.4633978653494
 10
91.91583656556271
 20
-118.4633978653494
 10
91.91583656556271
 20
-118.7786241022498
 10
91.91583656556271
 20
-118.7786241022498
 10
91.91583656556271
 20
-118.7786241022498
 10
92.10635034589703
 20
-118.7786241022498
 10
92.10635034589703
 20
-118.7786241022498
 10
92.10635034589703
 20
-118.7786241022498
 10
92.10635034589703
 20
-118.971032685101
 10
92.10635034589703
 20
-118.971032685101
 10
92.10635034589703
 20
-118.971032685101
 10
91.91583656556271
 20
-118.971032685101
 10
91.91583656556271
 20
-118.971032685101
 10
91.91583656556271
 20
-118.971032685101
 10
91.91583656556271
 20
-119.6395534640137
 10
91.91583656556271
 20
-119.6395534640137
 10
91.91583656556271
 20
-119.7241305581766
 10
91.96889103603556
 20
-119.747384952702
 10
92.04054902212876
 20
-119.747384952702
 10
92.05122881813303
 20
-119.747384952702
 10
92.07465546743273
 20
-119.747384952702
 10
92.10635034589703
 20
-119.7432508381197
 10
92.10635034589703
 20
-119.7432508381197
 10
92.10635034589703
 20
-119.9146443385109
 10
92.10635034589703
 20
-119.9146443385109
 10
92.07258841014158
 20
-119.9272189370321
 10
91.99851885720871
 20
-119.9378987330364
 10
91.947531444027
 20
-119.9378987330364
 97
        0
 97
        0
 75
     2
 76
     1
 98
        0
  0
POLYLINE
  5
83
330
45
100
AcDbEntity
  8
_U+30EC_U+30A4_U+30E4_U+30FC 1
370
     0
100
AcDb2dPolyline
 66
     1
 10
0.0
 20
0.0
 30
0.0
  0
VERTEX
  5
84
330
83
100
AcDbEntity
  8
_U+30EC_U+30A4_U+30E4_U+30FC 1
370
     0
100
AcDbVertex
100
AcDb2dVertex
 10
92.31891273733694
 20
-119.0006605062741
 30
0.0
  0
VERTEX
  5
85
330
83
100
AcDbEntity
  8
_U+30EC_U+30A4_U+30E4_U+30FC 1
370
     0
100
AcDbVertex
100
AcDb2dVertex
 10
92.31891273733694
 20
-118.7955050701275
 30
0.0
  0
VERTEX
  5
86
330
83
100
AcDbEntity
  8
_U+30EC_U+30A4_U+30E4_U+30FC 1
370
     0
100
AcDbVertex
100
AcDb2dVertex
 10
93.49713539329238
 20
-118.7955050701275
 30
0.0
  0
VERTEX
  5
87
330
83
100
AcDbEntity
  8
_U+30EC_U+30A4_U+30E4_U+30FC 1
370
     0
100
AcDbVertex
100
AcDb2dVertex
 10
93.49713539329238
 20
-119.0006605062741
 30
0.0
  0
VERTEX
  5
88
330
83
100
AcDbEntity
  8
_U+30EC_U+30A4_U+30E4_U+30FC 1
370
     0
100
AcDbVertex
100
AcDb2dVertex
 10
92.31891273733694
 20
-119.0006605062741
 30
0.0
  0
SEQEND
  5
89
330
83
100
AcDbEntity
  8
_U+30EC_U+30A4_U+30E4_U+30FC 1
370
     0
  0
POLYLINE
  5
8A
330
45
100
AcDbEntity
  8
_U+30EC_U+30A4_U+30E4_U+30FC 1
370
     0
100
AcDb2dPolyline
 66
     1
 10
0.0
 20
0.0
 30
0.0
  0
VERTEX
  5
8B
330
8A
100
AcDbEntity
  8
_U+30EC_U+30A4_U+30E4_U+30FC 1
370
     0
100
AcDbVertex
100
AcDb2dVertex
 10
92.31891273733694
 20
-119.4343980278671
 30
0.0
  0
VERTEX
  5
8C
330
8A
100
AcDbEntity
  8
_U+30EC_U+30A4_U+30E4_U+30FC 1
370
     0
100
AcDbVertex
100
AcDb2dVertex
 10
92.31891273733694
 20
-119.2292425917205
 30
0.0
  0
VERTEX
  5
8D
330
8A
100
AcDbEntity
  8
_U+30EC_U+30A4_U+30E4_U+30FC 1
370
     0
100
AcDbVertex
100
AcDb2dVertex
 10
93.49713539329238
 20
-119.2292425917205
 30
0.0
  0
VERTEX
  5
8E
330
8A
100
AcDbEntity
  8
_U+30EC_U+30A4_U+30E4_U+30FC 1
370
     0
100
AcDbVertex
100
AcDb2dVertex
 10
93.49713539329238
 20
-119.4343980278671
 30
0.0
  0
VERTEX
  5
8F
330
8A
100
AcDbEntity
  8
_U+30EC_U+30A4_U+30E4_U+30FC 1
370
     0
100
AcDbVertex
100
AcDb2dVertex
 10
92.31891273733694
 20
-119.4343980278671
 30
0.0
  0
SEQEND
  5
90
330
8A
100
AcDbEntity
  8
_U+30EC_U+30A4_U+30E4_U+30FC 1
370
     0
  0
HATCH
  5
91
330
45
100
AcDbEntity
  8
_U+30EC_U+30A4_U+30E4_U+30FC 1
 62
     7
420
 16777215
100
AcDbHatch
 10
0.0
 20
0.0
 30
0.0
210
0.0
220
0.0
230
1.0
  2
SOLID
 70
     1
 71
     0
 91
        2
 92
        1
 93
        4
 72
     1
 10
92.31891273733694
 20
-119.0006605062741
 11
92.31891273733694
 21
-118.7955050701275
 72
     1
 10
92.31891273733694
 20
-118.7955050701275
 11
93.49713539329238
 21
-118.7955050701275
 72
     1
 10
93.49713539329238
 20
-118.7955050701275
 11
93.49713539329238
 21
-119.0006605062741
 72
     1
 10
93.49713539329238
 20
-119.0006605062741
 11
92.31891273733694
 21
-119.0006605062741
 97
        0
 92
        1
 93
        4
 72
     1
 10
92.31891273733694
 20
-119.4343980278671
 11
92.31891273733694
 21
-119.2292425917205
 72
     1
 10
92.31891273733694
 20
-119.2292425917205
 11
93.49713539329238
 21
-119.2292425917205
 72
     1
 10
93.49713539329238
 20
-119.2292425917205
 11
93.49713539329238
 21
-119.4343980278671
 72
     1
 10
93.49713539329238
 20
-119.4343980278671
 11
92.31891273733694
 21
-119.4343980278671
 97
        0
 75
     2
 76
     1
 98
        0
  0
SPLINE
  5
92
330
45
100
AcDbEntity
  8
_U+30EC_U+30A4_U+30E4_U+30FC 1
370
     0
100
AcDbSpline
210
0.0
220
0.0
230
1.0
 70
    11
 71
     3
 72
    26
 73
    22
 74
     0
 42
0.0000000001
 43
0.0000000001
 12
1.0
 22
0.0
 32
0.0
 13
1.0
 23
0.0
 33
0.0
 40
0.0
 40
0.0
 40
0.0
 40
0.0
 40
1.0
 40
1.0
 40
1.0
 40
2.0
 40
2.0
 40
2.0
 40
3.0
 40
3.0
 40
3.0
 40
4.0
 40
4.0
 40
4.0
 40
5.0
 40
5.0
 40
5.0
 40
6.0
 40
6.0
 40
6.0
 40
7.0
 40
7.0
 40
7.0
 40
7.0
 10
94.13413354851508
 20
-119.8870835746289
 30
0.0
 10
94.13413354851508
 20
-119.8870835746289
 30
0.0
 10
94.13413354851508
 20
-118.7827582168321
 30
0.0
 10
94.13413354851508
 20
-118.7827582168321
 30
0.0
 10
94.13413354851508
 20
-118.7827582168321
 30
0.0
 10
93.80409340102815
 20
-118.7827582168321
 30
0.0
 10
93.80409340102815
 20
-118.7827582168321
 30
0.0
 10
93.80409340102815
 20
-118.7827582168321
 30
0.0
 10
93.80409340102815
 20
-118.6346191109664
 30
0.0
 10
93.80409340102815
 20
-118.6346191109664
 30
0.0
 10
94.13620060580624
 20
-118.619977455154
 30
0.0
 10
94.1827093948571
 20
-118.4570244387017
 30
0.0
 10
94.21233721603025
 20
-118.3428195233657
 30
0.0
 10
94.21233721603025
 20
-118.3428195233657
 30
0.0
 10
94.35840926460484
 20
-118.3428195233657
 30
0.0
 10
94.35840926460484
 20
-118.3428195233657
 30
0.0
 10
94.35840926460484
 20
-118.3428195233657
 30
0.0
 10
94.35840926460484
 20
-119.8870835746289
 30
0.0
 10
94.35840926460484
 20
-119.8870835746289
 30
0.0
 10
94.35840926460484
 20
-119.8870835746289
 30
0.0
 10
94.13413354851508
 20
-119.8870835746289
 30
0.0
 10
94.13413354851508
 20
-119.8870835746289
 30
0.0
  0
HATCH
  5
93
330
45
100
AcDbEntity
  8
_U+30EC_U+30A4_U+30E4_U+30FC 1
 62
     7
420
 16777215
100
AcDbHatch
 10
0.0
 20
0.0
 30
0.0
210
0.0
220
0.0
230
1.0
  2
SOLID
 70
     1
 71
     0
 91
        1
 92
        1
 93
        1
 72
     4
 94
        3
 73
     0
 74
     1
 95
       26
 96
       22
 40
0.0
 40
0.0
 40
0.0
 40
0.0
 40
1.0
 40
1.0
 40
1.0
 40
2.0
 40
2.0
 40
2.0
 40
3.0
 40
3.0
 40
3.0
 40
4.0
 40
4.0
 40
4.0
 40
5.0
 40
5.0
 40
5.0
 40
6.0
 40
6.0
 40
6.0
 40
7.0
 40
7.0
 40
7.0
 40
7.0
 10
94.13413354851508
 20
-119.8870835746289
 10
94.13413354851508
 20
-119.8870835746289
 10
94.13413354851508
 20
-118.7827582168321
 10
94.13413354851508
 20
-118.7827582168321
 10
94.13413354851508
 20
-118.7827582168321
 10
93.80409340102815
 20
-118.7827582168321
 10
93.80409340102815
 20
-118.7827582168321
 10
93.80409340102815
 20
-118.7827582168321
 10
93.80409340102815
 20
-118.6346191109664
 10
93.80409340102815
 20
-118.6346191109664
 10
94.13620060580624
 20
-118.619977455154
 10
94.1827093948571
 20
-118.4570244387017
 10
94.21233721603025
 20
-118.3428195233657
 10
94.21233721603025
 20
-118.3428195233657
 10
94.35840926460484
 20
-118.3428195233657
 10
94.35840926460484
 20
-118.3428195233657
 10
94.35840926460484
 20
-118.3428195233657
 10
94.35840926460484
 20
-119.8870835746289
 10
94.35840926460484
 20
-119.8870835746289
 10
94.35840926460484
 20
-119.8870835746289
 10
94.13413354851508
 20
-119.8870835746289
 10
94.13413354851508
 20
-119.8870835746289
 97
        0
 97
        0
 75
     2
 76
     1
 98
        0
  0
POLYLINE
  5
94
330
45
100
AcDbEntity
  8
_U+30EC_U+30A4_U+30E4_U+30FC 1
370
     0
100
AcDb2dPolyline
 66
     1
 10
0.0
 20
0.0
 30
0.0
  0
VERTEX
  5
95
330
94
100
AcDbEntity
  8
_U+30EC_U+30A4_U+30E4_U+30FC 1
370
     0
100
AcDbVertex
100
AcDb2dVertex
 10
94.80110403445946
 20
-119.8870835746289
 30
0.0
  0
VERTEX
  5
96
330
94
100
AcDbEntity
  8
_U+30EC_U+30A4_U+30E4_U+30FC 1
370
     0
100
AcDbVertex
100
AcDb2dVertex
 10
94.80110403445946
 20
-119.6354193494314
 30
0.0
  0
VERTEX
  5
97
330
94
100
AcDbEntity
  8
_U+30EC_U+30A4_U+30E4_U+30FC 1
370
     0
100
AcDbVertex
100
AcDb2dVertex
 10
95.05294051443121
 20
-119.6354193494314
 30
0.0
  0
VERTEX
  5
98
330
94
100
AcDbEntity
  8
_U+30EC_U+30A4_U+30E4_U+30FC 1
370
     0
100
AcDbVertex
100
AcDb2dVertex
 10
95.05294051443121
 20
-119.8870835746289
 30
0.0
  0
VERTEX
  5
99
330
94
100
AcDbEntity
  8
_U+30EC_U+30A4_U+30E4_U+30FC 1
370
     0
100
AcDbVertex
100
AcDb2dVertex
 10
94.80110403445946
 20
-119.8870835746289
 30
0.0
  0
SEQEND
  5
9A
330
94
100
AcDbEntity
  8
_U+30EC_U+30A4_U+30E4_U+30FC 1
370
     0
  0
HATCH
  5
9B
330
45
100
AcDbEntity
  8
_U+30EC_U+30A4_U+30E4_U+30FC 1
 62
     7
420
 16777215
100
AcDbHatch
 10
0.0
 20
0.0
 30
0.0
210
0.0
220
0.0
230
1.0
  2
SOLID
 70
     1
 71
     0
 91
        1
 92
        1
 93
        4
 72
     1
 10
94.80110403445946
 20
-119.8870835746289
 11
94.80110403445946
 21
-119.6354193494314
 72
     1
 10
94.80110403445946
 20
-119.6354193494314
 11
95.05294051443121
 21
-119.6354193494314
 72
     1
 10
95.05294051443121
 20
-119.6354193494314
 11
95.05294051443121
 21
-119.8870835746289
 72
     1
 10
95.05294051443121
 20
-119.8870835746289
 11
94.80110403445946
 21
-119.8870835746289
 97
        0
 75
     2
 76
     1
 98
        0
  0
SPLINE
  5
9C
330
45
100
AcDbEntity
  8
_U+30EC_U+30A4_U+30E4_U+30FC 1
370
     0
100
AcDbSpline
210
0.0
220
0.0
230
1.0
 70
    11
 71
     3
 72
    29
 73
    25
 74
     0
 42
0.0000000001
 43
0.0000000001
 12
1.0
 22
0.0
 32
0.0
 13
1.0
 23
0.0
 33
0.0
 40
0.0
 40
0.0
 40
0.0
 40
0.0
 40
1.0
 40
1.0
 40
1.0
 40
2.0
 40
2.0
 40
2.0
 40
3.0
 40
3.0
 40
3.0
 40
4.0
 40
4.0
 40
4.0
 40
5.0
 40
5.0
 40
5.0
 40
6.0
 40
6.0
 40
6.0
 40
7.0
 40
7.0
 40
7.0
 40
8.0
 40
8.0
 40
8.0
 40
8.0
 10
96.34450681185137
 20
-119.70931664759
 30
0.0
 10
96.23633081361453
 20
-119.9187784530932
 30
0.0
 10
96.06304251070647
 20
-119.9378987330364
 30
0.0
 10
95.94659828330502
 20
-119.9378987330364
 30
0.0
 10
95.78571232414386
 20
-119.9378987330364
 30
0.0
 10
95.64411889970009
 20
-119.8913899439855
 30
0.0
 10
95.5490342643072
 20
-119.70931664759
 30
0.0
 10
95.44533689020118
 20
-119.5148410074477
 30
0.0
 10
95.42604435548377
 20
-119.2778184380625
 30
0.0
 10
95.42604435548377
 20
-119.1148654216102
 30
0.0
 10
95.42604435548377
 20
-118.971032685101
 30
0.0
 10
95.44326983291002
 20
-118.7193684599035
 30
0.0
 10
95.5490342643072
 20
-118.5204141956303
 30
0.0
 10
95.65686575299551
 20
-118.3173258167748
 30
0.0
 10
95.81775171215668
 20
-118.2940714222494
 30
0.0
 10
95.94659828330502
 20
-118.2940714222494
 30
0.0
 10
96.10541718517504
 20
-118.2940714222494
 30
0.0
 10
96.24907766690995
 20
-118.3385131540091
 30
0.0
 10
96.34450681185137
 20
-118.5204141956303
 30
0.0
 10
96.44372556182657
 20
-118.7129950332558
 30
0.0
 10
96.46715221112628
 20
-118.9414048639278
 30
0.0
 10
96.46715221112628
 20
-119.1148654216102
 30
0.0
 10
96.46715221112628
 20
-119.2862589220014
 30
0.0
 10
96.44579261911773
 20
-119.5169080647388
 30
0.0
 10
96.34450681185137
 20
-119.70931664759
 30
0.0
  0
SPLINE
  5
9D
330
45
100
AcDbEntity
  8
_U+30EC_U+30A4_U+30E4_U+30FC 1
370
     0
100
AcDbSpline
210
0.0
220
0.0
230
1.0
 70
    11
 71
     3
 72
    17
 73
    13
 74
     0
 42
0.0000000001
 43
0.0000000001
 12
1.0
 22
0.0
 32
0.0
 13
1.0
 23
0.0
 33
0.0
 40
0.0
 40
0.0
 40
0.0
 40
0.0
 40
1.0
 40
1.0
 40
1.0
 40
2.0
 40
2.0
 40
2.0
 40
3.0
 40
3.0
 40
3.0
 40
4.0
 40
4.0
 40
4.0
 40
4.0
 10
95.94659828330502
 20
-118.4866522598749
 30
0.0
 10
95.69682886062441
 20
-118.4866522598749
 30
0.0
 10
95.65032007157353
 20
-118.7700113635367
 30
0.0
 10
95.65032007157353
 20
-119.1148654216102
 30
0.0
 10
95.65032007157353
 20
-119.4343980278671
 30
0.0
 10
95.68649357416867
 20
-119.7432508381197
 30
0.0
 10
95.94659828330502
 20
-119.7432508381197
 30
0.0
 10
96.19430064869448
 20
-119.7432508381197
 30
0.0
 10
96.24287649503651
 20
-119.4617865369748
 30
0.0
 10
96.24287649503651
 20
-119.1148654216102
 30
0.0
 10
96.24287649503651
 20
-118.7955050701275
 30
0.0
 10
96.20463593515024
 20
-118.4866522598749
 30
0.0
 10
95.94659828330502
 20
-118.4866522598749
 30
0.0
  0
HATCH
  5
9E
330
45
100
AcDbEntity
  8
_U+30EC_U+30A4_U+30E4_U+30FC 1
 62
     7
420
 16777215
100
AcDbHatch
 10
0.0
 20
0.0
 30
0.0
210
0.0
220
0.0
230
1.0
  2
SOLID
 70
     1
 71
     0
 91
        2
 92
        1
 93
        1
 72
     4
 94
        3
 73
     0
 74
     1
 95
       29
 96
       25
 40
0.0
 40
0.0
 40
0.0
 40
0.0
 40
1.0
 40
1.0
 40
1.0
 40
2.0
 40
2.0
 40
2.0
 40
3.0
 40
3.0
 40
3.0
 40
4.0
 40
4.0
 40
4.0
 40
5.0
 40
5.0
 40
5.0
 40
6.0
 40
6.0
 40
6.0
 40
7.0
 40
7.0
 40
7.0
 40
8.0
 40
8.0
 40
8.0
 40
8.0
 10
96.34450681185137
 20
-119.70931664759
 10
96.23633081361453
 20
-119.9187784530932
 10
96.06304251070647
 20
-119.9378987330364
 10
95.94659828330502
 20
-119.9378987330364
 10
95.78571232414386
 20
-119.9378987330364
 10
95.64411889970009
 20
-119.8913899439855
 10
95.5490342643072
 20
-119.70931664759
 10
95.44533689020118
 20
-119.5148410074477
 10
95.42604435548377
 20
-119.2778184380625
 10
95.42604435548377
 20
-119.1148654216102
 10
95.42604435548377
 20
-118.971032685101
 10
95.44326983291002
 20
-118.7193684599035
 10
95.5490342643072
 20
-118.5204141956303
 10
95.65686575299551
 20
-118.3173258167748
 10
95.81775171215668
 20
-118.2940714222494
 10
95.94659828330502
 20
-118.2940714222494
 10
96.10541718517504
 20
-118.2940714222494
 10
96.24907766690995
 20
-118.3385131540091
 10
96.34450681185137
 20
-118.5204141956303
 10
96.44372556182657
 20
-118.7129950332558
 10
96.46715221112628
 20
-118.9414048639278
 10
96.46715221112628
 20
-119.1148654216102
 10
96.46715221112628
 20
-119.2862589220014
 10
96.44579261911773
 20
-119.5169080647388
 10
96.34450681185137
 20
-119.70931664759
 97
        0
 97
        0
 92
        1
 93
        1
 72
     4
 94
        3
 73
     0
 74
     1
 95
       17
 96
       13
 40
0.0
 40
0.0
 40
0.0
 40
0.0
 40
1.0
 40
1.0
 40
1.0
 40
2.0
 40
2.0
 40
2.0
 40
3.0
 40
3.0
 40
3.0
 40
4.0
 40
4.0
 40
4.0
 40
4.0
 10
95.94659828330502
 20
-118.4866522598749
 10
95.69682886062441
 20
-118.4866522598749
 10
95.65032007157353
 20
-118.7700113635367
 10
95.65032007157353
 20
-119.1148654216102
 10
95.65032007157353
 20
-119.4343980278671
 10
95.68649357416867
 20
-119.7432508381197
 10
95.94659828330502
 20
-119.7432508381197
 10
96.19430064869448
 20
-119.7432508381197
 10
96.24287649503651
 20
-119.4617865369748
 10
96.24287649503651
 20
-119.1148654216102
 10
96.24287649503651
 20
-118.7955050701275
 10
96.20463593515024
 20
-118.4866522598749
 10
95.94659828330502
 20
-118.4866522598749
 97
        0
 97
        0
 75
     2
 76
     1
 98
        0
  0
ENDBLK
  5
48
330
45
100
AcDbEntity
  8
0
100
AcDbBlockEnd
  0
BLOCK
  5
B3
330
B1
100
AcDbEntity
  8
0
100
AcDbBlockBegin
  2
block 4
 70
     0
 10
0.0
 20
0.0
 30
0.0
  3
block 4
  1

  0
SPLINE
  5
B5
330
B1
100
AcDbEntity
  8
_U+30EC_U+30A4_U+30E4_U+30FC 1
370
     0
100
AcDbSpline
210
0.0
220
0.0
230
1.0
 70
    11
 71
     3
 72
    44
 73
    40
 74
     0
 42
0.0000000001
 43
0.0000000001
 12
1.0
 22
0.0
 32
0.0
 13
1.0
 23
0.0
 33
0.0
 40
0.0
 40
0.0
 40
0.0
 40
0.0
 40
1.0
 40
1.0
 40
1.0
 40
2.0
 40
2.0
 40
2.0
 40
3.0
 40
3.0
 40
3.0
 40
4.0
 40
4.0
 40
4.0
 40
5.0
 40
5.0
 40
5.0
 40
6.0
 40
6.0
 40
6.0
 40
7.0
 40
7.0
 40
7.0
 40
8.0
 40
8.0
 40
8.0
 40
9.0
 40
9.0
 40
9.0
 40
10.0
 40
10.0
 40
10.0
 40
11.0
 40
11.0
 40
11.0
 40
12.0
 40
12.0
 40
12.0
 40
13.0
 40
13.0
 40
13.0
 40
13.0
 10
106.3507866487595
 20
-127.3093695428254
 30
0.0
 10
106.095160563754
 20
-127.3942911465368
 30
0.0
 10
105.984228489129
 20
-127.4366658210054
 30
0.0
 10
105.8939669874154
 20
-127.5587944559575
 30
0.0
 10
105.8939669874154
 20
-127.5587944559575
 30
0.0
 10
106.6356960453897
 20
-127.7954725157942
 30
0.0
 10
106.6356960453897
 20
-127.7954725157942
 30
0.0
 10
106.6356960453897
 20
-127.7954725157942
 30
0.0
 10
106.5733398171067
 20
-127.9908094298079
 30
0.0
 10
106.5733398171067
 20
-127.9908094298079
 30
0.0
 10
106.5733398171067
 20
-127.9908094298079
 30
0.0
 10
105.5938991706501
 20
-127.6783392692957
 30
0.0
 10
105.5938991706501
 20
-127.6783392692957
 30
0.0
 10
105.7330810282542
 20
-127.3472655931632
 30
0.0
 10
105.8192084153855
 20
-127.2928330844962
 30
0.0
 10
106.2767170958267
 20
-127.1257459534616
 30
0.0
 10
106.5809190271742
 20
-127.0141248597395
 30
0.0
 10
106.6639458283687
 20
-126.9695108732056
 30
0.0
 10
106.7056314837403
 20
-126.838597244766
 30
0.0
 10
106.7418049863354
 20
-126.7255981128499
 30
0.0
 10
106.7128661842593
 20
-126.5788370451782
 30
0.0
 10
106.5254529898617
 20
-126.5190646385091
 30
0.0
 10
106.2774061149237
 20
-126.4398274423484
 30
0.0
 10
106.1995469569571
 20
-126.6570407126934
 30
0.0
 10
106.1599283588767
 20
-126.7665947491243
 30
0.0
 10
106.1599283588767
 20
-126.7665947491243
 30
0.0
 10
105.9463324387912
 20
-126.6985541132906
 30
0.0
 10
105.9463324387912
 20
-126.6985541132906
 30
0.0
 10
105.9931857373906
 20
-126.5800428285981
 30
0.0
 10
106.0372829596018
 20
-126.4766899640406
 30
0.0
 10
106.1499375819695
 20
-126.3879787552954
 30
0.0
 10
106.3035888406116
 20
-126.2682616871829
 30
0.0
 10
106.4916910541063
 20
-126.2927218651282
 30
0.0
 10
106.6022786191828
 20
-126.328034093852
 30
0.0
 10
106.8661729333529
 20
-126.4122666784664
 30
0.0
 10
107.0077663577967
 20
-126.6506672860457
 30
0.0
 10
106.9247395566021
 20
-126.9105997404078
 30
0.0
 10
106.8554931373486
 20
-127.1281575203013
 30
0.0
 10
106.7142442224534
 20
-127.1877576721961
 30
0.0
 10
106.3507866487595
 20
-127.3093695428254
 30
0.0
  0
HATCH
  5
B6
330
B1
100
AcDbEntity
  8
_U+30EC_U+30A4_U+30E4_U+30FC 1
 62
   179
420
  2234388
100
AcDbHatch
 10
0.0
 20
0.0
 30
0.0
210
0.0
220
0.0
230
1.0
  2
SOLID
 70
     1
 71
     0
 91
        1
 92
        1
 93
        1
 72
     4
 94
        3
 73
     0
 74
     1
 95
       44
 96
       40
 40
0.0
 40
0.0
 40
0.0
 40
0.0
 40
1.0
 40
1.0
 40
1.0
 40
2.0
 40
2.0
 40
2.0
 40
3.0
 40
3.0
 40
3.0
 40
4.0
 40
4.0
 40
4.0
 40
5.0
 40
5.0
 40
5.0
 40
6.0
 40
6.0
 40
6.0
 40
7.0
 40
7.0
 40
7.0
 40
8.0
 40
8.0
 40
8.0
 40
9.0
 40
9.0
 40
9.0
 40
10.0
 40
10.0
 40
10.0
 40
11.0
 40
11.0
 40
11.0
 40
12.0
 40
12.0
 40
12.0
 40
13.0
 40
13.0
 40
13.0
 40
13.0
 10
106.3507866487595
 20
-127.3093695428254
 10
106.095160563754
 20
-127.3942911465368
 10
105.984228489129
 20
-127.4366658210054
 10
105.8939669874154
 20
-127.5587944559575
 10
105.8939669874154
 20
-127.5587944559575
 10
106.6356960453897
 20
-127.7954725157942
 10
106.6356960453897
 20
-127.7954725157942
 10
106.6356960453897
 20
-127.7954725157942
 10
106.5733398171067
 20
-127.9908094298079
 10
106.5733398171067
 20
-127.9908094298079
 10
106.5733398171067
 20
-127.9908094298079
 10
105.5938991706501
 20
-127.6783392692957
 10
105.5938991706501
 20
-127.6783392692957
 10
105.7330810282542
 20
-127.3472655931632
 10
105.8192084153855
 20
-127.2928330844962
 10
106.2767170958267
 20
-127.1257459534616
 10
106.5809190271742
 20
-127.0141248597395
 10
106.6639458283687
 20
-126.9695108732056
 10
106.7056314837403
 20
-126.838597244766
 10
106.7418049863354
 20
-126.7255981128499
 10
106.7128661842593
 20
-126.5788370451782
 10
106.5254529898617
 20
-126.5190646385091
 10
106.2774061149237
 20
-126.4398274423484
 10
106.1995469569571
 20
-126.6570407126934
 10
106.1599283588767
 20
-126.7665947491243
 10
106.1599283588767
 20
-126.7665947491243
 10
105.9463324387912
 20
-126.6985541132906
 10
105.9463324387912
 20
-126.6985541132906
 10
105.9931857373906
 20
-126.5800428285981
 10
106.0372829596018
 20
-126.4766899640406
 10
106.1499375819695
 20
-126.3879787552954
 10
106.3035888406116
 20
-126.2682616871829
 10
106.4916910541063
 20
-126.2927218651282
 10
106.6022786191828
 20
-126.328034093852
 10
106.8661729333529
 20
-126.4122666784664
 10
107.0077663577967
 20
-126.6506672860457
 10
106.9247395566021
 20
-126.9105997404078
 10
106.8554931373486
 20
-127.1281575203013
 10
106.7142442224534
 20
-127.1877576721961
 10
106.3507866487595
 20
-127.3093695428254
 97
        0
 97
        0
 75
     2
 76
     1
 98
        0
  0
SPLINE
  5
B7
330
B1
100
AcDbEntity
  8
_U+30EC_U+30A4_U+30E4_U+30FC 1
370
     0
100
AcDbSpline
210
0.0
220
0.0
230
1.0
 70
    11
 71
     3
 72
    29
 73
    25
 74
     0
 42
0.0000000001
 43
0.0000000001
 12
1.0
 22
0.0
 32
0.0
 13
1.0
 23
0.0
 33
0.0
 40
0.0
 40
0.0
 40
0.0
 40
0.0
 40
1.0
 40
1.0
 40
1.0
 40
2.0
 40
2.0
 40
2.0
 40
3.0
 40
3.0
 40
3.0
 40
4.0
 40
4.0
 40
4.0
 40
5.0
 40
5.0
 40
5.0
 40
6.0
 40
6.0
 40
6.0
 40
7.0
 40
7.0
 40
7.0
 40
8.0
 40
8.0
 40
8.0
 40
8.0
 10
107.1913899471605
 20
-128.2414401263598
 30
0.0
 10
106.937141900349
 20
-128.1603081276822
 30
0.0
 10
106.7376708717531
 20
-127.9522243603731
 30
0.0
 10
106.8437798126988
 20
-127.6197726460465
 30
0.0
 10
106.9212944611169
 20
-127.3758598856908
 30
0.0
 10
107.0852810062148
 20
-127.32814531322
 30
0.0
 10
107.204825819553
 20
-127.3017903327579
 30
0.0
 10
107.1038845218351
 20
-127.207394716462
 30
0.0
 10
107.0663329810459
 20
-127.0756198141512
 30
0.0
 10
107.1149088273879
 20
-126.9224853198319
 30
0.0
 10
107.1986246476795
 20
-126.6603135534044
 30
0.0
 10
107.4291015356427
 20
-126.5919284080222
 30
0.0
 10
107.6912733020702
 20
-126.6754719735395
 30
0.0
 10
107.9613687881138
 20
-126.7615993606707
 30
0.0
 10
108.0988280979753
 20
-126.9565917651359
 30
0.0
 10
108.0175238445234
 20
-127.2104953023988
 30
0.0
 10
107.9689479981814
 20
-127.3638020514924
 30
0.0
 10
107.8593939617504
 20
-127.4485514004295
 30
0.0
 10
107.7222791614375
 20
-127.4671549160499
 30
0.0
 10
107.7918700902395
 20
-127.5426025071769
 30
0.0
 10
107.9141709799659
 20
-127.6816121100067
 30
0.0
 10
107.8342447647081
 20
-127.9315537874616
 30
0.0
 10
107.7205566136949
 20
-128.2881211701849
 30
0.0
 10
107.4191107587355
 20
-128.3141316410986
 30
0.0
 10
107.1913899471605
 20
-128.2414401263598
 30
0.0
  0
SPLINE
  5
B8
330
B1
100
AcDbEntity
  8
_U+30EC_U+30A4_U+30E4_U+30FC 1
370
     0
100
AcDbSpline
210
0.0
220
0.0
230
1.0
 70
    11
 71
     3
 72
    17
 73
    13
 74
     0
 42
0.0000000001
 43
0.0000000001
 12
1.0
 22
0.0
 32
0.0
 13
1.0
 23
0.0
 33
0.0
 40
0.0
 40
0.0
 40
0.0
 40
0.0
 40
1.0
 40
1.0
 40
1.0
 40
2.0
 40
2.0
 40
2.0
 40
3.0
 40
3.0
 40
3.0
 40
4.0
 40
4.0
 40
4.0
 40
4.0
 10
107.4318576120309
 20
-127.4876532341871
 30
0.0
 10
107.294742811718
 20
-127.4440727762987
 30
0.0
 10
107.1231770565525
 20
-127.4800740241196
 30
0.0
 10
107.0615098473666
 20
-127.6736883903906
 30
0.0
 10
106.998809109535
 20
-127.8690253044043
 30
0.0
 10
107.0894151207971
 20
-128.0045898117489
 30
0.0
 10
107.2506455895068
 20
-128.0559217344791
 30
0.0
 10
107.4277234974486
 20
-128.1124213004372
 30
0.0
 10
107.5700059409894
 20
-128.0292222444684
 30
0.0
 10
107.6240939401079
 20
-127.8598958013684
 30
0.0
 10
107.6916178116188
 20
-127.6481946837998
 30
0.0
 10
107.5586371258881
 20
-127.5281331061388
 30
0.0
 10
107.4318576120309
 20
-127.4876532341871
 30
0.0
  0
SPLINE
  5
B9
330
B1
100
AcDbEntity
  8
_U+30EC_U+30A4_U+30E4_U+30FC 1
370
     0
100
AcDbSpline
210
0.0
220
0.0
230
1.0
 70
    11
 71
     3
 72
    17
 73
    13
 74
     0
 42
0.0000000001
 43
0.0000000001
 12
1.0
 22
0.0
 32
0.0
 13
1.0
 23
0.0
 33
0.0
 40
0.0
 40
0.0
 40
0.0
 40
0.0
 40
1.0
 40
1.0
 40
1.0
 40
2.0
 40
2.0
 40
2.0
 40
3.0
 40
3.0
 40
3.0
 40
4.0
 40
4.0
 40
4.0
 40
4.0
 10
107.632706678821
 20
-126.858923308129
 30
0.0
 10
107.4752658151451
 20
-126.8087971688186
 30
0.0
 10
107.3660562882627
 20
-126.8737372187156
 30
0.0
 10
107.3247151424397
 20
-127.0025837898639
 30
0.0
 10
107.287508111199
 20
-127.1197170363624
 30
0.0
 10
107.3195474992118
 20
-127.2542480150614
 30
0.0
 10
107.4890461970861
 20
-127.3083360141799
 30
0.0
 10
107.6582003854118
 20
-127.3624240132983
 30
0.0
 10
107.7629312881634
 20
-127.2714734924877
 30
0.0
 10
107.8001383194041
 20
-127.1543402459892
 30
0.0
 10
107.8414794652271
 20
-127.0254936748409
 30
0.0
 10
107.7877359756572
 20
-126.9083604283424
 30
0.0
 10
107.632706678821
 20
-126.858923308129
 30
0.0
  0
HATCH
  5
BA
330
B1
100
AcDbEntity
  8
_U+30EC_U+30A4_U+30E4_U+30FC 1
 62
   179
420
  2234388
100
AcDbHatch
 10
0.0
 20
0.0
 30
0.0
210
0.0
220
0.0
230
1.0
  2
SOLID
 70
     1
 71
     0
 91
        3
 92
        1
 93
        1
 72
     4
 94
        3
 73
     0
 74
     1
 95
       29
 96
       25
 40
0.0
 40
0.0
 40
0.0
 40
0.0
 40
1.0
 40
1.0
 40
1.0
 40
2.0
 40
2.0
 40
2.0
 40
3.0
 40
3.0
 40
3.0
 40
4.0
 40
4.0
 40
4.0
 40
5.0
 40
5.0
 40
5.0
 40
6.0
 40
6.0
 40
6.0
 40
7.0
 40
7.0
 40
7.0
 40
8.0
 40
8.0
 40
8.0
 40
8.0
 10
107.1913899471605
 20
-128.2414401263598
 10
106.937141900349
 20
-128.1603081276822
 10
106.7376708717531
 20
-127.9522243603731
 10
106.8437798126988
 20
-127.6197726460465
 10
106.9212944611169
 20
-127.3758598856908
 10
107.0852810062148
 20
-127.32814531322
 10
107.204825819553
 20
-127.3017903327579
 10
107.1038845218351
 20
-127.207394716462
 10
107.0663329810459
 20
-127.0756198141512
 10
107.1149088273879
 20
-126.9224853198319
 10
107.1986246476795
 20
-126.6603135534044
 10
107.4291015356427
 20
-126.5919284080222
 10
107.6912733020702
 20
-126.6754719735395
 10
107.9613687881138
 20
-126.7615993606707
 10
108.0988280979753
 20
-126.9565917651359
 10
108.0175238445234
 20
-127.2104953023988
 10
107.9689479981814
 20
-127.3638020514924
 10
107.8593939617504
 20
-127.4485514004295
 10
107.7222791614375
 20
-127.4671549160499
 10
107.7918700902395
 20
-127.5426025071769
 10
107.9141709799659
 20
-127.6816121100067
 10
107.8342447647081
 20
-127.9315537874616
 10
107.7205566136949
 20
-128.2881211701849
 10
107.4191107587355
 20
-128.3141316410986
 10
107.1913899471605
 20
-128.2414401263598
 97
        0
 97
        0
 92
        1
 93
        1
 72
     4
 94
        3
 73
     0
 74
     1
 95
       17
 96
       13
 40
0.0
 40
0.0
 40
0.0
 40
0.0
 40
1.0
 40
1.0
 40
1.0
 40
2.0
 40
2.0
 40
2.0
 40
3.0
 40
3.0
 40
3.0
 40
4.0
 40
4.0
 40
4.0
 40
4.0
 10
107.4318576120309
 20
-127.4876532341871
 10
107.294742811718
 20
-127.4440727762987
 10
107.1231770565525
 20
-127.4800740241196
 10
107.0615098473666
 20
-127.6736883903906
 10
106.998809109535
 20
-127.8690253044043
 10
107.0894151207971
 20
-128.0045898117489
 10
107.2506455895068
 20
-128.0559217344791
 10
107.4277234974486
 20
-128.1124213004372
 10
107.5700059409894
 20
-128.0292222444684
 10
107.6240939401079
 20
-127.8598958013684
 10
107.6916178116188
 20
-127.6481946837998
 10
107.5586371258881
 20
-127.5281331061388
 10
107.4318576120309
 20
-127.4876532341871
 97
        0
 97
        0
 92
        1
 93
        1
 72
     4
 94
        3
 73
     0
 74
     1
 95
       17
 96
       13
 40
0.0
 40
0.0
 40
0.0
 40
0.0
 40
1.0
 40
1.0
 40
1.0
 40
2.0
 40
2.0
 40
2.0
 40
3.0
 40
3.0
 40
3.0
 40
4.0
 40
4.0
 40
4.0
 40
4.0
 10
107.632706678821
 20
-126.858923308129
 10
107.4752658151451
 20
-126.8087971688186
 10
107.3660562882627
 20
-126.8737372187156
 10
107.3247151424397
 20
-127.0025837898639
 10
107.287508111199
 20
-127.1197170363624
 10
107.3195474992118
 20
-127.2542480150614
 10
107.4890461970861
 20
-127.3083360141799
 10
107.6582003854118
 20
-127.3624240132983
 10
107.7629312881634
 20
-127.2714734924877
 10
107.8001383194041
 20
-127.1543402459892
 10
107.8414794652271
 20
-127.0254936748409
 10
107.7877359756572
 20
-126.9083604283424
 10
107.632706678821
 20
-126.858923308129
 97
        0
 97
        0
 75
     2
 76
     1
 98
        0
  0
ENDBLK
  5
B4
330
B1
100
AcDbEntity
  8
0
100
AcDbBlockEnd
  0
BLOCK
  5
CE
330
CC
100
AcDbEntity
  8
0
100
AcDbBlockBegin
  2
block 5
 70
     0
 10
0.0
 20
0.0
 30
0.0
  3
block 5
  1

  0
SPLINE
  5
D0
330
CC
100
AcDbEntity
  8
_U+30EC_U+30A4_U+30E4_U+30FC 1
370
     0
100
AcDbSpline
210
0.0
220
0.0
230
1.0
 70
    11
 71
     3
 72
    44
 73
    40
 74
     0
 42
0.0000000001
 43
0.0000000001
 12
1.0
 22
0.0
 32
0.0
 13
1.0
 23
0.0
 33
0.0
 40
0.0
 40
0.0
 40
0.0
 40
0.0
 40
1.0
 40
1.0
 40
1.0
 40
2.0
 40
2.0
 40
2.0
 40
3.0
 40
3.0
 40
3.0
 40
4.0
 40
4.0
 40
4.0
 40
5.0
 40
5.0
 40
5.0
 40
6.0
 40
6.0
 40
6.0
 40
7.0
 40
7.0
 40
7.0
 40
8.0
 40
8.0
 40
8.0
 40
9.0
 40
9.0
 40
9.0
 40
10.0
 40
10.0
 40
10.0
 40
11.0
 40
11.0
 40
11.0
 40
12.0
 40
12.0
 40
12.0
 40
13.0
 40
13.0
 40
13.0
 40
13.0
 10
74.5094916263379
 20
-127.898997635126
 30
0.0
 10
74.35032821491937
 20
-128.1165554150195
 30
0.0
 10
74.28418238160256
 20
-128.2154296554461
 30
0.0
 10
74.28142630521437
 20
-128.3673583663457
 30
0.0
 10
74.28142630521437
 20
-128.3673583663457
 30
0.0
 10
75.02281085364014
 20
-128.130680306509
 30
0.0
 10
75.02281085364014
 20
-128.130680306509
 30
0.0
 10
75.02281085364014
 20
-128.130680306509
 30
0.0
 10
75.08551159147169
 20
-128.3260172205227
 30
0.0
 10
75.08551159147169
 20
-128.3260172205227
 30
0.0
 10
75.08551159147169
 20
-128.3260172205227
 30
0.0
 10
74.10607094501515
 20
-128.6384873810348
 30
0.0
 10
74.10607094501515
 20
-128.6384873810348
 30
0.0
 10
74.02752276795145
 20
-128.2881211701849
 30
0.0
 10
74.06610783738626
 20
-128.1938978086633
 30
0.0
 10
74.34240449530328
 20
-127.7925441846317
 30
0.0
 10
74.52568357511858
 20
-127.5257215392991
 30
0.0
 10
74.5673692304901
 20
-127.440972190362
 30
0.0
 10
74.52568357511858
 20
-127.3100585619225
 30
0.0
 10
74.48951007252346
 20
-127.1970594300063
 30
0.0
 10
74.38133407428661
 20
-127.0942233297716
 30
0.0
 10
74.19392087988902
 20
-127.1539957364407
 30
0.0
 10
73.94587400495104
 20
-127.2330606778272
 30
0.0
 10
74.00788572368553
 20
-127.4550970818515
 30
0.0
 10
74.03958060214983
 20
-127.5674071946707
 30
0.0
 10
74.03958060214983
 20
-127.5674071946707
 30
0.0
 10
73.82598468206434
 20
-127.6354478305043
 30
0.0
 10
73.82598468206434
 20
-127.6354478305043
 30
0.0
 10
73.79532333224562
 20
-127.5119411573581
 30
0.0
 10
73.77120766384887
 20
-127.4020426113787
 30
0.0
 10
73.81185979057481
 20
-127.2645833015172
 30
0.0
 10
73.86767033743587
 20
-127.0782036357652
 30
0.0
 10
74.03475746847047
 20
-126.9891479174715
 30
0.0
 10
74.14568954309553
 20
-126.9538356887477
 30
0.0
 10
74.40958385726566
 20
-126.869430849359
 30
0.0
 10
74.66314288498005
 20
-126.9819132169524
 30
0.0
 10
74.74582517662604
 20
-127.2416734165403
 30
0.0
 10
74.8154161054281
 20
-127.4597479607566
 30
0.0
 10
74.73480087107325
 20
-127.5894558057763
 30
0.0
 10
74.5094916263379
 20
-127.898997635126
 30
0.0
  0
HATCH
  5
D1
330
CC
100
AcDbEntity
  8
_U+30EC_U+30A4_U+30E4_U+30FC 1
 62
   179
420
  2234388
100
AcDbHatch
 10
0.0
 20
0.0
 30
0.0
210
0.0
220
0.0
230
1.0
  2
SOLID
 70
     1
 71
     0
 91
        1
 92
        1
 93
        1
 72
     4
 94
        3
 73
     0
 74
     1
 95
       44
 96
       40
 40
0.0
 40
0.0
 40
0.0
 40
0.0
 40
1.0
 40
1.0
 40
1.0
 40
2.0
 40
2.0
 40
2.0
 40
3.0
 40
3.0
 40
3.0
 40
4.0
 40
4.0
 40
4.0
 40
5.0
 40
5.0
 40
5.0
 40
6.0
 40
6.0
 40
6.0
 40
7.0
 40
7.0
 40
7.0
 40
8.0
 40
8.0
 40
8.0
 40
9.0
 40
9.0
 40
9.0
 40
10.0
 40
10.0
 40
10.0
 40
11.0
 40
11.0
 40
11.0
 40
12.0
 40
12.0
 40
12.0
 40
13.0
 40
13.0
 40
13.0
 40
13.0
 10
74.5094916263379
 20
-127.898997635126
 10
74.35032821491937
 20
-128.1165554150195
 10
74.28418238160256
 20
-128.2154296554461
 10
74.28142630521437
 20
-128.3673583663457
 10
74.28142630521437
 20
-128.3673583663457
 10
75.02281085364014
 20
-128.130680306509
 10
75.02281085364014
 20
-128.130680306509
 10
75.02281085364014
 20
-128.130680306509
 10
75.08551159147169
 20
-128.3260172205227
 10
75.08551159147169
 20
-128.3260172205227
 10
75.08551159147169
 20
-128.3260172205227
 10
74.10607094501515
 20
-128.6384873810348
 10
74.10607094501515
 20
-128.6384873810348
 10
74.02752276795145
 20
-128.2881211701849
 10
74.06610783738626
 20
-128.1938978086633
 10
74.34240449530328
 20
-127.7925441846317
 10
74.52568357511858
 20
-127.5257215392991
 10
74.5673692304901
 20
-127.440972190362
 10
74.52568357511858
 20
-127.3100585619225
 10
74.48951007252346
 20
-127.1970594300063
 10
74.38133407428661
 20
-127.0942233297716
 10
74.19392087988902
 20
-127.1539957364407
 10
73.94587400495104
 20
-127.2330606778272
 10
74.00788572368553
 20
-127.4550970818515
 10
74.03958060214983
 20
-127.5674071946707
 10
74.03958060214983
 20
-127.5674071946707
 10
73.82598468206434
 20
-127.6354478305043
 10
73.82598468206434
 20
-127.6354478305043
 10
73.79532333224562
 20
-127.5119411573581
 10
73.77120766384887
 20
-127.4020426113787
 10
73.81185979057481
 20
-127.2645833015172
 10
73.86767033743587
 20
-127.0782036357652
 10
74.03475746847047
 20
-126.9891479174715
 10
74.14568954309553
 20
-126.9538356887477
 10
74.40958385726566
 20
-126.869430849359
 10
74.66314288498005
 20
-126.9819132169524
 10
74.74582517662604
 20
-127.2416734165403
 10
74.8154161054281
 20
-127.4597479607566
 10
74.73480087107325
 20
-127.5894558057763
 10
74.5094916263379
 20
-127.898997635126
 97
        0
 97
        0
 75
     2
 76
     1
 98
        0
  0
SPLINE
  5
D2
330
CC
100
AcDbEntity
  8
_U+30EC_U+30A4_U+30E4_U+30FC 1
370
     0
100
AcDbSpline
210
0.0
220
0.0
230
1.0
 70
    11
 71
     3
 72
    29
 73
    25
 74
     0
 42
0.0000000001
 43
0.0000000001
 12
1.0
 22
0.0
 32
0.0
 13
1.0
 23
0.0
 33
0.0
 40
0.0
 40
0.0
 40
0.0
 40
0.0
 40
1.0
 40
1.0
 40
1.0
 40
2.0
 40
2.0
 40
2.0
 40
3.0
 40
3.0
 40
3.0
 40
4.0
 40
4.0
 40
4.0
 40
5.0
 40
5.0
 40
5.0
 40
6.0
 40
6.0
 40
6.0
 40
7.0
 40
7.0
 40
7.0
 40
8.0
 40
8.0
 40
8.0
 40
8.0
 10
75.7338785617957
 20
-128.1721937071063
 30
0.0
 10
75.48031953408132
 20
-128.2531534510096
 30
0.0
 10
75.19644366609673
 20
-128.1994099614397
 30
0.0
 10
75.09033472515102
 20
-127.8669582471131
 30
0.0
 10
75.01247556718438
 20
-127.6230454867574
 30
0.0
 10
75.11858450813008
 20
-127.4893757819298
 30
0.0
 10
75.20092229022755
 20
-127.3989420254419
 30
0.0
 10
75.06415199946314
 20
-127.3803385098216
 30
0.0
 10
74.95666502032334
 20
-127.2947278870131
 30
0.0
 10
74.90774466443278
 20
-127.1414211379195
 30
0.0
 10
74.82437335368974
 20
-126.8795938810405
 30
0.0
 10
74.97251245955549
 20
-126.6899413745775
 30
0.0
 10
75.23433971643448
 20
-126.6063978090602
 30
0.0
 10
75.50443520247806
 20
-126.5200981671547
 30
0.0
 10
75.7297444472134
 20
-126.5993353633154
 30
0.0
 10
75.81070419111677
 20
-126.8532389005784
 30
0.0
 10
75.85962454700731
 20
-127.006545649672
 30
0.0
 10
75.82000594892695
 20
-127.1391818258541
 30
0.0
 10
75.7187201416606
 20
-127.2337496969242
 30
0.0
 10
75.81897242028137
 20
-127.2549370341585
 30
0.0
 10
75.99915091415994
 20
-127.2973117086271
 30
0.0
 10
76.07873261986921
 20
-127.5474256408562
 30
0.0
 10
76.19276528043098
 20
-127.9039930235796
 30
0.0
 10
75.96194388291924
 20
-128.0995021923675
 30
0.0
 10
75.7338785617957
 20
-128.1721937071063
 30
0.0
  0
SPLINE
  5
D3
330
CC
100
AcDbEntity
  8
_U+30EC_U+30A4_U+30E4_U+30FC 1
370
     0
100
AcDbSpline
210
0.0
220
0.0
230
1.0
 70
    11
 71
     3
 72
    17
 73
    13
 74
     0
 42
0.0000000001
 43
0.0000000001
 12
1.0
 22
0.0
 32
0.0
 13
1.0
 23
0.0
 33
0.0
 40
0.0
 40
0.0
 40
0.0
 40
0.0
 40
1.0
 40
1.0
 40
1.0
 40
2.0
 40
2.0
 40
2.0
 40
3.0
 40
3.0
 40
3.0
 40
4.0
 40
4.0
 40
4.0
 40
4.0
 10
75.29290633968373
 20
-126.790021398424
 30
0.0
 10
75.13580998555634
 20
-126.8401475377344
 30
0.0
 10
75.08413355327758
 20
-126.9564195103616
 30
0.0
 10
75.12547469910058
 20
-127.0852660815099
 30
0.0
 10
75.16268173034128
 20
-127.2020548184599
 30
0.0
 10
75.26741263309287
 20
-127.2931775940448
 30
0.0
 10
75.43622231187011
 20
-127.2392618497006
 30
0.0
 10
75.6057210097444
 20
-127.1851738505822
 30
0.0
 10
75.63810490730576
 20
-127.0502983623347
 30
0.0
 10
75.60089787606506
 20
-126.9335096253847
 30
0.0
 10
75.55955673024206
 20
-126.8046630542363
 30
0.0
 10
75.44828014606848
 20
-126.7404120234364
 30
0.0
 10
75.29290633968373
 20
-126.790021398424
 30
0.0
  0
SPLINE
  5
D4
330
CC
100
AcDbEntity
  8
_U+30EC_U+30A4_U+30E4_U+30FC 1
370
     0
100
AcDbSpline
210
0.0
220
0.0
230
1.0
 70
    11
 71
     3
 72
    17
 73
    13
 74
     0
 42
0.0000000001
 43
0.0000000001
 12
1.0
 22
0.0
 32
0.0
 13
1.0
 23
0.0
 33
0.0
 40
0.0
 40
0.0
 40
0.0
 40
0.0
 40
1.0
 40
1.0
 40
1.0
 40
2.0
 40
2.0
 40
2.0
 40
3.0
 40
3.0
 40
3.0
 40
4.0
 40
4.0
 40
4.0
 40
4.0
 10
75.49375540647378
 20
-127.4187513244821
 30
0.0
 10
75.35664060616084
 20
-127.4623317823705
 30
0.0
 10
75.23812932146825
 20
-127.5913506082931
 30
0.0
 10
75.29979653065422
 20
-127.7846204650156
 30
0.0
 10
75.36215275893724
 20
-127.9803018885778
 30
0.0
 10
75.51373696028824
 20
-128.0381794927301
 30
0.0
 10
75.67496742899793
 20
-127.9868475699998
 30
0.0
 10
75.8523898464883
 20
-127.9301757492675
 30
0.0
 10
75.9199137179992
 20
-127.7799695861106
 30
0.0
 10
75.86582571888077
 20
-127.6104708882363
 30
0.0
 10
75.7986463569184
 20
-127.3992865349905
 30
0.0
 10
75.62087942987951
 20
-127.3782714525304
 30
0.0
 10
75.49375540647378
 20
-127.4187513244821
 30
0.0
  0
HATCH
  5
D5
330
CC
100
AcDbEntity
  8
_U+30EC_U+30A4_U+30E4_U+30FC 1
 62
   179
420
  2234388
100
AcDbHatch
 10
0.0
 20
0.0
 30
0.0
210
0.0
220
0.0
230
1.0
  2
SOLID
 70
     1
 71
     0
 91
        3
 92
        1
 93
        1
 72
     4
 94
        3
 73
     0
 74
     1
 95
       29
 96
       25
 40
0.0
 40
0.0
 40
0.0
 40
0.0
 40
1.0
 40
1.0
 40
1.0
 40
2.0
 40
2.0
 40
2.0
 40
3.0
 40
3.0
 40
3.0
 40
4.0
 40
4.0
 40
4.0
 40
5.0
 40
5.0
 40
5.0
 40
6.0
 40
6.0
 40
6.0
 40
7.0
 40
7.0
 40
7.0
 40
8.0
 40
8.0
 40
8.0
 40
8.0
 10
75.7338785617957
 20
-128.1721937071063
 10
75.48031953408132
 20
-128.2531534510096
 10
75.19644366609673
 20
-128.1994099614397
 10
75.09033472515102
 20
-127.8669582471131
 10
75.01247556718438
 20
-127.6230454867574
 10
75.11858450813008
 20
-127.4893757819298
 10
75.20092229022755
 20
-127.3989420254419
 10
75.06415199946314
 20
-127.3803385098216
 10
74.95666502032334
 20
-127.2947278870131
 10
74.90774466443278
 20
-127.1414211379195
 10
74.82437335368974
 20
-126.8795938810405
 10
74.97251245955549
 20
-126.6899413745775
 10
75.23433971643448
 20
-126.6063978090602
 10
75.50443520247806
 20
-126.5200981671547
 10
75.7297444472134
 20
-126.5993353633154
 10
75.81070419111677
 20
-126.8532389005784
 10
75.85962454700731
 20
-127.006545649672
 10
75.82000594892695
 20
-127.1391818258541
 10
75.7187201416606
 20
-127.2337496969242
 10
75.81897242028137
 20
-127.2549370341585
 10
75.99915091415994
 20
-127.2973117086271
 10
76.07873261986921
 20
-127.5474256408562
 10
76.19276528043098
 20
-127.9039930235796
 10
75.96194388291924
 20
-128.0995021923675
 10
75.7338785617957
 20
-128.1721937071063
 97
        0
 97
        0
 92
        1
 93
        1
 72
     4
 94
        3
 73
     0
 74
     1
 95
       17
 96
       13
 40
0.0
 40
0.0
 40
0.0
 40
0.0
 40
1.0
 40
1.0
 40
1.0
 40
2.0
 40
2.0
 40
2.0
 40
3.0
 40
3.0
 40
3.0
 40
4.0
 40
4.0
 40
4.0
 40
4.0
 10
75.29290633968373
 20
-126.790021398424
 10
75.13580998555634
 20
-126.8401475377344
 10
75.08413355327758
 20
-126.9564195103616
 10
75.12547469910058
 20
-127.0852660815099
 10
75.16268173034128
 20
-127.2020548184599
 10
75.26741263309287
 20
-127.2931775940448
 10
75.43622231187011
 20
-127.2392618497006
 10
75.6057210097444
 20
-127.1851738505822
 10
75.63810490730576
 20
-127.0502983623347
 10
75.60089787606506
 20
-126.9335096253847
 10
75.55955673024206
 20
-126.8046630542363
 10
75.44828014606848
 20
-126.7404120234364
 10
75.29290633968373
 20
-126.790021398424
 97
        0
 97
        0
 92
        1
 93
        1
 72
     4
 94
        3
 73
     0
 74
     1
 95
       17
 96
       13
 40
0.0
 40
0.0
 40
0.0
 40
0.0
 40
1.0
 40
1.0
 40
1.0
 40
2.0
 40
2.0
 40
2.0
 40
3.0
 40
3.0
 40
3.0
 40
4.0
 40
4.0
 40
4.0
 40
4.0
 10
75.49375540647378
 20
-127.4187513244821
 10
75.35664060616084
 20
-127.4623317823705
 10
75.23812932146825
 20
-127.5913506082931
 10
75.29979653065422
 20
-127.7846204650156
 10
75.36215275893724
 20
-127.9803018885778
 10
75.51373696028824
 20
-128.0381794927301
 10
75.67496742899793
 20
-127.9868475699998
 10
75.8523898464883
 20
-127.9301757492675
 10
75.9199137179992
 20
-127.7799695861106
 10
75.86582571888077
 20
-127.6104708882363
 10
75.7986463569184
 20
-127.3992865349905
 10
75.62087942987951
 20
-127.3782714525304
 10
75.49375540647378
 20
-127.4187513244821
 97
        0
 97
        0
 75
     2
 76
     1
 98
        0
  0
ENDBLK
  5
CF
330
CC
100
AcDbEntity
  8
0
100
AcDbBlockEnd
  0
ENDSEC
  0
SECTION
  2
ENTITIES
  0
INSERT
  5
42
330
1F
100
AcDbEntity
  8
_U+30EC_U+30A4_U+30E4_U+30FC 1
100
AcDbBlockReference
  2
block 2
 10
0.0
 20
0.0
 30
0.0
  0
ENDSEC
  0
SECTION
  2
OBJECTS
  0
DICTIONARY
  5
C
330
0
100
AcDbDictionary
281
     1
  3
ACAD_GROUP
350
D
  3
ACAD_LAYOUT
350
1A
  3
ACAD_MATERIAL
350
3B
  3
ACAD_MLEADERSTYLE
350
E5
  3
ACAD_MLINESTYLE
350
17
  3
ACAD_PLOTSETTINGS
350
19
  3
ACAD_PLOTSTYLENAME
350
E
  3
ACAD_TABLESTYLE
350
E4
  3
ACAD_VISUALSTYLE
350
2A
  0
SUN
  5
3F
330
29
100
AcDbSun
 90
        1
290
     0
 63
     7
421
 16777215
 40
1.0
291
     1
 91
  2455826
 92
 54000000
292
     0
 70
     2
 71
   256
280
     1
  0
DICTIONARY
  5
D
102
{ACAD_REACTORS
330
C
102
}
330
C
100
AcDbDictionary
281
     1
  0
DICTIONARY
  5
1A
102
{ACAD_REACTORS
330
C
102
}
330
C
100
AcDbDictionary
281
     1
  3
Layout1
350
1E
  3
Layout2
350
26
  3
Model
350
22
  0
DICTIONARY
  5
3B
102
{ACAD_REACTORS
330
C
102
}
330
C
100
AcDbDictionary
281
     1
  3
ByBlock
350
3D
  3
ByLayer
350
3C
  3
Global
350
3E
  0
DICTIONARY
  5
E5
102
{ACAD_REACTORS
330
C
102
}
330
C
100
AcDbDictionary
281
     1
  0
DICTIONARY
  5
17
102
{ACAD_REACTORS
330
C
102
}
330
C
100
AcDbDictionary
281
     1
  3
Standard
350
18
  0
DICTIONARY
  5
19
102
{ACAD_REACTORS
330
C
102
}
330
C
100
AcDbDictionary
281
     1
  0
ACDBDICTIONARYWDFLT
  5
E
102
{ACAD_REACTORS
330
C
102
}
330
C
100
AcDbDictionary
281
     1
  3
Normal
350
F
100
AcDbDictionaryWithDefault
340
F
  0
DICTIONARY
  5
E4
102
{ACAD_REACTORS
330
C
102
}
330
C
100
AcDbDictionary
281
     1
  0
DICTIONARY
  5
2A
102
{ACAD_REACTORS
330
C
102
}
330
C
100
AcDbDictionary
281
     1
  3
2dWireframe
350
2F
  3
3D Hidden
350
31
  3
3dWireframe
350
30
  3
Basic
350
32
  3
Brighten
350
36
  3
ColorChange
350
3A
  3
Conceptual
350
34
  3
Dim
350
35
  3
Facepattern
350
39
  3
Flat
350
2B
  3
FlatWithEdges
350
2C
  3
Gouraud
350
2D
  3
GouraudWithEdges
350
2E
  3
Linepattern
350
38
  3
Realistic
350
33
  3
Thicken
350
37
  0
LAYOUT
  5
1E
102
{ACAD_REACTORS
330
1A
102
}
330
1A
100
AcDbPlotSettings
  1

  2
none_device
  4

  6

 40
0.0
 41
0.0
 42
0.0
 43
0.0
 44
0.0
 45
0.0
 46
0.0
 47
0.0
 48
0.0
 49
0.0
140
0.0
141
0.0
142
1.0
143
1.0
 70
   688
 72
     0
 73
     0
 74
     5
  7

 75
    16
 76
     0
 77
     2
 78
   300
147
1.0
148
0.0
149
0.0
100
AcDbLayout
  1
Layout1
 70
     1
 71
     1
 10
0.0
 20
0.0
 11
12.0
 21
9.0
 12
0.0
 22
0.0
 32
0.0
 14
1.000000000000000E+20
 24
1.000000000000000E+20
 34
1.000000000000000E+20
 15
-1.000000000000000E+20
 25
-1.000000000000000E+20
 35
-1.000000000000000E+20
146
0.0
 13
0.0
 23
0.0
 33
0.0
 16
1.0
 26
0.0
 36
0.0
 17
0.0
 27
1.0
 37
0.0
 76
     0
330
1B
  0
LAYOUT
  5
26
102
{ACAD_REACTORS
330
1A
102
}
330
1A
100
AcDbPlotSettings
  1

  2
none_device
  4

  6

 40
0.0
 41
0.0
 42
0.0
 43
0.0
 44
0.0
 45
0.0
 46
0.0
 47
0.0
 48
0.0
 49
0.0
140
0.0
141
0.0
142
1.0
143
1.0
 70
   688
 72
     0
 73
     0
 74
     5
  7

 75
    16
 76
     0
 77
     2
 78
   300
147
1.0
148
0.0
149
0.0
100
AcDbLayout
  1
Layout2
 70
     1
 71
     2
 10
0.0
 20
0.0
 11
0.0
 21
0.0
 12
0.0
 22
0.0
 32
0.0
 14
0.0
 24
0.0
 34
0.0
 15
0.0
 25
0.0
 35
0.0
146
0.0
 13
0.0
 23
0.0
 33
0.0
 16
1.0
 26
0.0
 36
0.0
 17
0.0
 27
1.0
 37
0.0
 76
     0
330
23
  0
LAYOUT
  5
22
102
{ACAD_REACTORS
330
1A
102
}
330
1A
100
AcDbPlotSettings
  1

  2
none_device
  4

  6

 40
0.0
 41
0.0
 42
0.0
 43
0.0
 44
0.0
 45
0.0
 46
0.0
 47
0.0
 48
0.0
 49
0.0
140
0.0
141
0.0
142
1.0
143
1.0
 70
  1712
 72
     0
 73
     0
 74
     0
  7

 75
     0
 76
     0
 77
     2
 78
   300
147
1.0
148
0.0
149
0.0
100
AcDbLayout
  1
Model
 70
     1
 71
     0
 10
0.0
 20
0.0
 11
12.0
 21
9.0
 12
0.0
 22
0.0
 32
0.0
 14
1.000000000000000E+20
 24
1.000000000000000E+20
 34
1.000000000000000E+20
 15
-1.000000000000000E+20
 25
-1.000000000000000E+20
 35
-1.000000000000000E+20
146
0.0
 13
0.0
 23
0.0
 33
0.0
 16
1.0
 26
0.0
 36
0.0
 17
0.0
 27
1.0
 37
0.0
 76
     0
330
1F
331
29
  0
MATERIAL
  5
3D
102
{ACAD_REACTORS
330
3B
102
}
330
3B
100
AcDbMaterial
  1
ByBlock
 72
     1
 94
      127
  0
MATERIAL
  5
3C
102
{ACAD_REACTORS
330
3B
102
}
330
3B
100
AcDbMaterial
  1
ByLayer
 72
     1
 94
      127
  0
MATERIAL
  5
3E
102
{ACAD_REACTORS
330
3B
102
}
330
3B
100
AcDbMaterial
  1
Global
 72
     1
 94
      127
  0
MLINESTYLE
  5
18
102
{ACAD_REACTORS
330
17
102
}
330
17
100
AcDbMlineStyle
  2
Standard
 70
     0
  3

 62
   256
 51
90.0
 52
90.0
 71
     2
 49
0.5
 62
   256
  6
BYLAYER
 49
-0.5
 62
   256
  6
BYLAYER
  0
ACDBPLACEHOLDER
  5
F
102
{ACAD_REACTORS
330
E
102
}
330
E
  0
VISUALSTYLE
  5
2F
102
{ACAD_REACTORS
330
2A
102
}
330
2A
100
AcDbVisualStyle
  2
2dWireframe
 70
     4
177
     2
291
     0
 71
     0
176
     1
 72
     2
176
     1
 73
     0
176
     1
 90
        0
176
     1
 40
-0.6
176
     1
 41
-30.0
176
     1
 62
     5
 63
     7
421
 16777215
176
     1
 74
     1
176
     1
 91
        4
176
     1
 64
     7
176
     1
 65
   257
176
     1
 75
     1
176
     1
175
     1
176
     1
 42
1.0
176
     1
 92
        0
176
     1
 66
   257
176
     1
 43
1.0
176
     1
 76
     1
176
     1
 77
     6
176
     1
 78
     2
176
     1
 67
     7
176
     1
 79
     5
176
     1
170
     0
176
     1
171
     0
176
     1
290
     0
176
     1
 93
        1
176
     1
 44
0.0
176
     1
173
     0
176
     1
  0
VISUALSTYLE
  5
31
102
{ACAD_REACTORS
330
2A
102
}
330
2A
100
AcDbVisualStyle
  2
3D Hidden
 70
     6
177
     2
291
     0
 71
     1
176
     1
 72
     2
176
     1
 73
     2
176
     1
 90
        0
176
     1
 40
-0.6
176
     1
 41
-30.0
176
     1
 62
     5
 63
     7
421
 16777215
176
     1
 74
     2
176
     1
 91
        2
176
     1
 64
     7
176
     1
 65
   257
176
     1
 75
     2
176
     1
175
     1
176
     1
 42
40.0
176
     1
 92
        0
176
     1
 66
   257
176
     1
 43
1.0
176
     1
 76
     1
176
     1
 77
     6
176
     1
 78
     2
176
     1
 67
     7
176
     1
 79
     3
176
     1
170
     0
176
     1
171
     0
176
     1
290
     0
176
     1
 93
        1
176
     1
 44
0.0
176
     1
173
     0
176
     1
  0
VISUALSTYLE
  5
30
102
{ACAD_REACTORS
330
2A
102
}
330
2A
100
AcDbVisualStyle
  2
3dWireframe
 70
     5
177
     2
291
     0
 71
     0
176
     1
 72
     2
176
     1
 73
     0
176
     1
 90
        0
176
     1
 40
-0.6
176
     1
 41
-30.0
176
     1
 62
     5
 63
     7
421
 16777215
176
     1
 74
     1
176
     1
 91
        4
176
     1
 64
     7
176
     1
 65
   257
176
     1
 75
     1
176
     1
175
     1
176
     1
 42
1.0
176
     1
 92
        0
176
     1
 66
   257
176
     1
 43
1.0
176
     1
 76
     1
176
     1
 77
     6
176
     1
 78
     2
176
     1
 67
     7
176
     1
 79
     5
176
     1
170
     0
176
     1
171
     0
176
     1
290
     0
176
     1
 93
        1
176
     1
 44
0.0
176
     1
173
     0
176
     1
  0
VISUALSTYLE
  5
32
102
{ACAD_REACTORS
330
2A
102
}
330
2A
100
AcDbVisualStyle
  2
Basic
 70
     7
177
     2
291
     1
 71
     1
176
     1
 72
     0
176
     1
 73
     1
176
     1
 90
        0
176
     1
 40
-0.6
176
     1
 41
-30.0
176
     1
 62
     5
 63
     7
421
 16777215
176
     1
 74
     0
176
     1
 91
        4
176
     1
 64
     7
176
     1
 65
   257
176
     1
 75
     1
176
     1
175
     1
176
     1
 42
1.0
176
     1
 92
        8
176
     1
 66
     7
176
     1
 43
1.0
176
     1
 76
     1
176
     1
 77
     6
176
     1
 78
     2
176
     1
 67
     7
176
     1
 79
     5
176
     1
170
     0
176
     1
171
     0
176
     1
290
     0
176
     1
 93
        1
176
     1
 44
0.0
176
     1
173
     0
176
     1
  0
VISUALSTYLE
  5
36
102
{ACAD_REACTORS
330
2A
102
}
330
2A
100
AcDbVisualStyle
  2
Brighten
 70
    12
177
     2
291
     1
 71
     2
176
     1
 72
     2
176
     1
 73
     0
176
     1
 90
        0
176
     1
 40
-0.6
176
     1
 41
-30.0
176
     1
 62
     5
 63
     7
421
 16777215
176
     1
 74
     1
176
     1
 91
        4
176
     1
 64
     7
176
     1
 65
   257
176
     1
 75
     1
176
     1
175
     1
176
     1
 42
1.0
176
     1
 92
        8
176
     1
 66
     7
176
     1
 43
1.0
176
     1
 76
     1
176
     1
 77
     6
176
     1
 78
     2
176
     1
 67
     7
176
     1
 79
     5
176
     1
170
     0
176
     1
171
     0
176
     1
290
     0
176
     1
 93
        1
176
     1
 44
50.0
176
     1
173
     0
176
     1
  0
VISUALSTYLE
  5
3A
102
{ACAD_REACTORS
330
2A
102
}
330
2A
100
AcDbVisualStyle
  2
ColorChange
 70
    16
177
     2
291
     1
 71
     2
176
     1
 72
     2
176
     1
 73
     3
176
     1
 90
        0
176
     1
 40
-0.6
176
     1
 41
-30.0
176
     1
 62
     5
 63
     8
421
  8421504
176
     1
 74
     1
176
     1
 91
        4
176
     1
 64
     7
176
     1
 65
   257
176
     1
 75
     1
176
     1
175
     1
176
     1
 42
1.0
176
     1
 92
        8
176
     1
 66
     8
424
  8421504
176
     1
 43
1.0
176
     1
 76
     1
176
     1
 77
     6
176
     1
 78
     2
176
     1
 67
     7
176
     1
 79
     5
176
     1
170
     0
176
     1
171
     0
176
     1
290
     0
176
     1
 93
        1
176
     1
 44
0.0
176
     1
173
     0
176
     1
  0
VISUALSTYLE
  5
34
102
{ACAD_REACTORS
330
2A
102
}
330
2A
100
AcDbVisualStyle
  2
Conceptual
 70
     9
177
     2
291
     0
 71
     3
176
     1
 72
     2
176
     1
 73
     0
176
     1
 90
        0
176
     1
 40
-0.6
176
     1
 41
-30.0
176
     1
 62
     5
 63
     7
421
 16777215
176
     1
 74
     2
176
     1
 91
        2
176
     1
 64
     7
176
     1
 65
   257
176
     1
 75
     1
176
     1
175
     1
176
     1
 42
40.0
176
     1
 92
        8
176
     1
 66
     7
176
     1
 43
1.0
176
     1
 76
     1
176
     1
 77
     6
176
     1
 78
     2
176
     1
 67
     7
176
     1
 79
     3
176
     1
170
     0
176
     1
171
     0
176
     1
290
     0
176
     1
 93
        1
176
     1
 44
0.0
176
     1
173
     0
176
     1
  0
VISUALSTYLE
  5
35
102
{ACAD_REACTORS
330
2A
102
}
330
2A
100
AcDbVisualStyle
  2
Dim
 70
    11
177
     2
291
     1
 71
     2
176
     1
 72
     2
176
     1
 73
     0
176
     1
 90
        0
176
     1
 40
-0.6
176
     1
 41
-30.0
176
     1
 62
     5
 63
     7
421
 16777215
176
     1
 74
     1
176
     1
 91
        4
176
     1
 64
     7
176
     1
 65
   257
176
     1
 75
     1
176
     1
175
     1
176
     1
 42
1.0
176
     1
 92
        8
176
     1
 66
     7
176
     1
 43
1.0
176
     1
 76
     1
176
     1
 77
     6
176
     1
 78
     2
176
     1
 67
     7
176
     1
 79
     5
176
     1
170
     0
176
     1
171
     0
176
     1
290
     0
176
     1
 93
        1
176
     1
 44
-50.0
176
     1
173
     0
176
     1
  0
VISUALSTYLE
  5
39
102
{ACAD_REACTORS
330
2A
102
}
330
2A
100
AcDbVisualStyle
  2
Facepattern
 70
    15
177
     2
291
     1
 71
     2
176
     1
 72
     2
176
     1
 73
     0
176
     1
 90
        0
176
     1
 40
-0.6
176
     1
 41
-30.0
176
     1
 62
     5
 63
     7
421
 16777215
176
     1
 74
     1
176
     1
 91
        4
176
     1
 64
     7
176
     1
 65
   257
176
     1
 75
     1
176
     1
175
     1
176
     1
 42
1.0
176
     1
 92
        8
176
     1
 66
     7
176
     1
 43
1.0
176
     1
 76
     1
176
     1
 77
     6
176
     1
 78
     2
176
     1
 67
     7
176
     1
 79
     5
176
     1
170
     0
176
     1
171
     0
176
     1
290
     0
176
     1
 93
        1
176
     1
 44
0.0
176
     1
173
     0
176
     1
  0
VISUALSTYLE
  5
2B
102
{ACAD_REACTORS
330
2A
102
}
330
2A
100
AcDbVisualStyle
  2
Flat
 70
     0
177
     2
291
     1
 71
     2
176
     1
 72
     1
176
     1
 73
     1
176
     1
 90
        2
176
     1
 40
-0.6
176
     1
 41
30.0
176
     1
 62
     5
 63
     7
421
 16777215
176
     1
 74
     0
176
     1
 91
        4
176
     1
 64
     7
176
     1
 65
   257
176
     1
 75
     1
176
     1
175
     1
176
     1
 42
1.0
176
     1
 92
        8
176
     1
 66
     7
176
     1
 43
1.0
176
     1
 76
     1
176
     1
 77
     6
176
     1
 78
     2
176
     1
 67
     7
176
     1
 79
     5
176
     1
170
     0
176
     1
171
     0
176
     1
290
     0
176
     1
 93
       13
176
     1
 44
0.0
176
     1
173
     0
176
     1
  0
VISUALSTYLE
  5
2C
102
{ACAD_REACTORS
330
2A
102
}
330
2A
100
AcDbVisualStyle
  2
FlatWithEdges
 70
     1
177
     2
291
     1
 71
     2
176
     1
 72
     1
176
     1
 73
     1
176
     1
 90
        2
176
     1
 40
-0.6
176
     1
 41
30.0
176
     1
 62
     5
 63
     7
421
 16777215
176
     1
 74
     1
176
     1
 91
        4
176
     1
 64
     7
176
     1
 65
   257
176
     1
 75
     1
176
     1
175
     1
176
     1
 42
1.0
176
     1
 92
        0
176
     1
 66
   257
176
     1
 43
1.0
176
     1
 76
     1
176
     1
 77
     6
176
     1
 78
     2
176
     1
 67
     7
176
     1
 79
     5
176
     1
170
     0
176
     1
171
     0
176
     1
290
     0
176
     1
 93
       13
176
     1
 44
0.0
176
     1
173
     0
176
     1
  0
VISUALSTYLE
  5
2D
102
{ACAD_REACTORS
330
2A
102
}
330
2A
100
AcDbVisualStyle
  2
Gouraud
 70
     2
177
     2
291
     1
 71
     2
176
     1
 72
     2
176
     1
 73
     1
176
     1
 90
        2
176
     1
 40
-0.6
176
     1
 41
30.0
176
     1
 62
     5
 63
     7
421
 16777215
176
     1
 74
     0
176
     1
 91
        4
176
     1
 64
     7
176
     1
 65
   257
176
     1
 75
     1
176
     1
175
     1
176
     1
 42
1.0
176
     1
 92
        0
176
     1
 66
     7
176
     1
 43
1.0
176
     1
 76
     1
176
     1
 77
     6
176
     1
 78
     2
176
     1
 67
     7
176
     1
 79
     5
176
     1
170
     0
176
     1
171
     0
176
     1
290
     0
176
     1
 93
       13
176
     1
 44
0.0
176
     1
173
     0
176
     1
  0
VISUALSTYLE
  5
2E
102
{ACAD_REACTORS
330
2A
102
}
330
2A
100
AcDbVisualStyle
  2
GouraudWithEdges
 70
     3
177
     2
291
     1
 71
     2
176
     1
 72
     2
176
     1
 73
     1
176
     1
 90
        2
176
     1
 40
-0.6
176
     1
 41
30.0
176
     1
 62
     5
 63
     7
421
 16777215
176
     1
 74
     1
176
     1
 91
        4
176
     1
 64
     7
176
     1
 65
   257
176
     1
 75
     1
176
     1
175
     1
176
     1
 42
1.0
176
     1
 92
        0
176
     1
 66
   257
176
     1
 43
1.0
176
     1
 76
     1
176
     1
 77
     6
176
     1
 78
     2
176
     1
 67
     7
176
     1
 79
     5
176
     1
170
     0
176
     1
171
     0
176
     1
290
     0
176
     1
 93
       13
176
     1
 44
0.0
176
     1
173
     0
176
     1
  0
VISUALSTYLE
  5
38
102
{ACAD_REACTORS
330
2A
102
}
330
2A
100
AcDbVisualStyle
  2
Linepattern
 70
    14
177
     2
291
     1
 71
     2
176
     1
 72
     2
176
     1
 73
     0
176
     1
 90
        0
176
     1
 40
-0.6
176
     1
 41
-30.0
176
     1
 62
     5
 63
     7
421
 16777215
176
     1
 74
     1
176
     1
 91
        4
176
     1
 64
     7
176
     1
 65
   257
176
     1
 75
     7
176
     1
175
     7
176
     1
 42
1.0
176
     1
 92
        8
176
     1
 66
     7
176
     1
 43
1.0
176
     1
 76
     1
176
     1
 77
     6
176
     1
 78
     2
176
     1
 67
     7
176
     1
 79
     5
176
     1
170
     0
176
     1
171
     0
176
     1
290
     0
176
     1
 93
        1
176
     1
 44
0.0
176
     1
173
     0
176
     1
  0
VISUALSTYLE
  5
33
102
{ACAD_REACTORS
330
2A
102
}
330
2A
100
AcDbVisualStyle
  2
Realistic
 70
     8
177
     2
291
     0
 71
     2
176
     1
 72
     2
176
     1
 73
     0
176
     1
 90
        0
176
     1
 40
-0.6
176
     1
 41
-30.0
176
     1
 62
     5
 63
     7
421
 16777215
176
     1
 74
     1
176
     1
 91
        0
176
     1
 64
     7
176
     1
 65
   257
176
     1
 75
     1
176
     1
175
     1
176
     1
 42
1.0
176
     1
 92
        8
176
     1
 66
     8
424
  7895160
176
     1
 43
1.0
176
     1
 76
     1
176
     1
 77
     6
176
     1
 78
     2
176
     1
 67
     7
176
     1
 79
     5
176
     1
170
     0
176
     1
171
     0
176
     1
290
     0
176
     1
 93
       13
176
     1
 44
0.0
176
     1
173
     0
176
     1
  0
VISUALSTYLE
  5
37
102
{ACAD_REACTORS
330
2A
102
}
330
2A
100
AcDbVisualStyle
  2
Thicken
 70
    13
177
     2
291
     1
 71
     2
176
     1
 72
     2
176
     1
 73
     0
176
     1
 90
        0
176
     1
 40
-0.6
176
     1
 41
-30.0
176
     1
 62
     5
 63
     7
421
 16777215
176
     1
 74
     1
176
     1
 91
        4
176
     1
 64
     7
176
     1
 65
   257
176
     1
 75
     1
176
     1
175
     1
176
     1
 42
1.0
176
     1
 92
       12
176
     1
 66
     7
176
     1
 43
1.0
176
     1
 76
     1
176
     1
 77
     6
176
     1
 78
     2
176
     1
 67
     7
176
     1
 79
     5
176
     1
170
     0
176
     1
171
     0
176
     1
290
     0
176
     1
 93
        1
176
     1
 44
0.0
176
     1
173
     0
176
     1
  0
ENDSEC
  0
EOF
