  0
SECTION
  2
HEADER
  9
$ACADVER
  1
AC1024
  9
$ACADMAINTVER
 70
     6
  9
$DWGCODEPAGE
  3
UNDEFINED
  9
$INSBASE
 10
0.0
 20
0.0
 30
0.0
  9
$EXTMIN
 10
1.000000000000000E+20
 20
1.000000000000000E+20
 30
1.000000000000000E+20
  9
$EXTMAX
 10
-1.000000000000000E+20
 20
-1.000000000000000E+20
 30
-1.000000000000000E+20
  9
$LIMMIN
 10
0.0
 20
0.0
  9
$LIMMAX
 10
12.0
 20
9.0
  9
$ORTHOMODE
 70
     0
  9
$REGENMODE
 70
     1
  9
$FILLMODE
 70
     1
  9
$QTEXTMODE
 70
     0
  9
$MIRRTEXT
 70
     1
  9
$LTSCALE
 40
1.0
  9
$ATTMODE
 70
     1
  9
$TEXTSIZE
 40
0.2
  9
$TRACEWID
 40
0.05
  9
$TEXTSTYLE
  7
Standard
  9
$CLAYER
  8
0
  9
$CELTYPE
  6
ByLayer
  9
$CECOLOR
 62
   256
  9
$CELTSCALE
 40
1.0
  9
$DISPSILH
 70
     0
  9
$DIMSCALE
 40
1.0
  9
$DIMASZ
 40
0.18
  9
$DIMEXO
 40
0.0625
  9
$DIMDLI
 40
0.38
  9
$DIMRND
 40
0.0
  9
$DIMDLE
 40
0.0
  9
$DIMEXE
 40
0.18
  9
$DIMTP
 40
0.0
  9
$DIMTM
 40
0.0
  9
$DIMTXT
 40
0.18
  9
$DIMCEN
 40
0.09
  9
$DIMTSZ
 40
0.0
  9
$DIMTOL
 70
     0
  9
$DIMLIM
 70
     0
  9
$DIMTIH
 70
     1
  9
$DIMTOH
 70
     1
  9
$DIMSE1
 70
     0
  9
$DIMSE2
 70
     0
  9
$DIMTAD
 70
     0
  9
$DIMZIN
 70
     0
  9
$DIMBLK
  1

  9
$DIMASO
 70
     1
  9
$DIMSHO
 70
     1
  9
$DIMPOST
  1

  9
$DIMAPOST
  1

  9
$DIMALT
 70
     0
  9
$DIMALTD
 70
     2
  9
$DIMALTF
 40
25.4
  9
$DIMLFAC
 40
1.0
  9
$DIMTOFL
 70
     0
  9
$DIMTVP
 40
0.0
  9
$DIMTIX
 70
     0
  9
$DIMSOXD
 70
     0
  9
$DIMSAH
 70
     0
  9
$DIMBLK1
  1

  9
$DIMBLK2
  1

  9
$DIMSTYLE
  2
Standard
  9
$DIMCLRD
 70
     0
  9
$DIMCLRE
 70
     0
  9
$DIMCLRT
 70
     0
  9
$DIMTFAC
 40
1.0
  9
$DIMGAP
 40
0.09
  9
$DIMJUST
 70
     0
  9
$DIMSD1
 70
     0
  9
$DIMSD2
 70
     0
  9
$DIMTOLJ
 70
     1
  9
$DIMTZIN
 70
     0
  9
$DIMALTZ
 70
     0
  9
$DIMALTTZ
 70
     0
  9
$DIMUPT
 70
     0
  9
$DIMDEC
 70
     4
  9
$DIMTDEC
 70
     4
  9
$DIMALTU
 70
     2
  9
$DIMALTTD
 70
     2
  9
$DIMTXSTY
  7
Standard
  9
$DIMAUNIT
 70
     0
  9
$DIMADEC
 70
     0
  9
$DIMALTRND
 40
0.0
  9
$DIMAZIN
 70
     0
  9
$DIMDSEP
 70
    46
  9
$DIMATFIT
 70
     3
  9
$DIMFRAC
 70
     0
  9
$DIMLDRBLK
  1

  9
$DIMLUNIT
 70
     2
  9
$DIMLWD
 70
    -2
  9
$DIMLWE
 70
    -2
  9
$DIMTMOVE
 70
     0
  9
$DIMFXL
 40
1.0
  9
$DIMFXLON
 70
     0
  9
$DIMJOGANG
 40
0.7853981633974483
  9
$DIMTFILL
 70
     0
  9
$DIMTFILLCLR
 70
     0
  9
$DIMARCSYM
 70
     0
  9
$DIMLTYPE
  6

  9
$DIMLTEX1
  6

  9
$DIMLTEX2
  6

  9
$DIMTXTDIRECTION
 70
     0
  9
$LUNITS
 70
     2
  9
$LUPREC
 70
     4
  9
$SKETCHINC
 40
0.1
  9
$FILLETRAD
 40
0.5
  9
$AUNITS
 70
     0
  9
$AUPREC
 70
     0
  9
$MENU
  1
.
  9
$ELEVATION
 40
0.0
  9
$PELEVATION
 40
0.0
  9
$THICKNESS
 40
0.0
  9
$LIMCHECK
 70
     0
  9
$CHAMFERA
 40
0.5
  9
$CHAMFERB
 40
0.5
  9
$CHAMFERC
 40
1.0
  9
$CHAMFERD
 40
0.0
  9
$SKPOLY
 70
     0
  9
$TDCREATE
 40
2457917.584710648
  9
$TDUCREATE
 40
2457917.209710648
  9
$TDUPDATE
 40
2457917.584710648
  9
$TDUUPDATE
 40
2457917.209710648
  9
$TDINDWG
 40
0.0000000116
  9
$TDUSRTIMER
 40
0.0000000116
  9
$USRTIMER
 70
     1
  9
$ANGBASE
 50
0.0
  9
$ANGDIR
 70
     0
  9
$PDMODE
 70
     0
  9
$PDSIZE
 40
0.0
  9
$PLINEWID
 40
0.0
  9
$SPLFRAME
 70
     0
  9
$SPLINETYPE
 70
     6
  9
$SPLINESEGS
 70
     8
  9
$HANDSEED
  5
E6
  9
$SURFTAB1
 70
     6
  9
$SURFTAB2
 70
     6
  9
$SURFTYPE
 70
     6
  9
$SURFU
 70
     6
  9
$SURFV
 70
     6
  9
$UCSBASE
  2

  9
$UCSNAME
  2

  9
$UCSORG
 10
0.0
 20
0.0
 30
0.0
  9
$UCSXDIR
 10
1.0
 20
0.0
 30
0.0
  9
$UCSYDIR
 10
0.0
 20
1.0
 30
0.0
  9
$UCSORTHOREF
  2

  9
$UCSORTHOVIEW
 70
     0
  9
$UCSORGTOP
 10
0.0
 20
0.0
 30
0.0
  9
$UCSORGBOTTOM
 10
0.0
 20
0.0
 30
0.0
  9
$UCSORGLEFT
 10
0.0
 20
0.0
 30
0.0
  9
$UCSORGRIGHT
 10
0.0
 20
0.0
 30
0.0
  9
$UCSORGFRONT
 10
0.0
 20
0.0
 30
0.0
  9
$UCSORGBACK
 10
0.0
 20
0.0
 30
0.0
  9
$PUCSBASE
  2

  9
$PUCSNAME
  2

  9
$PUCSORG
 10
0.0
 20
0.0
 30
0.0
  9
$PUCSXDIR
 10
1.0
 20
0.0
 30
0.0
  9
$PUCSYDIR
 10
0.0
 20
1.0
 30
0.0
  9
$PUCSORTHOREF
  2

  9
$PUCSORTHOVIEW
 70
     0
  9
$PUCSORGTOP
 10
0.0
 20
0.0
 30
0.0
  9
$PUCSORGBOTTOM
 10
0.0
 20
0.0
 30
0.0
  9
$PUCSORGLEFT
 10
0.0
 20
0.0
 30
0.0
  9
$PUCSORGRIGHT
 10
0.0
 20
0.0
 30
0.0
  9
$PUCSORGFRONT
 10
0.0
 20
0.0
 30
0.0
  9
$PUCSORGBACK
 10
0.0
 20
0.0
 30
0.0
  9
$USERI1
 70
     0
  9
$USERI2
 70
     0
  9
$USERI3
 70
     0
  9
$USERI4
 70
     0
  9
$USERI5
 70
     0
  9
$USERR1
 40
0.0
  9
$USERR2
 40
0.0
  9
$USERR3
 40
0.0
  9
$USERR4
 40
0.0
  9
$USERR5
 40
0.0
  9
$WORLDVIEW
 70
     1
  9
$SHADEDGE
 70
     3
  9
$SHADEDIF
 70
    70
  9
$TILEMODE
 70
     1
  9
$MAXACTVP
 70
    64
  9
$PINSBASE
 10
0.0
 20
0.0
 30
0.0
  9
$PLIMCHECK
 70
     0
  9
$PEXTMIN
 10
1.000000000000000E+20
 20
1.000000000000000E+20
 30
1.000000000000000E+20
  9
$PEXTMAX
 10
-1.000000000000000E+20
 20
-1.000000000000000E+20
 30
-1.000000000000000E+20
  9
$PLIMMIN
 10
0.0
 20
0.0
  9
$PLIMMAX
 10
12.0
 20
9.0
  9
$UNITMODE
 70
     0
  9
$VISRETAIN
 70
     1
  9
$PLINEGEN
 70
     0
  9
$PSLTSCALE
 70
     1
  9
$TREEDEPTH
 70
  3020
  9
$CMLSTYLE
  2
Standard
  9
$CMLJUST
 70
     0
  9
$CMLSCALE
 40
1.0
  9
$PROXYGRAPHICS
 70
     1
  9
$MEASUREMENT
 70
     0
  9
$CELWEIGHT
370
    -1
  9
$ENDCAPS
280
     0
  9
$JOINSTYLE
280
     0
  9
$LWDISPLAY
290
     1
  9
$INSUNITS
 70
     1
  9
$HYPERLINKBASE
  1

  9
$STYLESHEET
  1

  9
$XEDIT
290
     1
  9
$CEPSNTYPE
380
     0
  9
$PSTYLEMODE
290
     1
  9
$FINGERPRINTGUID
  2
{F3FD4D60-194D-E27E-F90C-872DE492A810}
  9
$VERSIONGUID
  2
{FAEB1C32-E019-11D5-929B-00C0DF256EC4}
  9
$EXTNAMES
290
     1
  9
$PSVPSCALE
 40
0.0
  9
$OLESTARTUP
290
     0
  9
$SORTENTS
280
   127
  9
$INDEXCTL
280
     0
  9
$HIDETEXT
280
     1
  9
$XCLIPFRAME
280
     2
  9
$HALOGAP
280
     0
  9
$OBSCOLOR
 70
   257
  9
$OBSLTYPE
280
     0
  9
$INTERSECTIONDISPLAY
280
     0
  9
$INTERSECTIONCOLOR
 70
   257
  9
$DIMASSOC
280
     2
  9
$PROJECTNAME
  1

  9
$CAMERADISPLAY
290
     0
  9
$LENSLENGTH
 40
50.0
  9
$CAMERAHEIGHT
 40
0.0
  9
$STEPSPERSEC
 40
2.0
  9
$STEPSIZE
 40
6.0
  9
$3DDWFPREC
 40
2.0
  9
$PSOLWIDTH
 40
0.25
  9
$PSOLHEIGHT
 40
4.0
  9
$LOFTANG1
 40
1.570796326794897
  9
$LOFTANG2
 40
1.570796326794897
  9
$LOFTMAG1
 40
0.0
  9
$LOFTMAG2
 40
0.0
  9
$LOFTPARAM
 70
     7
  9
$LOFTNORMALS
280
     1
  9
$LATITUDE
 40
37.795
  9
$LONGITUDE
 40
-122.394
  9
$NORTHDIRECTION
 40
0.0
  9
$TIMEZONE
 70
 -8000
  9
$LIGHTGLYPHDISPLAY
280
     1
  9
$TILEMODELIGHTSYNCH
280
     1
  9
$CMATERIAL
347
3C
  9
$SOLIDHIST
280
     1
  9
$SHOWHIST
280
     1
  9
$DWFFRAME
280
     2
  9
$DGNFRAME
280
     2
  9
$REALWORLDSCALE
290
     1
  9
$INTERFERECOLOR
 62
   256
  9
$CSHADOW
280
     0
  9
$SHADOWPLANELOCATION
 40
0.0
  0
ENDSEC
  0
SECTION
  2
CLASSES
  0
CLASS
  1
ACDBDICTIONARYWDFLT
  2
AcDbDictionaryWithDefault
  3
ObjectDBX Classes
 90
        0
 91
        4
280
     0
281
     0
  0
CLASS
  1
VISUALSTYLE
  2
AcDbVisualStyle
  3
ObjectDBX Classes
 90
     4095
 91
        4
280
     0
281
     0
  0
CLASS
  1
MATERIAL
  2
AcDbMaterial
  3
ObjectDBX Classes
 90
     1153
 91
        4
280
     0
281
     0
  0
CLASS
  1
SUN
  2
AcDbSun
  3
SCENEOE
 90
     1024
 91
        4
280
     0
281
     0
  0
ENDSEC
  0
SECTION
  2
TABLES
  0
TABLE
  2
VPORT
  5
8
330
0
100
AcDbSymbolTable
 70
     1
  0
VPORT
  5
29
330
8
100
AcDbSymbolTableRecord
100
AcDbViewportTableRecord
  2
*Active
 70
     0
 10
0.0
 20
0.0
 11
1.0
 21
1.0
 12
0.0
 22
0.0
 13
0.0
 23
0.0
 14
0.5
 24
0.5
 15
0.5
 25
0.5
 16
0.0
 26
0.0
 36
1.0
 17
91.00082462281999
 27
-128.4993055234307
 37
0.0
 40
256.9986110468615
 41
0.7081814508812795
 42
50.0
 43
0.0
 44
0.0
 50
0.0
 51
0.0
 71
     0
 72
   100
 73
     1
 74
     3
 75
     0
 76
     0
 77
     0
 78
     0
281
     0
 65
     1
110
0.0
120
0.0
130
0.0
111
1.0
121
0.0
131
0.0
112
0.0
122
1.0
132
0.0
 79
     0
146
0.0
 60
     3
 61
     5
292
     1
282
     1
141
0.0
142
0.0
 63
   250
361
3F
  0
ENDTAB
  0
TABLE
  2
LTYPE
  5
5
330
0
100
AcDbSymbolTable
 70
     1
  0
LTYPE
  5
14
330
5
100
AcDbSymbolTableRecord
100
AcDbLinetypeTableRecord
  2
ByBlock
 70
     0
  3

 72
    65
 73
     0
 40
0.0
  0
LTYPE
  5
15
330
5
100
AcDbSymbolTableRecord
100
AcDbLinetypeTableRecord
  2
ByLayer
 70
     0
  3

 72
    65
 73
     0
 40
0.0
  0
LTYPE
  5
16
330
5
100
AcDbSymbolTableRecord
100
AcDbLinetypeTableRecord
  2
Continuous
 70
     0
  3
Solid line
 72
    65
 73
     0
 40
0.0
  0
ENDTAB
  0
TABLE
  2
LAYER
  5
2
330
0
100
AcDbSymbolTable
 70
     2
  0
LAYER
  5
10
330
2
100
AcDbSymbolTableRecord
100
AcDbLayerTableRecord
  2
0
 70
     0
 62
     7
  6
Continuous
370
    -3
390
F
347
3E
  0
LAYER
  5
40
330
2
100
AcDbSymbolTableRecord
100
AcDbLayerTableRecord
  2
_U+30EC_U+30A4_U+30E4_U+30FC 1
 70
     0
 62
     7
  6
Continuous
370
    -3
390
F
347
3E
  0
ENDTAB
  0
TABLE
  2
STYLE
  5
3
330
0
100
AcDbSymbolTable
 70
     1
  0
STYLE
  5
11
330
3
100
AcDbSymbolTableRecord
100
AcDbTextStyleTableRecord
  2
Standard
 70
     0
 40
0.0
 41
1.0
 50
0.0
 71
     0
 42
0.2
  3
txt
  4

  0
ENDTAB
  0
TABLE
  2
VIEW
  5
6
330
0
100
AcDbSymbolTable
 70
     0
  0
ENDTAB
  0
TABLE
  2
UCS
  5
7
330
0
100
AcDbSymbolTable
 70
     0
  0
ENDTAB
  0
TABLE
  2
APPID
  5
9
330
0
100
AcDbSymbolTable
 70
     1
  0
APPID
  5
12
330
9
100
AcDbSymbolTableRecord
100
AcDbRegAppTableRecord
  2
ACAD
 70
     0
  0
ENDTAB
  0
TABLE
  2
DIMSTYLE
  5
A
330
0
100
AcDbSymbolTable
 70
     1
100
AcDbDimStyleTable
  0
DIMSTYLE
105
27
330
A
100
AcDbSymbolTableRecord
100
AcDbDimStyleTableRecord
  2
Standard
 70
     0
178
     0
340
11
  0
ENDTAB
  0
TABLE
  2
BLOCK_RECORD
  5
1
330
0
100
AcDbSymbolTable
 70
     5
  0
BLOCK_RECORD
  5
1F
330
1
100
AcDbSymbolTableRecord
100
AcDbBlockTableRecord
  2
*Model_Space
340
22
 70
     0
280
     1
281
     0
  0
BLOCK_RECORD
  5
1B
330
1
100
AcDbSymbolTableRecord
100
AcDbBlockTableRecord
  2
*Paper_Space
340
1E
 70
     0
280
     1
281
     0
  0
BLOCK_RECORD
  5
23
330
1
100
AcDbSymbolTableRecord
100
AcDbBlockTableRecord
  2
*Paper_Space0
340
26
 70
     0
280
     1
281
     0
  0
BLOCK_RECORD
  5
41
330
1
100
AcDbSymbolTableRecord
100
AcDbBlockTableRecord
  2
block 2
340
0
102
{BLKREFS
331
42
102
}
 70
     0
280
     1
281
     0
  0
BLOCK_RECORD
  5
57
330
1
100
AcDbSymbolTableRecord
100
AcDbBlockTableRecord
  2
block 3
340
0
102
{BLKREFS
331
58
102
}
 70
     0
280
     1
281
     0
  0
BLOCK_RECORD
  5
B1
330
1
100
AcDbSymbolTableRecord
100
AcDbBlockTableRecord
  2
block 4
340
0
102
{BLKREFS
331
B2
102
}
 70
     0
280
     1
281
     0
  0
BLOCK_RECORD
  5
CC
330
1
100
AcDbSymbolTableRecord
100
AcDbBlockTableRecord
  2
block 5
340
0
102
{BLKREFS
331
CD
102
}
 70
     0
280
     1
281
     0
  0
ENDTAB
  0
ENDSEC
  0
SECTION
  2
BLOCKS
  0
BLOCK
  5
20
330
1F
100
AcDbEntity
  8
0
100
AcDbBlockBegin
  2
*Model_Space
 70
     0
 10
0.0
 20
0.0
 30
0.0
  3
*Model_Space
  1

  0
ENDBLK
  5
21
330
1F
100
AcDbEntity
  8
0
100
AcDbBlockEnd
  0
BLOCK
  5
1C
330
1B
100
AcDbEntity
 67
     1
  8
0
100
AcDbBlockBegin
  2
*Paper_Space
 70
     0
 10
0.0
 20
0.0
 30
0.0
  3
*Paper_Space
  1

  0
ENDBLK
  5
1D
330
1B
100
AcDbEntity
 67
     1
  8
0
100
AcDbBlockEnd
  0
BLOCK
  5
24
330
23
100
AcDbEntity
  8
0
100
AcDbBlockBegin
  2
*Paper_Space0
 70
     0
 10
0.0
 20
0.0
 30
0.0
  3
*Paper_Space0
  1

  0
ENDBLK
  5
25
330
23
100
AcDbEntity
  8
0
100
AcDbBlockEnd
  0
BLOCK
  5
43
330
41
100
AcDbEntity
  8
0
100
AcDbBlockBegin
  2
block 2
 70
     0
 10
0.0
 20
0.0
 30
0.0
  3
block 2
  1

  0
POLYLINE
  5
45
330
41
100
AcDbEntity
  8
_U+30EC_U+30A4_U+30E4_U+30FC 1
 62
   179
420
  2234388
370
     9
100
AcDb2dPolyline
 66
     1
 10
0.0
 20
0.0
 30
0.0
  0
VERTEX
  5
46
330
45
100
AcDbEntity
  8
_U+30EC_U+30A4_U+30E4_U+30FC 1
 62
   179
420
  2234388
370
     9
100
AcDbVertex
100
AcDb2dVertex
 10
90.85629157095178
 20
-122.0531735805978
 30
0.0
  0
VERTEX
  5
47
330
45
100
AcDbEntity
  8
_U+30EC_U+30A4_U+30E4_U+30FC 1
 62
   179
420
  2234388
370
     9
100
AcDbVertex
100
AcDb2dVertex
 10
90.85629157095178
 20
-127.9353549680161
 30
0.0
  0
SEQEND
  5
48
330
45
100
AcDbEntity
  8
_U+30EC_U+30A4_U+30E4_U+30FC 1
 62
   179
420
  2234388
370
     9
  0
POLYLINE
  5
49
330
41
100
AcDbEntity
  8
_U+30EC_U+30A4_U+30E4_U+30FC 1
 62
   179
420
  2234388
370
    25
100
AcDb2dPolyline
 66
     1
 10
0.0
 20
0.0
 30
0.0
  0
VERTEX
  5
4A
330
49
100
AcDbEntity
  8
_U+30EC_U+30A4_U+30E4_U+30FC 1
 62
   179
420
  2234388
370
    25
100
AcDbVertex
100
AcDb2dVertex
 10
86.68049639970741
 20
-131.1379069116598
 30
0.0
  0
VERTEX
  5
4B
330
49
100
AcDbEntity
  8
_U+30EC_U+30A4_U+30E4_U+30FC 1
 62
   179
420
  2234388
370
    25
100
AcDbVertex
100
AcDb2dVertex
 10
87.05119527913898
 20
-132.2796016335967
 30
0.0
  0
SEQEND
  5
4C
330
49
100
AcDbEntity
  8
_U+30EC_U+30A4_U+30E4_U+30FC 1
 62
   179
420
  2234388
370
    25
  0
POLYLINE
  5
4D
330
41
100
AcDbEntity
  8
_U+30EC_U+30A4_U+30E4_U+30FC 1
 62
   179
420
  2234388
370
     9
100
AcDb2dPolyline
 66
     1
 10
0.0
 20
0.0
 30
0.0
  0
VERTEX
  5
4E
330
4D
100
AcDbEntity
  8
_U+30EC_U+30A4_U+30E4_U+30FC 1
 62
   179
420
  2234388
370
     9
100
AcDbVertex
100
AcDb2dVertex
 10
90.52556241272272
 20
-126.6999271905473
 30
0.0
  0
VERTEX
  5
4F
330
4D
100
AcDbEntity
  8
_U+30EC_U+30A4_U+30E4_U+30FC 1
 62
   179
420
  2234388
370
     9
100
AcDbVertex
100
AcDb2dVertex
 10
90.85629157095178
 20
-127.9353549680161
 30
0.0
  0
SEQEND
  5
50
330
4D
100
AcDbEntity
  8
_U+30EC_U+30A4_U+30E4_U+30FC 1
 62
   179
420
  2234388
370
     9
  0
POLYLINE
  5
51
330
41
100
AcDbEntity
  8
_U+30EC_U+30A4_U+30E4_U+30FC 1
 62
   179
420
  2234388
370
     9
100
AcDb2dPolyline
 66
     1
 10
0.0
 20
0.0
 30
0.0
  0
VERTEX
  5
52
330
51
100
AcDbEntity
  8
_U+30EC_U+30A4_U+30E4_U+30FC 1
 62
   179
420
  2234388
370
     9
100
AcDbVertex
100
AcDb2dVertex
 10
91.18702072918084
 20
-126.6999271905473
 30
0.0
  0
VERTEX
  5
53
330
51
100
AcDbEntity
  8
_U+30EC_U+30A4_U+30E4_U+30FC 1
 62
   179
420
  2234388
370
     9
100
AcDbVertex
100
AcDb2dVertex
 10
90.85629157095178
 20
-127.9353549680161
 30
0.0
  0
SEQEND
  5
54
330
51
100
AcDbEntity
  8
_U+30EC_U+30A4_U+30E4_U+30FC 1
 62
   179
420
  2234388
370
     9
  0
SPLINE
  5
55
330
41
100
AcDbEntity
  8
_U+30EC_U+30A4_U+30E4_U+30FC 1
 62
   179
420
  2234388
370
     9
100
AcDbSpline
210
0.0
220
0.0
230
1.0
 70
    11
 71
     3
 72
    17
 73
    13
 74
     0
 42
0.0000000001
 43
0.0000000001
 12
1.0
 22
0.0
 32
0.0
 13
1.0
 23
0.0
 33
0.0
 40
0.0
 40
0.0
 40
0.0
 40
0.0
 40
1.0
 40
1.0
 40
1.0
 40
2.0
 40
2.0
 40
2.0
 40
3.0
 40
3.0
 40
3.0
 40
4.0
 40
4.0
 40
4.0
 40
4.0
 10
88.85124384432703
 20
-124.8836860798903
 30
0.0
 10
88.85124384432703
 20
-124.812707191019
 30
0.0
 10
88.79405856800817
 20
-124.7555219132556
 30
0.0
 10
88.72378523646766
 20
-124.7555219132556
 30
0.0
 10
88.65351190492716
 20
-124.7555219132556
 30
0.0
 10
88.59562107307073
 20
-124.812707191019
 30
0.0
 10
88.59562107307073
 20
-124.8836860798903
 30
0.0
 10
88.59562107307073
 20
-124.9546296909837
 30
0.0
 10
88.65351190492716
 20
-125.0118502465249
 30
0.0
 10
88.72378523646766
 20
-125.0118502465249
 30
0.0
 10
88.79405856800817
 20
-125.0118502465249
 30
0.0
 10
88.85124384432703
 20
-124.9546296909837
 30
0.0
 10
88.85124384432703
 20
-124.8836860798903
 30
0.0
  0
SPLINE
  5
56
330
41
100
AcDbEntity
  8
_U+30EC_U+30A4_U+30E4_U+30FC 1
 62
   179
420
  2234388
370
     9
100
AcDbSpline
210
0.0
220
0.0
230
1.0
 70
    11
 71
     3
 72
    17
 73
    13
 74
     0
 42
0.0000000001
 43
0.0000000001
 12
1.0
 22
0.0
 32
0.0
 13
1.0
 23
0.0
 33
0.0
 40
0.0
 40
0.0
 40
0.0
 40
0.0
 40
1.0
 40
1.0
 40
1.0
 40
2.0
 40
2.0
 40
2.0
 40
3.0
 40
3.0
 40
3.0
 40
4.0
 40
4.0
 40
4.0
 40
4.0
 10
62.17087285833334
 20
-133.3771991333225
 30
0.0
 10
62.17087285833334
 20
-133.3062555222291
 30
0.0
 10
62.1130173042538
 20
-133.2490702444657
 30
0.0
 10
62.04270869493641
 20
-133.2490702444657
 30
0.0
 10
61.9724353633959
 20
-133.2490702444657
 30
0.0
 10
61.91525008707704
 20
-133.3062555222291
 30
0.0
 10
61.91525008707704
 20
-133.3771991333225
 30
0.0
 10
61.91525008707704
 20
-133.4475077444161
 30
0.0
 10
61.9724353633959
 20
-133.5046930221795
 30
0.0
 10
62.04270869493641
 20
-133.5046930221795
 30
0.0
 10
62.1130173042538
 20
-133.5046930221795
 30
0.0
 10
62.17087285833334
 20
-133.4475077444161
 30
0.0
 10
62.17087285833334
 20
-133.3771991333225
 30
0.0
  0
INSERT
  5
58
330
41
100
AcDbEntity
  8
_U+30EC_U+30A4_U+30E4_U+30FC 1
100
AcDbBlockReference
  2
block 3
 10
0.0
 20
0.0
 30
0.0
  0
INSERT
  5
B2
330
41
100
AcDbEntity
  8
_U+30EC_U+30A4_U+30E4_U+30FC 1
100
AcDbBlockReference
  2
block 4
 10
0.0
 20
0.0
 30
0.0
  0
POLYLINE
  5
BB
330
41
100
AcDbEntity
  8
_U+30EC_U+30A4_U+30E4_U+30FC 1
 62
   179
420
  2234388
370
     9
100
AcDb2dPolyline
 66
     1
 10
0.0
 20
0.0
 30
0.0
  0
VERTEX
  5
BC
330
BB
100
AcDbEntity
  8
_U+30EC_U+30A4_U+30E4_U+30FC 1
 62
   179
420
  2234388
370
     9
100
AcDbVertex
100
AcDb2dVertex
 10
88.72378523646766
 20
-124.8836860798903
 30
0.0
  0
VERTEX
  5
BD
330
BB
100
AcDbEntity
  8
_U+30EC_U+30A4_U+30E4_U+30FC 1
 62
   179
420
  2234388
370
     9
100
AcDbVertex
100
AcDb2dVertex
 10
62.04270869493641
 20
-133.3771991333225
 30
0.0
  0
SEQEND
  5
BE
330
BB
100
AcDbEntity
  8
_U+30EC_U+30A4_U+30E4_U+30FC 1
 62
   179
420
  2234388
370
     9
  0
POLYLINE
  5
BF
330
41
100
AcDbEntity
  8
_U+30EC_U+30A4_U+30E4_U+30FC 1
 62
   179
420
  2234388
370
     9
100
AcDb2dPolyline
 66
     1
 10
0.0
 20
0.0
 30
0.0
  0
VERTEX
  5
C0
330
BF
100
AcDbEntity
  8
_U+30EC_U+30A4_U+30E4_U+30FC 1
 62
   179
420
  2234388
370
     9
100
AcDbVertex
100
AcDb2dVertex
 10
89.87168881829331
 20
-128.4893219123221
 30
0.0
  0
VERTEX
  5
C1
330
BF
100
AcDbEntity
  8
_U+30EC_U+30A4_U+30E4_U+30FC 1
 62
   179
420
  2234388
370
     9
100
AcDbVertex
100
AcDb2dVertex
 10
88.33587080191974
 20
-123.6655091357501
 30
0.0
  0
SEQEND
  5
C2
330
BF
100
AcDbEntity
  8
_U+30EC_U+30A4_U+30E4_U+30FC 1
 62
   179
420
  2234388
370
     9
  0
SPLINE
  5
C3
330
41
100
AcDbEntity
  8
_U+30EC_U+30A4_U+30E4_U+30FC 1
 62
   179
420
  2234388
370
     9
100
AcDbSpline
210
0.0
220
0.0
230
1.0
 70
    11
 71
     3
 72
    17
 73
    13
 74
     0
 42
0.0000000001
 43
0.0000000001
 12
1.0
 22
0.0
 32
0.0
 13
1.0
 23
0.0
 33
0.0
 40
0.0
 40
0.0
 40
0.0
 40
0.0
 40
1.0
 40
1.0
 40
1.0
 40
2.0
 40
2.0
 40
2.0
 40
3.0
 40
3.0
 40
3.0
 40
4.0
 40
4.0
 40
4.0
 40
4.0
 10
92.8618684642297
 20
-124.8836860798903
 30
0.0
 10
92.8618684642297
 20
-124.812707191019
 30
0.0
 10
92.91905374054856
 20
-124.7555219132556
 30
0.0
 10
92.98932707208907
 20
-124.7555219132556
 30
0.0
 10
93.05960275451262
 20
-124.7555219132556
 30
0.0
 10
93.117491235486
 20
-124.812707191019
 30
0.0
 10
93.117491235486
 20
-124.8836860798903
 30
0.0
 10
93.117491235486
 20
-124.9546296909837
 30
0.0
 10
93.05960275451262
 20
-125.0118502465249
 30
0.0
 10
92.98932707208907
 20
-125.0118502465249
 30
0.0
 10
92.91905374054856
 20
-125.0118502465249
 30
0.0
 10
92.8618684642297
 20
-124.9546296909837
 30
0.0
 10
92.8618684642297
 20
-124.8836860798903
 30
0.0
  0
POLYLINE
  5
C4
330
41
100
AcDbEntity
  8
_U+30EC_U+30A4_U+30E4_U+30FC 1
 62
   179
420
  2234388
370
     9
100
AcDb2dPolyline
 66
     1
 10
0.0
 20
0.0
 30
0.0
  0
VERTEX
  5
C5
330
C4
100
AcDbEntity
  8
_U+30EC_U+30A4_U+30E4_U+30FC 1
 62
   179
420
  2234388
370
     9
100
AcDbVertex
100
AcDb2dVertex
 10
91.84142349026342
 20
-128.4893219123221
 30
0.0
  0
VERTEX
  5
C6
330
C4
100
AcDbEntity
  8
_U+30EC_U+30A4_U+30E4_U+30FC 1
 62
   179
420
  2234388
370
     9
100
AcDbVertex
100
AcDb2dVertex
 10
93.37724150663699
 20
-123.6655091357501
 30
0.0
  0
SEQEND
  5
C7
330
C4
100
AcDbEntity
  8
_U+30EC_U+30A4_U+30E4_U+30FC 1
 62
   179
420
  2234388
370
     9
  0
POLYLINE
  5
C8
330
41
100
AcDbEntity
  8
_U+30EC_U+30A4_U+30E4_U+30FC 1
 62
   179
420
  2234388
370
     9
100
AcDb2dPolyline
 66
     1
 10
0.0
 20
0.0
 30
0.0
  0
VERTEX
  5
C9
330
C8
100
AcDbEntity
  8
_U+30EC_U+30A4_U+30E4_U+30FC 1
 62
   179
420
  2234388
370
     9
100
AcDbVertex
100
AcDb2dVertex
 10
62.60909340270896
 20
-135.1548816328781
 30
0.0
  0
VERTEX
  5
CA
330
C8
100
AcDbEntity
  8
_U+30EC_U+30A4_U+30E4_U+30FC 1
 62
   179
420
  2234388
370
     9
100
AcDbVertex
100
AcDb2dVertex
 10
61.65549981592604
 20
-132.158351911405
 30
0.0
  0
SEQEND
  5
CB
330
C8
100
AcDbEntity
  8
_U+30EC_U+30A4_U+30E4_U+30FC 1
 62
   179
420
  2234388
370
     9
  0
INSERT
  5
CD
330
41
100
AcDbEntity
  8
_U+30EC_U+30A4_U+30E4_U+30FC 1
100
AcDbBlockReference
  2
block 5
 10
0.0
 20
0.0
 30
0.0
  0
POLYLINE
  5
D6
330
41
100
AcDbEntity
  8
_U+30EC_U+30A4_U+30E4_U+30FC 1
 62
   179
420
  2234388
370
    25
100
AcDb2dPolyline
 66
     1
 10
0.0
 20
0.0
 30
0.0
  0
VERTEX
  5
D7
330
D6
100
AcDbEntity
  8
_U+30EC_U+30A4_U+30E4_U+30FC 1
 62
   179
420
  2234388
370
    25
100
AcDbVertex
100
AcDb2dVertex
 10
95.02467840905182
 20
-131.1778766338723
 30
0.0
  0
VERTEX
  5
D8
330
D6
100
AcDbEntity
  8
_U+30EC_U+30A4_U+30E4_U+30FC 1
 62
   179
420
  2234388
370
    25
100
AcDbVertex
100
AcDb2dVertex
 10
94.66431591824544
 20
-132.2699708002659
 30
0.0
  0
SEQEND
  5
D9
330
D6
100
AcDbEntity
  8
_U+30EC_U+30A4_U+30E4_U+30FC 1
 62
   179
420
  2234388
370
    25
  0
SPLINE
  5
DA
330
41
100
AcDbEntity
  8
_U+30EC_U+30A4_U+30E4_U+30FC 1
 62
   179
420
  2234388
370
     9
100
AcDbSpline
210
0.0
220
0.0
230
1.0
 70
    11
 71
     3
 72
    17
 73
    13
 74
     0
 42
0.0000000001
 43
0.0000000001
 12
1.0
 22
0.0
 32
0.0
 13
1.0
 23
0.0
 33
0.0
 40
0.0
 40
0.0
 40
0.0
 40
0.0
 40
1.0
 40
1.0
 40
1.0
 40
2.0
 40
2.0
 40
2.0
 40
3.0
 40
3.0
 40
3.0
 40
4.0
 40
4.0
 40
4.0
 40
4.0
 10
119.5424158391078
 20
-133.3771991333225
 30
0.0
 10
119.5424158391078
 20
-133.3062555222291
 30
0.0
 10
119.6002713931873
 20
-133.2490702444657
 30
0.0
 10
119.6705447247278
 20
-133.2490702444657
 30
0.0
 10
119.7408533340452
 20
-133.2490702444657
 30
0.0
 10
119.7980416367169
 20
-133.3062555222291
 30
0.0
 10
119.7980416367169
 20
-133.3771991333225
 30
0.0
 10
119.7980416367169
 20
-133.4475077444161
 30
0.0
 10
119.7408533340452
 20
-133.5046930221795
 30
0.0
 10
119.6705447247278
 20
-133.5046930221795
 30
0.0
 10
119.6002713931873
 20
-133.5046930221795
 30
0.0
 10
119.5424158391078
 20
-133.4475077444161
 30
0.0
 10
119.5424158391078
 20
-133.3771991333225
 30
0.0
  0
POLYLINE
  5
DB
330
41
100
AcDbEntity
  8
_U+30EC_U+30A4_U+30E4_U+30FC 1
 62
   179
420
  2234388
370
     9
100
AcDb2dPolyline
 66
     1
 10
0.0
 20
0.0
 30
0.0
  0
VERTEX
  5
DC
330
DB
100
AcDbEntity
  8
_U+30EC_U+30A4_U+30E4_U+30FC 1
 62
   179
420
  2234388
370
     9
100
AcDbVertex
100
AcDb2dVertex
 10
92.98932707208907
 20
-124.8836860798903
 30
0.0
  0
VERTEX
  5
DD
330
DB
100
AcDbEntity
  8
_U+30EC_U+30A4_U+30E4_U+30FC 1
 62
   179
420
  2234388
370
     9
100
AcDbVertex
100
AcDb2dVertex
 10
119.6705447247278
 20
-133.3771991333225
 30
0.0
  0
SEQEND
  5
DE
330
DB
100
AcDbEntity
  8
_U+30EC_U+30A4_U+30E4_U+30FC 1
 62
   179
420
  2234388
370
     9
  0
POLYLINE
  5
DF
330
41
100
AcDbEntity
  8
_U+30EC_U+30A4_U+30E4_U+30FC 1
 62
   179
420
  2234388
370
     9
100
AcDb2dPolyline
 66
     1
 10
0.0
 20
0.0
 30
0.0
  0
VERTEX
  5
E0
330
DF
100
AcDbEntity
  8
_U+30EC_U+30A4_U+30E4_U+30FC 1
 62
   179
420
  2234388
370
     9
100
AcDbVertex
100
AcDb2dVertex
 10
119.1041952947322
 20
-135.1548816328781
 30
0.0
  0
VERTEX
  5
E1
330
DF
100
AcDbEntity
  8
_U+30EC_U+30A4_U+30E4_U+30FC 1
 62
   179
420
  2234388
370
     9
100
AcDbVertex
100
AcDb2dVertex
 10
120.0577888815151
 20
-132.158351911405
 30
0.0
  0
SEQEND
  5
E2
330
DF
100
AcDbEntity
  8
_U+30EC_U+30A4_U+30E4_U+30FC 1
 62
   179
420
  2234388
370
     9
  0
SPLINE
  5
E3
330
41
100
AcDbEntity
  8
_U+30EC_U+30A4_U+30E4_U+30FC 1
 62
   179
420
  2234388
370
    25
100
AcDbSpline
210
0.0
220
0.0
230
1.0
 70
    11
 71
     3
 72
    35
 73
    31
 74
     0
 42
0.0000000001
 43
0.0000000001
 12
1.0
 22
0.0
 32
0.0
 13
1.0
 23
0.0
 33
0.0
 40
0.0
 40
0.0
 40
0.0
 40
0.0
 40
1.0
 40
1.0
 40
1.0
 40
2.0
 40
2.0
 40
2.0
 40
3.0
 40
3.0
 40
3.0
 40
4.0
 40
4.0
 40
4.0
 40
5.0
 40
5.0
 40
5.0
 40
6.0
 40
6.0
 40
6.0
 40
7.0
 40
7.0
 40
7.0
 40
8.0
 40
8.0
 40
8.0
 40
9.0
 40
9.0
 40
9.0
 40
10.0
 40
10.0
 40
10.0
 40
10.0
 10
90.85664434872056
 20
-130.1064552452515
 30
0.0
 10
91.4142471993688
 20
-130.1064552452515
 30
0.0
 10
91.97234164367384
 20
-130.189816634119
 30
0.0
 10
92.51011375098149
 20
-130.3565394118555
 30
0.0
 10
92.51011375098149
 20
-130.3565394118555
 30
0.0
 10
118.101318653651
 20
-138.3057869098679
 30
0.0
 10
118.101318653651
 20
-138.3057869098679
 30
0.0
 10
118.101318653651
 20
-138.3057869098679
 30
0.0
 10
117.9438739354455
 20
-138.8011574652999
 30
0.0
 10
117.9438739354455
 20
-138.8011574652999
 30
0.0
 10
117.9438739354455
 20
-138.8011574652999
 30
0.0
 10
91.80180654682968
 20
-131.5216938560084
 30
0.0
 10
91.80180654682968
 20
-131.5216938560084
 30
0.0
 10
91.49210294361977
 20
-131.441754411584
 30
0.0
 10
91.17428545172797
 20
-131.4011144115941
 30
0.0
 10
90.85664434872056
 20
-131.4011144115941
 30
0.0
 10
90.53900553292071
 20
-131.4011144115941
 30
0.0
 10
90.22118575382135
 20
-131.441754411584
 30
0.0
 10
89.91148215061143
 20
-131.5216938560084
 30
0.0
 10
89.91148215061143
 20
-131.5216938560084
 30
0.0
 10
63.76941476199558
 20
-138.8011574652999
 30
0.0
 10
63.76941476199558
 20
-138.8011574652999
 30
0.0
 10
63.76941476199558
 20
-138.8011574652999
 30
0.0
 10
63.61179365490572
 20
-138.3057869098679
 30
0.0
 10
63.61179365490572
 20
-138.3057869098679
 30
0.0
 10
63.61179365490572
 20
-138.3057869098679
 30
0.0
 10
89.20317494645964
 20
-130.3565394118555
 30
0.0
 10
89.20317494645964
 20
-130.3565394118555
 30
0.0
 10
89.74112576606869
 20
-130.189816634119
 30
0.0
 10
90.29886741850619
 20
-130.1064552452515
 30
0.0
 10
90.85664434872056
 20
-130.1064552452515
 30
0.0
  0
ENDBLK
  5
44
330
41
100
AcDbEntity
  8
0
100
AcDbBlockEnd
  0
BLOCK
  5
59
330
57
100
AcDbEntity
  8
0
100
AcDbBlockBegin
  2
block 3
 70
     0
 10
0.0
 20
0.0
 30
0.0
  3
block 3
  1

  0
SPLINE
  5
5B
330
57
100
AcDbEntity
  8
_U+30EC_U+30A4_U+30E4_U+30FC 1
370
     0
100
AcDbSpline
210
0.0
220
0.0
230
1.0
 70
    11
 71
     3
 72
   197
 73
   193
 74
     0
 42
0.0000000001
 43
0.0000000001
 12
1.0
 22
0.0
 32
0.0
 13
1.0
 23
0.0
 33
0.0
 40
0.0
 40
0.0
 40
0.0
 40
0.0
 40
1.0
 40
1.0
 40
1.0
 40
2.0
 40
2.0
 40
2.0
 40
3.0
 40
3.0
 40
3.0
 40
4.0
 40
4.0
 40
4.0
 40
5.0
 40
5.0
 40
5.0
 40
6.0
 40
6.0
 40
6.0
 40
7.0
 40
7.0
 40
7.0
 40
8.0
 40
8.0
 40
8.0
 40
9.0
 40
9.0
 40
9.0
 40
10.0
 40
10.0
 40
10.0
 40
11.0
 40
11.0
 40
11.0
 40
12.0
 40
12.0
 40
12.0
 40
13.0
 40
13.0
 40
13.0
 40
14.0
 40
14.0
 40
14.0
 40
15.0
 40
15.0
 40
15.0
 40
16.0
 40
16.0
 40
16.0
 40
17.0
 40
17.0
 40
17.0
 40
18.0
 40
18.0
 40
18.0
 40
19.0
 40
19.0
 40
19.0
 40
20.0
 40
20.0
 40
20.0
 40
21.0
 40
21.0
 40
21.0
 40
22.0
 40
22.0
 40
22.0
 40
23.0
 40
23.0
 40
23.0
 40
24.0
 40
24.0
 40
24.0
 40
25.0
 40
25.0
 40
25.0
 40
26.0
 40
26.0
 40
26.0
 40
27.0
 40
27.0
 40
27.0
 40
28.0
 40
28.0
 40
28.0
 40
29.0
 40
29.0
 40
29.0
 40
30.0
 40
30.0
 40
30.0
 40
31.0
 40
31.0
 40
31.0
 40
32.0
 40
32.0
 40
32.0
 40
33.0
 40
33.0
 40
33.0
 40
34.0
 40
34.0
 40
34.0
 40
35.0
 40
35.0
 40
35.0
 40
36.0
 40
36.0
 40
36.0
 40
37.0
 40
37.0
 40
37.0
 40
38.0
 40
38.0
 40
38.0
 40
39.0
 40
39.0
 40
39.0
 40
40.0
 40
40.0
 40
40.0
 40
41.0
 40
41.0
 40
41.0
 40
42.0
 40
42.0
 40
42.0
 40
43.0
 40
43.0
 40
43.0
 40
44.0
 40
44.0
 40
44.0
 40
45.0
 40
45.0
 40
45.0
 40
46.0
 40
46.0
 40
46.0
 40
47.0
 40
47.0
 40
47.0
 40
48.0
 40
48.0
 40
48.0
 40
49.0
 40
49.0
 40
49.0
 40
50.0
 40
50.0
 40
50.0
 40
51.0
 40
51.0
 40
51.0
 40
52.0
 40
52.0
 40
52.0
 40
53.0
 40
53.0
 40
53.0
 40
54.0
 40
54.0
 40
54.0
 40
55.0
 40
55.0
 40
55.0
 40
56.0
 40
56.0
 40
56.0
 40
57.0
 40
57.0
 40
57.0
 40
58.0
 40
58.0
 40
58.0
 40
59.0
 40
59.0
 40
59.0
 40
60.0
 40
60.0
 40
60.0
 40
61.0
 40
61.0
 40
61.0
 40
62.0
 40
62.0
 40
62.0
 40
63.0
 40
63.0
 40
63.0
 40
64.0
 40
64.0
 40
64.0
 40
64.0
 10
88.53413083724148
 20
-118.8905897055204
 30
0.0
 10
88.5234510412372
 20
-118.9202175266936
 30
0.0
 10
88.5000243919375
 20
-118.9667263157444
 30
0.0
 10
88.48968910548174
 20
-118.9941148248522
 30
0.0
 10
88.48968910548174
 20
-118.9941148248522
 30
0.0
 10
88.4283664058443
 20
-119.1465603000745
 30
0.0
 10
88.4283664058443
 20
-119.1465603000745
 30
0.0
 10
88.41768660984003
 20
-119.1718817518911
 30
0.0
 10
88.369110763498
 20
-119.2840196099359
 30
0.0
 10
88.35636391020257
 20
-119.3072740044614
 30
0.0
 10
88.35429685291143
 20
-119.3136474311091
 30
0.0
 10
88.3498182287806
 20
-119.322087915048
 30
0.0
 10
88.34775117148945
 20
-119.3284613416957
 30
0.0
 10
88.34775117148945
 20
-119.3284613416957
 30
0.0
 10
88.13828936598627
 20
-119.2755791259971
 30
0.0
 10
88.13828936598627
 20
-119.2755791259971
 30
0.0
 10
88.21683754304996
 20
-119.1655083252434
 30
0.0
 10
88.2781602426874
 20
-119.030116072673
 30
0.0
 10
88.30985512115171
 20
-118.9202175266936
 30
0.0
 10
88.30985512115171
 20
-118.9202175266936
 30
0.0
 10
87.84442272109446
 20
-118.9202175266936
 30
0.0
 10
87.84442272109446
 20
-118.9202175266936
 30
0.0
 10
87.76380748673961
 20
-119.0850653456628
 30
0.0
 10
87.69628361522871
 20
-119.1634412679522
 30
0.0
 10
87.66252167947326
 20
-119.2035766303554
 30
0.0
 10
87.66252167947326
 20
-119.2035766303554
 30
0.0
 10
87.53987628019837
 20
-119.1379475613614
 30
0.0
 10
87.53987628019837
 20
-119.1379475613614
 30
0.0
 10
87.53987628019837
 20
-119.1379475613614
 30
0.0
 10
87.53987628019837
 20
-119.3093410617525
 30
0.0
 10
87.53987628019837
 20
-119.3093410617525
 30
0.0
 10
87.53987628019837
 20
-119.4173448052151
 30
0.0
 10
87.54194333748951
 20
-119.4659206515571
 30
0.0
 10
87.55227862394527
 20
-119.5716850829543
 30
0.0
 10
87.48062063785207
 20
-119.5696180256632
 30
0.0
 10
87.45926104584352
 20
-119.5696180256632
 30
0.0
 10
87.25427786447116
 20
-119.5696180256632
 30
0.0
 10
87.25427786447116
 20
-119.5696180256632
 30
0.0
 10
87.19915633670716
 20
-119.5696180256632
 30
0.0
 10
87.19915633670716
 20
-119.5696180256632
 30
0.0
 10
87.19915633670716
 20
-119.5696180256632
 30
0.0
 10
87.19915633670716
 20
-119.7050102782335
 30
0.0
 10
87.19915633670716
 20
-119.7050102782335
 30
0.0
 10
87.19915633670716
 20
-119.7050102782335
 30
0.0
 10
87.27115883234887
 20
-119.7050102782335
 30
0.0
 10
87.27115883234887
 20
-119.7050102782335
 30
0.0
 10
87.33661564656863
 20
-119.7050102782335
 30
0.0
 10
87.48268769514323
 20
-119.7007039088769
 30
0.0
 10
87.58845212654039
 20
-119.692263424938
 30
0.0
 10
87.58845212654039
 20
-119.692263424938
 30
0.0
 10
87.58845212654039
 20
-119.8700303519769
 30
0.0
 10
87.58845212654039
 20
-119.8700303519769
 30
0.0
 10
87.49095592430783
 20
-119.8636569253292
 30
0.0
 10
87.33248153198633
 20
-119.8593505559727
 30
0.0
 10
87.27115883234887
 20
-119.8593505559727
 30
0.0
 10
87.27115883234887
 20
-119.8593505559727
 30
0.0
 10
87.19915633670716
 20
-119.8593505559727
 30
0.0
 10
87.19915633670716
 20
-119.8593505559727
 30
0.0
 10
87.2012233939983
 20
-119.9482340194921
 30
0.0
 10
87.2053575085806
 20
-120.1873236461685
 30
0.0
 10
87.20742456587176
 20
-120.2613931991013
 30
0.0
 10
87.20742456587176
 20
-120.2613931991013
 30
0.0
 10
87.00657549908169
 20
-120.2613931991013
 30
0.0
 10
87.00657549908169
 20
-120.2613931991013
 30
0.0
 10
87.01932235237712
 20
-120.0476250242416
 30
0.0
 10
87.01932235237712
 20
-120.0179972030684
 30
0.0
 10
87.02345646695942
 20
-119.8593505559727
 30
0.0
 10
87.02345646695942
 20
-119.8593505559727
 30
0.0
 10
86.95386553815737
 20
-119.8593505559727
 30
0.0
 10
86.95386553815737
 20
-119.8593505559727
 30
0.0
 10
86.89667695310223
 20
-119.8593505559727
 30
0.0
 10
86.74440373265418
 20
-119.8636569253292
 30
0.0
 10
86.63416067712619
 20
-119.8700303519769
 30
0.0
 10
86.63416067712619
 20
-119.8700303519769
 30
0.0
 10
86.63416067712619
 20
-119.692263424938
 30
0.0
 10
86.63416067712619
 20
-119.692263424938
 30
0.0
 10
86.73992510852335
 20
-119.7007039088769
 30
0.0
 10
86.8839300998068
 20
-119.7050102782335
 30
0.0
 10
86.95386553815737
 20
-119.7050102782335
 30
0.0
 10
86.95386553815737
 20
-119.7050102782335
 30
0.0
 10
87.02759058154172
 20
-119.7050102782335
 30
0.0
 10
87.02759058154172
 20
-119.7050102782335
 30
0.0
 10
87.02759058154172
 20
-119.7050102782335
 30
0.0
 10
87.02759058154172
 20
-119.5696180256632
 30
0.0
 10
87.02759058154172
 20
-119.5696180256632
 30
0.0
 10
87.02759058154172
 20
-119.5696180256632
 30
0.0
 10
86.98349335933052
 20
-119.5696180256632
 30
0.0
 10
86.98349335933052
 20
-119.5696180256632
 30
0.0
 10
86.90701223955797
 20
-119.5696180256632
 30
0.0
 10
86.71477591148103
 20
-119.5716850829543
 30
0.0
 10
86.68066946617706
 20
-119.5716850829543
 30
0.0
 10
86.68721514759903
 20
-119.4998548420868
 30
0.0
 10
86.69548337676363
 20
-119.4194118625063
 30
0.0
 10
86.69548337676363
 20
-119.2988335205225
 30
0.0
 10
86.69548337676363
 20
-119.2988335205225
 30
0.0
 10
86.69548337676363
 20
-119.1253729628402
 30
0.0
 10
86.69548337676363
 20
-119.1253729628402
 30
0.0
 10
86.69548337676363
 20
-119.0533704671985
 30
0.0
 10
86.68721514759903
 20
-118.9327921252147
 30
0.0
 10
86.68066946617706
 20
-118.8523491456341
 30
0.0
 10
86.75921764324076
 20
-118.8566555149907
 30
0.0
 10
86.79711369357851
 20
-118.8587225722818
 30
0.0
 10
86.92423771698422
 20
-118.8587225722818
 30
0.0
 10
86.92423771698422
 20
-118.8587225722818
 30
0.0
 10
87.02759058154172
 20
-118.8587225722818
 30
0.0
 10
87.02759058154172
 20
-118.8587225722818
 30
0.0
 10
87.02759058154172
 20
-118.8587225722818
 30
0.0
 10
87.02759058154172
 20
-118.7128227784815
 30
0.0
 10
87.02759058154172
 20
-118.7128227784815
 30
0.0
 10
87.02759058154172
 20
-118.7128227784815
 30
0.0
 10
86.94938691402655
 20
-118.7128227784815
 30
0.0
 10
86.94938691402655
 20
-118.7128227784815
 30
0.0
 10
86.89460989581107
 20
-118.7128227784815
 30
0.0
 10
86.72304414064563
 20
-118.7169568930638
 30
0.0
 10
86.63863930125702
 20
-118.7233303197115
 30
0.0
 10
86.63863930125702
 20
-118.7233303197115
 30
0.0
 10
86.63863930125702
 20
-118.5457356474469
 30
0.0
 10
86.63863930125702
 20
-118.5457356474469
 30
0.0
 10
86.72097708335448
 20
-118.5521090740946
 30
0.0
 10
86.8839300998068
 20
-118.5562431886769
 30
0.0
 10
86.94938691402655
 20
-118.5562431886769
 30
0.0
 10
86.94938691402655
 20
-118.5562431886769
 30
0.0
 10
87.02759058154172
 20
-118.5562431886769
 30
0.0
 10
87.02759058154172
 20
-118.5562431886769
 30
0.0
 10
87.02759058154172
 20
-118.5224812529215
 30
0.0
 10
87.02345646695942
 20
-118.367968720408
 30
0.0
 10
87.02345646695942
 20
-118.3362738419437
 30
0.0
 10
87.02345646695942
 20
-118.3362738419437
 30
0.0
 10
87.22017141916719
 20
-118.3531548098214
 30
0.0
 10
87.22017141916719
 20
-118.3531548098214
 30
0.0
 10
87.23705238704491
 20
-118.3552218671126
 30
0.0
 10
87.25841197905346
 20
-118.357461179178
 30
0.0
 10
87.25841197905346
 20
-118.3786485164123
 30
0.0
 10
87.25841197905346
 20
-118.4019029109377
 30
0.0
 10
87.23705238704491
 20
-118.4103433948766
 30
0.0
 10
87.20983613271143
 20
-118.4229179933977
 30
0.0
 10
87.20983613271143
 20
-118.444105330632
 30
0.0
 10
87.20742456587176
 20
-118.5393622207992
 30
0.0
 10
87.20742456587176
 20
-118.5562431886769
 30
0.0
 10
87.20742456587176
 20
-118.5562431886769
 30
0.0
 10
87.26668020821806
 20
-118.5562431886769
 30
0.0
 10
87.26668020821806
 20
-118.5562431886769
 30
0.0
 10
87.33454858927747
 20
-118.5562431886769
 30
0.0
 10
87.4782090710124
 20
-118.5521090740946
 30
0.0
 10
87.58397350240956
 20
-118.5457356474469
 30
0.0
 10
87.58397350240956
 20
-118.5457356474469
 30
0.0
 10
87.58397350240956
 20
-118.7233303197115
 30
0.0
 10
87.58397350240956
 20
-118.7233303197115
 30
0.0
 10
87.48682180972553
 20
-118.7169568930638
 30
0.0
 10
87.33041447469517
 20
-118.7128227784815
 30
0.0
 10
87.26668020821806
 20
-118.7128227784815
 30
0.0
 10
87.26668020821806
 20
-118.7128227784815
 30
0.0
 10
87.19915633670716
 20
-118.7128227784815
 30
0.0
 10
87.19915633670716
 20
-118.7128227784815
 30
0.0
 10
87.19915633670716
 20
-118.7128227784815
 30
0.0
 10
87.19915633670716
 20
-118.8587225722818
 30
0.0
 10
87.19915633670716
 20
-118.8587225722818
 30
0.0
 10
87.19915633670716
 20
-118.8587225722818
 30
0.0
 10
87.26909177505773
 20
-118.8587225722818
 30
0.0
 10
87.26909177505773
 20
-118.8587225722818
 30
0.0
 10
87.4189534286661
 20
-118.8587225722818
 30
0.0
 10
87.49095592430783
 20
-118.8545884576995
 30
0.0
 10
87.55227862394527
 20
-118.8523491456341
 30
0.0
 10
87.54401039478067
 20
-118.9476060358013
 30
0.0
 10
87.54194333748951
 20
-119.0259819580907
 30
0.0
 10
87.53987628019837
 20
-119.0640502632027
 30
0.0
 10
87.69421655793757
 20
-118.8523491456341
 30
0.0
 10
87.79998098933473
 20
-118.6049912897932
 30
0.0
 10
87.81686195721245
 20
-118.3426472685914
 30
0.0
 10
87.81686195721245
 20
-118.3426472685914
 30
0.0
 10
88.03252493458909
 20
-118.3932901722246
 30
0.0
 10
88.03252493458909
 20
-118.3932901722246
 30
0.0
 10
88.04733884517567
 20
-118.3975965415812
 30
0.0
 10
88.06215275576224
 20
-118.4039699682289
 30
0.0
 10
88.06215275576224
 20
-118.4208509361066
 30
0.0
 10
88.06215275576224
 20
-118.4377319039843
 30
0.0
 10
88.05801864117994
 20
-118.4399712160497
 30
0.0
 10
88.00737573754677
 20
-118.4609862985098
 30
0.0
 10
87.99015026012052
 20
-118.537295163508
 30
0.0
 10
87.9650010630782
 20
-118.6282456843186
 30
0.0
 10
87.91642521673617
 20
-118.7551974529501
 30
0.0
 10
87.91642521673617
 20
-118.7551974529501
 30
0.0
 10
88.25473359338771
 20
-118.7551974529501
 30
0.0
 10
88.25473359338771
 20
-118.7551974529501
 30
0.0
 10
88.29297415327399
 20
-118.7551974529501
 30
0.0
 10
88.42182072442233
 20
-118.7508910835935
 30
0.0
 10
88.47039657076435
 20
-118.7445176569458
 30
0.0
 10
88.47039657076435
 20
-118.7445176569458
 30
0.0
 10
88.56375865841461
 20
-118.8142808405221
 30
0.0
 10
88.56375865841461
 20
-118.8142808405221
 30
0.0
 10
88.5551459197015
 20
-118.8354681777564
 30
0.0
 10
88.54894474782805
 20
-118.8545884576995
 30
0.0
 10
88.53413083724148
 20
-118.8905897055204
 30
0.0
  0
POLYLINE
  5
5C
330
57
100
AcDbEntity
  8
_U+30EC_U+30A4_U+30E4_U+30FC 1
370
     0
100
AcDb2dPolyline
 66
     1
 10
0.0
 20
0.0
 30
0.0
  0
VERTEX
  5
5D
330
5C
100
AcDbEntity
  8
_U+30EC_U+30A4_U+30E4_U+30FC 1
370
     0
100
AcDbVertex
100
AcDb2dVertex
 10
87.02759058154172
 20
-119.0153021620865
 30
0.0
  0
VERTEX
  5
5E
330
5C
100
AcDbEntity
  8
_U+30EC_U+30A4_U+30E4_U+30FC 1
370
     0
100
AcDbVertex
100
AcDb2dVertex
 10
86.86911618922022
 20
-119.0153021620865
 30
0.0
  0
VERTEX
  5
5F
330
5C
100
AcDbEntity
  8
_U+30EC_U+30A4_U+30E4_U+30FC 1
370
     0
100
AcDbVertex
100
AcDb2dVertex
 10
86.86911618922022
 20
-119.1443209880091
 30
0.0
  0
VERTEX
  5
60
330
5C
100
AcDbEntity
  8
_U+30EC_U+30A4_U+30E4_U+30FC 1
370
     0
100
AcDbVertex
100
AcDb2dVertex
 10
87.02759058154172
 20
-119.1443209880091
 30
0.0
  0
VERTEX
  5
61
330
5C
100
AcDbEntity
  8
_U+30EC_U+30A4_U+30E4_U+30FC 1
370
     0
100
AcDbVertex
100
AcDb2dVertex
 10
87.02759058154172
 20
-119.0153021620865
 30
0.0
  0
SEQEND
  5
62
330
5C
100
AcDbEntity
  8
_U+30EC_U+30A4_U+30E4_U+30FC 1
370
     0
  0
POLYLINE
  5
63
330
57
100
AcDbEntity
  8
_U+30EC_U+30A4_U+30E4_U+30FC 1
370
     0
100
AcDb2dPolyline
 66
     1
 10
0.0
 20
0.0
 30
0.0
  0
VERTEX
  5
64
330
63
100
AcDbEntity
  8
_U+30EC_U+30A4_U+30E4_U+30FC 1
370
     0
100
AcDbVertex
100
AcDb2dVertex
 10
87.02759058154172
 20
-119.2881537245182
 30
0.0
  0
VERTEX
  5
65
330
63
100
AcDbEntity
  8
_U+30EC_U+30A4_U+30E4_U+30FC 1
370
     0
100
AcDbVertex
100
AcDb2dVertex
 10
86.86911618922022
 20
-119.2881537245182
 30
0.0
  0
VERTEX
  5
66
330
63
100
AcDbEntity
  8
_U+30EC_U+30A4_U+30E4_U+30FC 1
370
     0
100
AcDbVertex
100
AcDb2dVertex
 10
86.86911618922022
 20
-119.4173448052151
 30
0.0
  0
VERTEX
  5
67
330
63
100
AcDbEntity
  8
_U+30EC_U+30A4_U+30E4_U+30FC 1
370
     0
100
AcDbVertex
100
AcDb2dVertex
 10
87.02759058154172
 20
-119.4173448052151
 30
0.0
  0
VERTEX
  5
68
330
63
100
AcDbEntity
  8
_U+30EC_U+30A4_U+30E4_U+30FC 1
370
     0
100
AcDbVertex
100
AcDb2dVertex
 10
87.02759058154172
 20
-119.2881537245182
 30
0.0
  0
SEQEND
  5
69
330
63
100
AcDbEntity
  8
_U+30EC_U+30A4_U+30E4_U+30FC 1
370
     0
  0
POLYLINE
  5
6A
330
57
100
AcDbEntity
  8
_U+30EC_U+30A4_U+30E4_U+30FC 1
370
     0
100
AcDb2dPolyline
 66
     1
 10
0.0
 20
0.0
 30
0.0
  0
VERTEX
  5
6B
330
6A
100
AcDbEntity
  8
_U+30EC_U+30A4_U+30E4_U+30FC 1
370
     0
100
AcDbVertex
100
AcDb2dVertex
 10
87.36004229586833
 20
-119.0153021620865
 30
0.0
  0
VERTEX
  5
6C
330
6A
100
AcDbEntity
  8
_U+30EC_U+30A4_U+30E4_U+30FC 1
370
     0
100
AcDbVertex
100
AcDb2dVertex
 10
87.19915633670716
 20
-119.0153021620865
 30
0.0
  0
VERTEX
  5
6D
330
6A
100
AcDbEntity
  8
_U+30EC_U+30A4_U+30E4_U+30FC 1
370
     0
100
AcDbVertex
100
AcDb2dVertex
 10
87.19915633670716
 20
-119.1443209880091
 30
0.0
  0
VERTEX
  5
6E
330
6A
100
AcDbEntity
  8
_U+30EC_U+30A4_U+30E4_U+30FC 1
370
     0
100
AcDbVertex
100
AcDb2dVertex
 10
87.36004229586833
 20
-119.1443209880091
 30
0.0
  0
VERTEX
  5
6F
330
6A
100
AcDbEntity
  8
_U+30EC_U+30A4_U+30E4_U+30FC 1
370
     0
100
AcDbVertex
100
AcDb2dVertex
 10
87.36004229586833
 20
-119.0153021620865
 30
0.0
  0
SEQEND
  5
70
330
6A
100
AcDbEntity
  8
_U+30EC_U+30A4_U+30E4_U+30FC 1
370
     0
  0
POLYLINE
  5
71
330
57
100
AcDbEntity
  8
_U+30EC_U+30A4_U+30E4_U+30FC 1
370
     0
100
AcDb2dPolyline
 66
     1
 10
0.0
 20
0.0
 30
0.0
  0
VERTEX
  5
72
330
71
100
AcDbEntity
  8
_U+30EC_U+30A4_U+30E4_U+30FC 1
370
     0
100
AcDbVertex
100
AcDb2dVertex
 10
87.36004229586833
 20
-119.2881537245182
 30
0.0
  0
VERTEX
  5
73
330
71
100
AcDbEntity
  8
_U+30EC_U+30A4_U+30E4_U+30FC 1
370
     0
100
AcDbVertex
100
AcDb2dVertex
 10
87.19915633670716
 20
-119.2881537245182
 30
0.0
  0
VERTEX
  5
74
330
71
100
AcDbEntity
  8
_U+30EC_U+30A4_U+30E4_U+30FC 1
370
     0
100
AcDbVertex
100
AcDb2dVertex
 10
87.19915633670716
 20
-119.4173448052151
 30
0.0
  0
VERTEX
  5
75
330
71
100
AcDbEntity
  8
_U+30EC_U+30A4_U+30E4_U+30FC 1
370
     0
100
AcDbVertex
100
AcDb2dVertex
 10
87.36004229586833
 20
-119.4173448052151
 30
0.0
  0
VERTEX
  5
76
330
71
100
AcDbEntity
  8
_U+30EC_U+30A4_U+30E4_U+30FC 1
370
     0
100
AcDbVertex
100
AcDb2dVertex
 10
87.36004229586833
 20
-119.2881537245182
 30
0.0
  0
SEQEND
  5
77
330
71
100
AcDbEntity
  8
_U+30EC_U+30A4_U+30E4_U+30FC 1
370
     0
  0
SPLINE
  5
78
330
57
100
AcDbEntity
  8
_U+30EC_U+30A4_U+30E4_U+30FC 1
370
     0
100
AcDbSpline
210
0.0
220
0.0
230
1.0
 70
    11
 71
     3
 72
    41
 73
    37
 74
     0
 42
0.0000000001
 43
0.0000000001
 12
1.0
 22
0.0
 32
0.0
 13
1.0
 23
0.0
 33
0.0
 40
0.0
 40
0.0
 40
0.0
 40
0.0
 40
1.0
 40
1.0
 40
1.0
 40
2.0
 40
2.0
 40
2.0
 40
3.0
 40
3.0
 40
3.0
 40
4.0
 40
4.0
 40
4.0
 40
5.0
 40
5.0
 40
5.0
 40
6.0
 40
6.0
 40
6.0
 40
7.0
 40
7.0
 40
7.0
 40
8.0
 40
8.0
 40
8.0
 40
9.0
 40
9.0
 40
9.0
 40
10.0
 40
10.0
 40
10.0
 40
11.0
 40
11.0
 40
11.0
 40
12.0
 40
12.0
 40
12.0
 40
12.0
 10
88.44938148830433
 20
-120.2465792885148
 30
0.0
 10
88.20822480433684
 20
-120.1111870359444
 30
0.0
 10
88.03045787729795
 20
-119.8149088242129
 30
0.0
 10
87.99015026012052
 20
-119.6858899982903
 30
0.0
 10
87.86957191813677
 20
-119.9503010767833
 30
0.0
 10
87.70696341123299
 20
-120.1280680038222
 30
0.0
 10
87.52506236961179
 20
-120.2422729191582
 30
0.0
 10
87.52506236961179
 20
-120.2422729191582
 30
0.0
 10
87.3280029078555
 20
-120.1048136092967
 30
0.0
 10
87.3280029078555
 20
-120.1048136092967
 30
0.0
 10
87.39793834620608
 20
-120.0794921574801
 30
0.0
 10
87.54401039478067
 20
-120.0179972030684
 30
0.0
 10
87.66665579405556
 20
-119.8636569253292
 30
0.0
 10
87.7913682506216
 20
-119.7070773355246
 30
0.0
 10
87.88025171414105
 20
-119.474361135496
 30
0.0
 10
87.88025171414105
 20
-119.2142564263596
 30
0.0
 10
87.88025171414105
 20
-119.1126261095448
 30
0.0
 10
87.86750486084563
 20
-119.0407958686773
 30
0.0
 10
87.85716957438987
 20
-118.9941148248522
 30
0.0
 10
87.85716957438987
 20
-118.9941148248522
 30
0.0
 10
88.06215275576224
 20
-119.0153021620865
 30
0.0
 10
88.06215275576224
 20
-119.0153021620865
 30
0.0
 10
88.08351234777079
 20
-119.0173692193776
 30
0.0
 10
88.10452743023082
 20
-119.019608531443
 30
0.0
 10
88.10452743023082
 20
-119.0407958686773
 30
0.0
 10
88.10452743023082
 20
-119.0597438938462
 30
0.0
 10
88.09384763422655
 20
-119.068184377785
 30
0.0
 10
88.0600856984711
 20
-119.0893717150193
 30
0.0
 10
88.0518174693065
 20
-119.2903930365837
 30
0.0
 10
88.10866154481312
 20
-119.5336167778423
 30
0.0
 10
88.16998424445056
 20
-119.654195119826
 30
0.0
 10
88.26093476526115
 20
-119.8297227347995
 30
0.0
 10
88.45558266017777
 20
-120.0095567191296
 30
0.0
 10
88.5909749127481
 20
-120.0667453041847
 30
0.0
 10
88.5909749127481
 20
-120.0667453041847
 30
0.0
 10
88.44938148830433
 20
-120.2465792885148
 30
0.0
 10
88.44938148830433
 20
-120.2465792885148
 30
0.0
  0
HATCH
  5
79
330
57
100
AcDbEntity
  8
_U+30EC_U+30A4_U+30E4_U+30FC 1
 62
   179
420
  2234388
100
AcDbHatch
 10
0.0
 20
0.0
 30
0.0
210
0.0
220
0.0
230
1.0
  2
SOLID
 70
     1
 71
     0
 91
        6
 92
        1
 93
        1
 72
     4
 94
        3
 73
     0
 74
     1
 95
      197
 96
      193
 40
0.0
 40
0.0
 40
0.0
 40
0.0
 40
1.0
 40
1.0
 40
1.0
 40
2.0
 40
2.0
 40
2.0
 40
3.0
 40
3.0
 40
3.0
 40
4.0
 40
4.0
 40
4.0
 40
5.0
 40
5.0
 40
5.0
 40
6.0
 40
6.0
 40
6.0
 40
7.0
 40
7.0
 40
7.0
 40
8.0
 40
8.0
 40
8.0
 40
9.0
 40
9.0
 40
9.0
 40
10.0
 40
10.0
 40
10.0
 40
11.0
 40
11.0
 40
11.0
 40
12.0
 40
12.0
 40
12.0
 40
13.0
 40
13.0
 40
13.0
 40
14.0
 40
14.0
 40
14.0
 40
15.0
 40
15.0
 40
15.0
 40
16.0
 40
16.0
 40
16.0
 40
17.0
 40
17.0
 40
17.0
 40
18.0
 40
18.0
 40
18.0
 40
19.0
 40
19.0
 40
19.0
 40
20.0
 40
20.0
 40
20.0
 40
21.0
 40
21.0
 40
21.0
 40
22.0
 40
22.0
 40
22.0
 40
23.0
 40
23.0
 40
23.0
 40
24.0
 40
24.0
 40
24.0
 40
25.0
 40
25.0
 40
25.0
 40
26.0
 40
26.0
 40
26.0
 40
27.0
 40
27.0
 40
27.0
 40
28.0
 40
28.0
 40
28.0
 40
29.0
 40
29.0
 40
29.0
 40
30.0
 40
30.0
 40
30.0
 40
31.0
 40
31.0
 40
31.0
 40
32.0
 40
32.0
 40
32.0
 40
33.0
 40
33.0
 40
33.0
 40
34.0
 40
34.0
 40
34.0
 40
35.0
 40
35.0
 40
35.0
 40
36.0
 40
36.0
 40
36.0
 40
37.0
 40
37.0
 40
37.0
 40
38.0
 40
38.0
 40
38.0
 40
39.0
 40
39.0
 40
39.0
 40
40.0
 40
40.0
 40
40.0
 40
41.0
 40
41.0
 40
41.0
 40
42.0
 40
42.0
 40
42.0
 40
43.0
 40
43.0
 40
43.0
 40
44.0
 40
44.0
 40
44.0
 40
45.0
 40
45.0
 40
45.0
 40
46.0
 40
46.0
 40
46.0
 40
47.0
 40
47.0
 40
47.0
 40
48.0
 40
48.0
 40
48.0
 40
49.0
 40
49.0
 40
49.0
 40
50.0
 40
50.0
 40
50.0
 40
51.0
 40
51.0
 40
51.0
 40
52.0
 40
52.0
 40
52.0
 40
53.0
 40
53.0
 40
53.0
 40
54.0
 40
54.0
 40
54.0
 40
55.0
 40
55.0
 40
55.0
 40
56.0
 40
56.0
 40
56.0
 40
57.0
 40
57.0
 40
57.0
 40
58.0
 40
58.0
 40
58.0
 40
59.0
 40
59.0
 40
59.0
 40
60.0
 40
60.0
 40
60.0
 40
61.0
 40
61.0
 40
61.0
 40
62.0
 40
62.0
 40
62.0
 40
63.0
 40
63.0
 40
63.0
 40
64.0
 40
64.0
 40
64.0
 40
64.0
 10
88.53413083724148
 20
-118.8905897055204
 10
88.5234510412372
 20
-118.9202175266936
 10
88.5000243919375
 20
-118.9667263157444
 10
88.48968910548174
 20
-118.9941148248522
 10
88.48968910548174
 20
-118.9941148248522
 10
88.4283664058443
 20
-119.1465603000745
 10
88.4283664058443
 20
-119.1465603000745
 10
88.41768660984003
 20
-119.1718817518911
 10
88.369110763498
 20
-119.2840196099359
 10
88.35636391020257
 20
-119.3072740044614
 10
88.35429685291143
 20
-119.3136474311091
 10
88.3498182287806
 20
-119.322087915048
 10
88.34775117148945
 20
-119.3284613416957
 10
88.34775117148945
 20
-119.3284613416957
 10
88.13828936598627
 20
-119.2755791259971
 10
88.13828936598627
 20
-119.2755791259971
 10
88.21683754304996
 20
-119.1655083252434
 10
88.2781602426874
 20
-119.030116072673
 10
88.30985512115171
 20
-118.9202175266936
 10
88.30985512115171
 20
-118.9202175266936
 10
87.84442272109446
 20
-118.9202175266936
 10
87.84442272109446
 20
-118.9202175266936
 10
87.76380748673961
 20
-119.0850653456628
 10
87.69628361522871
 20
-119.1634412679522
 10
87.66252167947326
 20
-119.2035766303554
 10
87.66252167947326
 20
-119.2035766303554
 10
87.53987628019837
 20
-119.1379475613614
 10
87.53987628019837
 20
-119.1379475613614
 10
87.53987628019837
 20
-119.1379475613614
 10
87.53987628019837
 20
-119.3093410617525
 10
87.53987628019837
 20
-119.3093410617525
 10
87.53987628019837
 20
-119.4173448052151
 10
87.54194333748951
 20
-119.4659206515571
 10
87.55227862394527
 20
-119.5716850829543
 10
87.48062063785207
 20
-119.5696180256632
 10
87.45926104584352
 20
-119.5696180256632
 10
87.25427786447116
 20
-119.5696180256632
 10
87.25427786447116
 20
-119.5696180256632
 10
87.19915633670716
 20
-119.5696180256632
 10
87.19915633670716
 20
-119.5696180256632
 10
87.19915633670716
 20
-119.5696180256632
 10
87.19915633670716
 20
-119.7050102782335
 10
87.19915633670716
 20
-119.7050102782335
 10
87.19915633670716
 20
-119.7050102782335
 10
87.27115883234887
 20
-119.7050102782335
 10
87.27115883234887
 20
-119.7050102782335
 10
87.33661564656863
 20
-119.7050102782335
 10
87.48268769514323
 20
-119.7007039088769
 10
87.58845212654039
 20
-119.692263424938
 10
87.58845212654039
 20
-119.692263424938
 10
87.58845212654039
 20
-119.8700303519769
 10
87.58845212654039
 20
-119.8700303519769
 10
87.49095592430783
 20
-119.8636569253292
 10
87.33248153198633
 20
-119.8593505559727
 10
87.27115883234887
 20
-119.8593505559727
 10
87.27115883234887
 20
-119.8593505559727
 10
87.19915633670716
 20
-119.8593505559727
 10
87.19915633670716
 20
-119.8593505559727
 10
87.2012233939983
 20
-119.9482340194921
 10
87.2053575085806
 20
-120.1873236461685
 10
87.20742456587176
 20
-120.2613931991013
 10
87.20742456587176
 20
-120.2613931991013
 10
87.00657549908169
 20
-120.2613931991013
 10
87.00657549908169
 20
-120.2613931991013
 10
87.01932235237712
 20
-120.0476250242416
 10
87.01932235237712
 20
-120.0179972030684
 10
87.02345646695942
 20
-119.8593505559727
 10
87.02345646695942
 20
-119.8593505559727
 10
86.95386553815737
 20
-119.8593505559727
 10
86.95386553815737
 20
-119.8593505559727
 10
86.89667695310223
 20
-119.8593505559727
 10
86.74440373265418
 20
-119.8636569253292
 10
86.63416067712619
 20
-119.8700303519769
 10
86.63416067712619
 20
-119.8700303519769
 10
86.63416067712619
 20
-119.692263424938
 10
86.63416067712619
 20
-119.692263424938
 10
86.73992510852335
 20
-119.7007039088769
 10
86.8839300998068
 20
-119.7050102782335
 10
86.95386553815737
 20
-119.7050102782335
 10
86.95386553815737
 20
-119.7050102782335
 10
87.02759058154172
 20
-119.7050102782335
 10
87.02759058154172
 20
-119.7050102782335
 10
87.02759058154172
 20
-119.7050102782335
 10
87.02759058154172
 20
-119.5696180256632
 10
87.02759058154172
 20
-119.5696180256632
 10
87.02759058154172
 20
-119.5696180256632
 10
86.98349335933052
 20
-119.5696180256632
 10
86.98349335933052
 20
-119.5696180256632
 10
86.90701223955797
 20
-119.5696180256632
 10
86.71477591148103
 20
-119.5716850829543
 10
86.68066946617706
 20
-119.5716850829543
 10
86.68721514759903
 20
-119.4998548420868
 10
86.69548337676363
 20
-119.4194118625063
 10
86.69548337676363
 20
-119.2988335205225
 10
86.69548337676363
 20
-119.2988335205225
 10
86.69548337676363
 20
-119.1253729628402
 10
86.69548337676363
 20
-119.1253729628402
 10
86.69548337676363
 20
-119.0533704671985
 10
86.68721514759903
 20
-118.9327921252147
 10
86.68066946617706
 20
-118.8523491456341
 10
86.75921764324076
 20
-118.8566555149907
 10
86.79711369357851
 20
-118.8587225722818
 10
86.92423771698422
 20
-118.8587225722818
 10
86.92423771698422
 20
-118.8587225722818
 10
87.02759058154172
 20
-118.8587225722818
 10
87.02759058154172
 20
-118.8587225722818
 10
87.02759058154172
 20
-118.8587225722818
 10
87.02759058154172
 20
-118.7128227784815
 10
87.02759058154172
 20
-118.7128227784815
 10
87.02759058154172
 20
-118.7128227784815
 10
86.94938691402655
 20
-118.7128227784815
 10
86.94938691402655
 20
-118.7128227784815
 10
86.89460989581107
 20
-118.7128227784815
 10
86.72304414064563
 20
-118.7169568930638
 10
86.63863930125702
 20
-118.7233303197115
 10
86.63863930125702
 20
-118.7233303197115
 10
86.63863930125702
 20
-118.5457356474469
 10
86.63863930125702
 20
-118.5457356474469
 10
86.72097708335448
 20
-118.5521090740946
 10
86.8839300998068
 20
-118.5562431886769
 10
86.94938691402655
 20
-118.5562431886769
 10
86.94938691402655
 20
-118.5562431886769
 10
87.02759058154172
 20
-118.5562431886769
 10
87.02759058154172
 20
-118.5562431886769
 10
87.02759058154172
 20
-118.5224812529215
 10
87.02345646695942
 20
-118.367968720408
 10
87.02345646695942
 20
-118.3362738419437
 10
87.02345646695942
 20
-118.3362738419437
 10
87.22017141916719
 20
-118.3531548098214
 10
87.22017141916719
 20
-118.3531548098214
 10
87.23705238704491
 20
-118.3552218671126
 10
87.25841197905346
 20
-118.357461179178
 10
87.25841197905346
 20
-118.3786485164123
 10
87.25841197905346
 20
-118.4019029109377
 10
87.23705238704491
 20
-118.4103433948766
 10
87.20983613271143
 20
-118.4229179933977
 10
87.20983613271143
 20
-118.444105330632
 10
87.20742456587176
 20
-118.5393622207992
 10
87.20742456587176
 20
-118.5562431886769
 10
87.20742456587176
 20
-118.5562431886769
 10
87.26668020821806
 20
-118.5562431886769
 10
87.26668020821806
 20
-118.5562431886769
 10
87.33454858927747
 20
-118.5562431886769
 10
87.4782090710124
 20
-118.5521090740946
 10
87.58397350240956
 20
-118.5457356474469
 10
87.58397350240956
 20
-118.5457356474469
 10
87.58397350240956
 20
-118.7233303197115
 10
87.58397350240956
 20
-118.7233303197115
 10
87.48682180972553
 20
-118.7169568930638
 10
87.33041447469517
 20
-118.7128227784815
 10
87.26668020821806
 20
-118.7128227784815
 10
87.26668020821806
 20
-118.7128227784815
 10
87.19915633670716
 20
-118.7128227784815
 10
87.19915633670716
 20
-118.7128227784815
 10
87.19915633670716
 20
-118.7128227784815
 10
87.19915633670716
 20
-118.8587225722818
 10
87.19915633670716
 20
-118.8587225722818
 10
87.19915633670716
 20
-118.8587225722818
 10
87.26909177505773
 20
-118.8587225722818
 10
87.26909177505773
 20
-118.8587225722818
 10
87.4189534286661
 20
-118.8587225722818
 10
87.49095592430783
 20
-118.8545884576995
 10
87.55227862394527
 20
-118.8523491456341
 10
87.54401039478067
 20
-118.9476060358013
 10
87.54194333748951
 20
-119.0259819580907
 10
87.53987628019837
 20
-119.0640502632027
 10
87.69421655793757
 20
-118.8523491456341
 10
87.79998098933473
 20
-118.6049912897932
 10
87.81686195721245
 20
-118.3426472685914
 10
87.81686195721245
 20
-118.3426472685914
 10
88.03252493458909
 20
-118.3932901722246
 10
88.03252493458909
 20
-118.3932901722246
 10
88.04733884517567
 20
-118.3975965415812
 10
88.06215275576224
 20
-118.4039699682289
 10
88.06215275576224
 20
-118.4208509361066
 10
88.06215275576224
 20
-118.4377319039843
 10
88.05801864117994
 20
-118.4399712160497
 10
88.00737573754677
 20
-118.4609862985098
 10
87.99015026012052
 20
-118.537295163508
 10
87.9650010630782
 20
-118.6282456843186
 10
87.91642521673617
 20
-118.7551974529501
 10
87.91642521673617
 20
-118.7551974529501
 10
88.25473359338771
 20
-118.7551974529501
 10
88.25473359338771
 20
-118.7551974529501
 10
88.29297415327399
 20
-118.7551974529501
 10
88.42182072442233
 20
-118.7508910835935
 10
88.47039657076435
 20
-118.7445176569458
 10
88.47039657076435
 20
-118.7445176569458
 10
88.56375865841461
 20
-118.8142808405221
 10
88.56375865841461
 20
-118.8142808405221
 10
88.5551459197015
 20
-118.8354681777564
 10
88.54894474782805
 20
-118.8545884576995
 10
88.53413083724148
 20
-118.8905897055204
 97
        0
 97
        0
 92
        1
 93
        4
 72
     1
 10
87.02759058154172
 20
-119.0153021620865
 11
86.86911618922022
 21
-119.0153021620865
 72
     1
 10
86.86911618922022
 20
-119.0153021620865
 11
86.86911618922022
 21
-119.1443209880091
 72
     1
 10
86.86911618922022
 20
-119.1443209880091
 11
87.02759058154172
 21
-119.1443209880091
 72
     1
 10
87.02759058154172
 20
-119.1443209880091
 11
87.02759058154172
 21
-119.0153021620865
 97
        0
 92
        1
 93
        4
 72
     1
 10
87.02759058154172
 20
-119.2881537245182
 11
86.86911618922022
 21
-119.2881537245182
 72
     1
 10
86.86911618922022
 20
-119.2881537245182
 11
86.86911618922022
 21
-119.4173448052151
 72
     1
 10
86.86911618922022
 20
-119.4173448052151
 11
87.02759058154172
 21
-119.4173448052151
 72
     1
 10
87.02759058154172
 20
-119.4173448052151
 11
87.02759058154172
 21
-119.2881537245182
 97
        0
 92
        1
 93
        4
 72
     1
 10
87.36004229586833
 20
-119.0153021620865
 11
87.19915633670716
 21
-119.0153021620865
 72
     1
 10
87.19915633670716
 20
-119.0153021620865
 11
87.19915633670716
 21
-119.1443209880091
 72
     1
 10
87.19915633670716
 20
-119.1443209880091
 11
87.36004229586833
 21
-119.1443209880091
 72
     1
 10
87.36004229586833
 20
-119.1443209880091
 11
87.36004229586833
 21
-119.0153021620865
 97
        0
 92
        1
 93
        4
 72
     1
 10
87.36004229586833
 20
-119.2881537245182
 11
87.19915633670716
 21
-119.2881537245182
 72
     1
 10
87.19915633670716
 20
-119.2881537245182
 11
87.19915633670716
 21
-119.4173448052151
 72
     1
 10
87.19915633670716
 20
-119.4173448052151
 11
87.36004229586833
 21
-119.4173448052151
 72
     1
 10
87.36004229586833
 20
-119.4173448052151
 11
87.36004229586833
 21
-119.2881537245182
 97
        0
 92
        1
 93
        1
 72
     4
 94
        3
 73
     0
 74
     1
 95
       41
 96
       37
 40
0.0
 40
0.0
 40
0.0
 40
0.0
 40
1.0
 40
1.0
 40
1.0
 40
2.0
 40
2.0
 40
2.0
 40
3.0
 40
3.0
 40
3.0
 40
4.0
 40
4.0
 40
4.0
 40
5.0
 40
5.0
 40
5.0
 40
6.0
 40
6.0
 40
6.0
 40
7.0
 40
7.0
 40
7.0
 40
8.0
 40
8.0
 40
8.0
 40
9.0
 40
9.0
 40
9.0
 40
10.0
 40
10.0
 40
10.0
 40
11.0
 40
11.0
 40
11.0
 40
12.0
 40
12.0
 40
12.0
 40
12.0
 10
88.44938148830433
 20
-120.2465792885148
 10
88.20822480433684
 20
-120.1111870359444
 10
88.03045787729795
 20
-119.8149088242129
 10
87.99015026012052
 20
-119.6858899982903
 10
87.86957191813677
 20
-119.9503010767833
 10
87.70696341123299
 20
-120.1280680038222
 10
87.52506236961179
 20
-120.2422729191582
 10
87.52506236961179
 20
-120.2422729191582
 10
87.3280029078555
 20
-120.1048136092967
 10
87.3280029078555
 20
-120.1048136092967
 10
87.39793834620608
 20
-120.0794921574801
 10
87.54401039478067
 20
-120.0179972030684
 10
87.66665579405556
 20
-119.8636569253292
 10
87.7913682506216
 20
-119.7070773355246
 10
87.88025171414105
 20
-119.474361135496
 10
87.88025171414105
 20
-119.2142564263596
 10
87.88025171414105
 20
-119.1126261095448
 10
87.86750486084563
 20
-119.0407958686773
 10
87.85716957438987
 20
-118.9941148248522
 10
87.85716957438987
 20
-118.9941148248522
 10
88.06215275576224
 20
-119.0153021620865
 10
88.06215275576224
 20
-119.0153021620865
 10
88.08351234777079
 20
-119.0173692193776
 10
88.10452743023082
 20
-119.019608531443
 10
88.10452743023082
 20
-119.0407958686773
 10
88.10452743023082
 20
-119.0597438938462
 10
88.09384763422655
 20
-119.068184377785
 10
88.0600856984711
 20
-119.0893717150193
 10
88.0518174693065
 20
-119.2903930365837
 10
88.10866154481312
 20
-119.5336167778423
 10
88.16998424445056
 20
-119.654195119826
 10
88.26093476526115
 20
-119.8297227347995
 10
88.45558266017777
 20
-120.0095567191296
 10
88.5909749127481
 20
-120.0667453041847
 10
88.5909749127481
 20
-120.0667453041847
 10
88.44938148830433
 20
-120.2465792885148
 10
88.44938148830433
 20
-120.2465792885148
 97
        0
 97
        0
 75
     2
 76
     1
 98
        0
  0
SPLINE
  5
7A
330
57
100
AcDbEntity
  8
_U+30EC_U+30A4_U+30E4_U+30FC 1
370
     0
100
AcDbSpline
210
0.0
220
0.0
230
1.0
 70
    11
 71
     3
 72
    71
 73
    67
 74
     0
 42
0.0000000001
 43
0.0000000001
 12
1.0
 22
0.0
 32
0.0
 13
1.0
 23
0.0
 33
0.0
 40
0.0
 40
0.0
 40
0.0
 40
0.0
 40
1.0
 40
1.0
 40
1.0
 40
2.0
 40
2.0
 40
2.0
 40
3.0
 40
3.0
 40
3.0
 40
4.0
 40
4.0
 40
4.0
 40
5.0
 40
5.0
 40
5.0
 40
6.0
 40
6.0
 40
6.0
 40
7.0
 40
7.0
 40
7.0
 40
8.0
 40
8.0
 40
8.0
 40
9.0
 40
9.0
 40
9.0
 40
10.0
 40
10.0
 40
10.0
 40
11.0
 40
11.0
 40
11.0
 40
12.0
 40
12.0
 40
12.0
 40
13.0
 40
13.0
 40
13.0
 40
14.0
 40
14.0
 40
14.0
 40
15.0
 40
15.0
 40
15.0
 40
16.0
 40
16.0
 40
16.0
 40
17.0
 40
17.0
 40
17.0
 40
18.0
 40
18.0
 40
18.0
 40
19.0
 40
19.0
 40
19.0
 40
20.0
 40
20.0
 40
20.0
 40
21.0
 40
21.0
 40
21.0
 40
22.0
 40
22.0
 40
22.0
 40
22.0
 10
89.64379609304045
 20
-118.5140407689826
 30
0.0
 10
89.62898218245387
 20
-118.5140407689826
 30
0.0
 10
89.61623532915844
 20
-118.509734399626
 30
0.0
 10
89.59074162256759
 20
-118.5012939156872
 30
0.0
 10
89.44914819812382
 20
-118.5478027047381
 30
0.0
 10
89.27551538566723
 20
-118.5646836726158
 30
0.0
 10
89.13598901851462
 20
-118.5689900419723
 30
0.0
 10
89.13598901851462
 20
-118.5689900419723
 30
0.0
 10
89.13392196122346
 20
-118.6578735054918
 30
0.0
 10
89.13392196122346
 20
-118.6578735054918
 30
0.0
 10
89.13392196122346
 20
-118.6578735054918
 30
0.0
 10
89.39402667035984
 20
-118.6578735054918
 30
0.0
 10
89.39402667035984
 20
-118.6578735054918
 30
0.0
 10
89.44708114083268
 20
-118.6578735054918
 30
0.0
 10
89.62898218245387
 20
-118.6494330215529
 30
0.0
 10
89.67342391421359
 20
-118.6430595949052
 30
0.0
 10
89.67342391421359
 20
-118.6430595949052
 30
0.0
 10
89.67342391421359
 20
-118.8037732992921
 30
0.0
 10
89.67342391421359
 20
-118.8037732992921
 30
0.0
 10
89.6183023864496
 20
-118.7973998726444
 30
0.0
 10
89.49358992988356
 20
-118.7953328153533
 30
0.0
 10
89.45534936999728
 20
-118.7973998726444
 30
0.0
 10
89.45534936999728
 20
-118.7973998726444
 30
0.0
 10
89.45534936999728
 20
-118.9074706733981
 30
0.0
 10
89.45534936999728
 20
-118.9074706733981
 30
0.0
 10
89.45534936999728
 20
-118.953979462449
 30
0.0
 10
89.45741642728842
 20
-119.0173692193776
 30
0.0
 10
89.4639621087104
 20
-119.0556097792639
 30
0.0
 10
89.4639621087104
 20
-119.0556097792639
 30
0.0
 10
89.27138127108493
 20
-119.0556097792639
 30
0.0
 10
89.27138127108493
 20
-119.0556097792639
 30
0.0
 10
89.27758244295839
 20
-119.0153021620865
 30
0.0
 10
89.28412812438036
 20
-118.9327921252147
 30
0.0
 10
89.28412812438036
 20
-118.9179782146281
 30
0.0
 10
89.28412812438036
 20
-118.9179782146281
 30
0.0
 10
89.28412812438036
 20
-118.7973998726444
 30
0.0
 10
89.28412812438036
 20
-118.7973998726444
 30
0.0
 10
89.28412812438036
 20
-118.7973998726444
 30
0.0
 10
89.1191080506369
 20
-118.7973998726444
 30
0.0
 10
89.1191080506369
 20
-118.7973998726444
 30
0.0
 10
89.07673337616832
 20
-119.0173692193776
 30
0.0
 10
89.02161184840432
 20
-119.0978121989582
 30
0.0
 10
88.91584741700716
 20
-119.1972032037076
 30
0.0
 10
88.91584741700716
 20
-119.1972032037076
 30
0.0
 10
88.74876028597254
 20
-119.0829982883716
 30
0.0
 10
88.74876028597254
 20
-119.0829982883716
 30
0.0
 10
88.81215004290114
 20
-119.0344224420296
 30
0.0
 10
88.96235620605803
 20
-118.9222845839847
 30
0.0
 10
88.96235620605803
 20
-118.5731241565546
 30
0.0
 10
88.96235620605803
 20
-118.4906141196829
 30
0.0
 10
88.95408797689343
 20
-118.444105330632
 30
0.0
 10
88.94547523818031
 20
-118.39552948429
 30
0.0
 10
89.09154728675489
 20
-118.4103433948766
 30
0.0
 10
89.10636119734147
 20
-118.4103433948766
 30
0.0
 10
89.14219019038806
 20
-118.4103433948766
 30
0.0
 10
89.25036618862491
 20
-118.4103433948766
 30
0.0
 10
89.39195961306868
 20
-118.3932901722246
 30
0.0
 10
89.55284557222984
 20
-118.3319674725872
 30
0.0
 10
89.55284557222984
 20
-118.3319674725872
 30
0.0
 10
89.66687823279162
 20
-118.4632256105752
 30
0.0
 10
89.66687823279162
 20
-118.4632256105752
 30
0.0
 10
89.67342391421359
 20
-118.4695990372229
 30
0.0
 10
89.67755802879589
 20
-118.4780395211617
 30
0.0
 10
89.67755802879589
 20
-118.4864800051006
 30
0.0
 10
89.67755802879589
 20
-118.509734399626
 30
0.0
 10
89.65861000362702
 20
-118.5140407689826
 30
0.0
 10
89.64379609304045
 20
-118.5140407689826
 30
0.0
  0
SPLINE
  5
7B
330
57
100
AcDbEntity
  8
_U+30EC_U+30A4_U+30E4_U+30FC 1
370
     0
100
AcDbSpline
210
0.0
220
0.0
230
1.0
 70
    11
 71
     3
 72
    74
 73
    70
 74
     0
 42
0.0000000001
 43
0.0000000001
 12
1.0
 22
0.0
 32
0.0
 13
1.0
 23
0.0
 33
0.0
 40
0.0
 40
0.0
 40
0.0
 40
0.0
 40
1.0
 40
1.0
 40
1.0
 40
2.0
 40
2.0
 40
2.0
 40
3.0
 40
3.0
 40
3.0
 40
4.0
 40
4.0
 40
4.0
 40
5.0
 40
5.0
 40
5.0
 40
6.0
 40
6.0
 40
6.0
 40
7.0
 40
7.0
 40
7.0
 40
8.0
 40
8.0
 40
8.0
 40
9.0
 40
9.0
 40
9.0
 40
10.0
 40
10.0
 40
10.0
 40
11.0
 40
11.0
 40
11.0
 40
12.0
 40
12.0
 40
12.0
 40
13.0
 40
13.0
 40
13.0
 40
14.0
 40
14.0
 40
14.0
 40
15.0
 40
15.0
 40
15.0
 40
16.0
 40
16.0
 40
16.0
 40
17.0
 40
17.0
 40
17.0
 40
18.0
 40
18.0
 40
18.0
 40
19.0
 40
19.0
 40
19.0
 40
20.0
 40
20.0
 40
20.0
 40
21.0
 40
21.0
 40
21.0
 40
22.0
 40
22.0
 40
22.0
 40
23.0
 40
23.0
 40
23.0
 40
23.0
 10
90.48129880550468
 20
-120.2803412242702
 30
0.0
 10
90.26770288541918
 20
-120.2698336830402
 30
0.0
 10
90.06685381862913
 20
-120.1830172768119
 30
0.0
 10
89.89115394888138
 20
-120.0624389348282
 30
0.0
 10
89.89115394888138
 20
-120.0624389348282
 30
0.0
 10
89.98865015111396
 20
-119.9757947833741
 30
0.0
 10
89.98865015111396
 20
-119.9757947833741
 30
0.0
 10
89.98865015111396
 20
-119.9757947833741
 30
0.0
 10
89.4364013448284
 20
-119.9757947833741
 30
0.0
 10
89.4364013448284
 20
-119.9757947833741
 30
0.0
 10
89.4364013448284
 20
-119.9757947833741
 30
0.0
 10
89.51667206963472
 20
-120.0391845403027
 30
0.0
 10
89.51667206963472
 20
-120.0391845403027
 30
0.0
 10
89.5232177510567
 20
-120.0434909096593
 30
0.0
 10
89.53355303751245
 20
-120.0539984508893
 30
0.0
 10
89.53355303751245
 20
-120.0688123614759
 30
0.0
 10
89.53355303751245
 20
-120.1091199786533
 30
0.0
 10
89.45948348457958
 20
-120.1027465520056
 30
0.0
 10
89.444669573993
 20
-120.1005072399402
 30
0.0
 10
89.21419268602979
 20
-120.240205861867
 30
0.0
 10
89.07053220429488
 20
-120.2719007403313
 30
0.0
 10
88.96683483018884
 20
-120.2887817082091
 30
0.0
 10
88.96683483018884
 20
-120.2887817082091
 30
0.0
 10
88.83764374949199
 20
-120.1111870359444
 30
0.0
 10
88.83764374949199
 20
-120.1111870359444
 30
0.0
 10
89.08534611488145
 20
-120.0794921574801
 30
0.0
 10
89.1866319221478
 20
-120.032811113655
 30
0.0
 10
89.27551538566723
 20
-119.9799288979564
 30
0.0
 10
89.20144583273436
 20
-119.9821682100218
 30
0.0
 10
89.08741317217259
 20
-119.984235267313
 30
0.0
 10
89.0557182937083
 20
-119.9863023246041
 30
0.0
 10
89.07053220429488
 20
-119.8974188610847
 30
0.0
 10
89.07259926158602
 20
-119.7684000351621
 30
0.0
 10
89.07259926158602
 20
-119.6943304822292
 30
0.0
 10
89.07259926158602
 20
-119.6943304822292
 30
0.0
 10
89.07259926158602
 20
-119.3939181559154
 30
0.0
 10
89.07259926158602
 20
-119.3939181559154
 30
0.0
 10
89.07259926158602
 20
-119.294527151166
 30
0.0
 10
89.06605358016405
 20
-119.1951361464165
 30
0.0
 10
89.0557182937083
 20
-119.0978121989582
 30
0.0
 10
89.15700410097465
 20
-119.1041856256059
 30
0.0
 10
89.38782549848638
 20
-119.1105590522536
 30
0.0
 10
89.4956569871747
 20
-119.1105590522536
 30
0.0
 10
89.4956569871747
 20
-119.1105590522536
 30
0.0
 10
89.91871471276338
 20
-119.1105590522536
 30
0.0
 10
89.91871471276338
 20
-119.1105590522536
 30
0.0
 10
90.03722599745598
 20
-119.1105590522536
 30
0.0
 10
90.07960067192455
 20
-119.1105590522536
 30
0.0
 10
90.16193845402202
 20
-119.1062526828971
 30
0.0
 10
90.31007755988776
 20
-119.0998792562493
 30
0.0
 10
90.32695852776548
 20
-119.0998792562493
 30
0.0
 10
90.37346731681636
 20
-119.0978121989582
 30
0.0
 10
90.36519908765176
 20
-119.1782551785388
 30
0.0
 10
90.36072046352093
 20
-119.3369018256345
 30
0.0
 10
90.36072046352093
 20
-119.4194118625063
 30
0.0
 10
90.36072046352093
 20
-119.4194118625063
 30
0.0
 10
90.36072046352093
 20
-119.7050102782335
 30
0.0
 10
90.36072046352093
 20
-119.7050102782335
 30
0.0
 10
90.36072046352093
 20
-119.7768405191009
 30
0.0
 10
90.36278752081209
 20
-119.908098657089
 30
0.0
 10
90.37346731681636
 20
-119.9863023246041
 30
0.0
 10
90.30146482117463
 20
-119.9821682100218
 30
0.0
 10
90.17881942189975
 20
-119.9799288979564
 30
0.0
 10
90.10061575438458
 20
-119.9778618406653
 30
0.0
 10
90.21051430036404
 20
-120.0455579669504
 30
0.0
 10
90.36278752081209
 20
-120.0963731253579
 30
0.0
 10
90.57466089315496
 20
-120.1005072399402
 30
0.0
 10
90.57466089315496
 20
-120.1005072399402
 30
0.0
 10
90.48129880550468
 20
-120.2803412242702
 30
0.0
 10
90.48129880550468
 20
-120.2803412242702
 30
0.0
  0
POLYLINE
  5
7C
330
57
100
AcDbEntity
  8
_U+30EC_U+30A4_U+30E4_U+30FC 1
370
     0
100
AcDb2dPolyline
 66
     1
 10
0.0
 20
0.0
 30
0.0
  0
VERTEX
  5
7D
330
7C
100
AcDbEntity
  8
_U+30EC_U+30A4_U+30E4_U+30FC 1
370
     0
100
AcDbVertex
100
AcDb2dVertex
 10
90.17675236460859
 20
-119.2459513048239
 30
0.0
  0
VERTEX
  5
7E
330
7C
100
AcDbEntity
  8
_U+30EC_U+30A4_U+30E4_U+30FC 1
370
     0
100
AcDbVertex
100
AcDb2dVertex
 10
89.26483558966297
 20
-119.2459513048239
 30
0.0
  0
VERTEX
  5
7F
330
7C
100
AcDbEntity
  8
_U+30EC_U+30A4_U+30E4_U+30FC 1
370
     0
100
AcDbVertex
100
AcDb2dVertex
 10
89.26483558966297
 20
-119.3580891628688
 30
0.0
  0
VERTEX
  5
80
330
7C
100
AcDbEntity
  8
_U+30EC_U+30A4_U+30E4_U+30FC 1
370
     0
100
AcDbVertex
100
AcDb2dVertex
 10
90.17675236460859
 20
-119.3580891628688
 30
0.0
  0
VERTEX
  5
81
330
7C
100
AcDbEntity
  8
_U+30EC_U+30A4_U+30E4_U+30FC 1
370
     0
100
AcDbVertex
100
AcDb2dVertex
 10
90.17675236460859
 20
-119.2459513048239
 30
0.0
  0
SEQEND
  5
82
330
7C
100
AcDbEntity
  8
_U+30EC_U+30A4_U+30E4_U+30FC 1
370
     0
  0
POLYLINE
  5
83
330
57
100
AcDbEntity
  8
_U+30EC_U+30A4_U+30E4_U+30FC 1
370
     0
100
AcDb2dPolyline
 66
     1
 10
0.0
 20
0.0
 30
0.0
  0
VERTEX
  5
84
330
83
100
AcDbEntity
  8
_U+30EC_U+30A4_U+30E4_U+30FC 1
370
     0
100
AcDbVertex
100
AcDb2dVertex
 10
90.17675236460859
 20
-119.4912421033737
 30
0.0
  0
VERTEX
  5
85
330
83
100
AcDbEntity
  8
_U+30EC_U+30A4_U+30E4_U+30FC 1
370
     0
100
AcDbVertex
100
AcDb2dVertex
 10
89.26483558966297
 20
-119.4912421033737
 30
0.0
  0
VERTEX
  5
86
330
83
100
AcDbEntity
  8
_U+30EC_U+30A4_U+30E4_U+30FC 1
370
     0
100
AcDbVertex
100
AcDb2dVertex
 10
89.26483558966297
 20
-119.6013129041275
 30
0.0
  0
VERTEX
  5
87
330
83
100
AcDbEntity
  8
_U+30EC_U+30A4_U+30E4_U+30FC 1
370
     0
100
AcDbVertex
100
AcDb2dVertex
 10
90.17675236460859
 20
-119.6013129041275
 30
0.0
  0
VERTEX
  5
88
330
83
100
AcDbEntity
  8
_U+30EC_U+30A4_U+30E4_U+30FC 1
370
     0
100
AcDbVertex
100
AcDb2dVertex
 10
90.17675236460859
 20
-119.4912421033737
 30
0.0
  0
SEQEND
  5
89
330
83
100
AcDbEntity
  8
_U+30EC_U+30A4_U+30E4_U+30FC 1
370
     0
  0
POLYLINE
  5
8A
330
57
100
AcDbEntity
  8
_U+30EC_U+30A4_U+30E4_U+30FC 1
370
     0
100
AcDb2dPolyline
 66
     1
 10
0.0
 20
0.0
 30
0.0
  0
VERTEX
  5
8B
330
8A
100
AcDbEntity
  8
_U+30EC_U+30A4_U+30E4_U+30FC 1
370
     0
100
AcDbVertex
100
AcDb2dVertex
 10
90.17675236460859
 20
-119.7367051566978
 30
0.0
  0
VERTEX
  5
8C
330
8A
100
AcDbEntity
  8
_U+30EC_U+30A4_U+30E4_U+30FC 1
370
     0
100
AcDbVertex
100
AcDb2dVertex
 10
89.26483558966297
 20
-119.7367051566978
 30
0.0
  0
VERTEX
  5
8D
330
8A
100
AcDbEntity
  8
_U+30EC_U+30A4_U+30E4_U+30FC 1
370
     0
100
AcDbVertex
100
AcDb2dVertex
 10
89.26483558966297
 20
-119.8445366453861
 30
0.0
  0
VERTEX
  5
8E
330
8A
100
AcDbEntity
  8
_U+30EC_U+30A4_U+30E4_U+30FC 1
370
     0
100
AcDbVertex
100
AcDb2dVertex
 10
90.17675236460859
 20
-119.8445366453861
 30
0.0
  0
VERTEX
  5
8F
330
8A
100
AcDbEntity
  8
_U+30EC_U+30A4_U+30E4_U+30FC 1
370
     0
100
AcDbVertex
100
AcDb2dVertex
 10
90.17675236460859
 20
-119.7367051566978
 30
0.0
  0
SEQEND
  5
90
330
8A
100
AcDbEntity
  8
_U+30EC_U+30A4_U+30E4_U+30FC 1
370
     0
  0
SPLINE
  5
91
330
57
100
AcDbEntity
  8
_U+30EC_U+30A4_U+30E4_U+30FC 1
370
     0
100
AcDbSpline
210
0.0
220
0.0
230
1.0
 70
    11
 71
     3
 72
    74
 73
    70
 74
     0
 42
0.0000000001
 43
0.0000000001
 12
1.0
 22
0.0
 32
0.0
 13
1.0
 23
0.0
 33
0.0
 40
0.0
 40
0.0
 40
0.0
 40
0.0
 40
1.0
 40
1.0
 40
1.0
 40
2.0
 40
2.0
 40
2.0
 40
3.0
 40
3.0
 40
3.0
 40
4.0
 40
4.0
 40
4.0
 40
5.0
 40
5.0
 40
5.0
 40
6.0
 40
6.0
 40
6.0
 40
7.0
 40
7.0
 40
7.0
 40
8.0
 40
8.0
 40
8.0
 40
9.0
 40
9.0
 40
9.0
 40
10.0
 40
10.0
 40
10.0
 40
11.0
 40
11.0
 40
11.0
 40
12.0
 40
12.0
 40
12.0
 40
13.0
 40
13.0
 40
13.0
 40
14.0
 40
14.0
 40
14.0
 40
15.0
 40
15.0
 40
15.0
 40
16.0
 40
16.0
 40
16.0
 40
17.0
 40
17.0
 40
17.0
 40
18.0
 40
18.0
 40
18.0
 40
19.0
 40
19.0
 40
19.0
 40
20.0
 40
20.0
 40
20.0
 40
21.0
 40
21.0
 40
21.0
 40
22.0
 40
22.0
 40
22.0
 40
23.0
 40
23.0
 40
23.0
 40
23.0
 10
90.4940456588001
 20
-118.7932657580621
 30
0.0
 10
90.4940456588001
 20
-118.7932657580621
 30
0.0
 10
90.33350420918747
 20
-118.7932657580621
 30
0.0
 10
90.33350420918747
 20
-118.7932657580621
 30
0.0
 10
90.33350420918747
 20
-118.7932657580621
 30
0.0
 10
90.33350420918747
 20
-118.9074706733981
 30
0.0
 10
90.33350420918747
 20
-118.9074706733981
 30
0.0
 10
90.33350420918747
 20
-118.9476060358013
 30
0.0
 10
90.33970538106091
 20
-119.0216755887342
 30
0.0
 10
90.34383949564321
 20
-119.0469970405507
 30
0.0
 10
90.34383949564321
 20
-119.0469970405507
 30
0.0
 10
90.13231063284887
 20
-119.0469970405507
 30
0.0
 10
90.13231063284887
 20
-119.0469970405507
 30
0.0
 10
90.14299042885314
 20
-118.981540226331
 30
0.0
 10
90.1450574861443
 20
-118.9222845839847
 30
0.0
 10
90.1450574861443
 20
-118.9202175266936
 30
0.0
 10
90.1450574861443
 20
-118.9202175266936
 30
0.0
 10
90.1450574861443
 20
-118.7973998726444
 30
0.0
 10
90.1450574861443
 20
-118.7973998726444
 30
0.0
 10
90.1450574861443
 20
-118.7973998726444
 30
0.0
 10
89.96522350181425
 20
-118.7973998726444
 30
0.0
 10
89.96522350181425
 20
-118.7973998726444
 30
0.0
 10
89.94627547664538
 20
-118.8566555149907
 30
0.0
 10
89.89976668759451
 20
-119.002555308791
 30
0.0
 10
89.78538951748422
 20
-119.0850653456628
 30
0.0
 10
89.78538951748422
 20
-119.0850653456628
 30
0.0
 10
89.62898218245387
 20
-118.9793009142656
 30
0.0
 10
89.62898218245387
 20
-118.9793009142656
 30
0.0
 10
89.70305173538674
 20
-118.9327921252147
 30
0.0
 10
89.81915145323966
 20
-118.8587225722818
 30
0.0
 10
89.81915145323966
 20
-118.537295163508
 30
0.0
 10
89.81915145323966
 20
-118.482173635744
 30
0.0
 10
89.81501733865736
 20
-118.4377319039843
 30
0.0
 10
89.81295028136621
 20
-118.3996635988723
 30
0.0
 10
89.88908689159024
 20
-118.4081040828112
 30
0.0
 10
89.96315644452311
 20
-118.4144775094589
 30
0.0
 10
90.0265462014517
 20
-118.4144775094589
 30
0.0
 10
90.2043131284906
 20
-118.4144775094589
 30
0.0
 10
90.40309513798951
 20
-118.3552218671126
 30
0.0
 10
90.46441783762695
 20
-118.3255940459394
 30
0.0
 10
90.46441783762695
 20
-118.3255940459394
 30
0.0
 10
90.59154186103268
 20
-118.4609862985098
 30
0.0
 10
90.59154186103268
 20
-118.4609862985098
 30
0.0
 10
90.59567597561498
 20
-118.4652926678663
 30
0.0
 10
90.59774303290612
 20
-118.4737331518052
 30
0.0
 10
90.59774303290612
 20
-118.4801065784529
 30
0.0
 10
90.59774303290612
 20
-118.5012939156872
 30
0.0
 10
90.58292912231956
 20
-118.5076673423349
 30
0.0
 10
90.56604815444183
 20
-118.5076673423349
 30
0.0
 10
90.5450330719818
 20
-118.5076673423349
 30
0.0
 10
90.53021916139522
 20
-118.499226858396
 30
0.0
 10
90.51092662667783
 20
-118.4885470623918
 30
0.0
 10
90.33763832376977
 20
-118.5457356474469
 30
0.0
 10
90.11956377955345
 20
-118.5710570992635
 30
0.0
 10
89.98623858427428
 20
-118.5731241565546
 30
0.0
 10
89.98623858427428
 20
-118.5731241565546
 30
0.0
 10
89.98210446969198
 20
-118.6556341934264
 30
0.0
 10
89.98210446969198
 20
-118.6556341934264
 30
0.0
 10
89.98210446969198
 20
-118.6556341934264
 30
0.0
 10
90.25495603212377
 20
-118.6556341934264
 30
0.0
 10
90.25495603212377
 20
-118.6556341934264
 30
0.0
 10
90.31214461717892
 20
-118.6556341934264
 30
0.0
 10
90.57466089315496
 20
-118.6366861682575
 30
0.0
 10
90.61875811536615
 20
-118.6303127416098
 30
0.0
 10
90.61875811536615
 20
-118.6303127416098
 30
0.0
 10
90.61875811536615
 20
-118.7994669299356
 30
0.0
 10
90.61875811536615
 20
-118.7994669299356
 30
0.0
 10
90.5849961796107
 20
-118.7953328153533
 30
0.0
 10
90.57224932631527
 20
-118.7932657580621
 30
0.0
 10
90.4940456588001
 20
-118.7932657580621
 30
0.0
  0
HATCH
  5
92
330
57
100
AcDbEntity
  8
_U+30EC_U+30A4_U+30E4_U+30FC 1
 62
   179
420
  2234388
100
AcDbHatch
 10
0.0
 20
0.0
 30
0.0
210
0.0
220
0.0
230
1.0
  2
SOLID
 70
     1
 71
     0
 91
        6
 92
        1
 93
        1
 72
     4
 94
        3
 73
     0
 74
     1
 95
       71
 96
       67
 40
0.0
 40
0.0
 40
0.0
 40
0.0
 40
1.0
 40
1.0
 40
1.0
 40
2.0
 40
2.0
 40
2.0
 40
3.0
 40
3.0
 40
3.0
 40
4.0
 40
4.0
 40
4.0
 40
5.0
 40
5.0
 40
5.0
 40
6.0
 40
6.0
 40
6.0
 40
7.0
 40
7.0
 40
7.0
 40
8.0
 40
8.0
 40
8.0
 40
9.0
 40
9.0
 40
9.0
 40
10.0
 40
10.0
 40
10.0
 40
11.0
 40
11.0
 40
11.0
 40
12.0
 40
12.0
 40
12.0
 40
13.0
 40
13.0
 40
13.0
 40
14.0
 40
14.0
 40
14.0
 40
15.0
 40
15.0
 40
15.0
 40
16.0
 40
16.0
 40
16.0
 40
17.0
 40
17.0
 40
17.0
 40
18.0
 40
18.0
 40
18.0
 40
19.0
 40
19.0
 40
19.0
 40
20.0
 40
20.0
 40
20.0
 40
21.0
 40
21.0
 40
21.0
 40
22.0
 40
22.0
 40
22.0
 40
22.0
 10
89.64379609304045
 20
-118.5140407689826
 10
89.62898218245387
 20
-118.5140407689826
 10
89.61623532915844
 20
-118.509734399626
 10
89.59074162256759
 20
-118.5012939156872
 10
89.44914819812382
 20
-118.5478027047381
 10
89.27551538566723
 20
-118.5646836726158
 10
89.13598901851462
 20
-118.5689900419723
 10
89.13598901851462
 20
-118.5689900419723
 10
89.13392196122346
 20
-118.6578735054918
 10
89.13392196122346
 20
-118.6578735054918
 10
89.13392196122346
 20
-118.6578735054918
 10
89.39402667035984
 20
-118.6578735054918
 10
89.39402667035984
 20
-118.6578735054918
 10
89.44708114083268
 20
-118.6578735054918
 10
89.62898218245387
 20
-118.6494330215529
 10
89.67342391421359
 20
-118.6430595949052
 10
89.67342391421359
 20
-118.6430595949052
 10
89.67342391421359
 20
-118.8037732992921
 10
89.67342391421359
 20
-118.8037732992921
 10
89.6183023864496
 20
-118.7973998726444
 10
89.49358992988356
 20
-118.7953328153533
 10
89.45534936999728
 20
-118.7973998726444
 10
89.45534936999728
 20
-118.7973998726444
 10
89.45534936999728
 20
-118.9074706733981
 10
89.45534936999728
 20
-118.9074706733981
 10
89.45534936999728
 20
-118.953979462449
 10
89.45741642728842
 20
-119.0173692193776
 10
89.4639621087104
 20
-119.0556097792639
 10
89.4639621087104
 20
-119.0556097792639
 10
89.27138127108493
 20
-119.0556097792639
 10
89.27138127108493
 20
-119.0556097792639
 10
89.27758244295839
 20
-119.0153021620865
 10
89.28412812438036
 20
-118.9327921252147
 10
89.28412812438036
 20
-118.9179782146281
 10
89.28412812438036
 20
-118.9179782146281
 10
89.28412812438036
 20
-118.7973998726444
 10
89.28412812438036
 20
-118.7973998726444
 10
89.28412812438036
 20
-118.7973998726444
 10
89.1191080506369
 20
-118.7973998726444
 10
89.1191080506369
 20
-118.7973998726444
 10
89.07673337616832
 20
-119.0173692193776
 10
89.02161184840432
 20
-119.0978121989582
 10
88.91584741700716
 20
-119.1972032037076
 10
88.91584741700716
 20
-119.1972032037076
 10
88.74876028597254
 20
-119.0829982883716
 10
88.74876028597254
 20
-119.0829982883716
 10
88.81215004290114
 20
-119.0344224420296
 10
88.96235620605803
 20
-118.9222845839847
 10
88.96235620605803
 20
-118.5731241565546
 10
88.96235620605803
 20
-118.4906141196829
 10
88.95408797689343
 20
-118.444105330632
 10
88.94547523818031
 20
-118.39552948429
 10
89.09154728675489
 20
-118.4103433948766
 10
89.10636119734147
 20
-118.4103433948766
 10
89.14219019038806
 20
-118.4103433948766
 10
89.25036618862491
 20
-118.4103433948766
 10
89.39195961306868
 20
-118.3932901722246
 10
89.55284557222984
 20
-118.3319674725872
 10
89.55284557222984
 20
-118.3319674725872
 10
89.66687823279162
 20
-118.4632256105752
 10
89.66687823279162
 20
-118.4632256105752
 10
89.67342391421359
 20
-118.4695990372229
 10
89.67755802879589
 20
-118.4780395211617
 10
89.67755802879589
 20
-118.4864800051006
 10
89.67755802879589
 20
-118.509734399626
 10
89.65861000362702
 20
-118.5140407689826
 10
89.64379609304045
 20
-118.5140407689826
 97
        0
 97
        0
 92
        1
 93
        1
 72
     4
 94
        3
 73
     0
 74
     1
 95
       74
 96
       70
 40
0.0
 40
0.0
 40
0.0
 40
0.0
 40
1.0
 40
1.0
 40
1.0
 40
2.0
 40
2.0
 40
2.0
 40
3.0
 40
3.0
 40
3.0
 40
4.0
 40
4.0
 40
4.0
 40
5.0
 40
5.0
 40
5.0
 40
6.0
 40
6.0
 40
6.0
 40
7.0
 40
7.0
 40
7.0
 40
8.0
 40
8.0
 40
8.0
 40
9.0
 40
9.0
 40
9.0
 40
10.0
 40
10.0
 40
10.0
 40
11.0
 40
11.0
 40
11.0
 40
12.0
 40
12.0
 40
12.0
 40
13.0
 40
13.0
 40
13.0
 40
14.0
 40
14.0
 40
14.0
 40
15.0
 40
15.0
 40
15.0
 40
16.0
 40
16.0
 40
16.0
 40
17.0
 40
17.0
 40
17.0
 40
18.0
 40
18.0
 40
18.0
 40
19.0
 40
19.0
 40
19.0
 40
20.0
 40
20.0
 40
20.0
 40
21.0
 40
21.0
 40
21.0
 40
22.0
 40
22.0
 40
22.0
 40
23.0
 40
23.0
 40
23.0
 40
23.0
 10
90.48129880550468
 20
-120.2803412242702
 10
90.26770288541918
 20
-120.2698336830402
 10
90.06685381862913
 20
-120.1830172768119
 10
89.89115394888138
 20
-120.0624389348282
 10
89.89115394888138
 20
-120.0624389348282
 10
89.98865015111396
 20
-119.9757947833741
 10
89.98865015111396
 20
-119.9757947833741
 10
89.98865015111396
 20
-119.9757947833741
 10
89.4364013448284
 20
-119.9757947833741
 10
89.4364013448284
 20
-119.9757947833741
 10
89.4364013448284
 20
-119.9757947833741
 10
89.51667206963472
 20
-120.0391845403027
 10
89.51667206963472
 20
-120.0391845403027
 10
89.5232177510567
 20
-120.0434909096593
 10
89.53355303751245
 20
-120.0539984508893
 10
89.53355303751245
 20
-120.0688123614759
 10
89.53355303751245
 20
-120.1091199786533
 10
89.45948348457958
 20
-120.1027465520056
 10
89.444669573993
 20
-120.1005072399402
 10
89.21419268602979
 20
-120.240205861867
 10
89.07053220429488
 20
-120.2719007403313
 10
88.96683483018884
 20
-120.2887817082091
 10
88.96683483018884
 20
-120.2887817082091
 10
88.83764374949199
 20
-120.1111870359444
 10
88.83764374949199
 20
-120.1111870359444
 10
89.08534611488145
 20
-120.0794921574801
 10
89.1866319221478
 20
-120.032811113655
 10
89.27551538566723
 20
-119.9799288979564
 10
89.20144583273436
 20
-119.9821682100218
 10
89.08741317217259
 20
-119.984235267313
 10
89.0557182937083
 20
-119.9863023246041
 10
89.07053220429488
 20
-119.8974188610847
 10
89.07259926158602
 20
-119.7684000351621
 10
89.07259926158602
 20
-119.6943304822292
 10
89.07259926158602
 20
-119.6943304822292
 10
89.07259926158602
 20
-119.3939181559154
 10
89.07259926158602
 20
-119.3939181559154
 10
89.07259926158602
 20
-119.294527151166
 10
89.06605358016405
 20
-119.1951361464165
 10
89.0557182937083
 20
-119.0978121989582
 10
89.15700410097465
 20
-119.1041856256059
 10
89.38782549848638
 20
-119.1105590522536
 10
89.4956569871747
 20
-119.1105590522536
 10
89.4956569871747
 20
-119.1105590522536
 10
89.91871471276338
 20
-119.1105590522536
 10
89.91871471276338
 20
-119.1105590522536
 10
90.03722599745598
 20
-119.1105590522536
 10
90.07960067192455
 20
-119.1105590522536
 10
90.16193845402202
 20
-119.1062526828971
 10
90.31007755988776
 20
-119.0998792562493
 10
90.32695852776548
 20
-119.0998792562493
 10
90.37346731681636
 20
-119.0978121989582
 10
90.36519908765176
 20
-119.1782551785388
 10
90.36072046352093
 20
-119.3369018256345
 10
90.36072046352093
 20
-119.4194118625063
 10
90.36072046352093
 20
-119.4194118625063
 10
90.36072046352093
 20
-119.7050102782335
 10
90.36072046352093
 20
-119.7050102782335
 10
90.36072046352093
 20
-119.7768405191009
 10
90.36278752081209
 20
-119.908098657089
 10
90.37346731681636
 20
-119.9863023246041
 10
90.30146482117463
 20
-119.9821682100218
 10
90.17881942189975
 20
-119.9799288979564
 10
90.10061575438458
 20
-119.9778618406653
 10
90.21051430036404
 20
-120.0455579669504
 10
90.36278752081209
 20
-120.0963731253579
 10
90.57466089315496
 20
-120.1005072399402
 10
90.57466089315496
 20
-120.1005072399402
 10
90.48129880550468
 20
-120.2803412242702
 10
90.48129880550468
 20
-120.2803412242702
 97
        0
 97
        0
 92
        1
 93
        4
 72
     1
 10
90.17675236460859
 20
-119.2459513048239
 11
89.26483558966297
 21
-119.2459513048239
 72
     1
 10
89.26483558966297
 20
-119.2459513048239
 11
89.26483558966297
 21
-119.3580891628688
 72
     1
 10
89.26483558966297
 20
-119.3580891628688
 11
90.17675236460859
 21
-119.3580891628688
 72
     1
 10
90.17675236460859
 20
-119.3580891628688
 11
90.17675236460859
 21
-119.2459513048239
 97
        0
 92
        1
 93
        4
 72
     1
 10
90.17675236460859
 20
-119.4912421033737
 11
89.26483558966297
 21
-119.4912421033737
 72
     1
 10
89.26483558966297
 20
-119.4912421033737
 11
89.26483558966297
 21
-119.6013129041275
 72
     1
 10
89.26483558966297
 20
-119.6013129041275
 11
90.17675236460859
 21
-119.6013129041275
 72
     1
 10
90.17675236460859
 20
-119.6013129041275
 11
90.17675236460859
 21
-119.4912421033737
 97
        0
 92
        1
 93
        4
 72
     1
 10
90.17675236460859
 20
-119.7367051566978
 11
89.26483558966297
 21
-119.7367051566978
 72
     1
 10
89.26483558966297
 20
-119.7367051566978
 11
89.26483558966297
 21
-119.8445366453861
 72
     1
 10
89.26483558966297
 20
-119.8445366453861
 11
90.17675236460859
 21
-119.8445366453861
 72
     1
 10
90.17675236460859
 20
-119.8445366453861
 11
90.17675236460859
 21
-119.7367051566978
 97
        0
 92
        1
 93
        1
 72
     4
 94
        3
 73
     0
 74
     1
 95
       74
 96
       70
 40
0.0
 40
0.0
 40
0.0
 40
0.0
 40
1.0
 40
1.0
 40
1.0
 40
2.0
 40
2.0
 40
2.0
 40
3.0
 40
3.0
 40
3.0
 40
4.0
 40
4.0
 40
4.0
 40
5.0
 40
5.0
 40
5.0
 40
6.0
 40
6.0
 40
6.0
 40
7.0
 40
7.0
 40
7.0
 40
8.0
 40
8.0
 40
8.0
 40
9.0
 40
9.0
 40
9.0
 40
10.0
 40
10.0
 40
10.0
 40
11.0
 40
11.0
 40
11.0
 40
12.0
 40
12.0
 40
12.0
 40
13.0
 40
13.0
 40
13.0
 40
14.0
 40
14.0
 40
14.0
 40
15.0
 40
15.0
 40
15.0
 40
16.0
 40
16.0
 40
16.0
 40
17.0
 40
17.0
 40
17.0
 40
18.0
 40
18.0
 40
18.0
 40
19.0
 40
19.0
 40
19.0
 40
20.0
 40
20.0
 40
20.0
 40
21.0
 40
21.0
 40
21.0
 40
22.0
 40
22.0
 40
22.0
 40
23.0
 40
23.0
 40
23.0
 40
23.0
 10
90.4940456588001
 20
-118.7932657580621
 10
90.4940456588001
 20
-118.7932657580621
 10
90.33350420918747
 20
-118.7932657580621
 10
90.33350420918747
 20
-118.7932657580621
 10
90.33350420918747
 20
-118.7932657580621
 10
90.33350420918747
 20
-118.9074706733981
 10
90.33350420918747
 20
-118.9074706733981
 10
90.33350420918747
 20
-118.9476060358013
 10
90.33970538106091
 20
-119.0216755887342
 10
90.34383949564321
 20
-119.0469970405507
 10
90.34383949564321
 20
-119.0469970405507
 10
90.13231063284887
 20
-119.0469970405507
 10
90.13231063284887
 20
-119.0469970405507
 10
90.14299042885314
 20
-118.981540226331
 10
90.1450574861443
 20
-118.9222845839847
 10
90.1450574861443
 20
-118.9202175266936
 10
90.1450574861443
 20
-118.9202175266936
 10
90.1450574861443
 20
-118.7973998726444
 10
90.1450574861443
 20
-118.7973998726444
 10
90.1450574861443
 20
-118.7973998726444
 10
89.96522350181425
 20
-118.7973998726444
 10
89.96522350181425
 20
-118.7973998726444
 10
89.94627547664538
 20
-118.8566555149907
 10
89.89976668759451
 20
-119.002555308791
 10
89.78538951748422
 20
-119.0850653456628
 10
89.78538951748422
 20
-119.0850653456628
 10
89.62898218245387
 20
-118.9793009142656
 10
89.62898218245387
 20
-118.9793009142656
 10
89.70305173538674
 20
-118.9327921252147
 10
89.81915145323966
 20
-118.8587225722818
 10
89.81915145323966
 20
-118.537295163508
 10
89.81915145323966
 20
-118.482173635744
 10
89.81501733865736
 20
-118.4377319039843
 10
89.81295028136621
 20
-118.3996635988723
 10
89.88908689159024
 20
-118.4081040828112
 10
89.96315644452311
 20
-118.4144775094589
 10
90.0265462014517
 20
-118.4144775094589
 10
90.2043131284906
 20
-118.4144775094589
 10
90.40309513798951
 20
-118.3552218671126
 10
90.46441783762695
 20
-118.3255940459394
 10
90.46441783762695
 20
-118.3255940459394
 10
90.59154186103268
 20
-118.4609862985098
 10
90.59154186103268
 20
-118.4609862985098
 10
90.59567597561498
 20
-118.4652926678663
 10
90.59774303290612
 20
-118.4737331518052
 10
90.59774303290612
 20
-118.4801065784529
 10
90.59774303290612
 20
-118.5012939156872
 10
90.58292912231956
 20
-118.5076673423349
 10
90.56604815444183
 20
-118.5076673423349
 10
90.5450330719818
 20
-118.5076673423349
 10
90.53021916139522
 20
-118.499226858396
 10
90.51092662667783
 20
-118.4885470623918
 10
90.33763832376977
 20
-118.5457356474469
 10
90.11956377955345
 20
-118.5710570992635
 10
89.98623858427428
 20
-118.5731241565546
 10
89.98623858427428
 20
-118.5731241565546
 10
89.98210446969198
 20
-118.6556341934264
 10
89.98210446969198
 20
-118.6556341934264
 10
89.98210446969198
 20
-118.6556341934264
 10
90.25495603212377
 20
-118.6556341934264
 10
90.25495603212377
 20
-118.6556341934264
 10
90.31214461717892
 20
-118.6556341934264
 10
90.57466089315496
 20
-118.6366861682575
 10
90.61875811536615
 20
-118.6303127416098
 10
90.61875811536615
 20
-118.6303127416098
 10
90.61875811536615
 20
-118.7994669299356
 10
90.61875811536615
 20
-118.7994669299356
 10
90.5849961796107
 20
-118.7953328153533
 10
90.57224932631527
 20
-118.7932657580621
 10
90.4940456588001
 20
-118.7932657580621
 97
        0
 97
        0
 75
     2
 76
     1
 98
        0
  0
SPLINE
  5
93
330
57
100
AcDbEntity
  8
_U+30EC_U+30A4_U+30E4_U+30FC 1
370
     0
100
AcDbSpline
210
0.0
220
0.0
230
1.0
 70
    11
 71
     3
 72
    53
 73
    49
 74
     0
 42
0.0000000001
 43
0.0000000001
 12
1.0
 22
0.0
 32
0.0
 13
1.0
 23
0.0
 33
0.0
 40
0.0
 40
0.0
 40
0.0
 40
0.0
 40
1.0
 40
1.0
 40
1.0
 40
2.0
 40
2.0
 40
2.0
 40
3.0
 40
3.0
 40
3.0
 40
4.0
 40
4.0
 40
4.0
 40
5.0
 40
5.0
 40
5.0
 40
6.0
 40
6.0
 40
6.0
 40
7.0
 40
7.0
 40
7.0
 40
8.0
 40
8.0
 40
8.0
 40
9.0
 40
9.0
 40
9.0
 40
10.0
 40
10.0
 40
10.0
 40
11.0
 40
11.0
 40
11.0
 40
12.0
 40
12.0
 40
12.0
 40
13.0
 40
13.0
 40
13.0
 40
14.0
 40
14.0
 40
14.0
 40
15.0
 40
15.0
 40
15.0
 40
16.0
 40
16.0
 40
16.0
 40
16.0
 10
91.947531444027
 20
-120.1556287677042
 30
0.0
 10
91.75736217324122
 20
-120.1556287677042
 30
0.0
 10
91.69810653089492
 20
-120.0307440563638
 30
0.0
 10
91.69810653089492
 20
-119.8826049504981
 30
0.0
 10
91.69810653089492
 20
-119.8826049504981
 30
0.0
 10
91.69810653089492
 20
-119.1887627197688
 30
0.0
 10
91.69810653089492
 20
-119.1887627197688
 30
0.0
 10
91.69810653089492
 20
-119.1887627197688
 30
0.0
 10
91.51620548927373
 20
-119.1887627197688
 30
0.0
 10
91.51620548927373
 20
-119.1887627197688
 30
0.0
 10
91.51620548927373
 20
-119.1887627197688
 30
0.0
 10
91.51620548927373
 20
-118.9963541369176
 30
0.0
 10
91.51620548927373
 20
-118.9963541369176
 30
0.0
 10
91.51620548927373
 20
-118.9963541369176
 30
0.0
 10
91.69810653089492
 20
-118.9963541369176
 30
0.0
 10
91.69810653089492
 20
-118.9963541369176
 30
0.0
 10
91.69810653089492
 20
-118.9963541369176
 30
0.0
 10
91.69810653089492
 20
-118.6811279000172
 30
0.0
 10
91.69810653089492
 20
-118.6811279000172
 30
0.0
 10
91.69810653089492
 20
-118.6811279000172
 30
0.0
 10
91.91583656556271
 20
-118.6811279000172
 30
0.0
 10
91.91583656556271
 20
-118.6811279000172
 30
0.0
 10
91.91583656556271
 20
-118.6811279000172
 30
0.0
 10
91.91583656556271
 20
-118.9963541369176
 30
0.0
 10
91.91583656556271
 20
-118.9963541369176
 30
0.0
 10
91.91583656556271
 20
-118.9963541369176
 30
0.0
 10
92.10635034589703
 20
-118.9963541369176
 30
0.0
 10
92.10635034589703
 20
-118.9963541369176
 30
0.0
 10
92.10635034589703
 20
-118.9963541369176
 30
0.0
 10
92.10635034589703
 20
-119.1887627197688
 30
0.0
 10
92.10635034589703
 20
-119.1887627197688
 30
0.0
 10
92.10635034589703
 20
-119.1887627197688
 30
0.0
 10
91.91583656556271
 20
-119.1887627197688
 30
0.0
 10
91.91583656556271
 20
-119.1887627197688
 30
0.0
 10
91.91583656556271
 20
-119.1887627197688
 30
0.0
 10
91.91583656556271
 20
-119.8572834986815
 30
0.0
 10
91.91583656556271
 20
-119.8572834986815
 30
0.0
 10
91.91583656556271
 20
-119.9418605928444
 30
0.0
 10
91.96889103603556
 20
-119.9651149873698
 30
0.0
 10
92.04054902212876
 20
-119.9651149873698
 30
0.0
 10
92.05122881813303
 20
-119.9651149873698
 30
0.0
 10
92.07465546743273
 20
-119.9651149873698
 30
0.0
 10
92.10635034589703
 20
-119.9609808727875
 30
0.0
 10
92.10635034589703
 20
-119.9609808727875
 30
0.0
 10
92.10635034589703
 20
-120.1323743731787
 30
0.0
 10
92.10635034589703
 20
-120.1323743731787
 30
0.0
 10
92.07258841014158
 20
-120.1449489716999
 30
0.0
 10
91.99851885720871
 20
-120.1556287677042
 30
0.0
 10
91.947531444027
 20
-120.1556287677042
 30
0.0
  0
HATCH
  5
94
330
57
100
AcDbEntity
  8
_U+30EC_U+30A4_U+30E4_U+30FC 1
 62
   179
420
  2234388
100
AcDbHatch
 10
0.0
 20
0.0
 30
0.0
210
0.0
220
0.0
230
1.0
  2
SOLID
 70
     1
 71
     0
 91
        1
 92
        1
 93
        1
 72
     4
 94
        3
 73
     0
 74
     1
 95
       53
 96
       49
 40
0.0
 40
0.0
 40
0.0
 40
0.0
 40
1.0
 40
1.0
 40
1.0
 40
2.0
 40
2.0
 40
2.0
 40
3.0
 40
3.0
 40
3.0
 40
4.0
 40
4.0
 40
4.0
 40
5.0
 40
5.0
 40
5.0
 40
6.0
 40
6.0
 40
6.0
 40
7.0
 40
7.0
 40
7.0
 40
8.0
 40
8.0
 40
8.0
 40
9.0
 40
9.0
 40
9.0
 40
10.0
 40
10.0
 40
10.0
 40
11.0
 40
11.0
 40
11.0
 40
12.0
 40
12.0
 40
12.0
 40
13.0
 40
13.0
 40
13.0
 40
14.0
 40
14.0
 40
14.0
 40
15.0
 40
15.0
 40
15.0
 40
16.0
 40
16.0
 40
16.0
 40
16.0
 10
91.947531444027
 20
-120.1556287677042
 10
91.75736217324122
 20
-120.1556287677042
 10
91.69810653089492
 20
-120.0307440563638
 10
91.69810653089492
 20
-119.8826049504981
 10
91.69810653089492
 20
-119.8826049504981
 10
91.69810653089492
 20
-119.1887627197688
 10
91.69810653089492
 20
-119.1887627197688
 10
91.69810653089492
 20
-119.1887627197688
 10
91.51620548927373
 20
-119.1887627197688
 10
91.51620548927373
 20
-119.1887627197688
 10
91.51620548927373
 20
-119.1887627197688
 10
91.51620548927373
 20
-118.9963541369176
 10
91.51620548927373
 20
-118.9963541369176
 10
91.51620548927373
 20
-118.9963541369176
 10
91.69810653089492
 20
-118.9963541369176
 10
91.69810653089492
 20
-118.9963541369176
 10
91.69810653089492
 20
-118.9963541369176
 10
91.69810653089492
 20
-118.6811279000172
 10
91.69810653089492
 20
-118.6811279000172
 10
91.69810653089492
 20
-118.6811279000172
 10
91.91583656556271
 20
-118.6811279000172
 10
91.91583656556271
 20
-118.6811279000172
 10
91.91583656556271
 20
-118.6811279000172
 10
91.91583656556271
 20
-118.9963541369176
 10
91.91583656556271
 20
-118.9963541369176
 10
91.91583656556271
 20
-118.9963541369176
 10
92.10635034589703
 20
-118.9963541369176
 10
92.10635034589703
 20
-118.9963541369176
 10
92.10635034589703
 20
-118.9963541369176
 10
92.10635034589703
 20
-119.1887627197688
 10
92.10635034589703
 20
-119.1887627197688
 10
92.10635034589703
 20
-119.1887627197688
 10
91.91583656556271
 20
-119.1887627197688
 10
91.91583656556271
 20
-119.1887627197688
 10
91.91583656556271
 20
-119.1887627197688
 10
91.91583656556271
 20
-119.8572834986815
 10
91.91583656556271
 20
-119.8572834986815
 10
91.91583656556271
 20
-119.9418605928444
 10
91.96889103603556
 20
-119.9651149873698
 10
92.04054902212876
 20
-119.9651149873698
 10
92.05122881813303
 20
-119.9651149873698
 10
92.07465546743273
 20
-119.9651149873698
 10
92.10635034589703
 20
-119.9609808727875
 10
92.10635034589703
 20
-119.9609808727875
 10
92.10635034589703
 20
-120.1323743731787
 10
92.10635034589703
 20
-120.1323743731787
 10
92.07258841014158
 20
-120.1449489716999
 10
91.99851885720871
 20
-120.1556287677042
 10
91.947531444027
 20
-120.1556287677042
 97
        0
 97
        0
 75
     2
 76
     1
 98
        0
  0
POLYLINE
  5
95
330
57
100
AcDbEntity
  8
_U+30EC_U+30A4_U+30E4_U+30FC 1
370
     0
100
AcDb2dPolyline
 66
     1
 10
0.0
 20
0.0
 30
0.0
  0
VERTEX
  5
96
330
95
100
AcDbEntity
  8
_U+30EC_U+30A4_U+30E4_U+30FC 1
370
     0
100
AcDbVertex
100
AcDb2dVertex
 10
92.31891273733694
 20
-119.2183905409419
 30
0.0
  0
VERTEX
  5
97
330
95
100
AcDbEntity
  8
_U+30EC_U+30A4_U+30E4_U+30FC 1
370
     0
100
AcDbVertex
100
AcDb2dVertex
 10
92.31891273733694
 20
-119.0132351047953
 30
0.0
  0
VERTEX
  5
98
330
95
100
AcDbEntity
  8
_U+30EC_U+30A4_U+30E4_U+30FC 1
370
     0
100
AcDbVertex
100
AcDb2dVertex
 10
93.49713539329238
 20
-119.0132351047953
 30
0.0
  0
VERTEX
  5
99
330
95
100
AcDbEntity
  8
_U+30EC_U+30A4_U+30E4_U+30FC 1
370
     0
100
AcDbVertex
100
AcDb2dVertex
 10
93.49713539329238
 20
-119.2183905409419
 30
0.0
  0
VERTEX
  5
9A
330
95
100
AcDbEntity
  8
_U+30EC_U+30A4_U+30E4_U+30FC 1
370
     0
100
AcDbVertex
100
AcDb2dVertex
 10
92.31891273733694
 20
-119.2183905409419
 30
0.0
  0
SEQEND
  5
9B
330
95
100
AcDbEntity
  8
_U+30EC_U+30A4_U+30E4_U+30FC 1
370
     0
  0
POLYLINE
  5
9C
330
57
100
AcDbEntity
  8
_U+30EC_U+30A4_U+30E4_U+30FC 1
370
     0
100
AcDb2dPolyline
 66
     1
 10
0.0
 20
0.0
 30
0.0
  0
VERTEX
  5
9D
330
9C
100
AcDbEntity
  8
_U+30EC_U+30A4_U+30E4_U+30FC 1
370
     0
100
AcDbVertex
100
AcDb2dVertex
 10
92.31891273733694
 20
-119.6521280625349
 30
0.0
  0
VERTEX
  5
9E
330
9C
100
AcDbEntity
  8
_U+30EC_U+30A4_U+30E4_U+30FC 1
370
     0
100
AcDbVertex
100
AcDb2dVertex
 10
92.31891273733694
 20
-119.4469726263883
 30
0.0
  0
VERTEX
  5
9F
330
9C
100
AcDbEntity
  8
_U+30EC_U+30A4_U+30E4_U+30FC 1
370
     0
100
AcDbVertex
100
AcDb2dVertex
 10
93.49713539329238
 20
-119.4469726263883
 30
0.0
  0
VERTEX
  5
A0
330
9C
100
AcDbEntity
  8
_U+30EC_U+30A4_U+30E4_U+30FC 1
370
     0
100
AcDbVertex
100
AcDb2dVertex
 10
93.49713539329238
 20
-119.6521280625349
 30
0.0
  0
VERTEX
  5
A1
330
9C
100
AcDbEntity
  8
_U+30EC_U+30A4_U+30E4_U+30FC 1
370
     0
100
AcDbVertex
100
AcDb2dVertex
 10
92.31891273733694
 20
-119.6521280625349
 30
0.0
  0
SEQEND
  5
A2
330
9C
100
AcDbEntity
  8
_U+30EC_U+30A4_U+30E4_U+30FC 1
370
     0
  0
HATCH
  5
A3
330
57
100
AcDbEntity
  8
_U+30EC_U+30A4_U+30E4_U+30FC 1
 62
   179
420
  2234388
100
AcDbHatch
 10
0.0
 20
0.0
 30
0.0
210
0.0
220
0.0
230
1.0
  2
SOLID
 70
     1
 71
     0
 91
        2
 92
        1
 93
        4
 72
     1
 10
92.31891273733694
 20
-119.2183905409419
 11
92.31891273733694
 21
-119.0132351047953
 72
     1
 10
92.31891273733694
 20
-119.0132351047953
 11
93.49713539329238
 21
-119.0132351047953
 72
     1
 10
93.49713539329238
 20
-119.0132351047953
 11
93.49713539329238
 21
-119.2183905409419
 72
     1
 10
93.49713539329238
 20
-119.2183905409419
 11
92.31891273733694
 21
-119.2183905409419
 97
        0
 92
        1
 93
        4
 72
     1
 10
92.31891273733694
 20
-119.6521280625349
 11
92.31891273733694
 21
-119.4469726263883
 72
     1
 10
92.31891273733694
 20
-119.4469726263883
 11
93.49713539329238
 21
-119.4469726263883
 72
     1
 10
93.49713539329238
 20
-119.4469726263883
 11
93.49713539329238
 21
-119.6521280625349
 72
     1
 10
93.49713539329238
 20
-119.6521280625349
 11
92.31891273733694
 21
-119.6521280625349
 97
        0
 75
     2
 76
     1
 98
        0
  0
SPLINE
  5
A4
330
57
100
AcDbEntity
  8
_U+30EC_U+30A4_U+30E4_U+30FC 1
370
     0
100
AcDbSpline
210
0.0
220
0.0
230
1.0
 70
    11
 71
     3
 72
    26
 73
    22
 74
     0
 42
0.0000000001
 43
0.0000000001
 12
1.0
 22
0.0
 32
0.0
 13
1.0
 23
0.0
 33
0.0
 40
0.0
 40
0.0
 40
0.0
 40
0.0
 40
1.0
 40
1.0
 40
1.0
 40
2.0
 40
2.0
 40
2.0
 40
3.0
 40
3.0
 40
3.0
 40
4.0
 40
4.0
 40
4.0
 40
5.0
 40
5.0
 40
5.0
 40
6.0
 40
6.0
 40
6.0
 40
7.0
 40
7.0
 40
7.0
 40
7.0
 10
94.13413354851508
 20
-120.1048136092967
 30
0.0
 10
94.13413354851508
 20
-120.1048136092967
 30
0.0
 10
94.13413354851508
 20
-119.0004882514999
 30
0.0
 10
94.13413354851508
 20
-119.0004882514999
 30
0.0
 10
94.13413354851508
 20
-119.0004882514999
 30
0.0
 10
93.80409340102815
 20
-119.0004882514999
 30
0.0
 10
93.80409340102815
 20
-119.0004882514999
 30
0.0
 10
93.80409340102815
 20
-119.0004882514999
 30
0.0
 10
93.80409340102815
 20
-118.8523491456341
 30
0.0
 10
93.80409340102815
 20
-118.8523491456341
 30
0.0
 10
94.13620060580624
 20
-118.8377074898218
 30
0.0
 10
94.1827093948571
 20
-118.6747544733695
 30
0.0
 10
94.21233721603025
 20
-118.5605495580335
 30
0.0
 10
94.21233721603025
 20
-118.5605495580335
 30
0.0
 10
94.35840926460484
 20
-118.5605495580335
 30
0.0
 10
94.35840926460484
 20
-118.5605495580335
 30
0.0
 10
94.35840926460484
 20
-118.5605495580335
 30
0.0
 10
94.35840926460484
 20
-120.1048136092967
 30
0.0
 10
94.35840926460484
 20
-120.1048136092967
 30
0.0
 10
94.35840926460484
 20
-120.1048136092967
 30
0.0
 10
94.13413354851508
 20
-120.1048136092967
 30
0.0
 10
94.13413354851508
 20
-120.1048136092967
 30
0.0
  0
HATCH
  5
A5
330
57
100
AcDbEntity
  8
_U+30EC_U+30A4_U+30E4_U+30FC 1
 62
   179
420
  2234388
100
AcDbHatch
 10
0.0
 20
0.0
 30
0.0
210
0.0
220
0.0
230
1.0
  2
SOLID
 70
     1
 71
     0
 91
        1
 92
        1
 93
        1
 72
     4
 94
        3
 73
     0
 74
     1
 95
       26
 96
       22
 40
0.0
 40
0.0
 40
0.0
 40
0.0
 40
1.0
 40
1.0
 40
1.0
 40
2.0
 40
2.0
 40
2.0
 40
3.0
 40
3.0
 40
3.0
 40
4.0
 40
4.0
 40
4.0
 40
5.0
 40
5.0
 40
5.0
 40
6.0
 40
6.0
 40
6.0
 40
7.0
 40
7.0
 40
7.0
 40
7.0
 10
94.13413354851508
 20
-120.1048136092967
 10
94.13413354851508
 20
-120.1048136092967
 10
94.13413354851508
 20
-119.0004882514999
 10
94.13413354851508
 20
-119.0004882514999
 10
94.13413354851508
 20
-119.0004882514999
 10
93.80409340102815
 20
-119.0004882514999
 10
93.80409340102815
 20
-119.0004882514999
 10
93.80409340102815
 20
-119.0004882514999
 10
93.80409340102815
 20
-118.8523491456341
 10
93.80409340102815
 20
-118.8523491456341
 10
94.13620060580624
 20
-118.8377074898218
 10
94.1827093948571
 20
-118.6747544733695
 10
94.21233721603025
 20
-118.5605495580335
 10
94.21233721603025
 20
-118.5605495580335
 10
94.35840926460484
 20
-118.5605495580335
 10
94.35840926460484
 20
-118.5605495580335
 10
94.35840926460484
 20
-118.5605495580335
 10
94.35840926460484
 20
-120.1048136092967
 10
94.35840926460484
 20
-120.1048136092967
 10
94.35840926460484
 20
-120.1048136092967
 10
94.13413354851508
 20
-120.1048136092967
 10
94.13413354851508
 20
-120.1048136092967
 97
        0
 97
        0
 75
     2
 76
     1
 98
        0
  0
POLYLINE
  5
A6
330
57
100
AcDbEntity
  8
_U+30EC_U+30A4_U+30E4_U+30FC 1
370
     0
100
AcDb2dPolyline
 66
     1
 10
0.0
 20
0.0
 30
0.0
  0
VERTEX
  5
A7
330
A6
100
AcDbEntity
  8
_U+30EC_U+30A4_U+30E4_U+30FC 1
370
     0
100
AcDbVertex
100
AcDb2dVertex
 10
94.80110403445946
 20
-120.1048136092967
 30
0.0
  0
VERTEX
  5
A8
330
A6
100
AcDbEntity
  8
_U+30EC_U+30A4_U+30E4_U+30FC 1
370
     0
100
AcDbVertex
100
AcDb2dVertex
 10
94.80110403445946
 20
-119.8531493840992
 30
0.0
  0
VERTEX
  5
A9
330
A6
100
AcDbEntity
  8
_U+30EC_U+30A4_U+30E4_U+30FC 1
370
     0
100
AcDbVertex
100
AcDb2dVertex
 10
95.05294051443121
 20
-119.8531493840992
 30
0.0
  0
VERTEX
  5
AA
330
A6
100
AcDbEntity
  8
_U+30EC_U+30A4_U+30E4_U+30FC 1
370
     0
100
AcDbVertex
100
AcDb2dVertex
 10
95.05294051443121
 20
-120.1048136092967
 30
0.0
  0
VERTEX
  5
AB
330
A6
100
AcDbEntity
  8
_U+30EC_U+30A4_U+30E4_U+30FC 1
370
     0
100
AcDbVertex
100
AcDb2dVertex
 10
94.80110403445946
 20
-120.1048136092967
 30
0.0
  0
SEQEND
  5
AC
330
A6
100
AcDbEntity
  8
_U+30EC_U+30A4_U+30E4_U+30FC 1
370
     0
  0
HATCH
  5
AD
330
57
100
AcDbEntity
  8
_U+30EC_U+30A4_U+30E4_U+30FC 1
 62
   179
420
  2234388
100
AcDbHatch
 10
0.0
 20
0.0
 30
0.0
210
0.0
220
0.0
230
1.0
  2
SOLID
 70
     1
 71
     0
 91
        1
 92
        1
 93
        4
 72
     1
 10
94.80110403445946
 20
-120.1048136092967
 11
94.80110403445946
 21
-119.8531493840992
 72
     1
 10
94.80110403445946
 20
-119.8531493840992
 11
95.05294051443121
 21
-119.8531493840992
 72
     1
 10
95.05294051443121
 20
-119.8531493840992
 11
95.05294051443121
 21
-120.1048136092967
 72
     1
 10
95.05294051443121
 20
-120.1048136092967
 11
94.80110403445946
 21
-120.1048136092967
 97
        0
 75
     2
 76
     1
 98
        0
  0
SPLINE
  5
AE
330
57
100
AcDbEntity
  8
_U+30EC_U+30A4_U+30E4_U+30FC 1
370
     0
100
AcDbSpline
210
0.0
220
0.0
230
1.0
 70
    11
 71
     3
 72
    29
 73
    25
 74
     0
 42
0.0000000001
 43
0.0000000001
 12
1.0
 22
0.0
 32
0.0
 13
1.0
 23
0.0
 33
0.0
 40
0.0
 40
0.0
 40
0.0
 40
0.0
 40
1.0
 40
1.0
 40
1.0
 40
2.0
 40
2.0
 40
2.0
 40
3.0
 40
3.0
 40
3.0
 40
4.0
 40
4.0
 40
4.0
 40
5.0
 40
5.0
 40
5.0
 40
6.0
 40
6.0
 40
6.0
 40
7.0
 40
7.0
 40
7.0
 40
8.0
 40
8.0
 40
8.0
 40
8.0
 10
96.34450681185137
 20
-119.9270466822578
 30
0.0
 10
96.23633081361453
 20
-120.136508487761
 30
0.0
 10
96.06304251070647
 20
-120.1556287677042
 30
0.0
 10
95.94659828330502
 20
-120.1556287677042
 30
0.0
 10
95.78571232414386
 20
-120.1556287677042
 30
0.0
 10
95.64411889970009
 20
-120.1091199786533
 30
0.0
 10
95.5490342643072
 20
-119.9270466822578
 30
0.0
 10
95.44533689020118
 20
-119.7325710421155
 30
0.0
 10
95.42604435548377
 20
-119.4955484727303
 30
0.0
 10
95.42604435548377
 20
-119.332595456278
 30
0.0
 10
95.42604435548377
 20
-119.1887627197688
 30
0.0
 10
95.44326983291002
 20
-118.9370984945713
 30
0.0
 10
95.5490342643072
 20
-118.7381442302981
 30
0.0
 10
95.65686575299551
 20
-118.5350558514426
 30
0.0
 10
95.81775171215668
 20
-118.5118014569172
 30
0.0
 10
95.94659828330502
 20
-118.5118014569172
 30
0.0
 10
96.10541718517504
 20
-118.5118014569172
 30
0.0
 10
96.24907766690995
 20
-118.5562431886769
 30
0.0
 10
96.34450681185137
 20
-118.7381442302981
 30
0.0
 10
96.44372556182657
 20
-118.9307250679236
 30
0.0
 10
96.46715221112628
 20
-119.1591348985956
 30
0.0
 10
96.46715221112628
 20
-119.332595456278
 30
0.0
 10
96.46715221112628
 20
-119.5039889566691
 30
0.0
 10
96.44579261911773
 20
-119.7346380994066
 30
0.0
 10
96.34450681185137
 20
-119.9270466822578
 30
0.0
  0
SPLINE
  5
AF
330
57
100
AcDbEntity
  8
_U+30EC_U+30A4_U+30E4_U+30FC 1
370
     0
100
AcDbSpline
210
0.0
220
0.0
230
1.0
 70
    11
 71
     3
 72
    17
 73
    13
 74
     0
 42
0.0000000001
 43
0.0000000001
 12
1.0
 22
0.0
 32
0.0
 13
1.0
 23
0.0
 33
0.0
 40
0.0
 40
0.0
 40
0.0
 40
0.0
 40
1.0
 40
1.0
 40
1.0
 40
2.0
 40
2.0
 40
2.0
 40
3.0
 40
3.0
 40
3.0
 40
4.0
 40
4.0
 40
4.0
 40
4.0
 10
95.94659828330502
 20
-118.7043822945427
 30
0.0
 10
95.69682886062441
 20
-118.7043822945427
 30
0.0
 10
95.65032007157353
 20
-118.9877413982045
 30
0.0
 10
95.65032007157353
 20
-119.332595456278
 30
0.0
 10
95.65032007157353
 20
-119.6521280625349
 30
0.0
 10
95.68649357416867
 20
-119.9609808727875
 30
0.0
 10
95.94659828330502
 20
-119.9609808727875
 30
0.0
 10
96.19430064869448
 20
-119.9609808727875
 30
0.0
 10
96.24287649503651
 20
-119.6795165716426
 30
0.0
 10
96.24287649503651
 20
-119.332595456278
 30
0.0
 10
96.24287649503651
 20
-119.0132351047953
 30
0.0
 10
96.20463593515024
 20
-118.7043822945427
 30
0.0
 10
95.94659828330502
 20
-118.7043822945427
 30
0.0
  0
HATCH
  5
B0
330
57
100
AcDbEntity
  8
_U+30EC_U+30A4_U+30E4_U+30FC 1
 62
   179
420
  2234388
100
AcDbHatch
 10
0.0
 20
0.0
 30
0.0
210
0.0
220
0.0
230
1.0
  2
SOLID
 70
     1
 71
     0
 91
        2
 92
        1
 93
        1
 72
     4
 94
        3
 73
     0
 74
     1
 95
       29
 96
       25
 40
0.0
 40
0.0
 40
0.0
 40
0.0
 40
1.0
 40
1.0
 40
1.0
 40
2.0
 40
2.0
 40
2.0
 40
3.0
 40
3.0
 40
3.0
 40
4.0
 40
4.0
 40
4.0
 40
5.0
 40
5.0
 40
5.0
 40
6.0
 40
6.0
 40
6.0
 40
7.0
 40
7.0
 40
7.0
 40
8.0
 40
8.0
 40
8.0
 40
8.0
 10
96.34450681185137
 20
-119.9270466822578
 10
96.23633081361453
 20
-120.136508487761
 10
96.06304251070647
 20
-120.1556287677042
 10
95.94659828330502
 20
-120.1556287677042
 10
95.78571232414386
 20
-120.1556287677042
 10
95.64411889970009
 20
-120.1091199786533
 10
95.5490342643072
 20
-119.9270466822578
 10
95.44533689020118
 20
-119.7325710421155
 10
95.42604435548377
 20
-119.4955484727303
 10
95.42604435548377
 20
-119.332595456278
 10
95.42604435548377
 20
-119.1887627197688
 10
95.44326983291002
 20
-118.9370984945713
 10
95.5490342643072
 20
-118.7381442302981
 10
95.65686575299551
 20
-118.5350558514426
 10
95.81775171215668
 20
-118.5118014569172
 10
95.94659828330502
 20
-118.5118014569172
 10
96.10541718517504
 20
-118.5118014569172
 10
96.24907766690995
 20
-118.5562431886769
 10
96.34450681185137
 20
-118.7381442302981
 10
96.44372556182657
 20
-118.9307250679236
 10
96.46715221112628
 20
-119.1591348985956
 10
96.46715221112628
 20
-119.332595456278
 10
96.46715221112628
 20
-119.5039889566691
 10
96.44579261911773
 20
-119.7346380994066
 10
96.34450681185137
 20
-119.9270466822578
 97
        0
 97
        0
 92
        1
 93
        1
 72
     4
 94
        3
 73
     0
 74
     1
 95
       17
 96
       13
 40
0.0
 40
0.0
 40
0.0
 40
0.0
 40
1.0
 40
1.0
 40
1.0
 40
2.0
 40
2.0
 40
2.0
 40
3.0
 40
3.0
 40
3.0
 40
4.0
 40
4.0
 40
4.0
 40
4.0
 10
95.94659828330502
 20
-118.7043822945427
 10
95.69682886062441
 20
-118.7043822945427
 10
95.65032007157353
 20
-118.9877413982045
 10
95.65032007157353
 20
-119.332595456278
 10
95.65032007157353
 20
-119.6521280625349
 10
95.68649357416867
 20
-119.9609808727875
 10
95.94659828330502
 20
-119.9609808727875
 10
96.19430064869448
 20
-119.9609808727875
 10
96.24287649503651
 20
-119.6795165716426
 10
96.24287649503651
 20
-119.332595456278
 10
96.24287649503651
 20
-119.0132351047953
 10
96.20463593515024
 20
-118.7043822945427
 10
95.94659828330502
 20
-118.7043822945427
 97
        0
 97
        0
 75
     2
 76
     1
 98
        0
  0
ENDBLK
  5
5A
330
57
100
AcDbEntity
  8
0
100
AcDbBlockEnd
  0
BLOCK
  5
B3
330
B1
100
AcDbEntity
  8
0
100
AcDbBlockBegin
  2
block 4
 70
     0
 10
0.0
 20
0.0
 30
0.0
  3
block 4
  1

  0
SPLINE
  5
B5
330
B1
100
AcDbEntity
  8
_U+30EC_U+30A4_U+30E4_U+30FC 1
370
     0
100
AcDbSpline
210
0.0
220
0.0
230
1.0
 70
    11
 71
     3
 72
    44
 73
    40
 74
     0
 42
0.0000000001
 43
0.0000000001
 12
1.0
 22
0.0
 32
0.0
 13
1.0
 23
0.0
 33
0.0
 40
0.0
 40
0.0
 40
0.0
 40
0.0
 40
1.0
 40
1.0
 40
1.0
 40
2.0
 40
2.0
 40
2.0
 40
3.0
 40
3.0
 40
3.0
 40
4.0
 40
4.0
 40
4.0
 40
5.0
 40
5.0
 40
5.0
 40
6.0
 40
6.0
 40
6.0
 40
7.0
 40
7.0
 40
7.0
 40
8.0
 40
8.0
 40
8.0
 40
9.0
 40
9.0
 40
9.0
 40
10.0
 40
10.0
 40
10.0
 40
11.0
 40
11.0
 40
11.0
 40
12.0
 40
12.0
 40
12.0
 40
13.0
 40
13.0
 40
13.0
 40
13.0
 10
106.351131158308
 20
-127.4320149421003
 30
0.0
 10
106.0955050733025
 20
-127.5169365458117
 30
0.0
 10
105.9845729986775
 20
-127.5593112202803
 30
0.0
 10
105.8943114969639
 20
-127.6814398552324
 30
0.0
 10
105.8943114969639
 20
-127.6814398552324
 30
0.0
 10
106.6360405549382
 20
-127.9181179150691
 30
0.0
 10
106.6360405549382
 20
-127.9181179150691
 30
0.0
 10
106.6360405549382
 20
-127.9181179150691
 30
0.0
 10
106.5736843266552
 20
-128.1134548290827
 30
0.0
 10
106.5736843266552
 20
-128.1134548290827
 30
0.0
 10
106.5736843266552
 20
-128.1134548290827
 30
0.0
 10
105.5942436801987
 20
-127.8009846685706
 30
0.0
 10
105.5942436801987
 20
-127.8009846685706
 30
0.0
 10
105.7334255378028
 20
-127.4699109924381
 30
0.0
 10
105.819552924934
 20
-127.4154784837711
 30
0.0
 10
106.2770616053752
 20
-127.2483913527365
 30
0.0
 10
106.5812635367227
 20
-127.1367702590144
 30
0.0
 10
106.6642903379173
 20
-127.0921562724804
 30
0.0
 10
106.7059759932888
 20
-126.961242644041
 30
0.0
 10
106.7421494958839
 20
-126.8482435121248
 30
0.0
 10
106.7132106938078
 20
-126.7014824444531
 30
0.0
 10
106.5257974994102
 20
-126.641710037784
 30
0.0
 10
106.2777506244722
 20
-126.5624728416233
 30
0.0
 10
106.1998914665056
 20
-126.7796861119683
 30
0.0
 10
106.1602728684252
 20
-126.8892401483992
 30
0.0
 10
106.1602728684252
 20
-126.8892401483992
 30
0.0
 10
105.9466769483397
 20
-126.8211995125655
 30
0.0
 10
105.9466769483397
 20
-126.8211995125655
 30
0.0
 10
105.9935302469391
 20
-126.7026882278729
 30
0.0
 10
106.0376274691503
 20
-126.5993353633154
 30
0.0
 10
106.150282091518
 20
-126.5106241545703
 30
0.0
 10
106.3039333501601
 20
-126.3909070864578
 30
0.0
 10
106.4920355636548
 20
-126.4153672644031
 30
0.0
 10
106.6026231287313
 20
-126.4506794931269
 30
0.0
 10
106.8665174429014
 20
-126.5349120777413
 30
0.0
 10
107.0081108673452
 20
-126.7733126853206
 30
0.0
 10
106.9250840661507
 20
-127.0332451396827
 30
0.0
 10
106.8558376468972
 20
-127.2508029195762
 30
0.0
 10
106.7145887320019
 20
-127.310403071471
 30
0.0
 10
106.351131158308
 20
-127.4320149421003
 30
0.0
  0
HATCH
  5
B6
330
B1
100
AcDbEntity
  8
_U+30EC_U+30A4_U+30E4_U+30FC 1
 62
   179
420
  2234388
100
AcDbHatch
 10
0.0
 20
0.0
 30
0.0
210
0.0
220
0.0
230
1.0
  2
SOLID
 70
     1
 71
     0
 91
        1
 92
        1
 93
        1
 72
     4
 94
        3
 73
     0
 74
     1
 95
       44
 96
       40
 40
0.0
 40
0.0
 40
0.0
 40
0.0
 40
1.0
 40
1.0
 40
1.0
 40
2.0
 40
2.0
 40
2.0
 40
3.0
 40
3.0
 40
3.0
 40
4.0
 40
4.0
 40
4.0
 40
5.0
 40
5.0
 40
5.0
 40
6.0
 40
6.0
 40
6.0
 40
7.0
 40
7.0
 40
7.0
 40
8.0
 40
8.0
 40
8.0
 40
9.0
 40
9.0
 40
9.0
 40
10.0
 40
10.0
 40
10.0
 40
11.0
 40
11.0
 40
11.0
 40
12.0
 40
12.0
 40
12.0
 40
13.0
 40
13.0
 40
13.0
 40
13.0
 10
106.351131158308
 20
-127.4320149421003
 10
106.0955050733025
 20
-127.5169365458117
 10
105.9845729986775
 20
-127.5593112202803
 10
105.8943114969639
 20
-127.6814398552324
 10
105.8943114969639
 20
-127.6814398552324
 10
106.6360405549382
 20
-127.9181179150691
 10
106.6360405549382
 20
-127.9181179150691
 10
106.6360405549382
 20
-127.9181179150691
 10
106.5736843266552
 20
-128.1134548290827
 10
106.5736843266552
 20
-128.1134548290827
 10
106.5736843266552
 20
-128.1134548290827
 10
105.5942436801987
 20
-127.8009846685706
 10
105.5942436801987
 20
-127.8009846685706
 10
105.7334255378028
 20
-127.4699109924381
 10
105.819552924934
 20
-127.4154784837711
 10
106.2770616053752
 20
-127.2483913527365
 10
106.5812635367227
 20
-127.1367702590144
 10
106.6642903379173
 20
-127.0921562724804
 10
106.7059759932888
 20
-126.961242644041
 10
106.7421494958839
 20
-126.8482435121248
 10
106.7132106938078
 20
-126.7014824444531
 10
106.5257974994102
 20
-126.641710037784
 10
106.2777506244722
 20
-126.5624728416233
 10
106.1998914665056
 20
-126.7796861119683
 10
106.1602728684252
 20
-126.8892401483992
 10
106.1602728684252
 20
-126.8892401483992
 10
105.9466769483397
 20
-126.8211995125655
 10
105.9466769483397
 20
-126.8211995125655
 10
105.9935302469391
 20
-126.7026882278729
 10
106.0376274691503
 20
-126.5993353633154
 10
106.150282091518
 20
-126.5106241545703
 10
106.3039333501601
 20
-126.3909070864578
 10
106.4920355636548
 20
-126.4153672644031
 10
106.6026231287313
 20
-126.4506794931269
 10
106.8665174429014
 20
-126.5349120777413
 10
107.0081108673452
 20
-126.7733126853206
 10
106.9250840661507
 20
-127.0332451396827
 10
106.8558376468972
 20
-127.2508029195762
 10
106.7145887320019
 20
-127.310403071471
 10
106.351131158308
 20
-127.4320149421003
 97
        0
 97
        0
 75
     2
 76
     1
 98
        0
  0
SPLINE
  5
B7
330
B1
100
AcDbEntity
  8
_U+30EC_U+30A4_U+30E4_U+30FC 1
370
     0
100
AcDbSpline
210
0.0
220
0.0
230
1.0
 70
    11
 71
     3
 72
    29
 73
    25
 74
     0
 42
0.0000000001
 43
0.0000000001
 12
1.0
 22
0.0
 32
0.0
 13
1.0
 23
0.0
 33
0.0
 40
0.0
 40
0.0
 40
0.0
 40
0.0
 40
1.0
 40
1.0
 40
1.0
 40
2.0
 40
2.0
 40
2.0
 40
3.0
 40
3.0
 40
3.0
 40
4.0
 40
4.0
 40
4.0
 40
5.0
 40
5.0
 40
5.0
 40
6.0
 40
6.0
 40
6.0
 40
7.0
 40
7.0
 40
7.0
 40
8.0
 40
8.0
 40
8.0
 40
8.0
 10
107.191734456709
 20
-128.3640855256347
 30
0.0
 10
106.9374864098976
 20
-128.282953526957
 30
0.0
 10
106.7380153813016
 20
-128.074869759648
 30
0.0
 10
106.8441243222473
 20
-127.7424180453213
 30
0.0
 10
106.9216389706654
 20
-127.4985052849657
 30
0.0
 10
107.0856255157633
 20
-127.4507907124949
 30
0.0
 10
107.2051703291015
 20
-127.4244357320328
 30
0.0
 10
107.1042290313837
 20
-127.3300401157369
 30
0.0
 10
107.0666774905944
 20
-127.1982652134261
 30
0.0
 10
107.1152533369365
 20
-127.0451307191068
 30
0.0
 10
107.198969157228
 20
-126.7829589526793
 30
0.0
 10
107.4294460451913
 20
-126.7145738072971
 30
0.0
 10
107.6916178116188
 20
-126.7981173728144
 30
0.0
 10
107.9617132976624
 20
-126.8842447599456
 30
0.0
 10
108.0991726075238
 20
-127.0792371644108
 30
0.0
 10
108.0178683540719
 20
-127.3331407016737
 30
0.0
 10
107.9692925077299
 20
-127.4864474507673
 30
0.0
 10
107.859738471299
 20
-127.5711967997044
 30
0.0
 10
107.722623670986
 20
-127.5898003153248
 30
0.0
 10
107.7922145997881
 20
-127.6652479064518
 30
0.0
 10
107.9145154895144
 20
-127.8042575092816
 30
0.0
 10
107.8345892742566
 20
-128.0541991867365
 30
0.0
 10
107.7209011232434
 20
-128.4107665694598
 30
0.0
 10
107.419455268284
 20
-128.4367770403734
 30
0.0
 10
107.191734456709
 20
-128.3640855256347
 30
0.0
  0
SPLINE
  5
B8
330
B1
100
AcDbEntity
  8
_U+30EC_U+30A4_U+30E4_U+30FC 1
370
     0
100
AcDbSpline
210
0.0
220
0.0
230
1.0
 70
    11
 71
     3
 72
    17
 73
    13
 74
     0
 42
0.0000000001
 43
0.0000000001
 12
1.0
 22
0.0
 32
0.0
 13
1.0
 23
0.0
 33
0.0
 40
0.0
 40
0.0
 40
0.0
 40
0.0
 40
1.0
 40
1.0
 40
1.0
 40
2.0
 40
2.0
 40
2.0
 40
3.0
 40
3.0
 40
3.0
 40
4.0
 40
4.0
 40
4.0
 40
4.0
 10
107.4322021215795
 20
-127.610298633462
 30
0.0
 10
107.2950873212665
 20
-127.5667181755736
 30
0.0
 10
107.1235215661011
 20
-127.6027194233945
 30
0.0
 10
107.0618543569151
 20
-127.7963337896655
 30
0.0
 10
106.9991536190835
 20
-127.9916707036792
 30
0.0
 10
107.0897596303456
 20
-128.1272352110238
 30
0.0
 10
107.2509900990553
 20
-128.178567133754
 30
0.0
 10
107.4280680069972
 20
-128.2350666997121
 30
0.0
 10
107.570350450538
 20
-128.1518676437433
 30
0.0
 10
107.6244384496564
 20
-127.9825412006433
 30
0.0
 10
107.6919623211673
 20
-127.7708400830747
 30
0.0
 10
107.5589816354367
 20
-127.6507785054137
 30
0.0
 10
107.4322021215795
 20
-127.610298633462
 30
0.0
  0
SPLINE
  5
B9
330
B1
100
AcDbEntity
  8
_U+30EC_U+30A4_U+30E4_U+30FC 1
370
     0
100
AcDbSpline
210
0.0
220
0.0
230
1.0
 70
    11
 71
     3
 72
    17
 73
    13
 74
     0
 42
0.0000000001
 43
0.0000000001
 12
1.0
 22
0.0
 32
0.0
 13
1.0
 23
0.0
 33
0.0
 40
0.0
 40
0.0
 40
0.0
 40
0.0
 40
1.0
 40
1.0
 40
1.0
 40
2.0
 40
2.0
 40
2.0
 40
3.0
 40
3.0
 40
3.0
 40
4.0
 40
4.0
 40
4.0
 40
4.0
 10
107.6330511883695
 20
-126.9815687074039
 30
0.0
 10
107.4756103246936
 20
-126.9314425680935
 30
0.0
 10
107.3664007978112
 20
-126.9963826179905
 30
0.0
 10
107.3250596519882
 20
-127.1252291891388
 30
0.0
 10
107.2878526207475
 20
-127.2423624356373
 30
0.0
 10
107.3198920087603
 20
-127.3768934143363
 30
0.0
 10
107.4893907066346
 20
-127.4309814134548
 30
0.0
 10
107.6585448949604
 20
-127.4850694125732
 30
0.0
 10
107.763275797712
 20
-127.3941188917626
 30
0.0
 10
107.8004828289527
 20
-127.2769856452641
 30
0.0
 10
107.8418239747757
 20
-127.1481390741157
 30
0.0
 10
107.7880804852058
 20
-127.0310058276172
 30
0.0
 10
107.6330511883695
 20
-126.9815687074039
 30
0.0
  0
HATCH
  5
BA
330
B1
100
AcDbEntity
  8
_U+30EC_U+30A4_U+30E4_U+30FC 1
 62
   179
420
  2234388
100
AcDbHatch
 10
0.0
 20
0.0
 30
0.0
210
0.0
220
0.0
230
1.0
  2
SOLID
 70
     1
 71
     0
 91
        3
 92
        1
 93
        1
 72
     4
 94
        3
 73
     0
 74
     1
 95
       29
 96
       25
 40
0.0
 40
0.0
 40
0.0
 40
0.0
 40
1.0
 40
1.0
 40
1.0
 40
2.0
 40
2.0
 40
2.0
 40
3.0
 40
3.0
 40
3.0
 40
4.0
 40
4.0
 40
4.0
 40
5.0
 40
5.0
 40
5.0
 40
6.0
 40
6.0
 40
6.0
 40
7.0
 40
7.0
 40
7.0
 40
8.0
 40
8.0
 40
8.0
 40
8.0
 10
107.191734456709
 20
-128.3640855256347
 10
106.9374864098976
 20
-128.282953526957
 10
106.7380153813016
 20
-128.074869759648
 10
106.8441243222473
 20
-127.7424180453213
 10
106.9216389706654
 20
-127.4985052849657
 10
107.0856255157633
 20
-127.4507907124949
 10
107.2051703291015
 20
-127.4244357320328
 10
107.1042290313837
 20
-127.3300401157369
 10
107.0666774905944
 20
-127.1982652134261
 10
107.1152533369365
 20
-127.0451307191068
 10
107.198969157228
 20
-126.7829589526793
 10
107.4294460451913
 20
-126.7145738072971
 10
107.6916178116188
 20
-126.7981173728144
 10
107.9617132976624
 20
-126.8842447599456
 10
108.0991726075238
 20
-127.0792371644108
 10
108.0178683540719
 20
-127.3331407016737
 10
107.9692925077299
 20
-127.4864474507673
 10
107.859738471299
 20
-127.5711967997044
 10
107.722623670986
 20
-127.5898003153248
 10
107.7922145997881
 20
-127.6652479064518
 10
107.9145154895144
 20
-127.8042575092816
 10
107.8345892742566
 20
-128.0541991867365
 10
107.7209011232434
 20
-128.4107665694598
 10
107.419455268284
 20
-128.4367770403734
 10
107.191734456709
 20
-128.3640855256347
 97
        0
 97
        0
 92
        1
 93
        1
 72
     4
 94
        3
 73
     0
 74
     1
 95
       17
 96
       13
 40
0.0
 40
0.0
 40
0.0
 40
0.0
 40
1.0
 40
1.0
 40
1.0
 40
2.0
 40
2.0
 40
2.0
 40
3.0
 40
3.0
 40
3.0
 40
4.0
 40
4.0
 40
4.0
 40
4.0
 10
107.4322021215795
 20
-127.610298633462
 10
107.2950873212665
 20
-127.5667181755736
 10
107.1235215661011
 20
-127.6027194233945
 10
107.0618543569151
 20
-127.7963337896655
 10
106.9991536190835
 20
-127.9916707036792
 10
107.0897596303456
 20
-128.1272352110238
 10
107.2509900990553
 20
-128.178567133754
 10
107.4280680069972
 20
-128.2350666997121
 10
107.570350450538
 20
-128.1518676437433
 10
107.6244384496564
 20
-127.9825412006433
 10
107.6919623211673
 20
-127.7708400830747
 10
107.5589816354367
 20
-127.6507785054137
 10
107.4322021215795
 20
-127.610298633462
 97
        0
 97
        0
 92
        1
 93
        1
 72
     4
 94
        3
 73
     0
 74
     1
 95
       17
 96
       13
 40
0.0
 40
0.0
 40
0.0
 40
0.0
 40
1.0
 40
1.0
 40
1.0
 40
2.0
 40
2.0
 40
2.0
 40
3.0
 40
3.0
 40
3.0
 40
4.0
 40
4.0
 40
4.0
 40
4.0
 10
107.6330511883695
 20
-126.9815687074039
 10
107.4756103246936
 20
-126.9314425680935
 10
107.3664007978112
 20
-126.9963826179905
 10
107.3250596519882
 20
-127.1252291891388
 10
107.2878526207475
 20
-127.2423624356373
 10
107.3198920087603
 20
-127.3768934143363
 10
107.4893907066346
 20
-127.4309814134548
 10
107.6585448949604
 20
-127.4850694125732
 10
107.763275797712
 20
-127.3941188917626
 10
107.8004828289527
 20
-127.2769856452641
 10
107.8418239747757
 20
-127.1481390741157
 10
107.7880804852058
 20
-127.0310058276172
 10
107.6330511883695
 20
-126.9815687074039
 97
        0
 97
        0
 75
     2
 76
     1
 98
        0
  0
ENDBLK
  5
B4
330
B1
100
AcDbEntity
  8
0
100
AcDbBlockEnd
  0
BLOCK
  5
CE
330
CC
100
AcDbEntity
  8
0
100
AcDbBlockBegin
  2
block 5
 70
     0
 10
0.0
 20
0.0
 30
0.0
  3
block 5
  1

  0
SPLINE
  5
D0
330
CC
100
AcDbEntity
  8
_U+30EC_U+30A4_U+30E4_U+30FC 1
370
     0
100
AcDbSpline
210
0.0
220
0.0
230
1.0
 70
    11
 71
     3
 72
    44
 73
    40
 74
     0
 42
0.0000000001
 43
0.0000000001
 12
1.0
 22
0.0
 32
0.0
 13
1.0
 23
0.0
 33
0.0
 40
0.0
 40
0.0
 40
0.0
 40
0.0
 40
1.0
 40
1.0
 40
1.0
 40
2.0
 40
2.0
 40
2.0
 40
3.0
 40
3.0
 40
3.0
 40
4.0
 40
4.0
 40
4.0
 40
5.0
 40
5.0
 40
5.0
 40
6.0
 40
6.0
 40
6.0
 40
7.0
 40
7.0
 40
7.0
 40
8.0
 40
8.0
 40
8.0
 40
9.0
 40
9.0
 40
9.0
 40
10.0
 40
10.0
 40
10.0
 40
11.0
 40
11.0
 40
11.0
 40
12.0
 40
12.0
 40
12.0
 40
13.0
 40
13.0
 40
13.0
 40
13.0
 10
74.50983613588643
 20
-128.0216430344009
 30
0.0
 10
74.35067272446788
 20
-128.2392008142944
 30
0.0
 10
74.28452689115109
 20
-128.338075054721
 30
0.0
 10
74.2817708147629
 20
-128.4900037656206
 30
0.0
 10
74.2817708147629
 20
-128.4900037656206
 30
0.0
 10
75.02315536318866
 20
-128.2533257057839
 30
0.0
 10
75.02315536318866
 20
-128.2533257057839
 30
0.0
 10
75.02315536318866
 20
-128.2533257057839
 30
0.0
 10
75.08585610102021
 20
-128.4486626197976
 30
0.0
 10
75.08585610102021
 20
-128.4486626197976
 30
0.0
 10
75.08585610102021
 20
-128.4486626197976
 30
0.0
 10
74.10641545456367
 20
-128.7611327803097
 30
0.0
 10
74.10641545456367
 20
-128.7611327803097
 30
0.0
 10
74.02786727749998
 20
-128.4107665694598
 30
0.0
 10
74.06645234693478
 20
-128.3165432079382
 30
0.0
 10
74.34274900485181
 20
-127.9151895839066
 30
0.0
 10
74.5260280846671
 20
-127.648366938574
 30
0.0
 10
74.56771374003863
 20
-127.5636175896369
 30
0.0
 10
74.5260280846671
 20
-127.4327039611974
 30
0.0
 10
74.48985458207198
 20
-127.3197048292812
 30
0.0
 10
74.38167858383514
 20
-127.2168687290465
 30
0.0
 10
74.19426538943755
 20
-127.2766411357156
 30
0.0
 10
73.94621851449956
 20
-127.3557060771021
 30
0.0
 10
74.00823023323406
 20
-127.5777424811264
 30
0.0
 10
74.03992511169835
 20
-127.6900525939456
 30
0.0
 10
74.03992511169835
 20
-127.6900525939456
 30
0.0
 10
73.82632919161287
 20
-127.7580932297792
 30
0.0
 10
73.82632919161287
 20
-127.7580932297792
 30
0.0
 10
73.79566784179414
 20
-127.634586556633
 30
0.0
 10
73.7715521733974
 20
-127.5246880106536
 30
0.0
 10
73.81220430012334
 20
-127.3872287007921
 30
0.0
 10
73.8680148469844
 20
-127.2008490350401
 30
0.0
 10
74.035101978019
 20
-127.1117933167464
 30
0.0
 10
74.14603405264405
 20
-127.0764810880225
 30
0.0
 10
74.40992836681419
 20
-126.9920762486339
 30
0.0
 10
74.66348739452857
 20
-127.1045586162273
 30
0.0
 10
74.74616968617457
 20
-127.3643188158152
 30
0.0
 10
74.81576061497663
 20
-127.5823933600315
 30
0.0
 10
74.73514538062177
 20
-127.7121012050511
 30
0.0
 10
74.50983613588643
 20
-128.0216430344009
 30
0.0
  0
HATCH
  5
D1
330
CC
100
AcDbEntity
  8
_U+30EC_U+30A4_U+30E4_U+30FC 1
 62
   179
420
  2234388
100
AcDbHatch
 10
0.0
 20
0.0
 30
0.0
210
0.0
220
0.0
230
1.0
  2
SOLID
 70
     1
 71
     0
 91
        1
 92
        1
 93
        1
 72
     4
 94
        3
 73
     0
 74
     1
 95
       44
 96
       40
 40
0.0
 40
0.0
 40
0.0
 40
0.0
 40
1.0
 40
1.0
 40
1.0
 40
2.0
 40
2.0
 40
2.0
 40
3.0
 40
3.0
 40
3.0
 40
4.0
 40
4.0
 40
4.0
 40
5.0
 40
5.0
 40
5.0
 40
6.0
 40
6.0
 40
6.0
 40
7.0
 40
7.0
 40
7.0
 40
8.0
 40
8.0
 40
8.0
 40
9.0
 40
9.0
 40
9.0
 40
10.0
 40
10.0
 40
10.0
 40
11.0
 40
11.0
 40
11.0
 40
12.0
 40
12.0
 40
12.0
 40
13.0
 40
13.0
 40
13.0
 40
13.0
 10
74.50983613588643
 20
-128.0216430344009
 10
74.35067272446788
 20
-128.2392008142944
 10
74.28452689115109
 20
-128.338075054721
 10
74.2817708147629
 20
-128.4900037656206
 10
74.2817708147629
 20
-128.4900037656206
 10
75.02315536318866
 20
-128.2533257057839
 10
75.02315536318866
 20
-128.2533257057839
 10
75.02315536318866
 20
-128.2533257057839
 10
75.08585610102021
 20
-128.4486626197976
 10
75.08585610102021
 20
-128.4486626197976
 10
75.08585610102021
 20
-128.4486626197976
 10
74.10641545456367
 20
-128.7611327803097
 10
74.10641545456367
 20
-128.7611327803097
 10
74.02786727749998
 20
-128.4107665694598
 10
74.06645234693478
 20
-128.3165432079382
 10
74.34274900485181
 20
-127.9151895839066
 10
74.5260280846671
 20
-127.648366938574
 10
74.56771374003863
 20
-127.5636175896369
 10
74.5260280846671
 20
-127.4327039611974
 10
74.48985458207198
 20
-127.3197048292812
 10
74.38167858383514
 20
-127.2168687290465
 10
74.19426538943755
 20
-127.2766411357156
 10
73.94621851449956
 20
-127.3557060771021
 10
74.00823023323406
 20
-127.5777424811264
 10
74.03992511169835
 20
-127.6900525939456
 10
74.03992511169835
 20
-127.6900525939456
 10
73.82632919161287
 20
-127.7580932297792
 10
73.82632919161287
 20
-127.7580932297792
 10
73.79566784179414
 20
-127.634586556633
 10
73.7715521733974
 20
-127.5246880106536
 10
73.81220430012334
 20
-127.3872287007921
 10
73.8680148469844
 20
-127.2008490350401
 10
74.035101978019
 20
-127.1117933167464
 10
74.14603405264405
 20
-127.0764810880225
 10
74.40992836681419
 20
-126.9920762486339
 10
74.66348739452857
 20
-127.1045586162273
 10
74.74616968617457
 20
-127.3643188158152
 10
74.81576061497663
 20
-127.5823933600315
 10
74.73514538062177
 20
-127.7121012050511
 10
74.50983613588643
 20
-128.0216430344009
 97
        0
 97
        0
 75
     2
 76
     1
 98
        0
  0
SPLINE
  5
D2
330
CC
100
AcDbEntity
  8
_U+30EC_U+30A4_U+30E4_U+30FC 1
370
     0
100
AcDbSpline
210
0.0
220
0.0
230
1.0
 70
    11
 71
     3
 72
    29
 73
    25
 74
     0
 42
0.0000000001
 43
0.0000000001
 12
1.0
 22
0.0
 32
0.0
 13
1.0
 23
0.0
 33
0.0
 40
0.0
 40
0.0
 40
0.0
 40
0.0
 40
1.0
 40
1.0
 40
1.0
 40
2.0
 40
2.0
 40
2.0
 40
3.0
 40
3.0
 40
3.0
 40
4.0
 40
4.0
 40
4.0
 40
5.0
 40
5.0
 40
5.0
 40
6.0
 40
6.0
 40
6.0
 40
7.0
 40
7.0
 40
7.0
 40
8.0
 40
8.0
 40
8.0
 40
8.0
 10
75.73422307134423
 20
-128.2948391063811
 30
0.0
 10
75.48066404362984
 20
-128.3757988502845
 30
0.0
 10
75.19678817564525
 20
-128.3220553607146
 30
0.0
 10
75.09067923469955
 20
-127.989603646388
 30
0.0
 10
75.01282007673291
 20
-127.7456908860323
 30
0.0
 10
75.11892901767861
 20
-127.6120211812046
 30
0.0
 10
75.20126679977608
 20
-127.5215874247168
 30
0.0
 10
75.06449650901166
 20
-127.5029839090965
 30
0.0
 10
74.95700952987187
 20
-127.417373286288
 30
0.0
 10
74.90808917398131
 20
-127.2640665371944
 30
0.0
 10
74.82471786323826
 20
-127.0022392803154
 30
0.0
 10
74.97285696910401
 20
-126.8125867738524
 30
0.0
 10
75.234684225983
 20
-126.7290432083351
 30
0.0
 10
75.50477971202659
 20
-126.6427435664296
 30
0.0
 10
75.73008895676193
 20
-126.7219807625903
 30
0.0
 10
75.8110487006653
 20
-126.9758842998533
 30
0.0
 10
75.85996905655584
 20
-127.1291910489469
 30
0.0
 10
75.82035045847547
 20
-127.261827225129
 30
0.0
 10
75.71906465120912
 20
-127.3563950961991
 30
0.0
 10
75.8193169298299
 20
-127.3775824334334
 30
0.0
 10
75.99949542370847
 20
-127.419957107902
 30
0.0
 10
76.07907712941774
 20
-127.6700710401311
 30
0.0
 10
76.1931097899795
 20
-128.0266384228545
 30
0.0
 10
75.96228839246777
 20
-128.2221475916424
 30
0.0
 10
75.73422307134423
 20
-128.2948391063811
 30
0.0
  0
SPLINE
  5
D3
330
CC
100
AcDbEntity
  8
_U+30EC_U+30A4_U+30E4_U+30FC 1
370
     0
100
AcDbSpline
210
0.0
220
0.0
230
1.0
 70
    11
 71
     3
 72
    17
 73
    13
 74
     0
 42
0.0000000001
 43
0.0000000001
 12
1.0
 22
0.0
 32
0.0
 13
1.0
 23
0.0
 33
0.0
 40
0.0
 40
0.0
 40
0.0
 40
0.0
 40
1.0
 40
1.0
 40
1.0
 40
2.0
 40
2.0
 40
2.0
 40
3.0
 40
3.0
 40
3.0
 40
4.0
 40
4.0
 40
4.0
 40
4.0
 10
75.29325084923225
 20
-126.9126667976989
 30
0.0
 10
75.13615449510485
 20
-126.9627929370093
 30
0.0
 10
75.08447806282611
 20
-127.0790649096365
 30
0.0
 10
75.1258192086491
 20
-127.2079114807848
 30
0.0
 10
75.1630262398898
 20
-127.3247002177348
 30
0.0
 10
75.2677571426414
 20
-127.4158229933197
 30
0.0
 10
75.43656682141864
 20
-127.3619072489755
 30
0.0
 10
75.60606551929293
 20
-127.3078192498571
 30
0.0
 10
75.63844941685429
 20
-127.1729437616095
 30
0.0
 10
75.60124238561359
 20
-127.0561550246596
 30
0.0
 10
75.55990123979058
 20
-126.9273084535112
 30
0.0
 10
75.44862465561701
 20
-126.8630574227113
 30
0.0
 10
75.29325084923225
 20
-126.9126667976989
 30
0.0
  0
SPLINE
  5
D4
330
CC
100
AcDbEntity
  8
_U+30EC_U+30A4_U+30E4_U+30FC 1
370
     0
100
AcDbSpline
210
0.0
220
0.0
230
1.0
 70
    11
 71
     3
 72
    17
 73
    13
 74
     0
 42
0.0000000001
 43
0.0000000001
 12
1.0
 22
0.0
 32
0.0
 13
1.0
 23
0.0
 33
0.0
 40
0.0
 40
0.0
 40
0.0
 40
0.0
 40
1.0
 40
1.0
 40
1.0
 40
2.0
 40
2.0
 40
2.0
 40
3.0
 40
3.0
 40
3.0
 40
4.0
 40
4.0
 40
4.0
 40
4.0
 10
75.49409991602231
 20
-127.541396723757
 30
0.0
 10
75.35698511570936
 20
-127.5849771816454
 30
0.0
 10
75.23847383101678
 20
-127.713996007568
 30
0.0
 10
75.30014104020275
 20
-127.9072658642906
 30
0.0
 10
75.36249726848577
 20
-128.1029472878527
 30
0.0
 10
75.51408146983677
 20
-128.1608248920049
 30
0.0
 10
75.67531193854646
 20
-128.1094929692747
 30
0.0
 10
75.85273435603682
 20
-128.0528211485424
 30
0.0
 10
75.92025822754772
 20
-127.9026149853855
 30
0.0
 10
75.8661702284293
 20
-127.7331162875112
 30
0.0
 10
75.79899086646692
 20
-127.5219319342654
 30
0.0
 10
75.62122393942803
 20
-127.5009168518053
 30
0.0
 10
75.49409991602231
 20
-127.541396723757
 30
0.0
  0
HATCH
  5
D5
330
CC
100
AcDbEntity
  8
_U+30EC_U+30A4_U+30E4_U+30FC 1
 62
   179
420
  2234388
100
AcDbHatch
 10
0.0
 20
0.0
 30
0.0
210
0.0
220
0.0
230
1.0
  2
SOLID
 70
     1
 71
     0
 91
        3
 92
        1
 93
        1
 72
     4
 94
        3
 73
     0
 74
     1
 95
       29
 96
       25
 40
0.0
 40
0.0
 40
0.0
 40
0.0
 40
1.0
 40
1.0
 40
1.0
 40
2.0
 40
2.0
 40
2.0
 40
3.0
 40
3.0
 40
3.0
 40
4.0
 40
4.0
 40
4.0
 40
5.0
 40
5.0
 40
5.0
 40
6.0
 40
6.0
 40
6.0
 40
7.0
 40
7.0
 40
7.0
 40
8.0
 40
8.0
 40
8.0
 40
8.0
 10
75.73422307134423
 20
-128.2948391063811
 10
75.48066404362984
 20
-128.3757988502845
 10
75.19678817564525
 20
-128.3220553607146
 10
75.09067923469955
 20
-127.989603646388
 10
75.01282007673291
 20
-127.7456908860323
 10
75.11892901767861
 20
-127.6120211812046
 10
75.20126679977608
 20
-127.5215874247168
 10
75.06449650901166
 20
-127.5029839090965
 10
74.95700952987187
 20
-127.417373286288
 10
74.90808917398131
 20
-127.2640665371944
 10
74.82471786323826
 20
-127.0022392803154
 10
74.97285696910401
 20
-126.8125867738524
 10
75.234684225983
 20
-126.7290432083351
 10
75.50477971202659
 20
-126.6427435664296
 10
75.73008895676193
 20
-126.7219807625903
 10
75.8110487006653
 20
-126.9758842998533
 10
75.85996905655584
 20
-127.1291910489469
 10
75.82035045847547
 20
-127.261827225129
 10
75.71906465120912
 20
-127.3563950961991
 10
75.8193169298299
 20
-127.3775824334334
 10
75.99949542370847
 20
-127.419957107902
 10
76.07907712941774
 20
-127.6700710401311
 10
76.1931097899795
 20
-128.0266384228545
 10
75.96228839246777
 20
-128.2221475916424
 10
75.73422307134423
 20
-128.2948391063811
 97
        0
 97
        0
 92
        1
 93
        1
 72
     4
 94
        3
 73
     0
 74
     1
 95
       17
 96
       13
 40
0.0
 40
0.0
 40
0.0
 40
0.0
 40
1.0
 40
1.0
 40
1.0
 40
2.0
 40
2.0
 40
2.0
 40
3.0
 40
3.0
 40
3.0
 40
4.0
 40
4.0
 40
4.0
 40
4.0
 10
75.29325084923225
 20
-126.9126667976989
 10
75.13615449510485
 20
-126.9627929370093
 10
75.08447806282611
 20
-127.0790649096365
 10
75.1258192086491
 20
-127.2079114807848
 10
75.1630262398898
 20
-127.3247002177348
 10
75.2677571426414
 20
-127.4158229933197
 10
75.43656682141864
 20
-127.3619072489755
 10
75.60606551929293
 20
-127.3078192498571
 10
75.63844941685429
 20
-127.1729437616095
 10
75.60124238561359
 20
-127.0561550246596
 10
75.55990123979058
 20
-126.9273084535112
 10
75.44862465561701
 20
-126.8630574227113
 10
75.29325084923225
 20
-126.9126667976989
 97
        0
 97
        0
 92
        1
 93
        1
 72
     4
 94
        3
 73
     0
 74
     1
 95
       17
 96
       13
 40
0.0
 40
0.0
 40
0.0
 40
0.0
 40
1.0
 40
1.0
 40
1.0
 40
2.0
 40
2.0
 40
2.0
 40
3.0
 40
3.0
 40
3.0
 40
4.0
 40
4.0
 40
4.0
 40
4.0
 10
75.49409991602231
 20
-127.541396723757
 10
75.35698511570936
 20
-127.5849771816454
 10
75.23847383101678
 20
-127.713996007568
 10
75.30014104020275
 20
-127.9072658642906
 10
75.36249726848577
 20
-128.1029472878527
 10
75.51408146983677
 20
-128.1608248920049
 10
75.67531193854646
 20
-128.1094929692747
 10
75.85273435603682
 20
-128.0528211485424
 10
75.92025822754772
 20
-127.9026149853855
 10
75.8661702284293
 20
-127.7331162875112
 10
75.79899086646692
 20
-127.5219319342654
 10
75.62122393942803
 20
-127.5009168518053
 10
75.49409991602231
 20
-127.541396723757
 97
        0
 97
        0
 75
     2
 76
     1
 98
        0
  0
ENDBLK
  5
CF
330
CC
100
AcDbEntity
  8
0
100
AcDbBlockEnd
  0
ENDSEC
  0
SECTION
  2
ENTITIES
  0
INSERT
  5
42
330
1F
100
AcDbEntity
  8
_U+30EC_U+30A4_U+30E4_U+30FC 1
100
AcDbBlockReference
  2
block 2
 10
0.0
 20
0.0
 30
0.0
  0
ENDSEC
  0
SECTION
  2
OBJECTS
  0
DICTIONARY
  5
C
330
0
100
AcDbDictionary
281
     1
  3
ACAD_GROUP
350
D
  3
ACAD_LAYOUT
350
1A
  3
ACAD_MATERIAL
350
3B
  3
ACAD_MLEADERSTYLE
350
E5
  3
ACAD_MLINESTYLE
350
17
  3
ACAD_PLOTSETTINGS
350
19
  3
ACAD_PLOTSTYLENAME
350
E
  3
ACAD_TABLESTYLE
350
E4
  3
ACAD_VISUALSTYLE
350
2A
  0
SUN
  5
3F
330
29
100
AcDbSun
 90
        1
290
     0
 63
     7
421
 16777215
 40
1.0
291
     1
 91
  2455826
 92
 54000000
292
     0
 70
     2
 71
   256
280
     1
  0
DICTIONARY
  5
D
102
{ACAD_REACTORS
330
C
102
}
330
C
100
AcDbDictionary
281
     1
  0
DICTIONARY
  5
1A
102
{ACAD_REACTORS
330
C
102
}
330
C
100
AcDbDictionary
281
     1
  3
Layout1
350
1E
  3
Layout2
350
26
  3
Model
350
22
  0
DICTIONARY
  5
3B
102
{ACAD_REACTORS
330
C
102
}
330
C
100
AcDbDictionary
281
     1
  3
ByBlock
350
3D
  3
ByLayer
350
3C
  3
Global
350
3E
  0
DICTIONARY
  5
E5
102
{ACAD_REACTORS
330
C
102
}
330
C
100
AcDbDictionary
281
     1
  0
DICTIONARY
  5
17
102
{ACAD_REACTORS
330
C
102
}
330
C
100
AcDbDictionary
281
     1
  3
Standard
350
18
  0
DICTIONARY
  5
19
102
{ACAD_REACTORS
330
C
102
}
330
C
100
AcDbDictionary
281
     1
  0
ACDBDICTIONARYWDFLT
  5
E
102
{ACAD_REACTORS
330
C
102
}
330
C
100
AcDbDictionary
281
     1
  3
Normal
350
F
100
AcDbDictionaryWithDefault
340
F
  0
DICTIONARY
  5
E4
102
{ACAD_REACTORS
330
C
102
}
330
C
100
AcDbDictionary
281
     1
  0
DICTIONARY
  5
2A
102
{ACAD_REACTORS
330
C
102
}
330
C
100
AcDbDictionary
281
     1
  3
2dWireframe
350
2F
  3
3D Hidden
350
31
  3
3dWireframe
350
30
  3
Basic
350
32
  3
Brighten
350
36
  3
ColorChange
350
3A
  3
Conceptual
350
34
  3
Dim
350
35
  3
Facepattern
350
39
  3
Flat
350
2B
  3
FlatWithEdges
350
2C
  3
Gouraud
350
2D
  3
GouraudWithEdges
350
2E
  3
Linepattern
350
38
  3
Realistic
350
33
  3
Thicken
350
37
  0
LAYOUT
  5
1E
102
{ACAD_REACTORS
330
1A
102
}
330
1A
100
AcDbPlotSettings
  1

  2
none_device
  4

  6

 40
0.0
 41
0.0
 42
0.0
 43
0.0
 44
0.0
 45
0.0
 46
0.0
 47
0.0
 48
0.0
 49
0.0
140
0.0
141
0.0
142
1.0
143
1.0
 70
   688
 72
     0
 73
     0
 74
     5
  7

 75
    16
 76
     0
 77
     2
 78
   300
147
1.0
148
0.0
149
0.0
100
AcDbLayout
  1
Layout1
 70
     1
 71
     1
 10
0.0
 20
0.0
 11
12.0
 21
9.0
 12
0.0
 22
0.0
 32
0.0
 14
1.000000000000000E+20
 24
1.000000000000000E+20
 34
1.000000000000000E+20
 15
-1.000000000000000E+20
 25
-1.000000000000000E+20
 35
-1.000000000000000E+20
146
0.0
 13
0.0
 23
0.0
 33
0.0
 16
1.0
 26
0.0
 36
0.0
 17
0.0
 27
1.0
 37
0.0
 76
     0
330
1B
  0
LAYOUT
  5
26
102
{ACAD_REACTORS
330
1A
102
}
330
1A
100
AcDbPlotSettings
  1

  2
none_device
  4

  6

 40
0.0
 41
0.0
 42
0.0
 43
0.0
 44
0.0
 45
0.0
 46
0.0
 47
0.0
 48
0.0
 49
0.0
140
0.0
141
0.0
142
1.0
143
1.0
 70
   688
 72
     0
 73
     0
 74
     5
  7

 75
    16
 76
     0
 77
     2
 78
   300
147
1.0
148
0.0
149
0.0
100
AcDbLayout
  1
Layout2
 70
     1
 71
     2
 10
0.0
 20
0.0
 11
0.0
 21
0.0
 12
0.0
 22
0.0
 32
0.0
 14
0.0
 24
0.0
 34
0.0
 15
0.0
 25
0.0
 35
0.0
146
0.0
 13
0.0
 23
0.0
 33
0.0
 16
1.0
 26
0.0
 36
0.0
 17
0.0
 27
1.0
 37
0.0
 76
     0
330
23
  0
LAYOUT
  5
22
102
{ACAD_REACTORS
330
1A
102
}
330
1A
100
AcDbPlotSettings
  1

  2
none_device
  4

  6

 40
0.0
 41
0.0
 42
0.0
 43
0.0
 44
0.0
 45
0.0
 46
0.0
 47
0.0
 48
0.0
 49
0.0
140
0.0
141
0.0
142
1.0
143
1.0
 70
  1712
 72
     0
 73
     0
 74
     0
  7

 75
     0
 76
     0
 77
     2
 78
   300
147
1.0
148
0.0
149
0.0
100
AcDbLayout
  1
Model
 70
     1
 71
     0
 10
0.0
 20
0.0
 11
12.0
 21
9.0
 12
0.0
 22
0.0
 32
0.0
 14
1.000000000000000E+20
 24
1.000000000000000E+20
 34
1.000000000000000E+20
 15
-1.000000000000000E+20
 25
-1.000000000000000E+20
 35
-1.000000000000000E+20
146
0.0
 13
0.0
 23
0.0
 33
0.0
 16
1.0
 26
0.0
 36
0.0
 17
0.0
 27
1.0
 37
0.0
 76
     0
330
1F
331
29
  0
MATERIAL
  5
3D
102
{ACAD_REACTORS
330
3B
102
}
330
3B
100
AcDbMaterial
  1
ByBlock
 72
     1
 94
      127
  0
MATERIAL
  5
3C
102
{ACAD_REACTORS
330
3B
102
}
330
3B
100
AcDbMaterial
  1
ByLayer
 72
     1
 94
      127
  0
MATERIAL
  5
3E
102
{ACAD_REACTORS
330
3B
102
}
330
3B
100
AcDbMaterial
  1
Global
 72
     1
 94
      127
  0
MLINESTYLE
  5
18
102
{ACAD_REACTORS
330
17
102
}
330
17
100
AcDbMlineStyle
  2
Standard
 70
     0
  3

 62
   256
 51
90.0
 52
90.0
 71
     2
 49
0.5
 62
   256
  6
BYLAYER
 49
-0.5
 62
   256
  6
BYLAYER
  0
ACDBPLACEHOLDER
  5
F
102
{ACAD_REACTORS
330
E
102
}
330
E
  0
VISUALSTYLE
  5
2F
102
{ACAD_REACTORS
330
2A
102
}
330
2A
100
AcDbVisualStyle
  2
2dWireframe
 70
     4
177
     2
291
     0
 71
     0
176
     1
 72
     2
176
     1
 73
     0
176
     1
 90
        0
176
     1
 40
-0.6
176
     1
 41
-30.0
176
     1
 62
     5
 63
     7
421
 16777215
176
     1
 74
     1
176
     1
 91
        4
176
     1
 64
     7
176
     1
 65
   257
176
     1
 75
     1
176
     1
175
     1
176
     1
 42
1.0
176
     1
 92
        0
176
     1
 66
   257
176
     1
 43
1.0
176
     1
 76
     1
176
     1
 77
     6
176
     1
 78
     2
176
     1
 67
     7
176
     1
 79
     5
176
     1
170
     0
176
     1
171
     0
176
     1
290
     0
176
     1
 93
        1
176
     1
 44
0.0
176
     1
173
     0
176
     1
  0
VISUALSTYLE
  5
31
102
{ACAD_REACTORS
330
2A
102
}
330
2A
100
AcDbVisualStyle
  2
3D Hidden
 70
     6
177
     2
291
     0
 71
     1
176
     1
 72
     2
176
     1
 73
     2
176
     1
 90
        0
176
     1
 40
-0.6
176
     1
 41
-30.0
176
     1
 62
     5
 63
     7
421
 16777215
176
     1
 74
     2
176
     1
 91
        2
176
     1
 64
     7
176
     1
 65
   257
176
     1
 75
     2
176
     1
175
     1
176
     1
 42
40.0
176
     1
 92
        0
176
     1
 66
   257
176
     1
 43
1.0
176
     1
 76
     1
176
     1
 77
     6
176
     1
 78
     2
176
     1
 67
     7
176
     1
 79
     3
176
     1
170
     0
176
     1
171
     0
176
     1
290
     0
176
     1
 93
        1
176
     1
 44
0.0
176
     1
173
     0
176
     1
  0
VISUALSTYLE
  5
30
102
{ACAD_REACTORS
330
2A
102
}
330
2A
100
AcDbVisualStyle
  2
3dWireframe
 70
     5
177
     2
291
     0
 71
     0
176
     1
 72
     2
176
     1
 73
     0
176
     1
 90
        0
176
     1
 40
-0.6
176
     1
 41
-30.0
176
     1
 62
     5
 63
     7
421
 16777215
176
     1
 74
     1
176
     1
 91
        4
176
     1
 64
     7
176
     1
 65
   257
176
     1
 75
     1
176
     1
175
     1
176
     1
 42
1.0
176
     1
 92
        0
176
     1
 66
   257
176
     1
 43
1.0
176
     1
 76
     1
176
     1
 77
     6
176
     1
 78
     2
176
     1
 67
     7
176
     1
 79
     5
176
     1
170
     0
176
     1
171
     0
176
     1
290
     0
176
     1
 93
        1
176
     1
 44
0.0
176
     1
173
     0
176
     1
  0
VISUALSTYLE
  5
32
102
{ACAD_REACTORS
330
2A
102
}
330
2A
100
AcDbVisualStyle
  2
Basic
 70
     7
177
     2
291
     1
 71
     1
176
     1
 72
     0
176
     1
 73
     1
176
     1
 90
        0
176
     1
 40
-0.6
176
     1
 41
-30.0
176
     1
 62
     5
 63
     7
421
 16777215
176
     1
 74
     0
176
     1
 91
        4
176
     1
 64
     7
176
     1
 65
   257
176
     1
 75
     1
176
     1
175
     1
176
     1
 42
1.0
176
     1
 92
        8
176
     1
 66
     7
176
     1
 43
1.0
176
     1
 76
     1
176
     1
 77
     6
176
     1
 78
     2
176
     1
 67
     7
176
     1
 79
     5
176
     1
170
     0
176
     1
171
     0
176
     1
290
     0
176
     1
 93
        1
176
     1
 44
0.0
176
     1
173
     0
176
     1
  0
VISUALSTYLE
  5
36
102
{ACAD_REACTORS
330
2A
102
}
330
2A
100
AcDbVisualStyle
  2
Brighten
 70
    12
177
     2
291
     1
 71
     2
176
     1
 72
     2
176
     1
 73
     0
176
     1
 90
        0
176
     1
 40
-0.6
176
     1
 41
-30.0
176
     1
 62
     5
 63
     7
421
 16777215
176
     1
 74
     1
176
     1
 91
        4
176
     1
 64
     7
176
     1
 65
   257
176
     1
 75
     1
176
     1
175
     1
176
     1
 42
1.0
176
     1
 92
        8
176
     1
 66
     7
176
     1
 43
1.0
176
     1
 76
     1
176
     1
 77
     6
176
     1
 78
     2
176
     1
 67
     7
176
     1
 79
     5
176
     1
170
     0
176
     1
171
     0
176
     1
290
     0
176
     1
 93
        1
176
     1
 44
50.0
176
     1
173
     0
176
     1
  0
VISUALSTYLE
  5
3A
102
{ACAD_REACTORS
330
2A
102
}
330
2A
100
AcDbVisualStyle
  2
ColorChange
 70
    16
177
     2
291
     1
 71
     2
176
     1
 72
     2
176
     1
 73
     3
176
     1
 90
        0
176
     1
 40
-0.6
176
     1
 41
-30.0
176
     1
 62
     5
 63
     8
421
  8421504
176
     1
 74
     1
176
     1
 91
        4
176
     1
 64
     7
176
     1
 65
   257
176
     1
 75
     1
176
     1
175
     1
176
     1
 42
1.0
176
     1
 92
        8
176
     1
 66
     8
424
  8421504
176
     1
 43
1.0
176
     1
 76
     1
176
     1
 77
     6
176
     1
 78
     2
176
     1
 67
     7
176
     1
 79
     5
176
     1
170
     0
176
     1
171
     0
176
     1
290
     0
176
     1
 93
        1
176
     1
 44
0.0
176
     1
173
     0
176
     1
  0
VISUALSTYLE
  5
34
102
{ACAD_REACTORS
330
2A
102
}
330
2A
100
AcDbVisualStyle
  2
Conceptual
 70
     9
177
     2
291
     0
 71
     3
176
     1
 72
     2
176
     1
 73
     0
176
     1
 90
        0
176
     1
 40
-0.6
176
     1
 41
-30.0
176
     1
 62
     5
 63
     7
421
 16777215
176
     1
 74
     2
176
     1
 91
        2
176
     1
 64
     7
176
     1
 65
   257
176
     1
 75
     1
176
     1
175
     1
176
     1
 42
40.0
176
     1
 92
        8
176
     1
 66
     7
176
     1
 43
1.0
176
     1
 76
     1
176
     1
 77
     6
176
     1
 78
     2
176
     1
 67
     7
176
     1
 79
     3
176
     1
170
     0
176
     1
171
     0
176
     1
290
     0
176
     1
 93
        1
176
     1
 44
0.0
176
     1
173
     0
176
     1
  0
VISUALSTYLE
  5
35
102
{ACAD_REACTORS
330
2A
102
}
330
2A
100
AcDbVisualStyle
  2
Dim
 70
    11
177
     2
291
     1
 71
     2
176
     1
 72
     2
176
     1
 73
     0
176
     1
 90
        0
176
     1
 40
-0.6
176
     1
 41
-30.0
176
     1
 62
     5
 63
     7
421
 16777215
176
     1
 74
     1
176
     1
 91
        4
176
     1
 64
     7
176
     1
 65
   257
176
     1
 75
     1
176
     1
175
     1
176
     1
 42
1.0
176
     1
 92
        8
176
     1
 66
     7
176
     1
 43
1.0
176
     1
 76
     1
176
     1
 77
     6
176
     1
 78
     2
176
     1
 67
     7
176
     1
 79
     5
176
     1
170
     0
176
     1
171
     0
176
     1
290
     0
176
     1
 93
        1
176
     1
 44
-50.0
176
     1
173
     0
176
     1
  0
VISUALSTYLE
  5
39
102
{ACAD_REACTORS
330
2A
102
}
330
2A
100
AcDbVisualStyle
  2
Facepattern
 70
    15
177
     2
291
     1
 71
     2
176
     1
 72
     2
176
     1
 73
     0
176
     1
 90
        0
176
     1
 40
-0.6
176
     1
 41
-30.0
176
     1
 62
     5
 63
     7
421
 16777215
176
     1
 74
     1
176
     1
 91
        4
176
     1
 64
     7
176
     1
 65
   257
176
     1
 75
     1
176
     1
175
     1
176
     1
 42
1.0
176
     1
 92
        8
176
     1
 66
     7
176
     1
 43
1.0
176
     1
 76
     1
176
     1
 77
     6
176
     1
 78
     2
176
     1
 67
     7
176
     1
 79
     5
176
     1
170
     0
176
     1
171
     0
176
     1
290
     0
176
     1
 93
        1
176
     1
 44
0.0
176
     1
173
     0
176
     1
  0
VISUALSTYLE
  5
2B
102
{ACAD_REACTORS
330
2A
102
}
330
2A
100
AcDbVisualStyle
  2
Flat
 70
     0
177
     2
291
     1
 71
     2
176
     1
 72
     1
176
     1
 73
     1
176
     1
 90
        2
176
     1
 40
-0.6
176
     1
 41
30.0
176
     1
 62
     5
 63
     7
421
 16777215
176
     1
 74
     0
176
     1
 91
        4
176
     1
 64
     7
176
     1
 65
   257
176
     1
 75
     1
176
     1
175
     1
176
     1
 42
1.0
176
     1
 92
        8
176
     1
 66
     7
176
     1
 43
1.0
176
     1
 76
     1
176
     1
 77
     6
176
     1
 78
     2
176
     1
 67
     7
176
     1
 79
     5
176
     1
170
     0
176
     1
171
     0
176
     1
290
     0
176
     1
 93
       13
176
     1
 44
0.0
176
     1
173
     0
176
     1
  0
VISUALSTYLE
  5
2C
102
{ACAD_REACTORS
330
2A
102
}
330
2A
100
AcDbVisualStyle
  2
FlatWithEdges
 70
     1
177
     2
291
     1
 71
     2
176
     1
 72
     1
176
     1
 73
     1
176
     1
 90
        2
176
     1
 40
-0.6
176
     1
 41
30.0
176
     1
 62
     5
 63
     7
421
 16777215
176
     1
 74
     1
176
     1
 91
        4
176
     1
 64
     7
176
     1
 65
   257
176
     1
 75
     1
176
     1
175
     1
176
     1
 42
1.0
176
     1
 92
        0
176
     1
 66
   257
176
     1
 43
1.0
176
     1
 76
     1
176
     1
 77
     6
176
     1
 78
     2
176
     1
 67
     7
176
     1
 79
     5
176
     1
170
     0
176
     1
171
     0
176
     1
290
     0
176
     1
 93
       13
176
     1
 44
0.0
176
     1
173
     0
176
     1
  0
VISUALSTYLE
  5
2D
102
{ACAD_REACTORS
330
2A
102
}
330
2A
100
AcDbVisualStyle
  2
Gouraud
 70
     2
177
     2
291
     1
 71
     2
176
     1
 72
     2
176
     1
 73
     1
176
     1
 90
        2
176
     1
 40
-0.6
176
     1
 41
30.0
176
     1
 62
     5
 63
     7
421
 16777215
176
     1
 74
     0
176
     1
 91
        4
176
     1
 64
     7
176
     1
 65
   257
176
     1
 75
     1
176
     1
175
     1
176
     1
 42
1.0
176
     1
 92
        0
176
     1
 66
     7
176
     1
 43
1.0
176
     1
 76
     1
176
     1
 77
     6
176
     1
 78
     2
176
     1
 67
     7
176
     1
 79
     5
176
     1
170
     0
176
     1
171
     0
176
     1
290
     0
176
     1
 93
       13
176
     1
 44
0.0
176
     1
173
     0
176
     1
  0
VISUALSTYLE
  5
2E
102
{ACAD_REACTORS
330
2A
102
}
330
2A
100
AcDbVisualStyle
  2
GouraudWithEdges
 70
     3
177
     2
291
     1
 71
     2
176
     1
 72
     2
176
     1
 73
     1
176
     1
 90
        2
176
     1
 40
-0.6
176
     1
 41
30.0
176
     1
 62
     5
 63
     7
421
 16777215
176
     1
 74
     1
176
     1
 91
        4
176
     1
 64
     7
176
     1
 65
   257
176
     1
 75
     1
176
     1
175
     1
176
     1
 42
1.0
176
     1
 92
        0
176
     1
 66
   257
176
     1
 43
1.0
176
     1
 76
     1
176
     1
 77
     6
176
     1
 78
     2
176
     1
 67
     7
176
     1
 79
     5
176
     1
170
     0
176
     1
171
     0
176
     1
290
     0
176
     1
 93
       13
176
     1
 44
0.0
176
     1
173
     0
176
     1
  0
VISUALSTYLE
  5
38
102
{ACAD_REACTORS
330
2A
102
}
330
2A
100
AcDbVisualStyle
  2
Linepattern
 70
    14
177
     2
291
     1
 71
     2
176
     1
 72
     2
176
     1
 73
     0
176
     1
 90
        0
176
     1
 40
-0.6
176
     1
 41
-30.0
176
     1
 62
     5
 63
     7
421
 16777215
176
     1
 74
     1
176
     1
 91
        4
176
     1
 64
     7
176
     1
 65
   257
176
     1
 75
     7
176
     1
175
     7
176
     1
 42
1.0
176
     1
 92
        8
176
     1
 66
     7
176
     1
 43
1.0
176
     1
 76
     1
176
     1
 77
     6
176
     1
 78
     2
176
     1
 67
     7
176
     1
 79
     5
176
     1
170
     0
176
     1
171
     0
176
     1
290
     0
176
     1
 93
        1
176
     1
 44
0.0
176
     1
173
     0
176
     1
  0
VISUALSTYLE
  5
33
102
{ACAD_REACTORS
330
2A
102
}
330
2A
100
AcDbVisualStyle
  2
Realistic
 70
     8
177
     2
291
     0
 71
     2
176
     1
 72
     2
176
     1
 73
     0
176
     1
 90
        0
176
     1
 40
-0.6
176
     1
 41
-30.0
176
     1
 62
     5
 63
     7
421
 16777215
176
     1
 74
     1
176
     1
 91
        0
176
     1
 64
     7
176
     1
 65
   257
176
     1
 75
     1
176
     1
175
     1
176
     1
 42
1.0
176
     1
 92
        8
176
     1
 66
     8
424
  7895160
176
     1
 43
1.0
176
     1
 76
     1
176
     1
 77
     6
176
     1
 78
     2
176
     1
 67
     7
176
     1
 79
     5
176
     1
170
     0
176
     1
171
     0
176
     1
290
     0
176
     1
 93
       13
176
     1
 44
0.0
176
     1
173
     0
176
     1
  0
VISUALSTYLE
  5
37
102
{ACAD_REACTORS
330
2A
102
}
330
2A
100
AcDbVisualStyle
  2
Thicken
 70
    13
177
     2
291
     1
 71
     2
176
     1
 72
     2
176
     1
 73
     0
176
     1
 90
        0
176
     1
 40
-0.6
176
     1
 41
-30.0
176
     1
 62
     5
 63
     7
421
 16777215
176
     1
 74
     1
176
     1
 91
        4
176
     1
 64
     7
176
     1
 65
   257
176
     1
 75
     1
176
     1
175
     1
176
     1
 42
1.0
176
     1
 92
       12
176
     1
 66
     7
176
     1
 43
1.0
176
     1
 76
     1
176
     1
 77
     6
176
     1
 78
     2
176
     1
 67
     7
176
     1
 79
     5
176
     1
170
     0
176
     1
171
     0
176
     1
290
     0
176
     1
 93
        1
176
     1
 44
0.0
176
     1
173
     0
176
     1
  0
ENDSEC
  0
EOF
