  0
SECTION
  2
HEADER
  9
$ACADVER
  1
AC1024
  9
$ACADMAINTVER
 70
     6
  9
$DWGCODEPAGE
  3
UNDEFINED
  9
$INSBASE
 10
0.0
 20
0.0
 30
0.0
  9
$EXTMIN
 10
1.000000000000000E+20
 20
1.000000000000000E+20
 30
1.000000000000000E+20
  9
$EXTMAX
 10
-1.000000000000000E+20
 20
-1.000000000000000E+20
 30
-1.000000000000000E+20
  9
$LIMMIN
 10
0.0
 20
0.0
  9
$LIMMAX
 10
12.0
 20
9.0
  9
$ORTHOMODE
 70
     0
  9
$REGENMODE
 70
     1
  9
$FILLMODE
 70
     1
  9
$QTEXTMODE
 70
     0
  9
$MIRRTEXT
 70
     1
  9
$LTSCALE
 40
1.0
  9
$ATTMODE
 70
     1
  9
$TEXTSIZE
 40
0.2
  9
$TRACEWID
 40
0.05
  9
$TEXTSTYLE
  7
Standard
  9
$CLAYER
  8
0
  9
$CELTYPE
  6
ByLayer
  9
$CECOLOR
 62
   256
  9
$CELTSCALE
 40
1.0
  9
$DISPSILH
 70
     0
  9
$DIMSCALE
 40
1.0
  9
$DIMASZ
 40
0.18
  9
$DIMEXO
 40
0.0625
  9
$DIMDLI
 40
0.38
  9
$DIMRND
 40
0.0
  9
$DIMDLE
 40
0.0
  9
$DIMEXE
 40
0.18
  9
$DIMTP
 40
0.0
  9
$DIMTM
 40
0.0
  9
$DIMTXT
 40
0.18
  9
$DIMCEN
 40
0.09
  9
$DIMTSZ
 40
0.0
  9
$DIMTOL
 70
     0
  9
$DIMLIM
 70
     0
  9
$DIMTIH
 70
     1
  9
$DIMTOH
 70
     1
  9
$DIMSE1
 70
     0
  9
$DIMSE2
 70
     0
  9
$DIMTAD
 70
     0
  9
$DIMZIN
 70
     0
  9
$DIMBLK
  1

  9
$DIMASO
 70
     1
  9
$DIMSHO
 70
     1
  9
$DIMPOST
  1

  9
$DIMAPOST
  1

  9
$DIMALT
 70
     0
  9
$DIMALTD
 70
     2
  9
$DIMALTF
 40
25.4
  9
$DIMLFAC
 40
1.0
  9
$DIMTOFL
 70
     0
  9
$DIMTVP
 40
0.0
  9
$DIMTIX
 70
     0
  9
$DIMSOXD
 70
     0
  9
$DIMSAH
 70
     0
  9
$DIMBLK1
  1

  9
$DIMBLK2
  1

  9
$DIMSTYLE
  2
Standard
  9
$DIMCLRD
 70
     0
  9
$DIMCLRE
 70
     0
  9
$DIMCLRT
 70
     0
  9
$DIMTFAC
 40
1.0
  9
$DIMGAP
 40
0.09
  9
$DIMJUST
 70
     0
  9
$DIMSD1
 70
     0
  9
$DIMSD2
 70
     0
  9
$DIMTOLJ
 70
     1
  9
$DIMTZIN
 70
     0
  9
$DIMALTZ
 70
     0
  9
$DIMALTTZ
 70
     0
  9
$DIMUPT
 70
     0
  9
$DIMDEC
 70
     4
  9
$DIMTDEC
 70
     4
  9
$DIMALTU
 70
     2
  9
$DIMALTTD
 70
     2
  9
$DIMTXSTY
  7
Standard
  9
$DIMAUNIT
 70
     0
  9
$DIMADEC
 70
     0
  9
$DIMALTRND
 40
0.0
  9
$DIMAZIN
 70
     0
  9
$DIMDSEP
 70
    46
  9
$DIMATFIT
 70
     3
  9
$DIMFRAC
 70
     0
  9
$DIMLDRBLK
  1

  9
$DIMLUNIT
 70
     2
  9
$DIMLWD
 70
    -2
  9
$DIMLWE
 70
    -2
  9
$DIMTMOVE
 70
     0
  9
$DIMFXL
 40
1.0
  9
$DIMFXLON
 70
     0
  9
$DIMJOGANG
 40
0.7853981633974483
  9
$DIMTFILL
 70
     0
  9
$DIMTFILLCLR
 70
     0
  9
$DIMARCSYM
 70
     0
  9
$DIMLTYPE
  6

  9
$DIMLTEX1
  6

  9
$DIMLTEX2
  6

  9
$DIMTXTDIRECTION
 70
     0
  9
$LUNITS
 70
     2
  9
$LUPREC
 70
     4
  9
$SKETCHINC
 40
0.1
  9
$FILLETRAD
 40
0.5
  9
$AUNITS
 70
     0
  9
$AUPREC
 70
     0
  9
$MENU
  1
.
  9
$ELEVATION
 40
0.0
  9
$PELEVATION
 40
0.0
  9
$THICKNESS
 40
0.0
  9
$LIMCHECK
 70
     0
  9
$CHAMFERA
 40
0.5
  9
$CHAMFERB
 40
0.5
  9
$CHAMFERC
 40
1.0
  9
$CHAMFERD
 40
0.0
  9
$SKPOLY
 70
     0
  9
$TDCREATE
 40
2457917.585555556
  9
$TDUCREATE
 40
2457917.210555556
  9
$TDUPDATE
 40
2457917.585555556
  9
$TDUUPDATE
 40
2457917.210555556
  9
$TDINDWG
 40
0.0000000116
  9
$TDUSRTIMER
 40
0.0000000116
  9
$USRTIMER
 70
     1
  9
$ANGBASE
 50
0.0
  9
$ANGDIR
 70
     0
  9
$PDMODE
 70
     0
  9
$PDSIZE
 40
0.0
  9
$PLINEWID
 40
0.0
  9
$SPLFRAME
 70
     0
  9
$SPLINETYPE
 70
     6
  9
$SPLINESEGS
 70
     8
  9
$HANDSEED
  5
16F
  9
$SURFTAB1
 70
     6
  9
$SURFTAB2
 70
     6
  9
$SURFTYPE
 70
     6
  9
$SURFU
 70
     6
  9
$SURFV
 70
     6
  9
$UCSBASE
  2

  9
$UCSNAME
  2

  9
$UCSORG
 10
0.0
 20
0.0
 30
0.0
  9
$UCSXDIR
 10
1.0
 20
0.0
 30
0.0
  9
$UCSYDIR
 10
0.0
 20
1.0
 30
0.0
  9
$UCSORTHOREF
  2

  9
$UCSORTHOVIEW
 70
     0
  9
$UCSORGTOP
 10
0.0
 20
0.0
 30
0.0
  9
$UCSORGBOTTOM
 10
0.0
 20
0.0
 30
0.0
  9
$UCSORGLEFT
 10
0.0
 20
0.0
 30
0.0
  9
$UCSORGRIGHT
 10
0.0
 20
0.0
 30
0.0
  9
$UCSORGFRONT
 10
0.0
 20
0.0
 30
0.0
  9
$UCSORGBACK
 10
0.0
 20
0.0
 30
0.0
  9
$PUCSBASE
  2

  9
$PUCSNAME
  2

  9
$PUCSORG
 10
0.0
 20
0.0
 30
0.0
  9
$PUCSXDIR
 10
1.0
 20
0.0
 30
0.0
  9
$PUCSYDIR
 10
0.0
 20
1.0
 30
0.0
  9
$PUCSORTHOREF
  2

  9
$PUCSORTHOVIEW
 70
     0
  9
$PUCSORGTOP
 10
0.0
 20
0.0
 30
0.0
  9
$PUCSORGBOTTOM
 10
0.0
 20
0.0
 30
0.0
  9
$PUCSORGLEFT
 10
0.0
 20
0.0
 30
0.0
  9
$PUCSORGRIGHT
 10
0.0
 20
0.0
 30
0.0
  9
$PUCSORGFRONT
 10
0.0
 20
0.0
 30
0.0
  9
$PUCSORGBACK
 10
0.0
 20
0.0
 30
0.0
  9
$USERI1
 70
     0
  9
$USERI2
 70
     0
  9
$USERI3
 70
     0
  9
$USERI4
 70
     0
  9
$USERI5
 70
     0
  9
$USERR1
 40
0.0
  9
$USERR2
 40
0.0
  9
$USERR3
 40
0.0
  9
$USERR4
 40
0.0
  9
$USERR5
 40
0.0
  9
$WORLDVIEW
 70
     1
  9
$SHADEDGE
 70
     3
  9
$SHADEDIF
 70
    70
  9
$TILEMODE
 70
     1
  9
$MAXACTVP
 70
    64
  9
$PINSBASE
 10
0.0
 20
0.0
 30
0.0
  9
$PLIMCHECK
 70
     0
  9
$PEXTMIN
 10
1.000000000000000E+20
 20
1.000000000000000E+20
 30
1.000000000000000E+20
  9
$PEXTMAX
 10
-1.000000000000000E+20
 20
-1.000000000000000E+20
 30
-1.000000000000000E+20
  9
$PLIMMIN
 10
0.0
 20
0.0
  9
$PLIMMAX
 10
12.0
 20
9.0
  9
$UNITMODE
 70
     0
  9
$VISRETAIN
 70
     1
  9
$PLINEGEN
 70
     0
  9
$PSLTSCALE
 70
     1
  9
$TREEDEPTH
 70
  3020
  9
$CMLSTYLE
  2
Standard
  9
$CMLJUST
 70
     0
  9
$CMLSCALE
 40
1.0
  9
$PROXYGRAPHICS
 70
     1
  9
$MEASUREMENT
 70
     0
  9
$CELWEIGHT
370
    -1
  9
$ENDCAPS
280
     0
  9
$JOINSTYLE
280
     0
  9
$LWDISPLAY
290
     1
  9
$INSUNITS
 70
     1
  9
$HYPERLINKBASE
  1

  9
$STYLESHEET
  1

  9
$XEDIT
290
     1
  9
$CEPSNTYPE
380
     0
  9
$PSTYLEMODE
290
     1
  9
$FINGERPRINTGUID
  2
{D3271915-54DF-F116-A5A8-4A918165D96C}
  9
$VERSIONGUID
  2
{FAEB1C32-E019-11D5-929B-00C0DF256EC4}
  9
$EXTNAMES
290
     1
  9
$PSVPSCALE
 40
0.0
  9
$OLESTARTUP
290
     0
  9
$SORTENTS
280
   127
  9
$INDEXCTL
280
     0
  9
$HIDETEXT
280
     1
  9
$XCLIPFRAME
280
     2
  9
$HALOGAP
280
     0
  9
$OBSCOLOR
 70
   257
  9
$OBSLTYPE
280
     0
  9
$INTERSECTIONDISPLAY
280
     0
  9
$INTERSECTIONCOLOR
 70
   257
  9
$DIMASSOC
280
     2
  9
$PROJECTNAME
  1

  9
$CAMERADISPLAY
290
     0
  9
$LENSLENGTH
 40
50.0
  9
$CAMERAHEIGHT
 40
0.0
  9
$STEPSPERSEC
 40
2.0
  9
$STEPSIZE
 40
6.0
  9
$3DDWFPREC
 40
2.0
  9
$PSOLWIDTH
 40
0.25
  9
$PSOLHEIGHT
 40
4.0
  9
$LOFTANG1
 40
1.570796326794897
  9
$LOFTANG2
 40
1.570796326794897
  9
$LOFTMAG1
 40
0.0
  9
$LOFTMAG2
 40
0.0
  9
$LOFTPARAM
 70
     7
  9
$LOFTNORMALS
280
     1
  9
$LATITUDE
 40
37.795
  9
$LONGITUDE
 40
-122.394
  9
$NORTHDIRECTION
 40
0.0
  9
$TIMEZONE
 70
 -8000
  9
$LIGHTGLYPHDISPLAY
280
     1
  9
$TILEMODELIGHTSYNCH
280
     1
  9
$CMATERIAL
347
3C
  9
$SOLIDHIST
280
     1
  9
$SHOWHIST
280
     1
  9
$DWFFRAME
280
     2
  9
$DGNFRAME
280
     2
  9
$REALWORLDSCALE
290
     1
  9
$INTERFERECOLOR
 62
   256
  9
$CSHADOW
280
     0
  9
$SHADOWPLANELOCATION
 40
0.0
  0
ENDSEC
  0
SECTION
  2
CLASSES
  0
CLASS
  1
ACDBDICTIONARYWDFLT
  2
AcDbDictionaryWithDefault
  3
ObjectDBX Classes
 90
        0
 91
        4
280
     0
281
     0
  0
CLASS
  1
VISUALSTYLE
  2
AcDbVisualStyle
  3
ObjectDBX Classes
 90
     4095
 91
        4
280
     0
281
     0
  0
CLASS
  1
MATERIAL
  2
AcDbMaterial
  3
ObjectDBX Classes
 90
     1153
 91
        4
280
     0
281
     0
  0
CLASS
  1
SUN
  2
AcDbSun
  3
SCENEOE
 90
     1024
 91
        4
280
     0
281
     0
  0
ENDSEC
  0
SECTION
  2
TABLES
  0
TABLE
  2
VPORT
  5
8
330
0
100
AcDbSymbolTable
 70
     1
  0
VPORT
  5
29
330
8
100
AcDbSymbolTableRecord
100
AcDbViewportTableRecord
  2
*Active
 70
     0
 10
0.0
 20
0.0
 11
1.0
 21
1.0
 12
0.0
 22
0.0
 13
0.0
 23
0.0
 14
0.5
 24
0.5
 15
0.5
 25
0.5
 16
0.0
 26
0.0
 36
1.0
 17
91.00082462281999
 27
-128.4993055234307
 37
0.0
 40
256.9986110468615
 41
0.7081814508812795
 42
50.0
 43
0.0
 44
0.0
 50
0.0
 51
0.0
 71
     0
 72
   100
 73
     1
 74
     3
 75
     0
 76
     0
 77
     0
 78
     0
281
     0
 65
     1
110
0.0
120
0.0
130
0.0
111
1.0
121
0.0
131
0.0
112
0.0
122
1.0
132
0.0
 79
     0
146
0.0
 60
     3
 61
     5
292
     1
282
     1
141
0.0
142
0.0
 63
   250
361
3F
  0
ENDTAB
  0
TABLE
  2
LTYPE
  5
5
330
0
100
AcDbSymbolTable
 70
     3
  0
LTYPE
  5
14
330
5
100
AcDbSymbolTableRecord
100
AcDbLinetypeTableRecord
  2
ByBlock
 70
     0
  3

 72
    65
 73
     0
 40
0.0
  0
LTYPE
  5
15
330
5
100
AcDbSymbolTableRecord
100
AcDbLinetypeTableRecord
  2
ByLayer
 70
     0
  3

 72
    65
 73
     0
 40
0.0
  0
LTYPE
  5
16
330
5
100
AcDbSymbolTableRecord
100
AcDbLinetypeTableRecord
  2
Continuous
 70
     0
  3
Solid line
 72
    65
 73
     0
 40
0.0
  0
LTYPE
  5
124
330
5
100
AcDbSymbolTableRecord
100
AcDbLinetypeTableRecord
  2
AI-Linetype-1
 70
     0
  3
Adobe Illustrator Linetype No. 1
 72
    65
 73
     2
 40
1.411111110758333
 49
0.7055555553791667
 74
     0
 49
-0.7055555553791667
 74
     0
  0
LTYPE
  5
129
330
5
100
AcDbSymbolTableRecord
100
AcDbLinetypeTableRecord
  2
AI-Linetype-2
 70
     0
  3
Adobe Illustrator Linetype No. 2
 72
    65
 73
     2
 40
1.411111110758333
 49
0.7055555553791667
 74
     0
 49
-0.7055555553791667
 74
     0
  0
ENDTAB
  0
TABLE
  2
LAYER
  5
2
330
0
100
AcDbSymbolTable
 70
     2
  0
LAYER
  5
10
330
2
100
AcDbSymbolTableRecord
100
AcDbLayerTableRecord
  2
0
 70
     0
 62
     7
  6
Continuous
370
    -3
390
F
347
3E
  0
LAYER
  5
40
330
2
100
AcDbSymbolTableRecord
100
AcDbLayerTableRecord
  2
_U+30EC_U+30A4_U+30E4_U+30FC 1
 70
     0
 62
     7
  6
Continuous
370
    -3
390
F
347
3E
  0
ENDTAB
  0
TABLE
  2
STYLE
  5
3
330
0
100
AcDbSymbolTable
 70
     1
  0
STYLE
  5
11
330
3
100
AcDbSymbolTableRecord
100
AcDbTextStyleTableRecord
  2
Standard
 70
     0
 40
0.0
 41
1.0
 50
0.0
 71
     0
 42
0.2
  3
txt
  4

  0
ENDTAB
  0
TABLE
  2
VIEW
  5
6
330
0
100
AcDbSymbolTable
 70
     0
  0
ENDTAB
  0
TABLE
  2
UCS
  5
7
330
0
100
AcDbSymbolTable
 70
     0
  0
ENDTAB
  0
TABLE
  2
APPID
  5
9
330
0
100
AcDbSymbolTable
 70
     1
  0
APPID
  5
12
330
9
100
AcDbSymbolTableRecord
100
AcDbRegAppTableRecord
  2
ACAD
 70
     0
  0
ENDTAB
  0
TABLE
  2
DIMSTYLE
  5
A
330
0
100
AcDbSymbolTable
 70
     1
100
AcDbDimStyleTable
  0
DIMSTYLE
105
27
330
A
100
AcDbSymbolTableRecord
100
AcDbDimStyleTableRecord
  2
Standard
 70
     0
178
     0
340
11
  0
ENDTAB
  0
TABLE
  2
BLOCK_RECORD
  5
1
330
0
100
AcDbSymbolTable
 70
     6
  0
BLOCK_RECORD
  5
1F
330
1
100
AcDbSymbolTableRecord
100
AcDbBlockTableRecord
  2
*Model_Space
340
22
 70
     0
280
     1
281
     0
  0
BLOCK_RECORD
  5
1B
330
1
100
AcDbSymbolTableRecord
100
AcDbBlockTableRecord
  2
*Paper_Space
340
1E
 70
     0
280
     1
281
     0
  0
BLOCK_RECORD
  5
23
330
1
100
AcDbSymbolTableRecord
100
AcDbBlockTableRecord
  2
*Paper_Space0
340
26
 70
     0
280
     1
281
     0
  0
BLOCK_RECORD
  5
41
330
1
100
AcDbSymbolTableRecord
100
AcDbBlockTableRecord
  2
block 2
340
0
102
{BLKREFS
331
42
102
}
 70
     0
280
     1
281
     0
  0
BLOCK_RECORD
  5
77
330
1
100
AcDbSymbolTableRecord
100
AcDbBlockTableRecord
  2
block 3
340
0
102
{BLKREFS
331
78
102
}
 70
     0
280
     1
281
     0
  0
BLOCK_RECORD
  5
DD
330
1
100
AcDbSymbolTableRecord
100
AcDbBlockTableRecord
  2
block 4
340
0
102
{BLKREFS
331
DE
102
}
 70
     0
280
     1
281
     0
  0
BLOCK_RECORD
  5
105
330
1
100
AcDbSymbolTableRecord
100
AcDbBlockTableRecord
  2
block 5
340
0
102
{BLKREFS
331
106
102
}
 70
     0
280
     1
281
     0
  0
BLOCK_RECORD
  5
145
330
1
100
AcDbSymbolTableRecord
100
AcDbBlockTableRecord
  2
block 6
340
0
102
{BLKREFS
331
146
102
}
 70
     0
280
     1
281
     0
  0
ENDTAB
  0
ENDSEC
  0
SECTION
  2
BLOCKS
  0
BLOCK
  5
20
330
1F
100
AcDbEntity
  8
0
100
AcDbBlockBegin
  2
*Model_Space
 70
     0
 10
0.0
 20
0.0
 30
0.0
  3
*Model_Space
  1

  0
ENDBLK
  5
21
330
1F
100
AcDbEntity
  8
0
100
AcDbBlockEnd
  0
BLOCK
  5
1C
330
1B
100
AcDbEntity
 67
     1
  8
0
100
AcDbBlockBegin
  2
*Paper_Space
 70
     0
 10
0.0
 20
0.0
 30
0.0
  3
*Paper_Space
  1

  0
ENDBLK
  5
1D
330
1B
100
AcDbEntity
 67
     1
  8
0
100
AcDbBlockEnd
  0
BLOCK
  5
24
330
23
100
AcDbEntity
  8
0
100
AcDbBlockBegin
  2
*Paper_Space0
 70
     0
 10
0.0
 20
0.0
 30
0.0
  3
*Paper_Space0
  1

  0
ENDBLK
  5
25
330
23
100
AcDbEntity
  8
0
100
AcDbBlockEnd
  0
BLOCK
  5
43
330
41
100
AcDbEntity
  8
0
100
AcDbBlockBegin
  2
block 2
 70
     0
 10
0.0
 20
0.0
 30
0.0
  3
block 2
  1

  0
POLYLINE
  5
45
330
41
100
AcDbEntity
  8
_U+30EC_U+30A4_U+30E4_U+30FC 1
 62
   179
420
  2234388
370
     9
100
AcDb2dPolyline
 66
     1
 10
0.0
 20
0.0
 30
0.0
  0
VERTEX
  5
46
330
45
100
AcDbEntity
  8
_U+30EC_U+30A4_U+30E4_U+30FC 1
 62
   179
420
  2234388
370
     9
100
AcDbVertex
100
AcDb2dVertex
 10
91.10796323119777
 20
-118.9345121924886
 30
0.0
  0
VERTEX
  5
47
330
45
100
AcDbEntity
  8
_U+30EC_U+30A4_U+30E4_U+30FC 1
 62
   179
420
  2234388
370
     9
100
AcDbVertex
100
AcDb2dVertex
 10
91.10796323119777
 20
-123.5357927468938
 30
0.0
  0
SEQEND
  5
48
330
45
100
AcDbEntity
  8
_U+30EC_U+30A4_U+30E4_U+30FC 1
 62
   179
420
  2234388
370
     9
  0
POLYLINE
  5
49
330
41
100
AcDbEntity
  8
_U+30EC_U+30A4_U+30E4_U+30FC 1
 62
   179
420
  2234388
370
     9
100
AcDb2dPolyline
 66
     1
 10
0.0
 20
0.0
 30
0.0
  0
VERTEX
  5
4A
330
49
100
AcDbEntity
  8
_U+30EC_U+30A4_U+30E4_U+30FC 1
 62
   179
420
  2234388
370
     9
100
AcDbVertex
100
AcDb2dVertex
 10
90.849588793345
 20
-122.5697813582464
 30
0.0
  0
VERTEX
  5
4B
330
49
100
AcDbEntity
  8
_U+30EC_U+30A4_U+30E4_U+30FC 1
 62
   179
420
  2234388
370
     9
100
AcDbVertex
100
AcDb2dVertex
 10
91.10796323119777
 20
-123.5357927468938
 30
0.0
  0
SEQEND
  5
4C
330
49
100
AcDbEntity
  8
_U+30EC_U+30A4_U+30E4_U+30FC 1
 62
   179
420
  2234388
370
     9
  0
POLYLINE
  5
4D
330
41
100
AcDbEntity
  8
_U+30EC_U+30A4_U+30E4_U+30FC 1
 62
   179
420
  2234388
370
     9
100
AcDb2dPolyline
 66
     1
 10
0.0
 20
0.0
 30
0.0
  0
VERTEX
  5
4E
330
4D
100
AcDbEntity
  8
_U+30EC_U+30A4_U+30E4_U+30FC 1
 62
   179
420
  2234388
370
     9
100
AcDbVertex
100
AcDb2dVertex
 10
91.36704322458809
 20
-122.5697813582464
 30
0.0
  0
VERTEX
  5
4F
330
4D
100
AcDbEntity
  8
_U+30EC_U+30A4_U+30E4_U+30FC 1
 62
   179
420
  2234388
370
     9
100
AcDbVertex
100
AcDb2dVertex
 10
91.10796323119777
 20
-123.5357927468938
 30
0.0
  0
SEQEND
  5
50
330
4D
100
AcDbEntity
  8
_U+30EC_U+30A4_U+30E4_U+30FC 1
 62
   179
420
  2234388
370
     9
  0
POLYLINE
  5
51
330
41
100
AcDbEntity
  8
_U+30EC_U+30A4_U+30E4_U+30FC 1
 62
   179
420
  2234388
370
    25
100
AcDb2dPolyline
 66
     1
 10
0.0
 20
0.0
 30
0.0
  0
VERTEX
  5
52
330
51
100
AcDbEntity
  8
_U+30EC_U+30A4_U+30E4_U+30FC 1
 62
   179
420
  2234388
370
    25
100
AcDbVertex
100
AcDb2dVertex
 10
92.50115553243046
 20
-125.3268808020017
 30
0.0
  0
VERTEX
  5
53
330
51
100
AcDbEntity
  8
_U+30EC_U+30A4_U+30E4_U+30FC 1
 62
   179
420
  2234388
370
    25
100
AcDbVertex
100
AcDb2dVertex
 10
129.6082944711947
 20
-137.347007465663
 30
0.0
  0
SEQEND
  5
54
330
51
100
AcDbEntity
  8
_U+30EC_U+30A4_U+30E4_U+30FC 1
 62
   179
420
  2234388
370
    25
  0
POLYLINE
  5
55
330
41
100
AcDbEntity
  8
_U+30EC_U+30A4_U+30E4_U+30FC 1
 62
   179
420
  2234388
370
    25
100
AcDb2dPolyline
 66
     1
 10
0.0
 20
0.0
 30
0.0
  0
VERTEX
  5
56
330
55
100
AcDbEntity
  8
_U+30EC_U+30A4_U+30E4_U+30FC 1
 62
   179
420
  2234388
370
    25
100
AcDbVertex
100
AcDb2dVertex
 10
129.6082944711947
 20
-137.347007465663
 30
0.0
  0
VERTEX
  5
57
330
55
100
AcDbEntity
  8
_U+30EC_U+30A4_U+30E4_U+30FC 1
 62
   179
420
  2234388
370
    25
100
AcDbVertex
100
AcDb2dVertex
 10
129.4842610787398
 20
-137.7273371877903
 30
0.0
  0
SEQEND
  5
58
330
55
100
AcDbEntity
  8
_U+30EC_U+30A4_U+30E4_U+30FC 1
 62
   179
420
  2234388
370
    25
  0
POLYLINE
  5
59
330
41
100
AcDbEntity
  8
_U+30EC_U+30A4_U+30E4_U+30FC 1
 62
   179
420
  2234388
370
    25
100
AcDb2dPolyline
 66
     1
 10
0.0
 20
0.0
 30
0.0
  0
VERTEX
  5
5A
330
59
100
AcDbEntity
  8
_U+30EC_U+30A4_U+30E4_U+30FC 1
 62
   179
420
  2234388
370
    25
100
AcDbVertex
100
AcDb2dVertex
 10
91.95752497701044
 20
-126.5857330239092
 30
0.0
  0
VERTEX
  5
5B
330
59
100
AcDbEntity
  8
_U+30EC_U+30A4_U+30E4_U+30FC 1
 62
   179
420
  2234388
370
    25
100
AcDbVertex
100
AcDb2dVertex
 10
129.4842610787398
 20
-137.7273371877903
 30
0.0
  0
SEQEND
  5
5C
330
59
100
AcDbEntity
  8
_U+30EC_U+30A4_U+30E4_U+30FC 1
 62
   179
420
  2234388
370
    25
  0
POLYLINE
  5
5D
330
41
100
AcDbEntity
  8
_U+30EC_U+30A4_U+30E4_U+30FC 1
 62
   179
420
  2234388
370
    25
100
AcDb2dPolyline
 66
     1
 10
0.0
 20
0.0
 30
0.0
  0
VERTEX
  5
5E
330
5D
100
AcDbEntity
  8
_U+30EC_U+30A4_U+30E4_U+30FC 1
 62
   179
420
  2234388
370
    25
100
AcDbVertex
100
AcDb2dVertex
 10
89.72303053312467
 20
-125.3241291353356
 30
0.0
  0
VERTEX
  5
5F
330
5D
100
AcDbEntity
  8
_U+30EC_U+30A4_U+30E4_U+30FC 1
 62
   179
420
  2234388
370
    25
100
AcDbVertex
100
AcDb2dVertex
 10
52.60798609795912
 20
-137.347007465663
 30
0.0
  0
SEQEND
  5
60
330
5D
100
AcDbEntity
  8
_U+30EC_U+30A4_U+30E4_U+30FC 1
 62
   179
420
  2234388
370
    25
  0
POLYLINE
  5
61
330
41
100
AcDbEntity
  8
_U+30EC_U+30A4_U+30E4_U+30FC 1
 62
   179
420
  2234388
370
    25
100
AcDb2dPolyline
 66
     1
 10
0.0
 20
0.0
 30
0.0
  0
VERTEX
  5
62
330
61
100
AcDbEntity
  8
_U+30EC_U+30A4_U+30E4_U+30FC 1
 62
   179
420
  2234388
370
    25
100
AcDbVertex
100
AcDb2dVertex
 10
52.60798609795912
 20
-137.347007465663
 30
0.0
  0
VERTEX
  5
63
330
61
100
AcDbEntity
  8
_U+30EC_U+30A4_U+30E4_U+30FC 1
 62
   179
420
  2234388
370
    25
100
AcDbVertex
100
AcDb2dVertex
 10
52.73166865470306
 20
-137.7273371877903
 30
0.0
  0
SEQEND
  5
64
330
61
100
AcDbEntity
  8
_U+30EC_U+30A4_U+30E4_U+30FC 1
 62
   179
420
  2234388
370
    25
  0
POLYLINE
  5
65
330
41
100
AcDbEntity
  8
_U+30EC_U+30A4_U+30E4_U+30FC 1
 62
   179
420
  2234388
370
    25
100
AcDb2dPolyline
 66
     1
 10
0.0
 20
0.0
 30
0.0
  0
VERTEX
  5
66
330
65
100
AcDbEntity
  8
_U+30EC_U+30A4_U+30E4_U+30FC 1
 62
   179
420
  2234388
370
    25
100
AcDbVertex
100
AcDb2dVertex
 10
90.25840380842739
 20
-126.5857330239092
 30
0.0
  0
VERTEX
  5
67
330
65
100
AcDbEntity
  8
_U+30EC_U+30A4_U+30E4_U+30FC 1
 62
   179
420
  2234388
370
    25
100
AcDbVertex
100
AcDb2dVertex
 10
52.73166865470306
 20
-137.7273371877903
 30
0.0
  0
SEQEND
  5
68
330
65
100
AcDbEntity
  8
_U+30EC_U+30A4_U+30E4_U+30FC 1
 62
   179
420
  2234388
370
    25
  0
POLYLINE
  5
69
330
41
100
AcDbEntity
  8
_U+30EC_U+30A4_U+30E4_U+30FC 1
 62
   179
420
  2234388
370
    25
100
AcDb2dPolyline
 66
     1
 10
0.0
 20
0.0
 30
0.0
  0
VERTEX
  5
6A
330
69
100
AcDbEntity
  8
_U+30EC_U+30A4_U+30E4_U+30FC 1
 62
   179
420
  2234388
370
    25
100
AcDbVertex
100
AcDb2dVertex
 10
94.37768398111358
 20
-126.061399412929
 30
0.0
  0
VERTEX
  5
6B
330
69
100
AcDbEntity
  8
_U+30EC_U+30A4_U+30E4_U+30FC 1
 62
   179
420
  2234388
370
    25
100
AcDbVertex
100
AcDb2dVertex
 10
94.01767426807596
 20
-127.1414285793256
 30
0.0
  0
SEQEND
  5
6C
330
69
100
AcDbEntity
  8
_U+30EC_U+30A4_U+30E4_U+30FC 1
 62
   179
420
  2234388
370
    25
  0
POLYLINE
  5
6D
330
41
100
AcDbEntity
  8
_U+30EC_U+30A4_U+30E4_U+30FC 1
 62
   179
420
  2234388
370
    25
100
AcDb2dPolyline
 66
     1
 10
0.0
 20
0.0
 30
0.0
  0
VERTEX
  5
6E
330
6D
100
AcDbEntity
  8
_U+30EC_U+30A4_U+30E4_U+30FC 1
 62
   179
420
  2234388
370
    25
100
AcDbVertex
100
AcDb2dVertex
 10
87.82755553359868
 20
-125.9800841351717
 30
0.0
  0
VERTEX
  5
6F
330
6D
100
AcDbEntity
  8
_U+30EC_U+30A4_U+30E4_U+30FC 1
 62
   179
420
  2234388
370
    25
100
AcDbVertex
100
AcDb2dVertex
 10
88.21063469400367
 20
-127.1879246904252
 30
0.0
  0
SEQEND
  5
70
330
6D
100
AcDbEntity
  8
_U+30EC_U+30A4_U+30E4_U+30FC 1
 62
   179
420
  2234388
370
    25
  0
SPLINE
  5
71
330
41
100
AcDbEntity
  8
_U+30EC_U+30A4_U+30E4_U+30FC 1
 62
   179
420
  2234388
370
    25
100
AcDbSpline
210
0.0
220
0.0
230
1.0
 70
     8
 71
     3
 72
     8
 73
     4
 74
     0
 42
0.0000000001
 43
0.0000000001
 12
1.0
 22
0.0
 32
0.0
 13
1.0
 23
0.0
 33
0.0
 40
0.0
 40
0.0
 40
0.0
 40
0.0
 40
1.0
 40
1.0
 40
1.0
 40
1.0
 10
91.95752497701044
 20
-126.5857330239092
 30
0.0
 10
91.40285016811902
 20
-126.4217266350614
 30
0.0
 10
90.81307629427651
 20
-126.4217266350614
 30
0.0
 10
90.25840380842739
 20
-126.5857330239092
 30
0.0
  0
SPLINE
  5
72
330
41
100
AcDbEntity
  8
_U+30EC_U+30A4_U+30E4_U+30FC 1
 62
   179
420
  2234388
370
    25
100
AcDbSpline
210
0.0
220
0.0
230
1.0
 70
     8
 71
     3
 72
     8
 73
     4
 74
     0
 42
0.0000000001
 43
0.0000000001
 12
1.0
 22
0.0
 32
0.0
 13
1.0
 23
0.0
 33
0.0
 40
0.0
 40
0.0
 40
0.0
 40
0.0
 40
1.0
 40
1.0
 40
1.0
 40
1.0
 10
92.49289819586514
 20
-125.3241291353356
 30
0.0
 10
91.59303266326707
 20
-125.0312883020754
 30
0.0
 10
90.62289379912848
 20
-125.0312883020754
 30
0.0
 10
89.72303053312467
 20
-125.3241291353356
 30
0.0
  0
SPLINE
  5
73
330
41
100
AcDbEntity
  8
_U+30EC_U+30A4_U+30E4_U+30FC 1
 62
   179
420
  2234388
370
     9
100
AcDbSpline
210
0.0
220
0.0
230
1.0
 70
    11
 71
     3
 72
    17
 73
    13
 74
     0
 42
0.0000000001
 43
0.0000000001
 12
1.0
 22
0.0
 32
0.0
 13
1.0
 23
0.0
 33
0.0
 40
0.0
 40
0.0
 40
0.0
 40
0.0
 40
1.0
 40
1.0
 40
1.0
 40
2.0
 40
2.0
 40
2.0
 40
3.0
 40
3.0
 40
3.0
 40
4.0
 40
4.0
 40
4.0
 40
4.0
 10
130.9463452703915
 20
-133.5436044110587
 30
0.0
 10
130.9463452703915
 20
-133.4885005221832
 30
0.0
 10
130.9015777715337
 20
-133.4436977444171
 30
0.0
 10
130.845768328513
 20
-133.4436977444171
 30
0.0
 10
130.7906291632531
 20
-133.4436977444171
 30
0.0
 10
130.7458616643952
 20
-133.4885005221832
 30
0.0
 10
130.7458616643952
 20
-133.5436044110587
 30
0.0
 10
130.7458616643952
 20
-133.5987435777112
 30
0.0
 10
130.7906291632531
 20
-133.6435110777004
 30
0.0
 10
130.845768328513
 20
-133.6435110777004
 30
0.0
 10
130.9015777715337
 20
-133.6435110777004
 30
0.0
 10
130.9463452703915
 20
-133.5987435777112
 30
0.0
 10
130.9463452703915
 20
-133.5436044110587
 30
0.0
  0
SPLINE
  5
74
330
41
100
AcDbEntity
  8
_U+30EC_U+30A4_U+30E4_U+30FC 1
 62
   179
420
  2234388
370
     9
100
AcDbSpline
210
0.0
220
0.0
230
1.0
 70
    11
 71
     3
 72
    17
 73
    13
 74
     0
 42
0.0000000001
 43
0.0000000001
 12
1.0
 22
0.0
 32
0.0
 13
1.0
 23
0.0
 33
0.0
 40
0.0
 40
0.0
 40
0.0
 40
0.0
 40
1.0
 40
1.0
 40
1.0
 40
2.0
 40
2.0
 40
2.0
 40
3.0
 40
3.0
 40
3.0
 40
4.0
 40
4.0
 40
4.0
 40
4.0
 10
89.50599938317838
 20
-121.162797747487
 30
0.0
 10
89.50599938317838
 20
-121.1076938586121
 30
0.0
 10
89.46119660654362
 20
-121.0628910808454
 30
0.0
 10
89.40538716352299
 20
-121.0628910808454
 30
0.0
 10
89.35028327603992
 20
-121.0628910808454
 30
0.0
 10
89.30548049940516
 20
-121.1076938586121
 30
0.0
 10
89.30548049940516
 20
-121.162797747487
 30
0.0
 10
89.30548049940516
 20
-121.2179369141401
 30
0.0
 10
89.35028327603992
 20
-121.2627044141287
 30
0.0
 10
89.40538716352299
 20
-121.2627044141287
 30
0.0
 10
89.46119660654362
 20
-121.2627044141287
 30
0.0
 10
89.50599938317838
 20
-121.2179369141401
 30
0.0
 10
89.50599938317838
 20
-121.162797747487
 30
0.0
  0
SPLINE
  5
75
330
41
100
AcDbEntity
  8
_U+30EC_U+30A4_U+30E4_U+30FC 1
 62
   179
420
  2234388
370
     9
100
AcDbSpline
210
0.0
220
0.0
230
1.0
 70
    11
 71
     3
 72
    17
 73
    13
 74
     0
 42
0.0000000001
 43
0.0000000001
 12
1.0
 22
0.0
 32
0.0
 13
1.0
 23
0.0
 33
0.0
 40
0.0
 40
0.0
 40
0.0
 40
0.0
 40
1.0
 40
1.0
 40
1.0
 40
2.0
 40
2.0
 40
2.0
 40
3.0
 40
3.0
 40
3.0
 40
4.0
 40
4.0
 40
4.0
 40
4.0
 10
92.91044596299038
 20
-121.162797747487
 30
0.0
 10
92.91044596299038
 20
-121.1076938586121
 30
0.0
 10
92.86564318635561
 20
-121.0628910808454
 30
0.0
 10
92.81054164346372
 20
-121.0628910808454
 30
0.0
 10
92.7554001336126
 20
-121.0628910808454
 30
0.0
 10
92.71063263475472
 20
-121.1076938586121
 30
0.0
 10
92.71063263475472
 20
-121.162797747487
 30
0.0
 10
92.71063263475472
 20
-121.2179369141401
 30
0.0
 10
92.7554001336126
 20
-121.2627044141287
 30
0.0
 10
92.81054164346372
 20
-121.2627044141287
 30
0.0
 10
92.86564318635561
 20
-121.2627044141287
 30
0.0
 10
92.91044596299038
 20
-121.2179369141401
 30
0.0
 10
92.91044596299038
 20
-121.162797747487
 30
0.0
  0
SPLINE
  5
76
330
41
100
AcDbEntity
  8
_U+30EC_U+30A4_U+30E4_U+30FC 1
 62
   179
420
  2234388
370
     9
100
AcDbSpline
210
0.0
220
0.0
230
1.0
 70
    11
 71
     3
 72
    17
 73
    13
 74
     0
 42
0.0000000001
 43
0.0000000001
 12
1.0
 22
0.0
 32
0.0
 13
1.0
 23
0.0
 33
0.0
 40
0.0
 40
0.0
 40
0.0
 40
0.0
 40
1.0
 40
1.0
 40
1.0
 40
2.0
 40
2.0
 40
2.0
 40
3.0
 40
3.0
 40
3.0
 40
4.0
 40
4.0
 40
4.0
 40
4.0
 10
51.47006479800037
 20
-133.5436044110587
 30
0.0
 10
51.47006479800037
 20
-133.4885005221832
 30
0.0
 10
51.42529729914248
 20
-133.4436977444171
 30
0.0
 10
51.37015813388253
 20
-133.4436977444171
 30
0.0
 10
51.31470276494905
 20
-133.4436977444171
 30
0.0
 10
51.26989998718265
 20
-133.4885005221832
 30
0.0
 10
51.26989998718265
 20
-133.5436044110587
 30
0.0
 10
51.26989998718265
 20
-133.5987435777112
 30
0.0
 10
51.31470276494905
 20
-133.6435110777004
 30
0.0
 10
51.37015813388253
 20
-133.6435110777004
 30
0.0
 10
51.42529729914248
 20
-133.6435110777004
 30
0.0
 10
51.47006479800037
 20
-133.5987435777112
 30
0.0
 10
51.47006479800037
 20
-133.5436044110587
 30
0.0
  0
INSERT
  5
78
330
41
100
AcDbEntity
  8
_U+30EC_U+30A4_U+30E4_U+30FC 1
100
AcDbBlockReference
  2
block 3
 10
0.0
 20
0.0
 30
0.0
  0
POLYLINE
  5
D1
330
41
100
AcDbEntity
  8
_U+30EC_U+30A4_U+30E4_U+30FC 1
 62
   179
420
  2234388
370
     9
100
AcDb2dPolyline
 66
     1
 10
0.0
 20
0.0
 30
0.0
  0
VERTEX
  5
D2
330
D1
100
AcDbEntity
  8
_U+30EC_U+30A4_U+30E4_U+30FC 1
 62
   179
420
  2234388
370
     9
100
AcDbVertex
100
AcDb2dVertex
 10
92.81054164346372
 20
-121.162797747487
 30
0.0
  0
VERTEX
  5
D3
330
D1
100
AcDbEntity
  8
_U+30EC_U+30A4_U+30E4_U+30FC 1
 62
   179
420
  2234388
370
     9
100
AcDbVertex
100
AcDb2dVertex
 10
130.845768328513
 20
-133.5436044110587
 30
0.0
  0
SEQEND
  5
D4
330
D1
100
AcDbEntity
  8
_U+30EC_U+30A4_U+30E4_U+30FC 1
 62
   179
420
  2234388
370
     9
  0
POLYLINE
  5
D5
330
41
100
AcDbEntity
  8
_U+30EC_U+30A4_U+30E4_U+30FC 1
 62
   179
420
  2234388
370
     9
100
AcDb2dPolyline
 66
     1
 10
0.0
 20
0.0
 30
0.0
  0
VERTEX
  5
D6
330
D5
100
AcDbEntity
  8
_U+30EC_U+30A4_U+30E4_U+30FC 1
 62
   179
420
  2234388
370
     9
100
AcDbVertex
100
AcDb2dVertex
 10
91.8941284889188
 20
-123.9774352467834
 30
0.0
  0
VERTEX
  5
D7
330
D5
100
AcDbEntity
  8
_U+30EC_U+30A4_U+30E4_U+30FC 1
 62
   179
420
  2234388
370
     9
100
AcDbVertex
100
AcDb2dVertex
 10
93.11989012431368
 20
-120.2119558032805
 30
0.0
  0
SEQEND
  5
D8
330
D5
100
AcDbEntity
  8
_U+30EC_U+30A4_U+30E4_U+30FC 1
 62
   179
420
  2234388
370
     9
  0
POLYLINE
  5
D9
330
41
100
AcDbEntity
  8
_U+30EC_U+30A4_U+30E4_U+30FC 1
 62
   179
420
  2234388
370
     9
100
AcDb2dPolyline
 66
     1
 10
0.0
 20
0.0
 30
0.0
  0
VERTEX
  5
DA
330
D9
100
AcDbEntity
  8
_U+30EC_U+30A4_U+30E4_U+30FC 1
 62
   179
420
  2234388
370
     9
100
AcDbVertex
100
AcDb2dVertex
 10
130.3944597289157
 20
-134.9319966329334
 30
0.0
  0
VERTEX
  5
DB
330
D9
100
AcDbEntity
  8
_U+30EC_U+30A4_U+30E4_U+30FC 1
 62
   179
420
  2234388
370
     9
100
AcDbVertex
100
AcDb2dVertex
 10
131.1558247094917
 20
-132.5927624668516
 30
0.0
  0
SEQEND
  5
DC
330
D9
100
AcDbEntity
  8
_U+30EC_U+30A4_U+30E4_U+30FC 1
 62
   179
420
  2234388
370
     9
  0
INSERT
  5
DE
330
41
100
AcDbEntity
  8
_U+30EC_U+30A4_U+30E4_U+30FC 1
100
AcDbBlockReference
  2
block 4
 10
0.0
 20
0.0
 30
0.0
  0
POLYLINE
  5
F9
330
41
100
AcDbEntity
  8
_U+30EC_U+30A4_U+30E4_U+30FC 1
 62
   179
420
  2234388
370
     9
100
AcDb2dPolyline
 66
     1
 10
0.0
 20
0.0
 30
0.0
  0
VERTEX
  5
FA
330
F9
100
AcDbEntity
  8
_U+30EC_U+30A4_U+30E4_U+30FC 1
 62
   179
420
  2234388
370
     9
100
AcDbVertex
100
AcDb2dVertex
 10
51.37015813388253
 20
-133.5436044110587
 30
0.0
  0
VERTEX
  5
FB
330
F9
100
AcDbEntity
  8
_U+30EC_U+30A4_U+30E4_U+30FC 1
 62
   179
420
  2234388
370
     9
100
AcDbVertex
100
AcDb2dVertex
 10
89.40538716352299
 20
-121.162797747487
 30
0.0
  0
SEQEND
  5
FC
330
F9
100
AcDbEntity
  8
_U+30EC_U+30A4_U+30E4_U+30FC 1
 62
   179
420
  2234388
370
     9
  0
POLYLINE
  5
FD
330
41
100
AcDbEntity
  8
_U+30EC_U+30A4_U+30E4_U+30FC 1
 62
   179
420
  2234388
370
     9
100
AcDb2dPolyline
 66
     1
 10
0.0
 20
0.0
 30
0.0
  0
VERTEX
  5
FE
330
FD
100
AcDbEntity
  8
_U+30EC_U+30A4_U+30E4_U+30FC 1
 62
   179
420
  2234388
370
     9
100
AcDbVertex
100
AcDb2dVertex
 10
51.82181951124857
 20
-134.9319966329334
 30
0.0
  0
VERTEX
  5
FF
330
FD
100
AcDbEntity
  8
_U+30EC_U+30A4_U+30E4_U+30FC 1
 62
   179
420
  2234388
370
     9
100
AcDbVertex
100
AcDb2dVertex
 10
51.06045453067262
 20
-132.5927624668516
 30
0.0
  0
SEQEND
  5
100
330
FD
100
AcDbEntity
  8
_U+30EC_U+30A4_U+30E4_U+30FC 1
 62
   179
420
  2234388
370
     9
  0
POLYLINE
  5
101
330
41
100
AcDbEntity
  8
_U+30EC_U+30A4_U+30E4_U+30FC 1
 62
   179
420
  2234388
370
     9
100
AcDb2dPolyline
 66
     1
 10
0.0
 20
0.0
 30
0.0
  0
VERTEX
  5
102
330
101
100
AcDbEntity
  8
_U+30EC_U+30A4_U+30E4_U+30FC 1
 62
   179
420
  2234388
370
     9
100
AcDbVertex
100
AcDb2dVertex
 10
90.32179797347673
 20
-123.9774352467834
 30
0.0
  0
VERTEX
  5
103
330
101
100
AcDbEntity
  8
_U+30EC_U+30A4_U+30E4_U+30FC 1
 62
   179
420
  2234388
370
     9
100
AcDbVertex
100
AcDb2dVertex
 10
89.09603633808186
 20
-120.2119558032805
 30
0.0
  0
SEQEND
  5
104
330
101
100
AcDbEntity
  8
_U+30EC_U+30A4_U+30E4_U+30FC 1
 62
   179
420
  2234388
370
     9
  0
INSERT
  5
106
330
41
100
AcDbEntity
  8
_U+30EC_U+30A4_U+30E4_U+30FC 1
100
AcDbBlockReference
  2
block 5
 10
0.0
 20
0.0
 30
0.0
  0
ENDBLK
  5
44
330
41
100
AcDbEntity
  8
0
100
AcDbBlockEnd
  0
BLOCK
  5
79
330
77
100
AcDbEntity
  8
0
100
AcDbBlockBegin
  2
block 3
 70
     0
 10
0.0
 20
0.0
 30
0.0
  3
block 3
  1

  0
SPLINE
  5
7B
330
77
100
AcDbEntity
  8
_U+30EC_U+30A4_U+30E4_U+30FC 1
370
     0
100
AcDbSpline
210
0.0
220
0.0
230
1.0
 70
    11
 71
     3
 72
   197
 73
   193
 74
     0
 42
0.0000000001
 43
0.0000000001
 12
1.0
 22
0.0
 32
0.0
 13
1.0
 23
0.0
 33
0.0
 40
0.0
 40
0.0
 40
0.0
 40
0.0
 40
1.0
 40
1.0
 40
1.0
 40
2.0
 40
2.0
 40
2.0
 40
3.0
 40
3.0
 40
3.0
 40
4.0
 40
4.0
 40
4.0
 40
5.0
 40
5.0
 40
5.0
 40
6.0
 40
6.0
 40
6.0
 40
7.0
 40
7.0
 40
7.0
 40
8.0
 40
8.0
 40
8.0
 40
9.0
 40
9.0
 40
9.0
 40
10.0
 40
10.0
 40
10.0
 40
11.0
 40
11.0
 40
11.0
 40
12.0
 40
12.0
 40
12.0
 40
13.0
 40
13.0
 40
13.0
 40
14.0
 40
14.0
 40
14.0
 40
15.0
 40
15.0
 40
15.0
 40
16.0
 40
16.0
 40
16.0
 40
17.0
 40
17.0
 40
17.0
 40
18.0
 40
18.0
 40
18.0
 40
19.0
 40
19.0
 40
19.0
 40
20.0
 40
20.0
 40
20.0
 40
21.0
 40
21.0
 40
21.0
 40
22.0
 40
22.0
 40
22.0
 40
23.0
 40
23.0
 40
23.0
 40
24.0
 40
24.0
 40
24.0
 40
25.0
 40
25.0
 40
25.0
 40
26.0
 40
26.0
 40
26.0
 40
27.0
 40
27.0
 40
27.0
 40
28.0
 40
28.0
 40
28.0
 40
29.0
 40
29.0
 40
29.0
 40
30.0
 40
30.0
 40
30.0
 40
31.0
 40
31.0
 40
31.0
 40
32.0
 40
32.0
 40
32.0
 40
33.0
 40
33.0
 40
33.0
 40
34.0
 40
34.0
 40
34.0
 40
35.0
 40
35.0
 40
35.0
 40
36.0
 40
36.0
 40
36.0
 40
37.0
 40
37.0
 40
37.0
 40
38.0
 40
38.0
 40
38.0
 40
39.0
 40
39.0
 40
39.0
 40
40.0
 40
40.0
 40
40.0
 40
41.0
 40
41.0
 40
41.0
 40
42.0
 40
42.0
 40
42.0
 40
43.0
 40
43.0
 40
43.0
 40
44.0
 40
44.0
 40
44.0
 40
45.0
 40
45.0
 40
45.0
 40
46.0
 40
46.0
 40
46.0
 40
47.0
 40
47.0
 40
47.0
 40
48.0
 40
48.0
 40
48.0
 40
49.0
 40
49.0
 40
49.0
 40
50.0
 40
50.0
 40
50.0
 40
51.0
 40
51.0
 40
51.0
 40
52.0
 40
52.0
 40
52.0
 40
53.0
 40
53.0
 40
53.0
 40
54.0
 40
54.0
 40
54.0
 40
55.0
 40
55.0
 40
55.0
 40
56.0
 40
56.0
 40
56.0
 40
57.0
 40
57.0
 40
57.0
 40
58.0
 40
58.0
 40
58.0
 40
59.0
 40
59.0
 40
59.0
 40
60.0
 40
60.0
 40
60.0
 40
61.0
 40
61.0
 40
61.0
 40
62.0
 40
62.0
 40
62.0
 40
63.0
 40
63.0
 40
63.0
 40
64.0
 40
64.0
 40
64.0
 40
64.0
 10
89.7252726012666
 20
-116.1966972908293
 30
0.0
 10
89.71459280526233
 20
-116.2261528572282
 30
0.0
 10
89.69116615596263
 20
-116.2728339010533
 30
0.0
 10
89.68083086950688
 20
-116.3002224101611
 30
0.0
 10
89.68083086950688
 20
-116.3002224101611
 30
0.0
 10
89.61950816986943
 20
-116.4526678853834
 30
0.0
 10
89.61950816986943
 20
-116.4526678853834
 30
0.0
 10
89.60882837386515
 20
-116.4779893372
 30
0.0
 10
89.56025252752313
 20
-116.5901271952448
 30
0.0
 10
89.54750567422771
 20
-116.6133815897703
 30
0.0
 10
89.54543861693656
 20
-116.619755016418
 30
0.0
 10
89.54095999280574
 20
-116.6281955003568
 30
0.0
 10
89.53889293551458
 20
-116.6345689270046
 30
0.0
 10
89.53889293551458
 20
-116.6345689270046
 30
0.0
 10
89.3294311300114
 20
-116.581686711306
 30
0.0
 10
89.3294311300114
 20
-116.581686711306
 30
0.0
 10
89.4079793070751
 20
-116.4716159105522
 30
0.0
 10
89.46930200671254
 20
-116.3362236579819
 30
0.0
 10
89.50099688517683
 20
-116.2261528572282
 30
0.0
 10
89.50099688517683
 20
-116.2261528572282
 30
0.0
 10
89.03556448511958
 20
-116.2261528572282
 30
0.0
 10
89.03556448511958
 20
-116.2261528572282
 30
0.0
 10
88.95494925076474
 20
-116.3911729309717
 30
0.0
 10
88.88742537925384
 20
-116.4695488532611
 30
0.0
 10
88.85366344349839
 20
-116.5096842156643
 30
0.0
 10
88.85366344349839
 20
-116.5096842156643
 30
0.0
 10
88.7310180442235
 20
-116.4440551466702
 30
0.0
 10
88.7310180442235
 20
-116.4440551466702
 30
0.0
 10
88.7310180442235
 20
-116.4440551466702
 30
0.0
 10
88.7310180442235
 20
-116.6154486470614
 30
0.0
 10
88.7310180442235
 20
-116.6154486470614
 30
0.0
 10
88.7310180442235
 20
-116.723452390524
 30
0.0
 10
88.73308510151465
 20
-116.772028236866
 30
0.0
 10
88.7434203879704
 20
-116.8777926682632
 30
0.0
 10
88.6717624018772
 20
-116.875725610972
 30
0.0
 10
88.65040280986865
 20
-116.875725610972
 30
0.0
 10
88.44541962849628
 20
-116.875725610972
 30
0.0
 10
88.44541962849628
 20
-116.875725610972
 30
0.0
 10
88.3902981007323
 20
-116.875725610972
 30
0.0
 10
88.3902981007323
 20
-116.875725610972
 30
0.0
 10
88.3902981007323
 20
-116.875725610972
 30
0.0
 10
88.3902981007323
 20
-117.0111178635424
 30
0.0
 10
88.3902981007323
 20
-117.0111178635424
 30
0.0
 10
88.3902981007323
 20
-117.0111178635424
 30
0.0
 10
88.462300596374
 20
-117.0111178635424
 30
0.0
 10
88.462300596374
 20
-117.0111178635424
 30
0.0
 10
88.52775741059376
 20
-117.0111178635424
 30
0.0
 10
88.67382945916835
 20
-117.0068114941858
 30
0.0
 10
88.77959389056552
 20
-116.9983710102469
 30
0.0
 10
88.77959389056552
 20
-116.9983710102469
 30
0.0
 10
88.77959389056552
 20
-117.1761379372858
 30
0.0
 10
88.77959389056552
 20
-117.1761379372858
 30
0.0
 10
88.68209768833295
 20
-117.1697645106381
 30
0.0
 10
88.52362329601146
 20
-117.1654581412816
 30
0.0
 10
88.462300596374
 20
-117.1654581412816
 30
0.0
 10
88.462300596374
 20
-117.1654581412816
 30
0.0
 10
88.3902981007323
 20
-117.1654581412816
 30
0.0
 10
88.3902981007323
 20
-117.1654581412816
 30
0.0
 10
88.39236515802344
 20
-117.254341604801
 30
0.0
 10
88.39649927260574
 20
-117.4934312314773
 30
0.0
 10
88.3985663298969
 20
-117.5675007844102
 30
0.0
 10
88.3985663298969
 20
-117.5675007844102
 30
0.0
 10
88.19771726310682
 20
-117.5675007844102
 30
0.0
 10
88.19771726310682
 20
-117.5675007844102
 30
0.0
 10
88.21046411640225
 20
-117.3537326095505
 30
0.0
 10
88.21046411640225
 20
-117.3241047883773
 30
0.0
 10
88.21459823098455
 20
-117.1654581412816
 30
0.0
 10
88.21459823098455
 20
-117.1654581412816
 30
0.0
 10
88.1450073021825
 20
-117.1654581412816
 30
0.0
 10
88.1450073021825
 20
-117.1654581412816
 30
0.0
 10
88.08781871712735
 20
-117.1654581412816
 30
0.0
 10
87.93554549667931
 20
-117.1697645106381
 30
0.0
 10
87.82530244115132
 20
-117.1761379372858
 30
0.0
 10
87.82530244115132
 20
-117.1761379372858
 30
0.0
 10
87.82530244115132
 20
-116.9983710102469
 30
0.0
 10
87.82530244115132
 20
-116.9983710102469
 30
0.0
 10
87.93106687254848
 20
-117.0068114941858
 30
0.0
 10
88.07507186383194
 20
-117.0111178635424
 30
0.0
 10
88.1450073021825
 20
-117.0111178635424
 30
0.0
 10
88.1450073021825
 20
-117.0111178635424
 30
0.0
 10
88.21873234556685
 20
-117.0111178635424
 30
0.0
 10
88.21873234556685
 20
-117.0111178635424
 30
0.0
 10
88.21873234556685
 20
-117.0111178635424
 30
0.0
 10
88.21873234556685
 20
-116.875725610972
 30
0.0
 10
88.21873234556685
 20
-116.875725610972
 30
0.0
 10
88.21873234556685
 20
-116.875725610972
 30
0.0
 10
88.17463512335566
 20
-116.875725610972
 30
0.0
 10
88.17463512335566
 20
-116.875725610972
 30
0.0
 10
88.0981540035831
 20
-116.875725610972
 30
0.0
 10
87.90591767550616
 20
-116.8777926682632
 30
0.0
 10
87.87181123020218
 20
-116.8777926682632
 30
0.0
 10
87.87835691162417
 20
-116.8059624273957
 30
0.0
 10
87.88662514078877
 20
-116.7255194478152
 30
0.0
 10
87.88662514078877
 20
-116.6049411058314
 30
0.0
 10
87.88662514078877
 20
-116.6049411058314
 30
0.0
 10
87.88662514078877
 20
-116.4314805481491
 30
0.0
 10
87.88662514078877
 20
-116.4314805481491
 30
0.0
 10
87.88662514078877
 20
-116.3594780525074
 30
0.0
 10
87.87835691162417
 20
-116.2388997105236
 30
0.0
 10
87.87181123020218
 20
-116.1586289857173
 30
0.0
 10
87.95035940726589
 20
-116.1627631002996
 30
0.0
 10
87.98825545760363
 20
-116.1648301575907
 30
0.0
 10
88.11537948100936
 20
-116.1648301575907
 30
0.0
 10
88.11537948100936
 20
-116.1648301575907
 30
0.0
 10
88.21873234556685
 20
-116.1648301575907
 30
0.0
 10
88.21873234556685
 20
-116.1648301575907
 30
0.0
 10
88.21873234556685
 20
-116.1648301575907
 30
0.0
 10
88.21873234556685
 20
-116.0189303637904
 30
0.0
 10
88.21873234556685
 20
-116.0189303637904
 30
0.0
 10
88.21873234556685
 20
-116.0189303637904
 30
0.0
 10
88.14052867805168
 20
-116.0189303637904
 30
0.0
 10
88.14052867805168
 20
-116.0189303637904
 30
0.0
 10
88.0857516598362
 20
-116.0189303637904
 30
0.0
 10
87.91418590467076
 20
-116.023236733147
 30
0.0
 10
87.82978106528215
 20
-116.0294379050204
 30
0.0
 10
87.82978106528215
 20
-116.0294379050204
 30
0.0
 10
87.82978106528215
 20
-115.8518432327558
 30
0.0
 10
87.82978106528215
 20
-115.8518432327558
 30
0.0
 10
87.91211884737962
 20
-115.8582166594035
 30
0.0
 10
88.07507186383194
 20
-115.8623507739858
 30
0.0
 10
88.14052867805168
 20
-115.8623507739858
 30
0.0
 10
88.14052867805168
 20
-115.8623507739858
 30
0.0
 10
88.21873234556685
 20
-115.8623507739858
 30
0.0
 10
88.21873234556685
 20
-115.8623507739858
 30
0.0
 10
88.21873234556685
 20
-115.8285888382304
 30
0.0
 10
88.21459823098455
 20
-115.6740763057169
 30
0.0
 10
88.21459823098455
 20
-115.6423814272526
 30
0.0
 10
88.21459823098455
 20
-115.6423814272526
 30
0.0
 10
88.41131318319232
 20
-115.6592623951303
 30
0.0
 10
88.41131318319232
 20
-115.6592623951303
 30
0.0
 10
88.42819415107004
 20
-115.6613294524215
 30
0.0
 10
88.44955374307858
 20
-115.6635687644869
 30
0.0
 10
88.44955374307858
 20
-115.6845838469469
 30
0.0
 10
88.44955374307858
 20
-115.7080104962466
 30
0.0
 10
88.42819415107004
 20
-115.7164509801855
 30
0.0
 10
88.40097789673656
 20
-115.7290255787066
 30
0.0
 10
88.40097789673656
 20
-115.7502129159409
 30
0.0
 10
88.3985663298969
 20
-115.8454698061081
 30
0.0
 10
88.3985663298969
 20
-115.8623507739858
 30
0.0
 10
88.3985663298969
 20
-115.8623507739858
 30
0.0
 10
88.45782197224318
 20
-115.8623507739858
 30
0.0
 10
88.45782197224318
 20
-115.8623507739858
 30
0.0
 10
88.52569035330261
 20
-115.8623507739858
 30
0.0
 10
88.66935083503753
 20
-115.8582166594035
 30
0.0
 10
88.7751152664347
 20
-115.8518432327558
 30
0.0
 10
88.7751152664347
 20
-115.8518432327558
 30
0.0
 10
88.7751152664347
 20
-116.0294379050204
 30
0.0
 10
88.7751152664347
 20
-116.0294379050204
 30
0.0
 10
88.67796357375065
 20
-116.023236733147
 30
0.0
 10
88.52155623872031
 20
-116.0189303637904
 30
0.0
 10
88.45782197224318
 20
-116.0189303637904
 30
0.0
 10
88.45782197224318
 20
-116.0189303637904
 30
0.0
 10
88.3902981007323
 20
-116.0189303637904
 30
0.0
 10
88.3902981007323
 20
-116.0189303637904
 30
0.0
 10
88.3902981007323
 20
-116.0189303637904
 30
0.0
 10
88.3902981007323
 20
-116.1648301575907
 30
0.0
 10
88.3902981007323
 20
-116.1648301575907
 30
0.0
 10
88.3902981007323
 20
-116.1648301575907
 30
0.0
 10
88.46023353908286
 20
-116.1648301575907
 30
0.0
 10
88.46023353908286
 20
-116.1648301575907
 30
0.0
 10
88.61009519269123
 20
-116.1648301575907
 30
0.0
 10
88.68209768833295
 20
-116.1606960430084
 30
0.0
 10
88.7434203879704
 20
-116.1586289857173
 30
0.0
 10
88.7351521588058
 20
-116.2537136211102
 30
0.0
 10
88.73308510151465
 20
-116.3320895433996
 30
0.0
 10
88.7310180442235
 20
-116.3701578485116
 30
0.0
 10
88.8853583219627
 20
-116.1586289857173
 30
0.0
 10
88.99112275335986
 20
-115.9110988751021
 30
0.0
 10
89.00800372123759
 20
-115.6487548539003
 30
0.0
 10
89.00800372123759
 20
-115.6487548539003
 30
0.0
 10
89.22366669861422
 20
-115.6993977575335
 30
0.0
 10
89.22366669861422
 20
-115.6993977575335
 30
0.0
 10
89.2384806092008
 20
-115.70370412689
 30
0.0
 10
89.25329451978737
 20
-115.7100775535378
 30
0.0
 10
89.25329451978737
 20
-115.7269585214155
 30
0.0
 10
89.25329451978737
 20
-115.7438394892932
 30
0.0
 10
89.24916040520507
 20
-115.7460788013586
 30
0.0
 10
89.1985175015719
 20
-115.7670938838186
 30
0.0
 10
89.18129202414565
 20
-115.8434027488169
 30
0.0
 10
89.15614282710332
 20
-115.9343532696275
 30
0.0
 10
89.1075669807613
 20
-116.061305038259
 30
0.0
 10
89.1075669807613
 20
-116.061305038259
 30
0.0
 10
89.44587535741285
 20
-116.061305038259
 30
0.0
 10
89.44587535741285
 20
-116.061305038259
 30
0.0
 10
89.4841159172991
 20
-116.061305038259
 30
0.0
 10
89.61296248844745
 20
-116.0569986689024
 30
0.0
 10
89.66153833478948
 20
-116.0506252422547
 30
0.0
 10
89.66153833478948
 20
-116.0506252422547
 30
0.0
 10
89.75490042243975
 20
-116.120388425831
 30
0.0
 10
89.75490042243975
 20
-116.120388425831
 30
0.0
 10
89.74628768372662
 20
-116.1415757630653
 30
0.0
 10
89.74008651185318
 20
-116.1606960430084
 30
0.0
 10
89.7252726012666
 20
-116.1966972908293
 30
0.0
  0
POLYLINE
  5
7C
330
77
100
AcDbEntity
  8
_U+30EC_U+30A4_U+30E4_U+30FC 1
370
     0
100
AcDb2dPolyline
 66
     1
 10
0.0
 20
0.0
 30
0.0
  0
VERTEX
  5
7D
330
7C
100
AcDbEntity
  8
_U+30EC_U+30A4_U+30E4_U+30FC 1
370
     0
100
AcDbVertex
100
AcDb2dVertex
 10
88.21873234556685
 20
-116.3214097473954
 30
0.0
  0
VERTEX
  5
7E
330
7C
100
AcDbEntity
  8
_U+30EC_U+30A4_U+30E4_U+30FC 1
370
     0
100
AcDbVertex
100
AcDb2dVertex
 10
88.06025795324535
 20
-116.3214097473954
 30
0.0
  0
VERTEX
  5
7F
330
7C
100
AcDbEntity
  8
_U+30EC_U+30A4_U+30E4_U+30FC 1
370
     0
100
AcDbVertex
100
AcDb2dVertex
 10
88.06025795324535
 20
-116.450428573318
 30
0.0
  0
VERTEX
  5
80
330
7C
100
AcDbEntity
  8
_U+30EC_U+30A4_U+30E4_U+30FC 1
370
     0
100
AcDbVertex
100
AcDb2dVertex
 10
88.21873234556685
 20
-116.450428573318
 30
0.0
  0
VERTEX
  5
81
330
7C
100
AcDbEntity
  8
_U+30EC_U+30A4_U+30E4_U+30FC 1
370
     0
100
AcDbVertex
100
AcDb2dVertex
 10
88.21873234556685
 20
-116.3214097473954
 30
0.0
  0
SEQEND
  5
82
330
7C
100
AcDbEntity
  8
_U+30EC_U+30A4_U+30E4_U+30FC 1
370
     0
  0
POLYLINE
  5
83
330
77
100
AcDbEntity
  8
_U+30EC_U+30A4_U+30E4_U+30FC 1
370
     0
100
AcDb2dPolyline
 66
     1
 10
0.0
 20
0.0
 30
0.0
  0
VERTEX
  5
84
330
83
100
AcDbEntity
  8
_U+30EC_U+30A4_U+30E4_U+30FC 1
370
     0
100
AcDbVertex
100
AcDb2dVertex
 10
88.21873234556685
 20
-116.5942613098271
 30
0.0
  0
VERTEX
  5
85
330
83
100
AcDbEntity
  8
_U+30EC_U+30A4_U+30E4_U+30FC 1
370
     0
100
AcDbVertex
100
AcDb2dVertex
 10
88.06025795324535
 20
-116.5942613098271
 30
0.0
  0
VERTEX
  5
86
330
83
100
AcDbEntity
  8
_U+30EC_U+30A4_U+30E4_U+30FC 1
370
     0
100
AcDbVertex
100
AcDb2dVertex
 10
88.06025795324535
 20
-116.723452390524
 30
0.0
  0
VERTEX
  5
87
330
83
100
AcDbEntity
  8
_U+30EC_U+30A4_U+30E4_U+30FC 1
370
     0
100
AcDbVertex
100
AcDb2dVertex
 10
88.21873234556685
 20
-116.723452390524
 30
0.0
  0
VERTEX
  5
88
330
83
100
AcDbEntity
  8
_U+30EC_U+30A4_U+30E4_U+30FC 1
370
     0
100
AcDbVertex
100
AcDb2dVertex
 10
88.21873234556685
 20
-116.5942613098271
 30
0.0
  0
SEQEND
  5
89
330
83
100
AcDbEntity
  8
_U+30EC_U+30A4_U+30E4_U+30FC 1
370
     0
  0
POLYLINE
  5
8A
330
77
100
AcDbEntity
  8
_U+30EC_U+30A4_U+30E4_U+30FC 1
370
     0
100
AcDb2dPolyline
 66
     1
 10
0.0
 20
0.0
 30
0.0
  0
VERTEX
  5
8B
330
8A
100
AcDbEntity
  8
_U+30EC_U+30A4_U+30E4_U+30FC 1
370
     0
100
AcDbVertex
100
AcDb2dVertex
 10
88.55118405989346
 20
-116.3214097473954
 30
0.0
  0
VERTEX
  5
8C
330
8A
100
AcDbEntity
  8
_U+30EC_U+30A4_U+30E4_U+30FC 1
370
     0
100
AcDbVertex
100
AcDb2dVertex
 10
88.3902981007323
 20
-116.3214097473954
 30
0.0
  0
VERTEX
  5
8D
330
8A
100
AcDbEntity
  8
_U+30EC_U+30A4_U+30E4_U+30FC 1
370
     0
100
AcDbVertex
100
AcDb2dVertex
 10
88.3902981007323
 20
-116.450428573318
 30
0.0
  0
VERTEX
  5
8E
330
8A
100
AcDbEntity
  8
_U+30EC_U+30A4_U+30E4_U+30FC 1
370
     0
100
AcDbVertex
100
AcDb2dVertex
 10
88.55118405989346
 20
-116.450428573318
 30
0.0
  0
VERTEX
  5
8F
330
8A
100
AcDbEntity
  8
_U+30EC_U+30A4_U+30E4_U+30FC 1
370
     0
100
AcDbVertex
100
AcDb2dVertex
 10
88.55118405989346
 20
-116.3214097473954
 30
0.0
  0
SEQEND
  5
90
330
8A
100
AcDbEntity
  8
_U+30EC_U+30A4_U+30E4_U+30FC 1
370
     0
  0
POLYLINE
  5
91
330
77
100
AcDbEntity
  8
_U+30EC_U+30A4_U+30E4_U+30FC 1
370
     0
100
AcDb2dPolyline
 66
     1
 10
0.0
 20
0.0
 30
0.0
  0
VERTEX
  5
92
330
91
100
AcDbEntity
  8
_U+30EC_U+30A4_U+30E4_U+30FC 1
370
     0
100
AcDbVertex
100
AcDb2dVertex
 10
88.55118405989346
 20
-116.5942613098271
 30
0.0
  0
VERTEX
  5
93
330
91
100
AcDbEntity
  8
_U+30EC_U+30A4_U+30E4_U+30FC 1
370
     0
100
AcDbVertex
100
AcDb2dVertex
 10
88.3902981007323
 20
-116.5942613098271
 30
0.0
  0
VERTEX
  5
94
330
91
100
AcDbEntity
  8
_U+30EC_U+30A4_U+30E4_U+30FC 1
370
     0
100
AcDbVertex
100
AcDb2dVertex
 10
88.3902981007323
 20
-116.723452390524
 30
0.0
  0
VERTEX
  5
95
330
91
100
AcDbEntity
  8
_U+30EC_U+30A4_U+30E4_U+30FC 1
370
     0
100
AcDbVertex
100
AcDb2dVertex
 10
88.55118405989346
 20
-116.723452390524
 30
0.0
  0
VERTEX
  5
96
330
91
100
AcDbEntity
  8
_U+30EC_U+30A4_U+30E4_U+30FC 1
370
     0
100
AcDbVertex
100
AcDb2dVertex
 10
88.55118405989346
 20
-116.5942613098271
 30
0.0
  0
SEQEND
  5
97
330
91
100
AcDbEntity
  8
_U+30EC_U+30A4_U+30E4_U+30FC 1
370
     0
  0
SPLINE
  5
98
330
77
100
AcDbEntity
  8
_U+30EC_U+30A4_U+30E4_U+30FC 1
370
     0
100
AcDbSpline
210
0.0
220
0.0
230
1.0
 70
    11
 71
     3
 72
    41
 73
    37
 74
     0
 42
0.0000000001
 43
0.0000000001
 12
1.0
 22
0.0
 32
0.0
 13
1.0
 23
0.0
 33
0.0
 40
0.0
 40
0.0
 40
0.0
 40
0.0
 40
1.0
 40
1.0
 40
1.0
 40
2.0
 40
2.0
 40
2.0
 40
3.0
 40
3.0
 40
3.0
 40
4.0
 40
4.0
 40
4.0
 40
5.0
 40
5.0
 40
5.0
 40
6.0
 40
6.0
 40
6.0
 40
7.0
 40
7.0
 40
7.0
 40
8.0
 40
8.0
 40
8.0
 40
9.0
 40
9.0
 40
9.0
 40
10.0
 40
10.0
 40
10.0
 40
11.0
 40
11.0
 40
11.0
 40
12.0
 40
12.0
 40
12.0
 40
12.0
 10
89.64052325232946
 20
-117.5526868738236
 30
0.0
 10
89.39936656836197
 20
-117.4172946212533
 30
0.0
 10
89.22159964132308
 20
-117.1210164095218
 30
0.0
 10
89.18129202414565
 20
-116.9919975835992
 30
0.0
 10
89.0607136821619
 20
-117.2564086620922
 30
0.0
 10
88.89810517525812
 20
-117.434175589131
 30
0.0
 10
88.71620413363692
 20
-117.5483805044671
 30
0.0
 10
88.71620413363692
 20
-117.5483805044671
 30
0.0
 10
88.51914467188064
 20
-117.4109211946056
 30
0.0
 10
88.51914467188064
 20
-117.4109211946056
 30
0.0
 10
88.58908011023121
 20
-117.385599742789
 30
0.0
 10
88.7351521588058
 20
-117.3241047883773
 30
0.0
 10
88.85779755808069
 20
-117.1697645106381
 30
0.0
 10
88.98251001464673
 20
-117.0131849208335
 30
0.0
 10
89.07139347816619
 20
-116.7804687208049
 30
0.0
 10
89.07139347816619
 20
-116.5203640116685
 30
0.0
 10
89.07139347816619
 20
-116.4187336948537
 30
0.0
 10
89.05864662487076
 20
-116.3469034539862
 30
0.0
 10
89.048311338415
 20
-116.3002224101611
 30
0.0
 10
89.048311338415
 20
-116.3002224101611
 30
0.0
 10
89.25329451978737
 20
-116.3214097473954
 30
0.0
 10
89.25329451978737
 20
-116.3214097473954
 30
0.0
 10
89.27465411179593
 20
-116.3234768046865
 30
0.0
 10
89.29566919425595
 20
-116.3257161167519
 30
0.0
 10
89.29566919425595
 20
-116.3469034539862
 30
0.0
 10
89.29566919425595
 20
-116.3658514791551
 30
0.0
 10
89.28498939825167
 20
-116.3742919630939
 30
0.0
 10
89.25122746249623
 20
-116.3954793003282
 30
0.0
 10
89.24295923333163
 20
-116.5965006218925
 30
0.0
 10
89.29980330883825
 20
-116.8397243631512
 30
0.0
 10
89.3611260084757
 20
-116.9603027051349
 30
0.0
 10
89.45207652928629
 20
-117.1358303201084
 30
0.0
 10
89.6467244242029
 20
-117.3156643044385
 30
0.0
 10
89.78211667677323
 20
-117.3728528894936
 30
0.0
 10
89.78211667677323
 20
-117.3728528894936
 30
0.0
 10
89.64052325232946
 20
-117.5526868738236
 30
0.0
 10
89.64052325232946
 20
-117.5526868738236
 30
0.0
  0
HATCH
  5
99
330
77
100
AcDbEntity
  8
_U+30EC_U+30A4_U+30E4_U+30FC 1
 62
   179
420
  2234388
100
AcDbHatch
 10
0.0
 20
0.0
 30
0.0
210
0.0
220
0.0
230
1.0
  2
SOLID
 70
     1
 71
     0
 91
        6
 92
        1
 93
        1
 72
     4
 94
        3
 73
     0
 74
     1
 95
      197
 96
      193
 40
0.0
 40
0.0
 40
0.0
 40
0.0
 40
1.0
 40
1.0
 40
1.0
 40
2.0
 40
2.0
 40
2.0
 40
3.0
 40
3.0
 40
3.0
 40
4.0
 40
4.0
 40
4.0
 40
5.0
 40
5.0
 40
5.0
 40
6.0
 40
6.0
 40
6.0
 40
7.0
 40
7.0
 40
7.0
 40
8.0
 40
8.0
 40
8.0
 40
9.0
 40
9.0
 40
9.0
 40
10.0
 40
10.0
 40
10.0
 40
11.0
 40
11.0
 40
11.0
 40
12.0
 40
12.0
 40
12.0
 40
13.0
 40
13.0
 40
13.0
 40
14.0
 40
14.0
 40
14.0
 40
15.0
 40
15.0
 40
15.0
 40
16.0
 40
16.0
 40
16.0
 40
17.0
 40
17.0
 40
17.0
 40
18.0
 40
18.0
 40
18.0
 40
19.0
 40
19.0
 40
19.0
 40
20.0
 40
20.0
 40
20.0
 40
21.0
 40
21.0
 40
21.0
 40
22.0
 40
22.0
 40
22.0
 40
23.0
 40
23.0
 40
23.0
 40
24.0
 40
24.0
 40
24.0
 40
25.0
 40
25.0
 40
25.0
 40
26.0
 40
26.0
 40
26.0
 40
27.0
 40
27.0
 40
27.0
 40
28.0
 40
28.0
 40
28.0
 40
29.0
 40
29.0
 40
29.0
 40
30.0
 40
30.0
 40
30.0
 40
31.0
 40
31.0
 40
31.0
 40
32.0
 40
32.0
 40
32.0
 40
33.0
 40
33.0
 40
33.0
 40
34.0
 40
34.0
 40
34.0
 40
35.0
 40
35.0
 40
35.0
 40
36.0
 40
36.0
 40
36.0
 40
37.0
 40
37.0
 40
37.0
 40
38.0
 40
38.0
 40
38.0
 40
39.0
 40
39.0
 40
39.0
 40
40.0
 40
40.0
 40
40.0
 40
41.0
 40
41.0
 40
41.0
 40
42.0
 40
42.0
 40
42.0
 40
43.0
 40
43.0
 40
43.0
 40
44.0
 40
44.0
 40
44.0
 40
45.0
 40
45.0
 40
45.0
 40
46.0
 40
46.0
 40
46.0
 40
47.0
 40
47.0
 40
47.0
 40
48.0
 40
48.0
 40
48.0
 40
49.0
 40
49.0
 40
49.0
 40
50.0
 40
50.0
 40
50.0
 40
51.0
 40
51.0
 40
51.0
 40
52.0
 40
52.0
 40
52.0
 40
53.0
 40
53.0
 40
53.0
 40
54.0
 40
54.0
 40
54.0
 40
55.0
 40
55.0
 40
55.0
 40
56.0
 40
56.0
 40
56.0
 40
57.0
 40
57.0
 40
57.0
 40
58.0
 40
58.0
 40
58.0
 40
59.0
 40
59.0
 40
59.0
 40
60.0
 40
60.0
 40
60.0
 40
61.0
 40
61.0
 40
61.0
 40
62.0
 40
62.0
 40
62.0
 40
63.0
 40
63.0
 40
63.0
 40
64.0
 40
64.0
 40
64.0
 40
64.0
 10
89.7252726012666
 20
-116.1966972908293
 10
89.71459280526233
 20
-116.2261528572282
 10
89.69116615596263
 20
-116.2728339010533
 10
89.68083086950688
 20
-116.3002224101611
 10
89.68083086950688
 20
-116.3002224101611
 10
89.61950816986943
 20
-116.4526678853834
 10
89.61950816986943
 20
-116.4526678853834
 10
89.60882837386515
 20
-116.4779893372
 10
89.56025252752313
 20
-116.5901271952448
 10
89.54750567422771
 20
-116.6133815897703
 10
89.54543861693656
 20
-116.619755016418
 10
89.54095999280574
 20
-116.6281955003568
 10
89.53889293551458
 20
-116.6345689270046
 10
89.53889293551458
 20
-116.6345689270046
 10
89.3294311300114
 20
-116.581686711306
 10
89.3294311300114
 20
-116.581686711306
 10
89.4079793070751
 20
-116.4716159105522
 10
89.46930200671254
 20
-116.3362236579819
 10
89.50099688517683
 20
-116.2261528572282
 10
89.50099688517683
 20
-116.2261528572282
 10
89.03556448511958
 20
-116.2261528572282
 10
89.03556448511958
 20
-116.2261528572282
 10
88.95494925076474
 20
-116.3911729309717
 10
88.88742537925384
 20
-116.4695488532611
 10
88.85366344349839
 20
-116.5096842156643
 10
88.85366344349839
 20
-116.5096842156643
 10
88.7310180442235
 20
-116.4440551466702
 10
88.7310180442235
 20
-116.4440551466702
 10
88.7310180442235
 20
-116.4440551466702
 10
88.7310180442235
 20
-116.6154486470614
 10
88.7310180442235
 20
-116.6154486470614
 10
88.7310180442235
 20
-116.723452390524
 10
88.73308510151465
 20
-116.772028236866
 10
88.7434203879704
 20
-116.8777926682632
 10
88.6717624018772
 20
-116.875725610972
 10
88.65040280986865
 20
-116.875725610972
 10
88.44541962849628
 20
-116.875725610972
 10
88.44541962849628
 20
-116.875725610972
 10
88.3902981007323
 20
-116.875725610972
 10
88.3902981007323
 20
-116.875725610972
 10
88.3902981007323
 20
-116.875725610972
 10
88.3902981007323
 20
-117.0111178635424
 10
88.3902981007323
 20
-117.0111178635424
 10
88.3902981007323
 20
-117.0111178635424
 10
88.462300596374
 20
-117.0111178635424
 10
88.462300596374
 20
-117.0111178635424
 10
88.52775741059376
 20
-117.0111178635424
 10
88.67382945916835
 20
-117.0068114941858
 10
88.77959389056552
 20
-116.9983710102469
 10
88.77959389056552
 20
-116.9983710102469
 10
88.77959389056552
 20
-117.1761379372858
 10
88.77959389056552
 20
-117.1761379372858
 10
88.68209768833295
 20
-117.1697645106381
 10
88.52362329601146
 20
-117.1654581412816
 10
88.462300596374
 20
-117.1654581412816
 10
88.462300596374
 20
-117.1654581412816
 10
88.3902981007323
 20
-117.1654581412816
 10
88.3902981007323
 20
-117.1654581412816
 10
88.39236515802344
 20
-117.254341604801
 10
88.39649927260574
 20
-117.4934312314773
 10
88.3985663298969
 20
-117.5675007844102
 10
88.3985663298969
 20
-117.5675007844102
 10
88.19771726310682
 20
-117.5675007844102
 10
88.19771726310682
 20
-117.5675007844102
 10
88.21046411640225
 20
-117.3537326095505
 10
88.21046411640225
 20
-117.3241047883773
 10
88.21459823098455
 20
-117.1654581412816
 10
88.21459823098455
 20
-117.1654581412816
 10
88.1450073021825
 20
-117.1654581412816
 10
88.1450073021825
 20
-117.1654581412816
 10
88.08781871712735
 20
-117.1654581412816
 10
87.93554549667931
 20
-117.1697645106381
 10
87.82530244115132
 20
-117.1761379372858
 10
87.82530244115132
 20
-117.1761379372858
 10
87.82530244115132
 20
-116.9983710102469
 10
87.82530244115132
 20
-116.9983710102469
 10
87.93106687254848
 20
-117.0068114941858
 10
88.07507186383194
 20
-117.0111178635424
 10
88.1450073021825
 20
-117.0111178635424
 10
88.1450073021825
 20
-117.0111178635424
 10
88.21873234556685
 20
-117.0111178635424
 10
88.21873234556685
 20
-117.0111178635424
 10
88.21873234556685
 20
-117.0111178635424
 10
88.21873234556685
 20
-116.875725610972
 10
88.21873234556685
 20
-116.875725610972
 10
88.21873234556685
 20
-116.875725610972
 10
88.17463512335566
 20
-116.875725610972
 10
88.17463512335566
 20
-116.875725610972
 10
88.0981540035831
 20
-116.875725610972
 10
87.90591767550616
 20
-116.8777926682632
 10
87.87181123020218
 20
-116.8777926682632
 10
87.87835691162417
 20
-116.8059624273957
 10
87.88662514078877
 20
-116.7255194478152
 10
87.88662514078877
 20
-116.6049411058314
 10
87.88662514078877
 20
-116.6049411058314
 10
87.88662514078877
 20
-116.4314805481491
 10
87.88662514078877
 20
-116.4314805481491
 10
87.88662514078877
 20
-116.3594780525074
 10
87.87835691162417
 20
-116.2388997105236
 10
87.87181123020218
 20
-116.1586289857173
 10
87.95035940726589
 20
-116.1627631002996
 10
87.98825545760363
 20
-116.1648301575907
 10
88.11537948100936
 20
-116.1648301575907
 10
88.11537948100936
 20
-116.1648301575907
 10
88.21873234556685
 20
-116.1648301575907
 10
88.21873234556685
 20
-116.1648301575907
 10
88.21873234556685
 20
-116.1648301575907
 10
88.21873234556685
 20
-116.0189303637904
 10
88.21873234556685
 20
-116.0189303637904
 10
88.21873234556685
 20
-116.0189303637904
 10
88.14052867805168
 20
-116.0189303637904
 10
88.14052867805168
 20
-116.0189303637904
 10
88.0857516598362
 20
-116.0189303637904
 10
87.91418590467076
 20
-116.023236733147
 10
87.82978106528215
 20
-116.0294379050204
 10
87.82978106528215
 20
-116.0294379050204
 10
87.82978106528215
 20
-115.8518432327558
 10
87.82978106528215
 20
-115.8518432327558
 10
87.91211884737962
 20
-115.8582166594035
 10
88.07507186383194
 20
-115.8623507739858
 10
88.14052867805168
 20
-115.8623507739858
 10
88.14052867805168
 20
-115.8623507739858
 10
88.21873234556685
 20
-115.8623507739858
 10
88.21873234556685
 20
-115.8623507739858
 10
88.21873234556685
 20
-115.8285888382304
 10
88.21459823098455
 20
-115.6740763057169
 10
88.21459823098455
 20
-115.6423814272526
 10
88.21459823098455
 20
-115.6423814272526
 10
88.41131318319232
 20
-115.6592623951303
 10
88.41131318319232
 20
-115.6592623951303
 10
88.42819415107004
 20
-115.6613294524215
 10
88.44955374307858
 20
-115.6635687644869
 10
88.44955374307858
 20
-115.6845838469469
 10
88.44955374307858
 20
-115.7080104962466
 10
88.42819415107004
 20
-115.7164509801855
 10
88.40097789673656
 20
-115.7290255787066
 10
88.40097789673656
 20
-115.7502129159409
 10
88.3985663298969
 20
-115.8454698061081
 10
88.3985663298969
 20
-115.8623507739858
 10
88.3985663298969
 20
-115.8623507739858
 10
88.45782197224318
 20
-115.8623507739858
 10
88.45782197224318
 20
-115.8623507739858
 10
88.52569035330261
 20
-115.8623507739858
 10
88.66935083503753
 20
-115.8582166594035
 10
88.7751152664347
 20
-115.8518432327558
 10
88.7751152664347
 20
-115.8518432327558
 10
88.7751152664347
 20
-116.0294379050204
 10
88.7751152664347
 20
-116.0294379050204
 10
88.67796357375065
 20
-116.023236733147
 10
88.52155623872031
 20
-116.0189303637904
 10
88.45782197224318
 20
-116.0189303637904
 10
88.45782197224318
 20
-116.0189303637904
 10
88.3902981007323
 20
-116.0189303637904
 10
88.3902981007323
 20
-116.0189303637904
 10
88.3902981007323
 20
-116.0189303637904
 10
88.3902981007323
 20
-116.1648301575907
 10
88.3902981007323
 20
-116.1648301575907
 10
88.3902981007323
 20
-116.1648301575907
 10
88.46023353908286
 20
-116.1648301575907
 10
88.46023353908286
 20
-116.1648301575907
 10
88.61009519269123
 20
-116.1648301575907
 10
88.68209768833295
 20
-116.1606960430084
 10
88.7434203879704
 20
-116.1586289857173
 10
88.7351521588058
 20
-116.2537136211102
 10
88.73308510151465
 20
-116.3320895433996
 10
88.7310180442235
 20
-116.3701578485116
 10
88.8853583219627
 20
-116.1586289857173
 10
88.99112275335986
 20
-115.9110988751021
 10
89.00800372123759
 20
-115.6487548539003
 10
89.00800372123759
 20
-115.6487548539003
 10
89.22366669861422
 20
-115.6993977575335
 10
89.22366669861422
 20
-115.6993977575335
 10
89.2384806092008
 20
-115.70370412689
 10
89.25329451978737
 20
-115.7100775535378
 10
89.25329451978737
 20
-115.7269585214155
 10
89.25329451978737
 20
-115.7438394892932
 10
89.24916040520507
 20
-115.7460788013586
 10
89.1985175015719
 20
-115.7670938838186
 10
89.18129202414565
 20
-115.8434027488169
 10
89.15614282710332
 20
-115.9343532696275
 10
89.1075669807613
 20
-116.061305038259
 10
89.1075669807613
 20
-116.061305038259
 10
89.44587535741285
 20
-116.061305038259
 10
89.44587535741285
 20
-116.061305038259
 10
89.4841159172991
 20
-116.061305038259
 10
89.61296248844745
 20
-116.0569986689024
 10
89.66153833478948
 20
-116.0506252422547
 10
89.66153833478948
 20
-116.0506252422547
 10
89.75490042243975
 20
-116.120388425831
 10
89.75490042243975
 20
-116.120388425831
 10
89.74628768372662
 20
-116.1415757630653
 10
89.74008651185318
 20
-116.1606960430084
 10
89.7252726012666
 20
-116.1966972908293
 97
        0
 97
        0
 92
        1
 93
        4
 72
     1
 10
88.21873234556685
 20
-116.3214097473954
 11
88.06025795324535
 21
-116.3214097473954
 72
     1
 10
88.06025795324535
 20
-116.3214097473954
 11
88.06025795324535
 21
-116.450428573318
 72
     1
 10
88.06025795324535
 20
-116.450428573318
 11
88.21873234556685
 21
-116.450428573318
 72
     1
 10
88.21873234556685
 20
-116.450428573318
 11
88.21873234556685
 21
-116.3214097473954
 97
        0
 92
        1
 93
        4
 72
     1
 10
88.21873234556685
 20
-116.5942613098271
 11
88.06025795324535
 21
-116.5942613098271
 72
     1
 10
88.06025795324535
 20
-116.5942613098271
 11
88.06025795324535
 21
-116.723452390524
 72
     1
 10
88.06025795324535
 20
-116.723452390524
 11
88.21873234556685
 21
-116.723452390524
 72
     1
 10
88.21873234556685
 20
-116.723452390524
 11
88.21873234556685
 21
-116.5942613098271
 97
        0
 92
        1
 93
        4
 72
     1
 10
88.55118405989346
 20
-116.3214097473954
 11
88.3902981007323
 21
-116.3214097473954
 72
     1
 10
88.3902981007323
 20
-116.3214097473954
 11
88.3902981007323
 21
-116.450428573318
 72
     1
 10
88.3902981007323
 20
-116.450428573318
 11
88.55118405989346
 21
-116.450428573318
 72
     1
 10
88.55118405989346
 20
-116.450428573318
 11
88.55118405989346
 21
-116.3214097473954
 97
        0
 92
        1
 93
        4
 72
     1
 10
88.55118405989346
 20
-116.5942613098271
 11
88.3902981007323
 21
-116.5942613098271
 72
     1
 10
88.3902981007323
 20
-116.5942613098271
 11
88.3902981007323
 21
-116.723452390524
 72
     1
 10
88.3902981007323
 20
-116.723452390524
 11
88.55118405989346
 21
-116.723452390524
 72
     1
 10
88.55118405989346
 20
-116.723452390524
 11
88.55118405989346
 21
-116.5942613098271
 97
        0
 92
        1
 93
        1
 72
     4
 94
        3
 73
     0
 74
     1
 95
       41
 96
       37
 40
0.0
 40
0.0
 40
0.0
 40
0.0
 40
1.0
 40
1.0
 40
1.0
 40
2.0
 40
2.0
 40
2.0
 40
3.0
 40
3.0
 40
3.0
 40
4.0
 40
4.0
 40
4.0
 40
5.0
 40
5.0
 40
5.0
 40
6.0
 40
6.0
 40
6.0
 40
7.0
 40
7.0
 40
7.0
 40
8.0
 40
8.0
 40
8.0
 40
9.0
 40
9.0
 40
9.0
 40
10.0
 40
10.0
 40
10.0
 40
11.0
 40
11.0
 40
11.0
 40
12.0
 40
12.0
 40
12.0
 40
12.0
 10
89.64052325232946
 20
-117.5526868738236
 10
89.39936656836197
 20
-117.4172946212533
 10
89.22159964132308
 20
-117.1210164095218
 10
89.18129202414565
 20
-116.9919975835992
 10
89.0607136821619
 20
-117.2564086620922
 10
88.89810517525812
 20
-117.434175589131
 10
88.71620413363692
 20
-117.5483805044671
 10
88.71620413363692
 20
-117.5483805044671
 10
88.51914467188064
 20
-117.4109211946056
 10
88.51914467188064
 20
-117.4109211946056
 10
88.58908011023121
 20
-117.385599742789
 10
88.7351521588058
 20
-117.3241047883773
 10
88.85779755808069
 20
-117.1697645106381
 10
88.98251001464673
 20
-117.0131849208335
 10
89.07139347816619
 20
-116.7804687208049
 10
89.07139347816619
 20
-116.5203640116685
 10
89.07139347816619
 20
-116.4187336948537
 10
89.05864662487076
 20
-116.3469034539862
 10
89.048311338415
 20
-116.3002224101611
 10
89.048311338415
 20
-116.3002224101611
 10
89.25329451978737
 20
-116.3214097473954
 10
89.25329451978737
 20
-116.3214097473954
 10
89.27465411179593
 20
-116.3234768046865
 10
89.29566919425595
 20
-116.3257161167519
 10
89.29566919425595
 20
-116.3469034539862
 10
89.29566919425595
 20
-116.3658514791551
 10
89.28498939825167
 20
-116.3742919630939
 10
89.25122746249623
 20
-116.3954793003282
 10
89.24295923333163
 20
-116.5965006218925
 10
89.29980330883825
 20
-116.8397243631512
 10
89.3611260084757
 20
-116.9603027051349
 10
89.45207652928629
 20
-117.1358303201084
 10
89.6467244242029
 20
-117.3156643044385
 10
89.78211667677323
 20
-117.3728528894936
 10
89.78211667677323
 20
-117.3728528894936
 10
89.64052325232946
 20
-117.5526868738236
 10
89.64052325232946
 20
-117.5526868738236
 97
        0
 97
        0
 75
     2
 76
     1
 98
        0
  0
SPLINE
  5
9A
330
77
100
AcDbEntity
  8
_U+30EC_U+30A4_U+30E4_U+30FC 1
370
     0
100
AcDbSpline
210
0.0
220
0.0
230
1.0
 70
    11
 71
     3
 72
    71
 73
    67
 74
     0
 42
0.0000000001
 43
0.0000000001
 12
1.0
 22
0.0
 32
0.0
 13
1.0
 23
0.0
 33
0.0
 40
0.0
 40
0.0
 40
0.0
 40
0.0
 40
1.0
 40
1.0
 40
1.0
 40
2.0
 40
2.0
 40
2.0
 40
3.0
 40
3.0
 40
3.0
 40
4.0
 40
4.0
 40
4.0
 40
5.0
 40
5.0
 40
5.0
 40
6.0
 40
6.0
 40
6.0
 40
7.0
 40
7.0
 40
7.0
 40
8.0
 40
8.0
 40
8.0
 40
9.0
 40
9.0
 40
9.0
 40
10.0
 40
10.0
 40
10.0
 40
11.0
 40
11.0
 40
11.0
 40
12.0
 40
12.0
 40
12.0
 40
13.0
 40
13.0
 40
13.0
 40
14.0
 40
14.0
 40
14.0
 40
15.0
 40
15.0
 40
15.0
 40
16.0
 40
16.0
 40
16.0
 40
17.0
 40
17.0
 40
17.0
 40
18.0
 40
18.0
 40
18.0
 40
19.0
 40
19.0
 40
19.0
 40
20.0
 40
20.0
 40
20.0
 40
21.0
 40
21.0
 40
21.0
 40
22.0
 40
22.0
 40
22.0
 40
22.0
 10
90.83493785706557
 20
-115.8199760995172
 30
0.0
 10
90.820123946479
 20
-115.8199760995172
 30
0.0
 10
90.80737709318358
 20
-115.8158419849349
 30
0.0
 10
90.78188338659272
 20
-115.8074015009961
 30
0.0
 10
90.64028996214896
 20
-115.8539102900469
 30
0.0
 10
90.46665714969237
 20
-115.8707912579247
 30
0.0
 10
90.32713078253975
 20
-115.8750976272812
 30
0.0
 10
90.32713078253975
 20
-115.8750976272812
 30
0.0
 10
90.3250637252486
 20
-115.9639810908007
 30
0.0
 10
90.3250637252486
 20
-115.9639810908007
 30
0.0
 10
90.3250637252486
 20
-115.9639810908007
 30
0.0
 10
90.58516843438497
 20
-115.9639810908007
 30
0.0
 10
90.58516843438497
 20
-115.9639810908007
 30
0.0
 10
90.63822290485781
 20
-115.9639810908007
 30
0.0
 10
90.820123946479
 20
-115.9553683520875
 30
0.0
 10
90.86456567823872
 20
-115.9491671802141
 30
0.0
 10
90.86456567823872
 20
-115.9491671802141
 30
0.0
 10
90.86456567823872
 20
-116.109880884601
 30
0.0
 10
90.86456567823872
 20
-116.109880884601
 30
0.0
 10
90.80944415047473
 20
-116.1035074579533
 30
0.0
 10
90.68473169390869
 20
-116.1014404006621
 30
0.0
 10
90.64649113402241
 20
-116.1035074579533
 30
0.0
 10
90.64649113402241
 20
-116.1035074579533
 30
0.0
 10
90.64649113402241
 20
-116.213578258707
 30
0.0
 10
90.64649113402241
 20
-116.213578258707
 30
0.0
 10
90.64649113402241
 20
-116.2600870477579
 30
0.0
 10
90.64855819131355
 20
-116.3234768046865
 30
0.0
 10
90.65510387273554
 20
-116.3615451097985
 30
0.0
 10
90.65510387273554
 20
-116.3615451097985
 30
0.0
 10
90.46252303511007
 20
-116.3615451097985
 30
0.0
 10
90.46252303511007
 20
-116.3615451097985
 30
0.0
 10
90.46872420698352
 20
-116.3214097473954
 30
0.0
 10
90.47526988840549
 20
-116.2388997105236
 30
0.0
 10
90.47526988840549
 20
-116.224085799937
 30
0.0
 10
90.47526988840549
 20
-116.224085799937
 30
0.0
 10
90.47526988840549
 20
-116.1035074579533
 30
0.0
 10
90.47526988840549
 20
-116.1035074579533
 30
0.0
 10
90.47526988840549
 20
-116.1035074579533
 30
0.0
 10
90.31024981466203
 20
-116.1035074579533
 30
0.0
 10
90.31024981466203
 20
-116.1035074579533
 30
0.0
 10
90.26787514019345
 20
-116.3234768046865
 30
0.0
 10
90.21275361242945
 20
-116.4039197842671
 30
0.0
 10
90.10698918103229
 20
-116.5033107890165
 30
0.0
 10
90.10698918103229
 20
-116.5033107890165
 30
0.0
 10
89.93990204999767
 20
-116.3891058736805
 30
0.0
 10
89.93990204999767
 20
-116.3891058736805
 30
0.0
 10
90.00329180692627
 20
-116.3405300273385
 30
0.0
 10
90.15349797008315
 20
-116.2283921692936
 30
0.0
 10
90.15349797008315
 20
-115.8792317418635
 30
0.0
 10
90.15349797008315
 20
-115.7967217049918
 30
0.0
 10
90.14522974091855
 20
-115.7502129159409
 30
0.0
 10
90.13661700220543
 20
-115.7016370695989
 30
0.0
 10
90.28268905078002
 20
-115.7164509801855
 30
0.0
 10
90.2975029613666
 20
-115.7164509801855
 30
0.0
 10
90.3333319544132
 20
-115.7164509801855
 30
0.0
 10
90.44150795265004
 20
-115.7164509801855
 30
0.0
 10
90.58310137709381
 20
-115.6993977575335
 30
0.0
 10
90.74398733625497
 20
-115.638075057896
 30
0.0
 10
90.74398733625497
 20
-115.638075057896
 30
0.0
 10
90.85801999681675
 20
-115.7693331958841
 30
0.0
 10
90.85801999681675
 20
-115.7693331958841
 30
0.0
 10
90.86456567823872
 20
-115.7757066225318
 30
0.0
 10
90.86869979282102
 20
-115.7841471064706
 30
0.0
 10
90.86869979282102
 20
-115.7925875904095
 30
0.0
 10
90.86869979282102
 20
-115.8158419849349
 30
0.0
 10
90.84975176765215
 20
-115.8199760995172
 30
0.0
 10
90.83493785706557
 20
-115.8199760995172
 30
0.0
  0
SPLINE
  5
9B
330
77
100
AcDbEntity
  8
_U+30EC_U+30A4_U+30E4_U+30FC 1
370
     0
100
AcDbSpline
210
0.0
220
0.0
230
1.0
 70
    11
 71
     3
 72
    74
 73
    70
 74
     0
 42
0.0000000001
 43
0.0000000001
 12
1.0
 22
0.0
 32
0.0
 13
1.0
 23
0.0
 33
0.0
 40
0.0
 40
0.0
 40
0.0
 40
0.0
 40
1.0
 40
1.0
 40
1.0
 40
2.0
 40
2.0
 40
2.0
 40
3.0
 40
3.0
 40
3.0
 40
4.0
 40
4.0
 40
4.0
 40
5.0
 40
5.0
 40
5.0
 40
6.0
 40
6.0
 40
6.0
 40
7.0
 40
7.0
 40
7.0
 40
8.0
 40
8.0
 40
8.0
 40
9.0
 40
9.0
 40
9.0
 40
10.0
 40
10.0
 40
10.0
 40
11.0
 40
11.0
 40
11.0
 40
12.0
 40
12.0
 40
12.0
 40
13.0
 40
13.0
 40
13.0
 40
14.0
 40
14.0
 40
14.0
 40
15.0
 40
15.0
 40
15.0
 40
16.0
 40
16.0
 40
16.0
 40
17.0
 40
17.0
 40
17.0
 40
18.0
 40
18.0
 40
18.0
 40
19.0
 40
19.0
 40
19.0
 40
20.0
 40
20.0
 40
20.0
 40
21.0
 40
21.0
 40
21.0
 40
22.0
 40
22.0
 40
22.0
 40
23.0
 40
23.0
 40
23.0
 40
23.0
 10
91.67226831475554
 20
-117.5864488095791
 30
0.0
 10
91.45867239467006
 20
-117.5759412683491
 30
0.0
 10
91.25799558265426
 20
-117.4891248621208
 30
0.0
 10
91.08229571290651
 20
-117.368546520137
 30
0.0
 10
91.08229571290651
 20
-117.368546520137
 30
0.0
 10
91.17979191513908
 20
-117.281902368683
 30
0.0
 10
91.17979191513908
 20
-117.281902368683
 30
0.0
 10
91.17979191513908
 20
-117.281902368683
 30
0.0
 10
90.62754310885353
 20
-117.281902368683
 30
0.0
 10
90.62754310885353
 20
-117.281902368683
 30
0.0
 10
90.62754310885353
 20
-117.281902368683
 30
0.0
 10
90.70781383365986
 20
-117.3452921256116
 30
0.0
 10
90.70781383365986
 20
-117.3452921256116
 30
0.0
 10
90.71435951508182
 20
-117.3495984949682
 30
0.0
 10
90.72469480153758
 20
-117.3601060361982
 30
0.0
 10
90.72469480153758
 20
-117.3749199467847
 30
0.0
 10
90.72469480153758
 20
-117.4152275639622
 30
0.0
 10
90.65062524860471
 20
-117.4088541373145
 30
0.0
 10
90.63581133801813
 20
-117.4066148252491
 30
0.0
 10
90.40533445005492
 20
-117.5463134471759
 30
0.0
 10
90.26167396832
 20
-117.5780083256402
 30
0.0
 10
90.15797659421398
 20
-117.594889293518
 30
0.0
 10
90.15797659421398
 20
-117.594889293518
 30
0.0
 10
90.02878551351711
 20
-117.4172946212533
 30
0.0
 10
90.02878551351711
 20
-117.4172946212533
 30
0.0
 10
90.27648787890658
 20
-117.385599742789
 30
0.0
 10
90.37777368617292
 20
-117.3389186989639
 30
0.0
 10
90.46665714969237
 20
-117.2860364832653
 30
0.0
 10
90.3925875967595
 20
-117.2882757953307
 30
0.0
 10
90.27855493619772
 20
-117.2903428526219
 30
0.0
 10
90.24686005773343
 20
-117.292409909913
 30
0.0
 10
90.26167396832
 20
-117.2035264463936
 30
0.0
 10
90.26374102561115
 20
-117.074507620471
 30
0.0
 10
90.26374102561115
 20
-117.0004380675381
 30
0.0
 10
90.26374102561115
 20
-117.0004380675381
 30
0.0
 10
90.26374102561115
 20
-116.7001979959986
 30
0.0
 10
90.26374102561115
 20
-116.7001979959986
 30
0.0
 10
90.26374102561115
 20
-116.6006347364748
 30
0.0
 10
90.25719534418917
 20
-116.5012437317254
 30
0.0
 10
90.24686005773343
 20
-116.4039197842671
 30
0.0
 10
90.34814586499978
 20
-116.4102932109148
 30
0.0
 10
90.57896726251151
 20
-116.4166666375625
 30
0.0
 10
90.68679875119983
 20
-116.4166666375625
 30
0.0
 10
90.68679875119983
 20
-116.4166666375625
 30
0.0
 10
91.10985647678851
 20
-116.4166666375625
 30
0.0
 10
91.10985647678851
 20
-116.4166666375625
 30
0.0
 10
91.22836776148111
 20
-116.4166666375625
 30
0.0
 10
91.27074243594969
 20
-116.4166666375625
 30
0.0
 10
91.35308021804715
 20
-116.4123602682059
 30
0.0
 10
91.50104706913864
 20
-116.4059868415582
 30
0.0
 10
91.51792803701636
 20
-116.4059868415582
 30
0.0
 10
91.56443682606722
 20
-116.4039197842671
 30
0.0
 10
91.55616859690262
 20
-116.4843627638477
 30
0.0
 10
91.5516899727718
 20
-116.6430094109434
 30
0.0
 10
91.5516899727718
 20
-116.7255194478152
 30
0.0
 10
91.5516899727718
 20
-116.7255194478152
 30
0.0
 10
91.5516899727718
 20
-117.0111178635424
 30
0.0
 10
91.5516899727718
 20
-117.0111178635424
 30
0.0
 10
91.5516899727718
 20
-117.0829481044098
 30
0.0
 10
91.55375703006295
 20
-117.2142062423978
 30
0.0
 10
91.56443682606722
 20
-117.292409909913
 30
0.0
 10
91.49243433042551
 20
-117.2882757953307
 30
0.0
 10
91.36978893115061
 20
-117.2860364832653
 30
0.0
 10
91.29175751840971
 20
-117.2839694259741
 30
0.0
 10
91.40148380961492
 20
-117.3516655522593
 30
0.0
 10
91.55375703006295
 20
-117.4024807106668
 30
0.0
 10
91.76563040240582
 20
-117.4066148252491
 30
0.0
 10
91.76563040240582
 20
-117.4066148252491
 30
0.0
 10
91.67226831475554
 20
-117.5864488095791
 30
0.0
 10
91.67226831475554
 20
-117.5864488095791
 30
0.0
  0
POLYLINE
  5
9C
330
77
100
AcDbEntity
  8
_U+30EC_U+30A4_U+30E4_U+30FC 1
370
     0
100
AcDb2dPolyline
 66
     1
 10
0.0
 20
0.0
 30
0.0
  0
VERTEX
  5
9D
330
9C
100
AcDbEntity
  8
_U+30EC_U+30A4_U+30E4_U+30FC 1
370
     0
100
AcDbVertex
100
AcDb2dVertex
 10
91.36789412863372
 20
-116.5520588901328
 30
0.0
  0
VERTEX
  5
9E
330
9C
100
AcDbEntity
  8
_U+30EC_U+30A4_U+30E4_U+30FC 1
370
     0
100
AcDbVertex
100
AcDb2dVertex
 10
90.4559773536881
 20
-116.5520588901328
 30
0.0
  0
VERTEX
  5
9F
330
9C
100
AcDbEntity
  8
_U+30EC_U+30A4_U+30E4_U+30FC 1
370
     0
100
AcDbVertex
100
AcDb2dVertex
 10
90.4559773536881
 20
-116.6641967481777
 30
0.0
  0
VERTEX
  5
A0
330
9C
100
AcDbEntity
  8
_U+30EC_U+30A4_U+30E4_U+30FC 1
370
     0
100
AcDbVertex
100
AcDb2dVertex
 10
91.36789412863372
 20
-116.6641967481777
 30
0.0
  0
VERTEX
  5
A1
330
9C
100
AcDbEntity
  8
_U+30EC_U+30A4_U+30E4_U+30FC 1
370
     0
100
AcDbVertex
100
AcDb2dVertex
 10
91.36789412863372
 20
-116.5520588901328
 30
0.0
  0
SEQEND
  5
A2
330
9C
100
AcDbEntity
  8
_U+30EC_U+30A4_U+30E4_U+30FC 1
370
     0
  0
POLYLINE
  5
A3
330
77
100
AcDbEntity
  8
_U+30EC_U+30A4_U+30E4_U+30FC 1
370
     0
100
AcDb2dPolyline
 66
     1
 10
0.0
 20
0.0
 30
0.0
  0
VERTEX
  5
A4
330
A3
100
AcDbEntity
  8
_U+30EC_U+30A4_U+30E4_U+30FC 1
370
     0
100
AcDbVertex
100
AcDb2dVertex
 10
91.36789412863372
 20
-116.7973496886826
 30
0.0
  0
VERTEX
  5
A5
330
A3
100
AcDbEntity
  8
_U+30EC_U+30A4_U+30E4_U+30FC 1
370
     0
100
AcDbVertex
100
AcDb2dVertex
 10
90.4559773536881
 20
-116.7973496886826
 30
0.0
  0
VERTEX
  5
A6
330
A3
100
AcDbEntity
  8
_U+30EC_U+30A4_U+30E4_U+30FC 1
370
     0
100
AcDbVertex
100
AcDb2dVertex
 10
90.4559773536881
 20
-116.9074204894363
 30
0.0
  0
VERTEX
  5
A7
330
A3
100
AcDbEntity
  8
_U+30EC_U+30A4_U+30E4_U+30FC 1
370
     0
100
AcDbVertex
100
AcDb2dVertex
 10
91.36789412863372
 20
-116.9074204894363
 30
0.0
  0
VERTEX
  5
A8
330
A3
100
AcDbEntity
  8
_U+30EC_U+30A4_U+30E4_U+30FC 1
370
     0
100
AcDbVertex
100
AcDb2dVertex
 10
91.36789412863372
 20
-116.7973496886826
 30
0.0
  0
SEQEND
  5
A9
330
A3
100
AcDbEntity
  8
_U+30EC_U+30A4_U+30E4_U+30FC 1
370
     0
  0
POLYLINE
  5
AA
330
77
100
AcDbEntity
  8
_U+30EC_U+30A4_U+30E4_U+30FC 1
370
     0
100
AcDb2dPolyline
 66
     1
 10
0.0
 20
0.0
 30
0.0
  0
VERTEX
  5
AB
330
AA
100
AcDbEntity
  8
_U+30EC_U+30A4_U+30E4_U+30FC 1
370
     0
100
AcDbVertex
100
AcDb2dVertex
 10
91.36789412863372
 20
-117.0428127420067
 30
0.0
  0
VERTEX
  5
AC
330
AA
100
AcDbEntity
  8
_U+30EC_U+30A4_U+30E4_U+30FC 1
370
     0
100
AcDbVertex
100
AcDb2dVertex
 10
90.4559773536881
 20
-117.0428127420067
 30
0.0
  0
VERTEX
  5
AD
330
AA
100
AcDbEntity
  8
_U+30EC_U+30A4_U+30E4_U+30FC 1
370
     0
100
AcDbVertex
100
AcDb2dVertex
 10
90.4559773536881
 20
-117.150644230695
 30
0.0
  0
VERTEX
  5
AE
330
AA
100
AcDbEntity
  8
_U+30EC_U+30A4_U+30E4_U+30FC 1
370
     0
100
AcDbVertex
100
AcDb2dVertex
 10
91.36789412863372
 20
-117.150644230695
 30
0.0
  0
VERTEX
  5
AF
330
AA
100
AcDbEntity
  8
_U+30EC_U+30A4_U+30E4_U+30FC 1
370
     0
100
AcDbVertex
100
AcDb2dVertex
 10
91.36789412863372
 20
-117.0428127420067
 30
0.0
  0
SEQEND
  5
B0
330
AA
100
AcDbEntity
  8
_U+30EC_U+30A4_U+30E4_U+30FC 1
370
     0
  0
SPLINE
  5
B1
330
77
100
AcDbEntity
  8
_U+30EC_U+30A4_U+30E4_U+30FC 1
370
     0
100
AcDbSpline
210
0.0
220
0.0
230
1.0
 70
    11
 71
     3
 72
    74
 73
    70
 74
     0
 42
0.0000000001
 43
0.0000000001
 12
1.0
 22
0.0
 32
0.0
 13
1.0
 23
0.0
 33
0.0
 40
0.0
 40
0.0
 40
0.0
 40
0.0
 40
1.0
 40
1.0
 40
1.0
 40
2.0
 40
2.0
 40
2.0
 40
3.0
 40
3.0
 40
3.0
 40
4.0
 40
4.0
 40
4.0
 40
5.0
 40
5.0
 40
5.0
 40
6.0
 40
6.0
 40
6.0
 40
7.0
 40
7.0
 40
7.0
 40
8.0
 40
8.0
 40
8.0
 40
9.0
 40
9.0
 40
9.0
 40
10.0
 40
10.0
 40
10.0
 40
11.0
 40
11.0
 40
11.0
 40
12.0
 40
12.0
 40
12.0
 40
13.0
 40
13.0
 40
13.0
 40
14.0
 40
14.0
 40
14.0
 40
15.0
 40
15.0
 40
15.0
 40
16.0
 40
16.0
 40
16.0
 40
17.0
 40
17.0
 40
17.0
 40
18.0
 40
18.0
 40
18.0
 40
19.0
 40
19.0
 40
19.0
 40
20.0
 40
20.0
 40
20.0
 40
21.0
 40
21.0
 40
21.0
 40
22.0
 40
22.0
 40
22.0
 40
23.0
 40
23.0
 40
23.0
 40
23.0
 10
91.68501516805097
 20
-116.099373343371
 30
0.0
 10
91.68501516805097
 20
-116.099373343371
 30
0.0
 10
91.52447371843833
 20
-116.099373343371
 30
0.0
 10
91.52447371843833
 20
-116.099373343371
 30
0.0
 10
91.52447371843833
 20
-116.099373343371
 30
0.0
 10
91.52447371843833
 20
-116.213578258707
 30
0.0
 10
91.52447371843833
 20
-116.213578258707
 30
0.0
 10
91.52447371843833
 20
-116.2537136211102
 30
0.0
 10
91.53067489031179
 20
-116.3277831740431
 30
0.0
 10
91.53480900489409
 20
-116.3531046258596
 30
0.0
 10
91.53480900489409
 20
-116.3531046258596
 30
0.0
 10
91.323452396874
 20
-116.3531046258596
 30
0.0
 10
91.323452396874
 20
-116.3531046258596
 30
0.0
 10
91.33413219287827
 20
-116.2876478116399
 30
0.0
 10
91.33619925016943
 20
-116.2283921692936
 30
0.0
 10
91.33619925016943
 20
-116.2261528572282
 30
0.0
 10
91.33619925016943
 20
-116.2261528572282
 30
0.0
 10
91.33619925016943
 20
-116.1035074579533
 30
0.0
 10
91.33619925016943
 20
-116.1035074579533
 30
0.0
 10
91.33619925016943
 20
-116.1035074579533
 30
0.0
 10
91.15636526583938
 20
-116.1035074579533
 30
0.0
 10
91.15636526583938
 20
-116.1035074579533
 30
0.0
 10
91.13741724067052
 20
-116.1627631002996
 30
0.0
 10
91.09090845161964
 20
-116.3086628940999
 30
0.0
 10
90.97653128150934
 20
-116.3911729309717
 30
0.0
 10
90.97653128150934
 20
-116.3911729309717
 30
0.0
 10
90.820123946479
 20
-116.2854084995745
 30
0.0
 10
90.820123946479
 20
-116.2854084995745
 30
0.0
 10
90.89419349941187
 20
-116.2388997105236
 30
0.0
 10
91.01029321726479
 20
-116.1648301575907
 30
0.0
 10
91.01029321726479
 20
-115.8434027488169
 30
0.0
 10
91.01029321726479
 20
-115.7882812210529
 30
0.0
 10
91.00615910268249
 20
-115.7438394892932
 30
0.0
 10
91.00409204539135
 20
-115.7057711841812
 30
0.0
 10
91.08022865561536
 20
-115.7142116681201
 30
0.0
 10
91.15429820854824
 20
-115.7205850947678
 30
0.0
 10
91.21768796547683
 20
-115.7205850947678
 30
0.0
 10
91.39528263774146
 20
-115.7205850947678
 30
0.0
 10
91.59406464724037
 20
-115.6613294524215
 30
0.0
 10
91.65538734687783
 20
-115.6317016312483
 30
0.0
 10
91.65538734687783
 20
-115.6317016312483
 30
0.0
 10
91.78251137028354
 20
-115.7670938838186
 30
0.0
 10
91.78251137028354
 20
-115.7670938838186
 30
0.0
 10
91.78664548486584
 20
-115.7714002531752
 30
0.0
 10
91.78871254215699
 20
-115.7798407371141
 30
0.0
 10
91.78871254215699
 20
-115.7862141637618
 30
0.0
 10
91.78871254215699
 20
-115.8074015009961
 30
0.0
 10
91.77389863157042
 20
-115.8137749276438
 30
0.0
 10
91.7570176636927
 20
-115.8137749276438
 30
0.0
 10
91.73600258123267
 20
-115.8137749276438
 30
0.0
 10
91.7211886706461
 20
-115.8053344437049
 30
0.0
 10
91.70189613592869
 20
-115.7946546477007
 30
0.0
 10
91.52860783302063
 20
-115.8518432327558
 30
0.0
 10
91.31070554357858
 20
-115.8771646845724
 30
0.0
 10
91.17738034829941
 20
-115.8792317418635
 30
0.0
 10
91.17738034829941
 20
-115.8792317418635
 30
0.0
 10
91.17324623371711
 20
-115.9617417787353
 30
0.0
 10
91.17324623371711
 20
-115.9617417787353
 30
0.0
 10
91.17324623371711
 20
-115.9617417787353
 30
0.0
 10
91.44592554137463
 20
-115.9617417787353
 30
0.0
 10
91.44592554137463
 20
-115.9617417787353
 30
0.0
 10
91.50311412642978
 20
-115.9617417787353
 30
0.0
 10
91.76563040240582
 20
-115.9427937535664
 30
0.0
 10
91.80972762461701
 20
-115.9364203269187
 30
0.0
 10
91.80972762461701
 20
-115.9364203269187
 30
0.0
 10
91.80972762461701
 20
-116.1055745152444
 30
0.0
 10
91.80972762461701
 20
-116.1055745152444
 30
0.0
 10
91.77596568886158
 20
-116.1014404006621
 30
0.0
 10
91.76321883556615
 20
-116.099373343371
 30
0.0
 10
91.68501516805097
 20
-116.099373343371
 30
0.0
  0
HATCH
  5
B2
330
77
100
AcDbEntity
  8
_U+30EC_U+30A4_U+30E4_U+30FC 1
 62
   179
420
  2234388
100
AcDbHatch
 10
0.0
 20
0.0
 30
0.0
210
0.0
220
0.0
230
1.0
  2
SOLID
 70
     1
 71
     0
 91
        6
 92
        1
 93
        1
 72
     4
 94
        3
 73
     0
 74
     1
 95
       71
 96
       67
 40
0.0
 40
0.0
 40
0.0
 40
0.0
 40
1.0
 40
1.0
 40
1.0
 40
2.0
 40
2.0
 40
2.0
 40
3.0
 40
3.0
 40
3.0
 40
4.0
 40
4.0
 40
4.0
 40
5.0
 40
5.0
 40
5.0
 40
6.0
 40
6.0
 40
6.0
 40
7.0
 40
7.0
 40
7.0
 40
8.0
 40
8.0
 40
8.0
 40
9.0
 40
9.0
 40
9.0
 40
10.0
 40
10.0
 40
10.0
 40
11.0
 40
11.0
 40
11.0
 40
12.0
 40
12.0
 40
12.0
 40
13.0
 40
13.0
 40
13.0
 40
14.0
 40
14.0
 40
14.0
 40
15.0
 40
15.0
 40
15.0
 40
16.0
 40
16.0
 40
16.0
 40
17.0
 40
17.0
 40
17.0
 40
18.0
 40
18.0
 40
18.0
 40
19.0
 40
19.0
 40
19.0
 40
20.0
 40
20.0
 40
20.0
 40
21.0
 40
21.0
 40
21.0
 40
22.0
 40
22.0
 40
22.0
 40
22.0
 10
90.83493785706557
 20
-115.8199760995172
 10
90.820123946479
 20
-115.8199760995172
 10
90.80737709318358
 20
-115.8158419849349
 10
90.78188338659272
 20
-115.8074015009961
 10
90.64028996214896
 20
-115.8539102900469
 10
90.46665714969237
 20
-115.8707912579247
 10
90.32713078253975
 20
-115.8750976272812
 10
90.32713078253975
 20
-115.8750976272812
 10
90.3250637252486
 20
-115.9639810908007
 10
90.3250637252486
 20
-115.9639810908007
 10
90.3250637252486
 20
-115.9639810908007
 10
90.58516843438497
 20
-115.9639810908007
 10
90.58516843438497
 20
-115.9639810908007
 10
90.63822290485781
 20
-115.9639810908007
 10
90.820123946479
 20
-115.9553683520875
 10
90.86456567823872
 20
-115.9491671802141
 10
90.86456567823872
 20
-115.9491671802141
 10
90.86456567823872
 20
-116.109880884601
 10
90.86456567823872
 20
-116.109880884601
 10
90.80944415047473
 20
-116.1035074579533
 10
90.68473169390869
 20
-116.1014404006621
 10
90.64649113402241
 20
-116.1035074579533
 10
90.64649113402241
 20
-116.1035074579533
 10
90.64649113402241
 20
-116.213578258707
 10
90.64649113402241
 20
-116.213578258707
 10
90.64649113402241
 20
-116.2600870477579
 10
90.64855819131355
 20
-116.3234768046865
 10
90.65510387273554
 20
-116.3615451097985
 10
90.65510387273554
 20
-116.3615451097985
 10
90.46252303511007
 20
-116.3615451097985
 10
90.46252303511007
 20
-116.3615451097985
 10
90.46872420698352
 20
-116.3214097473954
 10
90.47526988840549
 20
-116.2388997105236
 10
90.47526988840549
 20
-116.224085799937
 10
90.47526988840549
 20
-116.224085799937
 10
90.47526988840549
 20
-116.1035074579533
 10
90.47526988840549
 20
-116.1035074579533
 10
90.47526988840549
 20
-116.1035074579533
 10
90.31024981466203
 20
-116.1035074579533
 10
90.31024981466203
 20
-116.1035074579533
 10
90.26787514019345
 20
-116.3234768046865
 10
90.21275361242945
 20
-116.4039197842671
 10
90.10698918103229
 20
-116.5033107890165
 10
90.10698918103229
 20
-116.5033107890165
 10
89.93990204999767
 20
-116.3891058736805
 10
89.93990204999767
 20
-116.3891058736805
 10
90.00329180692627
 20
-116.3405300273385
 10
90.15349797008315
 20
-116.2283921692936
 10
90.15349797008315
 20
-115.8792317418635
 10
90.15349797008315
 20
-115.7967217049918
 10
90.14522974091855
 20
-115.7502129159409
 10
90.13661700220543
 20
-115.7016370695989
 10
90.28268905078002
 20
-115.7164509801855
 10
90.2975029613666
 20
-115.7164509801855
 10
90.3333319544132
 20
-115.7164509801855
 10
90.44150795265004
 20
-115.7164509801855
 10
90.58310137709381
 20
-115.6993977575335
 10
90.74398733625497
 20
-115.638075057896
 10
90.74398733625497
 20
-115.638075057896
 10
90.85801999681675
 20
-115.7693331958841
 10
90.85801999681675
 20
-115.7693331958841
 10
90.86456567823872
 20
-115.7757066225318
 10
90.86869979282102
 20
-115.7841471064706
 10
90.86869979282102
 20
-115.7925875904095
 10
90.86869979282102
 20
-115.8158419849349
 10
90.84975176765215
 20
-115.8199760995172
 10
90.83493785706557
 20
-115.8199760995172
 97
        0
 97
        0
 92
        1
 93
        1
 72
     4
 94
        3
 73
     0
 74
     1
 95
       74
 96
       70
 40
0.0
 40
0.0
 40
0.0
 40
0.0
 40
1.0
 40
1.0
 40
1.0
 40
2.0
 40
2.0
 40
2.0
 40
3.0
 40
3.0
 40
3.0
 40
4.0
 40
4.0
 40
4.0
 40
5.0
 40
5.0
 40
5.0
 40
6.0
 40
6.0
 40
6.0
 40
7.0
 40
7.0
 40
7.0
 40
8.0
 40
8.0
 40
8.0
 40
9.0
 40
9.0
 40
9.0
 40
10.0
 40
10.0
 40
10.0
 40
11.0
 40
11.0
 40
11.0
 40
12.0
 40
12.0
 40
12.0
 40
13.0
 40
13.0
 40
13.0
 40
14.0
 40
14.0
 40
14.0
 40
15.0
 40
15.0
 40
15.0
 40
16.0
 40
16.0
 40
16.0
 40
17.0
 40
17.0
 40
17.0
 40
18.0
 40
18.0
 40
18.0
 40
19.0
 40
19.0
 40
19.0
 40
20.0
 40
20.0
 40
20.0
 40
21.0
 40
21.0
 40
21.0
 40
22.0
 40
22.0
 40
22.0
 40
23.0
 40
23.0
 40
23.0
 40
23.0
 10
91.67226831475554
 20
-117.5864488095791
 10
91.45867239467006
 20
-117.5759412683491
 10
91.25799558265426
 20
-117.4891248621208
 10
91.08229571290651
 20
-117.368546520137
 10
91.08229571290651
 20
-117.368546520137
 10
91.17979191513908
 20
-117.281902368683
 10
91.17979191513908
 20
-117.281902368683
 10
91.17979191513908
 20
-117.281902368683
 10
90.62754310885353
 20
-117.281902368683
 10
90.62754310885353
 20
-117.281902368683
 10
90.62754310885353
 20
-117.281902368683
 10
90.70781383365986
 20
-117.3452921256116
 10
90.70781383365986
 20
-117.3452921256116
 10
90.71435951508182
 20
-117.3495984949682
 10
90.72469480153758
 20
-117.3601060361982
 10
90.72469480153758
 20
-117.3749199467847
 10
90.72469480153758
 20
-117.4152275639622
 10
90.65062524860471
 20
-117.4088541373145
 10
90.63581133801813
 20
-117.4066148252491
 10
90.40533445005492
 20
-117.5463134471759
 10
90.26167396832
 20
-117.5780083256402
 10
90.15797659421398
 20
-117.594889293518
 10
90.15797659421398
 20
-117.594889293518
 10
90.02878551351711
 20
-117.4172946212533
 10
90.02878551351711
 20
-117.4172946212533
 10
90.27648787890658
 20
-117.385599742789
 10
90.37777368617292
 20
-117.3389186989639
 10
90.46665714969237
 20
-117.2860364832653
 10
90.3925875967595
 20
-117.2882757953307
 10
90.27855493619772
 20
-117.2903428526219
 10
90.24686005773343
 20
-117.292409909913
 10
90.26167396832
 20
-117.2035264463936
 10
90.26374102561115
 20
-117.074507620471
 10
90.26374102561115
 20
-117.0004380675381
 10
90.26374102561115
 20
-117.0004380675381
 10
90.26374102561115
 20
-116.7001979959986
 10
90.26374102561115
 20
-116.7001979959986
 10
90.26374102561115
 20
-116.6006347364748
 10
90.25719534418917
 20
-116.5012437317254
 10
90.24686005773343
 20
-116.4039197842671
 10
90.34814586499978
 20
-116.4102932109148
 10
90.57896726251151
 20
-116.4166666375625
 10
90.68679875119983
 20
-116.4166666375625
 10
90.68679875119983
 20
-116.4166666375625
 10
91.10985647678851
 20
-116.4166666375625
 10
91.10985647678851
 20
-116.4166666375625
 10
91.22836776148111
 20
-116.4166666375625
 10
91.27074243594969
 20
-116.4166666375625
 10
91.35308021804715
 20
-116.4123602682059
 10
91.50104706913864
 20
-116.4059868415582
 10
91.51792803701636
 20
-116.4059868415582
 10
91.56443682606722
 20
-116.4039197842671
 10
91.55616859690262
 20
-116.4843627638477
 10
91.5516899727718
 20
-116.6430094109434
 10
91.5516899727718
 20
-116.7255194478152
 10
91.5516899727718
 20
-116.7255194478152
 10
91.5516899727718
 20
-117.0111178635424
 10
91.5516899727718
 20
-117.0111178635424
 10
91.5516899727718
 20
-117.0829481044098
 10
91.55375703006295
 20
-117.2142062423978
 10
91.56443682606722
 20
-117.292409909913
 10
91.49243433042551
 20
-117.2882757953307
 10
91.36978893115061
 20
-117.2860364832653
 10
91.29175751840971
 20
-117.2839694259741
 10
91.40148380961492
 20
-117.3516655522593
 10
91.55375703006295
 20
-117.4024807106668
 10
91.76563040240582
 20
-117.4066148252491
 10
91.76563040240582
 20
-117.4066148252491
 10
91.67226831475554
 20
-117.5864488095791
 10
91.67226831475554
 20
-117.5864488095791
 97
        0
 97
        0
 92
        1
 93
        4
 72
     1
 10
91.36789412863372
 20
-116.5520588901328
 11
90.4559773536881
 21
-116.5520588901328
 72
     1
 10
90.4559773536881
 20
-116.5520588901328
 11
90.4559773536881
 21
-116.6641967481777
 72
     1
 10
90.4559773536881
 20
-116.6641967481777
 11
91.36789412863372
 21
-116.6641967481777
 72
     1
 10
91.36789412863372
 20
-116.6641967481777
 11
91.36789412863372
 21
-116.5520588901328
 97
        0
 92
        1
 93
        4
 72
     1
 10
91.36789412863372
 20
-116.7973496886826
 11
90.4559773536881
 21
-116.7973496886826
 72
     1
 10
90.4559773536881
 20
-116.7973496886826
 11
90.4559773536881
 21
-116.9074204894363
 72
     1
 10
90.4559773536881
 20
-116.9074204894363
 11
91.36789412863372
 21
-116.9074204894363
 72
     1
 10
91.36789412863372
 20
-116.9074204894363
 11
91.36789412863372
 21
-116.7973496886826
 97
        0
 92
        1
 93
        4
 72
     1
 10
91.36789412863372
 20
-117.0428127420067
 11
90.4559773536881
 21
-117.0428127420067
 72
     1
 10
90.4559773536881
 20
-117.0428127420067
 11
90.4559773536881
 21
-117.150644230695
 72
     1
 10
90.4559773536881
 20
-117.150644230695
 11
91.36789412863372
 21
-117.150644230695
 72
     1
 10
91.36789412863372
 20
-117.150644230695
 11
91.36789412863372
 21
-117.0428127420067
 97
        0
 92
        1
 93
        1
 72
     4
 94
        3
 73
     0
 74
     1
 95
       74
 96
       70
 40
0.0
 40
0.0
 40
0.0
 40
0.0
 40
1.0
 40
1.0
 40
1.0
 40
2.0
 40
2.0
 40
2.0
 40
3.0
 40
3.0
 40
3.0
 40
4.0
 40
4.0
 40
4.0
 40
5.0
 40
5.0
 40
5.0
 40
6.0
 40
6.0
 40
6.0
 40
7.0
 40
7.0
 40
7.0
 40
8.0
 40
8.0
 40
8.0
 40
9.0
 40
9.0
 40
9.0
 40
10.0
 40
10.0
 40
10.0
 40
11.0
 40
11.0
 40
11.0
 40
12.0
 40
12.0
 40
12.0
 40
13.0
 40
13.0
 40
13.0
 40
14.0
 40
14.0
 40
14.0
 40
15.0
 40
15.0
 40
15.0
 40
16.0
 40
16.0
 40
16.0
 40
17.0
 40
17.0
 40
17.0
 40
18.0
 40
18.0
 40
18.0
 40
19.0
 40
19.0
 40
19.0
 40
20.0
 40
20.0
 40
20.0
 40
21.0
 40
21.0
 40
21.0
 40
22.0
 40
22.0
 40
22.0
 40
23.0
 40
23.0
 40
23.0
 40
23.0
 10
91.68501516805097
 20
-116.099373343371
 10
91.68501516805097
 20
-116.099373343371
 10
91.52447371843833
 20
-116.099373343371
 10
91.52447371843833
 20
-116.099373343371
 10
91.52447371843833
 20
-116.099373343371
 10
91.52447371843833
 20
-116.213578258707
 10
91.52447371843833
 20
-116.213578258707
 10
91.52447371843833
 20
-116.2537136211102
 10
91.53067489031179
 20
-116.3277831740431
 10
91.53480900489409
 20
-116.3531046258596
 10
91.53480900489409
 20
-116.3531046258596
 10
91.323452396874
 20
-116.3531046258596
 10
91.323452396874
 20
-116.3531046258596
 10
91.33413219287827
 20
-116.2876478116399
 10
91.33619925016943
 20
-116.2283921692936
 10
91.33619925016943
 20
-116.2261528572282
 10
91.33619925016943
 20
-116.2261528572282
 10
91.33619925016943
 20
-116.1035074579533
 10
91.33619925016943
 20
-116.1035074579533
 10
91.33619925016943
 20
-116.1035074579533
 10
91.15636526583938
 20
-116.1035074579533
 10
91.15636526583938
 20
-116.1035074579533
 10
91.13741724067052
 20
-116.1627631002996
 10
91.09090845161964
 20
-116.3086628940999
 10
90.97653128150934
 20
-116.3911729309717
 10
90.97653128150934
 20
-116.3911729309717
 10
90.820123946479
 20
-116.2854084995745
 10
90.820123946479
 20
-116.2854084995745
 10
90.89419349941187
 20
-116.2388997105236
 10
91.01029321726479
 20
-116.1648301575907
 10
91.01029321726479
 20
-115.8434027488169
 10
91.01029321726479
 20
-115.7882812210529
 10
91.00615910268249
 20
-115.7438394892932
 10
91.00409204539135
 20
-115.7057711841812
 10
91.08022865561536
 20
-115.7142116681201
 10
91.15429820854824
 20
-115.7205850947678
 10
91.21768796547683
 20
-115.7205850947678
 10
91.39528263774146
 20
-115.7205850947678
 10
91.59406464724037
 20
-115.6613294524215
 10
91.65538734687783
 20
-115.6317016312483
 10
91.65538734687783
 20
-115.6317016312483
 10
91.78251137028354
 20
-115.7670938838186
 10
91.78251137028354
 20
-115.7670938838186
 10
91.78664548486584
 20
-115.7714002531752
 10
91.78871254215699
 20
-115.7798407371141
 10
91.78871254215699
 20
-115.7862141637618
 10
91.78871254215699
 20
-115.8074015009961
 10
91.77389863157042
 20
-115.8137749276438
 10
91.7570176636927
 20
-115.8137749276438
 10
91.73600258123267
 20
-115.8137749276438
 10
91.7211886706461
 20
-115.8053344437049
 10
91.70189613592869
 20
-115.7946546477007
 10
91.52860783302063
 20
-115.8518432327558
 10
91.31070554357858
 20
-115.8771646845724
 10
91.17738034829941
 20
-115.8792317418635
 10
91.17738034829941
 20
-115.8792317418635
 10
91.17324623371711
 20
-115.9617417787353
 10
91.17324623371711
 20
-115.9617417787353
 10
91.17324623371711
 20
-115.9617417787353
 10
91.44592554137463
 20
-115.9617417787353
 10
91.44592554137463
 20
-115.9617417787353
 10
91.50311412642978
 20
-115.9617417787353
 10
91.76563040240582
 20
-115.9427937535664
 10
91.80972762461701
 20
-115.9364203269187
 10
91.80972762461701
 20
-115.9364203269187
 10
91.80972762461701
 20
-116.1055745152444
 10
91.80972762461701
 20
-116.1055745152444
 10
91.77596568886158
 20
-116.1014404006621
 10
91.76321883556615
 20
-116.099373343371
 10
91.68501516805097
 20
-116.099373343371
 97
        0
 97
        0
 75
     2
 76
     1
 98
        0
  0
SPLINE
  5
B3
330
77
100
AcDbEntity
  8
_U+30EC_U+30A4_U+30E4_U+30FC 1
370
     0
100
AcDbSpline
210
0.0
220
0.0
230
1.0
 70
    11
 71
     3
 72
    53
 73
    49
 74
     0
 42
0.0000000001
 43
0.0000000001
 12
1.0
 22
0.0
 32
0.0
 13
1.0
 23
0.0
 33
0.0
 40
0.0
 40
0.0
 40
0.0
 40
0.0
 40
1.0
 40
1.0
 40
1.0
 40
2.0
 40
2.0
 40
2.0
 40
3.0
 40
3.0
 40
3.0
 40
4.0
 40
4.0
 40
4.0
 40
5.0
 40
5.0
 40
5.0
 40
6.0
 40
6.0
 40
6.0
 40
7.0
 40
7.0
 40
7.0
 40
8.0
 40
8.0
 40
8.0
 40
9.0
 40
9.0
 40
9.0
 40
10.0
 40
10.0
 40
10.0
 40
11.0
 40
11.0
 40
11.0
 40
12.0
 40
12.0
 40
12.0
 40
13.0
 40
13.0
 40
13.0
 40
14.0
 40
14.0
 40
14.0
 40
15.0
 40
15.0
 40
15.0
 40
16.0
 40
16.0
 40
16.0
 40
16.0
 10
93.13781193418083
 20
-117.461736353013
 30
0.0
 10
92.94764266339504
 20
-117.461736353013
 30
0.0
 10
92.88838702104874
 20
-117.3368516416727
 30
0.0
 10
92.88838702104874
 20
-117.188712535807
 30
0.0
 10
92.88838702104874
 20
-117.188712535807
 30
0.0
 10
92.88838702104874
 20
-116.4948703050777
 30
0.0
 10
92.88838702104874
 20
-116.4948703050777
 30
0.0
 10
92.88838702104874
 20
-116.4948703050777
 30
0.0
 10
92.70648597942755
 20
-116.4948703050777
 30
0.0
 10
92.70648597942755
 20
-116.4948703050777
 30
0.0
 10
92.70648597942755
 20
-116.4948703050777
 30
0.0
 10
92.70648597942755
 20
-116.3024617222265
 30
0.0
 10
92.70648597942755
 20
-116.3024617222265
 30
0.0
 10
92.70648597942755
 20
-116.3024617222265
 30
0.0
 10
92.88838702104874
 20
-116.3024617222265
 30
0.0
 10
92.88838702104874
 20
-116.3024617222265
 30
0.0
 10
92.88838702104874
 20
-116.3024617222265
 30
0.0
 10
92.88838702104874
 20
-115.9872354853261
 30
0.0
 10
92.88838702104874
 20
-115.9872354853261
 30
0.0
 10
92.88838702104874
 20
-115.9872354853261
 30
0.0
 10
93.10611705571652
 20
-115.9872354853261
 30
0.0
 10
93.10611705571652
 20
-115.9872354853261
 30
0.0
 10
93.10611705571652
 20
-115.9872354853261
 30
0.0
 10
93.10611705571652
 20
-116.3024617222265
 30
0.0
 10
93.10611705571652
 20
-116.3024617222265
 30
0.0
 10
93.10611705571652
 20
-116.3024617222265
 30
0.0
 10
93.29663083605085
 20
-116.3024617222265
 30
0.0
 10
93.29663083605085
 20
-116.3024617222265
 30
0.0
 10
93.29663083605085
 20
-116.3024617222265
 30
0.0
 10
93.29663083605085
 20
-116.4948703050777
 30
0.0
 10
93.29663083605085
 20
-116.4948703050777
 30
0.0
 10
93.29663083605085
 20
-116.4948703050777
 30
0.0
 10
93.10611705571652
 20
-116.4948703050777
 30
0.0
 10
93.10611705571652
 20
-116.4948703050777
 30
0.0
 10
93.10611705571652
 20
-116.4948703050777
 30
0.0
 10
93.10611705571652
 20
-117.1633910839904
 30
0.0
 10
93.10611705571652
 20
-117.1633910839904
 30
0.0
 10
93.10611705571652
 20
-117.2479681781533
 30
0.0
 10
93.15917152618938
 20
-117.2712225726787
 30
0.0
 10
93.23082951228257
 20
-117.2712225726787
 30
0.0
 10
93.24150930828685
 20
-117.2712225726787
 30
0.0
 10
93.26493595758654
 20
-117.2712225726787
 30
0.0
 10
93.29663083605085
 20
-117.2670884580964
 30
0.0
 10
93.29663083605085
 20
-117.2670884580964
 30
0.0
 10
93.29663083605085
 20
-117.4384819584876
 30
0.0
 10
93.29663083605085
 20
-117.4384819584876
 30
0.0
 10
93.2628689002954
 20
-117.4510565570088
 30
0.0
 10
93.18879934736253
 20
-117.461736353013
 30
0.0
 10
93.13781193418083
 20
-117.461736353013
 30
0.0
  0
HATCH
  5
B4
330
77
100
AcDbEntity
  8
_U+30EC_U+30A4_U+30E4_U+30FC 1
 62
   179
420
  2234388
100
AcDbHatch
 10
0.0
 20
0.0
 30
0.0
210
0.0
220
0.0
230
1.0
  2
SOLID
 70
     1
 71
     0
 91
        1
 92
        1
 93
        1
 72
     4
 94
        3
 73
     0
 74
     1
 95
       53
 96
       49
 40
0.0
 40
0.0
 40
0.0
 40
0.0
 40
1.0
 40
1.0
 40
1.0
 40
2.0
 40
2.0
 40
2.0
 40
3.0
 40
3.0
 40
3.0
 40
4.0
 40
4.0
 40
4.0
 40
5.0
 40
5.0
 40
5.0
 40
6.0
 40
6.0
 40
6.0
 40
7.0
 40
7.0
 40
7.0
 40
8.0
 40
8.0
 40
8.0
 40
9.0
 40
9.0
 40
9.0
 40
10.0
 40
10.0
 40
10.0
 40
11.0
 40
11.0
 40
11.0
 40
12.0
 40
12.0
 40
12.0
 40
13.0
 40
13.0
 40
13.0
 40
14.0
 40
14.0
 40
14.0
 40
15.0
 40
15.0
 40
15.0
 40
16.0
 40
16.0
 40
16.0
 40
16.0
 10
93.13781193418083
 20
-117.461736353013
 10
92.94764266339504
 20
-117.461736353013
 10
92.88838702104874
 20
-117.3368516416727
 10
92.88838702104874
 20
-117.188712535807
 10
92.88838702104874
 20
-117.188712535807
 10
92.88838702104874
 20
-116.4948703050777
 10
92.88838702104874
 20
-116.4948703050777
 10
92.88838702104874
 20
-116.4948703050777
 10
92.70648597942755
 20
-116.4948703050777
 10
92.70648597942755
 20
-116.4948703050777
 10
92.70648597942755
 20
-116.4948703050777
 10
92.70648597942755
 20
-116.3024617222265
 10
92.70648597942755
 20
-116.3024617222265
 10
92.70648597942755
 20
-116.3024617222265
 10
92.88838702104874
 20
-116.3024617222265
 10
92.88838702104874
 20
-116.3024617222265
 10
92.88838702104874
 20
-116.3024617222265
 10
92.88838702104874
 20
-115.9872354853261
 10
92.88838702104874
 20
-115.9872354853261
 10
92.88838702104874
 20
-115.9872354853261
 10
93.10611705571652
 20
-115.9872354853261
 10
93.10611705571652
 20
-115.9872354853261
 10
93.10611705571652
 20
-115.9872354853261
 10
93.10611705571652
 20
-116.3024617222265
 10
93.10611705571652
 20
-116.3024617222265
 10
93.10611705571652
 20
-116.3024617222265
 10
93.29663083605085
 20
-116.3024617222265
 10
93.29663083605085
 20
-116.3024617222265
 10
93.29663083605085
 20
-116.3024617222265
 10
93.29663083605085
 20
-116.4948703050777
 10
93.29663083605085
 20
-116.4948703050777
 10
93.29663083605085
 20
-116.4948703050777
 10
93.10611705571652
 20
-116.4948703050777
 10
93.10611705571652
 20
-116.4948703050777
 10
93.10611705571652
 20
-116.4948703050777
 10
93.10611705571652
 20
-117.1633910839904
 10
93.10611705571652
 20
-117.1633910839904
 10
93.10611705571652
 20
-117.2479681781533
 10
93.15917152618938
 20
-117.2712225726787
 10
93.23082951228257
 20
-117.2712225726787
 10
93.24150930828685
 20
-117.2712225726787
 10
93.26493595758654
 20
-117.2712225726787
 10
93.29663083605085
 20
-117.2670884580964
 10
93.29663083605085
 20
-117.2670884580964
 10
93.29663083605085
 20
-117.4384819584876
 10
93.29663083605085
 20
-117.4384819584876
 10
93.2628689002954
 20
-117.4510565570088
 10
93.18879934736253
 20
-117.461736353013
 10
93.13781193418083
 20
-117.461736353013
 97
        0
 97
        0
 75
     2
 76
     1
 98
        0
  0
POLYLINE
  5
B5
330
77
100
AcDbEntity
  8
_U+30EC_U+30A4_U+30E4_U+30FC 1
370
     0
100
AcDb2dPolyline
 66
     1
 10
0.0
 20
0.0
 30
0.0
  0
VERTEX
  5
B6
330
B5
100
AcDbEntity
  8
_U+30EC_U+30A4_U+30E4_U+30FC 1
370
     0
100
AcDbVertex
100
AcDb2dVertex
 10
93.47026364850744
 20
-116.5244981262508
 30
0.0
  0
VERTEX
  5
B7
330
B5
100
AcDbEntity
  8
_U+30EC_U+30A4_U+30E4_U+30FC 1
370
     0
100
AcDbVertex
100
AcDb2dVertex
 10
93.47026364850744
 20
-116.3193426901042
 30
0.0
  0
VERTEX
  5
B8
330
B5
100
AcDbEntity
  8
_U+30EC_U+30A4_U+30E4_U+30FC 1
370
     0
100
AcDbVertex
100
AcDb2dVertex
 10
94.64848630446288
 20
-116.3193426901042
 30
0.0
  0
VERTEX
  5
B9
330
B5
100
AcDbEntity
  8
_U+30EC_U+30A4_U+30E4_U+30FC 1
370
     0
100
AcDbVertex
100
AcDb2dVertex
 10
94.64848630446288
 20
-116.5244981262508
 30
0.0
  0
VERTEX
  5
BA
330
B5
100
AcDbEntity
  8
_U+30EC_U+30A4_U+30E4_U+30FC 1
370
     0
100
AcDbVertex
100
AcDb2dVertex
 10
93.47026364850744
 20
-116.5244981262508
 30
0.0
  0
SEQEND
  5
BB
330
B5
100
AcDbEntity
  8
_U+30EC_U+30A4_U+30E4_U+30FC 1
370
     0
  0
POLYLINE
  5
BC
330
77
100
AcDbEntity
  8
_U+30EC_U+30A4_U+30E4_U+30FC 1
370
     0
100
AcDb2dPolyline
 66
     1
 10
0.0
 20
0.0
 30
0.0
  0
VERTEX
  5
BD
330
BC
100
AcDbEntity
  8
_U+30EC_U+30A4_U+30E4_U+30FC 1
370
     0
100
AcDbVertex
100
AcDb2dVertex
 10
93.47026364850744
 20
-116.9582356478438
 30
0.0
  0
VERTEX
  5
BE
330
BC
100
AcDbEntity
  8
_U+30EC_U+30A4_U+30E4_U+30FC 1
370
     0
100
AcDbVertex
100
AcDb2dVertex
 10
93.47026364850744
 20
-116.7530802116972
 30
0.0
  0
VERTEX
  5
BF
330
BC
100
AcDbEntity
  8
_U+30EC_U+30A4_U+30E4_U+30FC 1
370
     0
100
AcDbVertex
100
AcDb2dVertex
 10
94.64848630446288
 20
-116.7530802116972
 30
0.0
  0
VERTEX
  5
C0
330
BC
100
AcDbEntity
  8
_U+30EC_U+30A4_U+30E4_U+30FC 1
370
     0
100
AcDbVertex
100
AcDb2dVertex
 10
94.64848630446288
 20
-116.9582356478438
 30
0.0
  0
VERTEX
  5
C1
330
BC
100
AcDbEntity
  8
_U+30EC_U+30A4_U+30E4_U+30FC 1
370
     0
100
AcDbVertex
100
AcDb2dVertex
 10
93.47026364850744
 20
-116.9582356478438
 30
0.0
  0
SEQEND
  5
C2
330
BC
100
AcDbEntity
  8
_U+30EC_U+30A4_U+30E4_U+30FC 1
370
     0
  0
HATCH
  5
C3
330
77
100
AcDbEntity
  8
_U+30EC_U+30A4_U+30E4_U+30FC 1
 62
   179
420
  2234388
100
AcDbHatch
 10
0.0
 20
0.0
 30
0.0
210
0.0
220
0.0
230
1.0
  2
SOLID
 70
     1
 71
     0
 91
        2
 92
        1
 93
        4
 72
     1
 10
93.47026364850744
 20
-116.5244981262508
 11
93.47026364850744
 21
-116.3193426901042
 72
     1
 10
93.47026364850744
 20
-116.3193426901042
 11
94.64848630446288
 21
-116.3193426901042
 72
     1
 10
94.64848630446288
 20
-116.3193426901042
 11
94.64848630446288
 21
-116.5244981262508
 72
     1
 10
94.64848630446288
 20
-116.5244981262508
 11
93.47026364850744
 21
-116.5244981262508
 97
        0
 92
        1
 93
        4
 72
     1
 10
93.47026364850744
 20
-116.9582356478438
 11
93.47026364850744
 21
-116.7530802116972
 72
     1
 10
93.47026364850744
 20
-116.7530802116972
 11
94.64848630446288
 21
-116.7530802116972
 72
     1
 10
94.64848630446288
 20
-116.7530802116972
 11
94.64848630446288
 21
-116.9582356478438
 72
     1
 10
94.64848630446288
 20
-116.9582356478438
 11
93.47026364850744
 21
-116.9582356478438
 97
        0
 75
     2
 76
     1
 98
        0
  0
SPLINE
  5
C4
330
77
100
AcDbEntity
  8
_U+30EC_U+30A4_U+30E4_U+30FC 1
370
     0
100
AcDbSpline
210
0.0
220
0.0
230
1.0
 70
    11
 71
     3
 72
    26
 73
    22
 74
     0
 42
0.0000000001
 43
0.0000000001
 12
1.0
 22
0.0
 32
0.0
 13
1.0
 23
0.0
 33
0.0
 40
0.0
 40
0.0
 40
0.0
 40
0.0
 40
1.0
 40
1.0
 40
1.0
 40
2.0
 40
2.0
 40
2.0
 40
3.0
 40
3.0
 40
3.0
 40
4.0
 40
4.0
 40
4.0
 40
5.0
 40
5.0
 40
5.0
 40
6.0
 40
6.0
 40
6.0
 40
7.0
 40
7.0
 40
7.0
 40
7.0
 10
95.3244140386689
 20
-117.4109211946056
 30
0.0
 10
95.3244140386689
 20
-117.4109211946056
 30
0.0
 10
95.3244140386689
 20
-116.3065958368088
 30
0.0
 10
95.3244140386689
 20
-116.3065958368088
 30
0.0
 10
95.3244140386689
 20
-116.3065958368088
 30
0.0
 10
94.99437389118197
 20
-116.3065958368088
 30
0.0
 10
94.99437389118197
 20
-116.3065958368088
 30
0.0
 10
94.99437389118197
 20
-116.3065958368088
 30
0.0
 10
94.99437389118197
 20
-116.1586289857173
 30
0.0
 10
94.99437389118197
 20
-116.1586289857173
 30
0.0
 10
95.32648109596005
 20
-116.1438150751307
 30
0.0
 10
95.37298988501092
 20
-115.9808620586784
 30
0.0
 10
95.40261770618407
 20
-115.8666571433424
 30
0.0
 10
95.40261770618407
 20
-115.8666571433424
 30
0.0
 10
95.54868975475867
 20
-115.8666571433424
 30
0.0
 10
95.54868975475867
 20
-115.8666571433424
 30
0.0
 10
95.54868975475867
 20
-115.8666571433424
 30
0.0
 10
95.54868975475867
 20
-117.4109211946056
 30
0.0
 10
95.54868975475867
 20
-117.4109211946056
 30
0.0
 10
95.54868975475867
 20
-117.4109211946056
 30
0.0
 10
95.3244140386689
 20
-117.4109211946056
 30
0.0
 10
95.3244140386689
 20
-117.4109211946056
 30
0.0
  0
HATCH
  5
C5
330
77
100
AcDbEntity
  8
_U+30EC_U+30A4_U+30E4_U+30FC 1
 62
   179
420
  2234388
100
AcDbHatch
 10
0.0
 20
0.0
 30
0.0
210
0.0
220
0.0
230
1.0
  2
SOLID
 70
     1
 71
     0
 91
        1
 92
        1
 93
        1
 72
     4
 94
        3
 73
     0
 74
     1
 95
       26
 96
       22
 40
0.0
 40
0.0
 40
0.0
 40
0.0
 40
1.0
 40
1.0
 40
1.0
 40
2.0
 40
2.0
 40
2.0
 40
3.0
 40
3.0
 40
3.0
 40
4.0
 40
4.0
 40
4.0
 40
5.0
 40
5.0
 40
5.0
 40
6.0
 40
6.0
 40
6.0
 40
7.0
 40
7.0
 40
7.0
 40
7.0
 10
95.3244140386689
 20
-117.4109211946056
 10
95.3244140386689
 20
-117.4109211946056
 10
95.3244140386689
 20
-116.3065958368088
 10
95.3244140386689
 20
-116.3065958368088
 10
95.3244140386689
 20
-116.3065958368088
 10
94.99437389118197
 20
-116.3065958368088
 10
94.99437389118197
 20
-116.3065958368088
 10
94.99437389118197
 20
-116.3065958368088
 10
94.99437389118197
 20
-116.1586289857173
 10
94.99437389118197
 20
-116.1586289857173
 10
95.32648109596005
 20
-116.1438150751307
 10
95.37298988501092
 20
-115.9808620586784
 10
95.40261770618407
 20
-115.8666571433424
 10
95.40261770618407
 20
-115.8666571433424
 10
95.54868975475867
 20
-115.8666571433424
 10
95.54868975475867
 20
-115.8666571433424
 10
95.54868975475867
 20
-115.8666571433424
 10
95.54868975475867
 20
-117.4109211946056
 10
95.54868975475867
 20
-117.4109211946056
 10
95.54868975475867
 20
-117.4109211946056
 10
95.3244140386689
 20
-117.4109211946056
 10
95.3244140386689
 20
-117.4109211946056
 97
        0
 97
        0
 75
     2
 76
     1
 98
        0
  0
POLYLINE
  5
C6
330
77
100
AcDbEntity
  8
_U+30EC_U+30A4_U+30E4_U+30FC 1
370
     0
100
AcDb2dPolyline
 66
     1
 10
0.0
 20
0.0
 30
0.0
  0
VERTEX
  5
C7
330
C6
100
AcDbEntity
  8
_U+30EC_U+30A4_U+30E4_U+30FC 1
370
     0
100
AcDbVertex
100
AcDb2dVertex
 10
96.10989580930587
 20
-117.4109211946056
 30
0.0
  0
VERTEX
  5
C8
330
C6
100
AcDbEntity
  8
_U+30EC_U+30A4_U+30E4_U+30FC 1
370
     0
100
AcDbVertex
100
AcDb2dVertex
 10
96.10989580930587
 20
-117.1592569694081
 30
0.0
  0
VERTEX
  5
C9
330
C6
100
AcDbEntity
  8
_U+30EC_U+30A4_U+30E4_U+30FC 1
370
     0
100
AcDbVertex
100
AcDb2dVertex
 10
96.36173228927763
 20
-117.1592569694081
 30
0.0
  0
VERTEX
  5
CA
330
C6
100
AcDbEntity
  8
_U+30EC_U+30A4_U+30E4_U+30FC 1
370
     0
100
AcDbVertex
100
AcDb2dVertex
 10
96.36173228927763
 20
-117.4109211946056
 30
0.0
  0
VERTEX
  5
CB
330
C6
100
AcDbEntity
  8
_U+30EC_U+30A4_U+30E4_U+30FC 1
370
     0
100
AcDbVertex
100
AcDb2dVertex
 10
96.10989580930587
 20
-117.4109211946056
 30
0.0
  0
SEQEND
  5
CC
330
C6
100
AcDbEntity
  8
_U+30EC_U+30A4_U+30E4_U+30FC 1
370
     0
  0
HATCH
  5
CD
330
77
100
AcDbEntity
  8
_U+30EC_U+30A4_U+30E4_U+30FC 1
 62
   179
420
  2234388
100
AcDbHatch
 10
0.0
 20
0.0
 30
0.0
210
0.0
220
0.0
230
1.0
  2
SOLID
 70
     1
 71
     0
 91
        1
 92
        1
 93
        4
 72
     1
 10
96.10989580930587
 20
-117.4109211946056
 11
96.10989580930587
 21
-117.1592569694081
 72
     1
 10
96.10989580930587
 20
-117.1592569694081
 11
96.36173228927763
 21
-117.1592569694081
 72
     1
 10
96.36173228927763
 20
-117.1592569694081
 11
96.36173228927763
 21
-117.4109211946056
 72
     1
 10
96.36173228927763
 20
-117.4109211946056
 11
96.10989580930587
 21
-117.4109211946056
 97
        0
 75
     2
 76
     1
 98
        0
  0
SPLINE
  5
CE
330
77
100
AcDbEntity
  8
_U+30EC_U+30A4_U+30E4_U+30FC 1
370
     0
100
AcDbSpline
210
0.0
220
0.0
230
1.0
 70
    11
 71
     3
 72
    29
 73
    25
 74
     0
 42
0.0000000001
 43
0.0000000001
 12
1.0
 22
0.0
 32
0.0
 13
1.0
 23
0.0
 33
0.0
 40
0.0
 40
0.0
 40
0.0
 40
0.0
 40
1.0
 40
1.0
 40
1.0
 40
2.0
 40
2.0
 40
2.0
 40
3.0
 40
3.0
 40
3.0
 40
4.0
 40
4.0
 40
4.0
 40
5.0
 40
5.0
 40
5.0
 40
6.0
 40
6.0
 40
6.0
 40
7.0
 40
7.0
 40
7.0
 40
8.0
 40
8.0
 40
8.0
 40
8.0
 10
97.49585772302187
 20
-117.2331542675667
 30
0.0
 10
97.38768172478503
 20
-117.4426160730699
 30
0.0
 10
97.21439342187696
 20
-117.461736353013
 30
0.0
 10
97.09794919447552
 20
-117.461736353013
 30
0.0
 10
96.93706323531435
 20
-117.461736353013
 30
0.0
 10
96.79546981087059
 20
-117.4152275639622
 30
0.0
 10
96.70038517547769
 20
-117.2331542675667
 30
0.0
 10
96.59668780137167
 20
-117.0385063726501
 30
0.0
 10
96.57773977620279
 20
-116.8016560580392
 30
0.0
 10
96.57773977620279
 20
-116.6387030415869
 30
0.0
 10
96.57773977620279
 20
-116.4948703050777
 30
0.0
 10
96.59462074408052
 20
-116.2432060798802
 30
0.0
 10
96.70038517547769
 20
-116.044251815607
 30
0.0
 10
96.80821666416601
 20
-115.8411634367515
 30
0.0
 10
96.96910262332717
 20
-115.8179090422261
 30
0.0
 10
97.09794919447552
 20
-115.8179090422261
 30
0.0
 10
97.25676809634554
 20
-115.8179090422261
 30
0.0
 10
97.40042857808045
 20
-115.8623507739858
 30
0.0
 10
97.49585772302187
 20
-116.044251815607
 30
0.0
 10
97.59507647299706
 20
-116.2368326532325
 30
0.0
 10
97.61850312229677
 20
-116.4652424839045
 30
0.0
 10
97.61850312229677
 20
-116.6387030415869
 30
0.0
 10
97.61850312229677
 20
-116.810096541978
 30
0.0
 10
97.59714353028822
 20
-117.0407456847155
 30
0.0
 10
97.49585772302187
 20
-117.2331542675667
 30
0.0
  0
SPLINE
  5
CF
330
77
100
AcDbEntity
  8
_U+30EC_U+30A4_U+30E4_U+30FC 1
370
     0
100
AcDbSpline
210
0.0
220
0.0
230
1.0
 70
    11
 71
     3
 72
    17
 73
    13
 74
     0
 42
0.0000000001
 43
0.0000000001
 12
1.0
 22
0.0
 32
0.0
 13
1.0
 23
0.0
 33
0.0
 40
0.0
 40
0.0
 40
0.0
 40
0.0
 40
1.0
 40
1.0
 40
1.0
 40
2.0
 40
2.0
 40
2.0
 40
3.0
 40
3.0
 40
3.0
 40
4.0
 40
4.0
 40
4.0
 40
4.0
 10
97.09794919447552
 20
-116.0104898798515
 30
0.0
 10
96.84852428134343
 20
-116.0104898798515
 30
0.0
 10
96.80167098274403
 20
-116.2940212382876
 30
0.0
 10
96.80167098274403
 20
-116.6387030415869
 30
0.0
 10
96.80167098274403
 20
-116.9582356478438
 30
0.0
 10
96.83784448533916
 20
-117.2670884580964
 30
0.0
 10
97.09794919447552
 20
-117.2670884580964
 30
0.0
 10
97.34565155986498
 20
-117.2670884580964
 30
0.0
 10
97.39422740620701
 20
-116.9856241569515
 30
0.0
 10
97.39422740620701
 20
-116.6387030415869
 30
0.0
 10
97.39422740620701
 20
-116.3193426901042
 30
0.0
 10
97.35598684632073
 20
-116.0104898798515
 30
0.0
 10
97.09794919447552
 20
-116.0104898798515
 30
0.0
  0
HATCH
  5
D0
330
77
100
AcDbEntity
  8
_U+30EC_U+30A4_U+30E4_U+30FC 1
 62
   179
420
  2234388
100
AcDbHatch
 10
0.0
 20
0.0
 30
0.0
210
0.0
220
0.0
230
1.0
  2
SOLID
 70
     1
 71
     0
 91
        2
 92
        1
 93
        1
 72
     4
 94
        3
 73
     0
 74
     1
 95
       29
 96
       25
 40
0.0
 40
0.0
 40
0.0
 40
0.0
 40
1.0
 40
1.0
 40
1.0
 40
2.0
 40
2.0
 40
2.0
 40
3.0
 40
3.0
 40
3.0
 40
4.0
 40
4.0
 40
4.0
 40
5.0
 40
5.0
 40
5.0
 40
6.0
 40
6.0
 40
6.0
 40
7.0
 40
7.0
 40
7.0
 40
8.0
 40
8.0
 40
8.0
 40
8.0
 10
97.49585772302187
 20
-117.2331542675667
 10
97.38768172478503
 20
-117.4426160730699
 10
97.21439342187696
 20
-117.461736353013
 10
97.09794919447552
 20
-117.461736353013
 10
96.93706323531435
 20
-117.461736353013
 10
96.79546981087059
 20
-117.4152275639622
 10
96.70038517547769
 20
-117.2331542675667
 10
96.59668780137167
 20
-117.0385063726501
 10
96.57773977620279
 20
-116.8016560580392
 10
96.57773977620279
 20
-116.6387030415869
 10
96.57773977620279
 20
-116.4948703050777
 10
96.59462074408052
 20
-116.2432060798802
 10
96.70038517547769
 20
-116.044251815607
 10
96.80821666416601
 20
-115.8411634367515
 10
96.96910262332717
 20
-115.8179090422261
 10
97.09794919447552
 20
-115.8179090422261
 10
97.25676809634554
 20
-115.8179090422261
 10
97.40042857808045
 20
-115.8623507739858
 10
97.49585772302187
 20
-116.044251815607
 10
97.59507647299706
 20
-116.2368326532325
 10
97.61850312229677
 20
-116.4652424839045
 10
97.61850312229677
 20
-116.6387030415869
 10
97.61850312229677
 20
-116.810096541978
 10
97.59714353028822
 20
-117.0407456847155
 10
97.49585772302187
 20
-117.2331542675667
 97
        0
 97
        0
 92
        1
 93
        1
 72
     4
 94
        3
 73
     0
 74
     1
 95
       17
 96
       13
 40
0.0
 40
0.0
 40
0.0
 40
0.0
 40
1.0
 40
1.0
 40
1.0
 40
2.0
 40
2.0
 40
2.0
 40
3.0
 40
3.0
 40
3.0
 40
4.0
 40
4.0
 40
4.0
 40
4.0
 10
97.09794919447552
 20
-116.0104898798515
 10
96.84852428134343
 20
-116.0104898798515
 10
96.80167098274403
 20
-116.2940212382876
 10
96.80167098274403
 20
-116.6387030415869
 10
96.80167098274403
 20
-116.9582356478438
 10
96.83784448533916
 20
-117.2670884580964
 10
97.09794919447552
 20
-117.2670884580964
 10
97.34565155986498
 20
-117.2670884580964
 10
97.39422740620701
 20
-116.9856241569515
 10
97.39422740620701
 20
-116.6387030415869
 10
97.39422740620701
 20
-116.3193426901042
 10
97.35598684632073
 20
-116.0104898798515
 10
97.09794919447552
 20
-116.0104898798515
 97
        0
 97
        0
 75
     2
 76
     1
 98
        0
  0
ENDBLK
  5
7A
330
77
100
AcDbEntity
  8
0
100
AcDbBlockEnd
  0
BLOCK
  5
DF
330
DD
100
AcDbEntity
  8
0
100
AcDbBlockBegin
  2
block 4
 70
     0
 10
0.0
 20
0.0
 30
0.0
  3
block 4
  1

  0
POLYLINE
  5
E1
330
DD
100
AcDbEntity
  8
_U+30EC_U+30A4_U+30E4_U+30FC 1
370
     0
100
AcDb2dPolyline
 66
     1
 10
0.0
 20
0.0
 30
0.0
  0
VERTEX
  5
E2
330
E1
100
AcDbEntity
  8
_U+30EC_U+30A4_U+30E4_U+30FC 1
370
     0
100
AcDbVertex
100
AcDb2dVertex
 10
112.4475721290062
 20
-126.3457763356011
 30
0.0
  0
VERTEX
  5
E3
330
E1
100
AcDbEntity
  8
_U+30EC_U+30A4_U+30E4_U+30FC 1
370
     0
100
AcDbVertex
100
AcDb2dVertex
 10
112.3404296594149
 20
-126.675816483088
 30
0.0
  0
VERTEX
  5
E4
330
E1
100
AcDbEntity
  8
_U+30EC_U+30A4_U+30E4_U+30FC 1
370
     0
100
AcDbVertex
100
AcDb2dVertex
 10
112.1333794207514
 20
-126.6086371211256
 30
0.0
  0
VERTEX
  5
E5
330
E1
100
AcDbEntity
  8
_U+30EC_U+30A4_U+30E4_U+30FC 1
370
     0
100
AcDbVertex
100
AcDb2dVertex
 10
112.2405218903426
 20
-126.2785969736387
 30
0.0
  0
VERTEX
  5
E6
330
E1
100
AcDbEntity
  8
_U+30EC_U+30A4_U+30E4_U+30FC 1
370
     0
100
AcDbVertex
100
AcDb2dVertex
 10
111.6166150979639
 20
-126.076025359106
 30
0.0
  0
VERTEX
  5
E7
330
E1
100
AcDbEntity
  8
_U+30EC_U+30A4_U+30E4_U+30FC 1
370
     0
100
AcDbVertex
100
AcDb2dVertex
 10
111.6858615172174
 20
-125.8624294390205
 30
0.0
  0
VERTEX
  5
E8
330
E1
100
AcDbEntity
  8
_U+30EC_U+30A4_U+30E4_U+30FC 1
370
     0
100
AcDbVertex
100
AcDb2dVertex
 10
112.6325737565641
 20
-125.1468831067341
 30
0.0
  0
VERTEX
  5
E9
330
E1
100
AcDbEntity
  8
_U+30EC_U+30A4_U+30E4_U+30FC 1
370
     0
100
AcDbVertex
100
AcDb2dVertex
 10
112.817575384122
 20
-125.207172277726
 30
0.0
  0
VERTEX
  5
EA
330
E1
100
AcDbEntity
  8
_U+30EC_U+30A4_U+30E4_U+30FC 1
370
     0
100
AcDbVertex
100
AcDb2dVertex
 10
112.5088948286436
 20
-126.1566405934608
 30
0.0
  0
VERTEX
  5
EB
330
E1
100
AcDbEntity
  8
_U+30EC_U+30A4_U+30E4_U+30FC 1
370
     0
100
AcDbVertex
100
AcDb2dVertex
 10
112.7062987999484
 20
-126.2207193694865
 30
0.0
  0
VERTEX
  5
EC
330
E1
100
AcDbEntity
  8
_U+30EC_U+30A4_U+30E4_U+30FC 1
370
     0
100
AcDbVertex
100
AcDb2dVertex
 10
112.644976100311
 20
-126.4098551116267
 30
0.0
  0
VERTEX
  5
ED
330
E1
100
AcDbEntity
  8
_U+30EC_U+30A4_U+30E4_U+30FC 1
370
     0
100
AcDbVertex
100
AcDb2dVertex
 10
112.4475721290062
 20
-126.3457763356011
 30
0.0
  0
SEQEND
  5
EE
330
E1
100
AcDbEntity
  8
_U+30EC_U+30A4_U+30E4_U+30FC 1
370
     0
  0
POLYLINE
  5
EF
330
DD
100
AcDbEntity
  8
_U+30EC_U+30A4_U+30E4_U+30FC 1
370
     0
100
AcDb2dPolyline
 66
     1
 10
0.0
 20
0.0
 30
0.0
  0
VERTEX
  5
F0
330
EF
100
AcDbEntity
  8
_U+30EC_U+30A4_U+30E4_U+30FC 1
370
     0
100
AcDbVertex
100
AcDb2dVertex
 10
112.5044162045128
 20
-125.4655544391197
 30
0.0
  0
VERTEX
  5
F1
330
EF
100
AcDbEntity
  8
_U+30EC_U+30A4_U+30E4_U+30FC 1
370
     0
100
AcDbVertex
100
AcDb2dVertex
 10
111.8670735397416
 20
-125.9482123166032
 30
0.0
  0
VERTEX
  5
F2
330
EF
100
AcDbEntity
  8
_U+30EC_U+30A4_U+30E4_U+30FC 1
370
     0
100
AcDbVertex
100
AcDb2dVertex
 10
112.3018445899801
 20
-126.0894612314985
 30
0.0
  0
VERTEX
  5
F3
330
EF
100
AcDbEntity
  8
_U+30EC_U+30A4_U+30E4_U+30FC 1
370
     0
100
AcDbVertex
100
AcDb2dVertex
 10
112.5044162045128
 20
-125.4655544391197
 30
0.0
  0
SEQEND
  5
F4
330
EF
100
AcDbEntity
  8
_U+30EC_U+30A4_U+30E4_U+30FC 1
370
     0
  0
HATCH
  5
F5
330
DD
100
AcDbEntity
  8
_U+30EC_U+30A4_U+30E4_U+30FC 1
 62
   179
420
  2234388
100
AcDbHatch
 10
0.0
 20
0.0
 30
0.0
210
0.0
220
0.0
230
1.0
  2
SOLID
 70
     1
 71
     0
 91
        2
 92
        1
 93
       11
 72
     1
 10
112.4475721290062
 20
-126.3457763356011
 11
112.3404296594149
 21
-126.675816483088
 72
     1
 10
112.3404296594149
 20
-126.675816483088
 11
112.1333794207514
 21
-126.6086371211256
 72
     1
 10
112.1333794207514
 20
-126.6086371211256
 11
112.2405218903426
 21
-126.2785969736387
 72
     1
 10
112.2405218903426
 20
-126.2785969736387
 11
111.6166150979639
 21
-126.076025359106
 72
     1
 10
111.6166150979639
 20
-126.076025359106
 11
111.6858615172174
 21
-125.8624294390205
 72
     1
 10
111.6858615172174
 20
-125.8624294390205
 11
112.6325737565641
 21
-125.1468831067341
 72
     1
 10
112.6325737565641
 20
-125.1468831067341
 11
112.817575384122
 21
-125.207172277726
 72
     1
 10
112.817575384122
 20
-125.207172277726
 11
112.5088948286436
 21
-126.1566405934608
 72
     1
 10
112.5088948286436
 20
-126.1566405934608
 11
112.7062987999484
 21
-126.2207193694865
 72
     1
 10
112.7062987999484
 20
-126.2207193694865
 11
112.644976100311
 21
-126.4098551116267
 72
     1
 10
112.644976100311
 20
-126.4098551116267
 11
112.4475721290062
 21
-126.3457763356011
 97
        0
 92
        1
 93
        3
 72
     1
 10
112.5044162045128
 20
-125.4655544391197
 11
111.8670735397416
 21
-125.9482123166032
 72
     1
 10
111.8670735397416
 20
-125.9482123166032
 11
112.3018445899801
 21
-126.0894612314985
 72
     1
 10
112.3018445899801
 20
-126.0894612314985
 11
112.5044162045128
 21
-125.4655544391197
 97
        0
 75
     2
 76
     1
 98
        0
  0
SPLINE
  5
F6
330
DD
100
AcDbEntity
  8
_U+30EC_U+30A4_U+30E4_U+30FC 1
370
     0
100
AcDbSpline
210
0.0
220
0.0
230
1.0
 70
    11
 71
     3
 72
    29
 73
    25
 74
     0
 42
0.0000000001
 43
0.0000000001
 12
1.0
 22
0.0
 32
0.0
 13
1.0
 23
0.0
 33
0.0
 40
0.0
 40
0.0
 40
0.0
 40
0.0
 40
1.0
 40
1.0
 40
1.0
 40
2.0
 40
2.0
 40
2.0
 40
3.0
 40
3.0
 40
3.0
 40
4.0
 40
4.0
 40
4.0
 40
5.0
 40
5.0
 40
5.0
 40
6.0
 40
6.0
 40
6.0
 40
7.0
 40
7.0
 40
7.0
 40
8.0
 40
8.0
 40
8.0
 40
8.0
 10
113.5772189386196
 20
-126.8907904413676
 30
0.0
 10
113.4094427884879
 20
-127.0564995342081
 30
0.0
 10
113.2389105619681
 20
-127.0213595602586
 30
0.0
 10
113.127978487343
 20
-126.9851860576634
 30
0.0
 10
112.9750162477979
 20
-126.9355766826758
 30
0.0
 10
112.8547824153627
 20
-126.8473822382534
 30
0.0
 10
112.8206759700587
 20
-126.6448106237207
 30
0.0
 10
112.7820909006239
 20
-126.42776960815
 30
0.0
 10
112.8372124283879
 20
-126.1966037010897
 30
0.0
 10
112.8875108224726
 20
-126.0415744042535
 30
0.0
 10
112.9319525542323
 20
-125.9048041134891
 30
0.0
 10
113.0260036609796
 20
-125.6708821300406
 30
0.0
 10
113.1879231487864
 20
-125.5141302854617
 30
0.0
 10
113.3532877320784
 20
-125.3542778549462
 30
0.0
 10
113.5131401625939
 20
-125.3821831283767
 30
0.0
 10
113.6357855618688
 20
-125.4218017264571
 30
0.0
 10
113.7866807441228
 20
-125.4710665918961
 30
0.0
 10
113.9100151624947
 20
-125.5575384885759
 30
0.0
 10
113.9444661173472
 20
-125.7601101031086
 30
0.0
 10
113.9792615817482
 20
-125.9740505327426
 30
0.0
 10
113.9310302449547
 20
-126.1983262488324
 30
0.0
 10
113.8772867553848
 20
-126.3633463225758
 30
0.0
 10
113.8245767944605
 20
-126.5262993390282
 30
0.0
 10
113.7329372545529
 20
-126.7392062400166
 30
0.0
 10
113.5772189386196
 20
-126.8907904413676
 30
0.0
  0
SPLINE
  5
F7
330
DD
100
AcDbEntity
  8
_U+30EC_U+30A4_U+30E4_U+30FC 1
370
     0
100
AcDbSpline
210
0.0
220
0.0
230
1.0
 70
    11
 71
     3
 72
    17
 73
    13
 74
     0
 42
0.0000000001
 43
0.0000000001
 12
1.0
 22
0.0
 32
0.0
 13
1.0
 23
0.0
 33
0.0
 40
0.0
 40
0.0
 40
0.0
 40
0.0
 40
1.0
 40
1.0
 40
1.0
 40
2.0
 40
2.0
 40
2.0
 40
3.0
 40
3.0
 40
3.0
 40
4.0
 40
4.0
 40
4.0
 40
4.0
 10
113.5765299195225
 20
-125.6047362967238
 30
0.0
 10
113.3395073501374
 20
-125.5279106674028
 30
0.0
 10
113.2072156835038
 20
-125.7828477333112
 30
0.0
 10
113.100417723461
 20
-126.110820823507
 30
0.0
 10
113.0018879925829
 20
-126.4146782453061
 30
0.0
 10
112.9409098024939
 20
-126.7195691957507
 30
0.0
 10
113.1882676583349
 20
-126.8001844301055
 30
0.0
 10
113.423912189526
 20
-126.8766655498781
 30
0.0
 10
113.5568928752566
 20
-126.6237955412607
 30
0.0
 10
113.6640353448479
 20
-126.2940999033223
 30
0.0
 10
113.7629095852746
 20
-125.9902424815233
 30
0.0
 10
113.8218207180723
 20
-125.6846625119816
 30
0.0
 10
113.5765299195225
 20
-125.6047362967238
 30
0.0
  0
HATCH
  5
F8
330
DD
100
AcDbEntity
  8
_U+30EC_U+30A4_U+30E4_U+30FC 1
 62
   179
420
  2234388
100
AcDbHatch
 10
0.0
 20
0.0
 30
0.0
210
0.0
220
0.0
230
1.0
  2
SOLID
 70
     1
 71
     0
 91
        2
 92
        1
 93
        1
 72
     4
 94
        3
 73
     0
 74
     1
 95
       29
 96
       25
 40
0.0
 40
0.0
 40
0.0
 40
0.0
 40
1.0
 40
1.0
 40
1.0
 40
2.0
 40
2.0
 40
2.0
 40
3.0
 40
3.0
 40
3.0
 40
4.0
 40
4.0
 40
4.0
 40
5.0
 40
5.0
 40
5.0
 40
6.0
 40
6.0
 40
6.0
 40
7.0
 40
7.0
 40
7.0
 40
8.0
 40
8.0
 40
8.0
 40
8.0
 10
113.5772189386196
 20
-126.8907904413676
 10
113.4094427884879
 20
-127.0564995342081
 10
113.2389105619681
 20
-127.0213595602586
 10
113.127978487343
 20
-126.9851860576634
 10
112.9750162477979
 20
-126.9355766826758
 10
112.8547824153627
 20
-126.8473822382534
 10
112.8206759700587
 20
-126.6448106237207
 10
112.7820909006239
 20
-126.42776960815
 10
112.8372124283879
 20
-126.1966037010897
 10
112.8875108224726
 20
-126.0415744042535
 10
112.9319525542323
 20
-125.9048041134891
 10
113.0260036609796
 20
-125.6708821300406
 10
113.1879231487864
 20
-125.5141302854617
 10
113.3532877320784
 20
-125.3542778549462
 10
113.5131401625939
 20
-125.3821831283767
 10
113.6357855618688
 20
-125.4218017264571
 10
113.7866807441228
 20
-125.4710665918961
 10
113.9100151624947
 20
-125.5575384885759
 10
113.9444661173472
 20
-125.7601101031086
 10
113.9792615817482
 20
-125.9740505327426
 10
113.9310302449547
 20
-126.1983262488324
 10
113.8772867553848
 20
-126.3633463225758
 10
113.8245767944605
 20
-126.5262993390282
 10
113.7329372545529
 20
-126.7392062400166
 10
113.5772189386196
 20
-126.8907904413676
 97
        0
 97
        0
 92
        1
 93
        1
 72
     4
 94
        3
 73
     0
 74
     1
 95
       17
 96
       13
 40
0.0
 40
0.0
 40
0.0
 40
0.0
 40
1.0
 40
1.0
 40
1.0
 40
2.0
 40
2.0
 40
2.0
 40
3.0
 40
3.0
 40
3.0
 40
4.0
 40
4.0
 40
4.0
 40
4.0
 10
113.5765299195225
 20
-125.6047362967238
 10
113.3395073501374
 20
-125.5279106674028
 10
113.2072156835038
 20
-125.7828477333112
 10
113.100417723461
 20
-126.110820823507
 10
113.0018879925829
 20
-126.4146782453061
 10
112.9409098024939
 20
-126.7195691957507
 10
113.1882676583349
 20
-126.8001844301055
 10
113.423912189526
 20
-126.8766655498781
 10
113.5568928752566
 20
-126.6237955412607
 10
113.6640353448479
 20
-126.2940999033223
 10
113.7629095852746
 20
-125.9902424815233
 10
113.8218207180723
 20
-125.6846625119816
 10
113.5765299195225
 20
-125.6047362967238
 97
        0
 97
        0
 75
     2
 76
     1
 98
        0
  0
ENDBLK
  5
E0
330
DD
100
AcDbEntity
  8
0
100
AcDbBlockEnd
  0
BLOCK
  5
107
330
105
100
AcDbEntity
  8
0
100
AcDbBlockBegin
  2
block 5
 70
     0
 10
0.0
 20
0.0
 30
0.0
  3
block 5
  1

  0
POLYLINE
  5
109
330
105
100
AcDbEntity
  8
_U+30EC_U+30A4_U+30E4_U+30FC 1
370
     0
100
AcDb2dPolyline
 66
     1
 10
0.0
 20
0.0
 30
0.0
  0
VERTEX
  5
10A
330
109
100
AcDbEntity
  8
_U+30EC_U+30A4_U+30E4_U+30FC 1
370
     0
100
AcDbVertex
100
AcDb2dVertex
 10
69.12566865676372
 20
-126.5624728416233
 30
0.0
  0
VERTEX
  5
10B
330
109
100
AcDbEntity
  8
_U+30EC_U+30A4_U+30E4_U+30FC 1
370
     0
100
AcDbVertex
100
AcDb2dVertex
 10
69.23298338112926
 20
-126.8925129891102
 30
0.0
  0
VERTEX
  5
10C
330
109
100
AcDbEntity
  8
_U+30EC_U+30A4_U+30E4_U+30FC 1
370
     0
100
AcDbVertex
100
AcDb2dVertex
 10
69.02558863291722
 20
-126.9600368606211
 30
0.0
  0
VERTEX
  5
10D
330
109
100
AcDbEntity
  8
_U+30EC_U+30A4_U+30E4_U+30FC 1
370
     0
100
AcDbVertex
100
AcDb2dVertex
 10
68.91827390855168
 20
-126.6299967131342
 30
0.0
  0
VERTEX
  5
10E
330
109
100
AcDbEntity
  8
_U+30EC_U+30A4_U+30E4_U+30FC 1
370
     0
100
AcDbVertex
100
AcDb2dVertex
 10
68.29471162572146
 20
-126.8325683276669
 30
0.0
  0
VERTEX
  5
10F
330
109
100
AcDbEntity
  8
_U+30EC_U+30A4_U+30E4_U+30FC 1
370
     0
100
AcDbVertex
100
AcDb2dVertex
 10
68.22546520646794
 20
-126.6193169171299
 30
0.0
  0
VERTEX
  5
110
330
109
100
AcDbEntity
  8
_U+30EC_U+30A4_U+30E4_U+30FC 1
370
     0
100
AcDbVertex
100
AcDb2dVertex
 10
68.57066377408998
 20
-125.4838134451916
 30
0.0
  0
VERTEX
  5
111
330
109
100
AcDbEntity
  8
_U+30EC_U+30A4_U+30E4_U+30FC 1
370
     0
100
AcDbVertex
100
AcDb2dVertex
 10
68.75566540164789
 20
-125.4235242741997
 30
0.0
  0
VERTEX
  5
112
330
109
100
AcDbEntity
  8
_U+30EC_U+30A4_U+30E4_U+30FC 1
370
     0
100
AcDbVertex
100
AcDb2dVertex
 10
69.06434595712628
 20
-126.3736816090316
 30
0.0
  0
VERTEX
  5
113
330
109
100
AcDbEntity
  8
_U+30EC_U+30A4_U+30E4_U+30FC 1
370
     0
100
AcDbVertex
100
AcDb2dVertex
 10
69.26157767365683
 20
-126.3096028330059
 30
0.0
  0
VERTEX
  5
114
330
109
100
AcDbEntity
  8
_U+30EC_U+30A4_U+30E4_U+30FC 1
370
     0
100
AcDbVertex
100
AcDb2dVertex
 10
69.32307262806854
 20
-126.4983940655976
 30
0.0
  0
VERTEX
  5
115
330
109
100
AcDbEntity
  8
_U+30EC_U+30A4_U+30E4_U+30FC 1
370
     0
100
AcDbVertex
100
AcDb2dVertex
 10
69.12566865676372
 20
-126.5624728416233
 30
0.0
  0
SEQEND
  5
116
330
109
100
AcDbEntity
  8
_U+30EC_U+30A4_U+30E4_U+30FC 1
370
     0
  0
POLYLINE
  5
117
330
105
100
AcDbEntity
  8
_U+30EC_U+30A4_U+30E4_U+30FC 1
370
     0
100
AcDb2dPolyline
 66
     1
 10
0.0
 20
0.0
 30
0.0
  0
VERTEX
  5
118
330
117
100
AcDbEntity
  8
_U+30EC_U+30A4_U+30E4_U+30FC 1
370
     0
100
AcDbVertex
100
AcDb2dVertex
 10
68.65437959438155
 20
-125.8172986881637
 30
0.0
  0
VERTEX
  5
119
330
117
100
AcDbEntity
  8
_U+30EC_U+30A4_U+30E4_U+30FC 1
370
     0
100
AcDbVertex
100
AcDb2dVertex
 10
68.42252466822423
 20
-126.5824543954377
 30
0.0
  0
VERTEX
  5
11A
330
117
100
AcDbEntity
  8
_U+30EC_U+30A4_U+30E4_U+30FC 1
370
     0
100
AcDbVertex
100
AcDb2dVertex
 10
68.85695120891424
 20
-126.4412054805425
 30
0.0
  0
VERTEX
  5
11B
330
117
100
AcDbEntity
  8
_U+30EC_U+30A4_U+30E4_U+30FC 1
370
     0
100
AcDbVertex
100
AcDb2dVertex
 10
68.65437959438155
 20
-125.8172986881637
 30
0.0
  0
SEQEND
  5
11C
330
117
100
AcDbEntity
  8
_U+30EC_U+30A4_U+30E4_U+30FC 1
370
     0
  0
HATCH
  5
11D
330
105
100
AcDbEntity
  8
_U+30EC_U+30A4_U+30E4_U+30FC 1
 62
   179
420
  2234388
100
AcDbHatch
 10
0.0
 20
0.0
 30
0.0
210
0.0
220
0.0
230
1.0
  2
SOLID
 70
     1
 71
     0
 91
        2
 92
        1
 93
       11
 72
     1
 10
69.12566865676372
 20
-126.5624728416233
 11
69.23298338112926
 21
-126.8925129891102
 72
     1
 10
69.23298338112926
 20
-126.8925129891102
 11
69.02558863291722
 21
-126.9600368606211
 72
     1
 10
69.02558863291722
 20
-126.9600368606211
 11
68.91827390855168
 21
-126.6299967131342
 72
     1
 10
68.91827390855168
 20
-126.6299967131342
 11
68.29471162572146
 21
-126.8325683276669
 72
     1
 10
68.29471162572146
 20
-126.8325683276669
 11
68.22546520646794
 21
-126.6193169171299
 72
     1
 10
68.22546520646794
 20
-126.6193169171299
 11
68.57066377408998
 21
-125.4838134451916
 72
     1
 10
68.57066377408998
 20
-125.4838134451916
 11
68.75566540164789
 21
-125.4235242741997
 72
     1
 10
68.75566540164789
 20
-125.4235242741997
 11
69.06434595712628
 21
-126.3736816090316
 72
     1
 10
69.06434595712628
 20
-126.3736816090316
 11
69.26157767365683
 21
-126.3096028330059
 72
     1
 10
69.26157767365683
 20
-126.3096028330059
 11
69.32307262806854
 21
-126.4983940655976
 72
     1
 10
69.32307262806854
 20
-126.4983940655976
 11
69.12566865676372
 21
-126.5624728416233
 97
        0
 92
        1
 93
        3
 72
     1
 10
68.65437959438155
 20
-125.8172986881637
 11
68.42252466822423
 21
-126.5824543954377
 72
     1
 10
68.42252466822423
 20
-126.5824543954377
 11
68.85695120891424
 21
-126.4412054805425
 72
     1
 10
68.85695120891424
 20
-126.4412054805425
 11
68.65437959438155
 21
-125.8172986881637
 97
        0
 75
     2
 76
     1
 98
        0
  0
SPLINE
  5
11E
330
105
100
AcDbEntity
  8
_U+30EC_U+30A4_U+30E4_U+30FC 1
370
     0
100
AcDbSpline
210
0.0
220
0.0
230
1.0
 70
    11
 71
     3
 72
    29
 73
    25
 74
     0
 42
0.0000000001
 43
0.0000000001
 12
1.0
 22
0.0
 32
0.0
 13
1.0
 23
0.0
 33
0.0
 40
0.0
 40
0.0
 40
0.0
 40
0.0
 40
1.0
 40
1.0
 40
1.0
 40
2.0
 40
2.0
 40
2.0
 40
3.0
 40
3.0
 40
3.0
 40
4.0
 40
4.0
 40
4.0
 40
5.0
 40
5.0
 40
5.0
 40
6.0
 40
6.0
 40
6.0
 40
7.0
 40
7.0
 40
7.0
 40
8.0
 40
8.0
 40
8.0
 40
8.0
 10
70.35952960480596
 20
-126.3395751637276
 30
0.0
 10
70.32180580924246
 20
-126.572119108982
 30
0.0
 10
70.16264239782393
 20
-126.6437770950752
 30
0.0
 10
70.05188257797315
 20
-126.6796060881218
 30
0.0
 10
69.89909259320231
 20
-126.7292154631094
 30
0.0
 10
69.749919958691
 20
-126.7292154631094
 30
0.0
 10
69.60298663624509
 20
-126.5852104718259
 30
0.0
 10
69.4445122439236
 20
-126.4322482322808
 30
0.0
 10
69.35304495879022
 20
-126.2127956498704
 30
0.0
 10
69.30274656470557
 20
-126.0581108625827
 30
0.0
 10
69.25830483294584
 20
-125.9209960622698
 30
0.0
 10
69.19663762375987
 20
-125.676394282817
 30
0.0
 10
69.2355672027432
 20
-125.4545301335669
 30
0.0
 10
69.27587481992062
 20
-125.228187360186
 30
0.0
 10
69.42125784939816
 20
-125.1561848645443
 30
0.0
 10
69.54390324867306
 20
-125.1162217569154
 30
0.0
 10
69.694798430927
 20
-125.0673014010248
 30
0.0
 10
69.84534910363242
 20
-125.0652343437337
 30
0.0
 10
69.99211017130406
 20
-125.2088948254686
 30
0.0
 10
70.14627819426899
 20
-125.3611680459167
 30
0.0
 10
70.23912351759647
 20
-125.5709743609684
 30
0.0
 10
70.29269475239211
 20
-125.7363389442604
 30
0.0
 10
70.3455769680907
 20
-125.8989474511642
 30
0.0
 10
70.39656438127238
 20
-126.1249457149965
 30
0.0
 10
70.35952960480596
 20
-126.3395751637276
 30
0.0
  0
SPLINE
  5
11F
330
105
100
AcDbEntity
  8
_U+30EC_U+30A4_U+30E4_U+30FC 1
370
     0
100
AcDbSpline
210
0.0
220
0.0
230
1.0
 70
    11
 71
     3
 72
    17
 73
    13
 74
     0
 42
0.0000000001
 43
0.0000000001
 12
1.0
 22
0.0
 32
0.0
 13
1.0
 23
0.0
 33
0.0
 40
0.0
 40
0.0
 40
0.0
 40
0.0
 40
1.0
 40
1.0
 40
1.0
 40
2.0
 40
2.0
 40
2.0
 40
3.0
 40
3.0
 40
3.0
 40
4.0
 40
4.0
 40
4.0
 40
4.0
 10
69.60350340056787
 20
-125.2995008367307
 30
0.0
 10
69.36613632163416
 20
-125.3766709756003
 30
0.0
 10
69.40954452474831
 20
-125.6608913531334
 30
0.0
 10
69.5161702300168
 20
-125.9888644433292
 30
0.0
 10
69.61487221566921
 20
-126.2923773555797
 30
0.0
 10
69.74440780591459
 20
-126.5752196949187
 30
0.0
 10
69.99176566175554
 20
-126.4946044605638
 30
0.0
 10
70.2270656833981
 20
-126.4181233407913
 30
0.0
 10
70.18675806622068
 20
-126.1356255110008
 30
0.0
 10
70.07944334185514
 20
-125.8059298730624
 30
0.0
 10
69.98074135620273
 20
-125.5017279417148
 30
0.0
 10
69.84896645389193
 20
-125.2199191310214
 30
0.0
 10
69.60350340056787
 20
-125.2995008367307
 30
0.0
  0
HATCH
  5
120
330
105
100
AcDbEntity
  8
_U+30EC_U+30A4_U+30E4_U+30FC 1
 62
   179
420
  2234388
100
AcDbHatch
 10
0.0
 20
0.0
 30
0.0
210
0.0
220
0.0
230
1.0
  2
SOLID
 70
     1
 71
     0
 91
        2
 92
        1
 93
        1
 72
     4
 94
        3
 73
     0
 74
     1
 95
       29
 96
       25
 40
0.0
 40
0.0
 40
0.0
 40
0.0
 40
1.0
 40
1.0
 40
1.0
 40
2.0
 40
2.0
 40
2.0
 40
3.0
 40
3.0
 40
3.0
 40
4.0
 40
4.0
 40
4.0
 40
5.0
 40
5.0
 40
5.0
 40
6.0
 40
6.0
 40
6.0
 40
7.0
 40
7.0
 40
7.0
 40
8.0
 40
8.0
 40
8.0
 40
8.0
 10
70.35952960480596
 20
-126.3395751637276
 10
70.32180580924246
 20
-126.572119108982
 10
70.16264239782393
 20
-126.6437770950752
 10
70.05188257797315
 20
-126.6796060881218
 10
69.89909259320231
 20
-126.7292154631094
 10
69.749919958691
 20
-126.7292154631094
 10
69.60298663624509
 20
-126.5852104718259
 10
69.4445122439236
 20
-126.4322482322808
 10
69.35304495879022
 20
-126.2127956498704
 10
69.30274656470557
 20
-126.0581108625827
 10
69.25830483294584
 20
-125.9209960622698
 10
69.19663762375987
 20
-125.676394282817
 10
69.2355672027432
 20
-125.4545301335669
 10
69.27587481992062
 20
-125.228187360186
 10
69.42125784939816
 20
-125.1561848645443
 10
69.54390324867306
 20
-125.1162217569154
 10
69.694798430927
 20
-125.0673014010248
 10
69.84534910363242
 20
-125.0652343437337
 10
69.99211017130406
 20
-125.2088948254686
 10
70.14627819426899
 20
-125.3611680459167
 10
70.23912351759647
 20
-125.5709743609684
 10
70.29269475239211
 20
-125.7363389442604
 10
70.3455769680907
 20
-125.8989474511642
 10
70.39656438127238
 20
-126.1249457149965
 10
70.35952960480596
 20
-126.3395751637276
 97
        0
 97
        0
 92
        1
 93
        1
 72
     4
 94
        3
 73
     0
 74
     1
 95
       17
 96
       13
 40
0.0
 40
0.0
 40
0.0
 40
0.0
 40
1.0
 40
1.0
 40
1.0
 40
2.0
 40
2.0
 40
2.0
 40
3.0
 40
3.0
 40
3.0
 40
4.0
 40
4.0
 40
4.0
 40
4.0
 10
69.60350340056787
 20
-125.2995008367307
 10
69.36613632163416
 20
-125.3766709756003
 10
69.40954452474831
 20
-125.6608913531334
 10
69.5161702300168
 20
-125.9888644433292
 10
69.61487221566921
 20
-126.2923773555797
 10
69.74440780591459
 20
-126.5752196949187
 10
69.99176566175554
 20
-126.4946044605638
 10
70.2270656833981
 20
-126.4181233407913
 10
70.18675806622068
 20
-126.1356255110008
 10
70.07944334185514
 20
-125.8059298730624
 10
69.98074135620273
 20
-125.5017279417148
 10
69.84896645389193
 20
-125.2199191310214
 10
69.60350340056787
 20
-125.2995008367307
 97
        0
 97
        0
 75
     2
 76
     1
 98
        0
  0
ENDBLK
  5
108
330
105
100
AcDbEntity
  8
0
100
AcDbBlockEnd
  0
BLOCK
  5
147
330
145
100
AcDbEntity
  8
0
100
AcDbBlockBegin
  2
block 6
 70
     0
 10
0.0
 20
0.0
 30
0.0
  3
block 6
  1

  0
SPLINE
  5
149
330
145
100
AcDbEntity
  8
_U+30EC_U+30A4_U+30E4_U+30FC 1
370
     0
100
AcDbSpline
210
0.0
220
0.0
230
1.0
 70
    11
 71
     3
 72
   242
 73
   238
 74
     0
 42
0.0000000001
 43
0.0000000001
 12
1.0
 22
0.0
 32
0.0
 13
1.0
 23
0.0
 33
0.0
 40
0.0
 40
0.0
 40
0.0
 40
0.0
 40
1.0
 40
1.0
 40
1.0
 40
2.0
 40
2.0
 40
2.0
 40
3.0
 40
3.0
 40
3.0
 40
4.0
 40
4.0
 40
4.0
 40
5.0
 40
5.0
 40
5.0
 40
6.0
 40
6.0
 40
6.0
 40
7.0
 40
7.0
 40
7.0
 40
8.0
 40
8.0
 40
8.0
 40
9.0
 40
9.0
 40
9.0
 40
10.0
 40
10.0
 40
10.0
 40
11.0
 40
11.0
 40
11.0
 40
12.0
 40
12.0
 40
12.0
 40
13.0
 40
13.0
 40
13.0
 40
14.0
 40
14.0
 40
14.0
 40
15.0
 40
15.0
 40
15.0
 40
16.0
 40
16.0
 40
16.0
 40
17.0
 40
17.0
 40
17.0
 40
18.0
 40
18.0
 40
18.0
 40
19.0
 40
19.0
 40
19.0
 40
20.0
 40
20.0
 40
20.0
 40
21.0
 40
21.0
 40
21.0
 40
22.0
 40
22.0
 40
22.0
 40
23.0
 40
23.0
 40
23.0
 40
24.0
 40
24.0
 40
24.0
 40
25.0
 40
25.0
 40
25.0
 40
26.0
 40
26.0
 40
26.0
 40
27.0
 40
27.0
 40
27.0
 40
28.0
 40
28.0
 40
28.0
 40
29.0
 40
29.0
 40
29.0
 40
30.0
 40
30.0
 40
30.0
 40
31.0
 40
31.0
 40
31.0
 40
32.0
 40
32.0
 40
32.0
 40
33.0
 40
33.0
 40
33.0
 40
34.0
 40
34.0
 40
34.0
 40
35.0
 40
35.0
 40
35.0
 40
36.0
 40
36.0
 40
36.0
 40
37.0
 40
37.0
 40
37.0
 40
38.0
 40
38.0
 40
38.0
 40
39.0
 40
39.0
 40
39.0
 40
40.0
 40
40.0
 40
40.0
 40
41.0
 40
41.0
 40
41.0
 40
42.0
 40
42.0
 40
42.0
 40
43.0
 40
43.0
 40
43.0
 40
44.0
 40
44.0
 40
44.0
 40
45.0
 40
45.0
 40
45.0
 40
46.0
 40
46.0
 40
46.0
 40
47.0
 40
47.0
 40
47.0
 40
48.0
 40
48.0
 40
48.0
 40
49.0
 40
49.0
 40
49.0
 40
50.0
 40
50.0
 40
50.0
 40
51.0
 40
51.0
 40
51.0
 40
52.0
 40
52.0
 40
52.0
 40
53.0
 40
53.0
 40
53.0
 40
54.0
 40
54.0
 40
54.0
 40
55.0
 40
55.0
 40
55.0
 40
56.0
 40
56.0
 40
56.0
 40
57.0
 40
57.0
 40
57.0
 40
58.0
 40
58.0
 40
58.0
 40
59.0
 40
59.0
 40
59.0
 40
60.0
 40
60.0
 40
60.0
 40
61.0
 40
61.0
 40
61.0
 40
62.0
 40
62.0
 40
62.0
 40
63.0
 40
63.0
 40
63.0
 40
64.0
 40
64.0
 40
64.0
 40
65.0
 40
65.0
 40
65.0
 40
66.0
 40
66.0
 40
66.0
 40
67.0
 40
67.0
 40
67.0
 40
68.0
 40
68.0
 40
68.0
 40
69.0
 40
69.0
 40
69.0
 40
70.0
 40
70.0
 40
70.0
 40
71.0
 40
71.0
 40
71.0
 40
72.0
 40
72.0
 40
72.0
 40
73.0
 40
73.0
 40
73.0
 40
74.0
 40
74.0
 40
74.0
 40
75.0
 40
75.0
 40
75.0
 40
76.0
 40
76.0
 40
76.0
 40
77.0
 40
77.0
 40
77.0
 40
78.0
 40
78.0
 40
78.0
 40
79.0
 40
79.0
 40
79.0
 40
79.0
 10
88.33087020361172
 20
-140.0579453859925
 30
0.0
 10
88.33087020361172
 20
-140.0579453859925
 30
0.0
 10
88.07696666634882
 20
-140.0579453859925
 30
0.0
 10
88.07696666634882
 20
-140.0579453859925
 30
0.0
 10
88.07696666634882
 20
-140.0579453859925
 30
0.0
 10
87.79980873456047
 20
-140.0579453859925
 30
0.0
 10
87.79980873456047
 20
-140.0579453859925
 30
0.0
 10
87.79980873456047
 20
-140.0579453859925
 30
0.0
 10
87.92676050319193
 20
-140.100320060461
 30
0.0
 10
87.92676050319193
 20
-140.100320060461
 30
0.0
 10
87.93726804442194
 20
-140.1044541750433
 30
0.0
 10
87.95001489771737
 20
-140.1106553469168
 30
0.0
 10
87.95001489771737
 20
-140.1234022002122
 30
0.0
 10
87.95001489771737
 20
-140.1444172826722
 30
0.0
 10
87.91832001925306
 20
-140.1509629640942
 30
0.0
 10
87.89713268201878
 20
-140.1550970786765
 30
0.0
 10
87.88662514078877
 20
-140.1785237279762
 30
0.0
 10
87.85699731961562
 20
-140.2439805421959
 30
0.0
 10
87.83787703967248
 20
-140.2884222739557
 30
0.0
 10
87.83787703967248
 20
-140.2884222739557
 30
0.0
 10
88.10866154481312
 20
-140.2884222739557
 30
0.0
 10
88.10866154481312
 20
-140.2884222739557
 30
0.0
 10
88.19961206562371
 20
-140.2884222739557
 30
0.0
 10
88.39632701783148
 20
-140.2842881593734
 30
0.0
 10
88.5380926970495
 20
-140.2756754206603
 30
0.0
 10
88.5380926970495
 20
-140.2756754206603
 30
0.0
 10
88.5380926970495
 20
-140.4534423476991
 30
0.0
 10
88.5380926970495
 20
-140.4534423476991
 30
0.0
 10
88.45558266017777
 20
-140.4493082331169
 30
0.0
 10
88.43439532294349
 20
-140.4493082331169
 30
0.0
 10
88.25473359338771
 20
-140.444829608986
 30
0.0
 10
88.22286646014915
 20
-140.5995143962737
 30
0.0
 10
88.17842472838943
 20
-140.6797851210801
 30
0.0
 10
88.1339829966297
 20
-140.7497205594306
 30
0.0
 10
88.25473359338771
 20
-140.8089762017769
 30
0.0
 10
88.36049802478487
 20
-140.8765000732878
 30
0.0
 10
88.46402314411664
 20
-140.9591823649338
 30
0.0
 10
88.46402314411664
 20
-140.9591823649338
 30
0.0
 10
88.3456841141983
 20
-141.1262694959684
 30
0.0
 10
88.3456841141983
 20
-141.1262694959684
 30
0.0
 10
88.32225746489861
 20
-141.106976961251
 30
0.0
 10
88.30968286637744
 20
-141.0987087320864
 30
0.0
 10
88.19754500833257
 20
-141.0139593831493
 30
0.0
 10
88.14879690721628
 20
-140.9760633328115
 30
0.0
 10
88.08971351964425
 20
-140.9398898302164
 30
0.0
 10
88.00927054006365
 20
-140.8954480984567
 30
0.0
 10
87.79774167726931
 20
-141.0818277642087
 30
0.0
 10
87.59241398634843
 20
-141.1049099039599
 30
0.0
 10
87.30268145603891
 20
-141.134537725133
 30
0.0
 10
87.30268145603891
 20
-141.134537725133
 30
0.0
 10
87.19898408193289
 20
-140.954703740803
 30
0.0
 10
87.19898408193289
 20
-140.954703740803
 30
0.0
 10
87.5162773761244
 20
-140.9505696262207
 30
0.0
 10
87.69197724587215
 20
-140.9250759196298
 30
0.0
 10
87.84425046632019
 20
-140.8151773736504
 30
0.0
 10
87.7257391816276
 20
-140.7645344700172
 30
0.0
 10
87.63685571810815
 20
-140.7369737061352
 30
0.0
 10
87.60102672506156
 20
-140.7242268528398
 30
0.0
 10
87.58190644511842
 20
-140.7517876167218
 30
0.0
 10
87.56709253453184
 20
-140.7707356418907
 30
0.0
 10
87.53953177064984
 20
-140.8044975776461
 30
0.0
 10
87.53953177064984
 20
-140.8044975776461
 30
0.0
 10
87.34281681844207
 20
-140.7221597955486
 30
0.0
 10
87.34281681844207
 20
-140.7221597955486
 30
0.0
 10
87.42532685531381
 20
-140.6418890707423
 30
0.0
 10
87.48664955495126
 20
-140.5464599258009
 30
0.0
 10
87.5438381400064
 20
-140.444829608986
 30
0.0
 10
87.35349661444636
 20
-140.4493082331169
 30
0.0
 10
87.33230927721206
 20
-140.4493082331169
 30
0.0
 10
87.24979924034034
 20
-140.4534423476991
 30
0.0
 10
87.24979924034034
 20
-140.4534423476991
 30
0.0
 10
87.24979924034034
 20
-140.2756754206603
 30
0.0
 10
87.24979924034034
 20
-140.2756754206603
 30
0.0
 10
87.38932560749295
 20
-140.2822211020822
 30
0.0
 10
87.59878741299615
 20
-140.2863552166645
 30
0.0
 10
87.624281119587
 20
-140.2863552166645
 30
0.0
 10
87.6411620874647
 20
-140.2525932809091
 30
0.0
 10
87.69611136045445
 20
-140.1320149389253
 30
0.0
 10
87.71523164039759
 20
-140.0579453859925
 30
0.0
 10
87.69611136045445
 20
-140.0579453859925
 30
0.0
 10
87.51851668818982
 20
-140.0641465578659
 30
0.0
 10
87.3238687932732
 20
-140.0768934111613
 30
0.0
 10
87.3238687932732
 20
-140.0768934111613
 30
0.0
 10
87.3238687932732
 20
-140.2102186064405
 30
0.0
 10
87.3238687932732
 20
-140.2102186064405
 30
0.0
 10
87.27512069215692
 20
-140.2353678034828
 30
0.0
 10
87.21586504981062
 20
-140.2674071914957
 30
0.0
 10
87.08271210930572
 20
-140.3328640057154
 30
0.0
 10
87.08271210930572
 20
-140.3328640057154
 30
0.0
 10
87.08271210930572
 20
-140.47893605429
 30
0.0
 10
87.08271210930572
 20
-140.47893605429
 30
0.0
 10
87.08271210930572
 20
-140.47893605429
 30
0.0
 10
87.08271210930572
 20
-140.9464355116384
 30
0.0
 10
87.08271210930572
 20
-140.9464355116384
 30
0.0
 10
87.08271210930572
 20
-141.0732150254956
 30
0.0
 10
87.04671086148485
 20
-141.1324706678419
 30
0.0
 10
86.76317950304879
 20
-141.1242024386773
 30
0.0
 10
86.76317950304879
 20
-141.1242024386773
 30
0.0
 10
86.65948212894277
 20
-140.9168076904652
 30
0.0
 10
86.65948212894277
 20
-140.9168076904652
 30
0.0
 10
86.72304414064563
 20
-140.9295545437607
 30
0.0
 10
86.77161998698766
 20
-140.933688658343
 30
0.0
 10
86.81192760416508
 20
-140.933688658343
 30
0.0
 10
86.8880642143891
 20
-140.933688658343
 30
0.0
 10
86.89857175561912
 20
-140.9102620090433
 30
0.0
 10
86.89857175561912
 20
-140.8448051948235
 30
0.0
 10
86.89857175561912
 20
-140.8448051948235
 30
0.0
 10
86.89857175561912
 20
-140.4152017878129
 30
0.0
 10
86.89857175561912
 20
-140.4152017878129
 30
0.0
 10
86.80124780816081
 20
-140.4555094049903
 30
0.0
 10
86.78436684028308
 20
-140.4620550864123
 30
0.0
 10
86.73785805123221
 20
-140.4810031115811
 30
0.0
 10
86.73355168187564
 20
-140.5020181940412
 30
0.0
 10
86.72941756729334
 20
-140.5316460152143
 30
0.0
 10
86.7102972873502
 20
-140.5316460152143
 30
0.0
 10
86.70185680341135
 20
-140.5316460152143
 30
0.0
 10
86.69134926218133
 20
-140.527511900632
 30
0.0
 10
86.68497583553362
 20
-140.5040852513323
 30
0.0
 10
86.68497583553362
 20
-140.5040852513323
 30
0.0
 10
86.63209361983503
 20
-140.3118489232554
 30
0.0
 10
86.63209361983503
 20
-140.3118489232554
 30
0.0
 10
86.77799341363537
 20
-140.264995624656
 30
0.0
 10
86.84362248262937
 20
-140.2419134849048
 30
0.0
 10
86.89857175561912
 20
-140.2208984024448
 30
0.0
 10
86.89857175561912
 20
-140.2208984024448
 30
0.0
 10
86.89857175561912
 20
-139.8081759633118
 30
0.0
 10
86.89857175561912
 20
-139.8081759633118
 30
0.0
 10
86.89857175561912
 20
-139.8081759633118
 30
0.0
 10
86.84568953992053
 20
-139.8081759633118
 30
0.0
 10
86.84568953992053
 20
-139.8081759633118
 30
0.0
 10
86.84568953992053
 20
-139.8081759633118
 30
0.0
 10
86.76748587240536
 20
-139.8081759633118
 30
0.0
 10
86.76748587240536
 20
-139.8081759633118
 30
0.0
 10
86.69978974612019
 20
-139.8081759633118
 30
0.0
 10
86.69134926218133
 20
-139.8081759633118
 30
0.0
 10
86.65534801436047
 20
-139.8147216447338
 30
0.0
 10
86.65534801436047
 20
-139.8147216447338
 30
0.0
 10
86.65534801436047
 20
-139.6200737498172
 30
0.0
 10
86.65534801436047
 20
-139.6200737498172
 30
0.0
 10
86.68290877824248
 20
-139.6262749216907
 30
0.0
 10
86.69134926218133
 20
-139.6262749216907
 30
0.0
 10
86.76111244575765
 20
-139.6262749216907
 30
0.0
 10
86.76111244575765
 20
-139.6262749216907
 30
0.0
 10
86.89443764103682
 20
-139.6262749216907
 30
0.0
 10
86.89443764103682
 20
-139.6262749216907
 30
0.0
 10
86.89443764103682
 20
-139.5563394833401
 30
0.0
 10
86.89443764103682
 20
-139.4740017012426
 30
0.0
 10
86.8921983289714
 20
-139.4698675866603
 30
0.0
 10
86.88375784503253
 20
-139.2900336023303
 30
0.0
 10
86.88375784503253
 20
-139.2707410676129
 30
0.0
 10
86.88169078774139
 20
-139.224232278562
 30
0.0
 10
86.88169078774139
 20
-139.224232278562
 30
0.0
 10
87.09752601989229
 20
-139.2328450172751
 30
0.0
 10
87.09752601989229
 20
-139.2328450172751
 30
0.0
 10
87.1080335611223
 20
-139.2328450172751
 30
0.0
 10
87.12922089835659
 20
-139.2349120745663
 30
0.0
 10
87.12922089835659
 20
-139.251793042444
 30
0.0
 10
87.12922089835659
 20
-139.2707410676129
 30
0.0
 10
87.11440698777001
 20
-139.2814208636171
 30
0.0
 10
87.08908553595343
 20
-139.300368888786
 30
0.0
 10
87.08908553595343
 20
-139.3513563019677
 30
0.0
 10
87.08271210930572
 20
-139.5797661326398
 30
0.0
 10
87.08477916659686
 20
-139.6262749216907
 30
0.0
 10
87.21379799251947
 20
-139.6262749216907
 30
0.0
 10
87.2265448458149
 20
-139.6262749216907
 30
0.0
 10
87.3238687932732
 20
-139.6176621829775
 30
0.0
 10
87.3238687932732
 20
-139.6176621829775
 30
0.0
 10
87.3238687932732
 20
-139.8123100778942
 30
0.0
 10
87.3238687932732
 20
-139.8123100778942
 30
0.0
 10
87.28580048816119
 20
-139.810243020603
 30
0.0
 10
87.21810436187603
 20
-139.8061089060207
 30
0.0
 10
87.08271210930572
 20
-139.8081759633118
 30
0.0
 10
87.08271210930572
 20
-139.8081759633118
 30
0.0
 10
87.08271210930572
 20
-140.1468288495119
 30
0.0
 10
87.08271210930572
 20
-140.1468288495119
 30
0.0
 10
87.13766138229545
 20
-140.1234022002122
 30
0.0
 10
87.20329045128946
 20
-140.0958414363302
 30
0.0
 10
87.25186629763148
 20
-140.0727592965791
 30
0.0
 10
87.25186629763148
 20
-140.0727592965791
 30
0.0
 10
87.25186629763148
 20
-139.8949923695401
 30
0.0
 10
87.25186629763148
 20
-139.8949923695401
 30
0.0
 10
87.36607121296751
 20
-139.9077392228356
 30
0.0
 10
87.48458249766011
 20
-139.9077392228356
 30
0.0
 10
87.60102672506156
 20
-139.9077392228356
 30
0.0
 10
87.57777233053612
 20
-139.8123100778942
 30
0.0
 10
87.55021156665411
 20
-139.7299722957967
 30
0.0
 10
87.48664955495126
 20
-139.5966471005175
 30
0.0
 10
87.4423800779658
 20
-139.5987141578087
 30
0.0
 10
87.35987004109407
 20
-139.602848272391
 30
0.0
 10
87.3216294812078
 20
-139.6052598392306
 30
0.0
 10
87.3216294812078
 20
-139.6052598392306
 30
0.0
 10
87.3216294812078
 20
-139.4254258549006
 30
0.0
 10
87.3216294812078
 20
-139.4254258549006
 30
0.0
 10
87.4465141925481
 20
-139.4336940840652
 30
0.0
 10
87.61997475023043
 20
-139.4378281986475
 30
0.0
 10
87.70248478710216
 20
-139.4378281986475
 30
0.0
 10
87.70248478710216
 20
-139.4378281986475
 30
0.0
 10
87.78499482397389
 20
-139.4378281986475
 30
0.0
 10
87.78499482397389
 20
-139.4378281986475
 30
0.0
 10
87.78499482397389
 20
-139.2752196917437
 30
0.0
 10
87.78499482397389
 20
-139.2645398957394
 30
0.0
 10
87.78292776668275
 20
-139.2094183679754
 30
0.0
 10
87.78292776668275
 20
-139.2094183679754
 30
0.0
 10
88.00720348277251
 20
-139.2349120745663
 30
0.0
 10
88.00720348277251
 20
-139.2349120745663
 30
0.0
 10
88.01133759735481
 20
-139.2349120745663
 30
0.0
 10
88.03252493458909
 20
-139.2369791318574
 30
0.0
 10
88.03252493458909
 20
-139.2538600997352
 30
0.0
 10
88.03252493458909
 20
-139.2686740103217
 30
0.0
 10
88.02201739335908
 20
-139.2772867490349
 30
0.0
 10
87.99445662947709
 20
-139.2921006596214
 30
0.0
 10
87.98808320282937
 20
-139.3575574738412
 30
0.0
 10
87.98601614553822
 20
-139.3789170658497
 30
0.0
 10
87.98601614553822
 20
-139.4378281986475
 30
0.0
 10
87.98601614553822
 20
-139.4378281986475
 30
0.0
 10
88.08110078093112
 20
-139.4378281986475
 30
0.0
 10
88.08110078093112
 20
-139.4378281986475
 30
0.0
 10
88.16361081780285
 20
-139.4378281986475
 30
0.0
 10
88.33707137548518
 20
-139.4336940840652
 30
0.0
 10
88.46195608682548
 20
-139.4254258549006
 30
0.0
 10
88.46195608682548
 20
-139.4254258549006
 30
0.0
 10
88.46195608682548
 20
-139.6052598392306
 30
0.0
 10
88.46195608682548
 20
-139.6052598392306
 30
0.0
 10
88.43232826565234
 20
-139.602848272391
 30
0.0
 10
88.31381698095974
 20
-139.5987141578087
 30
0.0
 10
88.27368161855658
 20
-139.5966471005175
 30
0.0
 10
88.25886770797001
 20
-139.6472900041507
 30
0.0
 10
88.22510577221456
 20
-139.7596001169698
 30
0.0
 10
88.15947670322055
 20
-139.8991264841224
 30
0.0
 10
88.20167912291487
 20
-139.8991264841224
 30
0.0
 10
88.4788370547032
 20
-139.8801784589536
 30
0.0
 10
88.54015975434066
 20
-139.8781114016624
 30
0.0
 10
88.54015975434066
 20
-139.8781114016624
 30
0.0
 10
88.54015975434066
 20
-140.0620795005748
 30
0.0
 10
88.54015975434066
 20
-140.0620795005748
 30
0.0
 10
88.51070418794177
 20
-140.0620795005748
 30
0.0
 10
88.49365096528979
 20
-140.0579453859925
 30
0.0
 10
88.33087020361172
 20
-140.0579453859925
 30
0.0
  0
SPLINE
  5
14A
330
145
100
AcDbEntity
  8
_U+30EC_U+30A4_U+30E4_U+30FC 1
370
     0
100
AcDbSpline
210
0.0
220
0.0
230
1.0
 70
    11
 71
     3
 72
    20
 73
    16
 74
     0
 42
0.0000000001
 43
0.0000000001
 12
1.0
 22
0.0
 32
0.0
 13
1.0
 23
0.0
 33
0.0
 40
0.0
 40
0.0
 40
0.0
 40
0.0
 40
1.0
 40
1.0
 40
1.0
 40
2.0
 40
2.0
 40
2.0
 40
3.0
 40
3.0
 40
3.0
 40
4.0
 40
4.0
 40
4.0
 40
5.0
 40
5.0
 40
5.0
 40
5.0
 10
87.70248478710216
 20
-139.5925129859352
 30
0.0
 10
87.70248478710216
 20
-139.5925129859352
 30
0.0
 10
87.67078990863786
 20
-139.5925129859352
 30
0.0
 10
87.67078990863786
 20
-139.5925129859352
 30
0.0
 10
87.71729869768873
 20
-139.6917317359104
 30
0.0
 10
87.74899357615304
 20
-139.7723469702653
 30
0.0
 10
87.78292776668275
 20
-139.8991264841224
 30
0.0
 10
87.78292776668275
 20
-139.8991264841224
 30
0.0
 10
87.99015026012052
 20
-139.8991264841224
 30
0.0
 10
87.99015026012052
 20
-139.8991264841224
 30
0.0
 10
88.02201739335908
 20
-139.8061089060207
 30
0.0
 10
88.04527178788452
 20
-139.7213595570836
 30
0.0
 10
88.06852618240995
 20
-139.5925129859352
 30
0.0
 10
88.06852618240995
 20
-139.5925129859352
 30
0.0
 10
87.70248478710216
 20
-139.5925129859352
 30
0.0
 10
87.70248478710216
 20
-139.5925129859352
 30
0.0
  0
SPLINE
  5
14B
330
145
100
AcDbEntity
  8
_U+30EC_U+30A4_U+30E4_U+30FC 1
370
     0
100
AcDbSpline
210
0.0
220
0.0
230
1.0
 70
    11
 71
     3
 72
    17
 73
    13
 74
     0
 42
0.0000000001
 43
0.0000000001
 12
1.0
 22
0.0
 32
0.0
 13
1.0
 23
0.0
 33
0.0
 40
0.0
 40
0.0
 40
0.0
 40
0.0
 40
1.0
 40
1.0
 40
1.0
 40
2.0
 40
2.0
 40
2.0
 40
3.0
 40
3.0
 40
3.0
 40
4.0
 40
4.0
 40
4.0
 40
4.0
 10
87.76604679880502
 20
-140.4427625516949
 30
0.0
 10
87.74899357615304
 20
-140.472390372868
 30
0.0
 10
87.69835067251987
 20
-140.5654079509698
 30
0.0
 10
87.68767087651558
 20
-140.5847004856872
 30
0.0
 10
87.87801240207564
 20
-140.6439561280335
 30
0.0
 10
87.89919973930992
 20
-140.6501572999069
 30
0.0
 10
87.97120223495165
 20
-140.6777180637889
 30
0.0
 10
88.02615150794138
 20
-140.5909016575606
 30
0.0
 10
88.04940590246682
 20
-140.5168321046278
 30
0.0
 10
88.0642198130534
 20
-140.4427625516949
 30
0.0
 10
88.0642198130534
 20
-140.4427625516949
 30
0.0
 10
87.76604679880502
 20
-140.4427625516949
 30
0.0
 10
87.76604679880502
 20
-140.4427625516949
 30
0.0
  0
HATCH
  5
14C
330
145
100
AcDbEntity
  8
_U+30EC_U+30A4_U+30E4_U+30FC 1
 62
   179
420
  2234388
100
AcDbHatch
 10
0.0
 20
0.0
 30
0.0
210
0.0
220
0.0
230
1.0
  2
SOLID
 70
     1
 71
     0
 91
        3
 92
        1
 93
        1
 72
     4
 94
        3
 73
     0
 74
     1
 95
      242
 96
      238
 40
0.0
 40
0.0
 40
0.0
 40
0.0
 40
1.0
 40
1.0
 40
1.0
 40
2.0
 40
2.0
 40
2.0
 40
3.0
 40
3.0
 40
3.0
 40
4.0
 40
4.0
 40
4.0
 40
5.0
 40
5.0
 40
5.0
 40
6.0
 40
6.0
 40
6.0
 40
7.0
 40
7.0
 40
7.0
 40
8.0
 40
8.0
 40
8.0
 40
9.0
 40
9.0
 40
9.0
 40
10.0
 40
10.0
 40
10.0
 40
11.0
 40
11.0
 40
11.0
 40
12.0
 40
12.0
 40
12.0
 40
13.0
 40
13.0
 40
13.0
 40
14.0
 40
14.0
 40
14.0
 40
15.0
 40
15.0
 40
15.0
 40
16.0
 40
16.0
 40
16.0
 40
17.0
 40
17.0
 40
17.0
 40
18.0
 40
18.0
 40
18.0
 40
19.0
 40
19.0
 40
19.0
 40
20.0
 40
20.0
 40
20.0
 40
21.0
 40
21.0
 40
21.0
 40
22.0
 40
22.0
 40
22.0
 40
23.0
 40
23.0
 40
23.0
 40
24.0
 40
24.0
 40
24.0
 40
25.0
 40
25.0
 40
25.0
 40
26.0
 40
26.0
 40
26.0
 40
27.0
 40
27.0
 40
27.0
 40
28.0
 40
28.0
 40
28.0
 40
29.0
 40
29.0
 40
29.0
 40
30.0
 40
30.0
 40
30.0
 40
31.0
 40
31.0
 40
31.0
 40
32.0
 40
32.0
 40
32.0
 40
33.0
 40
33.0
 40
33.0
 40
34.0
 40
34.0
 40
34.0
 40
35.0
 40
35.0
 40
35.0
 40
36.0
 40
36.0
 40
36.0
 40
37.0
 40
37.0
 40
37.0
 40
38.0
 40
38.0
 40
38.0
 40
39.0
 40
39.0
 40
39.0
 40
40.0
 40
40.0
 40
40.0
 40
41.0
 40
41.0
 40
41.0
 40
42.0
 40
42.0
 40
42.0
 40
43.0
 40
43.0
 40
43.0
 40
44.0
 40
44.0
 40
44.0
 40
45.0
 40
45.0
 40
45.0
 40
46.0
 40
46.0
 40
46.0
 40
47.0
 40
47.0
 40
47.0
 40
48.0
 40
48.0
 40
48.0
 40
49.0
 40
49.0
 40
49.0
 40
50.0
 40
50.0
 40
50.0
 40
51.0
 40
51.0
 40
51.0
 40
52.0
 40
52.0
 40
52.0
 40
53.0
 40
53.0
 40
53.0
 40
54.0
 40
54.0
 40
54.0
 40
55.0
 40
55.0
 40
55.0
 40
56.0
 40
56.0
 40
56.0
 40
57.0
 40
57.0
 40
57.0
 40
58.0
 40
58.0
 40
58.0
 40
59.0
 40
59.0
 40
59.0
 40
60.0
 40
60.0
 40
60.0
 40
61.0
 40
61.0
 40
61.0
 40
62.0
 40
62.0
 40
62.0
 40
63.0
 40
63.0
 40
63.0
 40
64.0
 40
64.0
 40
64.0
 40
65.0
 40
65.0
 40
65.0
 40
66.0
 40
66.0
 40
66.0
 40
67.0
 40
67.0
 40
67.0
 40
68.0
 40
68.0
 40
68.0
 40
69.0
 40
69.0
 40
69.0
 40
70.0
 40
70.0
 40
70.0
 40
71.0
 40
71.0
 40
71.0
 40
72.0
 40
72.0
 40
72.0
 40
73.0
 40
73.0
 40
73.0
 40
74.0
 40
74.0
 40
74.0
 40
75.0
 40
75.0
 40
75.0
 40
76.0
 40
76.0
 40
76.0
 40
77.0
 40
77.0
 40
77.0
 40
78.0
 40
78.0
 40
78.0
 40
79.0
 40
79.0
 40
79.0
 40
79.0
 10
88.33087020361172
 20
-140.0579453859925
 10
88.33087020361172
 20
-140.0579453859925
 10
88.07696666634882
 20
-140.0579453859925
 10
88.07696666634882
 20
-140.0579453859925
 10
88.07696666634882
 20
-140.0579453859925
 10
87.79980873456047
 20
-140.0579453859925
 10
87.79980873456047
 20
-140.0579453859925
 10
87.79980873456047
 20
-140.0579453859925
 10
87.92676050319193
 20
-140.100320060461
 10
87.92676050319193
 20
-140.100320060461
 10
87.93726804442194
 20
-140.1044541750433
 10
87.95001489771737
 20
-140.1106553469168
 10
87.95001489771737
 20
-140.1234022002122
 10
87.95001489771737
 20
-140.1444172826722
 10
87.91832001925306
 20
-140.1509629640942
 10
87.89713268201878
 20
-140.1550970786765
 10
87.88662514078877
 20
-140.1785237279762
 10
87.85699731961562
 20
-140.2439805421959
 10
87.83787703967248
 20
-140.2884222739557
 10
87.83787703967248
 20
-140.2884222739557
 10
88.10866154481312
 20
-140.2884222739557
 10
88.10866154481312
 20
-140.2884222739557
 10
88.19961206562371
 20
-140.2884222739557
 10
88.39632701783148
 20
-140.2842881593734
 10
88.5380926970495
 20
-140.2756754206603
 10
88.5380926970495
 20
-140.2756754206603
 10
88.5380926970495
 20
-140.4534423476991
 10
88.5380926970495
 20
-140.4534423476991
 10
88.45558266017777
 20
-140.4493082331169
 10
88.43439532294349
 20
-140.4493082331169
 10
88.25473359338771
 20
-140.444829608986
 10
88.22286646014915
 20
-140.5995143962737
 10
88.17842472838943
 20
-140.6797851210801
 10
88.1339829966297
 20
-140.7497205594306
 10
88.25473359338771
 20
-140.8089762017769
 10
88.36049802478487
 20
-140.8765000732878
 10
88.46402314411664
 20
-140.9591823649338
 10
88.46402314411664
 20
-140.9591823649338
 10
88.3456841141983
 20
-141.1262694959684
 10
88.3456841141983
 20
-141.1262694959684
 10
88.32225746489861
 20
-141.106976961251
 10
88.30968286637744
 20
-141.0987087320864
 10
88.19754500833257
 20
-141.0139593831493
 10
88.14879690721628
 20
-140.9760633328115
 10
88.08971351964425
 20
-140.9398898302164
 10
88.00927054006365
 20
-140.8954480984567
 10
87.79774167726931
 20
-141.0818277642087
 10
87.59241398634843
 20
-141.1049099039599
 10
87.30268145603891
 20
-141.134537725133
 10
87.30268145603891
 20
-141.134537725133
 10
87.19898408193289
 20
-140.954703740803
 10
87.19898408193289
 20
-140.954703740803
 10
87.5162773761244
 20
-140.9505696262207
 10
87.69197724587215
 20
-140.9250759196298
 10
87.84425046632019
 20
-140.8151773736504
 10
87.7257391816276
 20
-140.7645344700172
 10
87.63685571810815
 20
-140.7369737061352
 10
87.60102672506156
 20
-140.7242268528398
 10
87.58190644511842
 20
-140.7517876167218
 10
87.56709253453184
 20
-140.7707356418907
 10
87.53953177064984
 20
-140.8044975776461
 10
87.53953177064984
 20
-140.8044975776461
 10
87.34281681844207
 20
-140.7221597955486
 10
87.34281681844207
 20
-140.7221597955486
 10
87.42532685531381
 20
-140.6418890707423
 10
87.48664955495126
 20
-140.5464599258009
 10
87.5438381400064
 20
-140.444829608986
 10
87.35349661444636
 20
-140.4493082331169
 10
87.33230927721206
 20
-140.4493082331169
 10
87.24979924034034
 20
-140.4534423476991
 10
87.24979924034034
 20
-140.4534423476991
 10
87.24979924034034
 20
-140.2756754206603
 10
87.24979924034034
 20
-140.2756754206603
 10
87.38932560749295
 20
-140.2822211020822
 10
87.59878741299615
 20
-140.2863552166645
 10
87.624281119587
 20
-140.2863552166645
 10
87.6411620874647
 20
-140.2525932809091
 10
87.69611136045445
 20
-140.1320149389253
 10
87.71523164039759
 20
-140.0579453859925
 10
87.69611136045445
 20
-140.0579453859925
 10
87.51851668818982
 20
-140.0641465578659
 10
87.3238687932732
 20
-140.0768934111613
 10
87.3238687932732
 20
-140.0768934111613
 10
87.3238687932732
 20
-140.2102186064405
 10
87.3238687932732
 20
-140.2102186064405
 10
87.27512069215692
 20
-140.2353678034828
 10
87.21586504981062
 20
-140.2674071914957
 10
87.08271210930572
 20
-140.3328640057154
 10
87.08271210930572
 20
-140.3328640057154
 10
87.08271210930572
 20
-140.47893605429
 10
87.08271210930572
 20
-140.47893605429
 10
87.08271210930572
 20
-140.47893605429
 10
87.08271210930572
 20
-140.9464355116384
 10
87.08271210930572
 20
-140.9464355116384
 10
87.08271210930572
 20
-141.0732150254956
 10
87.04671086148485
 20
-141.1324706678419
 10
86.76317950304879
 20
-141.1242024386773
 10
86.76317950304879
 20
-141.1242024386773
 10
86.65948212894277
 20
-140.9168076904652
 10
86.65948212894277
 20
-140.9168076904652
 10
86.72304414064563
 20
-140.9295545437607
 10
86.77161998698766
 20
-140.933688658343
 10
86.81192760416508
 20
-140.933688658343
 10
86.8880642143891
 20
-140.933688658343
 10
86.89857175561912
 20
-140.9102620090433
 10
86.89857175561912
 20
-140.8448051948235
 10
86.89857175561912
 20
-140.8448051948235
 10
86.89857175561912
 20
-140.4152017878129
 10
86.89857175561912
 20
-140.4152017878129
 10
86.80124780816081
 20
-140.4555094049903
 10
86.78436684028308
 20
-140.4620550864123
 10
86.73785805123221
 20
-140.4810031115811
 10
86.73355168187564
 20
-140.5020181940412
 10
86.72941756729334
 20
-140.5316460152143
 10
86.7102972873502
 20
-140.5316460152143
 10
86.70185680341135
 20
-140.5316460152143
 10
86.69134926218133
 20
-140.527511900632
 10
86.68497583553362
 20
-140.5040852513323
 10
86.68497583553362
 20
-140.5040852513323
 10
86.63209361983503
 20
-140.3118489232554
 10
86.63209361983503
 20
-140.3118489232554
 10
86.77799341363537
 20
-140.264995624656
 10
86.84362248262937
 20
-140.2419134849048
 10
86.89857175561912
 20
-140.2208984024448
 10
86.89857175561912
 20
-140.2208984024448
 10
86.89857175561912
 20
-139.8081759633118
 10
86.89857175561912
 20
-139.8081759633118
 10
86.89857175561912
 20
-139.8081759633118
 10
86.84568953992053
 20
-139.8081759633118
 10
86.84568953992053
 20
-139.8081759633118
 10
86.84568953992053
 20
-139.8081759633118
 10
86.76748587240536
 20
-139.8081759633118
 10
86.76748587240536
 20
-139.8081759633118
 10
86.69978974612019
 20
-139.8081759633118
 10
86.69134926218133
 20
-139.8081759633118
 10
86.65534801436047
 20
-139.8147216447338
 10
86.65534801436047
 20
-139.8147216447338
 10
86.65534801436047
 20
-139.6200737498172
 10
86.65534801436047
 20
-139.6200737498172
 10
86.68290877824248
 20
-139.6262749216907
 10
86.69134926218133
 20
-139.6262749216907
 10
86.76111244575765
 20
-139.6262749216907
 10
86.76111244575765
 20
-139.6262749216907
 10
86.89443764103682
 20
-139.6262749216907
 10
86.89443764103682
 20
-139.6262749216907
 10
86.89443764103682
 20
-139.5563394833401
 10
86.89443764103682
 20
-139.4740017012426
 10
86.8921983289714
 20
-139.4698675866603
 10
86.88375784503253
 20
-139.2900336023303
 10
86.88375784503253
 20
-139.2707410676129
 10
86.88169078774139
 20
-139.224232278562
 10
86.88169078774139
 20
-139.224232278562
 10
87.09752601989229
 20
-139.2328450172751
 10
87.09752601989229
 20
-139.2328450172751
 10
87.1080335611223
 20
-139.2328450172751
 10
87.12922089835659
 20
-139.2349120745663
 10
87.12922089835659
 20
-139.251793042444
 10
87.12922089835659
 20
-139.2707410676129
 10
87.11440698777001
 20
-139.2814208636171
 10
87.08908553595343
 20
-139.300368888786
 10
87.08908553595343
 20
-139.3513563019677
 10
87.08271210930572
 20
-139.5797661326398
 10
87.08477916659686
 20
-139.6262749216907
 10
87.21379799251947
 20
-139.6262749216907
 10
87.2265448458149
 20
-139.6262749216907
 10
87.3238687932732
 20
-139.6176621829775
 10
87.3238687932732
 20
-139.6176621829775
 10
87.3238687932732
 20
-139.8123100778942
 10
87.3238687932732
 20
-139.8123100778942
 10
87.28580048816119
 20
-139.810243020603
 10
87.21810436187603
 20
-139.8061089060207
 10
87.08271210930572
 20
-139.8081759633118
 10
87.08271210930572
 20
-139.8081759633118
 10
87.08271210930572
 20
-140.1468288495119
 10
87.08271210930572
 20
-140.1468288495119
 10
87.13766138229545
 20
-140.1234022002122
 10
87.20329045128946
 20
-140.0958414363302
 10
87.25186629763148
 20
-140.0727592965791
 10
87.25186629763148
 20
-140.0727592965791
 10
87.25186629763148
 20
-139.8949923695401
 10
87.25186629763148
 20
-139.8949923695401
 10
87.36607121296751
 20
-139.9077392228356
 10
87.48458249766011
 20
-139.9077392228356
 10
87.60102672506156
 20
-139.9077392228356
 10
87.57777233053612
 20
-139.8123100778942
 10
87.55021156665411
 20
-139.7299722957967
 10
87.48664955495126
 20
-139.5966471005175
 10
87.4423800779658
 20
-139.5987141578087
 10
87.35987004109407
 20
-139.602848272391
 10
87.3216294812078
 20
-139.6052598392306
 10
87.3216294812078
 20
-139.6052598392306
 10
87.3216294812078
 20
-139.4254258549006
 10
87.3216294812078
 20
-139.4254258549006
 10
87.4465141925481
 20
-139.4336940840652
 10
87.61997475023043
 20
-139.4378281986475
 10
87.70248478710216
 20
-139.4378281986475
 10
87.70248478710216
 20
-139.4378281986475
 10
87.78499482397389
 20
-139.4378281986475
 10
87.78499482397389
 20
-139.4378281986475
 10
87.78499482397389
 20
-139.2752196917437
 10
87.78499482397389
 20
-139.2645398957394
 10
87.78292776668275
 20
-139.2094183679754
 10
87.78292776668275
 20
-139.2094183679754
 10
88.00720348277251
 20
-139.2349120745663
 10
88.00720348277251
 20
-139.2349120745663
 10
88.01133759735481
 20
-139.2349120745663
 10
88.03252493458909
 20
-139.2369791318574
 10
88.03252493458909
 20
-139.2538600997352
 10
88.03252493458909
 20
-139.2686740103217
 10
88.02201739335908
 20
-139.2772867490349
 10
87.99445662947709
 20
-139.2921006596214
 10
87.98808320282937
 20
-139.3575574738412
 10
87.98601614553822
 20
-139.3789170658497
 10
87.98601614553822
 20
-139.4378281986475
 10
87.98601614553822
 20
-139.4378281986475
 10
88.08110078093112
 20
-139.4378281986475
 10
88.08110078093112
 20
-139.4378281986475
 10
88.16361081780285
 20
-139.4378281986475
 10
88.33707137548518
 20
-139.4336940840652
 10
88.46195608682548
 20
-139.4254258549006
 10
88.46195608682548
 20
-139.4254258549006
 10
88.46195608682548
 20
-139.6052598392306
 10
88.46195608682548
 20
-139.6052598392306
 10
88.43232826565234
 20
-139.602848272391
 10
88.31381698095974
 20
-139.5987141578087
 10
88.27368161855658
 20
-139.5966471005175
 10
88.25886770797001
 20
-139.6472900041507
 10
88.22510577221456
 20
-139.7596001169698
 10
88.15947670322055
 20
-139.8991264841224
 10
88.20167912291487
 20
-139.8991264841224
 10
88.4788370547032
 20
-139.8801784589536
 10
88.54015975434066
 20
-139.8781114016624
 10
88.54015975434066
 20
-139.8781114016624
 10
88.54015975434066
 20
-140.0620795005748
 10
88.54015975434066
 20
-140.0620795005748
 10
88.51070418794177
 20
-140.0620795005748
 10
88.49365096528979
 20
-140.0579453859925
 10
88.33087020361172
 20
-140.0579453859925
 97
        0
 97
        0
 92
        1
 93
        1
 72
     4
 94
        3
 73
     0
 74
     1
 95
       20
 96
       16
 40
0.0
 40
0.0
 40
0.0
 40
0.0
 40
1.0
 40
1.0
 40
1.0
 40
2.0
 40
2.0
 40
2.0
 40
3.0
 40
3.0
 40
3.0
 40
4.0
 40
4.0
 40
4.0
 40
5.0
 40
5.0
 40
5.0
 40
5.0
 10
87.70248478710216
 20
-139.5925129859352
 10
87.70248478710216
 20
-139.5925129859352
 10
87.67078990863786
 20
-139.5925129859352
 10
87.67078990863786
 20
-139.5925129859352
 10
87.71729869768873
 20
-139.6917317359104
 10
87.74899357615304
 20
-139.7723469702653
 10
87.78292776668275
 20
-139.8991264841224
 10
87.78292776668275
 20
-139.8991264841224
 10
87.99015026012052
 20
-139.8991264841224
 10
87.99015026012052
 20
-139.8991264841224
 10
88.02201739335908
 20
-139.8061089060207
 10
88.04527178788452
 20
-139.7213595570836
 10
88.06852618240995
 20
-139.5925129859352
 10
88.06852618240995
 20
-139.5925129859352
 10
87.70248478710216
 20
-139.5925129859352
 10
87.70248478710216
 20
-139.5925129859352
 97
        0
 97
        0
 92
        1
 93
        1
 72
     4
 94
        3
 73
     0
 74
     1
 95
       17
 96
       13
 40
0.0
 40
0.0
 40
0.0
 40
0.0
 40
1.0
 40
1.0
 40
1.0
 40
2.0
 40
2.0
 40
2.0
 40
3.0
 40
3.0
 40
3.0
 40
4.0
 40
4.0
 40
4.0
 40
4.0
 10
87.76604679880502
 20
-140.4427625516949
 10
87.74899357615304
 20
-140.472390372868
 10
87.69835067251987
 20
-140.5654079509698
 10
87.68767087651558
 20
-140.5847004856872
 10
87.87801240207564
 20
-140.6439561280335
 10
87.89919973930992
 20
-140.6501572999069
 10
87.97120223495165
 20
-140.6777180637889
 10
88.02615150794138
 20
-140.5909016575606
 10
88.04940590246682
 20
-140.5168321046278
 10
88.0642198130534
 20
-140.4427625516949
 10
88.0642198130534
 20
-140.4427625516949
 10
87.76604679880502
 20
-140.4427625516949
 10
87.76604679880502
 20
-140.4427625516949
 97
        0
 97
        0
 75
     2
 76
     1
 98
        0
  0
SPLINE
  5
14D
330
145
100
AcDbEntity
  8
_U+30EC_U+30A4_U+30E4_U+30FC 1
370
     0
100
AcDbSpline
210
0.0
220
0.0
230
1.0
 70
    11
 71
     3
 72
   203
 73
   199
 74
     0
 42
0.0000000001
 43
0.0000000001
 12
1.0
 22
0.0
 32
0.0
 13
1.0
 23
0.0
 33
0.0
 40
0.0
 40
0.0
 40
0.0
 40
0.0
 40
1.0
 40
1.0
 40
1.0
 40
2.0
 40
2.0
 40
2.0
 40
3.0
 40
3.0
 40
3.0
 40
4.0
 40
4.0
 40
4.0
 40
5.0
 40
5.0
 40
5.0
 40
6.0
 40
6.0
 40
6.0
 40
7.0
 40
7.0
 40
7.0
 40
8.0
 40
8.0
 40
8.0
 40
9.0
 40
9.0
 40
9.0
 40
10.0
 40
10.0
 40
10.0
 40
11.0
 40
11.0
 40
11.0
 40
12.0
 40
12.0
 40
12.0
 40
13.0
 40
13.0
 40
13.0
 40
14.0
 40
14.0
 40
14.0
 40
15.0
 40
15.0
 40
15.0
 40
16.0
 40
16.0
 40
16.0
 40
17.0
 40
17.0
 40
17.0
 40
18.0
 40
18.0
 40
18.0
 40
19.0
 40
19.0
 40
19.0
 40
20.0
 40
20.0
 40
20.0
 40
21.0
 40
21.0
 40
21.0
 40
22.0
 40
22.0
 40
22.0
 40
23.0
 40
23.0
 40
23.0
 40
24.0
 40
24.0
 40
24.0
 40
25.0
 40
25.0
 40
25.0
 40
26.0
 40
26.0
 40
26.0
 40
27.0
 40
27.0
 40
27.0
 40
28.0
 40
28.0
 40
28.0
 40
29.0
 40
29.0
 40
29.0
 40
30.0
 40
30.0
 40
30.0
 40
31.0
 40
31.0
 40
31.0
 40
32.0
 40
32.0
 40
32.0
 40
33.0
 40
33.0
 40
33.0
 40
34.0
 40
34.0
 40
34.0
 40
35.0
 40
35.0
 40
35.0
 40
36.0
 40
36.0
 40
36.0
 40
37.0
 40
37.0
 40
37.0
 40
38.0
 40
38.0
 40
38.0
 40
39.0
 40
39.0
 40
39.0
 40
40.0
 40
40.0
 40
40.0
 40
41.0
 40
41.0
 40
41.0
 40
42.0
 40
42.0
 40
42.0
 40
43.0
 40
43.0
 40
43.0
 40
44.0
 40
44.0
 40
44.0
 40
45.0
 40
45.0
 40
45.0
 40
46.0
 40
46.0
 40
46.0
 40
47.0
 40
47.0
 40
47.0
 40
48.0
 40
48.0
 40
48.0
 40
49.0
 40
49.0
 40
49.0
 40
50.0
 40
50.0
 40
50.0
 40
51.0
 40
51.0
 40
51.0
 40
52.0
 40
52.0
 40
52.0
 40
53.0
 40
53.0
 40
53.0
 40
54.0
 40
54.0
 40
54.0
 40
55.0
 40
55.0
 40
55.0
 40
56.0
 40
56.0
 40
56.0
 40
57.0
 40
57.0
 40
57.0
 40
58.0
 40
58.0
 40
58.0
 40
59.0
 40
59.0
 40
59.0
 40
60.0
 40
60.0
 40
60.0
 40
61.0
 40
61.0
 40
61.0
 40
62.0
 40
62.0
 40
62.0
 40
63.0
 40
63.0
 40
63.0
 40
64.0
 40
64.0
 40
64.0
 40
65.0
 40
65.0
 40
65.0
 40
66.0
 40
66.0
 40
66.0
 40
66.0
 10
90.02223983209514
 20
-140.1254692575034
 30
0.0
 10
90.02223983209514
 20
-140.1254692575034
 30
0.0
 10
89.46378985393613
 20
-140.1254692575034
 30
0.0
 10
89.46378985393613
 20
-140.1254692575034
 30
0.0
 10
89.45311005793187
 20
-140.1699109892631
 30
0.0
 10
89.444669573993
 20
-140.2016058677274
 30
0.0
 10
89.43209497547184
 20
-140.2398464276137
 30
0.0
 10
89.45741642728842
 20
-140.2398464276137
 30
0.0
 10
89.472230337875
 20
-140.2419134849048
 30
0.0
 10
89.47860376452272
 20
-140.2419134849048
 30
0.0
 10
89.47860376452272
 20
-140.2419134849048
 30
0.0
 10
89.66687823279162
 20
-140.2419134849048
 30
0.0
 10
89.66687823279162
 20
-140.2419134849048
 30
0.0
 10
89.66687823279162
 20
-140.2419134849048
 30
0.0
 10
90.04136011203828
 20
-140.2419134849048
 30
0.0
 10
90.04136011203828
 20
-140.2419134849048
 30
0.0
 10
90.09200301567145
 20
-140.2419134849048
 30
0.0
 10
90.3755343741075
 20
-140.2291666316094
 30
0.0
 10
90.40722925257181
 20
-140.2291666316094
 30
0.0
 10
90.40516219528065
 20
-140.2567273954914
 30
0.0
 10
90.40309513798951
 20
-140.2756754206603
 30
0.0
 10
90.40309513798951
 20
-140.3053032418334
 30
0.0
 10
90.4008558259241
 20
-140.3369981202977
 30
0.0
 10
90.4008558259241
 20
-140.472390372868
 30
0.0
 10
90.4008558259241
 20
-140.49995113675
 30
0.0
 10
90.4008558259241
 20
-140.49995113675
 30
0.0
 10
90.4008558259241
 20
-140.7452419352998
 30
0.0
 10
90.4008558259241
 20
-140.7452419352998
 30
0.0
 10
90.4008558259241
 20
-140.7896836670595
 30
0.0
 10
90.40516219528065
 20
-140.9863986192673
 30
0.0
 10
90.40946856463722
 20
-141.1390163492639
 30
0.0
 10
90.40946856463722
 20
-141.1390163492639
 30
0.0
 10
90.18295353648205
 20
-141.1390163492639
 30
0.0
 10
90.18295353648205
 20
-141.1390163492639
 30
0.0
 10
90.18295353648205
 20
-141.1390163492639
 30
0.0
 10
90.18519284854746
 20
-141.1049099039599
 30
0.0
 10
90.18519284854746
 20
-141.1049099039599
 30
0.0
 10
90.18519284854746
 20
-141.1049099039599
 30
0.0
 10
89.48273787910502
 20
-141.1049099039599
 30
0.0
 10
89.48273787910502
 20
-141.1049099039599
 30
0.0
 10
89.48273787910502
 20
-141.1049099039599
 30
0.0
 10
89.48497719117043
 20
-141.1390163492639
 30
0.0
 10
89.48497719117043
 20
-141.1390163492639
 30
0.0
 10
89.48497719117043
 20
-141.1390163492639
 30
0.0
 10
89.26707490172838
 20
-141.1390163492639
 30
0.0
 10
89.26707490172838
 20
-141.1390163492639
 30
0.0
 10
89.27120901631068
 20
-141.0838948214999
 30
0.0
 10
89.27120901631068
 20
-141.0711479682044
 30
0.0
 10
89.27758244295839
 20
-140.9567707980941
 30
0.0
 10
89.27964950024953
 20
-140.9295545437607
 30
0.0
 10
89.28188881231495
 20
-140.7962293484815
 30
0.0
 10
89.28188881231495
 20
-140.7769368137641
 30
0.0
 10
89.28188881231495
 20
-140.7769368137641
 30
0.0
 10
89.28188881231495
 20
-140.5740206896829
 30
0.0
 10
89.28188881231495
 20
-140.5740206896829
 30
0.0
 10
89.14219019038806
 20
-140.8237901123635
 30
0.0
 10
88.9730360020623
 20
-140.954703740803
 30
0.0
 10
88.86727157066512
 20
-141.0205050645713
 30
0.0
 10
88.86727157066512
 20
-141.0205050645713
 30
0.0
 10
88.69363875820854
 20
-140.8806341878701
 30
0.0
 10
88.69363875820854
 20
-140.8806341878701
 30
0.0
 10
88.78252222172799
 20
-140.8299912842369
 30
0.0
 10
88.92635495823717
 20
-140.7431748780087
 30
0.0
 10
89.0639865228729
 20
-140.548526983092
 30
0.0
 10
89.15493704368349
 20
-140.4217474692348
 30
0.0
 10
89.22039385790323
 20
-140.2777424779514
 30
0.0
 10
89.25432804843295
 20
-140.1254692575034
 30
0.0
 10
89.02591821776089
 20
-140.1275363147945
 30
0.0
 10
88.84608423343084
 20
-140.1340819962165
 30
0.0
 10
88.75082734326368
 20
-140.1361490535076
 30
0.0
 10
88.75082734326368
 20
-140.1361490535076
 30
0.0
 10
88.75082734326368
 20
-139.9583821264687
 30
0.0
 10
88.75082734326368
 20
-139.9583821264687
 30
0.0
 10
88.94754229547145
 20
-139.9645832983422
 30
0.0
 10
89.23107365390752
 20
-139.969061922473
 30
0.0
 10
89.38127981706441
 20
-139.969061922473
 30
0.0
 10
89.38127981706441
 20
-139.969061922473
 30
0.0
 10
89.59487573714989
 20
-139.969061922473
 30
0.0
 10
89.59487573714989
 20
-139.969061922473
 30
0.0
 10
89.59487573714989
 20
-139.969061922473
 30
0.0
 10
89.59487573714989
 20
-139.8612304337847
 30
0.0
 10
89.59487573714989
 20
-139.8612304337847
 30
0.0
 10
89.59487573714989
 20
-139.8612304337847
 30
0.0
 10
89.44897594334957
 20
-139.8612304337847
 30
0.0
 10
89.44897594334957
 20
-139.8612304337847
 30
0.0
 10
89.27964950024953
 20
-139.8612304337847
 30
0.0
 10
89.11049531192377
 20
-139.865364548367
 30
0.0
 10
88.94340818088915
 20
-139.8715657202405
 30
0.0
 10
88.94340818088915
 20
-139.8715657202405
 30
0.0
 10
88.94340818088915
 20
-139.7003444746235
 30
0.0
 10
88.94340818088915
 20
-139.7003444746235
 30
0.0
 10
89.09774845862835
 20
-139.7110242706278
 30
0.0
 10
89.2839558696061
 20
-139.7110242706278
 30
0.0
 10
89.44897594334957
 20
-139.7110242706278
 30
0.0
 10
89.44897594334957
 20
-139.7110242706278
 30
0.0
 10
89.59487573714989
 20
-139.7110242706278
 30
0.0
 10
89.59487573714989
 20
-139.7110242706278
 30
0.0
 10
89.59487573714989
 20
-139.7110242706278
 30
0.0
 10
89.59487573714989
 20
-139.5925129859352
 30
0.0
 10
89.59487573714989
 20
-139.5925129859352
 30
0.0
 10
89.59487573714989
 20
-139.5925129859352
 30
0.0
 10
89.46378985393613
 20
-139.5925129859352
 30
0.0
 10
89.46378985393613
 20
-139.5925129859352
 30
0.0
 10
89.41728106488527
 20
-139.5925129859352
 30
0.0
 10
89.21419268602979
 20
-139.6007812150998
 30
0.0
 10
89.17181801156121
 20
-139.6007812150998
 30
0.0
 10
88.96872963270575
 20
-139.6052598392306
 30
0.0
 10
88.89259302248172
 20
-139.6073268965218
 30
0.0
 10
88.81421710019228
 20
-139.6093939538129
 30
0.0
 10
88.81421710019228
 20
-139.6093939538129
 30
0.0
 10
88.81421710019228
 20
-139.4254258549006
 30
0.0
 10
88.81421710019228
 20
-139.4254258549006
 30
0.0
 10
88.92859427030258
 20
-139.4336940840652
 30
0.0
 10
88.9730360020623
 20
-139.4336940840652
 30
0.0
 10
89.35578611047356
 20
-139.4423068227783
 30
0.0
 10
89.29239635354496
 20
-139.3468776778369
 30
0.0
 10
89.26483558966297
 20
-139.3196614235034
 30
0.0
 10
89.22900659661636
 20
-139.2834879209083
 30
0.0
 10
89.22900659661636
 20
-139.2834879209083
 30
0.0
 10
89.40453421158985
 20
-139.2011501388108
 30
0.0
 10
89.40453421158985
 20
-139.2011501388108
 30
0.0
 10
89.444669573993
 20
-139.2369791318574
 30
0.0
 10
89.48911130575273
 20
-139.279353806326
 30
0.0
 10
89.5631808586856
 20
-139.3892523523055
 30
0.0
 10
89.5631808586856
 20
-139.3892523523055
 30
0.0
 10
89.44897594334957
 20
-139.4443738800695
 30
0.0
 10
89.44897594334957
 20
-139.4443738800695
 30
0.0
 10
89.44897594334957
 20
-139.4443738800695
 30
0.0
 10
89.45948348457958
 20
-139.4443738800695
 30
0.0
 10
89.45948348457958
 20
-139.4443738800695
 30
0.0
 10
89.45948348457958
 20
-139.4443738800695
 30
0.0
 10
89.98210446969198
 20
-139.4443738800695
 30
0.0
 10
89.98210446969198
 20
-139.4443738800695
 30
0.0
 10
89.98210446969198
 20
-139.4443738800695
 30
0.0
 10
89.88684757952483
 20
-139.3999321483097
 30
0.0
 10
89.88684757952483
 20
-139.3999321483097
 30
0.0
 10
89.91440834340682
 20
-139.3616915884235
 30
0.0
 10
89.97142467368771
 20
-139.2814208636171
 30
0.0
 10
89.98623858427428
 20
-139.2073513106843
 30
0.0
 10
89.98623858427428
 20
-139.2073513106843
 30
0.0
 10
90.20000675913403
 20
-139.2707410676129
 30
0.0
 10
90.20000675913403
 20
-139.2707410676129
 30
0.0
 10
90.2084472430729
 20
-139.2731526344525
 30
0.0
 10
90.22963458030718
 20
-139.2834879209083
 30
0.0
 10
90.22963458030718
 20
-139.3048475129168
 30
0.0
 10
90.22963458030718
 20
-139.3427435632546
 30
0.0
 10
90.16400551131316
 20
-139.3427435632546
 30
0.0
 10
90.14488523137003
 20
-139.3427435632546
 30
0.0
 10
90.13437769014003
 20
-139.3616915884235
 30
0.0
 10
90.11112329561459
 20
-139.4019992056009
 30
0.0
 10
90.08149547444144
 20
-139.4423068227783
 30
0.0
 10
90.48129880550468
 20
-139.4357611413564
 30
0.0
 10
90.51092662667783
 20
-139.4336940840652
 30
0.0
 10
90.58706323690186
 20
-139.4274929121918
 30
0.0
 10
90.58706323690186
 20
-139.4274929121918
 30
0.0
 10
90.58706323690186
 20
-139.6093939538129
 30
0.0
 10
90.58706323690186
 20
-139.6093939538129
 30
0.0
 10
90.56811521173297
 20
-139.6093939538129
 30
0.0
 10
90.54262150514212
 20
-139.6073268965218
 30
0.0
 10
90.32265215840893
 20
-139.5987141578087
 30
0.0
 10
90.27183700000148
 20
-139.5966471005175
 30
0.0
 10
90.05186765326829
 20
-139.5925129859352
 30
0.0
 10
90.00742592150857
 20
-139.5925129859352
 30
0.0
 10
90.00742592150857
 20
-139.5925129859352
 30
0.0
 10
89.79159068935766
 20
-139.5925129859352
 30
0.0
 10
89.79159068935766
 20
-139.5925129859352
 30
0.0
 10
89.79159068935766
 20
-139.5925129859352
 30
0.0
 10
89.79159068935766
 20
-139.7110242706278
 30
0.0
 10
89.79159068935766
 20
-139.7110242706278
 30
0.0
 10
89.79159068935766
 20
-139.7110242706278
 30
0.0
 10
89.96522350181425
 20
-139.7110242706278
 30
0.0
 10
89.96522350181425
 20
-139.7110242706278
 30
0.0
 10
90.12800426349231
 20
-139.7110242706278
 30
0.0
 10
90.31834578905236
 20
-139.7110242706278
 30
0.0
 10
90.47492537885697
 20
-139.7003444746235
 30
0.0
 10
90.47492537885697
 20
-139.7003444746235
 30
0.0
 10
90.47492537885697
 20
-139.8715657202405
 30
0.0
 10
90.47492537885697
 20
-139.8715657202405
 30
0.0
 10
90.26546357335377
 20
-139.8632974910759
 30
0.0
 10
90.06874862114601
 20
-139.8612304337847
 30
0.0
 10
89.96522350181425
 20
-139.8612304337847
 30
0.0
 10
89.96522350181425
 20
-139.8612304337847
 30
0.0
 10
89.79159068935766
 20
-139.8612304337847
 30
0.0
 10
89.79159068935766
 20
-139.8612304337847
 30
0.0
 10
89.79159068935766
 20
-139.8612304337847
 30
0.0
 10
89.79159068935766
 20
-139.969061922473
 30
0.0
 10
89.79159068935766
 20
-139.969061922473
 30
0.0
 10
89.79159068935766
 20
-139.969061922473
 30
0.0
 10
90.02223983209514
 20
-139.969061922473
 30
0.0
 10
90.02223983209514
 20
-139.969061922473
 30
0.0
 10
90.15556502737431
 20
-139.969061922473
 30
0.0
 10
90.44323050039267
 20
-139.9645832983422
 30
0.0
 10
90.65269230589585
 20
-139.9583821264687
 30
0.0
 10
90.65269230589585
 20
-139.9583821264687
 30
0.0
 10
90.65269230589585
 20
-140.1361490535076
 30
0.0
 10
90.65269230589585
 20
-140.1361490535076
 30
0.0
 10
90.4601114682704
 20
-140.1296033720857
 30
0.0
 10
90.14712454343544
 20
-140.1254692575034
 30
0.0
 10
90.02223983209514
 20
-140.1254692575034
 30
0.0
  0
POLYLINE
  5
14E
330
145
100
AcDbEntity
  8
_U+30EC_U+30A4_U+30E4_U+30FC 1
370
     0
100
AcDb2dPolyline
 66
     1
 10
0.0
 20
0.0
 30
0.0
  0
VERTEX
  5
14F
330
14E
100
AcDbEntity
  8
_U+30EC_U+30A4_U+30E4_U+30FC 1
370
     0
100
AcDbVertex
100
AcDb2dVertex
 10
90.1872599058386
 20
-140.3814398520574
 30
0.0
  0
VERTEX
  5
150
330
14E
100
AcDbEntity
  8
_U+30EC_U+30A4_U+30E4_U+30FC 1
370
     0
100
AcDbVertex
100
AcDb2dVertex
 10
89.48067082181386
 20
-140.3814398520574
 30
0.0
  0
VERTEX
  5
151
330
14E
100
AcDbEntity
  8
_U+30EC_U+30A4_U+30E4_U+30FC 1
370
     0
100
AcDbVertex
100
AcDb2dVertex
 10
89.48067082181386
 20
-140.4892713407457
 30
0.0
  0
VERTEX
  5
152
330
14E
100
AcDbEntity
  8
_U+30EC_U+30A4_U+30E4_U+30FC 1
370
     0
100
AcDbVertex
100
AcDb2dVertex
 10
90.1872599058386
 20
-140.4892713407457
 30
0.0
  0
VERTEX
  5
153
330
14E
100
AcDbEntity
  8
_U+30EC_U+30A4_U+30E4_U+30FC 1
370
     0
100
AcDbVertex
100
AcDb2dVertex
 10
90.1872599058386
 20
-140.3814398520574
 30
0.0
  0
SEQEND
  5
154
330
14E
100
AcDbEntity
  8
_U+30EC_U+30A4_U+30E4_U+30FC 1
370
     0
  0
POLYLINE
  5
155
330
145
100
AcDbEntity
  8
_U+30EC_U+30A4_U+30E4_U+30FC 1
370
     0
100
AcDb2dPolyline
 66
     1
 10
0.0
 20
0.0
 30
0.0
  0
VERTEX
  5
156
330
155
100
AcDbEntity
  8
_U+30EC_U+30A4_U+30E4_U+30FC 1
370
     0
100
AcDbVertex
100
AcDb2dVertex
 10
90.1872599058386
 20
-140.6143283068603
 30
0.0
  0
VERTEX
  5
157
330
155
100
AcDbEntity
  8
_U+30EC_U+30A4_U+30E4_U+30FC 1
370
     0
100
AcDbVertex
100
AcDb2dVertex
 10
89.48067082181386
 20
-140.6143283068603
 30
0.0
  0
VERTEX
  5
158
330
155
100
AcDbEntity
  8
_U+30EC_U+30A4_U+30E4_U+30FC 1
370
     0
100
AcDbVertex
100
AcDb2dVertex
 10
89.48067082181386
 20
-140.7283609674221
 30
0.0
  0
VERTEX
  5
159
330
155
100
AcDbEntity
  8
_U+30EC_U+30A4_U+30E4_U+30FC 1
370
     0
100
AcDbVertex
100
AcDb2dVertex
 10
90.1872599058386
 20
-140.7283609674221
 30
0.0
  0
VERTEX
  5
15A
330
155
100
AcDbEntity
  8
_U+30EC_U+30A4_U+30E4_U+30FC 1
370
     0
100
AcDbVertex
100
AcDb2dVertex
 10
90.1872599058386
 20
-140.6143283068603
 30
0.0
  0
SEQEND
  5
15B
330
155
100
AcDbEntity
  8
_U+30EC_U+30A4_U+30E4_U+30FC 1
370
     0
  0
POLYLINE
  5
15C
330
145
100
AcDbEntity
  8
_U+30EC_U+30A4_U+30E4_U+30FC 1
370
     0
100
AcDb2dPolyline
 66
     1
 10
0.0
 20
0.0
 30
0.0
  0
VERTEX
  5
15D
330
15C
100
AcDbEntity
  8
_U+30EC_U+30A4_U+30E4_U+30FC 1
370
     0
100
AcDbVertex
100
AcDb2dVertex
 10
90.1872599058386
 20
-140.8575520481189
 30
0.0
  0
VERTEX
  5
15E
330
15C
100
AcDbEntity
  8
_U+30EC_U+30A4_U+30E4_U+30FC 1
370
     0
100
AcDbVertex
100
AcDb2dVertex
 10
89.48067082181386
 20
-140.8575520481189
 30
0.0
  0
VERTEX
  5
15F
330
15C
100
AcDbEntity
  8
_U+30EC_U+30A4_U+30E4_U+30FC 1
370
     0
100
AcDbVertex
100
AcDb2dVertex
 10
89.48067082181386
 20
-140.9715847086807
 30
0.0
  0
VERTEX
  5
160
330
15C
100
AcDbEntity
  8
_U+30EC_U+30A4_U+30E4_U+30FC 1
370
     0
100
AcDbVertex
100
AcDb2dVertex
 10
90.1872599058386
 20
-140.9715847086807
 30
0.0
  0
VERTEX
  5
161
330
15C
100
AcDbEntity
  8
_U+30EC_U+30A4_U+30E4_U+30FC 1
370
     0
100
AcDbVertex
100
AcDb2dVertex
 10
90.1872599058386
 20
-140.8575520481189
 30
0.0
  0
SEQEND
  5
162
330
15C
100
AcDbEntity
  8
_U+30EC_U+30A4_U+30E4_U+30FC 1
370
     0
  0
HATCH
  5
163
330
145
100
AcDbEntity
  8
_U+30EC_U+30A4_U+30E4_U+30FC 1
 62
   179
420
  2234388
100
AcDbHatch
 10
0.0
 20
0.0
 30
0.0
210
0.0
220
0.0
230
1.0
  2
SOLID
 70
     1
 71
     0
 91
        4
 92
        1
 93
        1
 72
     4
 94
        3
 73
     0
 74
     1
 95
      203
 96
      199
 40
0.0
 40
0.0
 40
0.0
 40
0.0
 40
1.0
 40
1.0
 40
1.0
 40
2.0
 40
2.0
 40
2.0
 40
3.0
 40
3.0
 40
3.0
 40
4.0
 40
4.0
 40
4.0
 40
5.0
 40
5.0
 40
5.0
 40
6.0
 40
6.0
 40
6.0
 40
7.0
 40
7.0
 40
7.0
 40
8.0
 40
8.0
 40
8.0
 40
9.0
 40
9.0
 40
9.0
 40
10.0
 40
10.0
 40
10.0
 40
11.0
 40
11.0
 40
11.0
 40
12.0
 40
12.0
 40
12.0
 40
13.0
 40
13.0
 40
13.0
 40
14.0
 40
14.0
 40
14.0
 40
15.0
 40
15.0
 40
15.0
 40
16.0
 40
16.0
 40
16.0
 40
17.0
 40
17.0
 40
17.0
 40
18.0
 40
18.0
 40
18.0
 40
19.0
 40
19.0
 40
19.0
 40
20.0
 40
20.0
 40
20.0
 40
21.0
 40
21.0
 40
21.0
 40
22.0
 40
22.0
 40
22.0
 40
23.0
 40
23.0
 40
23.0
 40
24.0
 40
24.0
 40
24.0
 40
25.0
 40
25.0
 40
25.0
 40
26.0
 40
26.0
 40
26.0
 40
27.0
 40
27.0
 40
27.0
 40
28.0
 40
28.0
 40
28.0
 40
29.0
 40
29.0
 40
29.0
 40
30.0
 40
30.0
 40
30.0
 40
31.0
 40
31.0
 40
31.0
 40
32.0
 40
32.0
 40
32.0
 40
33.0
 40
33.0
 40
33.0
 40
34.0
 40
34.0
 40
34.0
 40
35.0
 40
35.0
 40
35.0
 40
36.0
 40
36.0
 40
36.0
 40
37.0
 40
37.0
 40
37.0
 40
38.0
 40
38.0
 40
38.0
 40
39.0
 40
39.0
 40
39.0
 40
40.0
 40
40.0
 40
40.0
 40
41.0
 40
41.0
 40
41.0
 40
42.0
 40
42.0
 40
42.0
 40
43.0
 40
43.0
 40
43.0
 40
44.0
 40
44.0
 40
44.0
 40
45.0
 40
45.0
 40
45.0
 40
46.0
 40
46.0
 40
46.0
 40
47.0
 40
47.0
 40
47.0
 40
48.0
 40
48.0
 40
48.0
 40
49.0
 40
49.0
 40
49.0
 40
50.0
 40
50.0
 40
50.0
 40
51.0
 40
51.0
 40
51.0
 40
52.0
 40
52.0
 40
52.0
 40
53.0
 40
53.0
 40
53.0
 40
54.0
 40
54.0
 40
54.0
 40
55.0
 40
55.0
 40
55.0
 40
56.0
 40
56.0
 40
56.0
 40
57.0
 40
57.0
 40
57.0
 40
58.0
 40
58.0
 40
58.0
 40
59.0
 40
59.0
 40
59.0
 40
60.0
 40
60.0
 40
60.0
 40
61.0
 40
61.0
 40
61.0
 40
62.0
 40
62.0
 40
62.0
 40
63.0
 40
63.0
 40
63.0
 40
64.0
 40
64.0
 40
64.0
 40
65.0
 40
65.0
 40
65.0
 40
66.0
 40
66.0
 40
66.0
 40
66.0
 10
90.02223983209514
 20
-140.1254692575034
 10
90.02223983209514
 20
-140.1254692575034
 10
89.46378985393613
 20
-140.1254692575034
 10
89.46378985393613
 20
-140.1254692575034
 10
89.45311005793187
 20
-140.1699109892631
 10
89.444669573993
 20
-140.2016058677274
 10
89.43209497547184
 20
-140.2398464276137
 10
89.45741642728842
 20
-140.2398464276137
 10
89.472230337875
 20
-140.2419134849048
 10
89.47860376452272
 20
-140.2419134849048
 10
89.47860376452272
 20
-140.2419134849048
 10
89.66687823279162
 20
-140.2419134849048
 10
89.66687823279162
 20
-140.2419134849048
 10
89.66687823279162
 20
-140.2419134849048
 10
90.04136011203828
 20
-140.2419134849048
 10
90.04136011203828
 20
-140.2419134849048
 10
90.09200301567145
 20
-140.2419134849048
 10
90.3755343741075
 20
-140.2291666316094
 10
90.40722925257181
 20
-140.2291666316094
 10
90.40516219528065
 20
-140.2567273954914
 10
90.40309513798951
 20
-140.2756754206603
 10
90.40309513798951
 20
-140.3053032418334
 10
90.4008558259241
 20
-140.3369981202977
 10
90.4008558259241
 20
-140.472390372868
 10
90.4008558259241
 20
-140.49995113675
 10
90.4008558259241
 20
-140.49995113675
 10
90.4008558259241
 20
-140.7452419352998
 10
90.4008558259241
 20
-140.7452419352998
 10
90.4008558259241
 20
-140.7896836670595
 10
90.40516219528065
 20
-140.9863986192673
 10
90.40946856463722
 20
-141.1390163492639
 10
90.40946856463722
 20
-141.1390163492639
 10
90.18295353648205
 20
-141.1390163492639
 10
90.18295353648205
 20
-141.1390163492639
 10
90.18295353648205
 20
-141.1390163492639
 10
90.18519284854746
 20
-141.1049099039599
 10
90.18519284854746
 20
-141.1049099039599
 10
90.18519284854746
 20
-141.1049099039599
 10
89.48273787910502
 20
-141.1049099039599
 10
89.48273787910502
 20
-141.1049099039599
 10
89.48273787910502
 20
-141.1049099039599
 10
89.48497719117043
 20
-141.1390163492639
 10
89.48497719117043
 20
-141.1390163492639
 10
89.48497719117043
 20
-141.1390163492639
 10
89.26707490172838
 20
-141.1390163492639
 10
89.26707490172838
 20
-141.1390163492639
 10
89.27120901631068
 20
-141.0838948214999
 10
89.27120901631068
 20
-141.0711479682044
 10
89.27758244295839
 20
-140.9567707980941
 10
89.27964950024953
 20
-140.9295545437607
 10
89.28188881231495
 20
-140.7962293484815
 10
89.28188881231495
 20
-140.7769368137641
 10
89.28188881231495
 20
-140.7769368137641
 10
89.28188881231495
 20
-140.5740206896829
 10
89.28188881231495
 20
-140.5740206896829
 10
89.14219019038806
 20
-140.8237901123635
 10
88.9730360020623
 20
-140.954703740803
 10
88.86727157066512
 20
-141.0205050645713
 10
88.86727157066512
 20
-141.0205050645713
 10
88.69363875820854
 20
-140.8806341878701
 10
88.69363875820854
 20
-140.8806341878701
 10
88.78252222172799
 20
-140.8299912842369
 10
88.92635495823717
 20
-140.7431748780087
 10
89.0639865228729
 20
-140.548526983092
 10
89.15493704368349
 20
-140.4217474692348
 10
89.22039385790323
 20
-140.2777424779514
 10
89.25432804843295
 20
-140.1254692575034
 10
89.02591821776089
 20
-140.1275363147945
 10
88.84608423343084
 20
-140.1340819962165
 10
88.75082734326368
 20
-140.1361490535076
 10
88.75082734326368
 20
-140.1361490535076
 10
88.75082734326368
 20
-139.9583821264687
 10
88.75082734326368
 20
-139.9583821264687
 10
88.94754229547145
 20
-139.9645832983422
 10
89.23107365390752
 20
-139.969061922473
 10
89.38127981706441
 20
-139.969061922473
 10
89.38127981706441
 20
-139.969061922473
 10
89.59487573714989
 20
-139.969061922473
 10
89.59487573714989
 20
-139.969061922473
 10
89.59487573714989
 20
-139.969061922473
 10
89.59487573714989
 20
-139.8612304337847
 10
89.59487573714989
 20
-139.8612304337847
 10
89.59487573714989
 20
-139.8612304337847
 10
89.44897594334957
 20
-139.8612304337847
 10
89.44897594334957
 20
-139.8612304337847
 10
89.27964950024953
 20
-139.8612304337847
 10
89.11049531192377
 20
-139.865364548367
 10
88.94340818088915
 20
-139.8715657202405
 10
88.94340818088915
 20
-139.8715657202405
 10
88.94340818088915
 20
-139.7003444746235
 10
88.94340818088915
 20
-139.7003444746235
 10
89.09774845862835
 20
-139.7110242706278
 10
89.2839558696061
 20
-139.7110242706278
 10
89.44897594334957
 20
-139.7110242706278
 10
89.44897594334957
 20
-139.7110242706278
 10
89.59487573714989
 20
-139.7110242706278
 10
89.59487573714989
 20
-139.7110242706278
 10
89.59487573714989
 20
-139.7110242706278
 10
89.59487573714989
 20
-139.5925129859352
 10
89.59487573714989
 20
-139.5925129859352
 10
89.59487573714989
 20
-139.5925129859352
 10
89.46378985393613
 20
-139.5925129859352
 10
89.46378985393613
 20
-139.5925129859352
 10
89.41728106488527
 20
-139.5925129859352
 10
89.21419268602979
 20
-139.6007812150998
 10
89.17181801156121
 20
-139.6007812150998
 10
88.96872963270575
 20
-139.6052598392306
 10
88.89259302248172
 20
-139.6073268965218
 10
88.81421710019228
 20
-139.6093939538129
 10
88.81421710019228
 20
-139.6093939538129
 10
88.81421710019228
 20
-139.4254258549006
 10
88.81421710019228
 20
-139.4254258549006
 10
88.92859427030258
 20
-139.4336940840652
 10
88.9730360020623
 20
-139.4336940840652
 10
89.35578611047356
 20
-139.4423068227783
 10
89.29239635354496
 20
-139.3468776778369
 10
89.26483558966297
 20
-139.3196614235034
 10
89.22900659661636
 20
-139.2834879209083
 10
89.22900659661636
 20
-139.2834879209083
 10
89.40453421158985
 20
-139.2011501388108
 10
89.40453421158985
 20
-139.2011501388108
 10
89.444669573993
 20
-139.2369791318574
 10
89.48911130575273
 20
-139.279353806326
 10
89.5631808586856
 20
-139.3892523523055
 10
89.5631808586856
 20
-139.3892523523055
 10
89.44897594334957
 20
-139.4443738800695
 10
89.44897594334957
 20
-139.4443738800695
 10
89.44897594334957
 20
-139.4443738800695
 10
89.45948348457958
 20
-139.4443738800695
 10
89.45948348457958
 20
-139.4443738800695
 10
89.45948348457958
 20
-139.4443738800695
 10
89.98210446969198
 20
-139.4443738800695
 10
89.98210446969198
 20
-139.4443738800695
 10
89.98210446969198
 20
-139.4443738800695
 10
89.88684757952483
 20
-139.3999321483097
 10
89.88684757952483
 20
-139.3999321483097
 10
89.91440834340682
 20
-139.3616915884235
 10
89.97142467368771
 20
-139.2814208636171
 10
89.98623858427428
 20
-139.2073513106843
 10
89.98623858427428
 20
-139.2073513106843
 10
90.20000675913403
 20
-139.2707410676129
 10
90.20000675913403
 20
-139.2707410676129
 10
90.2084472430729
 20
-139.2731526344525
 10
90.22963458030718
 20
-139.2834879209083
 10
90.22963458030718
 20
-139.3048475129168
 10
90.22963458030718
 20
-139.3427435632546
 10
90.16400551131316
 20
-139.3427435632546
 10
90.14488523137003
 20
-139.3427435632546
 10
90.13437769014003
 20
-139.3616915884235
 10
90.11112329561459
 20
-139.4019992056009
 10
90.08149547444144
 20
-139.4423068227783
 10
90.48129880550468
 20
-139.4357611413564
 10
90.51092662667783
 20
-139.4336940840652
 10
90.58706323690186
 20
-139.4274929121918
 10
90.58706323690186
 20
-139.4274929121918
 10
90.58706323690186
 20
-139.6093939538129
 10
90.58706323690186
 20
-139.6093939538129
 10
90.56811521173297
 20
-139.6093939538129
 10
90.54262150514212
 20
-139.6073268965218
 10
90.32265215840893
 20
-139.5987141578087
 10
90.27183700000148
 20
-139.5966471005175
 10
90.05186765326829
 20
-139.5925129859352
 10
90.00742592150857
 20
-139.5925129859352
 10
90.00742592150857
 20
-139.5925129859352
 10
89.79159068935766
 20
-139.5925129859352
 10
89.79159068935766
 20
-139.5925129859352
 10
89.79159068935766
 20
-139.5925129859352
 10
89.79159068935766
 20
-139.7110242706278
 10
89.79159068935766
 20
-139.7110242706278
 10
89.79159068935766
 20
-139.7110242706278
 10
89.96522350181425
 20
-139.7110242706278
 10
89.96522350181425
 20
-139.7110242706278
 10
90.12800426349231
 20
-139.7110242706278
 10
90.31834578905236
 20
-139.7110242706278
 10
90.47492537885697
 20
-139.7003444746235
 10
90.47492537885697
 20
-139.7003444746235
 10
90.47492537885697
 20
-139.8715657202405
 10
90.47492537885697
 20
-139.8715657202405
 10
90.26546357335377
 20
-139.8632974910759
 10
90.06874862114601
 20
-139.8612304337847
 10
89.96522350181425
 20
-139.8612304337847
 10
89.96522350181425
 20
-139.8612304337847
 10
89.79159068935766
 20
-139.8612304337847
 10
89.79159068935766
 20
-139.8612304337847
 10
89.79159068935766
 20
-139.8612304337847
 10
89.79159068935766
 20
-139.969061922473
 10
89.79159068935766
 20
-139.969061922473
 10
89.79159068935766
 20
-139.969061922473
 10
90.02223983209514
 20
-139.969061922473
 10
90.02223983209514
 20
-139.969061922473
 10
90.15556502737431
 20
-139.969061922473
 10
90.44323050039267
 20
-139.9645832983422
 10
90.65269230589585
 20
-139.9583821264687
 10
90.65269230589585
 20
-139.9583821264687
 10
90.65269230589585
 20
-140.1361490535076
 10
90.65269230589585
 20
-140.1361490535076
 10
90.4601114682704
 20
-140.1296033720857
 10
90.14712454343544
 20
-140.1254692575034
 10
90.02223983209514
 20
-140.1254692575034
 97
        0
 97
        0
 92
        1
 93
        4
 72
     1
 10
90.1872599058386
 20
-140.3814398520574
 11
89.48067082181386
 21
-140.3814398520574
 72
     1
 10
89.48067082181386
 20
-140.3814398520574
 11
89.48067082181386
 21
-140.4892713407457
 72
     1
 10
89.48067082181386
 20
-140.4892713407457
 11
90.1872599058386
 21
-140.4892713407457
 72
     1
 10
90.1872599058386
 20
-140.4892713407457
 11
90.1872599058386
 21
-140.3814398520574
 97
        0
 92
        1
 93
        4
 72
     1
 10
90.1872599058386
 20
-140.6143283068603
 11
89.48067082181386
 21
-140.6143283068603
 72
     1
 10
89.48067082181386
 20
-140.6143283068603
 11
89.48067082181386
 21
-140.7283609674221
 72
     1
 10
89.48067082181386
 20
-140.7283609674221
 11
90.1872599058386
 21
-140.7283609674221
 72
     1
 10
90.1872599058386
 20
-140.7283609674221
 11
90.1872599058386
 21
-140.6143283068603
 97
        0
 92
        1
 93
        4
 72
     1
 10
90.1872599058386
 20
-140.8575520481189
 11
89.48067082181386
 21
-140.8575520481189
 72
     1
 10
89.48067082181386
 20
-140.8575520481189
 11
89.48067082181386
 21
-140.9715847086807
 72
     1
 10
89.48067082181386
 20
-140.9715847086807
 11
90.1872599058386
 21
-140.9715847086807
 72
     1
 10
90.1872599058386
 20
-140.9715847086807
 11
90.1872599058386
 21
-140.8575520481189
 97
        0
 75
     2
 76
     1
 98
        0
  0
SPLINE
  5
164
330
145
100
AcDbEntity
  8
_U+30EC_U+30A4_U+30E4_U+30FC 1
370
     0
100
AcDbSpline
210
0.0
220
0.0
230
1.0
 70
    11
 71
     3
 72
    47
 73
    43
 74
     0
 42
0.0000000001
 43
0.0000000001
 12
1.0
 22
0.0
 32
0.0
 13
1.0
 23
0.0
 33
0.0
 40
0.0
 40
0.0
 40
0.0
 40
0.0
 40
1.0
 40
1.0
 40
1.0
 40
2.0
 40
2.0
 40
2.0
 40
3.0
 40
3.0
 40
3.0
 40
4.0
 40
4.0
 40
4.0
 40
5.0
 40
5.0
 40
5.0
 40
6.0
 40
6.0
 40
6.0
 40
7.0
 40
7.0
 40
7.0
 40
8.0
 40
8.0
 40
8.0
 40
9.0
 40
9.0
 40
9.0
 40
10.0
 40
10.0
 40
10.0
 40
11.0
 40
11.0
 40
11.0
 40
12.0
 40
12.0
 40
12.0
 40
13.0
 40
13.0
 40
13.0
 40
14.0
 40
14.0
 40
14.0
 40
14.0
 10
91.99920787630576
 20
-140.1023871177522
 30
0.0
 10
91.99920787630576
 20
-140.1023871177522
 30
0.0
 10
91.89757755949088
 20
-140.1023871177522
 30
0.0
 10
91.89757755949088
 20
-140.1023871177522
 30
0.0
 10
91.89757755949088
 20
-140.188859014432
 30
0.0
 10
91.87656247703086
 20
-140.5781548042652
 30
0.0
 10
91.6798475248231
 20
-140.7982964057726
 30
0.0
 10
91.52757430437505
 20
-140.9674505940984
 30
0.0
 10
91.32017955616301
 20
-141.037386032449
 30
0.0
 10
91.23560246200013
 20
-141.064946796331
 30
0.0
 10
91.23560246200013
 20
-141.064946796331
 30
0.0
 10
91.04095456708352
 20
-140.8978596652964
 30
0.0
 10
91.04095456708352
 20
-140.8978596652964
 30
0.0
 10
91.13827851454182
 20
-140.885112812001
 30
0.0
 10
91.3138061295153
 20
-140.8616861627013
 30
0.0
 10
91.5020805977842
 20
-140.6735839492066
 30
0.0
 10
91.57615015071708
 20
-140.6015814535649
 30
0.0
 10
91.6798475248231
 20
-140.4620550864123
 30
0.0
 10
91.6798475248231
 20
-140.1023871177522
 30
0.0
 10
91.6798475248231
 20
-140.1023871177522
 30
0.0
 10
91.44937063685988
 20
-140.1023871177522
 30
0.0
 10
91.44937063685988
 20
-140.1023871177522
 30
0.0
 10
91.26299097110787
 20
-140.1023871177522
 30
0.0
 10
91.07695581490438
 20
-140.1065212323345
 30
0.0
 10
90.89074840392662
 20
-140.1213351429211
 30
0.0
 10
90.89074840392662
 20
-140.1213351429211
 30
0.0
 10
90.89074840392662
 20
-139.9011935414136
 30
0.0
 10
90.89074840392662
 20
-139.9011935414136
 30
0.0
 10
91.07902287219552
 20
-139.9160074520002
 30
0.0
 10
91.36462128792274
 20
-139.920486076131
 30
0.0
 10
91.44937063685988
 20
-139.920486076131
 30
0.0
 10
91.44937063685988
 20
-139.920486076131
 30
0.0
 10
91.99920787630576
 20
-139.920486076131
 30
0.0
 10
91.99920787630576
 20
-139.920486076131
 30
0.0
 10
92.01815590147463
 20
-139.920486076131
 30
0.0
 10
92.33579370521467
 20
-139.920486076131
 30
0.0
 10
92.56420353588673
 20
-139.9011935414136
 30
0.0
 10
92.56420353588673
 20
-139.9011935414136
 30
0.0
 10
92.56420353588673
 20
-140.1213351429211
 30
0.0
 10
92.56420353588673
 20
-140.1213351429211
 30
0.0
 10
92.37575681284356
 20
-140.1065212323345
 30
0.0
 10
92.18765459934892
 20
-140.1023871177522
 30
0.0
 10
91.99920787630576
 20
-140.1023871177522
 30
0.0
  0
SPLINE
  5
165
330
145
100
AcDbEntity
  8
_U+30EC_U+30A4_U+30E4_U+30FC 1
370
     0
100
AcDbSpline
210
0.0
220
0.0
230
1.0
 70
    11
 71
     3
 72
    29
 73
    25
 74
     0
 42
0.0000000001
 43
0.0000000001
 12
1.0
 22
0.0
 32
0.0
 13
1.0
 23
0.0
 33
0.0
 40
0.0
 40
0.0
 40
0.0
 40
0.0
 40
1.0
 40
1.0
 40
1.0
 40
2.0
 40
2.0
 40
2.0
 40
3.0
 40
3.0
 40
3.0
 40
4.0
 40
4.0
 40
4.0
 40
5.0
 40
5.0
 40
5.0
 40
6.0
 40
6.0
 40
6.0
 40
7.0
 40
7.0
 40
7.0
 40
8.0
 40
8.0
 40
8.0
 40
8.0
 10
91.89757755949088
 20
-139.5732204512178
 30
0.0
 10
91.89757755949088
 20
-139.5732204512178
 30
0.0
 10
91.54445527225278
 20
-139.5732204512178
 30
0.0
 10
91.54445527225278
 20
-139.5732204512178
 30
0.0
 10
91.43214515943363
 20
-139.5732204512178
 30
0.0
 10
91.29261879228102
 20
-139.5797661326398
 30
0.0
 10
91.1847873035927
 20
-139.5925129859352
 30
0.0
 10
91.1847873035927
 20
-139.5925129859352
 30
0.0
 10
91.1847873035927
 20
-139.3575574738412
 30
0.0
 10
91.1847873035927
 20
-139.3575574738412
 30
0.0
 10
91.30329858828529
 20
-139.3723713844277
 30
0.0
 10
91.48726668719763
 20
-139.3765054990101
 30
0.0
 10
91.54445527225278
 20
-139.3765054990101
 30
0.0
 10
91.54445527225278
 20
-139.3765054990101
 30
0.0
 10
91.89757755949088
 20
-139.3765054990101
 30
0.0
 10
91.89757755949088
 20
-139.3765054990101
 30
0.0
 10
91.91687009420829
 20
-139.3765054990101
 30
0.0
 10
92.1197862182895
 20
-139.3765054990101
 30
0.0
 10
92.2617241522818
 20
-139.3575574738412
 30
0.0
 10
92.2617241522818
 20
-139.3575574738412
 30
0.0
 10
92.2617241522818
 20
-139.5925129859352
 30
0.0
 10
92.2617241522818
 20
-139.5925129859352
 30
0.0
 10
92.10497230770292
 20
-139.5732204512178
 30
0.0
 10
91.91480303691714
 20
-139.5732204512178
 30
0.0
 10
91.89757755949088
 20
-139.5732204512178
 30
0.0
  0
HATCH
  5
166
330
145
100
AcDbEntity
  8
_U+30EC_U+30A4_U+30E4_U+30FC 1
 62
   179
420
  2234388
100
AcDbHatch
 10
0.0
 20
0.0
 30
0.0
210
0.0
220
0.0
230
1.0
  2
SOLID
 70
     1
 71
     0
 91
        2
 92
        1
 93
        1
 72
     4
 94
        3
 73
     0
 74
     1
 95
       47
 96
       43
 40
0.0
 40
0.0
 40
0.0
 40
0.0
 40
1.0
 40
1.0
 40
1.0
 40
2.0
 40
2.0
 40
2.0
 40
3.0
 40
3.0
 40
3.0
 40
4.0
 40
4.0
 40
4.0
 40
5.0
 40
5.0
 40
5.0
 40
6.0
 40
6.0
 40
6.0
 40
7.0
 40
7.0
 40
7.0
 40
8.0
 40
8.0
 40
8.0
 40
9.0
 40
9.0
 40
9.0
 40
10.0
 40
10.0
 40
10.0
 40
11.0
 40
11.0
 40
11.0
 40
12.0
 40
12.0
 40
12.0
 40
13.0
 40
13.0
 40
13.0
 40
14.0
 40
14.0
 40
14.0
 40
14.0
 10
91.99920787630576
 20
-140.1023871177522
 10
91.99920787630576
 20
-140.1023871177522
 10
91.89757755949088
 20
-140.1023871177522
 10
91.89757755949088
 20
-140.1023871177522
 10
91.89757755949088
 20
-140.188859014432
 10
91.87656247703086
 20
-140.5781548042652
 10
91.6798475248231
 20
-140.7982964057726
 10
91.52757430437505
 20
-140.9674505940984
 10
91.32017955616301
 20
-141.037386032449
 10
91.23560246200013
 20
-141.064946796331
 10
91.23560246200013
 20
-141.064946796331
 10
91.04095456708352
 20
-140.8978596652964
 10
91.04095456708352
 20
-140.8978596652964
 10
91.13827851454182
 20
-140.885112812001
 10
91.3138061295153
 20
-140.8616861627013
 10
91.5020805977842
 20
-140.6735839492066
 10
91.57615015071708
 20
-140.6015814535649
 10
91.6798475248231
 20
-140.4620550864123
 10
91.6798475248231
 20
-140.1023871177522
 10
91.6798475248231
 20
-140.1023871177522
 10
91.44937063685988
 20
-140.1023871177522
 10
91.44937063685988
 20
-140.1023871177522
 10
91.26299097110787
 20
-140.1023871177522
 10
91.07695581490438
 20
-140.1065212323345
 10
90.89074840392662
 20
-140.1213351429211
 10
90.89074840392662
 20
-140.1213351429211
 10
90.89074840392662
 20
-139.9011935414136
 10
90.89074840392662
 20
-139.9011935414136
 10
91.07902287219552
 20
-139.9160074520002
 10
91.36462128792274
 20
-139.920486076131
 10
91.44937063685988
 20
-139.920486076131
 10
91.44937063685988
 20
-139.920486076131
 10
91.99920787630576
 20
-139.920486076131
 10
91.99920787630576
 20
-139.920486076131
 10
92.01815590147463
 20
-139.920486076131
 10
92.33579370521467
 20
-139.920486076131
 10
92.56420353588673
 20
-139.9011935414136
 10
92.56420353588673
 20
-139.9011935414136
 10
92.56420353588673
 20
-140.1213351429211
 10
92.56420353588673
 20
-140.1213351429211
 10
92.37575681284356
 20
-140.1065212323345
 10
92.18765459934892
 20
-140.1023871177522
 10
91.99920787630576
 20
-140.1023871177522
 97
        0
 97
        0
 92
        1
 93
        1
 72
     4
 94
        3
 73
     0
 74
     1
 95
       29
 96
       25
 40
0.0
 40
0.0
 40
0.0
 40
0.0
 40
1.0
 40
1.0
 40
1.0
 40
2.0
 40
2.0
 40
2.0
 40
3.0
 40
3.0
 40
3.0
 40
4.0
 40
4.0
 40
4.0
 40
5.0
 40
5.0
 40
5.0
 40
6.0
 40
6.0
 40
6.0
 40
7.0
 40
7.0
 40
7.0
 40
8.0
 40
8.0
 40
8.0
 40
8.0
 10
91.89757755949088
 20
-139.5732204512178
 10
91.89757755949088
 20
-139.5732204512178
 10
91.54445527225278
 20
-139.5732204512178
 10
91.54445527225278
 20
-139.5732204512178
 10
91.43214515943363
 20
-139.5732204512178
 10
91.29261879228102
 20
-139.5797661326398
 10
91.1847873035927
 20
-139.5925129859352
 10
91.1847873035927
 20
-139.5925129859352
 10
91.1847873035927
 20
-139.3575574738412
 10
91.1847873035927
 20
-139.3575574738412
 10
91.30329858828529
 20
-139.3723713844277
 10
91.48726668719763
 20
-139.3765054990101
 10
91.54445527225278
 20
-139.3765054990101
 10
91.54445527225278
 20
-139.3765054990101
 10
91.89757755949088
 20
-139.3765054990101
 10
91.89757755949088
 20
-139.3765054990101
 10
91.91687009420829
 20
-139.3765054990101
 10
92.1197862182895
 20
-139.3765054990101
 10
92.2617241522818
 20
-139.3575574738412
 10
92.2617241522818
 20
-139.3575574738412
 10
92.2617241522818
 20
-139.5925129859352
 10
92.2617241522818
 20
-139.5925129859352
 10
92.10497230770292
 20
-139.5732204512178
 10
91.91480303691714
 20
-139.5732204512178
 10
91.89757755949088
 20
-139.5732204512178
 97
        0
 97
        0
 75
     2
 76
     1
 98
        0
  0
SPLINE
  5
167
330
145
100
AcDbEntity
  8
_U+30EC_U+30A4_U+30E4_U+30FC 1
370
     0
100
AcDbSpline
210
0.0
220
0.0
230
1.0
 70
    11
 71
     3
 72
    29
 73
    25
 74
     0
 42
0.0000000001
 43
0.0000000001
 12
1.0
 22
0.0
 32
0.0
 13
1.0
 23
0.0
 33
0.0
 40
0.0
 40
0.0
 40
0.0
 40
0.0
 40
1.0
 40
1.0
 40
1.0
 40
2.0
 40
2.0
 40
2.0
 40
3.0
 40
3.0
 40
3.0
 40
4.0
 40
4.0
 40
4.0
 40
5.0
 40
5.0
 40
5.0
 40
6.0
 40
6.0
 40
6.0
 40
7.0
 40
7.0
 40
7.0
 40
8.0
 40
8.0
 40
8.0
 40
8.0
 10
93.84509003730263
 20
-140.264995624656
 30
0.0
 10
93.84509003730263
 20
-140.264995624656
 30
0.0
 10
93.36070961207649
 20
-140.264995624656
 30
0.0
 10
93.36070961207649
 20
-140.264995624656
 30
0.0
 10
93.3331488481945
 20
-140.264995624656
 30
0.0
 10
93.01585555400298
 20
-140.264995624656
 30
0.0
 10
92.80432669120864
 20
-140.2904893312468
 30
0.0
 10
92.80432669120864
 20
-140.2904893312468
 30
0.0
 10
92.80432669120864
 20
-140.0600124432836
 30
0.0
 10
92.80432669120864
 20
-140.0600124432836
 30
0.0
 10
92.96280108353014
 20
-140.0830945830348
 30
0.0
 10
93.15331486386445
 20
-140.0855061498745
 30
0.0
 10
93.36070961207649
 20
-140.0855061498745
 30
0.0
 10
93.36070961207649
 20
-140.0855061498745
 30
0.0
 10
93.84509003730263
 20
-140.0855061498745
 30
0.0
 10
93.84509003730263
 20
-140.0855061498745
 30
0.0
 10
94.03112519350611
 20
-140.0855061498745
 30
0.0
 10
94.21750485925813
 20
-140.0830945830348
 30
0.0
 10
94.40147295817047
 20
-140.0600124432836
 30
0.0
 10
94.40147295817047
 20
-140.0600124432836
 30
0.0
 10
94.40147295817047
 20
-140.2904893312468
 30
0.0
 10
94.40147295817047
 20
-140.2904893312468
 30
0.0
 10
94.21750485925813
 20
-140.2674071914957
 30
0.0
 10
93.96980249386867
 20
-140.264995624656
 30
0.0
 10
93.84509003730263
 20
-140.264995624656
 30
0.0
  0
HATCH
  5
168
330
145
100
AcDbEntity
  8
_U+30EC_U+30A4_U+30E4_U+30FC 1
 62
   179
420
  2234388
100
AcDbHatch
 10
0.0
 20
0.0
 30
0.0
210
0.0
220
0.0
230
1.0
  2
SOLID
 70
     1
 71
     0
 91
        1
 92
        1
 93
        1
 72
     4
 94
        3
 73
     0
 74
     1
 95
       29
 96
       25
 40
0.0
 40
0.0
 40
0.0
 40
0.0
 40
1.0
 40
1.0
 40
1.0
 40
2.0
 40
2.0
 40
2.0
 40
3.0
 40
3.0
 40
3.0
 40
4.0
 40
4.0
 40
4.0
 40
5.0
 40
5.0
 40
5.0
 40
6.0
 40
6.0
 40
6.0
 40
7.0
 40
7.0
 40
7.0
 40
8.0
 40
8.0
 40
8.0
 40
8.0
 10
93.84509003730263
 20
-140.264995624656
 10
93.84509003730263
 20
-140.264995624656
 10
93.36070961207649
 20
-140.264995624656
 10
93.36070961207649
 20
-140.264995624656
 10
93.3331488481945
 20
-140.264995624656
 10
93.01585555400298
 20
-140.264995624656
 10
92.80432669120864
 20
-140.2904893312468
 10
92.80432669120864
 20
-140.2904893312468
 10
92.80432669120864
 20
-140.0600124432836
 10
92.80432669120864
 20
-140.0600124432836
 10
92.96280108353014
 20
-140.0830945830348
 10
93.15331486386445
 20
-140.0855061498745
 10
93.36070961207649
 20
-140.0855061498745
 10
93.36070961207649
 20
-140.0855061498745
 10
93.84509003730263
 20
-140.0855061498745
 10
93.84509003730263
 20
-140.0855061498745
 10
94.03112519350611
 20
-140.0855061498745
 10
94.21750485925813
 20
-140.0830945830348
 10
94.40147295817047
 20
-140.0600124432836
 10
94.40147295817047
 20
-140.0600124432836
 10
94.40147295817047
 20
-140.2904893312468
 10
94.40147295817047
 20
-140.2904893312468
 10
94.21750485925813
 20
-140.2674071914957
 10
93.96980249386867
 20
-140.264995624656
 10
93.84509003730263
 20
-140.264995624656
 97
        0
 97
        0
 75
     2
 76
     1
 98
        0
  0
SPLINE
  5
169
330
145
100
AcDbEntity
  8
_U+30EC_U+30A4_U+30E4_U+30FC 1
370
     0
100
AcDbSpline
210
0.0
220
0.0
230
1.0
 70
    11
 71
     3
 72
    44
 73
    40
 74
     0
 42
0.0000000001
 43
0.0000000001
 12
1.0
 22
0.0
 32
0.0
 13
1.0
 23
0.0
 33
0.0
 40
0.0
 40
0.0
 40
0.0
 40
0.0
 40
1.0
 40
1.0
 40
1.0
 40
2.0
 40
2.0
 40
2.0
 40
3.0
 40
3.0
 40
3.0
 40
4.0
 40
4.0
 40
4.0
 40
5.0
 40
5.0
 40
5.0
 40
6.0
 40
6.0
 40
6.0
 40
7.0
 40
7.0
 40
7.0
 40
8.0
 40
8.0
 40
8.0
 40
9.0
 40
9.0
 40
9.0
 40
10.0
 40
10.0
 40
10.0
 40
11.0
 40
11.0
 40
11.0
 40
12.0
 40
12.0
 40
12.0
 40
13.0
 40
13.0
 40
13.0
 40
13.0
 10
96.05684133883301
 20
-139.8271239884807
 30
0.0
 10
95.94453122601386
 20
-140.1954046958539
 30
0.0
 10
95.8938883223807
 20
-140.3538790881754
 30
0.0
 10
95.69717337017293
 20
-140.603648510856
 30
0.0
 10
95.51320527126059
 20
-140.8341253988193
 30
0.0
 10
95.2761827018754
 20
-141.0205050645713
 30
0.0
 10
94.99678545802165
 20
-141.113522642673
 30
0.0
 10
94.99678545802165
 20
-141.113522642673
 30
0.0
 10
94.8045491299447
 20
-140.933688658343
 30
0.0
 10
94.8045491299447
 20
-140.933688658343
 30
0.0
 10
95.44533689020118
 20
-140.7814154378949
 30
0.0
 10
95.7753770376881
 20
-140.2250325170271
 30
0.0
 10
95.8387667946167
 20
-139.7850938235607
 30
0.0
 10
95.8387667946167
 20
-139.7850938235607
 30
0.0
 10
95.07292206824566
 20
-139.7850938235607
 30
0.0
 10
95.07292206824566
 20
-139.7850938235607
 30
0.0
 10
94.97990449014392
 20
-139.7850938235607
 30
0.0
 10
94.79593639123158
 20
-139.789227938143
 30
0.0
 10
94.63952905620123
 20
-139.8081759633118
 30
0.0
 10
94.63952905620123
 20
-139.8081759633118
 30
0.0
 10
94.63952905620123
 20
-139.5880343618044
 30
0.0
 10
94.63952905620123
 20
-139.5880343618044
 30
0.0
 10
94.72600095288101
 20
-139.6093939538129
 30
0.0
 10
94.97783743285277
 20
-139.6093939538129
 30
0.0
 10
95.07740069237649
 20
-139.6093939538129
 30
0.0
 10
95.07740069237649
 20
-139.6093939538129
 30
0.0
 10
95.50872664712976
 20
-139.6093939538129
 30
0.0
 10
95.50872664712976
 20
-139.6093939538129
 30
0.0
 10
95.55110132159834
 20
-139.6093939538129
 30
0.0
 10
95.78605683369238
 20
-139.6073268965218
 30
0.0
 10
95.82395288403012
 20
-139.6007812150998
 30
0.0
 10
95.8663275584987
 20
-139.5945800432264
 30
0.0
 10
95.86839461578985
 20
-139.5925129859352
 30
0.0
 10
95.9297173154273
 20
-139.5522053687578
 30
0.0
 10
95.9297173154273
 20
-139.5522053687578
 30
0.0
 10
96.11816403847047
 20
-139.706545646497
 30
0.0
 10
96.11816403847047
 20
-139.706545646497
 30
0.0
 10
96.08853621729732
 20
-139.7361734676701
 30
0.0
 10
96.07372230671074
 20
-139.7678683461344
 30
0.0
 10
96.05684133883301
 20
-139.8271239884807
 30
0.0
  0
SPLINE
  5
16A
330
145
100
AcDbEntity
  8
_U+30EC_U+30A4_U+30E4_U+30FC 1
370
     0
100
AcDbSpline
210
0.0
220
0.0
230
1.0
 70
    11
 71
     3
 72
    17
 73
    13
 74
     0
 42
0.0000000001
 43
0.0000000001
 12
1.0
 22
0.0
 32
0.0
 13
1.0
 23
0.0
 33
0.0
 40
0.0
 40
0.0
 40
0.0
 40
0.0
 40
1.0
 40
1.0
 40
1.0
 40
2.0
 40
2.0
 40
2.0
 40
3.0
 40
3.0
 40
3.0
 40
4.0
 40
4.0
 40
4.0
 40
4.0
 10
96.2663031443362
 20
-139.6283419789818
 30
0.0
 10
96.13917912093049
 20
-139.6283419789818
 30
0.0
 10
96.03789331366414
 20
-139.5267116621669
 30
0.0
 10
96.03789331366414
 20
-139.3999321483097
 30
0.0
 10
96.03789331366414
 20
-139.2731526344525
 30
0.0
 10
96.13917912093049
 20
-139.1694552603465
 30
0.0
 10
96.2663031443362
 20
-139.1694552603465
 30
0.0
 10
96.3930826581934
 20
-139.1694552603465
 30
0.0
 10
96.49678003229943
 20
-139.2731526344525
 30
0.0
 10
96.49678003229943
 20
-139.3999321483097
 30
0.0
 10
96.49678003229943
 20
-139.5267116621669
 30
0.0
 10
96.3930826581934
 20
-139.6283419789818
 30
0.0
 10
96.2663031443362
 20
-139.6283419789818
 30
0.0
  0
SPLINE
  5
16B
330
145
100
AcDbEntity
  8
_U+30EC_U+30A4_U+30E4_U+30FC 1
370
     0
100
AcDbSpline
210
0.0
220
0.0
230
1.0
 70
    11
 71
     3
 72
    17
 73
    13
 74
     0
 42
0.0000000001
 43
0.0000000001
 12
1.0
 22
0.0
 32
0.0
 13
1.0
 23
0.0
 33
0.0
 40
0.0
 40
0.0
 40
0.0
 40
0.0
 40
1.0
 40
1.0
 40
1.0
 40
2.0
 40
2.0
 40
2.0
 40
3.0
 40
3.0
 40
3.0
 40
4.0
 40
4.0
 40
4.0
 40
4.0
 10
96.26423608704506
 20
-139.2983018314949
 30
0.0
 10
96.20911455928106
 20
-139.2983018314949
 30
0.0
 10
96.16467282752133
 20
-139.3427435632546
 30
0.0
 10
96.16467282752133
 20
-139.3978650910186
 30
0.0
 10
96.16467282752133
 20
-139.4550536760737
 30
0.0
 10
96.20911455928106
 20
-139.5036295224158
 30
0.0
 10
96.26837020162736
 20
-139.5036295224158
 30
0.0
 10
96.32762584397365
 20
-139.5036295224158
 30
0.0
 10
96.36758895160256
 20
-139.4526421092341
 30
0.0
 10
96.36758895160256
 20
-139.3999321483097
 30
0.0
 10
96.36758895160256
 20
-139.3427435632546
 30
0.0
 10
96.32108016255168
 20
-139.2983018314949
 30
0.0
 10
96.26423608704506
 20
-139.2983018314949
 30
0.0
  0
HATCH
  5
16C
330
145
100
AcDbEntity
  8
_U+30EC_U+30A4_U+30E4_U+30FC 1
 62
   179
420
  2234388
100
AcDbHatch
 10
0.0
 20
0.0
 30
0.0
210
0.0
220
0.0
230
1.0
  2
SOLID
 70
     1
 71
     0
 91
        3
 92
        1
 93
        1
 72
     4
 94
        3
 73
     0
 74
     1
 95
       44
 96
       40
 40
0.0
 40
0.0
 40
0.0
 40
0.0
 40
1.0
 40
1.0
 40
1.0
 40
2.0
 40
2.0
 40
2.0
 40
3.0
 40
3.0
 40
3.0
 40
4.0
 40
4.0
 40
4.0
 40
5.0
 40
5.0
 40
5.0
 40
6.0
 40
6.0
 40
6.0
 40
7.0
 40
7.0
 40
7.0
 40
8.0
 40
8.0
 40
8.0
 40
9.0
 40
9.0
 40
9.0
 40
10.0
 40
10.0
 40
10.0
 40
11.0
 40
11.0
 40
11.0
 40
12.0
 40
12.0
 40
12.0
 40
13.0
 40
13.0
 40
13.0
 40
13.0
 10
96.05684133883301
 20
-139.8271239884807
 10
95.94453122601386
 20
-140.1954046958539
 10
95.8938883223807
 20
-140.3538790881754
 10
95.69717337017293
 20
-140.603648510856
 10
95.51320527126059
 20
-140.8341253988193
 10
95.2761827018754
 20
-141.0205050645713
 10
94.99678545802165
 20
-141.113522642673
 10
94.99678545802165
 20
-141.113522642673
 10
94.8045491299447
 20
-140.933688658343
 10
94.8045491299447
 20
-140.933688658343
 10
95.44533689020118
 20
-140.7814154378949
 10
95.7753770376881
 20
-140.2250325170271
 10
95.8387667946167
 20
-139.7850938235607
 10
95.8387667946167
 20
-139.7850938235607
 10
95.07292206824566
 20
-139.7850938235607
 10
95.07292206824566
 20
-139.7850938235607
 10
94.97990449014392
 20
-139.7850938235607
 10
94.79593639123158
 20
-139.789227938143
 10
94.63952905620123
 20
-139.8081759633118
 10
94.63952905620123
 20
-139.8081759633118
 10
94.63952905620123
 20
-139.5880343618044
 10
94.63952905620123
 20
-139.5880343618044
 10
94.72600095288101
 20
-139.6093939538129
 10
94.97783743285277
 20
-139.6093939538129
 10
95.07740069237649
 20
-139.6093939538129
 10
95.07740069237649
 20
-139.6093939538129
 10
95.50872664712976
 20
-139.6093939538129
 10
95.50872664712976
 20
-139.6093939538129
 10
95.55110132159834
 20
-139.6093939538129
 10
95.78605683369238
 20
-139.6073268965218
 10
95.82395288403012
 20
-139.6007812150998
 10
95.8663275584987
 20
-139.5945800432264
 10
95.86839461578985
 20
-139.5925129859352
 10
95.9297173154273
 20
-139.5522053687578
 10
95.9297173154273
 20
-139.5522053687578
 10
96.11816403847047
 20
-139.706545646497
 10
96.11816403847047
 20
-139.706545646497
 10
96.08853621729732
 20
-139.7361734676701
 10
96.07372230671074
 20
-139.7678683461344
 10
96.05684133883301
 20
-139.8271239884807
 97
        0
 97
        0
 92
        1
 93
        1
 72
     4
 94
        3
 73
     0
 74
     1
 95
       17
 96
       13
 40
0.0
 40
0.0
 40
0.0
 40
0.0
 40
1.0
 40
1.0
 40
1.0
 40
2.0
 40
2.0
 40
2.0
 40
3.0
 40
3.0
 40
3.0
 40
4.0
 40
4.0
 40
4.0
 40
4.0
 10
96.2663031443362
 20
-139.6283419789818
 10
96.13917912093049
 20
-139.6283419789818
 10
96.03789331366414
 20
-139.5267116621669
 10
96.03789331366414
 20
-139.3999321483097
 10
96.03789331366414
 20
-139.2731526344525
 10
96.13917912093049
 20
-139.1694552603465
 10
96.2663031443362
 20
-139.1694552603465
 10
96.3930826581934
 20
-139.1694552603465
 10
96.49678003229943
 20
-139.2731526344525
 10
96.49678003229943
 20
-139.3999321483097
 10
96.49678003229943
 20
-139.5267116621669
 10
96.3930826581934
 20
-139.6283419789818
 10
96.2663031443362
 20
-139.6283419789818
 97
        0
 97
        0
 92
        1
 93
        1
 72
     4
 94
        3
 73
     0
 74
     1
 95
       17
 96
       13
 40
0.0
 40
0.0
 40
0.0
 40
0.0
 40
1.0
 40
1.0
 40
1.0
 40
2.0
 40
2.0
 40
2.0
 40
3.0
 40
3.0
 40
3.0
 40
4.0
 40
4.0
 40
4.0
 40
4.0
 10
96.26423608704506
 20
-139.2983018314949
 10
96.20911455928106
 20
-139.2983018314949
 10
96.16467282752133
 20
-139.3427435632546
 10
96.16467282752133
 20
-139.3978650910186
 10
96.16467282752133
 20
-139.4550536760737
 10
96.20911455928106
 20
-139.5036295224158
 10
96.26837020162736
 20
-139.5036295224158
 10
96.32762584397365
 20
-139.5036295224158
 10
96.36758895160256
 20
-139.4526421092341
 10
96.36758895160256
 20
-139.3999321483097
 10
96.36758895160256
 20
-139.3427435632546
 10
96.32108016255168
 20
-139.2983018314949
 10
96.26423608704506
 20
-139.2983018314949
 97
        0
 97
        0
 75
     2
 76
     1
 98
        0
  0
ENDBLK
  5
148
330
145
100
AcDbEntity
  8
0
100
AcDbBlockEnd
  0
ENDSEC
  0
SECTION
  2
ENTITIES
  0
INSERT
  5
42
330
1F
100
AcDbEntity
  8
_U+30EC_U+30A4_U+30E4_U+30FC 1
100
AcDbBlockReference
  2
block 2
 10
0.0
 20
0.0
 30
0.0
  0
POLYLINE
  5
121
330
1F
100
AcDbEntity
  8
_U+30EC_U+30A4_U+30E4_U+30FC 1
  6
AI-Linetype-1
 62
   154
420
    23468
370
    25
100
AcDb2dPolyline
 66
     1
 10
0.0
 20
0.0
 30
0.0
  0
VERTEX
  5
122
330
121
100
AcDbEntity
  8
_U+30EC_U+30A4_U+30E4_U+30FC 1
  6
AI-Linetype-1
 62
   154
420
    23468
370
    25
100
AcDbVertex
100
AcDb2dVertex
 10
67.81291826994833
 20
-133.9673610776193
 30
0.0
  0
VERTEX
  5
123
330
121
100
AcDbEntity
  8
_U+30EC_U+30A4_U+30E4_U+30FC 1
  6
AI-Linetype-1
 62
   154
420
    23468
370
    25
100
AcDbVertex
100
AcDb2dVertex
 10
52.93698531613165
 20
-138.566560243136
 30
0.0
  0
SEQEND
  5
125
330
121
100
AcDbEntity
  8
_U+30EC_U+30A4_U+30E4_U+30FC 1
  6
AI-Linetype-1
 62
   154
420
    23468
370
    25
  0
POLYLINE
  5
126
330
1F
100
AcDbEntity
  8
_U+30EC_U+30A4_U+30E4_U+30FC 1
  6
AI-Linetype-2
 62
   154
420
    23468
370
    25
100
AcDb2dPolyline
 66
     1
 10
0.0
 20
0.0
 30
0.0
  0
VERTEX
  5
127
330
126
100
AcDbEntity
  8
_U+30EC_U+30A4_U+30E4_U+30FC 1
  6
AI-Linetype-2
 62
   154
420
    23468
370
    25
100
AcDbVertex
100
AcDb2dVertex
 10
114.0764065341128
 20
-133.9714885776179
 30
0.0
  0
VERTEX
  5
128
330
126
100
AcDbEntity
  8
_U+30EC_U+30A4_U+30E4_U+30FC 1
  6
AI-Linetype-2
 62
   154
420
    23468
370
    25
100
AcDbVertex
100
AcDb2dVertex
 10
128.5864736639302
 20
-138.5610569098044
 30
0.0
  0
SEQEND
  5
12A
330
126
100
AcDbEntity
  8
_U+30EC_U+30A4_U+30E4_U+30FC 1
  6
AI-Linetype-2
 62
   154
420
    23468
370
    25
  0
POLYLINE
  5
12B
330
1F
100
AcDbEntity
  8
_U+30EC_U+30A4_U+30E4_U+30FC 1
 62
   179
420
  2234388
370
     9
100
AcDb2dPolyline
 66
     1
 10
0.0
 20
0.0
 30
0.0
  0
VERTEX
  5
12C
330
12B
100
AcDbEntity
  8
_U+30EC_U+30A4_U+30E4_U+30FC 1
 62
   179
420
  2234388
370
     9
100
AcDbVertex
100
AcDb2dVertex
 10
64.21691336169005
 20
-136.0282182993263
 30
0.0
  0
VERTEX
  5
12D
330
12B
100
AcDbEntity
  8
_U+30EC_U+30A4_U+30E4_U+30FC 1
 62
   179
420
  2234388
370
     9
100
AcDbVertex
100
AcDb2dVertex
 10
71.33586290229275
 20
-139.9659591316751
 30
0.0
  0
VERTEX
  5
12E
330
12B
100
AcDbEntity
  8
_U+30EC_U+30A4_U+30E4_U+30FC 1
 62
   179
420
  2234388
370
     9
100
AcDbVertex
100
AcDb2dVertex
 10
83.64311508830858
 20
-139.9659591316751
 30
0.0
  0
SEQEND
  5
12F
330
12B
100
AcDbEntity
  8
_U+30EC_U+30A4_U+30E4_U+30FC 1
 62
   179
420
  2234388
370
     9
  0
POLYLINE
  5
130
330
1F
100
AcDbEntity
  8
_U+30EC_U+30A4_U+30E4_U+30FC 1
 62
   179
420
  2234388
370
     9
100
AcDb2dPolyline
 66
     1
 10
0.0
 20
0.0
 30
0.0
  0
VERTEX
  5
131
330
130
100
AcDbEntity
  8
_U+30EC_U+30A4_U+30E4_U+30FC 1
 62
   179
420
  2234388
370
     9
100
AcDbVertex
100
AcDb2dVertex
 10
64.21691336169005
 20
-136.0282182993263
 30
0.0
  0
VERTEX
  5
132
330
130
100
AcDbEntity
  8
_U+30EC_U+30A4_U+30E4_U+30FC 1
 62
   179
420
  2234388
370
     9
100
AcDbVertex
100
AcDb2dVertex
 10
65.18775778136619
 20
-136.269377188155
 30
0.0
  0
SEQEND
  5
133
330
130
100
AcDbEntity
  8
_U+30EC_U+30A4_U+30E4_U+30FC 1
 62
   179
420
  2234388
370
     9
  0
POLYLINE
  5
134
330
1F
100
AcDbEntity
  8
_U+30EC_U+30A4_U+30E4_U+30FC 1
 62
   179
420
  2234388
370
     9
100
AcDb2dPolyline
 66
     1
 10
0.0
 20
0.0
 30
0.0
  0
VERTEX
  5
135
330
134
100
AcDbEntity
  8
_U+30EC_U+30A4_U+30E4_U+30FC 1
 62
   179
420
  2234388
370
     9
100
AcDbVertex
100
AcDb2dVertex
 10
64.21691336169005
 20
-136.0282182993263
 30
0.0
  0
VERTEX
  5
136
330
134
100
AcDbEntity
  8
_U+30EC_U+30A4_U+30E4_U+30FC 1
 62
   179
420
  2234388
370
     9
100
AcDbVertex
100
AcDb2dVertex
 10
64.93693278776527
 20
-136.7220616324863
 30
0.0
  0
SEQEND
  5
137
330
134
100
AcDbEntity
  8
_U+30EC_U+30A4_U+30E4_U+30FC 1
 62
   179
420
  2234388
370
     9
  0
POLYLINE
  5
138
330
1F
100
AcDbEntity
  8
_U+30EC_U+30A4_U+30E4_U+30FC 1
 62
   179
420
  2234388
370
     9
100
AcDb2dPolyline
 66
     1
 10
0.0
 20
0.0
 30
0.0
  0
VERTEX
  5
139
330
138
100
AcDbEntity
  8
_U+30EC_U+30A4_U+30E4_U+30FC 1
 62
   179
420
  2234388
370
     9
100
AcDbVertex
100
AcDb2dVertex
 10
115.0909953971174
 20
-135.6961132994095
 30
0.0
  0
VERTEX
  5
13A
330
138
100
AcDbEntity
  8
_U+30EC_U+30A4_U+30E4_U+30FC 1
 62
   179
420
  2234388
370
     9
100
AcDbVertex
100
AcDb2dVertex
 10
108.512254453844
 20
-139.9762955205614
 30
0.0
  0
VERTEX
  5
13B
330
138
100
AcDbEntity
  8
_U+30EC_U+30A4_U+30E4_U+30FC 1
 62
   179
420
  2234388
370
     9
100
AcDbVertex
100
AcDb2dVertex
 10
98.0329555545265
 20
-139.9762955205614
 30
0.0
  0
SEQEND
  5
13C
330
138
100
AcDbEntity
  8
_U+30EC_U+30A4_U+30E4_U+30FC 1
 62
   179
420
  2234388
370
     9
  0
POLYLINE
  5
13D
330
1F
100
AcDbEntity
  8
_U+30EC_U+30A4_U+30E4_U+30FC 1
 62
   179
420
  2234388
370
     9
100
AcDb2dPolyline
 66
     1
 10
0.0
 20
0.0
 30
0.0
  0
VERTEX
  5
13E
330
13D
100
AcDbEntity
  8
_U+30EC_U+30A4_U+30E4_U+30FC 1
 62
   179
420
  2234388
370
     9
100
AcDbVertex
100
AcDb2dVertex
 10
115.0909953971174
 20
-135.6961132994095
 30
0.0
  0
VERTEX
  5
13F
330
13D
100
AcDbEntity
  8
_U+30EC_U+30A4_U+30E4_U+30FC 1
 62
   179
420
  2234388
370
     9
100
AcDbVertex
100
AcDb2dVertex
 10
114.1405062546998
 20
-136.0054641326652
 30
0.0
  0
SEQEND
  5
140
330
13D
100
AcDbEntity
  8
_U+30EC_U+30A4_U+30E4_U+30FC 1
 62
   179
420
  2234388
370
     9
  0
POLYLINE
  5
141
330
1F
100
AcDbEntity
  8
_U+30EC_U+30A4_U+30E4_U+30FC 1
 62
   179
420
  2234388
370
     9
100
AcDb2dPolyline
 66
     1
 10
0.0
 20
0.0
 30
0.0
  0
VERTEX
  5
142
330
141
100
AcDbEntity
  8
_U+30EC_U+30A4_U+30E4_U+30FC 1
 62
   179
420
  2234388
370
     9
100
AcDbVertex
100
AcDb2dVertex
 10
115.0909953971174
 20
-135.6961132994095
 30
0.0
  0
VERTEX
  5
143
330
141
100
AcDbEntity
  8
_U+30EC_U+30A4_U+30E4_U+30FC 1
 62
   179
420
  2234388
370
     9
100
AcDbVertex
100
AcDb2dVertex
 10
114.4223051363994
 20
-136.4395571881121
 30
0.0
  0
SEQEND
  5
144
330
141
100
AcDbEntity
  8
_U+30EC_U+30A4_U+30E4_U+30FC 1
 62
   179
420
  2234388
370
     9
  0
INSERT
  5
146
330
1F
100
AcDbEntity
  8
_U+30EC_U+30A4_U+30E4_U+30FC 1
100
AcDbBlockReference
  2
block 6
 10
0.0
 20
0.0
 30
0.0
  0
ENDSEC
  0
SECTION
  2
OBJECTS
  0
DICTIONARY
  5
C
330
0
100
AcDbDictionary
281
     1
  3
ACAD_GROUP
350
D
  3
ACAD_LAYOUT
350
1A
  3
ACAD_MATERIAL
350
3B
  3
ACAD_MLEADERSTYLE
350
16E
  3
ACAD_MLINESTYLE
350
17
  3
ACAD_PLOTSETTINGS
350
19
  3
ACAD_PLOTSTYLENAME
350
E
  3
ACAD_TABLESTYLE
350
16D
  3
ACAD_VISUALSTYLE
350
2A
  0
SUN
  5
3F
330
29
100
AcDbSun
 90
        1
290
     0
 63
     7
421
 16777215
 40
1.0
291
     1
 91
  2455826
 92
 54000000
292
     0
 70
     2
 71
   256
280
     1
  0
DICTIONARY
  5
D
102
{ACAD_REACTORS
330
C
102
}
330
C
100
AcDbDictionary
281
     1
  0
DICTIONARY
  5
1A
102
{ACAD_REACTORS
330
C
102
}
330
C
100
AcDbDictionary
281
     1
  3
Layout1
350
1E
  3
Layout2
350
26
  3
Model
350
22
  0
DICTIONARY
  5
3B
102
{ACAD_REACTORS
330
C
102
}
330
C
100
AcDbDictionary
281
     1
  3
ByBlock
350
3D
  3
ByLayer
350
3C
  3
Global
350
3E
  0
DICTIONARY
  5
16E
102
{ACAD_REACTORS
330
C
102
}
330
C
100
AcDbDictionary
281
     1
  0
DICTIONARY
  5
17
102
{ACAD_REACTORS
330
C
102
}
330
C
100
AcDbDictionary
281
     1
  3
Standard
350
18
  0
DICTIONARY
  5
19
102
{ACAD_REACTORS
330
C
102
}
330
C
100
AcDbDictionary
281
     1
  0
ACDBDICTIONARYWDFLT
  5
E
102
{ACAD_REACTORS
330
C
102
}
330
C
100
AcDbDictionary
281
     1
  3
Normal
350
F
100
AcDbDictionaryWithDefault
340
F
  0
DICTIONARY
  5
16D
102
{ACAD_REACTORS
330
C
102
}
330
C
100
AcDbDictionary
281
     1
  0
DICTIONARY
  5
2A
102
{ACAD_REACTORS
330
C
102
}
330
C
100
AcDbDictionary
281
     1
  3
2dWireframe
350
2F
  3
3D Hidden
350
31
  3
3dWireframe
350
30
  3
Basic
350
32
  3
Brighten
350
36
  3
ColorChange
350
3A
  3
Conceptual
350
34
  3
Dim
350
35
  3
Facepattern
350
39
  3
Flat
350
2B
  3
FlatWithEdges
350
2C
  3
Gouraud
350
2D
  3
GouraudWithEdges
350
2E
  3
Linepattern
350
38
  3
Realistic
350
33
  3
Thicken
350
37
  0
LAYOUT
  5
1E
102
{ACAD_REACTORS
330
1A
102
}
330
1A
100
AcDbPlotSettings
  1

  2
none_device
  4

  6

 40
0.0
 41
0.0
 42
0.0
 43
0.0
 44
0.0
 45
0.0
 46
0.0
 47
0.0
 48
0.0
 49
0.0
140
0.0
141
0.0
142
1.0
143
1.0
 70
   688
 72
     0
 73
     0
 74
     5
  7

 75
    16
 76
     0
 77
     2
 78
   300
147
1.0
148
0.0
149
0.0
100
AcDbLayout
  1
Layout1
 70
     1
 71
     1
 10
0.0
 20
0.0
 11
12.0
 21
9.0
 12
0.0
 22
0.0
 32
0.0
 14
1.000000000000000E+20
 24
1.000000000000000E+20
 34
1.000000000000000E+20
 15
-1.000000000000000E+20
 25
-1.000000000000000E+20
 35
-1.000000000000000E+20
146
0.0
 13
0.0
 23
0.0
 33
0.0
 16
1.0
 26
0.0
 36
0.0
 17
0.0
 27
1.0
 37
0.0
 76
     0
330
1B
  0
LAYOUT
  5
26
102
{ACAD_REACTORS
330
1A
102
}
330
1A
100
AcDbPlotSettings
  1

  2
none_device
  4

  6

 40
0.0
 41
0.0
 42
0.0
 43
0.0
 44
0.0
 45
0.0
 46
0.0
 47
0.0
 48
0.0
 49
0.0
140
0.0
141
0.0
142
1.0
143
1.0
 70
   688
 72
     0
 73
     0
 74
     5
  7

 75
    16
 76
     0
 77
     2
 78
   300
147
1.0
148
0.0
149
0.0
100
AcDbLayout
  1
Layout2
 70
     1
 71
     2
 10
0.0
 20
0.0
 11
0.0
 21
0.0
 12
0.0
 22
0.0
 32
0.0
 14
0.0
 24
0.0
 34
0.0
 15
0.0
 25
0.0
 35
0.0
146
0.0
 13
0.0
 23
0.0
 33
0.0
 16
1.0
 26
0.0
 36
0.0
 17
0.0
 27
1.0
 37
0.0
 76
     0
330
23
  0
LAYOUT
  5
22
102
{ACAD_REACTORS
330
1A
102
}
330
1A
100
AcDbPlotSettings
  1

  2
none_device
  4

  6

 40
0.0
 41
0.0
 42
0.0
 43
0.0
 44
0.0
 45
0.0
 46
0.0
 47
0.0
 48
0.0
 49
0.0
140
0.0
141
0.0
142
1.0
143
1.0
 70
  1712
 72
     0
 73
     0
 74
     0
  7

 75
     0
 76
     0
 77
     2
 78
   300
147
1.0
148
0.0
149
0.0
100
AcDbLayout
  1
Model
 70
     1
 71
     0
 10
0.0
 20
0.0
 11
12.0
 21
9.0
 12
0.0
 22
0.0
 32
0.0
 14
1.000000000000000E+20
 24
1.000000000000000E+20
 34
1.000000000000000E+20
 15
-1.000000000000000E+20
 25
-1.000000000000000E+20
 35
-1.000000000000000E+20
146
0.0
 13
0.0
 23
0.0
 33
0.0
 16
1.0
 26
0.0
 36
0.0
 17
0.0
 27
1.0
 37
0.0
 76
     0
330
1F
331
29
  0
MATERIAL
  5
3D
102
{ACAD_REACTORS
330
3B
102
}
330
3B
100
AcDbMaterial
  1
ByBlock
 72
     1
 94
      127
  0
MATERIAL
  5
3C
102
{ACAD_REACTORS
330
3B
102
}
330
3B
100
AcDbMaterial
  1
ByLayer
 72
     1
 94
      127
  0
MATERIAL
  5
3E
102
{ACAD_REACTORS
330
3B
102
}
330
3B
100
AcDbMaterial
  1
Global
 72
     1
 94
      127
  0
MLINESTYLE
  5
18
102
{ACAD_REACTORS
330
17
102
}
330
17
100
AcDbMlineStyle
  2
Standard
 70
     0
  3

 62
   256
 51
90.0
 52
90.0
 71
     2
 49
0.5
 62
   256
  6
BYLAYER
 49
-0.5
 62
   256
  6
BYLAYER
  0
ACDBPLACEHOLDER
  5
F
102
{ACAD_REACTORS
330
E
102
}
330
E
  0
VISUALSTYLE
  5
2F
102
{ACAD_REACTORS
330
2A
102
}
330
2A
100
AcDbVisualStyle
  2
2dWireframe
 70
     4
177
     2
291
     0
 71
     0
176
     1
 72
     2
176
     1
 73
     0
176
     1
 90
        0
176
     1
 40
-0.6
176
     1
 41
-30.0
176
     1
 62
     5
 63
     7
421
 16777215
176
     1
 74
     1
176
     1
 91
        4
176
     1
 64
     7
176
     1
 65
   257
176
     1
 75
     1
176
     1
175
     1
176
     1
 42
1.0
176
     1
 92
        0
176
     1
 66
   257
176
     1
 43
1.0
176
     1
 76
     1
176
     1
 77
     6
176
     1
 78
     2
176
     1
 67
     7
176
     1
 79
     5
176
     1
170
     0
176
     1
171
     0
176
     1
290
     0
176
     1
 93
        1
176
     1
 44
0.0
176
     1
173
     0
176
     1
  0
VISUALSTYLE
  5
31
102
{ACAD_REACTORS
330
2A
102
}
330
2A
100
AcDbVisualStyle
  2
3D Hidden
 70
     6
177
     2
291
     0
 71
     1
176
     1
 72
     2
176
     1
 73
     2
176
     1
 90
        0
176
     1
 40
-0.6
176
     1
 41
-30.0
176
     1
 62
     5
 63
     7
421
 16777215
176
     1
 74
     2
176
     1
 91
        2
176
     1
 64
     7
176
     1
 65
   257
176
     1
 75
     2
176
     1
175
     1
176
     1
 42
40.0
176
     1
 92
        0
176
     1
 66
   257
176
     1
 43
1.0
176
     1
 76
     1
176
     1
 77
     6
176
     1
 78
     2
176
     1
 67
     7
176
     1
 79
     3
176
     1
170
     0
176
     1
171
     0
176
     1
290
     0
176
     1
 93
        1
176
     1
 44
0.0
176
     1
173
     0
176
     1
  0
VISUALSTYLE
  5
30
102
{ACAD_REACTORS
330
2A
102
}
330
2A
100
AcDbVisualStyle
  2
3dWireframe
 70
     5
177
     2
291
     0
 71
     0
176
     1
 72
     2
176
     1
 73
     0
176
     1
 90
        0
176
     1
 40
-0.6
176
     1
 41
-30.0
176
     1
 62
     5
 63
     7
421
 16777215
176
     1
 74
     1
176
     1
 91
        4
176
     1
 64
     7
176
     1
 65
   257
176
     1
 75
     1
176
     1
175
     1
176
     1
 42
1.0
176
     1
 92
        0
176
     1
 66
   257
176
     1
 43
1.0
176
     1
 76
     1
176
     1
 77
     6
176
     1
 78
     2
176
     1
 67
     7
176
     1
 79
     5
176
     1
170
     0
176
     1
171
     0
176
     1
290
     0
176
     1
 93
        1
176
     1
 44
0.0
176
     1
173
     0
176
     1
  0
VISUALSTYLE
  5
32
102
{ACAD_REACTORS
330
2A
102
}
330
2A
100
AcDbVisualStyle
  2
Basic
 70
     7
177
     2
291
     1
 71
     1
176
     1
 72
     0
176
     1
 73
     1
176
     1
 90
        0
176
     1
 40
-0.6
176
     1
 41
-30.0
176
     1
 62
     5
 63
     7
421
 16777215
176
     1
 74
     0
176
     1
 91
        4
176
     1
 64
     7
176
     1
 65
   257
176
     1
 75
     1
176
     1
175
     1
176
     1
 42
1.0
176
     1
 92
        8
176
     1
 66
     7
176
     1
 43
1.0
176
     1
 76
     1
176
     1
 77
     6
176
     1
 78
     2
176
     1
 67
     7
176
     1
 79
     5
176
     1
170
     0
176
     1
171
     0
176
     1
290
     0
176
     1
 93
        1
176
     1
 44
0.0
176
     1
173
     0
176
     1
  0
VISUALSTYLE
  5
36
102
{ACAD_REACTORS
330
2A
102
}
330
2A
100
AcDbVisualStyle
  2
Brighten
 70
    12
177
     2
291
     1
 71
     2
176
     1
 72
     2
176
     1
 73
     0
176
     1
 90
        0
176
     1
 40
-0.6
176
     1
 41
-30.0
176
     1
 62
     5
 63
     7
421
 16777215
176
     1
 74
     1
176
     1
 91
        4
176
     1
 64
     7
176
     1
 65
   257
176
     1
 75
     1
176
     1
175
     1
176
     1
 42
1.0
176
     1
 92
        8
176
     1
 66
     7
176
     1
 43
1.0
176
     1
 76
     1
176
     1
 77
     6
176
     1
 78
     2
176
     1
 67
     7
176
     1
 79
     5
176
     1
170
     0
176
     1
171
     0
176
     1
290
     0
176
     1
 93
        1
176
     1
 44
50.0
176
     1
173
     0
176
     1
  0
VISUALSTYLE
  5
3A
102
{ACAD_REACTORS
330
2A
102
}
330
2A
100
AcDbVisualStyle
  2
ColorChange
 70
    16
177
     2
291
     1
 71
     2
176
     1
 72
     2
176
     1
 73
     3
176
     1
 90
        0
176
     1
 40
-0.6
176
     1
 41
-30.0
176
     1
 62
     5
 63
     8
421
  8421504
176
     1
 74
     1
176
     1
 91
        4
176
     1
 64
     7
176
     1
 65
   257
176
     1
 75
     1
176
     1
175
     1
176
     1
 42
1.0
176
     1
 92
        8
176
     1
 66
     8
424
  8421504
176
     1
 43
1.0
176
     1
 76
     1
176
     1
 77
     6
176
     1
 78
     2
176
     1
 67
     7
176
     1
 79
     5
176
     1
170
     0
176
     1
171
     0
176
     1
290
     0
176
     1
 93
        1
176
     1
 44
0.0
176
     1
173
     0
176
     1
  0
VISUALSTYLE
  5
34
102
{ACAD_REACTORS
330
2A
102
}
330
2A
100
AcDbVisualStyle
  2
Conceptual
 70
     9
177
     2
291
     0
 71
     3
176
     1
 72
     2
176
     1
 73
     0
176
     1
 90
        0
176
     1
 40
-0.6
176
     1
 41
-30.0
176
     1
 62
     5
 63
     7
421
 16777215
176
     1
 74
     2
176
     1
 91
        2
176
     1
 64
     7
176
     1
 65
   257
176
     1
 75
     1
176
     1
175
     1
176
     1
 42
40.0
176
     1
 92
        8
176
     1
 66
     7
176
     1
 43
1.0
176
     1
 76
     1
176
     1
 77
     6
176
     1
 78
     2
176
     1
 67
     7
176
     1
 79
     3
176
     1
170
     0
176
     1
171
     0
176
     1
290
     0
176
     1
 93
        1
176
     1
 44
0.0
176
     1
173
     0
176
     1
  0
VISUALSTYLE
  5
35
102
{ACAD_REACTORS
330
2A
102
}
330
2A
100
AcDbVisualStyle
  2
Dim
 70
    11
177
     2
291
     1
 71
     2
176
     1
 72
     2
176
     1
 73
     0
176
     1
 90
        0
176
     1
 40
-0.6
176
     1
 41
-30.0
176
     1
 62
     5
 63
     7
421
 16777215
176
     1
 74
     1
176
     1
 91
        4
176
     1
 64
     7
176
     1
 65
   257
176
     1
 75
     1
176
     1
175
     1
176
     1
 42
1.0
176
     1
 92
        8
176
     1
 66
     7
176
     1
 43
1.0
176
     1
 76
     1
176
     1
 77
     6
176
     1
 78
     2
176
     1
 67
     7
176
     1
 79
     5
176
     1
170
     0
176
     1
171
     0
176
     1
290
     0
176
     1
 93
        1
176
     1
 44
-50.0
176
     1
173
     0
176
     1
  0
VISUALSTYLE
  5
39
102
{ACAD_REACTORS
330
2A
102
}
330
2A
100
AcDbVisualStyle
  2
Facepattern
 70
    15
177
     2
291
     1
 71
     2
176
     1
 72
     2
176
     1
 73
     0
176
     1
 90
        0
176
     1
 40
-0.6
176
     1
 41
-30.0
176
     1
 62
     5
 63
     7
421
 16777215
176
     1
 74
     1
176
     1
 91
        4
176
     1
 64
     7
176
     1
 65
   257
176
     1
 75
     1
176
     1
175
     1
176
     1
 42
1.0
176
     1
 92
        8
176
     1
 66
     7
176
     1
 43
1.0
176
     1
 76
     1
176
     1
 77
     6
176
     1
 78
     2
176
     1
 67
     7
176
     1
 79
     5
176
     1
170
     0
176
     1
171
     0
176
     1
290
     0
176
     1
 93
        1
176
     1
 44
0.0
176
     1
173
     0
176
     1
  0
VISUALSTYLE
  5
2B
102
{ACAD_REACTORS
330
2A
102
}
330
2A
100
AcDbVisualStyle
  2
Flat
 70
     0
177
     2
291
     1
 71
     2
176
     1
 72
     1
176
     1
 73
     1
176
     1
 90
        2
176
     1
 40
-0.6
176
     1
 41
30.0
176
     1
 62
     5
 63
     7
421
 16777215
176
     1
 74
     0
176
     1
 91
        4
176
     1
 64
     7
176
     1
 65
   257
176
     1
 75
     1
176
     1
175
     1
176
     1
 42
1.0
176
     1
 92
        8
176
     1
 66
     7
176
     1
 43
1.0
176
     1
 76
     1
176
     1
 77
     6
176
     1
 78
     2
176
     1
 67
     7
176
     1
 79
     5
176
     1
170
     0
176
     1
171
     0
176
     1
290
     0
176
     1
 93
       13
176
     1
 44
0.0
176
     1
173
     0
176
     1
  0
VISUALSTYLE
  5
2C
102
{ACAD_REACTORS
330
2A
102
}
330
2A
100
AcDbVisualStyle
  2
FlatWithEdges
 70
     1
177
     2
291
     1
 71
     2
176
     1
 72
     1
176
     1
 73
     1
176
     1
 90
        2
176
     1
 40
-0.6
176
     1
 41
30.0
176
     1
 62
     5
 63
     7
421
 16777215
176
     1
 74
     1
176
     1
 91
        4
176
     1
 64
     7
176
     1
 65
   257
176
     1
 75
     1
176
     1
175
     1
176
     1
 42
1.0
176
     1
 92
        0
176
     1
 66
   257
176
     1
 43
1.0
176
     1
 76
     1
176
     1
 77
     6
176
     1
 78
     2
176
     1
 67
     7
176
     1
 79
     5
176
     1
170
     0
176
     1
171
     0
176
     1
290
     0
176
     1
 93
       13
176
     1
 44
0.0
176
     1
173
     0
176
     1
  0
VISUALSTYLE
  5
2D
102
{ACAD_REACTORS
330
2A
102
}
330
2A
100
AcDbVisualStyle
  2
Gouraud
 70
     2
177
     2
291
     1
 71
     2
176
     1
 72
     2
176
     1
 73
     1
176
     1
 90
        2
176
     1
 40
-0.6
176
     1
 41
30.0
176
     1
 62
     5
 63
     7
421
 16777215
176
     1
 74
     0
176
     1
 91
        4
176
     1
 64
     7
176
     1
 65
   257
176
     1
 75
     1
176
     1
175
     1
176
     1
 42
1.0
176
     1
 92
        0
176
     1
 66
     7
176
     1
 43
1.0
176
     1
 76
     1
176
     1
 77
     6
176
     1
 78
     2
176
     1
 67
     7
176
     1
 79
     5
176
     1
170
     0
176
     1
171
     0
176
     1
290
     0
176
     1
 93
       13
176
     1
 44
0.0
176
     1
173
     0
176
     1
  0
VISUALSTYLE
  5
2E
102
{ACAD_REACTORS
330
2A
102
}
330
2A
100
AcDbVisualStyle
  2
GouraudWithEdges
 70
     3
177
     2
291
     1
 71
     2
176
     1
 72
     2
176
     1
 73
     1
176
     1
 90
        2
176
     1
 40
-0.6
176
     1
 41
30.0
176
     1
 62
     5
 63
     7
421
 16777215
176
     1
 74
     1
176
     1
 91
        4
176
     1
 64
     7
176
     1
 65
   257
176
     1
 75
     1
176
     1
175
     1
176
     1
 42
1.0
176
     1
 92
        0
176
     1
 66
   257
176
     1
 43
1.0
176
     1
 76
     1
176
     1
 77
     6
176
     1
 78
     2
176
     1
 67
     7
176
     1
 79
     5
176
     1
170
     0
176
     1
171
     0
176
     1
290
     0
176
     1
 93
       13
176
     1
 44
0.0
176
     1
173
     0
176
     1
  0
VISUALSTYLE
  5
38
102
{ACAD_REACTORS
330
2A
102
}
330
2A
100
AcDbVisualStyle
  2
Linepattern
 70
    14
177
     2
291
     1
 71
     2
176
     1
 72
     2
176
     1
 73
     0
176
     1
 90
        0
176
     1
 40
-0.6
176
     1
 41
-30.0
176
     1
 62
     5
 63
     7
421
 16777215
176
     1
 74
     1
176
     1
 91
        4
176
     1
 64
     7
176
     1
 65
   257
176
     1
 75
     7
176
     1
175
     7
176
     1
 42
1.0
176
     1
 92
        8
176
     1
 66
     7
176
     1
 43
1.0
176
     1
 76
     1
176
     1
 77
     6
176
     1
 78
     2
176
     1
 67
     7
176
     1
 79
     5
176
     1
170
     0
176
     1
171
     0
176
     1
290
     0
176
     1
 93
        1
176
     1
 44
0.0
176
     1
173
     0
176
     1
  0
VISUALSTYLE
  5
33
102
{ACAD_REACTORS
330
2A
102
}
330
2A
100
AcDbVisualStyle
  2
Realistic
 70
     8
177
     2
291
     0
 71
     2
176
     1
 72
     2
176
     1
 73
     0
176
     1
 90
        0
176
     1
 40
-0.6
176
     1
 41
-30.0
176
     1
 62
     5
 63
     7
421
 16777215
176
     1
 74
     1
176
     1
 91
        0
176
     1
 64
     7
176
     1
 65
   257
176
     1
 75
     1
176
     1
175
     1
176
     1
 42
1.0
176
     1
 92
        8
176
     1
 66
     8
424
  7895160
176
     1
 43
1.0
176
     1
 76
     1
176
     1
 77
     6
176
     1
 78
     2
176
     1
 67
     7
176
     1
 79
     5
176
     1
170
     0
176
     1
171
     0
176
     1
290
     0
176
     1
 93
       13
176
     1
 44
0.0
176
     1
173
     0
176
     1
  0
VISUALSTYLE
  5
37
102
{ACAD_REACTORS
330
2A
102
}
330
2A
100
AcDbVisualStyle
  2
Thicken
 70
    13
177
     2
291
     1
 71
     2
176
     1
 72
     2
176
     1
 73
     0
176
     1
 90
        0
176
     1
 40
-0.6
176
     1
 41
-30.0
176
     1
 62
     5
 63
     7
421
 16777215
176
     1
 74
     1
176
     1
 91
        4
176
     1
 64
     7
176
     1
 65
   257
176
     1
 75
     1
176
     1
175
     1
176
     1
 42
1.0
176
     1
 92
       12
176
     1
 66
     7
176
     1
 43
1.0
176
     1
 76
     1
176
     1
 77
     6
176
     1
 78
     2
176
     1
 67
     7
176
     1
 79
     5
176
     1
170
     0
176
     1
171
     0
176
     1
290
     0
176
     1
 93
        1
176
     1
 44
0.0
176
     1
173
     0
176
     1
  0
ENDSEC
  0
EOF
