  0
SECTION
  2
HEADER
  9
$ACADVER
  1
AC1024
  9
$ACADMAINTVER
 70
     6
  9
$DWGCODEPAGE
  3
UNDEFINED
  9
$INSBASE
 10
0.0
 20
0.0
 30
0.0
  9
$EXTMIN
 10
1.000000000000000E+20
 20
1.000000000000000E+20
 30
1.000000000000000E+20
  9
$EXTMAX
 10
-1.000000000000000E+20
 20
-1.000000000000000E+20
 30
-1.000000000000000E+20
  9
$LIMMIN
 10
0.0
 20
0.0
  9
$LIMMAX
 10
12.0
 20
9.0
  9
$ORTHOMODE
 70
     0
  9
$REGENMODE
 70
     1
  9
$FILLMODE
 70
     1
  9
$QTEXTMODE
 70
     0
  9
$MIRRTEXT
 70
     1
  9
$LTSCALE
 40
1.0
  9
$ATTMODE
 70
     1
  9
$TEXTSIZE
 40
0.2
  9
$TRACEWID
 40
0.05
  9
$TEXTSTYLE
  7
Standard
  9
$CLAYER
  8
0
  9
$CELTYPE
  6
ByLayer
  9
$CECOLOR
 62
   256
  9
$CELTSCALE
 40
1.0
  9
$DISPSILH
 70
     0
  9
$DIMSCALE
 40
1.0
  9
$DIMASZ
 40
0.18
  9
$DIMEXO
 40
0.0625
  9
$DIMDLI
 40
0.38
  9
$DIMRND
 40
0.0
  9
$DIMDLE
 40
0.0
  9
$DIMEXE
 40
0.18
  9
$DIMTP
 40
0.0
  9
$DIMTM
 40
0.0
  9
$DIMTXT
 40
0.18
  9
$DIMCEN
 40
0.09
  9
$DIMTSZ
 40
0.0
  9
$DIMTOL
 70
     0
  9
$DIMLIM
 70
     0
  9
$DIMTIH
 70
     1
  9
$DIMTOH
 70
     1
  9
$DIMSE1
 70
     0
  9
$DIMSE2
 70
     0
  9
$DIMTAD
 70
     0
  9
$DIMZIN
 70
     0
  9
$DIMBLK
  1

  9
$DIMASO
 70
     1
  9
$DIMSHO
 70
     1
  9
$DIMPOST
  1

  9
$DIMAPOST
  1

  9
$DIMALT
 70
     0
  9
$DIMALTD
 70
     2
  9
$DIMALTF
 40
25.4
  9
$DIMLFAC
 40
1.0
  9
$DIMTOFL
 70
     0
  9
$DIMTVP
 40
0.0
  9
$DIMTIX
 70
     0
  9
$DIMSOXD
 70
     0
  9
$DIMSAH
 70
     0
  9
$DIMBLK1
  1

  9
$DIMBLK2
  1

  9
$DIMSTYLE
  2
Standard
  9
$DIMCLRD
 70
     0
  9
$DIMCLRE
 70
     0
  9
$DIMCLRT
 70
     0
  9
$DIMTFAC
 40
1.0
  9
$DIMGAP
 40
0.09
  9
$DIMJUST
 70
     0
  9
$DIMSD1
 70
     0
  9
$DIMSD2
 70
     0
  9
$DIMTOLJ
 70
     1
  9
$DIMTZIN
 70
     0
  9
$DIMALTZ
 70
     0
  9
$DIMALTTZ
 70
     0
  9
$DIMUPT
 70
     0
  9
$DIMDEC
 70
     4
  9
$DIMTDEC
 70
     4
  9
$DIMALTU
 70
     2
  9
$DIMALTTD
 70
     2
  9
$DIMTXSTY
  7
Standard
  9
$DIMAUNIT
 70
     0
  9
$DIMADEC
 70
     0
  9
$DIMALTRND
 40
0.0
  9
$DIMAZIN
 70
     0
  9
$DIMDSEP
 70
    46
  9
$DIMATFIT
 70
     3
  9
$DIMFRAC
 70
     0
  9
$DIMLDRBLK
  1

  9
$DIMLUNIT
 70
     2
  9
$DIMLWD
 70
    -2
  9
$DIMLWE
 70
    -2
  9
$DIMTMOVE
 70
     0
  9
$DIMFXL
 40
1.0
  9
$DIMFXLON
 70
     0
  9
$DIMJOGANG
 40
0.7853981633974483
  9
$DIMTFILL
 70
     0
  9
$DIMTFILLCLR
 70
     0
  9
$DIMARCSYM
 70
     0
  9
$DIMLTYPE
  6

  9
$DIMLTEX1
  6

  9
$DIMLTEX2
  6

  9
$DIMTXTDIRECTION
 70
     0
  9
$LUNITS
 70
     2
  9
$LUPREC
 70
     4
  9
$SKETCHINC
 40
0.1
  9
$FILLETRAD
 40
0.5
  9
$AUNITS
 70
     0
  9
$AUPREC
 70
     0
  9
$MENU
  1
.
  9
$ELEVATION
 40
0.0
  9
$PELEVATION
 40
0.0
  9
$THICKNESS
 40
0.0
  9
$LIMCHECK
 70
     0
  9
$CHAMFERA
 40
0.5
  9
$CHAMFERB
 40
0.5
  9
$CHAMFERC
 40
1.0
  9
$CHAMFERD
 40
0.0
  9
$SKPOLY
 70
     0
  9
$TDCREATE
 40
2457917.584687489
  9
$TDUCREATE
 40
2457917.2096875
  9
$TDUPDATE
 40
2457917.584699074
  9
$TDUUPDATE
 40
2457917.209699074
  9
$TDINDWG
 40
0.0000000116
  9
$TDUSRTIMER
 40
0.0000000116
  9
$USRTIMER
 70
     1
  9
$ANGBASE
 50
0.0
  9
$ANGDIR
 70
     0
  9
$PDMODE
 70
     0
  9
$PDSIZE
 40
0.0
  9
$PLINEWID
 40
0.0
  9
$SPLFRAME
 70
     0
  9
$SPLINETYPE
 70
     6
  9
$SPLINESEGS
 70
     8
  9
$HANDSEED
  5
16F
  9
$SURFTAB1
 70
     6
  9
$SURFTAB2
 70
     6
  9
$SURFTYPE
 70
     6
  9
$SURFU
 70
     6
  9
$SURFV
 70
     6
  9
$UCSBASE
  2

  9
$UCSNAME
  2

  9
$UCSORG
 10
0.0
 20
0.0
 30
0.0
  9
$UCSXDIR
 10
1.0
 20
0.0
 30
0.0
  9
$UCSYDIR
 10
0.0
 20
1.0
 30
0.0
  9
$UCSORTHOREF
  2

  9
$UCSORTHOVIEW
 70
     0
  9
$UCSORGTOP
 10
0.0
 20
0.0
 30
0.0
  9
$UCSORGBOTTOM
 10
0.0
 20
0.0
 30
0.0
  9
$UCSORGLEFT
 10
0.0
 20
0.0
 30
0.0
  9
$UCSORGRIGHT
 10
0.0
 20
0.0
 30
0.0
  9
$UCSORGFRONT
 10
0.0
 20
0.0
 30
0.0
  9
$UCSORGBACK
 10
0.0
 20
0.0
 30
0.0
  9
$PUCSBASE
  2

  9
$PUCSNAME
  2

  9
$PUCSORG
 10
0.0
 20
0.0
 30
0.0
  9
$PUCSXDIR
 10
1.0
 20
0.0
 30
0.0
  9
$PUCSYDIR
 10
0.0
 20
1.0
 30
0.0
  9
$PUCSORTHOREF
  2

  9
$PUCSORTHOVIEW
 70
     0
  9
$PUCSORGTOP
 10
0.0
 20
0.0
 30
0.0
  9
$PUCSORGBOTTOM
 10
0.0
 20
0.0
 30
0.0
  9
$PUCSORGLEFT
 10
0.0
 20
0.0
 30
0.0
  9
$PUCSORGRIGHT
 10
0.0
 20
0.0
 30
0.0
  9
$PUCSORGFRONT
 10
0.0
 20
0.0
 30
0.0
  9
$PUCSORGBACK
 10
0.0
 20
0.0
 30
0.0
  9
$USERI1
 70
     0
  9
$USERI2
 70
     0
  9
$USERI3
 70
     0
  9
$USERI4
 70
     0
  9
$USERI5
 70
     0
  9
$USERR1
 40
0.0
  9
$USERR2
 40
0.0
  9
$USERR3
 40
0.0
  9
$USERR4
 40
0.0
  9
$USERR5
 40
0.0
  9
$WORLDVIEW
 70
     1
  9
$SHADEDGE
 70
     3
  9
$SHADEDIF
 70
    70
  9
$TILEMODE
 70
     1
  9
$MAXACTVP
 70
    64
  9
$PINSBASE
 10
0.0
 20
0.0
 30
0.0
  9
$PLIMCHECK
 70
     0
  9
$PEXTMIN
 10
1.000000000000000E+20
 20
1.000000000000000E+20
 30
1.000000000000000E+20
  9
$PEXTMAX
 10
-1.000000000000000E+20
 20
-1.000000000000000E+20
 30
-1.000000000000000E+20
  9
$PLIMMIN
 10
0.0
 20
0.0
  9
$PLIMMAX
 10
12.0
 20
9.0
  9
$UNITMODE
 70
     0
  9
$VISRETAIN
 70
     1
  9
$PLINEGEN
 70
     0
  9
$PSLTSCALE
 70
     1
  9
$TREEDEPTH
 70
  3020
  9
$CMLSTYLE
  2
Standard
  9
$CMLJUST
 70
     0
  9
$CMLSCALE
 40
1.0
  9
$PROXYGRAPHICS
 70
     1
  9
$MEASUREMENT
 70
     0
  9
$CELWEIGHT
370
    -1
  9
$ENDCAPS
280
     0
  9
$JOINSTYLE
280
     0
  9
$LWDISPLAY
290
     1
  9
$INSUNITS
 70
     1
  9
$HYPERLINKBASE
  1

  9
$STYLESHEET
  1

  9
$XEDIT
290
     1
  9
$CEPSNTYPE
380
     0
  9
$PSTYLEMODE
290
     1
  9
$FINGERPRINTGUID
  2
{1F7CE922-53C9-6E38-151A-9C4ABE241DB2}
  9
$VERSIONGUID
  2
{FAEB1C32-E019-11D5-929B-00C0DF256EC4}
  9
$EXTNAMES
290
     1
  9
$PSVPSCALE
 40
0.0
  9
$OLESTARTUP
290
     0
  9
$SORTENTS
280
   127
  9
$INDEXCTL
280
     0
  9
$HIDETEXT
280
     1
  9
$XCLIPFRAME
280
     2
  9
$HALOGAP
280
     0
  9
$OBSCOLOR
 70
   257
  9
$OBSLTYPE
280
     0
  9
$INTERSECTIONDISPLAY
280
     0
  9
$INTERSECTIONCOLOR
 70
   257
  9
$DIMASSOC
280
     2
  9
$PROJECTNAME
  1

  9
$CAMERADISPLAY
290
     0
  9
$LENSLENGTH
 40
50.0
  9
$CAMERAHEIGHT
 40
0.0
  9
$STEPSPERSEC
 40
2.0
  9
$STEPSIZE
 40
6.0
  9
$3DDWFPREC
 40
2.0
  9
$PSOLWIDTH
 40
0.25
  9
$PSOLHEIGHT
 40
4.0
  9
$LOFTANG1
 40
1.570796326794897
  9
$LOFTANG2
 40
1.570796326794897
  9
$LOFTMAG1
 40
0.0
  9
$LOFTMAG2
 40
0.0
  9
$LOFTPARAM
 70
     7
  9
$LOFTNORMALS
280
     1
  9
$LATITUDE
 40
37.795
  9
$LONGITUDE
 40
-122.394
  9
$NORTHDIRECTION
 40
0.0
  9
$TIMEZONE
 70
 -8000
  9
$LIGHTGLYPHDISPLAY
280
     1
  9
$TILEMODELIGHTSYNCH
280
     1
  9
$CMATERIAL
347
3C
  9
$SOLIDHIST
280
     1
  9
$SHOWHIST
280
     1
  9
$DWFFRAME
280
     2
  9
$DGNFRAME
280
     2
  9
$REALWORLDSCALE
290
     1
  9
$INTERFERECOLOR
 62
   256
  9
$CSHADOW
280
     0
  9
$SHADOWPLANELOCATION
 40
0.0
  0
ENDSEC
  0
SECTION
  2
CLASSES
  0
CLASS
  1
ACDBDICTIONARYWDFLT
  2
AcDbDictionaryWithDefault
  3
ObjectDBX Classes
 90
        0
 91
        4
280
     0
281
     0
  0
CLASS
  1
VISUALSTYLE
  2
AcDbVisualStyle
  3
ObjectDBX Classes
 90
     4095
 91
        4
280
     0
281
     0
  0
CLASS
  1
MATERIAL
  2
AcDbMaterial
  3
ObjectDBX Classes
 90
     1153
 91
        4
280
     0
281
     0
  0
CLASS
  1
SUN
  2
AcDbSun
  3
SCENEOE
 90
     1024
 91
        4
280
     0
281
     0
  0
ENDSEC
  0
SECTION
  2
TABLES
  0
TABLE
  2
VPORT
  5
8
330
0
100
AcDbSymbolTable
 70
     1
  0
VPORT
  5
29
330
8
100
AcDbSymbolTableRecord
100
AcDbViewportTableRecord
  2
*Active
 70
     0
 10
0.0
 20
0.0
 11
1.0
 21
1.0
 12
0.0
 22
0.0
 13
0.0
 23
0.0
 14
0.5
 24
0.5
 15
0.5
 25
0.5
 16
0.0
 26
0.0
 36
1.0
 17
91.00082462281999
 27
-128.4993055234307
 37
0.0
 40
256.9986110468615
 41
0.7081814508812795
 42
50.0
 43
0.0
 44
0.0
 50
0.0
 51
0.0
 71
     0
 72
   100
 73
     1
 74
     3
 75
     0
 76
     0
 77
     0
 78
     0
281
     0
 65
     1
110
0.0
120
0.0
130
0.0
111
1.0
121
0.0
131
0.0
112
0.0
122
1.0
132
0.0
 79
     0
146
0.0
 60
     3
 61
     5
292
     1
282
     1
141
0.0
142
0.0
 63
   250
361
3F
  0
ENDTAB
  0
TABLE
  2
LTYPE
  5
5
330
0
100
AcDbSymbolTable
 70
     3
  0
LTYPE
  5
14
330
5
100
AcDbSymbolTableRecord
100
AcDbLinetypeTableRecord
  2
ByBlock
 70
     0
  3

 72
    65
 73
     0
 40
0.0
  0
LTYPE
  5
15
330
5
100
AcDbSymbolTableRecord
100
AcDbLinetypeTableRecord
  2
ByLayer
 70
     0
  3

 72
    65
 73
     0
 40
0.0
  0
LTYPE
  5
16
330
5
100
AcDbSymbolTableRecord
100
AcDbLinetypeTableRecord
  2
Continuous
 70
     0
  3
Solid line
 72
    65
 73
     0
 40
0.0
  0
LTYPE
  5
124
330
5
100
AcDbSymbolTableRecord
100
AcDbLinetypeTableRecord
  2
AI-Linetype-1
 70
     0
  3
Adobe Illustrator Linetype No. 1
 72
    65
 73
     2
 40
1.411111110758333
 49
0.7055555553791667
 74
     0
 49
-0.7055555553791667
 74
     0
  0
LTYPE
  5
129
330
5
100
AcDbSymbolTableRecord
100
AcDbLinetypeTableRecord
  2
AI-Linetype-2
 70
     0
  3
Adobe Illustrator Linetype No. 2
 72
    65
 73
     2
 40
1.411111110758333
 49
0.7055555553791667
 74
     0
 49
-0.7055555553791667
 74
     0
  0
ENDTAB
  0
TABLE
  2
LAYER
  5
2
330
0
100
AcDbSymbolTable
 70
     2
  0
LAYER
  5
10
330
2
100
AcDbSymbolTableRecord
100
AcDbLayerTableRecord
  2
0
 70
     0
 62
     7
  6
Continuous
370
    -3
390
F
347
3E
  0
LAYER
  5
40
330
2
100
AcDbSymbolTableRecord
100
AcDbLayerTableRecord
  2
_U+30EC_U+30A4_U+30E4_U+30FC 1
 70
     0
 62
     7
  6
Continuous
370
    -3
390
F
347
3E
  0
ENDTAB
  0
TABLE
  2
STYLE
  5
3
330
0
100
AcDbSymbolTable
 70
     1
  0
STYLE
  5
11
330
3
100
AcDbSymbolTableRecord
100
AcDbTextStyleTableRecord
  2
Standard
 70
     0
 40
0.0
 41
1.0
 50
0.0
 71
     0
 42
0.2
  3
txt
  4

  0
ENDTAB
  0
TABLE
  2
VIEW
  5
6
330
0
100
AcDbSymbolTable
 70
     0
  0
ENDTAB
  0
TABLE
  2
UCS
  5
7
330
0
100
AcDbSymbolTable
 70
     0
  0
ENDTAB
  0
TABLE
  2
APPID
  5
9
330
0
100
AcDbSymbolTable
 70
     1
  0
APPID
  5
12
330
9
100
AcDbSymbolTableRecord
100
AcDbRegAppTableRecord
  2
ACAD
 70
     0
  0
ENDTAB
  0
TABLE
  2
DIMSTYLE
  5
A
330
0
100
AcDbSymbolTable
 70
     1
100
AcDbDimStyleTable
  0
DIMSTYLE
105
27
330
A
100
AcDbSymbolTableRecord
100
AcDbDimStyleTableRecord
  2
Standard
 70
     0
178
     0
340
11
  0
ENDTAB
  0
TABLE
  2
BLOCK_RECORD
  5
1
330
0
100
AcDbSymbolTable
 70
     6
  0
BLOCK_RECORD
  5
1F
330
1
100
AcDbSymbolTableRecord
100
AcDbBlockTableRecord
  2
*Model_Space
340
22
 70
     0
280
     1
281
     0
  0
BLOCK_RECORD
  5
1B
330
1
100
AcDbSymbolTableRecord
100
AcDbBlockTableRecord
  2
*Paper_Space
340
1E
 70
     0
280
     1
281
     0
  0
BLOCK_RECORD
  5
23
330
1
100
AcDbSymbolTableRecord
100
AcDbBlockTableRecord
  2
*Paper_Space0
340
26
 70
     0
280
     1
281
     0
  0
BLOCK_RECORD
  5
41
330
1
100
AcDbSymbolTableRecord
100
AcDbBlockTableRecord
  2
block 2
340
0
102
{BLKREFS
331
42
102
}
 70
     0
280
     1
281
     0
  0
BLOCK_RECORD
  5
77
330
1
100
AcDbSymbolTableRecord
100
AcDbBlockTableRecord
  2
block 3
340
0
102
{BLKREFS
331
78
102
}
 70
     0
280
     1
281
     0
  0
BLOCK_RECORD
  5
DD
330
1
100
AcDbSymbolTableRecord
100
AcDbBlockTableRecord
  2
block 4
340
0
102
{BLKREFS
331
DE
102
}
 70
     0
280
     1
281
     0
  0
BLOCK_RECORD
  5
105
330
1
100
AcDbSymbolTableRecord
100
AcDbBlockTableRecord
  2
block 5
340
0
102
{BLKREFS
331
106
102
}
 70
     0
280
     1
281
     0
  0
BLOCK_RECORD
  5
145
330
1
100
AcDbSymbolTableRecord
100
AcDbBlockTableRecord
  2
block 6
340
0
102
{BLKREFS
331
146
102
}
 70
     0
280
     1
281
     0
  0
ENDTAB
  0
ENDSEC
  0
SECTION
  2
BLOCKS
  0
BLOCK
  5
20
330
1F
100
AcDbEntity
  8
0
100
AcDbBlockBegin
  2
*Model_Space
 70
     0
 10
0.0
 20
0.0
 30
0.0
  3
*Model_Space
  1

  0
ENDBLK
  5
21
330
1F
100
AcDbEntity
  8
0
100
AcDbBlockEnd
  0
BLOCK
  5
1C
330
1B
100
AcDbEntity
 67
     1
  8
0
100
AcDbBlockBegin
  2
*Paper_Space
 70
     0
 10
0.0
 20
0.0
 30
0.0
  3
*Paper_Space
  1

  0
ENDBLK
  5
1D
330
1B
100
AcDbEntity
 67
     1
  8
0
100
AcDbBlockEnd
  0
BLOCK
  5
24
330
23
100
AcDbEntity
  8
0
100
AcDbBlockBegin
  2
*Paper_Space0
 70
     0
 10
0.0
 20
0.0
 30
0.0
  3
*Paper_Space0
  1

  0
ENDBLK
  5
25
330
23
100
AcDbEntity
  8
0
100
AcDbBlockEnd
  0
BLOCK
  5
43
330
41
100
AcDbEntity
  8
0
100
AcDbBlockBegin
  2
block 2
 70
     0
 10
0.0
 20
0.0
 30
0.0
  3
block 2
  1

  0
POLYLINE
  5
45
330
41
100
AcDbEntity
  8
_U+30EC_U+30A4_U+30E4_U+30FC 1
 62
   179
420
  2234388
370
     9
100
AcDb2dPolyline
 66
     1
 10
0.0
 20
0.0
 30
0.0
  0
VERTEX
  5
46
330
45
100
AcDbEntity
  8
_U+30EC_U+30A4_U+30E4_U+30FC 1
 62
   179
420
  2234388
370
     9
100
AcDbVertex
100
AcDb2dVertex
 10
91.10796323119777
 20
-118.9067838591623
 30
0.0
  0
VERTEX
  5
47
330
45
100
AcDbEntity
  8
_U+30EC_U+30A4_U+30E4_U+30FC 1
 62
   179
420
  2234388
370
     9
100
AcDbVertex
100
AcDb2dVertex
 10
91.10796323119777
 20
-123.5080644135674
 30
0.0
  0
SEQEND
  5
48
330
45
100
AcDbEntity
  8
_U+30EC_U+30A4_U+30E4_U+30FC 1
 62
   179
420
  2234388
370
     9
  0
POLYLINE
  5
49
330
41
100
AcDbEntity
  8
_U+30EC_U+30A4_U+30E4_U+30FC 1
 62
   179
420
  2234388
370
     9
100
AcDb2dPolyline
 66
     1
 10
0.0
 20
0.0
 30
0.0
  0
VERTEX
  5
4A
330
49
100
AcDbEntity
  8
_U+30EC_U+30A4_U+30E4_U+30FC 1
 62
   179
420
  2234388
370
     9
100
AcDbVertex
100
AcDb2dVertex
 10
90.849588793345
 20
-122.54205302492
 30
0.0
  0
VERTEX
  5
4B
330
49
100
AcDbEntity
  8
_U+30EC_U+30A4_U+30E4_U+30FC 1
 62
   179
420
  2234388
370
     9
100
AcDbVertex
100
AcDb2dVertex
 10
91.10796323119777
 20
-123.5080644135674
 30
0.0
  0
SEQEND
  5
4C
330
49
100
AcDbEntity
  8
_U+30EC_U+30A4_U+30E4_U+30FC 1
 62
   179
420
  2234388
370
     9
  0
POLYLINE
  5
4D
330
41
100
AcDbEntity
  8
_U+30EC_U+30A4_U+30E4_U+30FC 1
 62
   179
420
  2234388
370
     9
100
AcDb2dPolyline
 66
     1
 10
0.0
 20
0.0
 30
0.0
  0
VERTEX
  5
4E
330
4D
100
AcDbEntity
  8
_U+30EC_U+30A4_U+30E4_U+30FC 1
 62
   179
420
  2234388
370
     9
100
AcDbVertex
100
AcDb2dVertex
 10
91.36704322458809
 20
-122.54205302492
 30
0.0
  0
VERTEX
  5
4F
330
4D
100
AcDbEntity
  8
_U+30EC_U+30A4_U+30E4_U+30FC 1
 62
   179
420
  2234388
370
     9
100
AcDbVertex
100
AcDb2dVertex
 10
91.10796323119777
 20
-123.5080644135674
 30
0.0
  0
SEQEND
  5
50
330
4D
100
AcDbEntity
  8
_U+30EC_U+30A4_U+30E4_U+30FC 1
 62
   179
420
  2234388
370
     9
  0
POLYLINE
  5
51
330
41
100
AcDbEntity
  8
_U+30EC_U+30A4_U+30E4_U+30FC 1
 62
   179
420
  2234388
370
    25
100
AcDb2dPolyline
 66
     1
 10
0.0
 20
0.0
 30
0.0
  0
VERTEX
  5
52
330
51
100
AcDbEntity
  8
_U+30EC_U+30A4_U+30E4_U+30FC 1
 62
   179
420
  2234388
370
    25
100
AcDbVertex
100
AcDb2dVertex
 10
92.50115553243046
 20
-125.2991524686754
 30
0.0
  0
VERTEX
  5
53
330
51
100
AcDbEntity
  8
_U+30EC_U+30A4_U+30E4_U+30FC 1
 62
   179
420
  2234388
370
    25
100
AcDbVertex
100
AcDb2dVertex
 10
129.6082944711947
 20
-137.3194555212258
 30
0.0
  0
SEQEND
  5
54
330
51
100
AcDbEntity
  8
_U+30EC_U+30A4_U+30E4_U+30FC 1
 62
   179
420
  2234388
370
    25
  0
POLYLINE
  5
55
330
41
100
AcDbEntity
  8
_U+30EC_U+30A4_U+30E4_U+30FC 1
 62
   179
420
  2234388
370
    25
100
AcDb2dPolyline
 66
     1
 10
0.0
 20
0.0
 30
0.0
  0
VERTEX
  5
56
330
55
100
AcDbEntity
  8
_U+30EC_U+30A4_U+30E4_U+30FC 1
 62
   179
420
  2234388
370
    25
100
AcDbVertex
100
AcDb2dVertex
 10
129.6082944711947
 20
-137.3194555212258
 30
0.0
  0
VERTEX
  5
57
330
55
100
AcDbEntity
  8
_U+30EC_U+30A4_U+30E4_U+30FC 1
 62
   179
420
  2234388
370
    25
100
AcDbVertex
100
AcDb2dVertex
 10
129.4842610787398
 20
-137.6997852433526
 30
0.0
  0
SEQEND
  5
58
330
55
100
AcDbEntity
  8
_U+30EC_U+30A4_U+30E4_U+30FC 1
 62
   179
420
  2234388
370
    25
  0
POLYLINE
  5
59
330
41
100
AcDbEntity
  8
_U+30EC_U+30A4_U+30E4_U+30FC 1
 62
   179
420
  2234388
370
    25
100
AcDb2dPolyline
 66
     1
 10
0.0
 20
0.0
 30
0.0
  0
VERTEX
  5
5A
330
59
100
AcDbEntity
  8
_U+30EC_U+30A4_U+30E4_U+30FC 1
 62
   179
420
  2234388
370
    25
100
AcDbVertex
100
AcDb2dVertex
 10
91.95752497701044
 20
-126.5580046905826
 30
0.0
  0
VERTEX
  5
5B
330
59
100
AcDbEntity
  8
_U+30EC_U+30A4_U+30E4_U+30FC 1
 62
   179
420
  2234388
370
    25
100
AcDbVertex
100
AcDb2dVertex
 10
129.4842610787398
 20
-137.6997852433526
 30
0.0
  0
SEQEND
  5
5C
330
59
100
AcDbEntity
  8
_U+30EC_U+30A4_U+30E4_U+30FC 1
 62
   179
420
  2234388
370
    25
  0
POLYLINE
  5
5D
330
41
100
AcDbEntity
  8
_U+30EC_U+30A4_U+30E4_U+30FC 1
 62
   179
420
  2234388
370
    25
100
AcDb2dPolyline
 66
     1
 10
0.0
 20
0.0
 30
0.0
  0
VERTEX
  5
5E
330
5D
100
AcDbEntity
  8
_U+30EC_U+30A4_U+30E4_U+30FC 1
 62
   179
420
  2234388
370
    25
100
AcDbVertex
100
AcDb2dVertex
 10
89.72303053312467
 20
-125.2964008020093
 30
0.0
  0
VERTEX
  5
5F
330
5D
100
AcDbEntity
  8
_U+30EC_U+30A4_U+30E4_U+30FC 1
 62
   179
420
  2234388
370
    25
100
AcDbVertex
100
AcDb2dVertex
 10
52.60798609795912
 20
-137.3194555212258
 30
0.0
  0
SEQEND
  5
60
330
5D
100
AcDbEntity
  8
_U+30EC_U+30A4_U+30E4_U+30FC 1
 62
   179
420
  2234388
370
    25
  0
POLYLINE
  5
61
330
41
100
AcDbEntity
  8
_U+30EC_U+30A4_U+30E4_U+30FC 1
 62
   179
420
  2234388
370
    25
100
AcDb2dPolyline
 66
     1
 10
0.0
 20
0.0
 30
0.0
  0
VERTEX
  5
62
330
61
100
AcDbEntity
  8
_U+30EC_U+30A4_U+30E4_U+30FC 1
 62
   179
420
  2234388
370
    25
100
AcDbVertex
100
AcDb2dVertex
 10
52.60798609795912
 20
-137.3194555212258
 30
0.0
  0
VERTEX
  5
63
330
61
100
AcDbEntity
  8
_U+30EC_U+30A4_U+30E4_U+30FC 1
 62
   179
420
  2234388
370
    25
100
AcDbVertex
100
AcDb2dVertex
 10
52.73166865470306
 20
-137.6997852433526
 30
0.0
  0
SEQEND
  5
64
330
61
100
AcDbEntity
  8
_U+30EC_U+30A4_U+30E4_U+30FC 1
 62
   179
420
  2234388
370
    25
  0
POLYLINE
  5
65
330
41
100
AcDbEntity
  8
_U+30EC_U+30A4_U+30E4_U+30FC 1
 62
   179
420
  2234388
370
    25
100
AcDb2dPolyline
 66
     1
 10
0.0
 20
0.0
 30
0.0
  0
VERTEX
  5
66
330
65
100
AcDbEntity
  8
_U+30EC_U+30A4_U+30E4_U+30FC 1
 62
   179
420
  2234388
370
    25
100
AcDbVertex
100
AcDb2dVertex
 10
90.25840380842739
 20
-126.5580046905826
 30
0.0
  0
VERTEX
  5
67
330
65
100
AcDbEntity
  8
_U+30EC_U+30A4_U+30E4_U+30FC 1
 62
   179
420
  2234388
370
    25
100
AcDbVertex
100
AcDb2dVertex
 10
52.73166865470306
 20
-137.6997852433526
 30
0.0
  0
SEQEND
  5
68
330
65
100
AcDbEntity
  8
_U+30EC_U+30A4_U+30E4_U+30FC 1
 62
   179
420
  2234388
370
    25
  0
POLYLINE
  5
69
330
41
100
AcDbEntity
  8
_U+30EC_U+30A4_U+30E4_U+30FC 1
 62
   179
420
  2234388
370
    25
100
AcDb2dPolyline
 66
     1
 10
0.0
 20
0.0
 30
0.0
  0
VERTEX
  5
6A
330
69
100
AcDbEntity
  8
_U+30EC_U+30A4_U+30E4_U+30FC 1
 62
   179
420
  2234388
370
    25
100
AcDbVertex
100
AcDb2dVertex
 10
94.37768398111358
 20
-126.0336358018249
 30
0.0
  0
VERTEX
  5
6B
330
69
100
AcDbEntity
  8
_U+30EC_U+30A4_U+30E4_U+30FC 1
 62
   179
420
  2234388
370
    25
100
AcDbVertex
100
AcDb2dVertex
 10
94.01767426807596
 20
-127.1137002459993
 30
0.0
  0
SEQEND
  5
6C
330
69
100
AcDbEntity
  8
_U+30EC_U+30A4_U+30E4_U+30FC 1
 62
   179
420
  2234388
370
    25
  0
POLYLINE
  5
6D
330
41
100
AcDbEntity
  8
_U+30EC_U+30A4_U+30E4_U+30FC 1
 62
   179
420
  2234388
370
    25
100
AcDb2dPolyline
 66
     1
 10
0.0
 20
0.0
 30
0.0
  0
VERTEX
  5
6E
330
6D
100
AcDbEntity
  8
_U+30EC_U+30A4_U+30E4_U+30FC 1
 62
   179
420
  2234388
370
    25
100
AcDbVertex
100
AcDb2dVertex
 10
87.82755553359868
 20
-125.9523558018454
 30
0.0
  0
VERTEX
  5
6F
330
6D
100
AcDbEntity
  8
_U+30EC_U+30A4_U+30E4_U+30FC 1
 62
   179
420
  2234388
370
    25
100
AcDbVertex
100
AcDb2dVertex
 10
88.21063469400367
 20
-127.1601963570988
 30
0.0
  0
SEQEND
  5
70
330
6D
100
AcDbEntity
  8
_U+30EC_U+30A4_U+30E4_U+30FC 1
 62
   179
420
  2234388
370
    25
  0
SPLINE
  5
71
330
41
100
AcDbEntity
  8
_U+30EC_U+30A4_U+30E4_U+30FC 1
 62
   179
420
  2234388
370
    25
100
AcDbSpline
210
0.0
220
0.0
230
1.0
 70
     8
 71
     3
 72
     8
 73
     4
 74
     0
 42
0.0000000001
 43
0.0000000001
 12
1.0
 22
0.0
 32
0.0
 13
1.0
 23
0.0
 33
0.0
 40
0.0
 40
0.0
 40
0.0
 40
0.0
 40
1.0
 40
1.0
 40
1.0
 40
1.0
 10
91.95752497701044
 20
-126.5580046905826
 30
0.0
 10
91.40285016811902
 20
-126.3939983017347
 30
0.0
 10
90.81307629427651
 20
-126.3939983017347
 30
0.0
 10
90.25840380842739
 20
-126.5580046905826
 30
0.0
  0
SPLINE
  5
72
330
41
100
AcDbEntity
  8
_U+30EC_U+30A4_U+30E4_U+30FC 1
 62
   179
420
  2234388
370
    25
100
AcDbSpline
210
0.0
220
0.0
230
1.0
 70
     8
 71
     3
 72
     8
 73
     4
 74
     0
 42
0.0000000001
 43
0.0000000001
 12
1.0
 22
0.0
 32
0.0
 13
1.0
 23
0.0
 33
0.0
 40
0.0
 40
0.0
 40
0.0
 40
0.0
 40
1.0
 40
1.0
 40
1.0
 40
1.0
 10
92.49289819586514
 20
-125.2964008020093
 30
0.0
 10
91.59303266326707
 20
-125.0035599687491
 30
0.0
 10
90.62289379912848
 20
-125.0035599687491
 30
0.0
 10
89.72303053312467
 20
-125.2964008020093
 30
0.0
  0
SPLINE
  5
73
330
41
100
AcDbEntity
  8
_U+30EC_U+30A4_U+30E4_U+30FC 1
 62
   179
420
  2234388
370
     9
100
AcDbSpline
210
0.0
220
0.0
230
1.0
 70
    11
 71
     3
 72
    17
 73
    13
 74
     0
 42
0.0000000001
 43
0.0000000001
 12
1.0
 22
0.0
 32
0.0
 13
1.0
 23
0.0
 33
0.0
 40
0.0
 40
0.0
 40
0.0
 40
0.0
 40
1.0
 40
1.0
 40
1.0
 40
2.0
 40
2.0
 40
2.0
 40
3.0
 40
3.0
 40
3.0
 40
4.0
 40
4.0
 40
4.0
 40
4.0
 10
130.9463452703915
 20
-133.5160524666209
 30
0.0
 10
130.9463452703915
 20
-133.460948577746
 30
0.0
 10
130.9015777715337
 20
-133.4161457999793
 30
0.0
 10
130.845768328513
 20
-133.4161457999793
 30
0.0
 10
130.7906291632531
 20
-133.4161457999793
 30
0.0
 10
130.7458616643952
 20
-133.460948577746
 30
0.0
 10
130.7458616643952
 20
-133.5160524666209
 30
0.0
 10
130.7458616643952
 20
-133.571191633274
 30
0.0
 10
130.7906291632531
 20
-133.6159591332626
 30
0.0
 10
130.845768328513
 20
-133.6159591332626
 30
0.0
 10
130.9015777715337
 20
-133.6159591332626
 30
0.0
 10
130.9463452703915
 20
-133.571191633274
 30
0.0
 10
130.9463452703915
 20
-133.5160524666209
 30
0.0
  0
SPLINE
  5
74
330
41
100
AcDbEntity
  8
_U+30EC_U+30A4_U+30E4_U+30FC 1
 62
   179
420
  2234388
370
     9
100
AcDbSpline
210
0.0
220
0.0
230
1.0
 70
    11
 71
     3
 72
    17
 73
    13
 74
     0
 42
0.0000000001
 43
0.0000000001
 12
1.0
 22
0.0
 32
0.0
 13
1.0
 23
0.0
 33
0.0
 40
0.0
 40
0.0
 40
0.0
 40
0.0
 40
1.0
 40
1.0
 40
1.0
 40
2.0
 40
2.0
 40
2.0
 40
3.0
 40
3.0
 40
3.0
 40
4.0
 40
4.0
 40
4.0
 40
4.0
 10
89.50599938317838
 20
-121.1350694141607
 30
0.0
 10
89.50599938317838
 20
-121.0799655252854
 30
0.0
 10
89.46119660654362
 20
-121.035162747519
 30
0.0
 10
89.40538716352299
 20
-121.035162747519
 30
0.0
 10
89.35028327603992
 20
-121.035162747519
 30
0.0
 10
89.30548049940516
 20
-121.0799655252854
 30
0.0
 10
89.30548049940516
 20
-121.1350694141607
 30
0.0
 10
89.30548049940516
 20
-121.1902085808134
 30
0.0
 10
89.35028327603992
 20
-121.2349760808023
 30
0.0
 10
89.40538716352299
 20
-121.2349760808023
 30
0.0
 10
89.46119660654362
 20
-121.2349760808023
 30
0.0
 10
89.50599938317838
 20
-121.1902085808134
 30
0.0
 10
89.50599938317838
 20
-121.1350694141607
 30
0.0
  0
SPLINE
  5
75
330
41
100
AcDbEntity
  8
_U+30EC_U+30A4_U+30E4_U+30FC 1
 62
   179
420
  2234388
370
     9
100
AcDbSpline
210
0.0
220
0.0
230
1.0
 70
    11
 71
     3
 72
    17
 73
    13
 74
     0
 42
0.0000000001
 43
0.0000000001
 12
1.0
 22
0.0
 32
0.0
 13
1.0
 23
0.0
 33
0.0
 40
0.0
 40
0.0
 40
0.0
 40
0.0
 40
1.0
 40
1.0
 40
1.0
 40
2.0
 40
2.0
 40
2.0
 40
3.0
 40
3.0
 40
3.0
 40
4.0
 40
4.0
 40
4.0
 40
4.0
 10
92.91044596299038
 20
-121.1350694141607
 30
0.0
 10
92.91044596299038
 20
-121.0799655252854
 30
0.0
 10
92.86564318635561
 20
-121.035162747519
 30
0.0
 10
92.81054164346372
 20
-121.035162747519
 30
0.0
 10
92.7554001336126
 20
-121.035162747519
 30
0.0
 10
92.71063263475472
 20
-121.0799655252854
 30
0.0
 10
92.71063263475472
 20
-121.1350694141607
 30
0.0
 10
92.71063263475472
 20
-121.1902085808134
 30
0.0
 10
92.7554001336126
 20
-121.2349760808023
 30
0.0
 10
92.81054164346372
 20
-121.2349760808023
 30
0.0
 10
92.86564318635561
 20
-121.2349760808023
 30
0.0
 10
92.91044596299038
 20
-121.1902085808134
 30
0.0
 10
92.91044596299038
 20
-121.1350694141607
 30
0.0
  0
SPLINE
  5
76
330
41
100
AcDbEntity
  8
_U+30EC_U+30A4_U+30E4_U+30FC 1
 62
   179
420
  2234388
370
     9
100
AcDbSpline
210
0.0
220
0.0
230
1.0
 70
    11
 71
     3
 72
    17
 73
    13
 74
     0
 42
0.0000000001
 43
0.0000000001
 12
1.0
 22
0.0
 32
0.0
 13
1.0
 23
0.0
 33
0.0
 40
0.0
 40
0.0
 40
0.0
 40
0.0
 40
1.0
 40
1.0
 40
1.0
 40
2.0
 40
2.0
 40
2.0
 40
3.0
 40
3.0
 40
3.0
 40
4.0
 40
4.0
 40
4.0
 40
4.0
 10
51.47006479800037
 20
-133.5160524666209
 30
0.0
 10
51.47006479800037
 20
-133.460948577746
 30
0.0
 10
51.42529729914248
 20
-133.4161457999793
 30
0.0
 10
51.37015813388253
 20
-133.4161457999793
 30
0.0
 10
51.31470276494905
 20
-133.4161457999793
 30
0.0
 10
51.26989998718265
 20
-133.460948577746
 30
0.0
 10
51.26989998718265
 20
-133.5160524666209
 30
0.0
 10
51.26989998718265
 20
-133.571191633274
 30
0.0
 10
51.31470276494905
 20
-133.6159591332626
 30
0.0
 10
51.37015813388253
 20
-133.6159591332626
 30
0.0
 10
51.42529729914248
 20
-133.6159591332626
 30
0.0
 10
51.47006479800037
 20
-133.571191633274
 30
0.0
 10
51.47006479800037
 20
-133.5160524666209
 30
0.0
  0
INSERT
  5
78
330
41
100
AcDbEntity
  8
_U+30EC_U+30A4_U+30E4_U+30FC 1
100
AcDbBlockReference
  2
block 3
 10
0.0
 20
0.0
 30
0.0
  0
POLYLINE
  5
D1
330
41
100
AcDbEntity
  8
_U+30EC_U+30A4_U+30E4_U+30FC 1
 62
   179
420
  2234388
370
     9
100
AcDb2dPolyline
 66
     1
 10
0.0
 20
0.0
 30
0.0
  0
VERTEX
  5
D2
330
D1
100
AcDbEntity
  8
_U+30EC_U+30A4_U+30E4_U+30FC 1
 62
   179
420
  2234388
370
     9
100
AcDbVertex
100
AcDb2dVertex
 10
92.81054164346372
 20
-121.1350694141607
 30
0.0
  0
VERTEX
  5
D3
330
D1
100
AcDbEntity
  8
_U+30EC_U+30A4_U+30E4_U+30FC 1
 62
   179
420
  2234388
370
     9
100
AcDbVertex
100
AcDb2dVertex
 10
130.845768328513
 20
-133.5160524666209
 30
0.0
  0
SEQEND
  5
D4
330
D1
100
AcDbEntity
  8
_U+30EC_U+30A4_U+30E4_U+30FC 1
 62
   179
420
  2234388
370
     9
  0
POLYLINE
  5
D5
330
41
100
AcDbEntity
  8
_U+30EC_U+30A4_U+30E4_U+30FC 1
 62
   179
420
  2234388
370
     9
100
AcDb2dPolyline
 66
     1
 10
0.0
 20
0.0
 30
0.0
  0
VERTEX
  5
D6
330
D5
100
AcDbEntity
  8
_U+30EC_U+30A4_U+30E4_U+30FC 1
 62
   179
420
  2234388
370
     9
100
AcDbVertex
100
AcDb2dVertex
 10
91.8941284889188
 20
-123.9497069134571
 30
0.0
  0
VERTEX
  5
D7
330
D5
100
AcDbEntity
  8
_U+30EC_U+30A4_U+30E4_U+30FC 1
 62
   179
420
  2234388
370
     9
100
AcDbVertex
100
AcDb2dVertex
 10
93.11989012431368
 20
-120.1842274699538
 30
0.0
  0
SEQEND
  5
D8
330
D5
100
AcDbEntity
  8
_U+30EC_U+30A4_U+30E4_U+30FC 1
 62
   179
420
  2234388
370
     9
  0
POLYLINE
  5
D9
330
41
100
AcDbEntity
  8
_U+30EC_U+30A4_U+30E4_U+30FC 1
 62
   179
420
  2234388
370
     9
100
AcDb2dPolyline
 66
     1
 10
0.0
 20
0.0
 30
0.0
  0
VERTEX
  5
DA
330
D9
100
AcDbEntity
  8
_U+30EC_U+30A4_U+30E4_U+30FC 1
 62
   179
420
  2234388
370
     9
100
AcDbVertex
100
AcDb2dVertex
 10
130.3944597289157
 20
-134.9044446884963
 30
0.0
  0
VERTEX
  5
DB
330
D9
100
AcDbEntity
  8
_U+30EC_U+30A4_U+30E4_U+30FC 1
 62
   179
420
  2234388
370
     9
100
AcDbVertex
100
AcDb2dVertex
 10
131.1558247094917
 20
-132.5652105224144
 30
0.0
  0
SEQEND
  5
DC
330
D9
100
AcDbEntity
  8
_U+30EC_U+30A4_U+30E4_U+30FC 1
 62
   179
420
  2234388
370
     9
  0
INSERT
  5
DE
330
41
100
AcDbEntity
  8
_U+30EC_U+30A4_U+30E4_U+30FC 1
100
AcDbBlockReference
  2
block 4
 10
0.0
 20
0.0
 30
0.0
  0
POLYLINE
  5
F9
330
41
100
AcDbEntity
  8
_U+30EC_U+30A4_U+30E4_U+30FC 1
 62
   179
420
  2234388
370
     9
100
AcDb2dPolyline
 66
     1
 10
0.0
 20
0.0
 30
0.0
  0
VERTEX
  5
FA
330
F9
100
AcDbEntity
  8
_U+30EC_U+30A4_U+30E4_U+30FC 1
 62
   179
420
  2234388
370
     9
100
AcDbVertex
100
AcDb2dVertex
 10
51.37015813388253
 20
-133.5160524666209
 30
0.0
  0
VERTEX
  5
FB
330
F9
100
AcDbEntity
  8
_U+30EC_U+30A4_U+30E4_U+30FC 1
 62
   179
420
  2234388
370
     9
100
AcDbVertex
100
AcDb2dVertex
 10
89.40538716352299
 20
-121.1350694141607
 30
0.0
  0
SEQEND
  5
FC
330
F9
100
AcDbEntity
  8
_U+30EC_U+30A4_U+30E4_U+30FC 1
 62
   179
420
  2234388
370
     9
  0
POLYLINE
  5
FD
330
41
100
AcDbEntity
  8
_U+30EC_U+30A4_U+30E4_U+30FC 1
 62
   179
420
  2234388
370
     9
100
AcDb2dPolyline
 66
     1
 10
0.0
 20
0.0
 30
0.0
  0
VERTEX
  5
FE
330
FD
100
AcDbEntity
  8
_U+30EC_U+30A4_U+30E4_U+30FC 1
 62
   179
420
  2234388
370
     9
100
AcDbVertex
100
AcDb2dVertex
 10
51.82181951124857
 20
-134.9044446884963
 30
0.0
  0
VERTEX
  5
FF
330
FD
100
AcDbEntity
  8
_U+30EC_U+30A4_U+30E4_U+30FC 1
 62
   179
420
  2234388
370
     9
100
AcDbVertex
100
AcDb2dVertex
 10
51.06045453067262
 20
-132.5652105224144
 30
0.0
  0
SEQEND
  5
100
330
FD
100
AcDbEntity
  8
_U+30EC_U+30A4_U+30E4_U+30FC 1
 62
   179
420
  2234388
370
     9
  0
POLYLINE
  5
101
330
41
100
AcDbEntity
  8
_U+30EC_U+30A4_U+30E4_U+30FC 1
 62
   179
420
  2234388
370
     9
100
AcDb2dPolyline
 66
     1
 10
0.0
 20
0.0
 30
0.0
  0
VERTEX
  5
102
330
101
100
AcDbEntity
  8
_U+30EC_U+30A4_U+30E4_U+30FC 1
 62
   179
420
  2234388
370
     9
100
AcDbVertex
100
AcDb2dVertex
 10
90.32179797347673
 20
-123.9497069134571
 30
0.0
  0
VERTEX
  5
103
330
101
100
AcDbEntity
  8
_U+30EC_U+30A4_U+30E4_U+30FC 1
 62
   179
420
  2234388
370
     9
100
AcDbVertex
100
AcDb2dVertex
 10
89.09603633808186
 20
-120.1842274699538
 30
0.0
  0
SEQEND
  5
104
330
101
100
AcDbEntity
  8
_U+30EC_U+30A4_U+30E4_U+30FC 1
 62
   179
420
  2234388
370
     9
  0
INSERT
  5
106
330
41
100
AcDbEntity
  8
_U+30EC_U+30A4_U+30E4_U+30FC 1
100
AcDbBlockReference
  2
block 5
 10
0.0
 20
0.0
 30
0.0
  0
ENDBLK
  5
44
330
41
100
AcDbEntity
  8
0
100
AcDbBlockEnd
  0
BLOCK
  5
79
330
77
100
AcDbEntity
  8
0
100
AcDbBlockBegin
  2
block 3
 70
     0
 10
0.0
 20
0.0
 30
0.0
  3
block 3
  1

  0
SPLINE
  5
7B
330
77
100
AcDbEntity
  8
_U+30EC_U+30A4_U+30E4_U+30FC 1
370
     0
100
AcDbSpline
210
0.0
220
0.0
230
1.0
 70
    11
 71
     3
 72
   197
 73
   193
 74
     0
 42
0.0000000001
 43
0.0000000001
 12
1.0
 22
0.0
 32
0.0
 13
1.0
 23
0.0
 33
0.0
 40
0.0
 40
0.0
 40
0.0
 40
0.0
 40
1.0
 40
1.0
 40
1.0
 40
2.0
 40
2.0
 40
2.0
 40
3.0
 40
3.0
 40
3.0
 40
4.0
 40
4.0
 40
4.0
 40
5.0
 40
5.0
 40
5.0
 40
6.0
 40
6.0
 40
6.0
 40
7.0
 40
7.0
 40
7.0
 40
8.0
 40
8.0
 40
8.0
 40
9.0
 40
9.0
 40
9.0
 40
10.0
 40
10.0
 40
10.0
 40
11.0
 40
11.0
 40
11.0
 40
12.0
 40
12.0
 40
12.0
 40
13.0
 40
13.0
 40
13.0
 40
14.0
 40
14.0
 40
14.0
 40
15.0
 40
15.0
 40
15.0
 40
16.0
 40
16.0
 40
16.0
 40
17.0
 40
17.0
 40
17.0
 40
18.0
 40
18.0
 40
18.0
 40
19.0
 40
19.0
 40
19.0
 40
20.0
 40
20.0
 40
20.0
 40
21.0
 40
21.0
 40
21.0
 40
22.0
 40
22.0
 40
22.0
 40
23.0
 40
23.0
 40
23.0
 40
24.0
 40
24.0
 40
24.0
 40
25.0
 40
25.0
 40
25.0
 40
26.0
 40
26.0
 40
26.0
 40
27.0
 40
27.0
 40
27.0
 40
28.0
 40
28.0
 40
28.0
 40
29.0
 40
29.0
 40
29.0
 40
30.0
 40
30.0
 40
30.0
 40
31.0
 40
31.0
 40
31.0
 40
32.0
 40
32.0
 40
32.0
 40
33.0
 40
33.0
 40
33.0
 40
34.0
 40
34.0
 40
34.0
 40
35.0
 40
35.0
 40
35.0
 40
36.0
 40
36.0
 40
36.0
 40
37.0
 40
37.0
 40
37.0
 40
38.0
 40
38.0
 40
38.0
 40
39.0
 40
39.0
 40
39.0
 40
40.0
 40
40.0
 40
40.0
 40
41.0
 40
41.0
 40
41.0
 40
42.0
 40
42.0
 40
42.0
 40
43.0
 40
43.0
 40
43.0
 40
44.0
 40
44.0
 40
44.0
 40
45.0
 40
45.0
 40
45.0
 40
46.0
 40
46.0
 40
46.0
 40
47.0
 40
47.0
 40
47.0
 40
48.0
 40
48.0
 40
48.0
 40
49.0
 40
49.0
 40
49.0
 40
50.0
 40
50.0
 40
50.0
 40
51.0
 40
51.0
 40
51.0
 40
52.0
 40
52.0
 40
52.0
 40
53.0
 40
53.0
 40
53.0
 40
54.0
 40
54.0
 40
54.0
 40
55.0
 40
55.0
 40
55.0
 40
56.0
 40
56.0
 40
56.0
 40
57.0
 40
57.0
 40
57.0
 40
58.0
 40
58.0
 40
58.0
 40
59.0
 40
59.0
 40
59.0
 40
60.0
 40
60.0
 40
60.0
 40
61.0
 40
61.0
 40
61.0
 40
62.0
 40
62.0
 40
62.0
 40
63.0
 40
63.0
 40
63.0
 40
64.0
 40
64.0
 40
64.0
 40
64.0
 10
89.7252726012666
 20
-116.1687920173988
 30
0.0
 10
89.71459280526233
 20
-116.1982475837977
 30
0.0
 10
89.69116615596263
 20
-116.2449286276228
 30
0.0
 10
89.68083086950688
 20
-116.2723171367305
 30
0.0
 10
89.68083086950688
 20
-116.2723171367305
 30
0.0
 10
89.61950816986943
 20
-116.4247626119528
 30
0.0
 10
89.61950816986943
 20
-116.4247626119528
 30
0.0
 10
89.60882837386515
 20
-116.4500840637694
 30
0.0
 10
89.56025252752313
 20
-116.5622219218143
 30
0.0
 10
89.54750567422771
 20
-116.5854763163398
 30
0.0
 10
89.54543861693656
 20
-116.5918497429875
 30
0.0
 10
89.54095999280574
 20
-116.6002902269263
 30
0.0
 10
89.53889293551458
 20
-116.606663653574
 30
0.0
 10
89.53889293551458
 20
-116.606663653574
 30
0.0
 10
89.3294311300114
 20
-116.5537814378754
 30
0.0
 10
89.3294311300114
 20
-116.5537814378754
 30
0.0
 10
89.4079793070751
 20
-116.4437106371217
 30
0.0
 10
89.46930200671254
 20
-116.3083183845514
 30
0.0
 10
89.50099688517683
 20
-116.1982475837977
 30
0.0
 10
89.50099688517683
 20
-116.1982475837977
 30
0.0
 10
89.03556448511958
 20
-116.1982475837977
 30
0.0
 10
89.03556448511958
 20
-116.1982475837977
 30
0.0
 10
88.95494925076474
 20
-116.3632676575411
 30
0.0
 10
88.88742537925384
 20
-116.4416435798306
 30
0.0
 10
88.85366344349839
 20
-116.4817789422337
 30
0.0
 10
88.85366344349839
 20
-116.4817789422337
 30
0.0
 10
88.7310180442235
 20
-116.4161498732397
 30
0.0
 10
88.7310180442235
 20
-116.4161498732397
 30
0.0
 10
88.7310180442235
 20
-116.4161498732397
 30
0.0
 10
88.7310180442235
 20
-116.5875433736309
 30
0.0
 10
88.7310180442235
 20
-116.5875433736309
 30
0.0
 10
88.7310180442235
 20
-116.6955471170935
 30
0.0
 10
88.73308510151465
 20
-116.7441229634355
 30
0.0
 10
88.7434203879704
 20
-116.8498873948327
 30
0.0
 10
88.6717624018772
 20
-116.8478203375415
 30
0.0
 10
88.65040280986865
 20
-116.8478203375415
 30
0.0
 10
88.44541962849628
 20
-116.8478203375415
 30
0.0
 10
88.44541962849628
 20
-116.8478203375415
 30
0.0
 10
88.3902981007323
 20
-116.8478203375415
 30
0.0
 10
88.3902981007323
 20
-116.8478203375415
 30
0.0
 10
88.3902981007323
 20
-116.8478203375415
 30
0.0
 10
88.3902981007323
 20
-116.9832125901118
 30
0.0
 10
88.3902981007323
 20
-116.9832125901118
 30
0.0
 10
88.3902981007323
 20
-116.9832125901118
 30
0.0
 10
88.462300596374
 20
-116.9832125901118
 30
0.0
 10
88.462300596374
 20
-116.9832125901118
 30
0.0
 10
88.52775741059376
 20
-116.9832125901118
 30
0.0
 10
88.67382945916835
 20
-116.9789062207553
 30
0.0
 10
88.77959389056552
 20
-116.9704657368164
 30
0.0
 10
88.77959389056552
 20
-116.9704657368164
 30
0.0
 10
88.77959389056552
 20
-117.1482326638553
 30
0.0
 10
88.77959389056552
 20
-117.1482326638553
 30
0.0
 10
88.68209768833295
 20
-117.1418592372076
 30
0.0
 10
88.52362329601146
 20
-117.137552867851
 30
0.0
 10
88.462300596374
 20
-117.137552867851
 30
0.0
 10
88.462300596374
 20
-117.137552867851
 30
0.0
 10
88.3902981007323
 20
-117.137552867851
 30
0.0
 10
88.3902981007323
 20
-117.137552867851
 30
0.0
 10
88.39236515802344
 20
-117.2264363313705
 30
0.0
 10
88.39649927260574
 20
-117.4655259580468
 30
0.0
 10
88.3985663298969
 20
-117.5395955109797
 30
0.0
 10
88.3985663298969
 20
-117.5395955109797
 30
0.0
 10
88.19771726310682
 20
-117.5395955109797
 30
0.0
 10
88.19771726310682
 20
-117.5395955109797
 30
0.0
 10
88.21046411640225
 20
-117.3258273361199
 30
0.0
 10
88.21046411640225
 20
-117.2961995149468
 30
0.0
 10
88.21459823098455
 20
-117.137552867851
 30
0.0
 10
88.21459823098455
 20
-117.137552867851
 30
0.0
 10
88.1450073021825
 20
-117.137552867851
 30
0.0
 10
88.1450073021825
 20
-117.137552867851
 30
0.0
 10
88.08781871712735
 20
-117.137552867851
 30
0.0
 10
87.93554549667931
 20
-117.1418592372076
 30
0.0
 10
87.82530244115132
 20
-117.1482326638553
 30
0.0
 10
87.82530244115132
 20
-117.1482326638553
 30
0.0
 10
87.82530244115132
 20
-116.9704657368164
 30
0.0
 10
87.82530244115132
 20
-116.9704657368164
 30
0.0
 10
87.93106687254848
 20
-116.9789062207553
 30
0.0
 10
88.07507186383194
 20
-116.9832125901118
 30
0.0
 10
88.1450073021825
 20
-116.9832125901118
 30
0.0
 10
88.1450073021825
 20
-116.9832125901118
 30
0.0
 10
88.21873234556685
 20
-116.9832125901118
 30
0.0
 10
88.21873234556685
 20
-116.9832125901118
 30
0.0
 10
88.21873234556685
 20
-116.9832125901118
 30
0.0
 10
88.21873234556685
 20
-116.8478203375415
 30
0.0
 10
88.21873234556685
 20
-116.8478203375415
 30
0.0
 10
88.21873234556685
 20
-116.8478203375415
 30
0.0
 10
88.17463512335566
 20
-116.8478203375415
 30
0.0
 10
88.17463512335566
 20
-116.8478203375415
 30
0.0
 10
88.0981540035831
 20
-116.8478203375415
 30
0.0
 10
87.90591767550616
 20
-116.8498873948327
 30
0.0
 10
87.87181123020218
 20
-116.8498873948327
 30
0.0
 10
87.87835691162417
 20
-116.7780571539652
 30
0.0
 10
87.88662514078877
 20
-116.6976141743846
 30
0.0
 10
87.88662514078877
 20
-116.5770358324009
 30
0.0
 10
87.88662514078877
 20
-116.5770358324009
 30
0.0
 10
87.88662514078877
 20
-116.4035752747186
 30
0.0
 10
87.88662514078877
 20
-116.4035752747186
 30
0.0
 10
87.88662514078877
 20
-116.3315727790768
 30
0.0
 10
87.87835691162417
 20
-116.2109944370931
 30
0.0
 10
87.87181123020218
 20
-116.1307237122868
 30
0.0
 10
87.95035940726589
 20
-116.1348578268691
 30
0.0
 10
87.98825545760363
 20
-116.1369248841602
 30
0.0
 10
88.11537948100936
 20
-116.1369248841602
 30
0.0
 10
88.11537948100936
 20
-116.1369248841602
 30
0.0
 10
88.21873234556685
 20
-116.1369248841602
 30
0.0
 10
88.21873234556685
 20
-116.1369248841602
 30
0.0
 10
88.21873234556685
 20
-116.1369248841602
 30
0.0
 10
88.21873234556685
 20
-115.9910250903599
 30
0.0
 10
88.21873234556685
 20
-115.9910250903599
 30
0.0
 10
88.21873234556685
 20
-115.9910250903599
 30
0.0
 10
88.14052867805168
 20
-115.9910250903599
 30
0.0
 10
88.14052867805168
 20
-115.9910250903599
 30
0.0
 10
88.0857516598362
 20
-115.9910250903599
 30
0.0
 10
87.91418590467076
 20
-115.9953314597165
 30
0.0
 10
87.82978106528215
 20
-116.0015326315899
 30
0.0
 10
87.82978106528215
 20
-116.0015326315899
 30
0.0
 10
87.82978106528215
 20
-115.8239379593253
 30
0.0
 10
87.82978106528215
 20
-115.8239379593253
 30
0.0
 10
87.91211884737962
 20
-115.830311385973
 30
0.0
 10
88.07507186383194
 20
-115.8344455005553
 30
0.0
 10
88.14052867805168
 20
-115.8344455005553
 30
0.0
 10
88.14052867805168
 20
-115.8344455005553
 30
0.0
 10
88.21873234556685
 20
-115.8344455005553
 30
0.0
 10
88.21873234556685
 20
-115.8344455005553
 30
0.0
 10
88.21873234556685
 20
-115.8006835647998
 30
0.0
 10
88.21459823098455
 20
-115.6461710322864
 30
0.0
 10
88.21459823098455
 20
-115.6144761538221
 30
0.0
 10
88.21459823098455
 20
-115.6144761538221
 30
0.0
 10
88.41131318319232
 20
-115.6313571216998
 30
0.0
 10
88.41131318319232
 20
-115.6313571216998
 30
0.0
 10
88.42819415107004
 20
-115.6334241789909
 30
0.0
 10
88.44955374307858
 20
-115.6356634910564
 30
0.0
 10
88.44955374307858
 20
-115.6566785735164
 30
0.0
 10
88.44955374307858
 20
-115.6801052228161
 30
0.0
 10
88.42819415107004
 20
-115.688545706755
 30
0.0
 10
88.40097789673656
 20
-115.7011203052761
 30
0.0
 10
88.40097789673656
 20
-115.7223076425104
 30
0.0
 10
88.3985663298969
 20
-115.8175645326776
 30
0.0
 10
88.3985663298969
 20
-115.8344455005553
 30
0.0
 10
88.3985663298969
 20
-115.8344455005553
 30
0.0
 10
88.45782197224318
 20
-115.8344455005553
 30
0.0
 10
88.45782197224318
 20
-115.8344455005553
 30
0.0
 10
88.52569035330261
 20
-115.8344455005553
 30
0.0
 10
88.66935083503753
 20
-115.830311385973
 30
0.0
 10
88.7751152664347
 20
-115.8239379593253
 30
0.0
 10
88.7751152664347
 20
-115.8239379593253
 30
0.0
 10
88.7751152664347
 20
-116.0015326315899
 30
0.0
 10
88.7751152664347
 20
-116.0015326315899
 30
0.0
 10
88.67796357375065
 20
-115.9953314597165
 30
0.0
 10
88.52155623872031
 20
-115.9910250903599
 30
0.0
 10
88.45782197224318
 20
-115.9910250903599
 30
0.0
 10
88.45782197224318
 20
-115.9910250903599
 30
0.0
 10
88.3902981007323
 20
-115.9910250903599
 30
0.0
 10
88.3902981007323
 20
-115.9910250903599
 30
0.0
 10
88.3902981007323
 20
-115.9910250903599
 30
0.0
 10
88.3902981007323
 20
-116.1369248841602
 30
0.0
 10
88.3902981007323
 20
-116.1369248841602
 30
0.0
 10
88.3902981007323
 20
-116.1369248841602
 30
0.0
 10
88.46023353908286
 20
-116.1369248841602
 30
0.0
 10
88.46023353908286
 20
-116.1369248841602
 30
0.0
 10
88.61009519269123
 20
-116.1369248841602
 30
0.0
 10
88.68209768833295
 20
-116.1327907695779
 30
0.0
 10
88.7434203879704
 20
-116.1307237122868
 30
0.0
 10
88.7351521588058
 20
-116.2258083476797
 30
0.0
 10
88.73308510151465
 20
-116.3041842699691
 30
0.0
 10
88.7310180442235
 20
-116.3422525750811
 30
0.0
 10
88.8853583219627
 20
-116.1307237122868
 30
0.0
 10
88.99112275335986
 20
-115.8831936016716
 30
0.0
 10
89.00800372123759
 20
-115.6208495804698
 30
0.0
 10
89.00800372123759
 20
-115.6208495804698
 30
0.0
 10
89.22366669861422
 20
-115.671492484103
 30
0.0
 10
89.22366669861422
 20
-115.671492484103
 30
0.0
 10
89.2384806092008
 20
-115.6757988534595
 30
0.0
 10
89.25329451978737
 20
-115.6821722801072
 30
0.0
 10
89.25329451978737
 20
-115.699053247985
 30
0.0
 10
89.25329451978737
 20
-115.7159342158627
 30
0.0
 10
89.24916040520507
 20
-115.7181735279281
 30
0.0
 10
89.1985175015719
 20
-115.7391886103881
 30
0.0
 10
89.18129202414565
 20
-115.8154974753864
 30
0.0
 10
89.15614282710332
 20
-115.906447996197
 30
0.0
 10
89.1075669807613
 20
-116.0333997648285
 30
0.0
 10
89.1075669807613
 20
-116.0333997648285
 30
0.0
 10
89.44587535741285
 20
-116.0333997648285
 30
0.0
 10
89.44587535741285
 20
-116.0333997648285
 30
0.0
 10
89.4841159172991
 20
-116.0333997648285
 30
0.0
 10
89.61296248844745
 20
-116.0290933954719
 30
0.0
 10
89.66153833478948
 20
-116.0227199688242
 30
0.0
 10
89.66153833478948
 20
-116.0227199688242
 30
0.0
 10
89.75490042243975
 20
-116.0924831524005
 30
0.0
 10
89.75490042243975
 20
-116.0924831524005
 30
0.0
 10
89.74628768372662
 20
-116.1136704896348
 30
0.0
 10
89.74008651185318
 20
-116.1327907695779
 30
0.0
 10
89.7252726012666
 20
-116.1687920173988
 30
0.0
  0
POLYLINE
  5
7C
330
77
100
AcDbEntity
  8
_U+30EC_U+30A4_U+30E4_U+30FC 1
370
     0
100
AcDb2dPolyline
 66
     1
 10
0.0
 20
0.0
 30
0.0
  0
VERTEX
  5
7D
330
7C
100
AcDbEntity
  8
_U+30EC_U+30A4_U+30E4_U+30FC 1
370
     0
100
AcDbVertex
100
AcDb2dVertex
 10
88.21873234556685
 20
-116.2935044739648
 30
0.0
  0
VERTEX
  5
7E
330
7C
100
AcDbEntity
  8
_U+30EC_U+30A4_U+30E4_U+30FC 1
370
     0
100
AcDbVertex
100
AcDb2dVertex
 10
88.06025795324535
 20
-116.2935044739648
 30
0.0
  0
VERTEX
  5
7F
330
7C
100
AcDbEntity
  8
_U+30EC_U+30A4_U+30E4_U+30FC 1
370
     0
100
AcDbVertex
100
AcDb2dVertex
 10
88.06025795324535
 20
-116.4225232998874
 30
0.0
  0
VERTEX
  5
80
330
7C
100
AcDbEntity
  8
_U+30EC_U+30A4_U+30E4_U+30FC 1
370
     0
100
AcDbVertex
100
AcDb2dVertex
 10
88.21873234556685
 20
-116.4225232998874
 30
0.0
  0
VERTEX
  5
81
330
7C
100
AcDbEntity
  8
_U+30EC_U+30A4_U+30E4_U+30FC 1
370
     0
100
AcDbVertex
100
AcDb2dVertex
 10
88.21873234556685
 20
-116.2935044739648
 30
0.0
  0
SEQEND
  5
82
330
7C
100
AcDbEntity
  8
_U+30EC_U+30A4_U+30E4_U+30FC 1
370
     0
  0
POLYLINE
  5
83
330
77
100
AcDbEntity
  8
_U+30EC_U+30A4_U+30E4_U+30FC 1
370
     0
100
AcDb2dPolyline
 66
     1
 10
0.0
 20
0.0
 30
0.0
  0
VERTEX
  5
84
330
83
100
AcDbEntity
  8
_U+30EC_U+30A4_U+30E4_U+30FC 1
370
     0
100
AcDbVertex
100
AcDb2dVertex
 10
88.21873234556685
 20
-116.5663560363966
 30
0.0
  0
VERTEX
  5
85
330
83
100
AcDbEntity
  8
_U+30EC_U+30A4_U+30E4_U+30FC 1
370
     0
100
AcDbVertex
100
AcDb2dVertex
 10
88.06025795324535
 20
-116.5663560363966
 30
0.0
  0
VERTEX
  5
86
330
83
100
AcDbEntity
  8
_U+30EC_U+30A4_U+30E4_U+30FC 1
370
     0
100
AcDbVertex
100
AcDb2dVertex
 10
88.06025795324535
 20
-116.6955471170935
 30
0.0
  0
VERTEX
  5
87
330
83
100
AcDbEntity
  8
_U+30EC_U+30A4_U+30E4_U+30FC 1
370
     0
100
AcDbVertex
100
AcDb2dVertex
 10
88.21873234556685
 20
-116.6955471170935
 30
0.0
  0
VERTEX
  5
88
330
83
100
AcDbEntity
  8
_U+30EC_U+30A4_U+30E4_U+30FC 1
370
     0
100
AcDbVertex
100
AcDb2dVertex
 10
88.21873234556685
 20
-116.5663560363966
 30
0.0
  0
SEQEND
  5
89
330
83
100
AcDbEntity
  8
_U+30EC_U+30A4_U+30E4_U+30FC 1
370
     0
  0
POLYLINE
  5
8A
330
77
100
AcDbEntity
  8
_U+30EC_U+30A4_U+30E4_U+30FC 1
370
     0
100
AcDb2dPolyline
 66
     1
 10
0.0
 20
0.0
 30
0.0
  0
VERTEX
  5
8B
330
8A
100
AcDbEntity
  8
_U+30EC_U+30A4_U+30E4_U+30FC 1
370
     0
100
AcDbVertex
100
AcDb2dVertex
 10
88.55118405989346
 20
-116.2935044739648
 30
0.0
  0
VERTEX
  5
8C
330
8A
100
AcDbEntity
  8
_U+30EC_U+30A4_U+30E4_U+30FC 1
370
     0
100
AcDbVertex
100
AcDb2dVertex
 10
88.3902981007323
 20
-116.2935044739648
 30
0.0
  0
VERTEX
  5
8D
330
8A
100
AcDbEntity
  8
_U+30EC_U+30A4_U+30E4_U+30FC 1
370
     0
100
AcDbVertex
100
AcDb2dVertex
 10
88.3902981007323
 20
-116.4225232998874
 30
0.0
  0
VERTEX
  5
8E
330
8A
100
AcDbEntity
  8
_U+30EC_U+30A4_U+30E4_U+30FC 1
370
     0
100
AcDbVertex
100
AcDb2dVertex
 10
88.55118405989346
 20
-116.4225232998874
 30
0.0
  0
VERTEX
  5
8F
330
8A
100
AcDbEntity
  8
_U+30EC_U+30A4_U+30E4_U+30FC 1
370
     0
100
AcDbVertex
100
AcDb2dVertex
 10
88.55118405989346
 20
-116.2935044739648
 30
0.0
  0
SEQEND
  5
90
330
8A
100
AcDbEntity
  8
_U+30EC_U+30A4_U+30E4_U+30FC 1
370
     0
  0
POLYLINE
  5
91
330
77
100
AcDbEntity
  8
_U+30EC_U+30A4_U+30E4_U+30FC 1
370
     0
100
AcDb2dPolyline
 66
     1
 10
0.0
 20
0.0
 30
0.0
  0
VERTEX
  5
92
330
91
100
AcDbEntity
  8
_U+30EC_U+30A4_U+30E4_U+30FC 1
370
     0
100
AcDbVertex
100
AcDb2dVertex
 10
88.55118405989346
 20
-116.5663560363966
 30
0.0
  0
VERTEX
  5
93
330
91
100
AcDbEntity
  8
_U+30EC_U+30A4_U+30E4_U+30FC 1
370
     0
100
AcDbVertex
100
AcDb2dVertex
 10
88.3902981007323
 20
-116.5663560363966
 30
0.0
  0
VERTEX
  5
94
330
91
100
AcDbEntity
  8
_U+30EC_U+30A4_U+30E4_U+30FC 1
370
     0
100
AcDbVertex
100
AcDb2dVertex
 10
88.3902981007323
 20
-116.6955471170935
 30
0.0
  0
VERTEX
  5
95
330
91
100
AcDbEntity
  8
_U+30EC_U+30A4_U+30E4_U+30FC 1
370
     0
100
AcDbVertex
100
AcDb2dVertex
 10
88.55118405989346
 20
-116.6955471170935
 30
0.0
  0
VERTEX
  5
96
330
91
100
AcDbEntity
  8
_U+30EC_U+30A4_U+30E4_U+30FC 1
370
     0
100
AcDbVertex
100
AcDb2dVertex
 10
88.55118405989346
 20
-116.5663560363966
 30
0.0
  0
SEQEND
  5
97
330
91
100
AcDbEntity
  8
_U+30EC_U+30A4_U+30E4_U+30FC 1
370
     0
  0
SPLINE
  5
98
330
77
100
AcDbEntity
  8
_U+30EC_U+30A4_U+30E4_U+30FC 1
370
     0
100
AcDbSpline
210
0.0
220
0.0
230
1.0
 70
    11
 71
     3
 72
    41
 73
    37
 74
     0
 42
0.0000000001
 43
0.0000000001
 12
1.0
 22
0.0
 32
0.0
 13
1.0
 23
0.0
 33
0.0
 40
0.0
 40
0.0
 40
0.0
 40
0.0
 40
1.0
 40
1.0
 40
1.0
 40
2.0
 40
2.0
 40
2.0
 40
3.0
 40
3.0
 40
3.0
 40
4.0
 40
4.0
 40
4.0
 40
5.0
 40
5.0
 40
5.0
 40
6.0
 40
6.0
 40
6.0
 40
7.0
 40
7.0
 40
7.0
 40
8.0
 40
8.0
 40
8.0
 40
9.0
 40
9.0
 40
9.0
 40
10.0
 40
10.0
 40
10.0
 40
11.0
 40
11.0
 40
11.0
 40
12.0
 40
12.0
 40
12.0
 40
12.0
 10
89.64052325232946
 20
-117.5247816003931
 30
0.0
 10
89.39936656836197
 20
-117.3893893478228
 30
0.0
 10
89.22159964132308
 20
-117.0931111360913
 30
0.0
 10
89.18129202414565
 20
-116.9640923101687
 30
0.0
 10
89.0607136821619
 20
-117.2285033886616
 30
0.0
 10
88.89810517525812
 20
-117.4062703157005
 30
0.0
 10
88.71620413363692
 20
-117.5204752310366
 30
0.0
 10
88.71620413363692
 20
-117.5204752310366
 30
0.0
 10
88.51914467188064
 20
-117.3830159211751
 30
0.0
 10
88.51914467188064
 20
-117.3830159211751
 30
0.0
 10
88.58908011023121
 20
-117.3576944693585
 30
0.0
 10
88.7351521588058
 20
-117.2961995149468
 30
0.0
 10
88.85779755808069
 20
-117.1418592372076
 30
0.0
 10
88.98251001464673
 20
-116.985279647403
 30
0.0
 10
89.07139347816619
 20
-116.7525634473744
 30
0.0
 10
89.07139347816619
 20
-116.492458738238
 30
0.0
 10
89.07139347816619
 20
-116.3908284214231
 30
0.0
 10
89.05864662487076
 20
-116.3189981805557
 30
0.0
 10
89.048311338415
 20
-116.2723171367305
 30
0.0
 10
89.048311338415
 20
-116.2723171367305
 30
0.0
 10
89.25329451978737
 20
-116.2935044739648
 30
0.0
 10
89.25329451978737
 20
-116.2935044739648
 30
0.0
 10
89.27465411179593
 20
-116.295571531256
 30
0.0
 10
89.29566919425595
 20
-116.2978108433214
 30
0.0
 10
89.29566919425595
 20
-116.3189981805557
 30
0.0
 10
89.29566919425595
 20
-116.3379462057245
 30
0.0
 10
89.28498939825167
 20
-116.3463866896634
 30
0.0
 10
89.25122746249623
 20
-116.3675740268977
 30
0.0
 10
89.24295923333163
 20
-116.568595348462
 30
0.0
 10
89.29980330883825
 20
-116.8118190897207
 30
0.0
 10
89.3611260084757
 20
-116.9323974317044
 30
0.0
 10
89.45207652928629
 20
-117.1079250466779
 30
0.0
 10
89.6467244242029
 20
-117.2877590310079
 30
0.0
 10
89.78211667677323
 20
-117.3449476160631
 30
0.0
 10
89.78211667677323
 20
-117.3449476160631
 30
0.0
 10
89.64052325232946
 20
-117.5247816003931
 30
0.0
 10
89.64052325232946
 20
-117.5247816003931
 30
0.0
  0
HATCH
  5
99
330
77
100
AcDbEntity
  8
_U+30EC_U+30A4_U+30E4_U+30FC 1
 62
   179
420
  2234388
100
AcDbHatch
 10
0.0
 20
0.0
 30
0.0
210
0.0
220
0.0
230
1.0
  2
SOLID
 70
     1
 71
     0
 91
        6
 92
        1
 93
        1
 72
     4
 94
        3
 73
     0
 74
     1
 95
      197
 96
      193
 40
0.0
 40
0.0
 40
0.0
 40
0.0
 40
1.0
 40
1.0
 40
1.0
 40
2.0
 40
2.0
 40
2.0
 40
3.0
 40
3.0
 40
3.0
 40
4.0
 40
4.0
 40
4.0
 40
5.0
 40
5.0
 40
5.0
 40
6.0
 40
6.0
 40
6.0
 40
7.0
 40
7.0
 40
7.0
 40
8.0
 40
8.0
 40
8.0
 40
9.0
 40
9.0
 40
9.0
 40
10.0
 40
10.0
 40
10.0
 40
11.0
 40
11.0
 40
11.0
 40
12.0
 40
12.0
 40
12.0
 40
13.0
 40
13.0
 40
13.0
 40
14.0
 40
14.0
 40
14.0
 40
15.0
 40
15.0
 40
15.0
 40
16.0
 40
16.0
 40
16.0
 40
17.0
 40
17.0
 40
17.0
 40
18.0
 40
18.0
 40
18.0
 40
19.0
 40
19.0
 40
19.0
 40
20.0
 40
20.0
 40
20.0
 40
21.0
 40
21.0
 40
21.0
 40
22.0
 40
22.0
 40
22.0
 40
23.0
 40
23.0
 40
23.0
 40
24.0
 40
24.0
 40
24.0
 40
25.0
 40
25.0
 40
25.0
 40
26.0
 40
26.0
 40
26.0
 40
27.0
 40
27.0
 40
27.0
 40
28.0
 40
28.0
 40
28.0
 40
29.0
 40
29.0
 40
29.0
 40
30.0
 40
30.0
 40
30.0
 40
31.0
 40
31.0
 40
31.0
 40
32.0
 40
32.0
 40
32.0
 40
33.0
 40
33.0
 40
33.0
 40
34.0
 40
34.0
 40
34.0
 40
35.0
 40
35.0
 40
35.0
 40
36.0
 40
36.0
 40
36.0
 40
37.0
 40
37.0
 40
37.0
 40
38.0
 40
38.0
 40
38.0
 40
39.0
 40
39.0
 40
39.0
 40
40.0
 40
40.0
 40
40.0
 40
41.0
 40
41.0
 40
41.0
 40
42.0
 40
42.0
 40
42.0
 40
43.0
 40
43.0
 40
43.0
 40
44.0
 40
44.0
 40
44.0
 40
45.0
 40
45.0
 40
45.0
 40
46.0
 40
46.0
 40
46.0
 40
47.0
 40
47.0
 40
47.0
 40
48.0
 40
48.0
 40
48.0
 40
49.0
 40
49.0
 40
49.0
 40
50.0
 40
50.0
 40
50.0
 40
51.0
 40
51.0
 40
51.0
 40
52.0
 40
52.0
 40
52.0
 40
53.0
 40
53.0
 40
53.0
 40
54.0
 40
54.0
 40
54.0
 40
55.0
 40
55.0
 40
55.0
 40
56.0
 40
56.0
 40
56.0
 40
57.0
 40
57.0
 40
57.0
 40
58.0
 40
58.0
 40
58.0
 40
59.0
 40
59.0
 40
59.0
 40
60.0
 40
60.0
 40
60.0
 40
61.0
 40
61.0
 40
61.0
 40
62.0
 40
62.0
 40
62.0
 40
63.0
 40
63.0
 40
63.0
 40
64.0
 40
64.0
 40
64.0
 40
64.0
 10
89.7252726012666
 20
-116.1687920173988
 10
89.71459280526233
 20
-116.1982475837977
 10
89.69116615596263
 20
-116.2449286276228
 10
89.68083086950688
 20
-116.2723171367305
 10
89.68083086950688
 20
-116.2723171367305
 10
89.61950816986943
 20
-116.4247626119528
 10
89.61950816986943
 20
-116.4247626119528
 10
89.60882837386515
 20
-116.4500840637694
 10
89.56025252752313
 20
-116.5622219218143
 10
89.54750567422771
 20
-116.5854763163398
 10
89.54543861693656
 20
-116.5918497429875
 10
89.54095999280574
 20
-116.6002902269263
 10
89.53889293551458
 20
-116.606663653574
 10
89.53889293551458
 20
-116.606663653574
 10
89.3294311300114
 20
-116.5537814378754
 10
89.3294311300114
 20
-116.5537814378754
 10
89.4079793070751
 20
-116.4437106371217
 10
89.46930200671254
 20
-116.3083183845514
 10
89.50099688517683
 20
-116.1982475837977
 10
89.50099688517683
 20
-116.1982475837977
 10
89.03556448511958
 20
-116.1982475837977
 10
89.03556448511958
 20
-116.1982475837977
 10
88.95494925076474
 20
-116.3632676575411
 10
88.88742537925384
 20
-116.4416435798306
 10
88.85366344349839
 20
-116.4817789422337
 10
88.85366344349839
 20
-116.4817789422337
 10
88.7310180442235
 20
-116.4161498732397
 10
88.7310180442235
 20
-116.4161498732397
 10
88.7310180442235
 20
-116.4161498732397
 10
88.7310180442235
 20
-116.5875433736309
 10
88.7310180442235
 20
-116.5875433736309
 10
88.7310180442235
 20
-116.6955471170935
 10
88.73308510151465
 20
-116.7441229634355
 10
88.7434203879704
 20
-116.8498873948327
 10
88.6717624018772
 20
-116.8478203375415
 10
88.65040280986865
 20
-116.8478203375415
 10
88.44541962849628
 20
-116.8478203375415
 10
88.44541962849628
 20
-116.8478203375415
 10
88.3902981007323
 20
-116.8478203375415
 10
88.3902981007323
 20
-116.8478203375415
 10
88.3902981007323
 20
-116.8478203375415
 10
88.3902981007323
 20
-116.9832125901118
 10
88.3902981007323
 20
-116.9832125901118
 10
88.3902981007323
 20
-116.9832125901118
 10
88.462300596374
 20
-116.9832125901118
 10
88.462300596374
 20
-116.9832125901118
 10
88.52775741059376
 20
-116.9832125901118
 10
88.67382945916835
 20
-116.9789062207553
 10
88.77959389056552
 20
-116.9704657368164
 10
88.77959389056552
 20
-116.9704657368164
 10
88.77959389056552
 20
-117.1482326638553
 10
88.77959389056552
 20
-117.1482326638553
 10
88.68209768833295
 20
-117.1418592372076
 10
88.52362329601146
 20
-117.137552867851
 10
88.462300596374
 20
-117.137552867851
 10
88.462300596374
 20
-117.137552867851
 10
88.3902981007323
 20
-117.137552867851
 10
88.3902981007323
 20
-117.137552867851
 10
88.39236515802344
 20
-117.2264363313705
 10
88.39649927260574
 20
-117.4655259580468
 10
88.3985663298969
 20
-117.5395955109797
 10
88.3985663298969
 20
-117.5395955109797
 10
88.19771726310682
 20
-117.5395955109797
 10
88.19771726310682
 20
-117.5395955109797
 10
88.21046411640225
 20
-117.3258273361199
 10
88.21046411640225
 20
-117.2961995149468
 10
88.21459823098455
 20
-117.137552867851
 10
88.21459823098455
 20
-117.137552867851
 10
88.1450073021825
 20
-117.137552867851
 10
88.1450073021825
 20
-117.137552867851
 10
88.08781871712735
 20
-117.137552867851
 10
87.93554549667931
 20
-117.1418592372076
 10
87.82530244115132
 20
-117.1482326638553
 10
87.82530244115132
 20
-117.1482326638553
 10
87.82530244115132
 20
-116.9704657368164
 10
87.82530244115132
 20
-116.9704657368164
 10
87.93106687254848
 20
-116.9789062207553
 10
88.07507186383194
 20
-116.9832125901118
 10
88.1450073021825
 20
-116.9832125901118
 10
88.1450073021825
 20
-116.9832125901118
 10
88.21873234556685
 20
-116.9832125901118
 10
88.21873234556685
 20
-116.9832125901118
 10
88.21873234556685
 20
-116.9832125901118
 10
88.21873234556685
 20
-116.8478203375415
 10
88.21873234556685
 20
-116.8478203375415
 10
88.21873234556685
 20
-116.8478203375415
 10
88.17463512335566
 20
-116.8478203375415
 10
88.17463512335566
 20
-116.8478203375415
 10
88.0981540035831
 20
-116.8478203375415
 10
87.90591767550616
 20
-116.8498873948327
 10
87.87181123020218
 20
-116.8498873948327
 10
87.87835691162417
 20
-116.7780571539652
 10
87.88662514078877
 20
-116.6976141743846
 10
87.88662514078877
 20
-116.5770358324009
 10
87.88662514078877
 20
-116.5770358324009
 10
87.88662514078877
 20
-116.4035752747186
 10
87.88662514078877
 20
-116.4035752747186
 10
87.88662514078877
 20
-116.3315727790768
 10
87.87835691162417
 20
-116.2109944370931
 10
87.87181123020218
 20
-116.1307237122868
 10
87.95035940726589
 20
-116.1348578268691
 10
87.98825545760363
 20
-116.1369248841602
 10
88.11537948100936
 20
-116.1369248841602
 10
88.11537948100936
 20
-116.1369248841602
 10
88.21873234556685
 20
-116.1369248841602
 10
88.21873234556685
 20
-116.1369248841602
 10
88.21873234556685
 20
-116.1369248841602
 10
88.21873234556685
 20
-115.9910250903599
 10
88.21873234556685
 20
-115.9910250903599
 10
88.21873234556685
 20
-115.9910250903599
 10
88.14052867805168
 20
-115.9910250903599
 10
88.14052867805168
 20
-115.9910250903599
 10
88.0857516598362
 20
-115.9910250903599
 10
87.91418590467076
 20
-115.9953314597165
 10
87.82978106528215
 20
-116.0015326315899
 10
87.82978106528215
 20
-116.0015326315899
 10
87.82978106528215
 20
-115.8239379593253
 10
87.82978106528215
 20
-115.8239379593253
 10
87.91211884737962
 20
-115.830311385973
 10
88.07507186383194
 20
-115.8344455005553
 10
88.14052867805168
 20
-115.8344455005553
 10
88.14052867805168
 20
-115.8344455005553
 10
88.21873234556685
 20
-115.8344455005553
 10
88.21873234556685
 20
-115.8344455005553
 10
88.21873234556685
 20
-115.8006835647998
 10
88.21459823098455
 20
-115.6461710322864
 10
88.21459823098455
 20
-115.6144761538221
 10
88.21459823098455
 20
-115.6144761538221
 10
88.41131318319232
 20
-115.6313571216998
 10
88.41131318319232
 20
-115.6313571216998
 10
88.42819415107004
 20
-115.6334241789909
 10
88.44955374307858
 20
-115.6356634910564
 10
88.44955374307858
 20
-115.6566785735164
 10
88.44955374307858
 20
-115.6801052228161
 10
88.42819415107004
 20
-115.688545706755
 10
88.40097789673656
 20
-115.7011203052761
 10
88.40097789673656
 20
-115.7223076425104
 10
88.3985663298969
 20
-115.8175645326776
 10
88.3985663298969
 20
-115.8344455005553
 10
88.3985663298969
 20
-115.8344455005553
 10
88.45782197224318
 20
-115.8344455005553
 10
88.45782197224318
 20
-115.8344455005553
 10
88.52569035330261
 20
-115.8344455005553
 10
88.66935083503753
 20
-115.830311385973
 10
88.7751152664347
 20
-115.8239379593253
 10
88.7751152664347
 20
-115.8239379593253
 10
88.7751152664347
 20
-116.0015326315899
 10
88.7751152664347
 20
-116.0015326315899
 10
88.67796357375065
 20
-115.9953314597165
 10
88.52155623872031
 20
-115.9910250903599
 10
88.45782197224318
 20
-115.9910250903599
 10
88.45782197224318
 20
-115.9910250903599
 10
88.3902981007323
 20
-115.9910250903599
 10
88.3902981007323
 20
-115.9910250903599
 10
88.3902981007323
 20
-115.9910250903599
 10
88.3902981007323
 20
-116.1369248841602
 10
88.3902981007323
 20
-116.1369248841602
 10
88.3902981007323
 20
-116.1369248841602
 10
88.46023353908286
 20
-116.1369248841602
 10
88.46023353908286
 20
-116.1369248841602
 10
88.61009519269123
 20
-116.1369248841602
 10
88.68209768833295
 20
-116.1327907695779
 10
88.7434203879704
 20
-116.1307237122868
 10
88.7351521588058
 20
-116.2258083476797
 10
88.73308510151465
 20
-116.3041842699691
 10
88.7310180442235
 20
-116.3422525750811
 10
88.8853583219627
 20
-116.1307237122868
 10
88.99112275335986
 20
-115.8831936016716
 10
89.00800372123759
 20
-115.6208495804698
 10
89.00800372123759
 20
-115.6208495804698
 10
89.22366669861422
 20
-115.671492484103
 10
89.22366669861422
 20
-115.671492484103
 10
89.2384806092008
 20
-115.6757988534595
 10
89.25329451978737
 20
-115.6821722801072
 10
89.25329451978737
 20
-115.699053247985
 10
89.25329451978737
 20
-115.7159342158627
 10
89.24916040520507
 20
-115.7181735279281
 10
89.1985175015719
 20
-115.7391886103881
 10
89.18129202414565
 20
-115.8154974753864
 10
89.15614282710332
 20
-115.906447996197
 10
89.1075669807613
 20
-116.0333997648285
 10
89.1075669807613
 20
-116.0333997648285
 10
89.44587535741285
 20
-116.0333997648285
 10
89.44587535741285
 20
-116.0333997648285
 10
89.4841159172991
 20
-116.0333997648285
 10
89.61296248844745
 20
-116.0290933954719
 10
89.66153833478948
 20
-116.0227199688242
 10
89.66153833478948
 20
-116.0227199688242
 10
89.75490042243975
 20
-116.0924831524005
 10
89.75490042243975
 20
-116.0924831524005
 10
89.74628768372662
 20
-116.1136704896348
 10
89.74008651185318
 20
-116.1327907695779
 10
89.7252726012666
 20
-116.1687920173988
 97
        0
 97
        0
 92
        1
 93
        4
 72
     1
 10
88.21873234556685
 20
-116.2935044739648
 11
88.06025795324535
 21
-116.2935044739648
 72
     1
 10
88.06025795324535
 20
-116.2935044739648
 11
88.06025795324535
 21
-116.4225232998874
 72
     1
 10
88.06025795324535
 20
-116.4225232998874
 11
88.21873234556685
 21
-116.4225232998874
 72
     1
 10
88.21873234556685
 20
-116.4225232998874
 11
88.21873234556685
 21
-116.2935044739648
 97
        0
 92
        1
 93
        4
 72
     1
 10
88.21873234556685
 20
-116.5663560363966
 11
88.06025795324535
 21
-116.5663560363966
 72
     1
 10
88.06025795324535
 20
-116.5663560363966
 11
88.06025795324535
 21
-116.6955471170935
 72
     1
 10
88.06025795324535
 20
-116.6955471170935
 11
88.21873234556685
 21
-116.6955471170935
 72
     1
 10
88.21873234556685
 20
-116.6955471170935
 11
88.21873234556685
 21
-116.5663560363966
 97
        0
 92
        1
 93
        4
 72
     1
 10
88.55118405989346
 20
-116.2935044739648
 11
88.3902981007323
 21
-116.2935044739648
 72
     1
 10
88.3902981007323
 20
-116.2935044739648
 11
88.3902981007323
 21
-116.4225232998874
 72
     1
 10
88.3902981007323
 20
-116.4225232998874
 11
88.55118405989346
 21
-116.4225232998874
 72
     1
 10
88.55118405989346
 20
-116.4225232998874
 11
88.55118405989346
 21
-116.2935044739648
 97
        0
 92
        1
 93
        4
 72
     1
 10
88.55118405989346
 20
-116.5663560363966
 11
88.3902981007323
 21
-116.5663560363966
 72
     1
 10
88.3902981007323
 20
-116.5663560363966
 11
88.3902981007323
 21
-116.6955471170935
 72
     1
 10
88.3902981007323
 20
-116.6955471170935
 11
88.55118405989346
 21
-116.6955471170935
 72
     1
 10
88.55118405989346
 20
-116.6955471170935
 11
88.55118405989346
 21
-116.5663560363966
 97
        0
 92
        1
 93
        1
 72
     4
 94
        3
 73
     0
 74
     1
 95
       41
 96
       37
 40
0.0
 40
0.0
 40
0.0
 40
0.0
 40
1.0
 40
1.0
 40
1.0
 40
2.0
 40
2.0
 40
2.0
 40
3.0
 40
3.0
 40
3.0
 40
4.0
 40
4.0
 40
4.0
 40
5.0
 40
5.0
 40
5.0
 40
6.0
 40
6.0
 40
6.0
 40
7.0
 40
7.0
 40
7.0
 40
8.0
 40
8.0
 40
8.0
 40
9.0
 40
9.0
 40
9.0
 40
10.0
 40
10.0
 40
10.0
 40
11.0
 40
11.0
 40
11.0
 40
12.0
 40
12.0
 40
12.0
 40
12.0
 10
89.64052325232946
 20
-117.5247816003931
 10
89.39936656836197
 20
-117.3893893478228
 10
89.22159964132308
 20
-117.0931111360913
 10
89.18129202414565
 20
-116.9640923101687
 10
89.0607136821619
 20
-117.2285033886616
 10
88.89810517525812
 20
-117.4062703157005
 10
88.71620413363692
 20
-117.5204752310366
 10
88.71620413363692
 20
-117.5204752310366
 10
88.51914467188064
 20
-117.3830159211751
 10
88.51914467188064
 20
-117.3830159211751
 10
88.58908011023121
 20
-117.3576944693585
 10
88.7351521588058
 20
-117.2961995149468
 10
88.85779755808069
 20
-117.1418592372076
 10
88.98251001464673
 20
-116.985279647403
 10
89.07139347816619
 20
-116.7525634473744
 10
89.07139347816619
 20
-116.492458738238
 10
89.07139347816619
 20
-116.3908284214231
 10
89.05864662487076
 20
-116.3189981805557
 10
89.048311338415
 20
-116.2723171367305
 10
89.048311338415
 20
-116.2723171367305
 10
89.25329451978737
 20
-116.2935044739648
 10
89.25329451978737
 20
-116.2935044739648
 10
89.27465411179593
 20
-116.295571531256
 10
89.29566919425595
 20
-116.2978108433214
 10
89.29566919425595
 20
-116.3189981805557
 10
89.29566919425595
 20
-116.3379462057245
 10
89.28498939825167
 20
-116.3463866896634
 10
89.25122746249623
 20
-116.3675740268977
 10
89.24295923333163
 20
-116.568595348462
 10
89.29980330883825
 20
-116.8118190897207
 10
89.3611260084757
 20
-116.9323974317044
 10
89.45207652928629
 20
-117.1079250466779
 10
89.6467244242029
 20
-117.2877590310079
 10
89.78211667677323
 20
-117.3449476160631
 10
89.78211667677323
 20
-117.3449476160631
 10
89.64052325232946
 20
-117.5247816003931
 10
89.64052325232946
 20
-117.5247816003931
 97
        0
 97
        0
 75
     2
 76
     1
 98
        0
  0
SPLINE
  5
9A
330
77
100
AcDbEntity
  8
_U+30EC_U+30A4_U+30E4_U+30FC 1
370
     0
100
AcDbSpline
210
0.0
220
0.0
230
1.0
 70
    11
 71
     3
 72
    71
 73
    67
 74
     0
 42
0.0000000001
 43
0.0000000001
 12
1.0
 22
0.0
 32
0.0
 13
1.0
 23
0.0
 33
0.0
 40
0.0
 40
0.0
 40
0.0
 40
0.0
 40
1.0
 40
1.0
 40
1.0
 40
2.0
 40
2.0
 40
2.0
 40
3.0
 40
3.0
 40
3.0
 40
4.0
 40
4.0
 40
4.0
 40
5.0
 40
5.0
 40
5.0
 40
6.0
 40
6.0
 40
6.0
 40
7.0
 40
7.0
 40
7.0
 40
8.0
 40
8.0
 40
8.0
 40
9.0
 40
9.0
 40
9.0
 40
10.0
 40
10.0
 40
10.0
 40
11.0
 40
11.0
 40
11.0
 40
12.0
 40
12.0
 40
12.0
 40
13.0
 40
13.0
 40
13.0
 40
14.0
 40
14.0
 40
14.0
 40
15.0
 40
15.0
 40
15.0
 40
16.0
 40
16.0
 40
16.0
 40
17.0
 40
17.0
 40
17.0
 40
18.0
 40
18.0
 40
18.0
 40
19.0
 40
19.0
 40
19.0
 40
20.0
 40
20.0
 40
20.0
 40
21.0
 40
21.0
 40
21.0
 40
22.0
 40
22.0
 40
22.0
 40
22.0
 10
90.83493785706557
 20
-115.7920708260867
 30
0.0
 10
90.820123946479
 20
-115.7920708260867
 30
0.0
 10
90.80737709318358
 20
-115.7879367115044
 30
0.0
 10
90.78188338659272
 20
-115.7794962275655
 30
0.0
 10
90.64028996214896
 20
-115.8260050166164
 30
0.0
 10
90.46665714969237
 20
-115.8428859844941
 30
0.0
 10
90.32713078253975
 20
-115.8471923538507
 30
0.0
 10
90.32713078253975
 20
-115.8471923538507
 30
0.0
 10
90.3250637252486
 20
-115.9360758173702
 30
0.0
 10
90.3250637252486
 20
-115.9360758173702
 30
0.0
 10
90.3250637252486
 20
-115.9360758173702
 30
0.0
 10
90.58516843438497
 20
-115.9360758173702
 30
0.0
 10
90.58516843438497
 20
-115.9360758173702
 30
0.0
 10
90.63822290485781
 20
-115.9360758173702
 30
0.0
 10
90.820123946479
 20
-115.927463078657
 30
0.0
 10
90.86456567823872
 20
-115.9212619067836
 30
0.0
 10
90.86456567823872
 20
-115.9212619067836
 30
0.0
 10
90.86456567823872
 20
-116.0819756111705
 30
0.0
 10
90.86456567823872
 20
-116.0819756111705
 30
0.0
 10
90.80944415047473
 20
-116.0756021845228
 30
0.0
 10
90.68473169390869
 20
-116.0735351272316
 30
0.0
 10
90.64649113402241
 20
-116.0756021845228
 30
0.0
 10
90.64649113402241
 20
-116.0756021845228
 30
0.0
 10
90.64649113402241
 20
-116.1856729852765
 30
0.0
 10
90.64649113402241
 20
-116.1856729852765
 30
0.0
 10
90.64649113402241
 20
-116.2321817743274
 30
0.0
 10
90.64855819131355
 20
-116.295571531256
 30
0.0
 10
90.65510387273554
 20
-116.333639836368
 30
0.0
 10
90.65510387273554
 20
-116.333639836368
 30
0.0
 10
90.46252303511007
 20
-116.333639836368
 30
0.0
 10
90.46252303511007
 20
-116.333639836368
 30
0.0
 10
90.46872420698352
 20
-116.2935044739648
 30
0.0
 10
90.47526988840549
 20
-116.2109944370931
 30
0.0
 10
90.47526988840549
 20
-116.1961805265065
 30
0.0
 10
90.47526988840549
 20
-116.1961805265065
 30
0.0
 10
90.47526988840549
 20
-116.0756021845228
 30
0.0
 10
90.47526988840549
 20
-116.0756021845228
 30
0.0
 10
90.47526988840549
 20
-116.0756021845228
 30
0.0
 10
90.31024981466203
 20
-116.0756021845228
 30
0.0
 10
90.31024981466203
 20
-116.0756021845228
 30
0.0
 10
90.26787514019345
 20
-116.295571531256
 30
0.0
 10
90.21275361242945
 20
-116.3760145108366
 30
0.0
 10
90.10698918103229
 20
-116.475405515586
 30
0.0
 10
90.10698918103229
 20
-116.475405515586
 30
0.0
 10
89.93990204999767
 20
-116.36120060025
 30
0.0
 10
89.93990204999767
 20
-116.36120060025
 30
0.0
 10
90.00329180692627
 20
-116.312624753908
 30
0.0
 10
90.15349797008315
 20
-116.2004868958631
 30
0.0
 10
90.15349797008315
 20
-115.851326468433
 30
0.0
 10
90.15349797008315
 20
-115.7688164315613
 30
0.0
 10
90.14522974091855
 20
-115.7223076425104
 30
0.0
 10
90.13661700220543
 20
-115.6737317961684
 30
0.0
 10
90.28268905078002
 20
-115.688545706755
 30
0.0
 10
90.2975029613666
 20
-115.688545706755
 30
0.0
 10
90.3333319544132
 20
-115.688545706755
 30
0.0
 10
90.44150795265004
 20
-115.688545706755
 30
0.0
 10
90.58310137709381
 20
-115.671492484103
 30
0.0
 10
90.74398733625497
 20
-115.6101697844655
 30
0.0
 10
90.74398733625497
 20
-115.6101697844655
 30
0.0
 10
90.85801999681675
 20
-115.7414279224535
 30
0.0
 10
90.85801999681675
 20
-115.7414279224535
 30
0.0
 10
90.86456567823872
 20
-115.7478013491013
 30
0.0
 10
90.86869979282102
 20
-115.7562418330401
 30
0.0
 10
90.86869979282102
 20
-115.764682316979
 30
0.0
 10
90.86869979282102
 20
-115.7879367115044
 30
0.0
 10
90.84975176765215
 20
-115.7920708260867
 30
0.0
 10
90.83493785706557
 20
-115.7920708260867
 30
0.0
  0
SPLINE
  5
9B
330
77
100
AcDbEntity
  8
_U+30EC_U+30A4_U+30E4_U+30FC 1
370
     0
100
AcDbSpline
210
0.0
220
0.0
230
1.0
 70
    11
 71
     3
 72
    74
 73
    70
 74
     0
 42
0.0000000001
 43
0.0000000001
 12
1.0
 22
0.0
 32
0.0
 13
1.0
 23
0.0
 33
0.0
 40
0.0
 40
0.0
 40
0.0
 40
0.0
 40
1.0
 40
1.0
 40
1.0
 40
2.0
 40
2.0
 40
2.0
 40
3.0
 40
3.0
 40
3.0
 40
4.0
 40
4.0
 40
4.0
 40
5.0
 40
5.0
 40
5.0
 40
6.0
 40
6.0
 40
6.0
 40
7.0
 40
7.0
 40
7.0
 40
8.0
 40
8.0
 40
8.0
 40
9.0
 40
9.0
 40
9.0
 40
10.0
 40
10.0
 40
10.0
 40
11.0
 40
11.0
 40
11.0
 40
12.0
 40
12.0
 40
12.0
 40
13.0
 40
13.0
 40
13.0
 40
14.0
 40
14.0
 40
14.0
 40
15.0
 40
15.0
 40
15.0
 40
16.0
 40
16.0
 40
16.0
 40
17.0
 40
17.0
 40
17.0
 40
18.0
 40
18.0
 40
18.0
 40
19.0
 40
19.0
 40
19.0
 40
20.0
 40
20.0
 40
20.0
 40
21.0
 40
21.0
 40
21.0
 40
22.0
 40
22.0
 40
22.0
 40
23.0
 40
23.0
 40
23.0
 40
23.0
 10
91.67226831475554
 20
-117.5585435361486
 30
0.0
 10
91.45867239467006
 20
-117.5480359949185
 30
0.0
 10
91.25799558265426
 20
-117.4612195886903
 30
0.0
 10
91.08229571290651
 20
-117.3406412467065
 30
0.0
 10
91.08229571290651
 20
-117.3406412467065
 30
0.0
 10
91.17979191513908
 20
-117.2539970952525
 30
0.0
 10
91.17979191513908
 20
-117.2539970952525
 30
0.0
 10
91.17979191513908
 20
-117.2539970952525
 30
0.0
 10
90.62754310885353
 20
-117.2539970952525
 30
0.0
 10
90.62754310885353
 20
-117.2539970952525
 30
0.0
 10
90.62754310885353
 20
-117.2539970952525
 30
0.0
 10
90.70781383365986
 20
-117.3173868521811
 30
0.0
 10
90.70781383365986
 20
-117.3173868521811
 30
0.0
 10
90.71435951508182
 20
-117.3216932215376
 30
0.0
 10
90.72469480153758
 20
-117.3322007627677
 30
0.0
 10
90.72469480153758
 20
-117.3470146733542
 30
0.0
 10
90.72469480153758
 20
-117.3873222905316
 30
0.0
 10
90.65062524860471
 20
-117.3809488638839
 30
0.0
 10
90.63581133801813
 20
-117.3787095518185
 30
0.0
 10
90.40533445005492
 20
-117.5184081737454
 30
0.0
 10
90.26167396832
 20
-117.5501030522097
 30
0.0
 10
90.15797659421398
 20
-117.5669840200874
 30
0.0
 10
90.15797659421398
 20
-117.5669840200874
 30
0.0
 10
90.02878551351711
 20
-117.3893893478228
 30
0.0
 10
90.02878551351711
 20
-117.3893893478228
 30
0.0
 10
90.27648787890658
 20
-117.3576944693585
 30
0.0
 10
90.37777368617292
 20
-117.3110134255334
 30
0.0
 10
90.46665714969237
 20
-117.2581312098348
 30
0.0
 10
90.3925875967595
 20
-117.2603705219002
 30
0.0
 10
90.27855493619772
 20
-117.2624375791913
 30
0.0
 10
90.24686005773343
 20
-117.2645046364825
 30
0.0
 10
90.26167396832
 20
-117.175621172963
 30
0.0
 10
90.26374102561115
 20
-117.0466023470404
 30
0.0
 10
90.26374102561115
 20
-116.9725327941076
 30
0.0
 10
90.26374102561115
 20
-116.9725327941076
 30
0.0
 10
90.26374102561115
 20
-116.672292722568
 30
0.0
 10
90.26374102561115
 20
-116.672292722568
 30
0.0
 10
90.26374102561115
 20
-116.5727294630443
 30
0.0
 10
90.25719534418917
 20
-116.4733384582949
 30
0.0
 10
90.24686005773343
 20
-116.3760145108366
 30
0.0
 10
90.34814586499978
 20
-116.3823879374843
 30
0.0
 10
90.57896726251151
 20
-116.388761364132
 30
0.0
 10
90.68679875119983
 20
-116.388761364132
 30
0.0
 10
90.68679875119983
 20
-116.388761364132
 30
0.0
 10
91.10985647678851
 20
-116.388761364132
 30
0.0
 10
91.10985647678851
 20
-116.388761364132
 30
0.0
 10
91.22836776148111
 20
-116.388761364132
 30
0.0
 10
91.27074243594969
 20
-116.388761364132
 30
0.0
 10
91.35308021804715
 20
-116.3844549947754
 30
0.0
 10
91.50104706913864
 20
-116.3780815681277
 30
0.0
 10
91.51792803701636
 20
-116.3780815681277
 30
0.0
 10
91.56443682606722
 20
-116.3760145108366
 30
0.0
 10
91.55616859690262
 20
-116.4564574904171
 30
0.0
 10
91.5516899727718
 20
-116.6151041375129
 30
0.0
 10
91.5516899727718
 20
-116.6976141743846
 30
0.0
 10
91.5516899727718
 20
-116.6976141743846
 30
0.0
 10
91.5516899727718
 20
-116.9832125901118
 30
0.0
 10
91.5516899727718
 20
-116.9832125901118
 30
0.0
 10
91.5516899727718
 20
-117.0550428309793
 30
0.0
 10
91.55375703006295
 20
-117.1863009689673
 30
0.0
 10
91.56443682606722
 20
-117.2645046364825
 30
0.0
 10
91.49243433042551
 20
-117.2603705219002
 30
0.0
 10
91.36978893115061
 20
-117.2581312098348
 30
0.0
 10
91.29175751840971
 20
-117.2560641525436
 30
0.0
 10
91.40148380961492
 20
-117.3237602788288
 30
0.0
 10
91.55375703006295
 20
-117.3745754372362
 30
0.0
 10
91.76563040240582
 20
-117.3787095518185
 30
0.0
 10
91.76563040240582
 20
-117.3787095518185
 30
0.0
 10
91.67226831475554
 20
-117.5585435361486
 30
0.0
 10
91.67226831475554
 20
-117.5585435361486
 30
0.0
  0
POLYLINE
  5
9C
330
77
100
AcDbEntity
  8
_U+30EC_U+30A4_U+30E4_U+30FC 1
370
     0
100
AcDb2dPolyline
 66
     1
 10
0.0
 20
0.0
 30
0.0
  0
VERTEX
  5
9D
330
9C
100
AcDbEntity
  8
_U+30EC_U+30A4_U+30E4_U+30FC 1
370
     0
100
AcDbVertex
100
AcDb2dVertex
 10
91.36789412863372
 20
-116.5241536167023
 30
0.0
  0
VERTEX
  5
9E
330
9C
100
AcDbEntity
  8
_U+30EC_U+30A4_U+30E4_U+30FC 1
370
     0
100
AcDbVertex
100
AcDb2dVertex
 10
90.4559773536881
 20
-116.5241536167023
 30
0.0
  0
VERTEX
  5
9F
330
9C
100
AcDbEntity
  8
_U+30EC_U+30A4_U+30E4_U+30FC 1
370
     0
100
AcDbVertex
100
AcDb2dVertex
 10
90.4559773536881
 20
-116.6362914747472
 30
0.0
  0
VERTEX
  5
A0
330
9C
100
AcDbEntity
  8
_U+30EC_U+30A4_U+30E4_U+30FC 1
370
     0
100
AcDbVertex
100
AcDb2dVertex
 10
91.36789412863372
 20
-116.6362914747472
 30
0.0
  0
VERTEX
  5
A1
330
9C
100
AcDbEntity
  8
_U+30EC_U+30A4_U+30E4_U+30FC 1
370
     0
100
AcDbVertex
100
AcDb2dVertex
 10
91.36789412863372
 20
-116.5241536167023
 30
0.0
  0
SEQEND
  5
A2
330
9C
100
AcDbEntity
  8
_U+30EC_U+30A4_U+30E4_U+30FC 1
370
     0
  0
POLYLINE
  5
A3
330
77
100
AcDbEntity
  8
_U+30EC_U+30A4_U+30E4_U+30FC 1
370
     0
100
AcDb2dPolyline
 66
     1
 10
0.0
 20
0.0
 30
0.0
  0
VERTEX
  5
A4
330
A3
100
AcDbEntity
  8
_U+30EC_U+30A4_U+30E4_U+30FC 1
370
     0
100
AcDbVertex
100
AcDb2dVertex
 10
91.36789412863372
 20
-116.7694444152521
 30
0.0
  0
VERTEX
  5
A5
330
A3
100
AcDbEntity
  8
_U+30EC_U+30A4_U+30E4_U+30FC 1
370
     0
100
AcDbVertex
100
AcDb2dVertex
 10
90.4559773536881
 20
-116.7694444152521
 30
0.0
  0
VERTEX
  5
A6
330
A3
100
AcDbEntity
  8
_U+30EC_U+30A4_U+30E4_U+30FC 1
370
     0
100
AcDbVertex
100
AcDb2dVertex
 10
90.4559773536881
 20
-116.8795152160058
 30
0.0
  0
VERTEX
  5
A7
330
A3
100
AcDbEntity
  8
_U+30EC_U+30A4_U+30E4_U+30FC 1
370
     0
100
AcDbVertex
100
AcDb2dVertex
 10
91.36789412863372
 20
-116.8795152160058
 30
0.0
  0
VERTEX
  5
A8
330
A3
100
AcDbEntity
  8
_U+30EC_U+30A4_U+30E4_U+30FC 1
370
     0
100
AcDbVertex
100
AcDb2dVertex
 10
91.36789412863372
 20
-116.7694444152521
 30
0.0
  0
SEQEND
  5
A9
330
A3
100
AcDbEntity
  8
_U+30EC_U+30A4_U+30E4_U+30FC 1
370
     0
  0
POLYLINE
  5
AA
330
77
100
AcDbEntity
  8
_U+30EC_U+30A4_U+30E4_U+30FC 1
370
     0
100
AcDb2dPolyline
 66
     1
 10
0.0
 20
0.0
 30
0.0
  0
VERTEX
  5
AB
330
AA
100
AcDbEntity
  8
_U+30EC_U+30A4_U+30E4_U+30FC 1
370
     0
100
AcDbVertex
100
AcDb2dVertex
 10
91.36789412863372
 20
-117.0149074685761
 30
0.0
  0
VERTEX
  5
AC
330
AA
100
AcDbEntity
  8
_U+30EC_U+30A4_U+30E4_U+30FC 1
370
     0
100
AcDbVertex
100
AcDb2dVertex
 10
90.4559773536881
 20
-117.0149074685761
 30
0.0
  0
VERTEX
  5
AD
330
AA
100
AcDbEntity
  8
_U+30EC_U+30A4_U+30E4_U+30FC 1
370
     0
100
AcDbVertex
100
AcDb2dVertex
 10
90.4559773536881
 20
-117.1227389572645
 30
0.0
  0
VERTEX
  5
AE
330
AA
100
AcDbEntity
  8
_U+30EC_U+30A4_U+30E4_U+30FC 1
370
     0
100
AcDbVertex
100
AcDb2dVertex
 10
91.36789412863372
 20
-117.1227389572645
 30
0.0
  0
VERTEX
  5
AF
330
AA
100
AcDbEntity
  8
_U+30EC_U+30A4_U+30E4_U+30FC 1
370
     0
100
AcDbVertex
100
AcDb2dVertex
 10
91.36789412863372
 20
-117.0149074685761
 30
0.0
  0
SEQEND
  5
B0
330
AA
100
AcDbEntity
  8
_U+30EC_U+30A4_U+30E4_U+30FC 1
370
     0
  0
SPLINE
  5
B1
330
77
100
AcDbEntity
  8
_U+30EC_U+30A4_U+30E4_U+30FC 1
370
     0
100
AcDbSpline
210
0.0
220
0.0
230
1.0
 70
    11
 71
     3
 72
    74
 73
    70
 74
     0
 42
0.0000000001
 43
0.0000000001
 12
1.0
 22
0.0
 32
0.0
 13
1.0
 23
0.0
 33
0.0
 40
0.0
 40
0.0
 40
0.0
 40
0.0
 40
1.0
 40
1.0
 40
1.0
 40
2.0
 40
2.0
 40
2.0
 40
3.0
 40
3.0
 40
3.0
 40
4.0
 40
4.0
 40
4.0
 40
5.0
 40
5.0
 40
5.0
 40
6.0
 40
6.0
 40
6.0
 40
7.0
 40
7.0
 40
7.0
 40
8.0
 40
8.0
 40
8.0
 40
9.0
 40
9.0
 40
9.0
 40
10.0
 40
10.0
 40
10.0
 40
11.0
 40
11.0
 40
11.0
 40
12.0
 40
12.0
 40
12.0
 40
13.0
 40
13.0
 40
13.0
 40
14.0
 40
14.0
 40
14.0
 40
15.0
 40
15.0
 40
15.0
 40
16.0
 40
16.0
 40
16.0
 40
17.0
 40
17.0
 40
17.0
 40
18.0
 40
18.0
 40
18.0
 40
19.0
 40
19.0
 40
19.0
 40
20.0
 40
20.0
 40
20.0
 40
21.0
 40
21.0
 40
21.0
 40
22.0
 40
22.0
 40
22.0
 40
23.0
 40
23.0
 40
23.0
 40
23.0
 10
91.68501516805097
 20
-116.0714680699405
 30
0.0
 10
91.68501516805097
 20
-116.0714680699405
 30
0.0
 10
91.52447371843833
 20
-116.0714680699405
 30
0.0
 10
91.52447371843833
 20
-116.0714680699405
 30
0.0
 10
91.52447371843833
 20
-116.0714680699405
 30
0.0
 10
91.52447371843833
 20
-116.1856729852765
 30
0.0
 10
91.52447371843833
 20
-116.1856729852765
 30
0.0
 10
91.52447371843833
 20
-116.2258083476797
 30
0.0
 10
91.53067489031179
 20
-116.2998779006125
 30
0.0
 10
91.53480900489409
 20
-116.3251993524291
 30
0.0
 10
91.53480900489409
 20
-116.3251993524291
 30
0.0
 10
91.323452396874
 20
-116.3251993524291
 30
0.0
 10
91.323452396874
 20
-116.3251993524291
 30
0.0
 10
91.33413219287827
 20
-116.2597425382094
 30
0.0
 10
91.33619925016943
 20
-116.2004868958631
 30
0.0
 10
91.33619925016943
 20
-116.1982475837977
 30
0.0
 10
91.33619925016943
 20
-116.1982475837977
 30
0.0
 10
91.33619925016943
 20
-116.0756021845228
 30
0.0
 10
91.33619925016943
 20
-116.0756021845228
 30
0.0
 10
91.33619925016943
 20
-116.0756021845228
 30
0.0
 10
91.15636526583938
 20
-116.0756021845228
 30
0.0
 10
91.15636526583938
 20
-116.0756021845228
 30
0.0
 10
91.13741724067052
 20
-116.1348578268691
 30
0.0
 10
91.09090845161964
 20
-116.2807576206694
 30
0.0
 10
90.97653128150934
 20
-116.3632676575411
 30
0.0
 10
90.97653128150934
 20
-116.3632676575411
 30
0.0
 10
90.820123946479
 20
-116.257503226144
 30
0.0
 10
90.820123946479
 20
-116.257503226144
 30
0.0
 10
90.89419349941187
 20
-116.2109944370931
 30
0.0
 10
91.01029321726479
 20
-116.1369248841602
 30
0.0
 10
91.01029321726479
 20
-115.8154974753864
 30
0.0
 10
91.01029321726479
 20
-115.7603759476224
 30
0.0
 10
91.00615910268249
 20
-115.7159342158627
 30
0.0
 10
91.00409204539135
 20
-115.6778659107507
 30
0.0
 10
91.08022865561536
 20
-115.6863063946895
 30
0.0
 10
91.15429820854824
 20
-115.6926798213373
 30
0.0
 10
91.21768796547683
 20
-115.6926798213373
 30
0.0
 10
91.39528263774146
 20
-115.6926798213373
 30
0.0
 10
91.59406464724037
 20
-115.6334241789909
 30
0.0
 10
91.65538734687783
 20
-115.6037963578178
 30
0.0
 10
91.65538734687783
 20
-115.6037963578178
 30
0.0
 10
91.78251137028354
 20
-115.7391886103881
 30
0.0
 10
91.78251137028354
 20
-115.7391886103881
 30
0.0
 10
91.78664548486584
 20
-115.7434949797447
 30
0.0
 10
91.78871254215699
 20
-115.7519354636836
 30
0.0
 10
91.78871254215699
 20
-115.7583088903313
 30
0.0
 10
91.78871254215699
 20
-115.7794962275655
 30
0.0
 10
91.77389863157042
 20
-115.7858696542133
 30
0.0
 10
91.7570176636927
 20
-115.7858696542133
 30
0.0
 10
91.73600258123267
 20
-115.7858696542133
 30
0.0
 10
91.7211886706461
 20
-115.7774291702744
 30
0.0
 10
91.70189613592869
 20
-115.7667493742701
 30
0.0
 10
91.52860783302063
 20
-115.8239379593253
 30
0.0
 10
91.31070554357858
 20
-115.8492594111419
 30
0.0
 10
91.17738034829941
 20
-115.851326468433
 30
0.0
 10
91.17738034829941
 20
-115.851326468433
 30
0.0
 10
91.17324623371711
 20
-115.9338365053047
 30
0.0
 10
91.17324623371711
 20
-115.9338365053047
 30
0.0
 10
91.17324623371711
 20
-115.9338365053047
 30
0.0
 10
91.44592554137463
 20
-115.9338365053047
 30
0.0
 10
91.44592554137463
 20
-115.9338365053047
 30
0.0
 10
91.50311412642978
 20
-115.9338365053047
 30
0.0
 10
91.76563040240582
 20
-115.9148884801359
 30
0.0
 10
91.80972762461701
 20
-115.9085150534882
 30
0.0
 10
91.80972762461701
 20
-115.9085150534882
 30
0.0
 10
91.80972762461701
 20
-116.0776692418139
 30
0.0
 10
91.80972762461701
 20
-116.0776692418139
 30
0.0
 10
91.77596568886158
 20
-116.0735351272316
 30
0.0
 10
91.76321883556615
 20
-116.0714680699405
 30
0.0
 10
91.68501516805097
 20
-116.0714680699405
 30
0.0
  0
HATCH
  5
B2
330
77
100
AcDbEntity
  8
_U+30EC_U+30A4_U+30E4_U+30FC 1
 62
   179
420
  2234388
100
AcDbHatch
 10
0.0
 20
0.0
 30
0.0
210
0.0
220
0.0
230
1.0
  2
SOLID
 70
     1
 71
     0
 91
        6
 92
        1
 93
        1
 72
     4
 94
        3
 73
     0
 74
     1
 95
       71
 96
       67
 40
0.0
 40
0.0
 40
0.0
 40
0.0
 40
1.0
 40
1.0
 40
1.0
 40
2.0
 40
2.0
 40
2.0
 40
3.0
 40
3.0
 40
3.0
 40
4.0
 40
4.0
 40
4.0
 40
5.0
 40
5.0
 40
5.0
 40
6.0
 40
6.0
 40
6.0
 40
7.0
 40
7.0
 40
7.0
 40
8.0
 40
8.0
 40
8.0
 40
9.0
 40
9.0
 40
9.0
 40
10.0
 40
10.0
 40
10.0
 40
11.0
 40
11.0
 40
11.0
 40
12.0
 40
12.0
 40
12.0
 40
13.0
 40
13.0
 40
13.0
 40
14.0
 40
14.0
 40
14.0
 40
15.0
 40
15.0
 40
15.0
 40
16.0
 40
16.0
 40
16.0
 40
17.0
 40
17.0
 40
17.0
 40
18.0
 40
18.0
 40
18.0
 40
19.0
 40
19.0
 40
19.0
 40
20.0
 40
20.0
 40
20.0
 40
21.0
 40
21.0
 40
21.0
 40
22.0
 40
22.0
 40
22.0
 40
22.0
 10
90.83493785706557
 20
-115.7920708260867
 10
90.820123946479
 20
-115.7920708260867
 10
90.80737709318358
 20
-115.7879367115044
 10
90.78188338659272
 20
-115.7794962275655
 10
90.64028996214896
 20
-115.8260050166164
 10
90.46665714969237
 20
-115.8428859844941
 10
90.32713078253975
 20
-115.8471923538507
 10
90.32713078253975
 20
-115.8471923538507
 10
90.3250637252486
 20
-115.9360758173702
 10
90.3250637252486
 20
-115.9360758173702
 10
90.3250637252486
 20
-115.9360758173702
 10
90.58516843438497
 20
-115.9360758173702
 10
90.58516843438497
 20
-115.9360758173702
 10
90.63822290485781
 20
-115.9360758173702
 10
90.820123946479
 20
-115.927463078657
 10
90.86456567823872
 20
-115.9212619067836
 10
90.86456567823872
 20
-115.9212619067836
 10
90.86456567823872
 20
-116.0819756111705
 10
90.86456567823872
 20
-116.0819756111705
 10
90.80944415047473
 20
-116.0756021845228
 10
90.68473169390869
 20
-116.0735351272316
 10
90.64649113402241
 20
-116.0756021845228
 10
90.64649113402241
 20
-116.0756021845228
 10
90.64649113402241
 20
-116.1856729852765
 10
90.64649113402241
 20
-116.1856729852765
 10
90.64649113402241
 20
-116.2321817743274
 10
90.64855819131355
 20
-116.295571531256
 10
90.65510387273554
 20
-116.333639836368
 10
90.65510387273554
 20
-116.333639836368
 10
90.46252303511007
 20
-116.333639836368
 10
90.46252303511007
 20
-116.333639836368
 10
90.46872420698352
 20
-116.2935044739648
 10
90.47526988840549
 20
-116.2109944370931
 10
90.47526988840549
 20
-116.1961805265065
 10
90.47526988840549
 20
-116.1961805265065
 10
90.47526988840549
 20
-116.0756021845228
 10
90.47526988840549
 20
-116.0756021845228
 10
90.47526988840549
 20
-116.0756021845228
 10
90.31024981466203
 20
-116.0756021845228
 10
90.31024981466203
 20
-116.0756021845228
 10
90.26787514019345
 20
-116.295571531256
 10
90.21275361242945
 20
-116.3760145108366
 10
90.10698918103229
 20
-116.475405515586
 10
90.10698918103229
 20
-116.475405515586
 10
89.93990204999767
 20
-116.36120060025
 10
89.93990204999767
 20
-116.36120060025
 10
90.00329180692627
 20
-116.312624753908
 10
90.15349797008315
 20
-116.2004868958631
 10
90.15349797008315
 20
-115.851326468433
 10
90.15349797008315
 20
-115.7688164315613
 10
90.14522974091855
 20
-115.7223076425104
 10
90.13661700220543
 20
-115.6737317961684
 10
90.28268905078002
 20
-115.688545706755
 10
90.2975029613666
 20
-115.688545706755
 10
90.3333319544132
 20
-115.688545706755
 10
90.44150795265004
 20
-115.688545706755
 10
90.58310137709381
 20
-115.671492484103
 10
90.74398733625497
 20
-115.6101697844655
 10
90.74398733625497
 20
-115.6101697844655
 10
90.85801999681675
 20
-115.7414279224535
 10
90.85801999681675
 20
-115.7414279224535
 10
90.86456567823872
 20
-115.7478013491013
 10
90.86869979282102
 20
-115.7562418330401
 10
90.86869979282102
 20
-115.764682316979
 10
90.86869979282102
 20
-115.7879367115044
 10
90.84975176765215
 20
-115.7920708260867
 10
90.83493785706557
 20
-115.7920708260867
 97
        0
 97
        0
 92
        1
 93
        1
 72
     4
 94
        3
 73
     0
 74
     1
 95
       74
 96
       70
 40
0.0
 40
0.0
 40
0.0
 40
0.0
 40
1.0
 40
1.0
 40
1.0
 40
2.0
 40
2.0
 40
2.0
 40
3.0
 40
3.0
 40
3.0
 40
4.0
 40
4.0
 40
4.0
 40
5.0
 40
5.0
 40
5.0
 40
6.0
 40
6.0
 40
6.0
 40
7.0
 40
7.0
 40
7.0
 40
8.0
 40
8.0
 40
8.0
 40
9.0
 40
9.0
 40
9.0
 40
10.0
 40
10.0
 40
10.0
 40
11.0
 40
11.0
 40
11.0
 40
12.0
 40
12.0
 40
12.0
 40
13.0
 40
13.0
 40
13.0
 40
14.0
 40
14.0
 40
14.0
 40
15.0
 40
15.0
 40
15.0
 40
16.0
 40
16.0
 40
16.0
 40
17.0
 40
17.0
 40
17.0
 40
18.0
 40
18.0
 40
18.0
 40
19.0
 40
19.0
 40
19.0
 40
20.0
 40
20.0
 40
20.0
 40
21.0
 40
21.0
 40
21.0
 40
22.0
 40
22.0
 40
22.0
 40
23.0
 40
23.0
 40
23.0
 40
23.0
 10
91.67226831475554
 20
-117.5585435361486
 10
91.45867239467006
 20
-117.5480359949185
 10
91.25799558265426
 20
-117.4612195886903
 10
91.08229571290651
 20
-117.3406412467065
 10
91.08229571290651
 20
-117.3406412467065
 10
91.17979191513908
 20
-117.2539970952525
 10
91.17979191513908
 20
-117.2539970952525
 10
91.17979191513908
 20
-117.2539970952525
 10
90.62754310885353
 20
-117.2539970952525
 10
90.62754310885353
 20
-117.2539970952525
 10
90.62754310885353
 20
-117.2539970952525
 10
90.70781383365986
 20
-117.3173868521811
 10
90.70781383365986
 20
-117.3173868521811
 10
90.71435951508182
 20
-117.3216932215376
 10
90.72469480153758
 20
-117.3322007627677
 10
90.72469480153758
 20
-117.3470146733542
 10
90.72469480153758
 20
-117.3873222905316
 10
90.65062524860471
 20
-117.3809488638839
 10
90.63581133801813
 20
-117.3787095518185
 10
90.40533445005492
 20
-117.5184081737454
 10
90.26167396832
 20
-117.5501030522097
 10
90.15797659421398
 20
-117.5669840200874
 10
90.15797659421398
 20
-117.5669840200874
 10
90.02878551351711
 20
-117.3893893478228
 10
90.02878551351711
 20
-117.3893893478228
 10
90.27648787890658
 20
-117.3576944693585
 10
90.37777368617292
 20
-117.3110134255334
 10
90.46665714969237
 20
-117.2581312098348
 10
90.3925875967595
 20
-117.2603705219002
 10
90.27855493619772
 20
-117.2624375791913
 10
90.24686005773343
 20
-117.2645046364825
 10
90.26167396832
 20
-117.175621172963
 10
90.26374102561115
 20
-117.0466023470404
 10
90.26374102561115
 20
-116.9725327941076
 10
90.26374102561115
 20
-116.9725327941076
 10
90.26374102561115
 20
-116.672292722568
 10
90.26374102561115
 20
-116.672292722568
 10
90.26374102561115
 20
-116.5727294630443
 10
90.25719534418917
 20
-116.4733384582949
 10
90.24686005773343
 20
-116.3760145108366
 10
90.34814586499978
 20
-116.3823879374843
 10
90.57896726251151
 20
-116.388761364132
 10
90.68679875119983
 20
-116.388761364132
 10
90.68679875119983
 20
-116.388761364132
 10
91.10985647678851
 20
-116.388761364132
 10
91.10985647678851
 20
-116.388761364132
 10
91.22836776148111
 20
-116.388761364132
 10
91.27074243594969
 20
-116.388761364132
 10
91.35308021804715
 20
-116.3844549947754
 10
91.50104706913864
 20
-116.3780815681277
 10
91.51792803701636
 20
-116.3780815681277
 10
91.56443682606722
 20
-116.3760145108366
 10
91.55616859690262
 20
-116.4564574904171
 10
91.5516899727718
 20
-116.6151041375129
 10
91.5516899727718
 20
-116.6976141743846
 10
91.5516899727718
 20
-116.6976141743846
 10
91.5516899727718
 20
-116.9832125901118
 10
91.5516899727718
 20
-116.9832125901118
 10
91.5516899727718
 20
-117.0550428309793
 10
91.55375703006295
 20
-117.1863009689673
 10
91.56443682606722
 20
-117.2645046364825
 10
91.49243433042551
 20
-117.2603705219002
 10
91.36978893115061
 20
-117.2581312098348
 10
91.29175751840971
 20
-117.2560641525436
 10
91.40148380961492
 20
-117.3237602788288
 10
91.55375703006295
 20
-117.3745754372362
 10
91.76563040240582
 20
-117.3787095518185
 10
91.76563040240582
 20
-117.3787095518185
 10
91.67226831475554
 20
-117.5585435361486
 10
91.67226831475554
 20
-117.5585435361486
 97
        0
 97
        0
 92
        1
 93
        4
 72
     1
 10
91.36789412863372
 20
-116.5241536167023
 11
90.4559773536881
 21
-116.5241536167023
 72
     1
 10
90.4559773536881
 20
-116.5241536167023
 11
90.4559773536881
 21
-116.6362914747472
 72
     1
 10
90.4559773536881
 20
-116.6362914747472
 11
91.36789412863372
 21
-116.6362914747472
 72
     1
 10
91.36789412863372
 20
-116.6362914747472
 11
91.36789412863372
 21
-116.5241536167023
 97
        0
 92
        1
 93
        4
 72
     1
 10
91.36789412863372
 20
-116.7694444152521
 11
90.4559773536881
 21
-116.7694444152521
 72
     1
 10
90.4559773536881
 20
-116.7694444152521
 11
90.4559773536881
 21
-116.8795152160058
 72
     1
 10
90.4559773536881
 20
-116.8795152160058
 11
91.36789412863372
 21
-116.8795152160058
 72
     1
 10
91.36789412863372
 20
-116.8795152160058
 11
91.36789412863372
 21
-116.7694444152521
 97
        0
 92
        1
 93
        4
 72
     1
 10
91.36789412863372
 20
-117.0149074685761
 11
90.4559773536881
 21
-117.0149074685761
 72
     1
 10
90.4559773536881
 20
-117.0149074685761
 11
90.4559773536881
 21
-117.1227389572645
 72
     1
 10
90.4559773536881
 20
-117.1227389572645
 11
91.36789412863372
 21
-117.1227389572645
 72
     1
 10
91.36789412863372
 20
-117.1227389572645
 11
91.36789412863372
 21
-117.0149074685761
 97
        0
 92
        1
 93
        1
 72
     4
 94
        3
 73
     0
 74
     1
 95
       74
 96
       70
 40
0.0
 40
0.0
 40
0.0
 40
0.0
 40
1.0
 40
1.0
 40
1.0
 40
2.0
 40
2.0
 40
2.0
 40
3.0
 40
3.0
 40
3.0
 40
4.0
 40
4.0
 40
4.0
 40
5.0
 40
5.0
 40
5.0
 40
6.0
 40
6.0
 40
6.0
 40
7.0
 40
7.0
 40
7.0
 40
8.0
 40
8.0
 40
8.0
 40
9.0
 40
9.0
 40
9.0
 40
10.0
 40
10.0
 40
10.0
 40
11.0
 40
11.0
 40
11.0
 40
12.0
 40
12.0
 40
12.0
 40
13.0
 40
13.0
 40
13.0
 40
14.0
 40
14.0
 40
14.0
 40
15.0
 40
15.0
 40
15.0
 40
16.0
 40
16.0
 40
16.0
 40
17.0
 40
17.0
 40
17.0
 40
18.0
 40
18.0
 40
18.0
 40
19.0
 40
19.0
 40
19.0
 40
20.0
 40
20.0
 40
20.0
 40
21.0
 40
21.0
 40
21.0
 40
22.0
 40
22.0
 40
22.0
 40
23.0
 40
23.0
 40
23.0
 40
23.0
 10
91.68501516805097
 20
-116.0714680699405
 10
91.68501516805097
 20
-116.0714680699405
 10
91.52447371843833
 20
-116.0714680699405
 10
91.52447371843833
 20
-116.0714680699405
 10
91.52447371843833
 20
-116.0714680699405
 10
91.52447371843833
 20
-116.1856729852765
 10
91.52447371843833
 20
-116.1856729852765
 10
91.52447371843833
 20
-116.2258083476797
 10
91.53067489031179
 20
-116.2998779006125
 10
91.53480900489409
 20
-116.3251993524291
 10
91.53480900489409
 20
-116.3251993524291
 10
91.323452396874
 20
-116.3251993524291
 10
91.323452396874
 20
-116.3251993524291
 10
91.33413219287827
 20
-116.2597425382094
 10
91.33619925016943
 20
-116.2004868958631
 10
91.33619925016943
 20
-116.1982475837977
 10
91.33619925016943
 20
-116.1982475837977
 10
91.33619925016943
 20
-116.0756021845228
 10
91.33619925016943
 20
-116.0756021845228
 10
91.33619925016943
 20
-116.0756021845228
 10
91.15636526583938
 20
-116.0756021845228
 10
91.15636526583938
 20
-116.0756021845228
 10
91.13741724067052
 20
-116.1348578268691
 10
91.09090845161964
 20
-116.2807576206694
 10
90.97653128150934
 20
-116.3632676575411
 10
90.97653128150934
 20
-116.3632676575411
 10
90.820123946479
 20
-116.257503226144
 10
90.820123946479
 20
-116.257503226144
 10
90.89419349941187
 20
-116.2109944370931
 10
91.01029321726479
 20
-116.1369248841602
 10
91.01029321726479
 20
-115.8154974753864
 10
91.01029321726479
 20
-115.7603759476224
 10
91.00615910268249
 20
-115.7159342158627
 10
91.00409204539135
 20
-115.6778659107507
 10
91.08022865561536
 20
-115.6863063946895
 10
91.15429820854824
 20
-115.6926798213373
 10
91.21768796547683
 20
-115.6926798213373
 10
91.39528263774146
 20
-115.6926798213373
 10
91.59406464724037
 20
-115.6334241789909
 10
91.65538734687783
 20
-115.6037963578178
 10
91.65538734687783
 20
-115.6037963578178
 10
91.78251137028354
 20
-115.7391886103881
 10
91.78251137028354
 20
-115.7391886103881
 10
91.78664548486584
 20
-115.7434949797447
 10
91.78871254215699
 20
-115.7519354636836
 10
91.78871254215699
 20
-115.7583088903313
 10
91.78871254215699
 20
-115.7794962275655
 10
91.77389863157042
 20
-115.7858696542133
 10
91.7570176636927
 20
-115.7858696542133
 10
91.73600258123267
 20
-115.7858696542133
 10
91.7211886706461
 20
-115.7774291702744
 10
91.70189613592869
 20
-115.7667493742701
 10
91.52860783302063
 20
-115.8239379593253
 10
91.31070554357858
 20
-115.8492594111419
 10
91.17738034829941
 20
-115.851326468433
 10
91.17738034829941
 20
-115.851326468433
 10
91.17324623371711
 20
-115.9338365053047
 10
91.17324623371711
 20
-115.9338365053047
 10
91.17324623371711
 20
-115.9338365053047
 10
91.44592554137463
 20
-115.9338365053047
 10
91.44592554137463
 20
-115.9338365053047
 10
91.50311412642978
 20
-115.9338365053047
 10
91.76563040240582
 20
-115.9148884801359
 10
91.80972762461701
 20
-115.9085150534882
 10
91.80972762461701
 20
-115.9085150534882
 10
91.80972762461701
 20
-116.0776692418139
 10
91.80972762461701
 20
-116.0776692418139
 10
91.77596568886158
 20
-116.0735351272316
 10
91.76321883556615
 20
-116.0714680699405
 10
91.68501516805097
 20
-116.0714680699405
 97
        0
 97
        0
 75
     2
 76
     1
 98
        0
  0
SPLINE
  5
B3
330
77
100
AcDbEntity
  8
_U+30EC_U+30A4_U+30E4_U+30FC 1
370
     0
100
AcDbSpline
210
0.0
220
0.0
230
1.0
 70
    11
 71
     3
 72
    53
 73
    49
 74
     0
 42
0.0000000001
 43
0.0000000001
 12
1.0
 22
0.0
 32
0.0
 13
1.0
 23
0.0
 33
0.0
 40
0.0
 40
0.0
 40
0.0
 40
0.0
 40
1.0
 40
1.0
 40
1.0
 40
2.0
 40
2.0
 40
2.0
 40
3.0
 40
3.0
 40
3.0
 40
4.0
 40
4.0
 40
4.0
 40
5.0
 40
5.0
 40
5.0
 40
6.0
 40
6.0
 40
6.0
 40
7.0
 40
7.0
 40
7.0
 40
8.0
 40
8.0
 40
8.0
 40
9.0
 40
9.0
 40
9.0
 40
10.0
 40
10.0
 40
10.0
 40
11.0
 40
11.0
 40
11.0
 40
12.0
 40
12.0
 40
12.0
 40
13.0
 40
13.0
 40
13.0
 40
14.0
 40
14.0
 40
14.0
 40
15.0
 40
15.0
 40
15.0
 40
16.0
 40
16.0
 40
16.0
 40
16.0
 10
93.13781193418083
 20
-117.4338310795825
 30
0.0
 10
92.94764266339504
 20
-117.4338310795825
 30
0.0
 10
92.88838702104874
 20
-117.3089463682422
 30
0.0
 10
92.88838702104874
 20
-117.1608072623765
 30
0.0
 10
92.88838702104874
 20
-117.1608072623765
 30
0.0
 10
92.88838702104874
 20
-116.4669650316471
 30
0.0
 10
92.88838702104874
 20
-116.4669650316471
 30
0.0
 10
92.88838702104874
 20
-116.4669650316471
 30
0.0
 10
92.70648597942755
 20
-116.4669650316471
 30
0.0
 10
92.70648597942755
 20
-116.4669650316471
 30
0.0
 10
92.70648597942755
 20
-116.4669650316471
 30
0.0
 10
92.70648597942755
 20
-116.2745564487959
 30
0.0
 10
92.70648597942755
 20
-116.2745564487959
 30
0.0
 10
92.70648597942755
 20
-116.2745564487959
 30
0.0
 10
92.88838702104874
 20
-116.2745564487959
 30
0.0
 10
92.88838702104874
 20
-116.2745564487959
 30
0.0
 10
92.88838702104874
 20
-116.2745564487959
 30
0.0
 10
92.88838702104874
 20
-115.9593302118956
 30
0.0
 10
92.88838702104874
 20
-115.9593302118956
 30
0.0
 10
92.88838702104874
 20
-115.9593302118956
 30
0.0
 10
93.10611705571652
 20
-115.9593302118956
 30
0.0
 10
93.10611705571652
 20
-115.9593302118956
 30
0.0
 10
93.10611705571652
 20
-115.9593302118956
 30
0.0
 10
93.10611705571652
 20
-116.2745564487959
 30
0.0
 10
93.10611705571652
 20
-116.2745564487959
 30
0.0
 10
93.10611705571652
 20
-116.2745564487959
 30
0.0
 10
93.29663083605085
 20
-116.2745564487959
 30
0.0
 10
93.29663083605085
 20
-116.2745564487959
 30
0.0
 10
93.29663083605085
 20
-116.2745564487959
 30
0.0
 10
93.29663083605085
 20
-116.4669650316471
 30
0.0
 10
93.29663083605085
 20
-116.4669650316471
 30
0.0
 10
93.29663083605085
 20
-116.4669650316471
 30
0.0
 10
93.10611705571652
 20
-116.4669650316471
 30
0.0
 10
93.10611705571652
 20
-116.4669650316471
 30
0.0
 10
93.10611705571652
 20
-116.4669650316471
 30
0.0
 10
93.10611705571652
 20
-117.1354858105599
 30
0.0
 10
93.10611705571652
 20
-117.1354858105599
 30
0.0
 10
93.10611705571652
 20
-117.2200629047228
 30
0.0
 10
93.15917152618938
 20
-117.2433172992482
 30
0.0
 10
93.23082951228257
 20
-117.2433172992482
 30
0.0
 10
93.24150930828685
 20
-117.2433172992482
 30
0.0
 10
93.26493595758654
 20
-117.2433172992482
 30
0.0
 10
93.29663083605085
 20
-117.2391831846659
 30
0.0
 10
93.29663083605085
 20
-117.2391831846659
 30
0.0
 10
93.29663083605085
 20
-117.4105766850571
 30
0.0
 10
93.29663083605085
 20
-117.4105766850571
 30
0.0
 10
93.2628689002954
 20
-117.4231512835782
 30
0.0
 10
93.18879934736253
 20
-117.4338310795825
 30
0.0
 10
93.13781193418083
 20
-117.4338310795825
 30
0.0
  0
HATCH
  5
B4
330
77
100
AcDbEntity
  8
_U+30EC_U+30A4_U+30E4_U+30FC 1
 62
   179
420
  2234388
100
AcDbHatch
 10
0.0
 20
0.0
 30
0.0
210
0.0
220
0.0
230
1.0
  2
SOLID
 70
     1
 71
     0
 91
        1
 92
        1
 93
        1
 72
     4
 94
        3
 73
     0
 74
     1
 95
       53
 96
       49
 40
0.0
 40
0.0
 40
0.0
 40
0.0
 40
1.0
 40
1.0
 40
1.0
 40
2.0
 40
2.0
 40
2.0
 40
3.0
 40
3.0
 40
3.0
 40
4.0
 40
4.0
 40
4.0
 40
5.0
 40
5.0
 40
5.0
 40
6.0
 40
6.0
 40
6.0
 40
7.0
 40
7.0
 40
7.0
 40
8.0
 40
8.0
 40
8.0
 40
9.0
 40
9.0
 40
9.0
 40
10.0
 40
10.0
 40
10.0
 40
11.0
 40
11.0
 40
11.0
 40
12.0
 40
12.0
 40
12.0
 40
13.0
 40
13.0
 40
13.0
 40
14.0
 40
14.0
 40
14.0
 40
15.0
 40
15.0
 40
15.0
 40
16.0
 40
16.0
 40
16.0
 40
16.0
 10
93.13781193418083
 20
-117.4338310795825
 10
92.94764266339504
 20
-117.4338310795825
 10
92.88838702104874
 20
-117.3089463682422
 10
92.88838702104874
 20
-117.1608072623765
 10
92.88838702104874
 20
-117.1608072623765
 10
92.88838702104874
 20
-116.4669650316471
 10
92.88838702104874
 20
-116.4669650316471
 10
92.88838702104874
 20
-116.4669650316471
 10
92.70648597942755
 20
-116.4669650316471
 10
92.70648597942755
 20
-116.4669650316471
 10
92.70648597942755
 20
-116.4669650316471
 10
92.70648597942755
 20
-116.2745564487959
 10
92.70648597942755
 20
-116.2745564487959
 10
92.70648597942755
 20
-116.2745564487959
 10
92.88838702104874
 20
-116.2745564487959
 10
92.88838702104874
 20
-116.2745564487959
 10
92.88838702104874
 20
-116.2745564487959
 10
92.88838702104874
 20
-115.9593302118956
 10
92.88838702104874
 20
-115.9593302118956
 10
92.88838702104874
 20
-115.9593302118956
 10
93.10611705571652
 20
-115.9593302118956
 10
93.10611705571652
 20
-115.9593302118956
 10
93.10611705571652
 20
-115.9593302118956
 10
93.10611705571652
 20
-116.2745564487959
 10
93.10611705571652
 20
-116.2745564487959
 10
93.10611705571652
 20
-116.2745564487959
 10
93.29663083605085
 20
-116.2745564487959
 10
93.29663083605085
 20
-116.2745564487959
 10
93.29663083605085
 20
-116.2745564487959
 10
93.29663083605085
 20
-116.4669650316471
 10
93.29663083605085
 20
-116.4669650316471
 10
93.29663083605085
 20
-116.4669650316471
 10
93.10611705571652
 20
-116.4669650316471
 10
93.10611705571652
 20
-116.4669650316471
 10
93.10611705571652
 20
-116.4669650316471
 10
93.10611705571652
 20
-117.1354858105599
 10
93.10611705571652
 20
-117.1354858105599
 10
93.10611705571652
 20
-117.2200629047228
 10
93.15917152618938
 20
-117.2433172992482
 10
93.23082951228257
 20
-117.2433172992482
 10
93.24150930828685
 20
-117.2433172992482
 10
93.26493595758654
 20
-117.2433172992482
 10
93.29663083605085
 20
-117.2391831846659
 10
93.29663083605085
 20
-117.2391831846659
 10
93.29663083605085
 20
-117.4105766850571
 10
93.29663083605085
 20
-117.4105766850571
 10
93.2628689002954
 20
-117.4231512835782
 10
93.18879934736253
 20
-117.4338310795825
 10
93.13781193418083
 20
-117.4338310795825
 97
        0
 97
        0
 75
     2
 76
     1
 98
        0
  0
POLYLINE
  5
B5
330
77
100
AcDbEntity
  8
_U+30EC_U+30A4_U+30E4_U+30FC 1
370
     0
100
AcDb2dPolyline
 66
     1
 10
0.0
 20
0.0
 30
0.0
  0
VERTEX
  5
B6
330
B5
100
AcDbEntity
  8
_U+30EC_U+30A4_U+30E4_U+30FC 1
370
     0
100
AcDbVertex
100
AcDb2dVertex
 10
93.47026364850744
 20
-116.4965928528203
 30
0.0
  0
VERTEX
  5
B7
330
B5
100
AcDbEntity
  8
_U+30EC_U+30A4_U+30E4_U+30FC 1
370
     0
100
AcDbVertex
100
AcDb2dVertex
 10
93.47026364850744
 20
-116.2914374166737
 30
0.0
  0
VERTEX
  5
B8
330
B5
100
AcDbEntity
  8
_U+30EC_U+30A4_U+30E4_U+30FC 1
370
     0
100
AcDbVertex
100
AcDb2dVertex
 10
94.64848630446288
 20
-116.2914374166737
 30
0.0
  0
VERTEX
  5
B9
330
B5
100
AcDbEntity
  8
_U+30EC_U+30A4_U+30E4_U+30FC 1
370
     0
100
AcDbVertex
100
AcDb2dVertex
 10
94.64848630446288
 20
-116.4965928528203
 30
0.0
  0
VERTEX
  5
BA
330
B5
100
AcDbEntity
  8
_U+30EC_U+30A4_U+30E4_U+30FC 1
370
     0
100
AcDbVertex
100
AcDb2dVertex
 10
93.47026364850744
 20
-116.4965928528203
 30
0.0
  0
SEQEND
  5
BB
330
B5
100
AcDbEntity
  8
_U+30EC_U+30A4_U+30E4_U+30FC 1
370
     0
  0
POLYLINE
  5
BC
330
77
100
AcDbEntity
  8
_U+30EC_U+30A4_U+30E4_U+30FC 1
370
     0
100
AcDb2dPolyline
 66
     1
 10
0.0
 20
0.0
 30
0.0
  0
VERTEX
  5
BD
330
BC
100
AcDbEntity
  8
_U+30EC_U+30A4_U+30E4_U+30FC 1
370
     0
100
AcDbVertex
100
AcDb2dVertex
 10
93.47026364850744
 20
-116.9303303744133
 30
0.0
  0
VERTEX
  5
BE
330
BC
100
AcDbEntity
  8
_U+30EC_U+30A4_U+30E4_U+30FC 1
370
     0
100
AcDbVertex
100
AcDb2dVertex
 10
93.47026364850744
 20
-116.7251749382666
 30
0.0
  0
VERTEX
  5
BF
330
BC
100
AcDbEntity
  8
_U+30EC_U+30A4_U+30E4_U+30FC 1
370
     0
100
AcDbVertex
100
AcDb2dVertex
 10
94.64848630446288
 20
-116.7251749382666
 30
0.0
  0
VERTEX
  5
C0
330
BC
100
AcDbEntity
  8
_U+30EC_U+30A4_U+30E4_U+30FC 1
370
     0
100
AcDbVertex
100
AcDb2dVertex
 10
94.64848630446288
 20
-116.9303303744133
 30
0.0
  0
VERTEX
  5
C1
330
BC
100
AcDbEntity
  8
_U+30EC_U+30A4_U+30E4_U+30FC 1
370
     0
100
AcDbVertex
100
AcDb2dVertex
 10
93.47026364850744
 20
-116.9303303744133
 30
0.0
  0
SEQEND
  5
C2
330
BC
100
AcDbEntity
  8
_U+30EC_U+30A4_U+30E4_U+30FC 1
370
     0
  0
HATCH
  5
C3
330
77
100
AcDbEntity
  8
_U+30EC_U+30A4_U+30E4_U+30FC 1
 62
   179
420
  2234388
100
AcDbHatch
 10
0.0
 20
0.0
 30
0.0
210
0.0
220
0.0
230
1.0
  2
SOLID
 70
     1
 71
     0
 91
        2
 92
        1
 93
        4
 72
     1
 10
93.47026364850744
 20
-116.4965928528203
 11
93.47026364850744
 21
-116.2914374166737
 72
     1
 10
93.47026364850744
 20
-116.2914374166737
 11
94.64848630446288
 21
-116.2914374166737
 72
     1
 10
94.64848630446288
 20
-116.2914374166737
 11
94.64848630446288
 21
-116.4965928528203
 72
     1
 10
94.64848630446288
 20
-116.4965928528203
 11
93.47026364850744
 21
-116.4965928528203
 97
        0
 92
        1
 93
        4
 72
     1
 10
93.47026364850744
 20
-116.9303303744133
 11
93.47026364850744
 21
-116.7251749382666
 72
     1
 10
93.47026364850744
 20
-116.7251749382666
 11
94.64848630446288
 21
-116.7251749382666
 72
     1
 10
94.64848630446288
 20
-116.7251749382666
 11
94.64848630446288
 21
-116.9303303744133
 72
     1
 10
94.64848630446288
 20
-116.9303303744133
 11
93.47026364850744
 21
-116.9303303744133
 97
        0
 75
     2
 76
     1
 98
        0
  0
SPLINE
  5
C4
330
77
100
AcDbEntity
  8
_U+30EC_U+30A4_U+30E4_U+30FC 1
370
     0
100
AcDbSpline
210
0.0
220
0.0
230
1.0
 70
    11
 71
     3
 72
    26
 73
    22
 74
     0
 42
0.0000000001
 43
0.0000000001
 12
1.0
 22
0.0
 32
0.0
 13
1.0
 23
0.0
 33
0.0
 40
0.0
 40
0.0
 40
0.0
 40
0.0
 40
1.0
 40
1.0
 40
1.0
 40
2.0
 40
2.0
 40
2.0
 40
3.0
 40
3.0
 40
3.0
 40
4.0
 40
4.0
 40
4.0
 40
5.0
 40
5.0
 40
5.0
 40
6.0
 40
6.0
 40
6.0
 40
7.0
 40
7.0
 40
7.0
 40
7.0
 10
95.3244140386689
 20
-117.3830159211751
 30
0.0
 10
95.3244140386689
 20
-117.3830159211751
 30
0.0
 10
95.3244140386689
 20
-116.2786905633782
 30
0.0
 10
95.3244140386689
 20
-116.2786905633782
 30
0.0
 10
95.3244140386689
 20
-116.2786905633782
 30
0.0
 10
94.99437389118197
 20
-116.2786905633782
 30
0.0
 10
94.99437389118197
 20
-116.2786905633782
 30
0.0
 10
94.99437389118197
 20
-116.2786905633782
 30
0.0
 10
94.99437389118197
 20
-116.1307237122868
 30
0.0
 10
94.99437389118197
 20
-116.1307237122868
 30
0.0
 10
95.32648109596005
 20
-116.1159098017002
 30
0.0
 10
95.37298988501092
 20
-115.9529567852479
 30
0.0
 10
95.40261770618407
 20
-115.8387518699118
 30
0.0
 10
95.40261770618407
 20
-115.8387518699118
 30
0.0
 10
95.54868975475867
 20
-115.8387518699118
 30
0.0
 10
95.54868975475867
 20
-115.8387518699118
 30
0.0
 10
95.54868975475867
 20
-115.8387518699118
 30
0.0
 10
95.54868975475867
 20
-117.3830159211751
 30
0.0
 10
95.54868975475867
 20
-117.3830159211751
 30
0.0
 10
95.54868975475867
 20
-117.3830159211751
 30
0.0
 10
95.3244140386689
 20
-117.3830159211751
 30
0.0
 10
95.3244140386689
 20
-117.3830159211751
 30
0.0
  0
HATCH
  5
C5
330
77
100
AcDbEntity
  8
_U+30EC_U+30A4_U+30E4_U+30FC 1
 62
   179
420
  2234388
100
AcDbHatch
 10
0.0
 20
0.0
 30
0.0
210
0.0
220
0.0
230
1.0
  2
SOLID
 70
     1
 71
     0
 91
        1
 92
        1
 93
        1
 72
     4
 94
        3
 73
     0
 74
     1
 95
       26
 96
       22
 40
0.0
 40
0.0
 40
0.0
 40
0.0
 40
1.0
 40
1.0
 40
1.0
 40
2.0
 40
2.0
 40
2.0
 40
3.0
 40
3.0
 40
3.0
 40
4.0
 40
4.0
 40
4.0
 40
5.0
 40
5.0
 40
5.0
 40
6.0
 40
6.0
 40
6.0
 40
7.0
 40
7.0
 40
7.0
 40
7.0
 10
95.3244140386689
 20
-117.3830159211751
 10
95.3244140386689
 20
-117.3830159211751
 10
95.3244140386689
 20
-116.2786905633782
 10
95.3244140386689
 20
-116.2786905633782
 10
95.3244140386689
 20
-116.2786905633782
 10
94.99437389118197
 20
-116.2786905633782
 10
94.99437389118197
 20
-116.2786905633782
 10
94.99437389118197
 20
-116.2786905633782
 10
94.99437389118197
 20
-116.1307237122868
 10
94.99437389118197
 20
-116.1307237122868
 10
95.32648109596005
 20
-116.1159098017002
 10
95.37298988501092
 20
-115.9529567852479
 10
95.40261770618407
 20
-115.8387518699118
 10
95.40261770618407
 20
-115.8387518699118
 10
95.54868975475867
 20
-115.8387518699118
 10
95.54868975475867
 20
-115.8387518699118
 10
95.54868975475867
 20
-115.8387518699118
 10
95.54868975475867
 20
-117.3830159211751
 10
95.54868975475867
 20
-117.3830159211751
 10
95.54868975475867
 20
-117.3830159211751
 10
95.3244140386689
 20
-117.3830159211751
 10
95.3244140386689
 20
-117.3830159211751
 97
        0
 97
        0
 75
     2
 76
     1
 98
        0
  0
POLYLINE
  5
C6
330
77
100
AcDbEntity
  8
_U+30EC_U+30A4_U+30E4_U+30FC 1
370
     0
100
AcDb2dPolyline
 66
     1
 10
0.0
 20
0.0
 30
0.0
  0
VERTEX
  5
C7
330
C6
100
AcDbEntity
  8
_U+30EC_U+30A4_U+30E4_U+30FC 1
370
     0
100
AcDbVertex
100
AcDb2dVertex
 10
96.10989580930587
 20
-117.3830159211751
 30
0.0
  0
VERTEX
  5
C8
330
C6
100
AcDbEntity
  8
_U+30EC_U+30A4_U+30E4_U+30FC 1
370
     0
100
AcDbVertex
100
AcDb2dVertex
 10
96.10989580930587
 20
-117.1313516959776
 30
0.0
  0
VERTEX
  5
C9
330
C6
100
AcDbEntity
  8
_U+30EC_U+30A4_U+30E4_U+30FC 1
370
     0
100
AcDbVertex
100
AcDb2dVertex
 10
96.36173228927763
 20
-117.1313516959776
 30
0.0
  0
VERTEX
  5
CA
330
C6
100
AcDbEntity
  8
_U+30EC_U+30A4_U+30E4_U+30FC 1
370
     0
100
AcDbVertex
100
AcDb2dVertex
 10
96.36173228927763
 20
-117.3830159211751
 30
0.0
  0
VERTEX
  5
CB
330
C6
100
AcDbEntity
  8
_U+30EC_U+30A4_U+30E4_U+30FC 1
370
     0
100
AcDbVertex
100
AcDb2dVertex
 10
96.10989580930587
 20
-117.3830159211751
 30
0.0
  0
SEQEND
  5
CC
330
C6
100
AcDbEntity
  8
_U+30EC_U+30A4_U+30E4_U+30FC 1
370
     0
  0
HATCH
  5
CD
330
77
100
AcDbEntity
  8
_U+30EC_U+30A4_U+30E4_U+30FC 1
 62
   179
420
  2234388
100
AcDbHatch
 10
0.0
 20
0.0
 30
0.0
210
0.0
220
0.0
230
1.0
  2
SOLID
 70
     1
 71
     0
 91
        1
 92
        1
 93
        4
 72
     1
 10
96.10989580930587
 20
-117.3830159211751
 11
96.10989580930587
 21
-117.1313516959776
 72
     1
 10
96.10989580930587
 20
-117.1313516959776
 11
96.36173228927763
 21
-117.1313516959776
 72
     1
 10
96.36173228927763
 20
-117.1313516959776
 11
96.36173228927763
 21
-117.3830159211751
 72
     1
 10
96.36173228927763
 20
-117.3830159211751
 11
96.10989580930587
 21
-117.3830159211751
 97
        0
 75
     2
 76
     1
 98
        0
  0
SPLINE
  5
CE
330
77
100
AcDbEntity
  8
_U+30EC_U+30A4_U+30E4_U+30FC 1
370
     0
100
AcDbSpline
210
0.0
220
0.0
230
1.0
 70
    11
 71
     3
 72
    29
 73
    25
 74
     0
 42
0.0000000001
 43
0.0000000001
 12
1.0
 22
0.0
 32
0.0
 13
1.0
 23
0.0
 33
0.0
 40
0.0
 40
0.0
 40
0.0
 40
0.0
 40
1.0
 40
1.0
 40
1.0
 40
2.0
 40
2.0
 40
2.0
 40
3.0
 40
3.0
 40
3.0
 40
4.0
 40
4.0
 40
4.0
 40
5.0
 40
5.0
 40
5.0
 40
6.0
 40
6.0
 40
6.0
 40
7.0
 40
7.0
 40
7.0
 40
8.0
 40
8.0
 40
8.0
 40
8.0
 10
97.49585772302187
 20
-117.2052489941362
 30
0.0
 10
97.38768172478503
 20
-117.4147107996394
 30
0.0
 10
97.21439342187696
 20
-117.4338310795825
 30
0.0
 10
97.09794919447552
 20
-117.4338310795825
 30
0.0
 10
96.93706323531435
 20
-117.4338310795825
 30
0.0
 10
96.79546981087059
 20
-117.3873222905316
 30
0.0
 10
96.70038517547769
 20
-117.2052489941362
 30
0.0
 10
96.59668780137167
 20
-117.0106010992196
 30
0.0
 10
96.57773977620279
 20
-116.7737507846087
 30
0.0
 10
96.57773977620279
 20
-116.6107977681563
 30
0.0
 10
96.57773977620279
 20
-116.4669650316471
 30
0.0
 10
96.59462074408052
 20
-116.2153008064496
 30
0.0
 10
96.70038517547769
 20
-116.0163465421765
 30
0.0
 10
96.80821666416601
 20
-115.813258163321
 30
0.0
 10
96.96910262332717
 20
-115.7900037687956
 30
0.0
 10
97.09794919447552
 20
-115.7900037687956
 30
0.0
 10
97.25676809634554
 20
-115.7900037687956
 30
0.0
 10
97.40042857808045
 20
-115.8344455005553
 30
0.0
 10
97.49585772302187
 20
-116.0163465421765
 30
0.0
 10
97.59507647299706
 20
-116.2089273798019
 30
0.0
 10
97.61850312229677
 20
-116.437337210474
 30
0.0
 10
97.61850312229677
 20
-116.6107977681563
 30
0.0
 10
97.61850312229677
 20
-116.7821912685475
 30
0.0
 10
97.59714353028822
 20
-117.012840411285
 30
0.0
 10
97.49585772302187
 20
-117.2052489941362
 30
0.0
  0
SPLINE
  5
CF
330
77
100
AcDbEntity
  8
_U+30EC_U+30A4_U+30E4_U+30FC 1
370
     0
100
AcDbSpline
210
0.0
220
0.0
230
1.0
 70
    11
 71
     3
 72
    17
 73
    13
 74
     0
 42
0.0000000001
 43
0.0000000001
 12
1.0
 22
0.0
 32
0.0
 13
1.0
 23
0.0
 33
0.0
 40
0.0
 40
0.0
 40
0.0
 40
0.0
 40
1.0
 40
1.0
 40
1.0
 40
2.0
 40
2.0
 40
2.0
 40
3.0
 40
3.0
 40
3.0
 40
4.0
 40
4.0
 40
4.0
 40
4.0
 10
97.09794919447552
 20
-115.982584606421
 30
0.0
 10
96.84852428134343
 20
-115.982584606421
 30
0.0
 10
96.80167098274403
 20
-116.2661159648571
 30
0.0
 10
96.80167098274403
 20
-116.6107977681563
 30
0.0
 10
96.80167098274403
 20
-116.9303303744133
 30
0.0
 10
96.83784448533916
 20
-117.2391831846659
 30
0.0
 10
97.09794919447552
 20
-117.2391831846659
 30
0.0
 10
97.34565155986498
 20
-117.2391831846659
 30
0.0
 10
97.39422740620701
 20
-116.957718883521
 30
0.0
 10
97.39422740620701
 20
-116.6107977681563
 30
0.0
 10
97.39422740620701
 20
-116.2914374166737
 30
0.0
 10
97.35598684632073
 20
-115.982584606421
 30
0.0
 10
97.09794919447552
 20
-115.982584606421
 30
0.0
  0
HATCH
  5
D0
330
77
100
AcDbEntity
  8
_U+30EC_U+30A4_U+30E4_U+30FC 1
 62
   179
420
  2234388
100
AcDbHatch
 10
0.0
 20
0.0
 30
0.0
210
0.0
220
0.0
230
1.0
  2
SOLID
 70
     1
 71
     0
 91
        2
 92
        1
 93
        1
 72
     4
 94
        3
 73
     0
 74
     1
 95
       29
 96
       25
 40
0.0
 40
0.0
 40
0.0
 40
0.0
 40
1.0
 40
1.0
 40
1.0
 40
2.0
 40
2.0
 40
2.0
 40
3.0
 40
3.0
 40
3.0
 40
4.0
 40
4.0
 40
4.0
 40
5.0
 40
5.0
 40
5.0
 40
6.0
 40
6.0
 40
6.0
 40
7.0
 40
7.0
 40
7.0
 40
8.0
 40
8.0
 40
8.0
 40
8.0
 10
97.49585772302187
 20
-117.2052489941362
 10
97.38768172478503
 20
-117.4147107996394
 10
97.21439342187696
 20
-117.4338310795825
 10
97.09794919447552
 20
-117.4338310795825
 10
96.93706323531435
 20
-117.4338310795825
 10
96.79546981087059
 20
-117.3873222905316
 10
96.70038517547769
 20
-117.2052489941362
 10
96.59668780137167
 20
-117.0106010992196
 10
96.57773977620279
 20
-116.7737507846087
 10
96.57773977620279
 20
-116.6107977681563
 10
96.57773977620279
 20
-116.4669650316471
 10
96.59462074408052
 20
-116.2153008064496
 10
96.70038517547769
 20
-116.0163465421765
 10
96.80821666416601
 20
-115.813258163321
 10
96.96910262332717
 20
-115.7900037687956
 10
97.09794919447552
 20
-115.7900037687956
 10
97.25676809634554
 20
-115.7900037687956
 10
97.40042857808045
 20
-115.8344455005553
 10
97.49585772302187
 20
-116.0163465421765
 10
97.59507647299706
 20
-116.2089273798019
 10
97.61850312229677
 20
-116.437337210474
 10
97.61850312229677
 20
-116.6107977681563
 10
97.61850312229677
 20
-116.7821912685475
 10
97.59714353028822
 20
-117.012840411285
 10
97.49585772302187
 20
-117.2052489941362
 97
        0
 97
        0
 92
        1
 93
        1
 72
     4
 94
        3
 73
     0
 74
     1
 95
       17
 96
       13
 40
0.0
 40
0.0
 40
0.0
 40
0.0
 40
1.0
 40
1.0
 40
1.0
 40
2.0
 40
2.0
 40
2.0
 40
3.0
 40
3.0
 40
3.0
 40
4.0
 40
4.0
 40
4.0
 40
4.0
 10
97.09794919447552
 20
-115.982584606421
 10
96.84852428134343
 20
-115.982584606421
 10
96.80167098274403
 20
-116.2661159648571
 10
96.80167098274403
 20
-116.6107977681563
 10
96.80167098274403
 20
-116.9303303744133
 10
96.83784448533916
 20
-117.2391831846659
 10
97.09794919447552
 20
-117.2391831846659
 10
97.34565155986498
 20
-117.2391831846659
 10
97.39422740620701
 20
-116.957718883521
 10
97.39422740620701
 20
-116.6107977681563
 10
97.39422740620701
 20
-116.2914374166737
 10
97.35598684632073
 20
-115.982584606421
 10
97.09794919447552
 20
-115.982584606421
 97
        0
 97
        0
 75
     2
 76
     1
 98
        0
  0
ENDBLK
  5
7A
330
77
100
AcDbEntity
  8
0
100
AcDbBlockEnd
  0
BLOCK
  5
DF
330
DD
100
AcDbEntity
  8
0
100
AcDbBlockBegin
  2
block 4
 70
     0
 10
0.0
 20
0.0
 30
0.0
  3
block 4
  1

  0
POLYLINE
  5
E1
330
DD
100
AcDbEntity
  8
_U+30EC_U+30A4_U+30E4_U+30FC 1
370
     0
100
AcDb2dPolyline
 66
     1
 10
0.0
 20
0.0
 30
0.0
  0
VERTEX
  5
E2
330
E1
100
AcDbEntity
  8
_U+30EC_U+30A4_U+30E4_U+30FC 1
370
     0
100
AcDbVertex
100
AcDb2dVertex
 10
112.4475721290062
 20
-126.3178710621705
 30
0.0
  0
VERTEX
  5
E3
330
E1
100
AcDbEntity
  8
_U+30EC_U+30A4_U+30E4_U+30FC 1
370
     0
100
AcDbVertex
100
AcDb2dVertex
 10
112.3404296594149
 20
-126.6479112096575
 30
0.0
  0
VERTEX
  5
E4
330
E1
100
AcDbEntity
  8
_U+30EC_U+30A4_U+30E4_U+30FC 1
370
     0
100
AcDbVertex
100
AcDb2dVertex
 10
112.1333794207514
 20
-126.5807318476951
 30
0.0
  0
VERTEX
  5
E5
330
E1
100
AcDbEntity
  8
_U+30EC_U+30A4_U+30E4_U+30FC 1
370
     0
100
AcDbVertex
100
AcDb2dVertex
 10
112.2405218903426
 20
-126.2506917002082
 30
0.0
  0
VERTEX
  5
E6
330
E1
100
AcDbEntity
  8
_U+30EC_U+30A4_U+30E4_U+30FC 1
370
     0
100
AcDbVertex
100
AcDb2dVertex
 10
111.6166150979639
 20
-126.0481200856755
 30
0.0
  0
VERTEX
  5
E7
330
E1
100
AcDbEntity
  8
_U+30EC_U+30A4_U+30E4_U+30FC 1
370
     0
100
AcDbVertex
100
AcDb2dVertex
 10
111.6858615172174
 20
-125.83452416559
 30
0.0
  0
VERTEX
  5
E8
330
E1
100
AcDbEntity
  8
_U+30EC_U+30A4_U+30E4_U+30FC 1
370
     0
100
AcDbVertex
100
AcDb2dVertex
 10
112.6325737565641
 20
-125.1189778333036
 30
0.0
  0
VERTEX
  5
E9
330
E1
100
AcDbEntity
  8
_U+30EC_U+30A4_U+30E4_U+30FC 1
370
     0
100
AcDbVertex
100
AcDb2dVertex
 10
112.817575384122
 20
-125.1792670042955
 30
0.0
  0
VERTEX
  5
EA
330
E1
100
AcDbEntity
  8
_U+30EC_U+30A4_U+30E4_U+30FC 1
370
     0
100
AcDbVertex
100
AcDb2dVertex
 10
112.5088948286436
 20
-126.1287353200303
 30
0.0
  0
VERTEX
  5
EB
330
E1
100
AcDbEntity
  8
_U+30EC_U+30A4_U+30E4_U+30FC 1
370
     0
100
AcDbVertex
100
AcDb2dVertex
 10
112.7062987999484
 20
-126.192814096056
 30
0.0
  0
VERTEX
  5
EC
330
E1
100
AcDbEntity
  8
_U+30EC_U+30A4_U+30E4_U+30FC 1
370
     0
100
AcDbVertex
100
AcDb2dVertex
 10
112.644976100311
 20
-126.3819498381962
 30
0.0
  0
VERTEX
  5
ED
330
E1
100
AcDbEntity
  8
_U+30EC_U+30A4_U+30E4_U+30FC 1
370
     0
100
AcDbVertex
100
AcDb2dVertex
 10
112.4475721290062
 20
-126.3178710621705
 30
0.0
  0
SEQEND
  5
EE
330
E1
100
AcDbEntity
  8
_U+30EC_U+30A4_U+30E4_U+30FC 1
370
     0
  0
POLYLINE
  5
EF
330
DD
100
AcDbEntity
  8
_U+30EC_U+30A4_U+30E4_U+30FC 1
370
     0
100
AcDb2dPolyline
 66
     1
 10
0.0
 20
0.0
 30
0.0
  0
VERTEX
  5
F0
330
EF
100
AcDbEntity
  8
_U+30EC_U+30A4_U+30E4_U+30FC 1
370
     0
100
AcDbVertex
100
AcDb2dVertex
 10
112.5044162045128
 20
-125.4376491656892
 30
0.0
  0
VERTEX
  5
F1
330
EF
100
AcDbEntity
  8
_U+30EC_U+30A4_U+30E4_U+30FC 1
370
     0
100
AcDbVertex
100
AcDb2dVertex
 10
111.8670735397416
 20
-125.9203070431727
 30
0.0
  0
VERTEX
  5
F2
330
EF
100
AcDbEntity
  8
_U+30EC_U+30A4_U+30E4_U+30FC 1
370
     0
100
AcDbVertex
100
AcDb2dVertex
 10
112.3018445899801
 20
-126.061555958068
 30
0.0
  0
VERTEX
  5
F3
330
EF
100
AcDbEntity
  8
_U+30EC_U+30A4_U+30E4_U+30FC 1
370
     0
100
AcDbVertex
100
AcDb2dVertex
 10
112.5044162045128
 20
-125.4376491656892
 30
0.0
  0
SEQEND
  5
F4
330
EF
100
AcDbEntity
  8
_U+30EC_U+30A4_U+30E4_U+30FC 1
370
     0
  0
HATCH
  5
F5
330
DD
100
AcDbEntity
  8
_U+30EC_U+30A4_U+30E4_U+30FC 1
 62
   179
420
  2234388
100
AcDbHatch
 10
0.0
 20
0.0
 30
0.0
210
0.0
220
0.0
230
1.0
  2
SOLID
 70
     1
 71
     0
 91
        2
 92
        1
 93
       11
 72
     1
 10
112.4475721290062
 20
-126.3178710621705
 11
112.3404296594149
 21
-126.6479112096575
 72
     1
 10
112.3404296594149
 20
-126.6479112096575
 11
112.1333794207514
 21
-126.5807318476951
 72
     1
 10
112.1333794207514
 20
-126.5807318476951
 11
112.2405218903426
 21
-126.2506917002082
 72
     1
 10
112.2405218903426
 20
-126.2506917002082
 11
111.6166150979639
 21
-126.0481200856755
 72
     1
 10
111.6166150979639
 20
-126.0481200856755
 11
111.6858615172174
 21
-125.83452416559
 72
     1
 10
111.6858615172174
 20
-125.83452416559
 11
112.6325737565641
 21
-125.1189778333036
 72
     1
 10
112.6325737565641
 20
-125.1189778333036
 11
112.817575384122
 21
-125.1792670042955
 72
     1
 10
112.817575384122
 20
-125.1792670042955
 11
112.5088948286436
 21
-126.1287353200303
 72
     1
 10
112.5088948286436
 20
-126.1287353200303
 11
112.7062987999484
 21
-126.192814096056
 72
     1
 10
112.7062987999484
 20
-126.192814096056
 11
112.644976100311
 21
-126.3819498381962
 72
     1
 10
112.644976100311
 20
-126.3819498381962
 11
112.4475721290062
 21
-126.3178710621705
 97
        0
 92
        1
 93
        3
 72
     1
 10
112.5044162045128
 20
-125.4376491656892
 11
111.8670735397416
 21
-125.9203070431727
 72
     1
 10
111.8670735397416
 20
-125.9203070431727
 11
112.3018445899801
 21
-126.061555958068
 72
     1
 10
112.3018445899801
 20
-126.061555958068
 11
112.5044162045128
 21
-125.4376491656892
 97
        0
 75
     2
 76
     1
 98
        0
  0
SPLINE
  5
F6
330
DD
100
AcDbEntity
  8
_U+30EC_U+30A4_U+30E4_U+30FC 1
370
     0
100
AcDbSpline
210
0.0
220
0.0
230
1.0
 70
    11
 71
     3
 72
    29
 73
    25
 74
     0
 42
0.0000000001
 43
0.0000000001
 12
1.0
 22
0.0
 32
0.0
 13
1.0
 23
0.0
 33
0.0
 40
0.0
 40
0.0
 40
0.0
 40
0.0
 40
1.0
 40
1.0
 40
1.0
 40
2.0
 40
2.0
 40
2.0
 40
3.0
 40
3.0
 40
3.0
 40
4.0
 40
4.0
 40
4.0
 40
5.0
 40
5.0
 40
5.0
 40
6.0
 40
6.0
 40
6.0
 40
7.0
 40
7.0
 40
7.0
 40
8.0
 40
8.0
 40
8.0
 40
8.0
 10
113.5772189386196
 20
-126.8628851679371
 30
0.0
 10
113.4094427884879
 20
-127.0285942607776
 30
0.0
 10
113.2389105619681
 20
-126.993454286828
 30
0.0
 10
113.127978487343
 20
-126.9572807842329
 30
0.0
 10
112.9750162477979
 20
-126.9076714092453
 30
0.0
 10
112.8547824153627
 20
-126.8194769648229
 30
0.0
 10
112.8206759700587
 20
-126.6169053502902
 30
0.0
 10
112.7820909006239
 20
-126.3998643347195
 30
0.0
 10
112.8372124283879
 20
-126.1686984276592
 30
0.0
 10
112.8875108224726
 20
-126.013669130823
 30
0.0
 10
112.9319525542323
 20
-125.8768988400586
 30
0.0
 10
113.0260036609796
 20
-125.6429768566101
 30
0.0
 10
113.1879231487864
 20
-125.4862250120312
 30
0.0
 10
113.3532877320784
 20
-125.3263725815156
 30
0.0
 10
113.5131401625939
 20
-125.3542778549462
 30
0.0
 10
113.6357855618688
 20
-125.3938964530265
 30
0.0
 10
113.7866807441228
 20
-125.4431613184656
 30
0.0
 10
113.9100151624947
 20
-125.5296332151454
 30
0.0
 10
113.9444661173472
 20
-125.7322048296781
 30
0.0
 10
113.9792615817482
 20
-125.9461452593121
 30
0.0
 10
113.9310302449547
 20
-126.1704209754018
 30
0.0
 10
113.8772867553848
 20
-126.3354410491453
 30
0.0
 10
113.8245767944605
 20
-126.4983940655976
 30
0.0
 10
113.7329372545529
 20
-126.7113009665861
 30
0.0
 10
113.5772189386196
 20
-126.8628851679371
 30
0.0
  0
SPLINE
  5
F7
330
DD
100
AcDbEntity
  8
_U+30EC_U+30A4_U+30E4_U+30FC 1
370
     0
100
AcDbSpline
210
0.0
220
0.0
230
1.0
 70
    11
 71
     3
 72
    17
 73
    13
 74
     0
 42
0.0000000001
 43
0.0000000001
 12
1.0
 22
0.0
 32
0.0
 13
1.0
 23
0.0
 33
0.0
 40
0.0
 40
0.0
 40
0.0
 40
0.0
 40
1.0
 40
1.0
 40
1.0
 40
2.0
 40
2.0
 40
2.0
 40
3.0
 40
3.0
 40
3.0
 40
4.0
 40
4.0
 40
4.0
 40
4.0
 10
113.5765299195225
 20
-125.5768310232933
 30
0.0
 10
113.3395073501374
 20
-125.5000053939722
 30
0.0
 10
113.2072156835038
 20
-125.7549424598807
 30
0.0
 10
113.100417723461
 20
-126.0829155500765
 30
0.0
 10
113.0018879925829
 20
-126.3867729718755
 30
0.0
 10
112.9409098024939
 20
-126.6916639223201
 30
0.0
 10
113.1882676583349
 20
-126.772279156675
 30
0.0
 10
113.423912189526
 20
-126.8487602764475
 30
0.0
 10
113.5568928752566
 20
-126.5958902678302
 30
0.0
 10
113.6640353448479
 20
-126.2661946298918
 30
0.0
 10
113.7629095852746
 20
-125.9623372080927
 30
0.0
 10
113.8218207180723
 20
-125.6567572385511
 30
0.0
 10
113.5765299195225
 20
-125.5768310232933
 30
0.0
  0
HATCH
  5
F8
330
DD
100
AcDbEntity
  8
_U+30EC_U+30A4_U+30E4_U+30FC 1
 62
   179
420
  2234388
100
AcDbHatch
 10
0.0
 20
0.0
 30
0.0
210
0.0
220
0.0
230
1.0
  2
SOLID
 70
     1
 71
     0
 91
        2
 92
        1
 93
        1
 72
     4
 94
        3
 73
     0
 74
     1
 95
       29
 96
       25
 40
0.0
 40
0.0
 40
0.0
 40
0.0
 40
1.0
 40
1.0
 40
1.0
 40
2.0
 40
2.0
 40
2.0
 40
3.0
 40
3.0
 40
3.0
 40
4.0
 40
4.0
 40
4.0
 40
5.0
 40
5.0
 40
5.0
 40
6.0
 40
6.0
 40
6.0
 40
7.0
 40
7.0
 40
7.0
 40
8.0
 40
8.0
 40
8.0
 40
8.0
 10
113.5772189386196
 20
-126.8628851679371
 10
113.4094427884879
 20
-127.0285942607776
 10
113.2389105619681
 20
-126.993454286828
 10
113.127978487343
 20
-126.9572807842329
 10
112.9750162477979
 20
-126.9076714092453
 10
112.8547824153627
 20
-126.8194769648229
 10
112.8206759700587
 20
-126.6169053502902
 10
112.7820909006239
 20
-126.3998643347195
 10
112.8372124283879
 20
-126.1686984276592
 10
112.8875108224726
 20
-126.013669130823
 10
112.9319525542323
 20
-125.8768988400586
 10
113.0260036609796
 20
-125.6429768566101
 10
113.1879231487864
 20
-125.4862250120312
 10
113.3532877320784
 20
-125.3263725815156
 10
113.5131401625939
 20
-125.3542778549462
 10
113.6357855618688
 20
-125.3938964530265
 10
113.7866807441228
 20
-125.4431613184656
 10
113.9100151624947
 20
-125.5296332151454
 10
113.9444661173472
 20
-125.7322048296781
 10
113.9792615817482
 20
-125.9461452593121
 10
113.9310302449547
 20
-126.1704209754018
 10
113.8772867553848
 20
-126.3354410491453
 10
113.8245767944605
 20
-126.4983940655976
 10
113.7329372545529
 20
-126.7113009665861
 10
113.5772189386196
 20
-126.8628851679371
 97
        0
 97
        0
 92
        1
 93
        1
 72
     4
 94
        3
 73
     0
 74
     1
 95
       17
 96
       13
 40
0.0
 40
0.0
 40
0.0
 40
0.0
 40
1.0
 40
1.0
 40
1.0
 40
2.0
 40
2.0
 40
2.0
 40
3.0
 40
3.0
 40
3.0
 40
4.0
 40
4.0
 40
4.0
 40
4.0
 10
113.5765299195225
 20
-125.5768310232933
 10
113.3395073501374
 20
-125.5000053939722
 10
113.2072156835038
 20
-125.7549424598807
 10
113.100417723461
 20
-126.0829155500765
 10
113.0018879925829
 20
-126.3867729718755
 10
112.9409098024939
 20
-126.6916639223201
 10
113.1882676583349
 20
-126.772279156675
 10
113.423912189526
 20
-126.8487602764475
 10
113.5568928752566
 20
-126.5958902678302
 10
113.6640353448479
 20
-126.2661946298918
 10
113.7629095852746
 20
-125.9623372080927
 10
113.8218207180723
 20
-125.6567572385511
 10
113.5765299195225
 20
-125.5768310232933
 97
        0
 97
        0
 75
     2
 76
     1
 98
        0
  0
ENDBLK
  5
E0
330
DD
100
AcDbEntity
  8
0
100
AcDbBlockEnd
  0
BLOCK
  5
107
330
105
100
AcDbEntity
  8
0
100
AcDbBlockBegin
  2
block 5
 70
     0
 10
0.0
 20
0.0
 30
0.0
  3
block 5
  1

  0
POLYLINE
  5
109
330
105
100
AcDbEntity
  8
_U+30EC_U+30A4_U+30E4_U+30FC 1
370
     0
100
AcDb2dPolyline
 66
     1
 10
0.0
 20
0.0
 30
0.0
  0
VERTEX
  5
10A
330
109
100
AcDbEntity
  8
_U+30EC_U+30A4_U+30E4_U+30FC 1
370
     0
100
AcDbVertex
100
AcDb2dVertex
 10
69.12566865676372
 20
-126.5345675681928
 30
0.0
  0
VERTEX
  5
10B
330
109
100
AcDbEntity
  8
_U+30EC_U+30A4_U+30E4_U+30FC 1
370
     0
100
AcDbVertex
100
AcDb2dVertex
 10
69.23298338112926
 20
-126.8646077156797
 30
0.0
  0
VERTEX
  5
10C
330
109
100
AcDbEntity
  8
_U+30EC_U+30A4_U+30E4_U+30FC 1
370
     0
100
AcDbVertex
100
AcDb2dVertex
 10
69.02558863291722
 20
-126.9321315871906
 30
0.0
  0
VERTEX
  5
10D
330
109
100
AcDbEntity
  8
_U+30EC_U+30A4_U+30E4_U+30FC 1
370
     0
100
AcDbVertex
100
AcDb2dVertex
 10
68.91827390855168
 20
-126.6020914397037
 30
0.0
  0
VERTEX
  5
10E
330
109
100
AcDbEntity
  8
_U+30EC_U+30A4_U+30E4_U+30FC 1
370
     0
100
AcDbVertex
100
AcDb2dVertex
 10
68.29471162572146
 20
-126.8046630542363
 30
0.0
  0
VERTEX
  5
10F
330
109
100
AcDbEntity
  8
_U+30EC_U+30A4_U+30E4_U+30FC 1
370
     0
100
AcDbVertex
100
AcDb2dVertex
 10
68.22546520646794
 20
-126.5914116436994
 30
0.0
  0
VERTEX
  5
110
330
109
100
AcDbEntity
  8
_U+30EC_U+30A4_U+30E4_U+30FC 1
370
     0
100
AcDbVertex
100
AcDb2dVertex
 10
68.57066377408998
 20
-125.455908171761
 30
0.0
  0
VERTEX
  5
111
330
109
100
AcDbEntity
  8
_U+30EC_U+30A4_U+30E4_U+30FC 1
370
     0
100
AcDbVertex
100
AcDb2dVertex
 10
68.75566540164789
 20
-125.3956190007692
 30
0.0
  0
VERTEX
  5
112
330
109
100
AcDbEntity
  8
_U+30EC_U+30A4_U+30E4_U+30FC 1
370
     0
100
AcDbVertex
100
AcDb2dVertex
 10
69.06434595712628
 20
-126.3457763356011
 30
0.0
  0
VERTEX
  5
113
330
109
100
AcDbEntity
  8
_U+30EC_U+30A4_U+30E4_U+30FC 1
370
     0
100
AcDbVertex
100
AcDb2dVertex
 10
69.26157767365683
 20
-126.2816975595754
 30
0.0
  0
VERTEX
  5
114
330
109
100
AcDbEntity
  8
_U+30EC_U+30A4_U+30E4_U+30FC 1
370
     0
100
AcDbVertex
100
AcDb2dVertex
 10
69.32307262806854
 20
-126.4704887921671
 30
0.0
  0
VERTEX
  5
115
330
109
100
AcDbEntity
  8
_U+30EC_U+30A4_U+30E4_U+30FC 1
370
     0
100
AcDbVertex
100
AcDb2dVertex
 10
69.12566865676372
 20
-126.5345675681928
 30
0.0
  0
SEQEND
  5
116
330
109
100
AcDbEntity
  8
_U+30EC_U+30A4_U+30E4_U+30FC 1
370
     0
  0
POLYLINE
  5
117
330
105
100
AcDbEntity
  8
_U+30EC_U+30A4_U+30E4_U+30FC 1
370
     0
100
AcDb2dPolyline
 66
     1
 10
0.0
 20
0.0
 30
0.0
  0
VERTEX
  5
118
330
117
100
AcDbEntity
  8
_U+30EC_U+30A4_U+30E4_U+30FC 1
370
     0
100
AcDbVertex
100
AcDb2dVertex
 10
68.65437959438155
 20
-125.7893934147332
 30
0.0
  0
VERTEX
  5
119
330
117
100
AcDbEntity
  8
_U+30EC_U+30A4_U+30E4_U+30FC 1
370
     0
100
AcDbVertex
100
AcDb2dVertex
 10
68.42252466822423
 20
-126.5545491220072
 30
0.0
  0
VERTEX
  5
11A
330
117
100
AcDbEntity
  8
_U+30EC_U+30A4_U+30E4_U+30FC 1
370
     0
100
AcDbVertex
100
AcDb2dVertex
 10
68.85695120891424
 20
-126.413300207112
 30
0.0
  0
VERTEX
  5
11B
330
117
100
AcDbEntity
  8
_U+30EC_U+30A4_U+30E4_U+30FC 1
370
     0
100
AcDbVertex
100
AcDb2dVertex
 10
68.65437959438155
 20
-125.7893934147332
 30
0.0
  0
SEQEND
  5
11C
330
117
100
AcDbEntity
  8
_U+30EC_U+30A4_U+30E4_U+30FC 1
370
     0
  0
HATCH
  5
11D
330
105
100
AcDbEntity
  8
_U+30EC_U+30A4_U+30E4_U+30FC 1
 62
   179
420
  2234388
100
AcDbHatch
 10
0.0
 20
0.0
 30
0.0
210
0.0
220
0.0
230
1.0
  2
SOLID
 70
     1
 71
     0
 91
        2
 92
        1
 93
       11
 72
     1
 10
69.12566865676372
 20
-126.5345675681928
 11
69.23298338112926
 21
-126.8646077156797
 72
     1
 10
69.23298338112926
 20
-126.8646077156797
 11
69.02558863291722
 21
-126.9321315871906
 72
     1
 10
69.02558863291722
 20
-126.9321315871906
 11
68.91827390855168
 21
-126.6020914397037
 72
     1
 10
68.91827390855168
 20
-126.6020914397037
 11
68.29471162572146
 21
-126.8046630542363
 72
     1
 10
68.29471162572146
 20
-126.8046630542363
 11
68.22546520646794
 21
-126.5914116436994
 72
     1
 10
68.22546520646794
 20
-126.5914116436994
 11
68.57066377408998
 21
-125.455908171761
 72
     1
 10
68.57066377408998
 20
-125.455908171761
 11
68.75566540164789
 21
-125.3956190007692
 72
     1
 10
68.75566540164789
 20
-125.3956190007692
 11
69.06434595712628
 21
-126.3457763356011
 72
     1
 10
69.06434595712628
 20
-126.3457763356011
 11
69.26157767365683
 21
-126.2816975595754
 72
     1
 10
69.26157767365683
 20
-126.2816975595754
 11
69.32307262806854
 21
-126.4704887921671
 72
     1
 10
69.32307262806854
 20
-126.4704887921671
 11
69.12566865676372
 21
-126.5345675681928
 97
        0
 92
        1
 93
        3
 72
     1
 10
68.65437959438155
 20
-125.7893934147332
 11
68.42252466822423
 21
-126.5545491220072
 72
     1
 10
68.42252466822423
 20
-126.5545491220072
 11
68.85695120891424
 21
-126.413300207112
 72
     1
 10
68.85695120891424
 20
-126.413300207112
 11
68.65437959438155
 21
-125.7893934147332
 97
        0
 75
     2
 76
     1
 98
        0
  0
SPLINE
  5
11E
330
105
100
AcDbEntity
  8
_U+30EC_U+30A4_U+30E4_U+30FC 1
370
     0
100
AcDbSpline
210
0.0
220
0.0
230
1.0
 70
    11
 71
     3
 72
    29
 73
    25
 74
     0
 42
0.0000000001
 43
0.0000000001
 12
1.0
 22
0.0
 32
0.0
 13
1.0
 23
0.0
 33
0.0
 40
0.0
 40
0.0
 40
0.0
 40
0.0
 40
1.0
 40
1.0
 40
1.0
 40
2.0
 40
2.0
 40
2.0
 40
3.0
 40
3.0
 40
3.0
 40
4.0
 40
4.0
 40
4.0
 40
5.0
 40
5.0
 40
5.0
 40
6.0
 40
6.0
 40
6.0
 40
7.0
 40
7.0
 40
7.0
 40
8.0
 40
8.0
 40
8.0
 40
8.0
 10
70.35952960480596
 20
-126.3116698902971
 30
0.0
 10
70.32180580924246
 20
-126.5442138355514
 30
0.0
 10
70.16264239782393
 20
-126.6158718216446
 30
0.0
 10
70.05188257797315
 20
-126.6517008146913
 30
0.0
 10
69.89909259320231
 20
-126.7013101896788
 30
0.0
 10
69.749919958691
 20
-126.7013101896788
 30
0.0
 10
69.60298663624509
 20
-126.5573051983954
 30
0.0
 10
69.4445122439236
 20
-126.4043429588503
 30
0.0
 10
69.35304495879022
 20
-126.1848903764399
 30
0.0
 10
69.30274656470557
 20
-126.0302055891522
 30
0.0
 10
69.25830483294584
 20
-125.8930907888392
 30
0.0
 10
69.19663762375987
 20
-125.6484890093865
 30
0.0
 10
69.2355672027432
 20
-125.4266248601364
 30
0.0
 10
69.27587481992062
 20
-125.2002820867555
 30
0.0
 10
69.42125784939816
 20
-125.1282795911138
 30
0.0
 10
69.54390324867306
 20
-125.0883164834849
 30
0.0
 10
69.694798430927
 20
-125.0393961275943
 30
0.0
 10
69.84534910363242
 20
-125.0373290703032
 30
0.0
 10
69.99211017130406
 20
-125.1809895520381
 30
0.0
 10
70.14627819426899
 20
-125.3332627724861
 30
0.0
 10
70.23912351759647
 20
-125.5430690875378
 30
0.0
 10
70.29269475239211
 20
-125.7084336708298
 30
0.0
 10
70.3455769680907
 20
-125.8710421777336
 30
0.0
 10
70.39656438127238
 20
-126.097040441566
 30
0.0
 10
70.35952960480596
 20
-126.3116698902971
 30
0.0
  0
SPLINE
  5
11F
330
105
100
AcDbEntity
  8
_U+30EC_U+30A4_U+30E4_U+30FC 1
370
     0
100
AcDbSpline
210
0.0
220
0.0
230
1.0
 70
    11
 71
     3
 72
    17
 73
    13
 74
     0
 42
0.0000000001
 43
0.0000000001
 12
1.0
 22
0.0
 32
0.0
 13
1.0
 23
0.0
 33
0.0
 40
0.0
 40
0.0
 40
0.0
 40
0.0
 40
1.0
 40
1.0
 40
1.0
 40
2.0
 40
2.0
 40
2.0
 40
3.0
 40
3.0
 40
3.0
 40
4.0
 40
4.0
 40
4.0
 40
4.0
 10
69.60350340056787
 20
-125.2715955633002
 30
0.0
 10
69.36613632163416
 20
-125.3487657021698
 30
0.0
 10
69.40954452474831
 20
-125.6329860797029
 30
0.0
 10
69.5161702300168
 20
-125.9609591698987
 30
0.0
 10
69.61487221566921
 20
-126.2644720821492
 30
0.0
 10
69.74440780591459
 20
-126.5473144214882
 30
0.0
 10
69.99176566175554
 20
-126.4666991871333
 30
0.0
 10
70.2270656833981
 20
-126.3902180673608
 30
0.0
 10
70.18675806622068
 20
-126.1077202375703
 30
0.0
 10
70.07944334185514
 20
-125.7780245996319
 30
0.0
 10
69.98074135620273
 20
-125.4738226682843
 30
0.0
 10
69.84896645389193
 20
-125.1920138575909
 30
0.0
 10
69.60350340056787
 20
-125.2715955633002
 30
0.0
  0
HATCH
  5
120
330
105
100
AcDbEntity
  8
_U+30EC_U+30A4_U+30E4_U+30FC 1
 62
   179
420
  2234388
100
AcDbHatch
 10
0.0
 20
0.0
 30
0.0
210
0.0
220
0.0
230
1.0
  2
SOLID
 70
     1
 71
     0
 91
        2
 92
        1
 93
        1
 72
     4
 94
        3
 73
     0
 74
     1
 95
       29
 96
       25
 40
0.0
 40
0.0
 40
0.0
 40
0.0
 40
1.0
 40
1.0
 40
1.0
 40
2.0
 40
2.0
 40
2.0
 40
3.0
 40
3.0
 40
3.0
 40
4.0
 40
4.0
 40
4.0
 40
5.0
 40
5.0
 40
5.0
 40
6.0
 40
6.0
 40
6.0
 40
7.0
 40
7.0
 40
7.0
 40
8.0
 40
8.0
 40
8.0
 40
8.0
 10
70.35952960480596
 20
-126.3116698902971
 10
70.32180580924246
 20
-126.5442138355514
 10
70.16264239782393
 20
-126.6158718216446
 10
70.05188257797315
 20
-126.6517008146913
 10
69.89909259320231
 20
-126.7013101896788
 10
69.749919958691
 20
-126.7013101896788
 10
69.60298663624509
 20
-126.5573051983954
 10
69.4445122439236
 20
-126.4043429588503
 10
69.35304495879022
 20
-126.1848903764399
 10
69.30274656470557
 20
-126.0302055891522
 10
69.25830483294584
 20
-125.8930907888392
 10
69.19663762375987
 20
-125.6484890093865
 10
69.2355672027432
 20
-125.4266248601364
 10
69.27587481992062
 20
-125.2002820867555
 10
69.42125784939816
 20
-125.1282795911138
 10
69.54390324867306
 20
-125.0883164834849
 10
69.694798430927
 20
-125.0393961275943
 10
69.84534910363242
 20
-125.0373290703032
 10
69.99211017130406
 20
-125.1809895520381
 10
70.14627819426899
 20
-125.3332627724861
 10
70.23912351759647
 20
-125.5430690875378
 10
70.29269475239211
 20
-125.7084336708298
 10
70.3455769680907
 20
-125.8710421777336
 10
70.39656438127238
 20
-126.097040441566
 10
70.35952960480596
 20
-126.3116698902971
 97
        0
 97
        0
 92
        1
 93
        1
 72
     4
 94
        3
 73
     0
 74
     1
 95
       17
 96
       13
 40
0.0
 40
0.0
 40
0.0
 40
0.0
 40
1.0
 40
1.0
 40
1.0
 40
2.0
 40
2.0
 40
2.0
 40
3.0
 40
3.0
 40
3.0
 40
4.0
 40
4.0
 40
4.0
 40
4.0
 10
69.60350340056787
 20
-125.2715955633002
 10
69.36613632163416
 20
-125.3487657021698
 10
69.40954452474831
 20
-125.6329860797029
 10
69.5161702300168
 20
-125.9609591698987
 10
69.61487221566921
 20
-126.2644720821492
 10
69.74440780591459
 20
-126.5473144214882
 10
69.99176566175554
 20
-126.4666991871333
 10
70.2270656833981
 20
-126.3902180673608
 10
70.18675806622068
 20
-126.1077202375703
 10
70.07944334185514
 20
-125.7780245996319
 10
69.98074135620273
 20
-125.4738226682843
 10
69.84896645389193
 20
-125.1920138575909
 10
69.60350340056787
 20
-125.2715955633002
 97
        0
 97
        0
 75
     2
 76
     1
 98
        0
  0
ENDBLK
  5
108
330
105
100
AcDbEntity
  8
0
100
AcDbBlockEnd
  0
BLOCK
  5
147
330
145
100
AcDbEntity
  8
0
100
AcDbBlockBegin
  2
block 6
 70
     0
 10
0.0
 20
0.0
 30
0.0
  3
block 6
  1

  0
SPLINE
  5
149
330
145
100
AcDbEntity
  8
_U+30EC_U+30A4_U+30E4_U+30FC 1
370
     0
100
AcDbSpline
210
0.0
220
0.0
230
1.0
 70
    11
 71
     3
 72
   242
 73
   238
 74
     0
 42
0.0000000001
 43
0.0000000001
 12
1.0
 22
0.0
 32
0.0
 13
1.0
 23
0.0
 33
0.0
 40
0.0
 40
0.0
 40
0.0
 40
0.0
 40
1.0
 40
1.0
 40
1.0
 40
2.0
 40
2.0
 40
2.0
 40
3.0
 40
3.0
 40
3.0
 40
4.0
 40
4.0
 40
4.0
 40
5.0
 40
5.0
 40
5.0
 40
6.0
 40
6.0
 40
6.0
 40
7.0
 40
7.0
 40
7.0
 40
8.0
 40
8.0
 40
8.0
 40
9.0
 40
9.0
 40
9.0
 40
10.0
 40
10.0
 40
10.0
 40
11.0
 40
11.0
 40
11.0
 40
12.0
 40
12.0
 40
12.0
 40
13.0
 40
13.0
 40
13.0
 40
14.0
 40
14.0
 40
14.0
 40
15.0
 40
15.0
 40
15.0
 40
16.0
 40
16.0
 40
16.0
 40
17.0
 40
17.0
 40
17.0
 40
18.0
 40
18.0
 40
18.0
 40
19.0
 40
19.0
 40
19.0
 40
20.0
 40
20.0
 40
20.0
 40
21.0
 40
21.0
 40
21.0
 40
22.0
 40
22.0
 40
22.0
 40
23.0
 40
23.0
 40
23.0
 40
24.0
 40
24.0
 40
24.0
 40
25.0
 40
25.0
 40
25.0
 40
26.0
 40
26.0
 40
26.0
 40
27.0
 40
27.0
 40
27.0
 40
28.0
 40
28.0
 40
28.0
 40
29.0
 40
29.0
 40
29.0
 40
30.0
 40
30.0
 40
30.0
 40
31.0
 40
31.0
 40
31.0
 40
32.0
 40
32.0
 40
32.0
 40
33.0
 40
33.0
 40
33.0
 40
34.0
 40
34.0
 40
34.0
 40
35.0
 40
35.0
 40
35.0
 40
36.0
 40
36.0
 40
36.0
 40
37.0
 40
37.0
 40
37.0
 40
38.0
 40
38.0
 40
38.0
 40
39.0
 40
39.0
 40
39.0
 40
40.0
 40
40.0
 40
40.0
 40
41.0
 40
41.0
 40
41.0
 40
42.0
 40
42.0
 40
42.0
 40
43.0
 40
43.0
 40
43.0
 40
44.0
 40
44.0
 40
44.0
 40
45.0
 40
45.0
 40
45.0
 40
46.0
 40
46.0
 40
46.0
 40
47.0
 40
47.0
 40
47.0
 40
48.0
 40
48.0
 40
48.0
 40
49.0
 40
49.0
 40
49.0
 40
50.0
 40
50.0
 40
50.0
 40
51.0
 40
51.0
 40
51.0
 40
52.0
 40
52.0
 40
52.0
 40
53.0
 40
53.0
 40
53.0
 40
54.0
 40
54.0
 40
54.0
 40
55.0
 40
55.0
 40
55.0
 40
56.0
 40
56.0
 40
56.0
 40
57.0
 40
57.0
 40
57.0
 40
58.0
 40
58.0
 40
58.0
 40
59.0
 40
59.0
 40
59.0
 40
60.0
 40
60.0
 40
60.0
 40
61.0
 40
61.0
 40
61.0
 40
62.0
 40
62.0
 40
62.0
 40
63.0
 40
63.0
 40
63.0
 40
64.0
 40
64.0
 40
64.0
 40
65.0
 40
65.0
 40
65.0
 40
66.0
 40
66.0
 40
66.0
 40
67.0
 40
67.0
 40
67.0
 40
68.0
 40
68.0
 40
68.0
 40
69.0
 40
69.0
 40
69.0
 40
70.0
 40
70.0
 40
70.0
 40
71.0
 40
71.0
 40
71.0
 40
72.0
 40
72.0
 40
72.0
 40
73.0
 40
73.0
 40
73.0
 40
74.0
 40
74.0
 40
74.0
 40
75.0
 40
75.0
 40
75.0
 40
76.0
 40
76.0
 40
76.0
 40
77.0
 40
77.0
 40
77.0
 40
78.0
 40
78.0
 40
78.0
 40
79.0
 40
79.0
 40
79.0
 40
79.0
 10
88.33087020361172
 20
-140.0303846221105
 30
0.0
 10
88.33087020361172
 20
-140.0303846221105
 30
0.0
 10
88.07696666634882
 20
-140.0303846221105
 30
0.0
 10
88.07696666634882
 20
-140.0303846221105
 30
0.0
 10
88.07696666634882
 20
-140.0303846221105
 30
0.0
 10
87.79980873456047
 20
-140.0303846221105
 30
0.0
 10
87.79980873456047
 20
-140.0303846221105
 30
0.0
 10
87.79980873456047
 20
-140.0303846221105
 30
0.0
 10
87.92676050319193
 20
-140.0727592965791
 30
0.0
 10
87.92676050319193
 20
-140.0727592965791
 30
0.0
 10
87.93726804442194
 20
-140.0768934111613
 30
0.0
 10
87.95001489771737
 20
-140.0830945830348
 30
0.0
 10
87.95001489771737
 20
-140.0958414363302
 30
0.0
 10
87.95001489771737
 20
-140.1168565187902
 30
0.0
 10
87.91832001925306
 20
-140.1234022002122
 30
0.0
 10
87.89713268201878
 20
-140.1275363147945
 30
0.0
 10
87.88662514078877
 20
-140.1509629640942
 30
0.0
 10
87.85699731961562
 20
-140.216419778314
 30
0.0
 10
87.83787703967248
 20
-140.2608615100737
 30
0.0
 10
87.83787703967248
 20
-140.2608615100737
 30
0.0
 10
88.10866154481312
 20
-140.2608615100737
 30
0.0
 10
88.10866154481312
 20
-140.2608615100737
 30
0.0
 10
88.19961206562371
 20
-140.2608615100737
 30
0.0
 10
88.39632701783148
 20
-140.2567273954914
 30
0.0
 10
88.5380926970495
 20
-140.2481146567783
 30
0.0
 10
88.5380926970495
 20
-140.2481146567783
 30
0.0
 10
88.5380926970495
 20
-140.4258815838172
 30
0.0
 10
88.5380926970495
 20
-140.4258815838172
 30
0.0
 10
88.45558266017777
 20
-140.4217474692348
 30
0.0
 10
88.43439532294349
 20
-140.4217474692348
 30
0.0
 10
88.25473359338771
 20
-140.417268845104
 30
0.0
 10
88.22286646014915
 20
-140.5719536323917
 30
0.0
 10
88.17842472838943
 20
-140.6522243571981
 30
0.0
 10
88.1339829966297
 20
-140.7221597955486
 30
0.0
 10
88.25473359338771
 20
-140.7814154378949
 30
0.0
 10
88.36049802478487
 20
-140.8489393094058
 30
0.0
 10
88.46402314411664
 20
-140.9316216010518
 30
0.0
 10
88.46402314411664
 20
-140.9316216010518
 30
0.0
 10
88.3456841141983
 20
-141.0987087320864
 30
0.0
 10
88.3456841141983
 20
-141.0987087320864
 30
0.0
 10
88.32225746489861
 20
-141.079416197369
 30
0.0
 10
88.30968286637744
 20
-141.0711479682044
 30
0.0
 10
88.19754500833257
 20
-140.9863986192673
 30
0.0
 10
88.14879690721628
 20
-140.9485025689295
 30
0.0
 10
88.08971351964425
 20
-140.9123290663344
 30
0.0
 10
88.00927054006365
 20
-140.8678873345747
 30
0.0
 10
87.79774167726931
 20
-141.0542670003267
 30
0.0
 10
87.59241398634843
 20
-141.0773491400779
 30
0.0
 10
87.30268145603891
 20
-141.106976961251
 30
0.0
 10
87.30268145603891
 20
-141.106976961251
 30
0.0
 10
87.19898408193289
 20
-140.927142976921
 30
0.0
 10
87.19898408193289
 20
-140.927142976921
 30
0.0
 10
87.5162773761244
 20
-140.9230088623387
 30
0.0
 10
87.69197724587215
 20
-140.8975151557478
 30
0.0
 10
87.84425046632019
 20
-140.7876166097684
 30
0.0
 10
87.7257391816276
 20
-140.7369737061352
 30
0.0
 10
87.63685571810815
 20
-140.7094129422532
 30
0.0
 10
87.60102672506156
 20
-140.6966660889578
 30
0.0
 10
87.58190644511842
 20
-140.7242268528398
 30
0.0
 10
87.56709253453184
 20
-140.7431748780087
 30
0.0
 10
87.53953177064984
 20
-140.7769368137641
 30
0.0
 10
87.53953177064984
 20
-140.7769368137641
 30
0.0
 10
87.34281681844207
 20
-140.6945990316666
 30
0.0
 10
87.34281681844207
 20
-140.6945990316666
 30
0.0
 10
87.42532685531381
 20
-140.6143283068603
 30
0.0
 10
87.48664955495126
 20
-140.5188991619189
 30
0.0
 10
87.5438381400064
 20
-140.417268845104
 30
0.0
 10
87.35349661444636
 20
-140.4217474692348
 30
0.0
 10
87.33230927721206
 20
-140.4217474692348
 30
0.0
 10
87.24979924034034
 20
-140.4258815838172
 30
0.0
 10
87.24979924034034
 20
-140.4258815838172
 30
0.0
 10
87.24979924034034
 20
-140.2481146567783
 30
0.0
 10
87.24979924034034
 20
-140.2481146567783
 30
0.0
 10
87.38932560749295
 20
-140.2546603382002
 30
0.0
 10
87.59878741299615
 20
-140.2587944527825
 30
0.0
 10
87.624281119587
 20
-140.2587944527825
 30
0.0
 10
87.6411620874647
 20
-140.2250325170271
 30
0.0
 10
87.69611136045445
 20
-140.1044541750433
 30
0.0
 10
87.71523164039759
 20
-140.0303846221105
 30
0.0
 10
87.69611136045445
 20
-140.0303846221105
 30
0.0
 10
87.51851668818982
 20
-140.0365857939839
 30
0.0
 10
87.3238687932732
 20
-140.0493326472793
 30
0.0
 10
87.3238687932732
 20
-140.0493326472793
 30
0.0
 10
87.3238687932732
 20
-140.1826578425585
 30
0.0
 10
87.3238687932732
 20
-140.1826578425585
 30
0.0
 10
87.27512069215692
 20
-140.2078070396008
 30
0.0
 10
87.21586504981062
 20
-140.2398464276137
 30
0.0
 10
87.08271210930572
 20
-140.3053032418334
 30
0.0
 10
87.08271210930572
 20
-140.3053032418334
 30
0.0
 10
87.08271210930572
 20
-140.451375290408
 30
0.0
 10
87.08271210930572
 20
-140.451375290408
 30
0.0
 10
87.08271210930572
 20
-140.451375290408
 30
0.0
 10
87.08271210930572
 20
-140.9188747477564
 30
0.0
 10
87.08271210930572
 20
-140.9188747477564
 30
0.0
 10
87.08271210930572
 20
-141.0456542616136
 30
0.0
 10
87.04671086148485
 20
-141.1049099039599
 30
0.0
 10
86.76317950304879
 20
-141.0966416747953
 30
0.0
 10
86.76317950304879
 20
-141.0966416747953
 30
0.0
 10
86.65948212894277
 20
-140.8892469265832
 30
0.0
 10
86.65948212894277
 20
-140.8892469265832
 30
0.0
 10
86.72304414064563
 20
-140.9019937798787
 30
0.0
 10
86.77161998698766
 20
-140.906127894461
 30
0.0
 10
86.81192760416508
 20
-140.906127894461
 30
0.0
 10
86.8880642143891
 20
-140.906127894461
 30
0.0
 10
86.89857175561912
 20
-140.8827012451613
 30
0.0
 10
86.89857175561912
 20
-140.8172444309415
 30
0.0
 10
86.89857175561912
 20
-140.8172444309415
 30
0.0
 10
86.89857175561912
 20
-140.3876410239309
 30
0.0
 10
86.89857175561912
 20
-140.3876410239309
 30
0.0
 10
86.80124780816081
 20
-140.4279486411083
 30
0.0
 10
86.78436684028308
 20
-140.4344943225303
 30
0.0
 10
86.73785805123221
 20
-140.4534423476991
 30
0.0
 10
86.73355168187564
 20
-140.4744574301592
 30
0.0
 10
86.72941756729334
 20
-140.5040852513323
 30
0.0
 10
86.7102972873502
 20
-140.5040852513323
 30
0.0
 10
86.70185680341135
 20
-140.5040852513323
 30
0.0
 10
86.69134926218133
 20
-140.49995113675
 30
0.0
 10
86.68497583553362
 20
-140.4765244874503
 30
0.0
 10
86.68497583553362
 20
-140.4765244874503
 30
0.0
 10
86.63209361983503
 20
-140.2842881593734
 30
0.0
 10
86.63209361983503
 20
-140.2842881593734
 30
0.0
 10
86.77799341363537
 20
-140.237434860774
 30
0.0
 10
86.84362248262937
 20
-140.2143527210228
 30
0.0
 10
86.89857175561912
 20
-140.1933376385628
 30
0.0
 10
86.89857175561912
 20
-140.1933376385628
 30
0.0
 10
86.89857175561912
 20
-139.7806151994299
 30
0.0
 10
86.89857175561912
 20
-139.7806151994299
 30
0.0
 10
86.89857175561912
 20
-139.7806151994299
 30
0.0
 10
86.84568953992053
 20
-139.7806151994299
 30
0.0
 10
86.84568953992053
 20
-139.7806151994299
 30
0.0
 10
86.84568953992053
 20
-139.7806151994299
 30
0.0
 10
86.76748587240536
 20
-139.7806151994299
 30
0.0
 10
86.76748587240536
 20
-139.7806151994299
 30
0.0
 10
86.69978974612019
 20
-139.7806151994299
 30
0.0
 10
86.69134926218133
 20
-139.7806151994299
 30
0.0
 10
86.65534801436047
 20
-139.7871608808518
 30
0.0
 10
86.65534801436047
 20
-139.7871608808518
 30
0.0
 10
86.65534801436047
 20
-139.5925129859352
 30
0.0
 10
86.65534801436047
 20
-139.5925129859352
 30
0.0
 10
86.68290877824248
 20
-139.5987141578087
 30
0.0
 10
86.69134926218133
 20
-139.5987141578087
 30
0.0
 10
86.76111244575765
 20
-139.5987141578087
 30
0.0
 10
86.76111244575765
 20
-139.5987141578087
 30
0.0
 10
86.89443764103682
 20
-139.5987141578087
 30
0.0
 10
86.89443764103682
 20
-139.5987141578087
 30
0.0
 10
86.89443764103682
 20
-139.5287787194581
 30
0.0
 10
86.89443764103682
 20
-139.4464409373606
 30
0.0
 10
86.8921983289714
 20
-139.4423068227783
 30
0.0
 10
86.88375784503253
 20
-139.2624728384483
 30
0.0
 10
86.88375784503253
 20
-139.2431803037309
 30
0.0
 10
86.88169078774139
 20
-139.19667151468
 30
0.0
 10
86.88169078774139
 20
-139.19667151468
 30
0.0
 10
87.09752601989229
 20
-139.2052842533931
 30
0.0
 10
87.09752601989229
 20
-139.2052842533931
 30
0.0
 10
87.1080335611223
 20
-139.2052842533931
 30
0.0
 10
87.12922089835659
 20
-139.2073513106843
 30
0.0
 10
87.12922089835659
 20
-139.224232278562
 30
0.0
 10
87.12922089835659
 20
-139.2431803037309
 30
0.0
 10
87.11440698777001
 20
-139.2538600997352
 30
0.0
 10
87.08908553595343
 20
-139.272808124904
 30
0.0
 10
87.08908553595343
 20
-139.3237955380857
 30
0.0
 10
87.08271210930572
 20
-139.5522053687578
 30
0.0
 10
87.08477916659686
 20
-139.5987141578087
 30
0.0
 10
87.21379799251947
 20
-139.5987141578087
 30
0.0
 10
87.2265448458149
 20
-139.5987141578087
 30
0.0
 10
87.3238687932732
 20
-139.5901014190955
 30
0.0
 10
87.3238687932732
 20
-139.5901014190955
 30
0.0
 10
87.3238687932732
 20
-139.7847493140121
 30
0.0
 10
87.3238687932732
 20
-139.7847493140121
 30
0.0
 10
87.28580048816119
 20
-139.782682256721
 30
0.0
 10
87.21810436187603
 20
-139.7785481421387
 30
0.0
 10
87.08271210930572
 20
-139.7806151994299
 30
0.0
 10
87.08271210930572
 20
-139.7806151994299
 30
0.0
 10
87.08271210930572
 20
-140.1192680856299
 30
0.0
 10
87.08271210930572
 20
-140.1192680856299
 30
0.0
 10
87.13766138229545
 20
-140.0958414363302
 30
0.0
 10
87.20329045128946
 20
-140.0682806724482
 30
0.0
 10
87.25186629763148
 20
-140.045198532697
 30
0.0
 10
87.25186629763148
 20
-140.045198532697
 30
0.0
 10
87.25186629763148
 20
-139.8674316056581
 30
0.0
 10
87.25186629763148
 20
-139.8674316056581
 30
0.0
 10
87.36607121296751
 20
-139.8801784589536
 30
0.0
 10
87.48458249766011
 20
-139.8801784589536
 30
0.0
 10
87.60102672506156
 20
-139.8801784589536
 30
0.0
 10
87.57777233053612
 20
-139.7847493140121
 30
0.0
 10
87.55021156665411
 20
-139.7024115319147
 30
0.0
 10
87.48664955495126
 20
-139.5690863366355
 30
0.0
 10
87.4423800779658
 20
-139.5711533939267
 30
0.0
 10
87.35987004109407
 20
-139.5752875085089
 30
0.0
 10
87.3216294812078
 20
-139.5776990753486
 30
0.0
 10
87.3216294812078
 20
-139.5776990753486
 30
0.0
 10
87.3216294812078
 20
-139.3978650910186
 30
0.0
 10
87.3216294812078
 20
-139.3978650910186
 30
0.0
 10
87.4465141925481
 20
-139.4061333201832
 30
0.0
 10
87.61997475023043
 20
-139.4102674347655
 30
0.0
 10
87.70248478710216
 20
-139.4102674347655
 30
0.0
 10
87.70248478710216
 20
-139.4102674347655
 30
0.0
 10
87.78499482397389
 20
-139.4102674347655
 30
0.0
 10
87.78499482397389
 20
-139.4102674347655
 30
0.0
 10
87.78499482397389
 20
-139.2476589278617
 30
0.0
 10
87.78499482397389
 20
-139.2369791318574
 30
0.0
 10
87.78292776668275
 20
-139.1818576040934
 30
0.0
 10
87.78292776668275
 20
-139.1818576040934
 30
0.0
 10
88.00720348277251
 20
-139.2073513106843
 30
0.0
 10
88.00720348277251
 20
-139.2073513106843
 30
0.0
 10
88.01133759735481
 20
-139.2073513106843
 30
0.0
 10
88.03252493458909
 20
-139.2094183679754
 30
0.0
 10
88.03252493458909
 20
-139.2262993358532
 30
0.0
 10
88.03252493458909
 20
-139.2411132464397
 30
0.0
 10
88.02201739335908
 20
-139.2497259851528
 30
0.0
 10
87.99445662947709
 20
-139.2645398957394
 30
0.0
 10
87.98808320282937
 20
-139.3299967099592
 30
0.0
 10
87.98601614553822
 20
-139.3513563019677
 30
0.0
 10
87.98601614553822
 20
-139.4102674347655
 30
0.0
 10
87.98601614553822
 20
-139.4102674347655
 30
0.0
 10
88.08110078093112
 20
-139.4102674347655
 30
0.0
 10
88.08110078093112
 20
-139.4102674347655
 30
0.0
 10
88.16361081780285
 20
-139.4102674347655
 30
0.0
 10
88.33707137548518
 20
-139.4061333201832
 30
0.0
 10
88.46195608682548
 20
-139.3978650910186
 30
0.0
 10
88.46195608682548
 20
-139.3978650910186
 30
0.0
 10
88.46195608682548
 20
-139.5776990753486
 30
0.0
 10
88.46195608682548
 20
-139.5776990753486
 30
0.0
 10
88.43232826565234
 20
-139.5752875085089
 30
0.0
 10
88.31381698095974
 20
-139.5711533939267
 30
0.0
 10
88.27368161855658
 20
-139.5690863366355
 30
0.0
 10
88.25886770797001
 20
-139.6197292402687
 30
0.0
 10
88.22510577221456
 20
-139.7320393530878
 30
0.0
 10
88.15947670322055
 20
-139.8715657202405
 30
0.0
 10
88.20167912291487
 20
-139.8715657202405
 30
0.0
 10
88.4788370547032
 20
-139.8526176950716
 30
0.0
 10
88.54015975434066
 20
-139.8505506377804
 30
0.0
 10
88.54015975434066
 20
-139.8505506377804
 30
0.0
 10
88.54015975434066
 20
-140.0345187366928
 30
0.0
 10
88.54015975434066
 20
-140.0345187366928
 30
0.0
 10
88.51070418794177
 20
-140.0345187366928
 30
0.0
 10
88.49365096528979
 20
-140.0303846221105
 30
0.0
 10
88.33087020361172
 20
-140.0303846221105
 30
0.0
  0
SPLINE
  5
14A
330
145
100
AcDbEntity
  8
_U+30EC_U+30A4_U+30E4_U+30FC 1
370
     0
100
AcDbSpline
210
0.0
220
0.0
230
1.0
 70
    11
 71
     3
 72
    20
 73
    16
 74
     0
 42
0.0000000001
 43
0.0000000001
 12
1.0
 22
0.0
 32
0.0
 13
1.0
 23
0.0
 33
0.0
 40
0.0
 40
0.0
 40
0.0
 40
0.0
 40
1.0
 40
1.0
 40
1.0
 40
2.0
 40
2.0
 40
2.0
 40
3.0
 40
3.0
 40
3.0
 40
4.0
 40
4.0
 40
4.0
 40
5.0
 40
5.0
 40
5.0
 40
5.0
 10
87.70248478710216
 20
-139.5649522220532
 30
0.0
 10
87.70248478710216
 20
-139.5649522220532
 30
0.0
 10
87.67078990863786
 20
-139.5649522220532
 30
0.0
 10
87.67078990863786
 20
-139.5649522220532
 30
0.0
 10
87.71729869768873
 20
-139.6641709720284
 30
0.0
 10
87.74899357615304
 20
-139.7447862063833
 30
0.0
 10
87.78292776668275
 20
-139.8715657202405
 30
0.0
 10
87.78292776668275
 20
-139.8715657202405
 30
0.0
 10
87.99015026012052
 20
-139.8715657202405
 30
0.0
 10
87.99015026012052
 20
-139.8715657202405
 30
0.0
 10
88.02201739335908
 20
-139.7785481421387
 30
0.0
 10
88.04527178788452
 20
-139.6937987932016
 30
0.0
 10
88.06852618240995
 20
-139.5649522220532
 30
0.0
 10
88.06852618240995
 20
-139.5649522220532
 30
0.0
 10
87.70248478710216
 20
-139.5649522220532
 30
0.0
 10
87.70248478710216
 20
-139.5649522220532
 30
0.0
  0
SPLINE
  5
14B
330
145
100
AcDbEntity
  8
_U+30EC_U+30A4_U+30E4_U+30FC 1
370
     0
100
AcDbSpline
210
0.0
220
0.0
230
1.0
 70
    11
 71
     3
 72
    17
 73
    13
 74
     0
 42
0.0000000001
 43
0.0000000001
 12
1.0
 22
0.0
 32
0.0
 13
1.0
 23
0.0
 33
0.0
 40
0.0
 40
0.0
 40
0.0
 40
0.0
 40
1.0
 40
1.0
 40
1.0
 40
2.0
 40
2.0
 40
2.0
 40
3.0
 40
3.0
 40
3.0
 40
4.0
 40
4.0
 40
4.0
 40
4.0
 10
87.76604679880502
 20
-140.4152017878129
 30
0.0
 10
87.74899357615304
 20
-140.444829608986
 30
0.0
 10
87.69835067251987
 20
-140.5378471870878
 30
0.0
 10
87.68767087651558
 20
-140.5571397218052
 30
0.0
 10
87.87801240207564
 20
-140.6163953641515
 30
0.0
 10
87.89919973930992
 20
-140.6225965360249
 30
0.0
 10
87.97120223495165
 20
-140.6501572999069
 30
0.0
 10
88.02615150794138
 20
-140.5633408936786
 30
0.0
 10
88.04940590246682
 20
-140.4892713407457
 30
0.0
 10
88.0642198130534
 20
-140.4152017878129
 30
0.0
 10
88.0642198130534
 20
-140.4152017878129
 30
0.0
 10
87.76604679880502
 20
-140.4152017878129
 30
0.0
 10
87.76604679880502
 20
-140.4152017878129
 30
0.0
  0
HATCH
  5
14C
330
145
100
AcDbEntity
  8
_U+30EC_U+30A4_U+30E4_U+30FC 1
 62
   179
420
  2234388
100
AcDbHatch
 10
0.0
 20
0.0
 30
0.0
210
0.0
220
0.0
230
1.0
  2
SOLID
 70
     1
 71
     0
 91
        3
 92
        1
 93
        1
 72
     4
 94
        3
 73
     0
 74
     1
 95
      242
 96
      238
 40
0.0
 40
0.0
 40
0.0
 40
0.0
 40
1.0
 40
1.0
 40
1.0
 40
2.0
 40
2.0
 40
2.0
 40
3.0
 40
3.0
 40
3.0
 40
4.0
 40
4.0
 40
4.0
 40
5.0
 40
5.0
 40
5.0
 40
6.0
 40
6.0
 40
6.0
 40
7.0
 40
7.0
 40
7.0
 40
8.0
 40
8.0
 40
8.0
 40
9.0
 40
9.0
 40
9.0
 40
10.0
 40
10.0
 40
10.0
 40
11.0
 40
11.0
 40
11.0
 40
12.0
 40
12.0
 40
12.0
 40
13.0
 40
13.0
 40
13.0
 40
14.0
 40
14.0
 40
14.0
 40
15.0
 40
15.0
 40
15.0
 40
16.0
 40
16.0
 40
16.0
 40
17.0
 40
17.0
 40
17.0
 40
18.0
 40
18.0
 40
18.0
 40
19.0
 40
19.0
 40
19.0
 40
20.0
 40
20.0
 40
20.0
 40
21.0
 40
21.0
 40
21.0
 40
22.0
 40
22.0
 40
22.0
 40
23.0
 40
23.0
 40
23.0
 40
24.0
 40
24.0
 40
24.0
 40
25.0
 40
25.0
 40
25.0
 40
26.0
 40
26.0
 40
26.0
 40
27.0
 40
27.0
 40
27.0
 40
28.0
 40
28.0
 40
28.0
 40
29.0
 40
29.0
 40
29.0
 40
30.0
 40
30.0
 40
30.0
 40
31.0
 40
31.0
 40
31.0
 40
32.0
 40
32.0
 40
32.0
 40
33.0
 40
33.0
 40
33.0
 40
34.0
 40
34.0
 40
34.0
 40
35.0
 40
35.0
 40
35.0
 40
36.0
 40
36.0
 40
36.0
 40
37.0
 40
37.0
 40
37.0
 40
38.0
 40
38.0
 40
38.0
 40
39.0
 40
39.0
 40
39.0
 40
40.0
 40
40.0
 40
40.0
 40
41.0
 40
41.0
 40
41.0
 40
42.0
 40
42.0
 40
42.0
 40
43.0
 40
43.0
 40
43.0
 40
44.0
 40
44.0
 40
44.0
 40
45.0
 40
45.0
 40
45.0
 40
46.0
 40
46.0
 40
46.0
 40
47.0
 40
47.0
 40
47.0
 40
48.0
 40
48.0
 40
48.0
 40
49.0
 40
49.0
 40
49.0
 40
50.0
 40
50.0
 40
50.0
 40
51.0
 40
51.0
 40
51.0
 40
52.0
 40
52.0
 40
52.0
 40
53.0
 40
53.0
 40
53.0
 40
54.0
 40
54.0
 40
54.0
 40
55.0
 40
55.0
 40
55.0
 40
56.0
 40
56.0
 40
56.0
 40
57.0
 40
57.0
 40
57.0
 40
58.0
 40
58.0
 40
58.0
 40
59.0
 40
59.0
 40
59.0
 40
60.0
 40
60.0
 40
60.0
 40
61.0
 40
61.0
 40
61.0
 40
62.0
 40
62.0
 40
62.0
 40
63.0
 40
63.0
 40
63.0
 40
64.0
 40
64.0
 40
64.0
 40
65.0
 40
65.0
 40
65.0
 40
66.0
 40
66.0
 40
66.0
 40
67.0
 40
67.0
 40
67.0
 40
68.0
 40
68.0
 40
68.0
 40
69.0
 40
69.0
 40
69.0
 40
70.0
 40
70.0
 40
70.0
 40
71.0
 40
71.0
 40
71.0
 40
72.0
 40
72.0
 40
72.0
 40
73.0
 40
73.0
 40
73.0
 40
74.0
 40
74.0
 40
74.0
 40
75.0
 40
75.0
 40
75.0
 40
76.0
 40
76.0
 40
76.0
 40
77.0
 40
77.0
 40
77.0
 40
78.0
 40
78.0
 40
78.0
 40
79.0
 40
79.0
 40
79.0
 40
79.0
 10
88.33087020361172
 20
-140.0303846221105
 10
88.33087020361172
 20
-140.0303846221105
 10
88.07696666634882
 20
-140.0303846221105
 10
88.07696666634882
 20
-140.0303846221105
 10
88.07696666634882
 20
-140.0303846221105
 10
87.79980873456047
 20
-140.0303846221105
 10
87.79980873456047
 20
-140.0303846221105
 10
87.79980873456047
 20
-140.0303846221105
 10
87.92676050319193
 20
-140.0727592965791
 10
87.92676050319193
 20
-140.0727592965791
 10
87.93726804442194
 20
-140.0768934111613
 10
87.95001489771737
 20
-140.0830945830348
 10
87.95001489771737
 20
-140.0958414363302
 10
87.95001489771737
 20
-140.1168565187902
 10
87.91832001925306
 20
-140.1234022002122
 10
87.89713268201878
 20
-140.1275363147945
 10
87.88662514078877
 20
-140.1509629640942
 10
87.85699731961562
 20
-140.216419778314
 10
87.83787703967248
 20
-140.2608615100737
 10
87.83787703967248
 20
-140.2608615100737
 10
88.10866154481312
 20
-140.2608615100737
 10
88.10866154481312
 20
-140.2608615100737
 10
88.19961206562371
 20
-140.2608615100737
 10
88.39632701783148
 20
-140.2567273954914
 10
88.5380926970495
 20
-140.2481146567783
 10
88.5380926970495
 20
-140.2481146567783
 10
88.5380926970495
 20
-140.4258815838172
 10
88.5380926970495
 20
-140.4258815838172
 10
88.45558266017777
 20
-140.4217474692348
 10
88.43439532294349
 20
-140.4217474692348
 10
88.25473359338771
 20
-140.417268845104
 10
88.22286646014915
 20
-140.5719536323917
 10
88.17842472838943
 20
-140.6522243571981
 10
88.1339829966297
 20
-140.7221597955486
 10
88.25473359338771
 20
-140.7814154378949
 10
88.36049802478487
 20
-140.8489393094058
 10
88.46402314411664
 20
-140.9316216010518
 10
88.46402314411664
 20
-140.9316216010518
 10
88.3456841141983
 20
-141.0987087320864
 10
88.3456841141983
 20
-141.0987087320864
 10
88.32225746489861
 20
-141.079416197369
 10
88.30968286637744
 20
-141.0711479682044
 10
88.19754500833257
 20
-140.9863986192673
 10
88.14879690721628
 20
-140.9485025689295
 10
88.08971351964425
 20
-140.9123290663344
 10
88.00927054006365
 20
-140.8678873345747
 10
87.79774167726931
 20
-141.0542670003267
 10
87.59241398634843
 20
-141.0773491400779
 10
87.30268145603891
 20
-141.106976961251
 10
87.30268145603891
 20
-141.106976961251
 10
87.19898408193289
 20
-140.927142976921
 10
87.19898408193289
 20
-140.927142976921
 10
87.5162773761244
 20
-140.9230088623387
 10
87.69197724587215
 20
-140.8975151557478
 10
87.84425046632019
 20
-140.7876166097684
 10
87.7257391816276
 20
-140.7369737061352
 10
87.63685571810815
 20
-140.7094129422532
 10
87.60102672506156
 20
-140.6966660889578
 10
87.58190644511842
 20
-140.7242268528398
 10
87.56709253453184
 20
-140.7431748780087
 10
87.53953177064984
 20
-140.7769368137641
 10
87.53953177064984
 20
-140.7769368137641
 10
87.34281681844207
 20
-140.6945990316666
 10
87.34281681844207
 20
-140.6945990316666
 10
87.42532685531381
 20
-140.6143283068603
 10
87.48664955495126
 20
-140.5188991619189
 10
87.5438381400064
 20
-140.417268845104
 10
87.35349661444636
 20
-140.4217474692348
 10
87.33230927721206
 20
-140.4217474692348
 10
87.24979924034034
 20
-140.4258815838172
 10
87.24979924034034
 20
-140.4258815838172
 10
87.24979924034034
 20
-140.2481146567783
 10
87.24979924034034
 20
-140.2481146567783
 10
87.38932560749295
 20
-140.2546603382002
 10
87.59878741299615
 20
-140.2587944527825
 10
87.624281119587
 20
-140.2587944527825
 10
87.6411620874647
 20
-140.2250325170271
 10
87.69611136045445
 20
-140.1044541750433
 10
87.71523164039759
 20
-140.0303846221105
 10
87.69611136045445
 20
-140.0303846221105
 10
87.51851668818982
 20
-140.0365857939839
 10
87.3238687932732
 20
-140.0493326472793
 10
87.3238687932732
 20
-140.0493326472793
 10
87.3238687932732
 20
-140.1826578425585
 10
87.3238687932732
 20
-140.1826578425585
 10
87.27512069215692
 20
-140.2078070396008
 10
87.21586504981062
 20
-140.2398464276137
 10
87.08271210930572
 20
-140.3053032418334
 10
87.08271210930572
 20
-140.3053032418334
 10
87.08271210930572
 20
-140.451375290408
 10
87.08271210930572
 20
-140.451375290408
 10
87.08271210930572
 20
-140.451375290408
 10
87.08271210930572
 20
-140.9188747477564
 10
87.08271210930572
 20
-140.9188747477564
 10
87.08271210930572
 20
-141.0456542616136
 10
87.04671086148485
 20
-141.1049099039599
 10
86.76317950304879
 20
-141.0966416747953
 10
86.76317950304879
 20
-141.0966416747953
 10
86.65948212894277
 20
-140.8892469265832
 10
86.65948212894277
 20
-140.8892469265832
 10
86.72304414064563
 20
-140.9019937798787
 10
86.77161998698766
 20
-140.906127894461
 10
86.81192760416508
 20
-140.906127894461
 10
86.8880642143891
 20
-140.906127894461
 10
86.89857175561912
 20
-140.8827012451613
 10
86.89857175561912
 20
-140.8172444309415
 10
86.89857175561912
 20
-140.8172444309415
 10
86.89857175561912
 20
-140.3876410239309
 10
86.89857175561912
 20
-140.3876410239309
 10
86.80124780816081
 20
-140.4279486411083
 10
86.78436684028308
 20
-140.4344943225303
 10
86.73785805123221
 20
-140.4534423476991
 10
86.73355168187564
 20
-140.4744574301592
 10
86.72941756729334
 20
-140.5040852513323
 10
86.7102972873502
 20
-140.5040852513323
 10
86.70185680341135
 20
-140.5040852513323
 10
86.69134926218133
 20
-140.49995113675
 10
86.68497583553362
 20
-140.4765244874503
 10
86.68497583553362
 20
-140.4765244874503
 10
86.63209361983503
 20
-140.2842881593734
 10
86.63209361983503
 20
-140.2842881593734
 10
86.77799341363537
 20
-140.237434860774
 10
86.84362248262937
 20
-140.2143527210228
 10
86.89857175561912
 20
-140.1933376385628
 10
86.89857175561912
 20
-140.1933376385628
 10
86.89857175561912
 20
-139.7806151994299
 10
86.89857175561912
 20
-139.7806151994299
 10
86.89857175561912
 20
-139.7806151994299
 10
86.84568953992053
 20
-139.7806151994299
 10
86.84568953992053
 20
-139.7806151994299
 10
86.84568953992053
 20
-139.7806151994299
 10
86.76748587240536
 20
-139.7806151994299
 10
86.76748587240536
 20
-139.7806151994299
 10
86.69978974612019
 20
-139.7806151994299
 10
86.69134926218133
 20
-139.7806151994299
 10
86.65534801436047
 20
-139.7871608808518
 10
86.65534801436047
 20
-139.7871608808518
 10
86.65534801436047
 20
-139.5925129859352
 10
86.65534801436047
 20
-139.5925129859352
 10
86.68290877824248
 20
-139.5987141578087
 10
86.69134926218133
 20
-139.5987141578087
 10
86.76111244575765
 20
-139.5987141578087
 10
86.76111244575765
 20
-139.5987141578087
 10
86.89443764103682
 20
-139.5987141578087
 10
86.89443764103682
 20
-139.5987141578087
 10
86.89443764103682
 20
-139.5287787194581
 10
86.89443764103682
 20
-139.4464409373606
 10
86.8921983289714
 20
-139.4423068227783
 10
86.88375784503253
 20
-139.2624728384483
 10
86.88375784503253
 20
-139.2431803037309
 10
86.88169078774139
 20
-139.19667151468
 10
86.88169078774139
 20
-139.19667151468
 10
87.09752601989229
 20
-139.2052842533931
 10
87.09752601989229
 20
-139.2052842533931
 10
87.1080335611223
 20
-139.2052842533931
 10
87.12922089835659
 20
-139.2073513106843
 10
87.12922089835659
 20
-139.224232278562
 10
87.12922089835659
 20
-139.2431803037309
 10
87.11440698777001
 20
-139.2538600997352
 10
87.08908553595343
 20
-139.272808124904
 10
87.08908553595343
 20
-139.3237955380857
 10
87.08271210930572
 20
-139.5522053687578
 10
87.08477916659686
 20
-139.5987141578087
 10
87.21379799251947
 20
-139.5987141578087
 10
87.2265448458149
 20
-139.5987141578087
 10
87.3238687932732
 20
-139.5901014190955
 10
87.3238687932732
 20
-139.5901014190955
 10
87.3238687932732
 20
-139.7847493140121
 10
87.3238687932732
 20
-139.7847493140121
 10
87.28580048816119
 20
-139.782682256721
 10
87.21810436187603
 20
-139.7785481421387
 10
87.08271210930572
 20
-139.7806151994299
 10
87.08271210930572
 20
-139.7806151994299
 10
87.08271210930572
 20
-140.1192680856299
 10
87.08271210930572
 20
-140.1192680856299
 10
87.13766138229545
 20
-140.0958414363302
 10
87.20329045128946
 20
-140.0682806724482
 10
87.25186629763148
 20
-140.045198532697
 10
87.25186629763148
 20
-140.045198532697
 10
87.25186629763148
 20
-139.8674316056581
 10
87.25186629763148
 20
-139.8674316056581
 10
87.36607121296751
 20
-139.8801784589536
 10
87.48458249766011
 20
-139.8801784589536
 10
87.60102672506156
 20
-139.8801784589536
 10
87.57777233053612
 20
-139.7847493140121
 10
87.55021156665411
 20
-139.7024115319147
 10
87.48664955495126
 20
-139.5690863366355
 10
87.4423800779658
 20
-139.5711533939267
 10
87.35987004109407
 20
-139.5752875085089
 10
87.3216294812078
 20
-139.5776990753486
 10
87.3216294812078
 20
-139.5776990753486
 10
87.3216294812078
 20
-139.3978650910186
 10
87.3216294812078
 20
-139.3978650910186
 10
87.4465141925481
 20
-139.4061333201832
 10
87.61997475023043
 20
-139.4102674347655
 10
87.70248478710216
 20
-139.4102674347655
 10
87.70248478710216
 20
-139.4102674347655
 10
87.78499482397389
 20
-139.4102674347655
 10
87.78499482397389
 20
-139.4102674347655
 10
87.78499482397389
 20
-139.2476589278617
 10
87.78499482397389
 20
-139.2369791318574
 10
87.78292776668275
 20
-139.1818576040934
 10
87.78292776668275
 20
-139.1818576040934
 10
88.00720348277251
 20
-139.2073513106843
 10
88.00720348277251
 20
-139.2073513106843
 10
88.01133759735481
 20
-139.2073513106843
 10
88.03252493458909
 20
-139.2094183679754
 10
88.03252493458909
 20
-139.2262993358532
 10
88.03252493458909
 20
-139.2411132464397
 10
88.02201739335908
 20
-139.2497259851528
 10
87.99445662947709
 20
-139.2645398957394
 10
87.98808320282937
 20
-139.3299967099592
 10
87.98601614553822
 20
-139.3513563019677
 10
87.98601614553822
 20
-139.4102674347655
 10
87.98601614553822
 20
-139.4102674347655
 10
88.08110078093112
 20
-139.4102674347655
 10
88.08110078093112
 20
-139.4102674347655
 10
88.16361081780285
 20
-139.4102674347655
 10
88.33707137548518
 20
-139.4061333201832
 10
88.46195608682548
 20
-139.3978650910186
 10
88.46195608682548
 20
-139.3978650910186
 10
88.46195608682548
 20
-139.5776990753486
 10
88.46195608682548
 20
-139.5776990753486
 10
88.43232826565234
 20
-139.5752875085089
 10
88.31381698095974
 20
-139.5711533939267
 10
88.27368161855658
 20
-139.5690863366355
 10
88.25886770797001
 20
-139.6197292402687
 10
88.22510577221456
 20
-139.7320393530878
 10
88.15947670322055
 20
-139.8715657202405
 10
88.20167912291487
 20
-139.8715657202405
 10
88.4788370547032
 20
-139.8526176950716
 10
88.54015975434066
 20
-139.8505506377804
 10
88.54015975434066
 20
-139.8505506377804
 10
88.54015975434066
 20
-140.0345187366928
 10
88.54015975434066
 20
-140.0345187366928
 10
88.51070418794177
 20
-140.0345187366928
 10
88.49365096528979
 20
-140.0303846221105
 10
88.33087020361172
 20
-140.0303846221105
 97
        0
 97
        0
 92
        1
 93
        1
 72
     4
 94
        3
 73
     0
 74
     1
 95
       20
 96
       16
 40
0.0
 40
0.0
 40
0.0
 40
0.0
 40
1.0
 40
1.0
 40
1.0
 40
2.0
 40
2.0
 40
2.0
 40
3.0
 40
3.0
 40
3.0
 40
4.0
 40
4.0
 40
4.0
 40
5.0
 40
5.0
 40
5.0
 40
5.0
 10
87.70248478710216
 20
-139.5649522220532
 10
87.70248478710216
 20
-139.5649522220532
 10
87.67078990863786
 20
-139.5649522220532
 10
87.67078990863786
 20
-139.5649522220532
 10
87.71729869768873
 20
-139.6641709720284
 10
87.74899357615304
 20
-139.7447862063833
 10
87.78292776668275
 20
-139.8715657202405
 10
87.78292776668275
 20
-139.8715657202405
 10
87.99015026012052
 20
-139.8715657202405
 10
87.99015026012052
 20
-139.8715657202405
 10
88.02201739335908
 20
-139.7785481421387
 10
88.04527178788452
 20
-139.6937987932016
 10
88.06852618240995
 20
-139.5649522220532
 10
88.06852618240995
 20
-139.5649522220532
 10
87.70248478710216
 20
-139.5649522220532
 10
87.70248478710216
 20
-139.5649522220532
 97
        0
 97
        0
 92
        1
 93
        1
 72
     4
 94
        3
 73
     0
 74
     1
 95
       17
 96
       13
 40
0.0
 40
0.0
 40
0.0
 40
0.0
 40
1.0
 40
1.0
 40
1.0
 40
2.0
 40
2.0
 40
2.0
 40
3.0
 40
3.0
 40
3.0
 40
4.0
 40
4.0
 40
4.0
 40
4.0
 10
87.76604679880502
 20
-140.4152017878129
 10
87.74899357615304
 20
-140.444829608986
 10
87.69835067251987
 20
-140.5378471870878
 10
87.68767087651558
 20
-140.5571397218052
 10
87.87801240207564
 20
-140.6163953641515
 10
87.89919973930992
 20
-140.6225965360249
 10
87.97120223495165
 20
-140.6501572999069
 10
88.02615150794138
 20
-140.5633408936786
 10
88.04940590246682
 20
-140.4892713407457
 10
88.0642198130534
 20
-140.4152017878129
 10
88.0642198130534
 20
-140.4152017878129
 10
87.76604679880502
 20
-140.4152017878129
 10
87.76604679880502
 20
-140.4152017878129
 97
        0
 97
        0
 75
     2
 76
     1
 98
        0
  0
SPLINE
  5
14D
330
145
100
AcDbEntity
  8
_U+30EC_U+30A4_U+30E4_U+30FC 1
370
     0
100
AcDbSpline
210
0.0
220
0.0
230
1.0
 70
    11
 71
     3
 72
   203
 73
   199
 74
     0
 42
0.0000000001
 43
0.0000000001
 12
1.0
 22
0.0
 32
0.0
 13
1.0
 23
0.0
 33
0.0
 40
0.0
 40
0.0
 40
0.0
 40
0.0
 40
1.0
 40
1.0
 40
1.0
 40
2.0
 40
2.0
 40
2.0
 40
3.0
 40
3.0
 40
3.0
 40
4.0
 40
4.0
 40
4.0
 40
5.0
 40
5.0
 40
5.0
 40
6.0
 40
6.0
 40
6.0
 40
7.0
 40
7.0
 40
7.0
 40
8.0
 40
8.0
 40
8.0
 40
9.0
 40
9.0
 40
9.0
 40
10.0
 40
10.0
 40
10.0
 40
11.0
 40
11.0
 40
11.0
 40
12.0
 40
12.0
 40
12.0
 40
13.0
 40
13.0
 40
13.0
 40
14.0
 40
14.0
 40
14.0
 40
15.0
 40
15.0
 40
15.0
 40
16.0
 40
16.0
 40
16.0
 40
17.0
 40
17.0
 40
17.0
 40
18.0
 40
18.0
 40
18.0
 40
19.0
 40
19.0
 40
19.0
 40
20.0
 40
20.0
 40
20.0
 40
21.0
 40
21.0
 40
21.0
 40
22.0
 40
22.0
 40
22.0
 40
23.0
 40
23.0
 40
23.0
 40
24.0
 40
24.0
 40
24.0
 40
25.0
 40
25.0
 40
25.0
 40
26.0
 40
26.0
 40
26.0
 40
27.0
 40
27.0
 40
27.0
 40
28.0
 40
28.0
 40
28.0
 40
29.0
 40
29.0
 40
29.0
 40
30.0
 40
30.0
 40
30.0
 40
31.0
 40
31.0
 40
31.0
 40
32.0
 40
32.0
 40
32.0
 40
33.0
 40
33.0
 40
33.0
 40
34.0
 40
34.0
 40
34.0
 40
35.0
 40
35.0
 40
35.0
 40
36.0
 40
36.0
 40
36.0
 40
37.0
 40
37.0
 40
37.0
 40
38.0
 40
38.0
 40
38.0
 40
39.0
 40
39.0
 40
39.0
 40
40.0
 40
40.0
 40
40.0
 40
41.0
 40
41.0
 40
41.0
 40
42.0
 40
42.0
 40
42.0
 40
43.0
 40
43.0
 40
43.0
 40
44.0
 40
44.0
 40
44.0
 40
45.0
 40
45.0
 40
45.0
 40
46.0
 40
46.0
 40
46.0
 40
47.0
 40
47.0
 40
47.0
 40
48.0
 40
48.0
 40
48.0
 40
49.0
 40
49.0
 40
49.0
 40
50.0
 40
50.0
 40
50.0
 40
51.0
 40
51.0
 40
51.0
 40
52.0
 40
52.0
 40
52.0
 40
53.0
 40
53.0
 40
53.0
 40
54.0
 40
54.0
 40
54.0
 40
55.0
 40
55.0
 40
55.0
 40
56.0
 40
56.0
 40
56.0
 40
57.0
 40
57.0
 40
57.0
 40
58.0
 40
58.0
 40
58.0
 40
59.0
 40
59.0
 40
59.0
 40
60.0
 40
60.0
 40
60.0
 40
61.0
 40
61.0
 40
61.0
 40
62.0
 40
62.0
 40
62.0
 40
63.0
 40
63.0
 40
63.0
 40
64.0
 40
64.0
 40
64.0
 40
65.0
 40
65.0
 40
65.0
 40
66.0
 40
66.0
 40
66.0
 40
66.0
 10
90.02223983209514
 20
-140.0979084936214
 30
0.0
 10
90.02223983209514
 20
-140.0979084936214
 30
0.0
 10
89.46378985393613
 20
-140.0979084936214
 30
0.0
 10
89.46378985393613
 20
-140.0979084936214
 30
0.0
 10
89.45311005793187
 20
-140.1423502253811
 30
0.0
 10
89.444669573993
 20
-140.1740451038454
 30
0.0
 10
89.43209497547184
 20
-140.2122856637316
 30
0.0
 10
89.45741642728842
 20
-140.2122856637316
 30
0.0
 10
89.472230337875
 20
-140.2143527210228
 30
0.0
 10
89.47860376452272
 20
-140.2143527210228
 30
0.0
 10
89.47860376452272
 20
-140.2143527210228
 30
0.0
 10
89.66687823279162
 20
-140.2143527210228
 30
0.0
 10
89.66687823279162
 20
-140.2143527210228
 30
0.0
 10
89.66687823279162
 20
-140.2143527210228
 30
0.0
 10
90.04136011203828
 20
-140.2143527210228
 30
0.0
 10
90.04136011203828
 20
-140.2143527210228
 30
0.0
 10
90.09200301567145
 20
-140.2143527210228
 30
0.0
 10
90.3755343741075
 20
-140.2016058677274
 30
0.0
 10
90.40722925257181
 20
-140.2016058677274
 30
0.0
 10
90.40516219528065
 20
-140.2291666316094
 30
0.0
 10
90.40309513798951
 20
-140.2481146567783
 30
0.0
 10
90.40309513798951
 20
-140.2777424779514
 30
0.0
 10
90.4008558259241
 20
-140.3094373564157
 30
0.0
 10
90.4008558259241
 20
-140.444829608986
 30
0.0
 10
90.4008558259241
 20
-140.472390372868
 30
0.0
 10
90.4008558259241
 20
-140.472390372868
 30
0.0
 10
90.4008558259241
 20
-140.7176811714178
 30
0.0
 10
90.4008558259241
 20
-140.7176811714178
 30
0.0
 10
90.4008558259241
 20
-140.7621229031775
 30
0.0
 10
90.40516219528065
 20
-140.9588378553853
 30
0.0
 10
90.40946856463722
 20
-141.1114555853819
 30
0.0
 10
90.40946856463722
 20
-141.1114555853819
 30
0.0
 10
90.18295353648205
 20
-141.1114555853819
 30
0.0
 10
90.18295353648205
 20
-141.1114555853819
 30
0.0
 10
90.18295353648205
 20
-141.1114555853819
 30
0.0
 10
90.18519284854746
 20
-141.0773491400779
 30
0.0
 10
90.18519284854746
 20
-141.0773491400779
 30
0.0
 10
90.18519284854746
 20
-141.0773491400779
 30
0.0
 10
89.48273787910502
 20
-141.0773491400779
 30
0.0
 10
89.48273787910502
 20
-141.0773491400779
 30
0.0
 10
89.48273787910502
 20
-141.0773491400779
 30
0.0
 10
89.48497719117043
 20
-141.1114555853819
 30
0.0
 10
89.48497719117043
 20
-141.1114555853819
 30
0.0
 10
89.48497719117043
 20
-141.1114555853819
 30
0.0
 10
89.26707490172838
 20
-141.1114555853819
 30
0.0
 10
89.26707490172838
 20
-141.1114555853819
 30
0.0
 10
89.27120901631068
 20
-141.0563340576179
 30
0.0
 10
89.27120901631068
 20
-141.0435872043224
 30
0.0
 10
89.27758244295839
 20
-140.9292100342122
 30
0.0
 10
89.27964950024953
 20
-140.9019937798787
 30
0.0
 10
89.28188881231495
 20
-140.7686685845995
 30
0.0
 10
89.28188881231495
 20
-140.7493760498821
 30
0.0
 10
89.28188881231495
 20
-140.7493760498821
 30
0.0
 10
89.28188881231495
 20
-140.5464599258009
 30
0.0
 10
89.28188881231495
 20
-140.5464599258009
 30
0.0
 10
89.14219019038806
 20
-140.7962293484815
 30
0.0
 10
88.9730360020623
 20
-140.927142976921
 30
0.0
 10
88.86727157066512
 20
-140.9929443006893
 30
0.0
 10
88.86727157066512
 20
-140.9929443006893
 30
0.0
 10
88.69363875820854
 20
-140.8530734239881
 30
0.0
 10
88.69363875820854
 20
-140.8530734239881
 30
0.0
 10
88.78252222172799
 20
-140.802430520355
 30
0.0
 10
88.92635495823717
 20
-140.7156141141267
 30
0.0
 10
89.0639865228729
 20
-140.52096621921
 30
0.0
 10
89.15493704368349
 20
-140.3941867053528
 30
0.0
 10
89.22039385790323
 20
-140.2501817140694
 30
0.0
 10
89.25432804843295
 20
-140.0979084936214
 30
0.0
 10
89.02591821776089
 20
-140.0999755509125
 30
0.0
 10
88.84608423343084
 20
-140.1065212323345
 30
0.0
 10
88.75082734326368
 20
-140.1085882896256
 30
0.0
 10
88.75082734326368
 20
-140.1085882896256
 30
0.0
 10
88.75082734326368
 20
-139.9308213625868
 30
0.0
 10
88.75082734326368
 20
-139.9308213625868
 30
0.0
 10
88.94754229547145
 20
-139.9370225344602
 30
0.0
 10
89.23107365390752
 20
-139.941501158591
 30
0.0
 10
89.38127981706441
 20
-139.941501158591
 30
0.0
 10
89.38127981706441
 20
-139.941501158591
 30
0.0
 10
89.59487573714989
 20
-139.941501158591
 30
0.0
 10
89.59487573714989
 20
-139.941501158591
 30
0.0
 10
89.59487573714989
 20
-139.941501158591
 30
0.0
 10
89.59487573714989
 20
-139.8336696699027
 30
0.0
 10
89.59487573714989
 20
-139.8336696699027
 30
0.0
 10
89.59487573714989
 20
-139.8336696699027
 30
0.0
 10
89.44897594334957
 20
-139.8336696699027
 30
0.0
 10
89.44897594334957
 20
-139.8336696699027
 30
0.0
 10
89.27964950024953
 20
-139.8336696699027
 30
0.0
 10
89.11049531192377
 20
-139.837803784485
 30
0.0
 10
88.94340818088915
 20
-139.8440049563584
 30
0.0
 10
88.94340818088915
 20
-139.8440049563584
 30
0.0
 10
88.94340818088915
 20
-139.6727837107415
 30
0.0
 10
88.94340818088915
 20
-139.6727837107415
 30
0.0
 10
89.09774845862835
 20
-139.6834635067458
 30
0.0
 10
89.2839558696061
 20
-139.6834635067458
 30
0.0
 10
89.44897594334957
 20
-139.6834635067458
 30
0.0
 10
89.44897594334957
 20
-139.6834635067458
 30
0.0
 10
89.59487573714989
 20
-139.6834635067458
 30
0.0
 10
89.59487573714989
 20
-139.6834635067458
 30
0.0
 10
89.59487573714989
 20
-139.6834635067458
 30
0.0
 10
89.59487573714989
 20
-139.5649522220532
 30
0.0
 10
89.59487573714989
 20
-139.5649522220532
 30
0.0
 10
89.59487573714989
 20
-139.5649522220532
 30
0.0
 10
89.46378985393613
 20
-139.5649522220532
 30
0.0
 10
89.46378985393613
 20
-139.5649522220532
 30
0.0
 10
89.41728106488527
 20
-139.5649522220532
 30
0.0
 10
89.21419268602979
 20
-139.5732204512178
 30
0.0
 10
89.17181801156121
 20
-139.5732204512178
 30
0.0
 10
88.96872963270575
 20
-139.5776990753486
 30
0.0
 10
88.89259302248172
 20
-139.5797661326398
 30
0.0
 10
88.81421710019228
 20
-139.5818331899309
 30
0.0
 10
88.81421710019228
 20
-139.5818331899309
 30
0.0
 10
88.81421710019228
 20
-139.3978650910186
 30
0.0
 10
88.81421710019228
 20
-139.3978650910186
 30
0.0
 10
88.92859427030258
 20
-139.4061333201832
 30
0.0
 10
88.9730360020623
 20
-139.4061333201832
 30
0.0
 10
89.35578611047356
 20
-139.4147460588963
 30
0.0
 10
89.29239635354496
 20
-139.3193169139549
 30
0.0
 10
89.26483558966297
 20
-139.2921006596214
 30
0.0
 10
89.22900659661636
 20
-139.2559271570263
 30
0.0
 10
89.22900659661636
 20
-139.2559271570263
 30
0.0
 10
89.40453421158985
 20
-139.1735893749288
 30
0.0
 10
89.40453421158985
 20
-139.1735893749288
 30
0.0
 10
89.444669573993
 20
-139.2094183679754
 30
0.0
 10
89.48911130575273
 20
-139.251793042444
 30
0.0
 10
89.5631808586856
 20
-139.3616915884235
 30
0.0
 10
89.5631808586856
 20
-139.3616915884235
 30
0.0
 10
89.44897594334957
 20
-139.4168131161875
 30
0.0
 10
89.44897594334957
 20
-139.4168131161875
 30
0.0
 10
89.44897594334957
 20
-139.4168131161875
 30
0.0
 10
89.45948348457958
 20
-139.4168131161875
 30
0.0
 10
89.45948348457958
 20
-139.4168131161875
 30
0.0
 10
89.45948348457958
 20
-139.4168131161875
 30
0.0
 10
89.98210446969198
 20
-139.4168131161875
 30
0.0
 10
89.98210446969198
 20
-139.4168131161875
 30
0.0
 10
89.98210446969198
 20
-139.4168131161875
 30
0.0
 10
89.88684757952483
 20
-139.3723713844277
 30
0.0
 10
89.88684757952483
 20
-139.3723713844277
 30
0.0
 10
89.91440834340682
 20
-139.3341308245415
 30
0.0
 10
89.97142467368771
 20
-139.2538600997352
 30
0.0
 10
89.98623858427428
 20
-139.1797905468023
 30
0.0
 10
89.98623858427428
 20
-139.1797905468023
 30
0.0
 10
90.20000675913403
 20
-139.2431803037309
 30
0.0
 10
90.20000675913403
 20
-139.2431803037309
 30
0.0
 10
90.2084472430729
 20
-139.2455918705706
 30
0.0
 10
90.22963458030718
 20
-139.2559271570263
 30
0.0
 10
90.22963458030718
 20
-139.2772867490349
 30
0.0
 10
90.22963458030718
 20
-139.3151827993726
 30
0.0
 10
90.16400551131316
 20
-139.3151827993726
 30
0.0
 10
90.14488523137003
 20
-139.3151827993726
 30
0.0
 10
90.13437769014003
 20
-139.3341308245415
 30
0.0
 10
90.11112329561459
 20
-139.3744384417189
 30
0.0
 10
90.08149547444144
 20
-139.4147460588963
 30
0.0
 10
90.48129880550468
 20
-139.4082003774743
 30
0.0
 10
90.51092662667783
 20
-139.4061333201832
 30
0.0
 10
90.58706323690186
 20
-139.3999321483097
 30
0.0
 10
90.58706323690186
 20
-139.3999321483097
 30
0.0
 10
90.58706323690186
 20
-139.5818331899309
 30
0.0
 10
90.58706323690186
 20
-139.5818331899309
 30
0.0
 10
90.56811521173297
 20
-139.5818331899309
 30
0.0
 10
90.54262150514212
 20
-139.5797661326398
 30
0.0
 10
90.32265215840893
 20
-139.5711533939267
 30
0.0
 10
90.27183700000148
 20
-139.5690863366355
 30
0.0
 10
90.05186765326829
 20
-139.5649522220532
 30
0.0
 10
90.00742592150857
 20
-139.5649522220532
 30
0.0
 10
90.00742592150857
 20
-139.5649522220532
 30
0.0
 10
89.79159068935766
 20
-139.5649522220532
 30
0.0
 10
89.79159068935766
 20
-139.5649522220532
 30
0.0
 10
89.79159068935766
 20
-139.5649522220532
 30
0.0
 10
89.79159068935766
 20
-139.6834635067458
 30
0.0
 10
89.79159068935766
 20
-139.6834635067458
 30
0.0
 10
89.79159068935766
 20
-139.6834635067458
 30
0.0
 10
89.96522350181425
 20
-139.6834635067458
 30
0.0
 10
89.96522350181425
 20
-139.6834635067458
 30
0.0
 10
90.12800426349231
 20
-139.6834635067458
 30
0.0
 10
90.31834578905236
 20
-139.6834635067458
 30
0.0
 10
90.47492537885697
 20
-139.6727837107415
 30
0.0
 10
90.47492537885697
 20
-139.6727837107415
 30
0.0
 10
90.47492537885697
 20
-139.8440049563584
 30
0.0
 10
90.47492537885697
 20
-139.8440049563584
 30
0.0
 10
90.26546357335377
 20
-139.8357367271938
 30
0.0
 10
90.06874862114601
 20
-139.8336696699027
 30
0.0
 10
89.96522350181425
 20
-139.8336696699027
 30
0.0
 10
89.96522350181425
 20
-139.8336696699027
 30
0.0
 10
89.79159068935766
 20
-139.8336696699027
 30
0.0
 10
89.79159068935766
 20
-139.8336696699027
 30
0.0
 10
89.79159068935766
 20
-139.8336696699027
 30
0.0
 10
89.79159068935766
 20
-139.941501158591
 30
0.0
 10
89.79159068935766
 20
-139.941501158591
 30
0.0
 10
89.79159068935766
 20
-139.941501158591
 30
0.0
 10
90.02223983209514
 20
-139.941501158591
 30
0.0
 10
90.02223983209514
 20
-139.941501158591
 30
0.0
 10
90.15556502737431
 20
-139.941501158591
 30
0.0
 10
90.44323050039267
 20
-139.9370225344602
 30
0.0
 10
90.65269230589585
 20
-139.9308213625868
 30
0.0
 10
90.65269230589585
 20
-139.9308213625868
 30
0.0
 10
90.65269230589585
 20
-140.1085882896256
 30
0.0
 10
90.65269230589585
 20
-140.1085882896256
 30
0.0
 10
90.4601114682704
 20
-140.1020426082037
 30
0.0
 10
90.14712454343544
 20
-140.0979084936214
 30
0.0
 10
90.02223983209514
 20
-140.0979084936214
 30
0.0
  0
POLYLINE
  5
14E
330
145
100
AcDbEntity
  8
_U+30EC_U+30A4_U+30E4_U+30FC 1
370
     0
100
AcDb2dPolyline
 66
     1
 10
0.0
 20
0.0
 30
0.0
  0
VERTEX
  5
14F
330
14E
100
AcDbEntity
  8
_U+30EC_U+30A4_U+30E4_U+30FC 1
370
     0
100
AcDbVertex
100
AcDb2dVertex
 10
90.1872599058386
 20
-140.3538790881754
 30
0.0
  0
VERTEX
  5
150
330
14E
100
AcDbEntity
  8
_U+30EC_U+30A4_U+30E4_U+30FC 1
370
     0
100
AcDbVertex
100
AcDb2dVertex
 10
89.48067082181386
 20
-140.3538790881754
 30
0.0
  0
VERTEX
  5
151
330
14E
100
AcDbEntity
  8
_U+30EC_U+30A4_U+30E4_U+30FC 1
370
     0
100
AcDbVertex
100
AcDb2dVertex
 10
89.48067082181386
 20
-140.4617105768637
 30
0.0
  0
VERTEX
  5
152
330
14E
100
AcDbEntity
  8
_U+30EC_U+30A4_U+30E4_U+30FC 1
370
     0
100
AcDbVertex
100
AcDb2dVertex
 10
90.1872599058386
 20
-140.4617105768637
 30
0.0
  0
VERTEX
  5
153
330
14E
100
AcDbEntity
  8
_U+30EC_U+30A4_U+30E4_U+30FC 1
370
     0
100
AcDbVertex
100
AcDb2dVertex
 10
90.1872599058386
 20
-140.3538790881754
 30
0.0
  0
SEQEND
  5
154
330
14E
100
AcDbEntity
  8
_U+30EC_U+30A4_U+30E4_U+30FC 1
370
     0
  0
POLYLINE
  5
155
330
145
100
AcDbEntity
  8
_U+30EC_U+30A4_U+30E4_U+30FC 1
370
     0
100
AcDb2dPolyline
 66
     1
 10
0.0
 20
0.0
 30
0.0
  0
VERTEX
  5
156
330
155
100
AcDbEntity
  8
_U+30EC_U+30A4_U+30E4_U+30FC 1
370
     0
100
AcDbVertex
100
AcDb2dVertex
 10
90.1872599058386
 20
-140.5867675429783
 30
0.0
  0
VERTEX
  5
157
330
155
100
AcDbEntity
  8
_U+30EC_U+30A4_U+30E4_U+30FC 1
370
     0
100
AcDbVertex
100
AcDb2dVertex
 10
89.48067082181386
 20
-140.5867675429783
 30
0.0
  0
VERTEX
  5
158
330
155
100
AcDbEntity
  8
_U+30EC_U+30A4_U+30E4_U+30FC 1
370
     0
100
AcDbVertex
100
AcDb2dVertex
 10
89.48067082181386
 20
-140.7008002035401
 30
0.0
  0
VERTEX
  5
159
330
155
100
AcDbEntity
  8
_U+30EC_U+30A4_U+30E4_U+30FC 1
370
     0
100
AcDbVertex
100
AcDb2dVertex
 10
90.1872599058386
 20
-140.7008002035401
 30
0.0
  0
VERTEX
  5
15A
330
155
100
AcDbEntity
  8
_U+30EC_U+30A4_U+30E4_U+30FC 1
370
     0
100
AcDbVertex
100
AcDb2dVertex
 10
90.1872599058386
 20
-140.5867675429783
 30
0.0
  0
SEQEND
  5
15B
330
155
100
AcDbEntity
  8
_U+30EC_U+30A4_U+30E4_U+30FC 1
370
     0
  0
POLYLINE
  5
15C
330
145
100
AcDbEntity
  8
_U+30EC_U+30A4_U+30E4_U+30FC 1
370
     0
100
AcDb2dPolyline
 66
     1
 10
0.0
 20
0.0
 30
0.0
  0
VERTEX
  5
15D
330
15C
100
AcDbEntity
  8
_U+30EC_U+30A4_U+30E4_U+30FC 1
370
     0
100
AcDbVertex
100
AcDb2dVertex
 10
90.1872599058386
 20
-140.8299912842369
 30
0.0
  0
VERTEX
  5
15E
330
15C
100
AcDbEntity
  8
_U+30EC_U+30A4_U+30E4_U+30FC 1
370
     0
100
AcDbVertex
100
AcDb2dVertex
 10
89.48067082181386
 20
-140.8299912842369
 30
0.0
  0
VERTEX
  5
15F
330
15C
100
AcDbEntity
  8
_U+30EC_U+30A4_U+30E4_U+30FC 1
370
     0
100
AcDbVertex
100
AcDb2dVertex
 10
89.48067082181386
 20
-140.9440239447987
 30
0.0
  0
VERTEX
  5
160
330
15C
100
AcDbEntity
  8
_U+30EC_U+30A4_U+30E4_U+30FC 1
370
     0
100
AcDbVertex
100
AcDb2dVertex
 10
90.1872599058386
 20
-140.9440239447987
 30
0.0
  0
VERTEX
  5
161
330
15C
100
AcDbEntity
  8
_U+30EC_U+30A4_U+30E4_U+30FC 1
370
     0
100
AcDbVertex
100
AcDb2dVertex
 10
90.1872599058386
 20
-140.8299912842369
 30
0.0
  0
SEQEND
  5
162
330
15C
100
AcDbEntity
  8
_U+30EC_U+30A4_U+30E4_U+30FC 1
370
     0
  0
HATCH
  5
163
330
145
100
AcDbEntity
  8
_U+30EC_U+30A4_U+30E4_U+30FC 1
 62
   179
420
  2234388
100
AcDbHatch
 10
0.0
 20
0.0
 30
0.0
210
0.0
220
0.0
230
1.0
  2
SOLID
 70
     1
 71
     0
 91
        4
 92
        1
 93
        1
 72
     4
 94
        3
 73
     0
 74
     1
 95
      203
 96
      199
 40
0.0
 40
0.0
 40
0.0
 40
0.0
 40
1.0
 40
1.0
 40
1.0
 40
2.0
 40
2.0
 40
2.0
 40
3.0
 40
3.0
 40
3.0
 40
4.0
 40
4.0
 40
4.0
 40
5.0
 40
5.0
 40
5.0
 40
6.0
 40
6.0
 40
6.0
 40
7.0
 40
7.0
 40
7.0
 40
8.0
 40
8.0
 40
8.0
 40
9.0
 40
9.0
 40
9.0
 40
10.0
 40
10.0
 40
10.0
 40
11.0
 40
11.0
 40
11.0
 40
12.0
 40
12.0
 40
12.0
 40
13.0
 40
13.0
 40
13.0
 40
14.0
 40
14.0
 40
14.0
 40
15.0
 40
15.0
 40
15.0
 40
16.0
 40
16.0
 40
16.0
 40
17.0
 40
17.0
 40
17.0
 40
18.0
 40
18.0
 40
18.0
 40
19.0
 40
19.0
 40
19.0
 40
20.0
 40
20.0
 40
20.0
 40
21.0
 40
21.0
 40
21.0
 40
22.0
 40
22.0
 40
22.0
 40
23.0
 40
23.0
 40
23.0
 40
24.0
 40
24.0
 40
24.0
 40
25.0
 40
25.0
 40
25.0
 40
26.0
 40
26.0
 40
26.0
 40
27.0
 40
27.0
 40
27.0
 40
28.0
 40
28.0
 40
28.0
 40
29.0
 40
29.0
 40
29.0
 40
30.0
 40
30.0
 40
30.0
 40
31.0
 40
31.0
 40
31.0
 40
32.0
 40
32.0
 40
32.0
 40
33.0
 40
33.0
 40
33.0
 40
34.0
 40
34.0
 40
34.0
 40
35.0
 40
35.0
 40
35.0
 40
36.0
 40
36.0
 40
36.0
 40
37.0
 40
37.0
 40
37.0
 40
38.0
 40
38.0
 40
38.0
 40
39.0
 40
39.0
 40
39.0
 40
40.0
 40
40.0
 40
40.0
 40
41.0
 40
41.0
 40
41.0
 40
42.0
 40
42.0
 40
42.0
 40
43.0
 40
43.0
 40
43.0
 40
44.0
 40
44.0
 40
44.0
 40
45.0
 40
45.0
 40
45.0
 40
46.0
 40
46.0
 40
46.0
 40
47.0
 40
47.0
 40
47.0
 40
48.0
 40
48.0
 40
48.0
 40
49.0
 40
49.0
 40
49.0
 40
50.0
 40
50.0
 40
50.0
 40
51.0
 40
51.0
 40
51.0
 40
52.0
 40
52.0
 40
52.0
 40
53.0
 40
53.0
 40
53.0
 40
54.0
 40
54.0
 40
54.0
 40
55.0
 40
55.0
 40
55.0
 40
56.0
 40
56.0
 40
56.0
 40
57.0
 40
57.0
 40
57.0
 40
58.0
 40
58.0
 40
58.0
 40
59.0
 40
59.0
 40
59.0
 40
60.0
 40
60.0
 40
60.0
 40
61.0
 40
61.0
 40
61.0
 40
62.0
 40
62.0
 40
62.0
 40
63.0
 40
63.0
 40
63.0
 40
64.0
 40
64.0
 40
64.0
 40
65.0
 40
65.0
 40
65.0
 40
66.0
 40
66.0
 40
66.0
 40
66.0
 10
90.02223983209514
 20
-140.0979084936214
 10
90.02223983209514
 20
-140.0979084936214
 10
89.46378985393613
 20
-140.0979084936214
 10
89.46378985393613
 20
-140.0979084936214
 10
89.45311005793187
 20
-140.1423502253811
 10
89.444669573993
 20
-140.1740451038454
 10
89.43209497547184
 20
-140.2122856637316
 10
89.45741642728842
 20
-140.2122856637316
 10
89.472230337875
 20
-140.2143527210228
 10
89.47860376452272
 20
-140.2143527210228
 10
89.47860376452272
 20
-140.2143527210228
 10
89.66687823279162
 20
-140.2143527210228
 10
89.66687823279162
 20
-140.2143527210228
 10
89.66687823279162
 20
-140.2143527210228
 10
90.04136011203828
 20
-140.2143527210228
 10
90.04136011203828
 20
-140.2143527210228
 10
90.09200301567145
 20
-140.2143527210228
 10
90.3755343741075
 20
-140.2016058677274
 10
90.40722925257181
 20
-140.2016058677274
 10
90.40516219528065
 20
-140.2291666316094
 10
90.40309513798951
 20
-140.2481146567783
 10
90.40309513798951
 20
-140.2777424779514
 10
90.4008558259241
 20
-140.3094373564157
 10
90.4008558259241
 20
-140.444829608986
 10
90.4008558259241
 20
-140.472390372868
 10
90.4008558259241
 20
-140.472390372868
 10
90.4008558259241
 20
-140.7176811714178
 10
90.4008558259241
 20
-140.7176811714178
 10
90.4008558259241
 20
-140.7621229031775
 10
90.40516219528065
 20
-140.9588378553853
 10
90.40946856463722
 20
-141.1114555853819
 10
90.40946856463722
 20
-141.1114555853819
 10
90.18295353648205
 20
-141.1114555853819
 10
90.18295353648205
 20
-141.1114555853819
 10
90.18295353648205
 20
-141.1114555853819
 10
90.18519284854746
 20
-141.0773491400779
 10
90.18519284854746
 20
-141.0773491400779
 10
90.18519284854746
 20
-141.0773491400779
 10
89.48273787910502
 20
-141.0773491400779
 10
89.48273787910502
 20
-141.0773491400779
 10
89.48273787910502
 20
-141.0773491400779
 10
89.48497719117043
 20
-141.1114555853819
 10
89.48497719117043
 20
-141.1114555853819
 10
89.48497719117043
 20
-141.1114555853819
 10
89.26707490172838
 20
-141.1114555853819
 10
89.26707490172838
 20
-141.1114555853819
 10
89.27120901631068
 20
-141.0563340576179
 10
89.27120901631068
 20
-141.0435872043224
 10
89.27758244295839
 20
-140.9292100342122
 10
89.27964950024953
 20
-140.9019937798787
 10
89.28188881231495
 20
-140.7686685845995
 10
89.28188881231495
 20
-140.7493760498821
 10
89.28188881231495
 20
-140.7493760498821
 10
89.28188881231495
 20
-140.5464599258009
 10
89.28188881231495
 20
-140.5464599258009
 10
89.14219019038806
 20
-140.7962293484815
 10
88.9730360020623
 20
-140.927142976921
 10
88.86727157066512
 20
-140.9929443006893
 10
88.86727157066512
 20
-140.9929443006893
 10
88.69363875820854
 20
-140.8530734239881
 10
88.69363875820854
 20
-140.8530734239881
 10
88.78252222172799
 20
-140.802430520355
 10
88.92635495823717
 20
-140.7156141141267
 10
89.0639865228729
 20
-140.52096621921
 10
89.15493704368349
 20
-140.3941867053528
 10
89.22039385790323
 20
-140.2501817140694
 10
89.25432804843295
 20
-140.0979084936214
 10
89.02591821776089
 20
-140.0999755509125
 10
88.84608423343084
 20
-140.1065212323345
 10
88.75082734326368
 20
-140.1085882896256
 10
88.75082734326368
 20
-140.1085882896256
 10
88.75082734326368
 20
-139.9308213625868
 10
88.75082734326368
 20
-139.9308213625868
 10
88.94754229547145
 20
-139.9370225344602
 10
89.23107365390752
 20
-139.941501158591
 10
89.38127981706441
 20
-139.941501158591
 10
89.38127981706441
 20
-139.941501158591
 10
89.59487573714989
 20
-139.941501158591
 10
89.59487573714989
 20
-139.941501158591
 10
89.59487573714989
 20
-139.941501158591
 10
89.59487573714989
 20
-139.8336696699027
 10
89.59487573714989
 20
-139.8336696699027
 10
89.59487573714989
 20
-139.8336696699027
 10
89.44897594334957
 20
-139.8336696699027
 10
89.44897594334957
 20
-139.8336696699027
 10
89.27964950024953
 20
-139.8336696699027
 10
89.11049531192377
 20
-139.837803784485
 10
88.94340818088915
 20
-139.8440049563584
 10
88.94340818088915
 20
-139.8440049563584
 10
88.94340818088915
 20
-139.6727837107415
 10
88.94340818088915
 20
-139.6727837107415
 10
89.09774845862835
 20
-139.6834635067458
 10
89.2839558696061
 20
-139.6834635067458
 10
89.44897594334957
 20
-139.6834635067458
 10
89.44897594334957
 20
-139.6834635067458
 10
89.59487573714989
 20
-139.6834635067458
 10
89.59487573714989
 20
-139.6834635067458
 10
89.59487573714989
 20
-139.6834635067458
 10
89.59487573714989
 20
-139.5649522220532
 10
89.59487573714989
 20
-139.5649522220532
 10
89.59487573714989
 20
-139.5649522220532
 10
89.46378985393613
 20
-139.5649522220532
 10
89.46378985393613
 20
-139.5649522220532
 10
89.41728106488527
 20
-139.5649522220532
 10
89.21419268602979
 20
-139.5732204512178
 10
89.17181801156121
 20
-139.5732204512178
 10
88.96872963270575
 20
-139.5776990753486
 10
88.89259302248172
 20
-139.5797661326398
 10
88.81421710019228
 20
-139.5818331899309
 10
88.81421710019228
 20
-139.5818331899309
 10
88.81421710019228
 20
-139.3978650910186
 10
88.81421710019228
 20
-139.3978650910186
 10
88.92859427030258
 20
-139.4061333201832
 10
88.9730360020623
 20
-139.4061333201832
 10
89.35578611047356
 20
-139.4147460588963
 10
89.29239635354496
 20
-139.3193169139549
 10
89.26483558966297
 20
-139.2921006596214
 10
89.22900659661636
 20
-139.2559271570263
 10
89.22900659661636
 20
-139.2559271570263
 10
89.40453421158985
 20
-139.1735893749288
 10
89.40453421158985
 20
-139.1735893749288
 10
89.444669573993
 20
-139.2094183679754
 10
89.48911130575273
 20
-139.251793042444
 10
89.5631808586856
 20
-139.3616915884235
 10
89.5631808586856
 20
-139.3616915884235
 10
89.44897594334957
 20
-139.4168131161875
 10
89.44897594334957
 20
-139.4168131161875
 10
89.44897594334957
 20
-139.4168131161875
 10
89.45948348457958
 20
-139.4168131161875
 10
89.45948348457958
 20
-139.4168131161875
 10
89.45948348457958
 20
-139.4168131161875
 10
89.98210446969198
 20
-139.4168131161875
 10
89.98210446969198
 20
-139.4168131161875
 10
89.98210446969198
 20
-139.4168131161875
 10
89.88684757952483
 20
-139.3723713844277
 10
89.88684757952483
 20
-139.3723713844277
 10
89.91440834340682
 20
-139.3341308245415
 10
89.97142467368771
 20
-139.2538600997352
 10
89.98623858427428
 20
-139.1797905468023
 10
89.98623858427428
 20
-139.1797905468023
 10
90.20000675913403
 20
-139.2431803037309
 10
90.20000675913403
 20
-139.2431803037309
 10
90.2084472430729
 20
-139.2455918705706
 10
90.22963458030718
 20
-139.2559271570263
 10
90.22963458030718
 20
-139.2772867490349
 10
90.22963458030718
 20
-139.3151827993726
 10
90.16400551131316
 20
-139.3151827993726
 10
90.14488523137003
 20
-139.3151827993726
 10
90.13437769014003
 20
-139.3341308245415
 10
90.11112329561459
 20
-139.3744384417189
 10
90.08149547444144
 20
-139.4147460588963
 10
90.48129880550468
 20
-139.4082003774743
 10
90.51092662667783
 20
-139.4061333201832
 10
90.58706323690186
 20
-139.3999321483097
 10
90.58706323690186
 20
-139.3999321483097
 10
90.58706323690186
 20
-139.5818331899309
 10
90.58706323690186
 20
-139.5818331899309
 10
90.56811521173297
 20
-139.5818331899309
 10
90.54262150514212
 20
-139.5797661326398
 10
90.32265215840893
 20
-139.5711533939267
 10
90.27183700000148
 20
-139.5690863366355
 10
90.05186765326829
 20
-139.5649522220532
 10
90.00742592150857
 20
-139.5649522220532
 10
90.00742592150857
 20
-139.5649522220532
 10
89.79159068935766
 20
-139.5649522220532
 10
89.79159068935766
 20
-139.5649522220532
 10
89.79159068935766
 20
-139.5649522220532
 10
89.79159068935766
 20
-139.6834635067458
 10
89.79159068935766
 20
-139.6834635067458
 10
89.79159068935766
 20
-139.6834635067458
 10
89.96522350181425
 20
-139.6834635067458
 10
89.96522350181425
 20
-139.6834635067458
 10
90.12800426349231
 20
-139.6834635067458
 10
90.31834578905236
 20
-139.6834635067458
 10
90.47492537885697
 20
-139.6727837107415
 10
90.47492537885697
 20
-139.6727837107415
 10
90.47492537885697
 20
-139.8440049563584
 10
90.47492537885697
 20
-139.8440049563584
 10
90.26546357335377
 20
-139.8357367271938
 10
90.06874862114601
 20
-139.8336696699027
 10
89.96522350181425
 20
-139.8336696699027
 10
89.96522350181425
 20
-139.8336696699027
 10
89.79159068935766
 20
-139.8336696699027
 10
89.79159068935766
 20
-139.8336696699027
 10
89.79159068935766
 20
-139.8336696699027
 10
89.79159068935766
 20
-139.941501158591
 10
89.79159068935766
 20
-139.941501158591
 10
89.79159068935766
 20
-139.941501158591
 10
90.02223983209514
 20
-139.941501158591
 10
90.02223983209514
 20
-139.941501158591
 10
90.15556502737431
 20
-139.941501158591
 10
90.44323050039267
 20
-139.9370225344602
 10
90.65269230589585
 20
-139.9308213625868
 10
90.65269230589585
 20
-139.9308213625868
 10
90.65269230589585
 20
-140.1085882896256
 10
90.65269230589585
 20
-140.1085882896256
 10
90.4601114682704
 20
-140.1020426082037
 10
90.14712454343544
 20
-140.0979084936214
 10
90.02223983209514
 20
-140.0979084936214
 97
        0
 97
        0
 92
        1
 93
        4
 72
     1
 10
90.1872599058386
 20
-140.3538790881754
 11
89.48067082181386
 21
-140.3538790881754
 72
     1
 10
89.48067082181386
 20
-140.3538790881754
 11
89.48067082181386
 21
-140.4617105768637
 72
     1
 10
89.48067082181386
 20
-140.4617105768637
 11
90.1872599058386
 21
-140.4617105768637
 72
     1
 10
90.1872599058386
 20
-140.4617105768637
 11
90.1872599058386
 21
-140.3538790881754
 97
        0
 92
        1
 93
        4
 72
     1
 10
90.1872599058386
 20
-140.5867675429783
 11
89.48067082181386
 21
-140.5867675429783
 72
     1
 10
89.48067082181386
 20
-140.5867675429783
 11
89.48067082181386
 21
-140.7008002035401
 72
     1
 10
89.48067082181386
 20
-140.7008002035401
 11
90.1872599058386
 21
-140.7008002035401
 72
     1
 10
90.1872599058386
 20
-140.7008002035401
 11
90.1872599058386
 21
-140.5867675429783
 97
        0
 92
        1
 93
        4
 72
     1
 10
90.1872599058386
 20
-140.8299912842369
 11
89.48067082181386
 21
-140.8299912842369
 72
     1
 10
89.48067082181386
 20
-140.8299912842369
 11
89.48067082181386
 21
-140.9440239447987
 72
     1
 10
89.48067082181386
 20
-140.9440239447987
 11
90.1872599058386
 21
-140.9440239447987
 72
     1
 10
90.1872599058386
 20
-140.9440239447987
 11
90.1872599058386
 21
-140.8299912842369
 97
        0
 75
     2
 76
     1
 98
        0
  0
SPLINE
  5
164
330
145
100
AcDbEntity
  8
_U+30EC_U+30A4_U+30E4_U+30FC 1
370
     0
100
AcDbSpline
210
0.0
220
0.0
230
1.0
 70
    11
 71
     3
 72
    47
 73
    43
 74
     0
 42
0.0000000001
 43
0.0000000001
 12
1.0
 22
0.0
 32
0.0
 13
1.0
 23
0.0
 33
0.0
 40
0.0
 40
0.0
 40
0.0
 40
0.0
 40
1.0
 40
1.0
 40
1.0
 40
2.0
 40
2.0
 40
2.0
 40
3.0
 40
3.0
 40
3.0
 40
4.0
 40
4.0
 40
4.0
 40
5.0
 40
5.0
 40
5.0
 40
6.0
 40
6.0
 40
6.0
 40
7.0
 40
7.0
 40
7.0
 40
8.0
 40
8.0
 40
8.0
 40
9.0
 40
9.0
 40
9.0
 40
10.0
 40
10.0
 40
10.0
 40
11.0
 40
11.0
 40
11.0
 40
12.0
 40
12.0
 40
12.0
 40
13.0
 40
13.0
 40
13.0
 40
14.0
 40
14.0
 40
14.0
 40
14.0
 10
91.99920787630576
 20
-140.0748263538702
 30
0.0
 10
91.99920787630576
 20
-140.0748263538702
 30
0.0
 10
91.89757755949088
 20
-140.0748263538702
 30
0.0
 10
91.89757755949088
 20
-140.0748263538702
 30
0.0
 10
91.89757755949088
 20
-140.1612982505499
 30
0.0
 10
91.87656247703086
 20
-140.5505940403832
 30
0.0
 10
91.6798475248231
 20
-140.7707356418907
 30
0.0
 10
91.52757430437505
 20
-140.9398898302164
 30
0.0
 10
91.32017955616301
 20
-141.009825268567
 30
0.0
 10
91.23560246200013
 20
-141.037386032449
 30
0.0
 10
91.23560246200013
 20
-141.037386032449
 30
0.0
 10
91.04095456708352
 20
-140.8702989014144
 30
0.0
 10
91.04095456708352
 20
-140.8702989014144
 30
0.0
 10
91.13827851454182
 20
-140.8575520481189
 30
0.0
 10
91.3138061295153
 20
-140.8341253988193
 30
0.0
 10
91.5020805977842
 20
-140.6460231853246
 30
0.0
 10
91.57615015071708
 20
-140.5740206896829
 30
0.0
 10
91.6798475248231
 20
-140.4344943225303
 30
0.0
 10
91.6798475248231
 20
-140.0748263538702
 30
0.0
 10
91.6798475248231
 20
-140.0748263538702
 30
0.0
 10
91.44937063685988
 20
-140.0748263538702
 30
0.0
 10
91.44937063685988
 20
-140.0748263538702
 30
0.0
 10
91.26299097110787
 20
-140.0748263538702
 30
0.0
 10
91.07695581490438
 20
-140.0789604684525
 30
0.0
 10
90.89074840392662
 20
-140.0937743790391
 30
0.0
 10
90.89074840392662
 20
-140.0937743790391
 30
0.0
 10
90.89074840392662
 20
-139.8736327775316
 30
0.0
 10
90.89074840392662
 20
-139.8736327775316
 30
0.0
 10
91.07902287219552
 20
-139.8884466881182
 30
0.0
 10
91.36462128792274
 20
-139.892925312249
 30
0.0
 10
91.44937063685988
 20
-139.892925312249
 30
0.0
 10
91.44937063685988
 20
-139.892925312249
 30
0.0
 10
91.99920787630576
 20
-139.892925312249
 30
0.0
 10
91.99920787630576
 20
-139.892925312249
 30
0.0
 10
92.01815590147463
 20
-139.892925312249
 30
0.0
 10
92.33579370521467
 20
-139.892925312249
 30
0.0
 10
92.56420353588673
 20
-139.8736327775316
 30
0.0
 10
92.56420353588673
 20
-139.8736327775316
 30
0.0
 10
92.56420353588673
 20
-140.0937743790391
 30
0.0
 10
92.56420353588673
 20
-140.0937743790391
 30
0.0
 10
92.37575681284356
 20
-140.0789604684525
 30
0.0
 10
92.18765459934892
 20
-140.0748263538702
 30
0.0
 10
91.99920787630576
 20
-140.0748263538702
 30
0.0
  0
SPLINE
  5
165
330
145
100
AcDbEntity
  8
_U+30EC_U+30A4_U+30E4_U+30FC 1
370
     0
100
AcDbSpline
210
0.0
220
0.0
230
1.0
 70
    11
 71
     3
 72
    29
 73
    25
 74
     0
 42
0.0000000001
 43
0.0000000001
 12
1.0
 22
0.0
 32
0.0
 13
1.0
 23
0.0
 33
0.0
 40
0.0
 40
0.0
 40
0.0
 40
0.0
 40
1.0
 40
1.0
 40
1.0
 40
2.0
 40
2.0
 40
2.0
 40
3.0
 40
3.0
 40
3.0
 40
4.0
 40
4.0
 40
4.0
 40
5.0
 40
5.0
 40
5.0
 40
6.0
 40
6.0
 40
6.0
 40
7.0
 40
7.0
 40
7.0
 40
8.0
 40
8.0
 40
8.0
 40
8.0
 10
91.89757755949088
 20
-139.5456596873358
 30
0.0
 10
91.89757755949088
 20
-139.5456596873358
 30
0.0
 10
91.54445527225278
 20
-139.5456596873358
 30
0.0
 10
91.54445527225278
 20
-139.5456596873358
 30
0.0
 10
91.43214515943363
 20
-139.5456596873358
 30
0.0
 10
91.29261879228102
 20
-139.5522053687578
 30
0.0
 10
91.1847873035927
 20
-139.5649522220532
 30
0.0
 10
91.1847873035927
 20
-139.5649522220532
 30
0.0
 10
91.1847873035927
 20
-139.3299967099592
 30
0.0
 10
91.1847873035927
 20
-139.3299967099592
 30
0.0
 10
91.30329858828529
 20
-139.3448106205458
 30
0.0
 10
91.48726668719763
 20
-139.348944735128
 30
0.0
 10
91.54445527225278
 20
-139.348944735128
 30
0.0
 10
91.54445527225278
 20
-139.348944735128
 30
0.0
 10
91.89757755949088
 20
-139.348944735128
 30
0.0
 10
91.89757755949088
 20
-139.348944735128
 30
0.0
 10
91.91687009420829
 20
-139.348944735128
 30
0.0
 10
92.1197862182895
 20
-139.348944735128
 30
0.0
 10
92.2617241522818
 20
-139.3299967099592
 30
0.0
 10
92.2617241522818
 20
-139.3299967099592
 30
0.0
 10
92.2617241522818
 20
-139.5649522220532
 30
0.0
 10
92.2617241522818
 20
-139.5649522220532
 30
0.0
 10
92.10497230770292
 20
-139.5456596873358
 30
0.0
 10
91.91480303691714
 20
-139.5456596873358
 30
0.0
 10
91.89757755949088
 20
-139.5456596873358
 30
0.0
  0
HATCH
  5
166
330
145
100
AcDbEntity
  8
_U+30EC_U+30A4_U+30E4_U+30FC 1
 62
   179
420
  2234388
100
AcDbHatch
 10
0.0
 20
0.0
 30
0.0
210
0.0
220
0.0
230
1.0
  2
SOLID
 70
     1
 71
     0
 91
        2
 92
        1
 93
        1
 72
     4
 94
        3
 73
     0
 74
     1
 95
       47
 96
       43
 40
0.0
 40
0.0
 40
0.0
 40
0.0
 40
1.0
 40
1.0
 40
1.0
 40
2.0
 40
2.0
 40
2.0
 40
3.0
 40
3.0
 40
3.0
 40
4.0
 40
4.0
 40
4.0
 40
5.0
 40
5.0
 40
5.0
 40
6.0
 40
6.0
 40
6.0
 40
7.0
 40
7.0
 40
7.0
 40
8.0
 40
8.0
 40
8.0
 40
9.0
 40
9.0
 40
9.0
 40
10.0
 40
10.0
 40
10.0
 40
11.0
 40
11.0
 40
11.0
 40
12.0
 40
12.0
 40
12.0
 40
13.0
 40
13.0
 40
13.0
 40
14.0
 40
14.0
 40
14.0
 40
14.0
 10
91.99920787630576
 20
-140.0748263538702
 10
91.99920787630576
 20
-140.0748263538702
 10
91.89757755949088
 20
-140.0748263538702
 10
91.89757755949088
 20
-140.0748263538702
 10
91.89757755949088
 20
-140.1612982505499
 10
91.87656247703086
 20
-140.5505940403832
 10
91.6798475248231
 20
-140.7707356418907
 10
91.52757430437505
 20
-140.9398898302164
 10
91.32017955616301
 20
-141.009825268567
 10
91.23560246200013
 20
-141.037386032449
 10
91.23560246200013
 20
-141.037386032449
 10
91.04095456708352
 20
-140.8702989014144
 10
91.04095456708352
 20
-140.8702989014144
 10
91.13827851454182
 20
-140.8575520481189
 10
91.3138061295153
 20
-140.8341253988193
 10
91.5020805977842
 20
-140.6460231853246
 10
91.57615015071708
 20
-140.5740206896829
 10
91.6798475248231
 20
-140.4344943225303
 10
91.6798475248231
 20
-140.0748263538702
 10
91.6798475248231
 20
-140.0748263538702
 10
91.44937063685988
 20
-140.0748263538702
 10
91.44937063685988
 20
-140.0748263538702
 10
91.26299097110787
 20
-140.0748263538702
 10
91.07695581490438
 20
-140.0789604684525
 10
90.89074840392662
 20
-140.0937743790391
 10
90.89074840392662
 20
-140.0937743790391
 10
90.89074840392662
 20
-139.8736327775316
 10
90.89074840392662
 20
-139.8736327775316
 10
91.07902287219552
 20
-139.8884466881182
 10
91.36462128792274
 20
-139.892925312249
 10
91.44937063685988
 20
-139.892925312249
 10
91.44937063685988
 20
-139.892925312249
 10
91.99920787630576
 20
-139.892925312249
 10
91.99920787630576
 20
-139.892925312249
 10
92.01815590147463
 20
-139.892925312249
 10
92.33579370521467
 20
-139.892925312249
 10
92.56420353588673
 20
-139.8736327775316
 10
92.56420353588673
 20
-139.8736327775316
 10
92.56420353588673
 20
-140.0937743790391
 10
92.56420353588673
 20
-140.0937743790391
 10
92.37575681284356
 20
-140.0789604684525
 10
92.18765459934892
 20
-140.0748263538702
 10
91.99920787630576
 20
-140.0748263538702
 97
        0
 97
        0
 92
        1
 93
        1
 72
     4
 94
        3
 73
     0
 74
     1
 95
       29
 96
       25
 40
0.0
 40
0.0
 40
0.0
 40
0.0
 40
1.0
 40
1.0
 40
1.0
 40
2.0
 40
2.0
 40
2.0
 40
3.0
 40
3.0
 40
3.0
 40
4.0
 40
4.0
 40
4.0
 40
5.0
 40
5.0
 40
5.0
 40
6.0
 40
6.0
 40
6.0
 40
7.0
 40
7.0
 40
7.0
 40
8.0
 40
8.0
 40
8.0
 40
8.0
 10
91.89757755949088
 20
-139.5456596873358
 10
91.89757755949088
 20
-139.5456596873358
 10
91.54445527225278
 20
-139.5456596873358
 10
91.54445527225278
 20
-139.5456596873358
 10
91.43214515943363
 20
-139.5456596873358
 10
91.29261879228102
 20
-139.5522053687578
 10
91.1847873035927
 20
-139.5649522220532
 10
91.1847873035927
 20
-139.5649522220532
 10
91.1847873035927
 20
-139.3299967099592
 10
91.1847873035927
 20
-139.3299967099592
 10
91.30329858828529
 20
-139.3448106205458
 10
91.48726668719763
 20
-139.348944735128
 10
91.54445527225278
 20
-139.348944735128
 10
91.54445527225278
 20
-139.348944735128
 10
91.89757755949088
 20
-139.348944735128
 10
91.89757755949088
 20
-139.348944735128
 10
91.91687009420829
 20
-139.348944735128
 10
92.1197862182895
 20
-139.348944735128
 10
92.2617241522818
 20
-139.3299967099592
 10
92.2617241522818
 20
-139.3299967099592
 10
92.2617241522818
 20
-139.5649522220532
 10
92.2617241522818
 20
-139.5649522220532
 10
92.10497230770292
 20
-139.5456596873358
 10
91.91480303691714
 20
-139.5456596873358
 10
91.89757755949088
 20
-139.5456596873358
 97
        0
 97
        0
 75
     2
 76
     1
 98
        0
  0
SPLINE
  5
167
330
145
100
AcDbEntity
  8
_U+30EC_U+30A4_U+30E4_U+30FC 1
370
     0
100
AcDbSpline
210
0.0
220
0.0
230
1.0
 70
    11
 71
     3
 72
    29
 73
    25
 74
     0
 42
0.0000000001
 43
0.0000000001
 12
1.0
 22
0.0
 32
0.0
 13
1.0
 23
0.0
 33
0.0
 40
0.0
 40
0.0
 40
0.0
 40
0.0
 40
1.0
 40
1.0
 40
1.0
 40
2.0
 40
2.0
 40
2.0
 40
3.0
 40
3.0
 40
3.0
 40
4.0
 40
4.0
 40
4.0
 40
5.0
 40
5.0
 40
5.0
 40
6.0
 40
6.0
 40
6.0
 40
7.0
 40
7.0
 40
7.0
 40
8.0
 40
8.0
 40
8.0
 40
8.0
 10
93.84509003730263
 20
-140.237434860774
 30
0.0
 10
93.84509003730263
 20
-140.237434860774
 30
0.0
 10
93.36070961207649
 20
-140.237434860774
 30
0.0
 10
93.36070961207649
 20
-140.237434860774
 30
0.0
 10
93.3331488481945
 20
-140.237434860774
 30
0.0
 10
93.01585555400298
 20
-140.237434860774
 30
0.0
 10
92.80432669120864
 20
-140.2629285673648
 30
0.0
 10
92.80432669120864
 20
-140.2629285673648
 30
0.0
 10
92.80432669120864
 20
-140.0324516794016
 30
0.0
 10
92.80432669120864
 20
-140.0324516794016
 30
0.0
 10
92.96280108353014
 20
-140.0555338191528
 30
0.0
 10
93.15331486386445
 20
-140.0579453859925
 30
0.0
 10
93.36070961207649
 20
-140.0579453859925
 30
0.0
 10
93.36070961207649
 20
-140.0579453859925
 30
0.0
 10
93.84509003730263
 20
-140.0579453859925
 30
0.0
 10
93.84509003730263
 20
-140.0579453859925
 30
0.0
 10
94.03112519350611
 20
-140.0579453859925
 30
0.0
 10
94.21750485925813
 20
-140.0555338191528
 30
0.0
 10
94.40147295817047
 20
-140.0324516794016
 30
0.0
 10
94.40147295817047
 20
-140.0324516794016
 30
0.0
 10
94.40147295817047
 20
-140.2629285673648
 30
0.0
 10
94.40147295817047
 20
-140.2629285673648
 30
0.0
 10
94.21750485925813
 20
-140.2398464276137
 30
0.0
 10
93.96980249386867
 20
-140.237434860774
 30
0.0
 10
93.84509003730263
 20
-140.237434860774
 30
0.0
  0
HATCH
  5
168
330
145
100
AcDbEntity
  8
_U+30EC_U+30A4_U+30E4_U+30FC 1
 62
   179
420
  2234388
100
AcDbHatch
 10
0.0
 20
0.0
 30
0.0
210
0.0
220
0.0
230
1.0
  2
SOLID
 70
     1
 71
     0
 91
        1
 92
        1
 93
        1
 72
     4
 94
        3
 73
     0
 74
     1
 95
       29
 96
       25
 40
0.0
 40
0.0
 40
0.0
 40
0.0
 40
1.0
 40
1.0
 40
1.0
 40
2.0
 40
2.0
 40
2.0
 40
3.0
 40
3.0
 40
3.0
 40
4.0
 40
4.0
 40
4.0
 40
5.0
 40
5.0
 40
5.0
 40
6.0
 40
6.0
 40
6.0
 40
7.0
 40
7.0
 40
7.0
 40
8.0
 40
8.0
 40
8.0
 40
8.0
 10
93.84509003730263
 20
-140.237434860774
 10
93.84509003730263
 20
-140.237434860774
 10
93.36070961207649
 20
-140.237434860774
 10
93.36070961207649
 20
-140.237434860774
 10
93.3331488481945
 20
-140.237434860774
 10
93.01585555400298
 20
-140.237434860774
 10
92.80432669120864
 20
-140.2629285673648
 10
92.80432669120864
 20
-140.2629285673648
 10
92.80432669120864
 20
-140.0324516794016
 10
92.80432669120864
 20
-140.0324516794016
 10
92.96280108353014
 20
-140.0555338191528
 10
93.15331486386445
 20
-140.0579453859925
 10
93.36070961207649
 20
-140.0579453859925
 10
93.36070961207649
 20
-140.0579453859925
 10
93.84509003730263
 20
-140.0579453859925
 10
93.84509003730263
 20
-140.0579453859925
 10
94.03112519350611
 20
-140.0579453859925
 10
94.21750485925813
 20
-140.0555338191528
 10
94.40147295817047
 20
-140.0324516794016
 10
94.40147295817047
 20
-140.0324516794016
 10
94.40147295817047
 20
-140.2629285673648
 10
94.40147295817047
 20
-140.2629285673648
 10
94.21750485925813
 20
-140.2398464276137
 10
93.96980249386867
 20
-140.237434860774
 10
93.84509003730263
 20
-140.237434860774
 97
        0
 97
        0
 75
     2
 76
     1
 98
        0
  0
SPLINE
  5
169
330
145
100
AcDbEntity
  8
_U+30EC_U+30A4_U+30E4_U+30FC 1
370
     0
100
AcDbSpline
210
0.0
220
0.0
230
1.0
 70
    11
 71
     3
 72
    44
 73
    40
 74
     0
 42
0.0000000001
 43
0.0000000001
 12
1.0
 22
0.0
 32
0.0
 13
1.0
 23
0.0
 33
0.0
 40
0.0
 40
0.0
 40
0.0
 40
0.0
 40
1.0
 40
1.0
 40
1.0
 40
2.0
 40
2.0
 40
2.0
 40
3.0
 40
3.0
 40
3.0
 40
4.0
 40
4.0
 40
4.0
 40
5.0
 40
5.0
 40
5.0
 40
6.0
 40
6.0
 40
6.0
 40
7.0
 40
7.0
 40
7.0
 40
8.0
 40
8.0
 40
8.0
 40
9.0
 40
9.0
 40
9.0
 40
10.0
 40
10.0
 40
10.0
 40
11.0
 40
11.0
 40
11.0
 40
12.0
 40
12.0
 40
12.0
 40
13.0
 40
13.0
 40
13.0
 40
13.0
 10
96.05684133883301
 20
-139.7995632245987
 30
0.0
 10
95.94453122601386
 20
-140.1678439319719
 30
0.0
 10
95.8938883223807
 20
-140.3263183242934
 30
0.0
 10
95.69717337017293
 20
-140.5760877469741
 30
0.0
 10
95.51320527126059
 20
-140.8065646349372
 30
0.0
 10
95.2761827018754
 20
-140.9929443006893
 30
0.0
 10
94.99678545802165
 20
-141.085961878791
 30
0.0
 10
94.99678545802165
 20
-141.085961878791
 30
0.0
 10
94.8045491299447
 20
-140.906127894461
 30
0.0
 10
94.8045491299447
 20
-140.906127894461
 30
0.0
 10
95.44533689020118
 20
-140.7538546740129
 30
0.0
 10
95.7753770376881
 20
-140.1974717531451
 30
0.0
 10
95.8387667946167
 20
-139.7575330596787
 30
0.0
 10
95.8387667946167
 20
-139.7575330596787
 30
0.0
 10
95.07292206824566
 20
-139.7575330596787
 30
0.0
 10
95.07292206824566
 20
-139.7575330596787
 30
0.0
 10
94.97990449014392
 20
-139.7575330596787
 30
0.0
 10
94.79593639123158
 20
-139.761667174261
 30
0.0
 10
94.63952905620123
 20
-139.7806151994299
 30
0.0
 10
94.63952905620123
 20
-139.7806151994299
 30
0.0
 10
94.63952905620123
 20
-139.5604735979224
 30
0.0
 10
94.63952905620123
 20
-139.5604735979224
 30
0.0
 10
94.72600095288101
 20
-139.5818331899309
 30
0.0
 10
94.97783743285277
 20
-139.5818331899309
 30
0.0
 10
95.07740069237649
 20
-139.5818331899309
 30
0.0
 10
95.07740069237649
 20
-139.5818331899309
 30
0.0
 10
95.50872664712976
 20
-139.5818331899309
 30
0.0
 10
95.50872664712976
 20
-139.5818331899309
 30
0.0
 10
95.55110132159834
 20
-139.5818331899309
 30
0.0
 10
95.78605683369238
 20
-139.5797661326398
 30
0.0
 10
95.82395288403012
 20
-139.5732204512178
 30
0.0
 10
95.8663275584987
 20
-139.5670192793444
 30
0.0
 10
95.86839461578985
 20
-139.5649522220532
 30
0.0
 10
95.9297173154273
 20
-139.5246446048758
 30
0.0
 10
95.9297173154273
 20
-139.5246446048758
 30
0.0
 10
96.11816403847047
 20
-139.678984882615
 30
0.0
 10
96.11816403847047
 20
-139.678984882615
 30
0.0
 10
96.08853621729732
 20
-139.7086127037881
 30
0.0
 10
96.07372230671074
 20
-139.7403075822524
 30
0.0
 10
96.05684133883301
 20
-139.7995632245987
 30
0.0
  0
SPLINE
  5
16A
330
145
100
AcDbEntity
  8
_U+30EC_U+30A4_U+30E4_U+30FC 1
370
     0
100
AcDbSpline
210
0.0
220
0.0
230
1.0
 70
    11
 71
     3
 72
    17
 73
    13
 74
     0
 42
0.0000000001
 43
0.0000000001
 12
1.0
 22
0.0
 32
0.0
 13
1.0
 23
0.0
 33
0.0
 40
0.0
 40
0.0
 40
0.0
 40
0.0
 40
1.0
 40
1.0
 40
1.0
 40
2.0
 40
2.0
 40
2.0
 40
3.0
 40
3.0
 40
3.0
 40
4.0
 40
4.0
 40
4.0
 40
4.0
 10
96.2663031443362
 20
-139.6007812150998
 30
0.0
 10
96.13917912093049
 20
-139.6007812150998
 30
0.0
 10
96.03789331366414
 20
-139.4991508982849
 30
0.0
 10
96.03789331366414
 20
-139.3723713844277
 30
0.0
 10
96.03789331366414
 20
-139.2455918705706
 30
0.0
 10
96.13917912093049
 20
-139.1418944964645
 30
0.0
 10
96.2663031443362
 20
-139.1418944964645
 30
0.0
 10
96.3930826581934
 20
-139.1418944964645
 30
0.0
 10
96.49678003229943
 20
-139.2455918705706
 30
0.0
 10
96.49678003229943
 20
-139.3723713844277
 30
0.0
 10
96.49678003229943
 20
-139.4991508982849
 30
0.0
 10
96.3930826581934
 20
-139.6007812150998
 30
0.0
 10
96.2663031443362
 20
-139.6007812150998
 30
0.0
  0
SPLINE
  5
16B
330
145
100
AcDbEntity
  8
_U+30EC_U+30A4_U+30E4_U+30FC 1
370
     0
100
AcDbSpline
210
0.0
220
0.0
230
1.0
 70
    11
 71
     3
 72
    17
 73
    13
 74
     0
 42
0.0000000001
 43
0.0000000001
 12
1.0
 22
0.0
 32
0.0
 13
1.0
 23
0.0
 33
0.0
 40
0.0
 40
0.0
 40
0.0
 40
0.0
 40
1.0
 40
1.0
 40
1.0
 40
2.0
 40
2.0
 40
2.0
 40
3.0
 40
3.0
 40
3.0
 40
4.0
 40
4.0
 40
4.0
 40
4.0
 10
96.26423608704506
 20
-139.2707410676129
 30
0.0
 10
96.20911455928106
 20
-139.2707410676129
 30
0.0
 10
96.16467282752133
 20
-139.3151827993726
 30
0.0
 10
96.16467282752133
 20
-139.3703043271366
 30
0.0
 10
96.16467282752133
 20
-139.4274929121918
 30
0.0
 10
96.20911455928106
 20
-139.4760687585338
 30
0.0
 10
96.26837020162736
 20
-139.4760687585338
 30
0.0
 10
96.32762584397365
 20
-139.4760687585338
 30
0.0
 10
96.36758895160256
 20
-139.4250813453521
 30
0.0
 10
96.36758895160256
 20
-139.3723713844277
 30
0.0
 10
96.36758895160256
 20
-139.3151827993726
 30
0.0
 10
96.32108016255168
 20
-139.2707410676129
 30
0.0
 10
96.26423608704506
 20
-139.2707410676129
 30
0.0
  0
HATCH
  5
16C
330
145
100
AcDbEntity
  8
_U+30EC_U+30A4_U+30E4_U+30FC 1
 62
   179
420
  2234388
100
AcDbHatch
 10
0.0
 20
0.0
 30
0.0
210
0.0
220
0.0
230
1.0
  2
SOLID
 70
     1
 71
     0
 91
        3
 92
        1
 93
        1
 72
     4
 94
        3
 73
     0
 74
     1
 95
       44
 96
       40
 40
0.0
 40
0.0
 40
0.0
 40
0.0
 40
1.0
 40
1.0
 40
1.0
 40
2.0
 40
2.0
 40
2.0
 40
3.0
 40
3.0
 40
3.0
 40
4.0
 40
4.0
 40
4.0
 40
5.0
 40
5.0
 40
5.0
 40
6.0
 40
6.0
 40
6.0
 40
7.0
 40
7.0
 40
7.0
 40
8.0
 40
8.0
 40
8.0
 40
9.0
 40
9.0
 40
9.0
 40
10.0
 40
10.0
 40
10.0
 40
11.0
 40
11.0
 40
11.0
 40
12.0
 40
12.0
 40
12.0
 40
13.0
 40
13.0
 40
13.0
 40
13.0
 10
96.05684133883301
 20
-139.7995632245987
 10
95.94453122601386
 20
-140.1678439319719
 10
95.8938883223807
 20
-140.3263183242934
 10
95.69717337017293
 20
-140.5760877469741
 10
95.51320527126059
 20
-140.8065646349372
 10
95.2761827018754
 20
-140.9929443006893
 10
94.99678545802165
 20
-141.085961878791
 10
94.99678545802165
 20
-141.085961878791
 10
94.8045491299447
 20
-140.906127894461
 10
94.8045491299447
 20
-140.906127894461
 10
95.44533689020118
 20
-140.7538546740129
 10
95.7753770376881
 20
-140.1974717531451
 10
95.8387667946167
 20
-139.7575330596787
 10
95.8387667946167
 20
-139.7575330596787
 10
95.07292206824566
 20
-139.7575330596787
 10
95.07292206824566
 20
-139.7575330596787
 10
94.97990449014392
 20
-139.7575330596787
 10
94.79593639123158
 20
-139.761667174261
 10
94.63952905620123
 20
-139.7806151994299
 10
94.63952905620123
 20
-139.7806151994299
 10
94.63952905620123
 20
-139.5604735979224
 10
94.63952905620123
 20
-139.5604735979224
 10
94.72600095288101
 20
-139.5818331899309
 10
94.97783743285277
 20
-139.5818331899309
 10
95.07740069237649
 20
-139.5818331899309
 10
95.07740069237649
 20
-139.5818331899309
 10
95.50872664712976
 20
-139.5818331899309
 10
95.50872664712976
 20
-139.5818331899309
 10
95.55110132159834
 20
-139.5818331899309
 10
95.78605683369238
 20
-139.5797661326398
 10
95.82395288403012
 20
-139.5732204512178
 10
95.8663275584987
 20
-139.5670192793444
 10
95.86839461578985
 20
-139.5649522220532
 10
95.9297173154273
 20
-139.5246446048758
 10
95.9297173154273
 20
-139.5246446048758
 10
96.11816403847047
 20
-139.678984882615
 10
96.11816403847047
 20
-139.678984882615
 10
96.08853621729732
 20
-139.7086127037881
 10
96.07372230671074
 20
-139.7403075822524
 10
96.05684133883301
 20
-139.7995632245987
 97
        0
 97
        0
 92
        1
 93
        1
 72
     4
 94
        3
 73
     0
 74
     1
 95
       17
 96
       13
 40
0.0
 40
0.0
 40
0.0
 40
0.0
 40
1.0
 40
1.0
 40
1.0
 40
2.0
 40
2.0
 40
2.0
 40
3.0
 40
3.0
 40
3.0
 40
4.0
 40
4.0
 40
4.0
 40
4.0
 10
96.2663031443362
 20
-139.6007812150998
 10
96.13917912093049
 20
-139.6007812150998
 10
96.03789331366414
 20
-139.4991508982849
 10
96.03789331366414
 20
-139.3723713844277
 10
96.03789331366414
 20
-139.2455918705706
 10
96.13917912093049
 20
-139.1418944964645
 10
96.2663031443362
 20
-139.1418944964645
 10
96.3930826581934
 20
-139.1418944964645
 10
96.49678003229943
 20
-139.2455918705706
 10
96.49678003229943
 20
-139.3723713844277
 10
96.49678003229943
 20
-139.4991508982849
 10
96.3930826581934
 20
-139.6007812150998
 10
96.2663031443362
 20
-139.6007812150998
 97
        0
 97
        0
 92
        1
 93
        1
 72
     4
 94
        3
 73
     0
 74
     1
 95
       17
 96
       13
 40
0.0
 40
0.0
 40
0.0
 40
0.0
 40
1.0
 40
1.0
 40
1.0
 40
2.0
 40
2.0
 40
2.0
 40
3.0
 40
3.0
 40
3.0
 40
4.0
 40
4.0
 40
4.0
 40
4.0
 10
96.26423608704506
 20
-139.2707410676129
 10
96.20911455928106
 20
-139.2707410676129
 10
96.16467282752133
 20
-139.3151827993726
 10
96.16467282752133
 20
-139.3703043271366
 10
96.16467282752133
 20
-139.4274929121918
 10
96.20911455928106
 20
-139.4760687585338
 10
96.26837020162736
 20
-139.4760687585338
 10
96.32762584397365
 20
-139.4760687585338
 10
96.36758895160256
 20
-139.4250813453521
 10
96.36758895160256
 20
-139.3723713844277
 10
96.36758895160256
 20
-139.3151827993726
 10
96.32108016255168
 20
-139.2707410676129
 10
96.26423608704506
 20
-139.2707410676129
 97
        0
 97
        0
 75
     2
 76
     1
 98
        0
  0
ENDBLK
  5
148
330
145
100
AcDbEntity
  8
0
100
AcDbBlockEnd
  0
ENDSEC
  0
SECTION
  2
ENTITIES
  0
INSERT
  5
42
330
1F
100
AcDbEntity
  8
_U+30EC_U+30A4_U+30E4_U+30FC 1
100
AcDbBlockReference
  2
block 2
 10
0.0
 20
0.0
 30
0.0
  0
POLYLINE
  5
121
330
1F
100
AcDbEntity
  8
_U+30EC_U+30A4_U+30E4_U+30FC 1
  6
AI-Linetype-1
 62
   154
420
    23468
370
    25
100
AcDb2dPolyline
 66
     1
 10
0.0
 20
0.0
 30
0.0
  0
VERTEX
  5
122
330
121
100
AcDbEntity
  8
_U+30EC_U+30A4_U+30E4_U+30FC 1
  6
AI-Linetype-1
 62
   154
420
    23468
370
    25
100
AcDbVertex
100
AcDb2dVertex
 10
67.81291826994833
 20
-133.9398091331815
 30
0.0
  0
VERTEX
  5
123
330
121
100
AcDbEntity
  8
_U+30EC_U+30A4_U+30E4_U+30FC 1
  6
AI-Linetype-1
 62
   154
420
    23468
370
    25
100
AcDbVertex
100
AcDb2dVertex
 10
52.93698531613165
 20
-138.5390082986989
 30
0.0
  0
SEQEND
  5
125
330
121
100
AcDbEntity
  8
_U+30EC_U+30A4_U+30E4_U+30FC 1
  6
AI-Linetype-1
 62
   154
420
    23468
370
    25
  0
POLYLINE
  5
126
330
1F
100
AcDbEntity
  8
_U+30EC_U+30A4_U+30E4_U+30FC 1
  6
AI-Linetype-2
 62
   154
420
    23468
370
    25
100
AcDb2dPolyline
 66
     1
 10
0.0
 20
0.0
 30
0.0
  0
VERTEX
  5
127
330
126
100
AcDbEntity
  8
_U+30EC_U+30A4_U+30E4_U+30FC 1
  6
AI-Linetype-2
 62
   154
420
    23468
370
    25
100
AcDbVertex
100
AcDb2dVertex
 10
114.0764065341128
 20
-133.9439366331808
 30
0.0
  0
VERTEX
  5
128
330
126
100
AcDbEntity
  8
_U+30EC_U+30A4_U+30E4_U+30FC 1
  6
AI-Linetype-2
 62
   154
420
    23468
370
    25
100
AcDbVertex
100
AcDb2dVertex
 10
128.5864736639302
 20
-138.5335049653667
 30
0.0
  0
SEQEND
  5
12A
330
126
100
AcDbEntity
  8
_U+30EC_U+30A4_U+30E4_U+30FC 1
  6
AI-Linetype-2
 62
   154
420
    23468
370
    25
  0
POLYLINE
  5
12B
330
1F
100
AcDbEntity
  8
_U+30EC_U+30A4_U+30E4_U+30FC 1
 62
   179
420
  2234388
370
     9
100
AcDb2dPolyline
 66
     1
 10
0.0
 20
0.0
 30
0.0
  0
VERTEX
  5
12C
330
12B
100
AcDbEntity
  8
_U+30EC_U+30A4_U+30E4_U+30FC 1
 62
   179
420
  2234388
370
     9
100
AcDbVertex
100
AcDb2dVertex
 10
64.21691336169005
 20
-136.0006663548886
 30
0.0
  0
VERTEX
  5
12D
330
12B
100
AcDbEntity
  8
_U+30EC_U+30A4_U+30E4_U+30FC 1
 62
   179
420
  2234388
370
     9
100
AcDbVertex
100
AcDb2dVertex
 10
71.33586290229275
 20
-139.9384071872379
 30
0.0
  0
VERTEX
  5
12E
330
12B
100
AcDbEntity
  8
_U+30EC_U+30A4_U+30E4_U+30FC 1
 62
   179
420
  2234388
370
     9
100
AcDbVertex
100
AcDb2dVertex
 10
83.64311508830858
 20
-139.9384071872379
 30
0.0
  0
SEQEND
  5
12F
330
12B
100
AcDbEntity
  8
_U+30EC_U+30A4_U+30E4_U+30FC 1
 62
   179
420
  2234388
370
     9
  0
POLYLINE
  5
130
330
1F
100
AcDbEntity
  8
_U+30EC_U+30A4_U+30E4_U+30FC 1
 62
   179
420
  2234388
370
     9
100
AcDb2dPolyline
 66
     1
 10
0.0
 20
0.0
 30
0.0
  0
VERTEX
  5
131
330
130
100
AcDbEntity
  8
_U+30EC_U+30A4_U+30E4_U+30FC 1
 62
   179
420
  2234388
370
     9
100
AcDbVertex
100
AcDb2dVertex
 10
64.21691336169005
 20
-136.0006663548886
 30
0.0
  0
VERTEX
  5
132
330
130
100
AcDbEntity
  8
_U+30EC_U+30A4_U+30E4_U+30FC 1
 62
   179
420
  2234388
370
     9
100
AcDbVertex
100
AcDb2dVertex
 10
65.18775778136619
 20
-136.2418252437173
 30
0.0
  0
SEQEND
  5
133
330
130
100
AcDbEntity
  8
_U+30EC_U+30A4_U+30E4_U+30FC 1
 62
   179
420
  2234388
370
     9
  0
POLYLINE
  5
134
330
1F
100
AcDbEntity
  8
_U+30EC_U+30A4_U+30E4_U+30FC 1
 62
   179
420
  2234388
370
     9
100
AcDb2dPolyline
 66
     1
 10
0.0
 20
0.0
 30
0.0
  0
VERTEX
  5
135
330
134
100
AcDbEntity
  8
_U+30EC_U+30A4_U+30E4_U+30FC 1
 62
   179
420
  2234388
370
     9
100
AcDbVertex
100
AcDb2dVertex
 10
64.21691336169005
 20
-136.0006663548886
 30
0.0
  0
VERTEX
  5
136
330
134
100
AcDbEntity
  8
_U+30EC_U+30A4_U+30E4_U+30FC 1
 62
   179
420
  2234388
370
     9
100
AcDbVertex
100
AcDb2dVertex
 10
64.93693278776527
 20
-136.6945096880485
 30
0.0
  0
SEQEND
  5
137
330
134
100
AcDbEntity
  8
_U+30EC_U+30A4_U+30E4_U+30FC 1
 62
   179
420
  2234388
370
     9
  0
POLYLINE
  5
138
330
1F
100
AcDbEntity
  8
_U+30EC_U+30A4_U+30E4_U+30FC 1
 62
   179
420
  2234388
370
     9
100
AcDb2dPolyline
 66
     1
 10
0.0
 20
0.0
 30
0.0
  0
VERTEX
  5
139
330
138
100
AcDbEntity
  8
_U+30EC_U+30A4_U+30E4_U+30FC 1
 62
   179
420
  2234388
370
     9
100
AcDbVertex
100
AcDb2dVertex
 10
115.0909953971174
 20
-135.6685613549717
 30
0.0
  0
VERTEX
  5
13A
330
138
100
AcDbEntity
  8
_U+30EC_U+30A4_U+30E4_U+30FC 1
 62
   179
420
  2234388
370
     9
100
AcDbVertex
100
AcDb2dVertex
 10
108.512254453844
 20
-139.9483907983465
 30
0.0
  0
VERTEX
  5
13B
330
138
100
AcDbEntity
  8
_U+30EC_U+30A4_U+30E4_U+30FC 1
 62
   179
420
  2234388
370
     9
100
AcDbVertex
100
AcDb2dVertex
 10
98.0329555545265
 20
-139.9483907983465
 30
0.0
  0
SEQEND
  5
13C
330
138
100
AcDbEntity
  8
_U+30EC_U+30A4_U+30E4_U+30FC 1
 62
   179
420
  2234388
370
     9
  0
POLYLINE
  5
13D
330
1F
100
AcDbEntity
  8
_U+30EC_U+30A4_U+30E4_U+30FC 1
 62
   179
420
  2234388
370
     9
100
AcDb2dPolyline
 66
     1
 10
0.0
 20
0.0
 30
0.0
  0
VERTEX
  5
13E
330
13D
100
AcDbEntity
  8
_U+30EC_U+30A4_U+30E4_U+30FC 1
 62
   179
420
  2234388
370
     9
100
AcDbVertex
100
AcDb2dVertex
 10
115.0909953971174
 20
-135.6685613549717
 30
0.0
  0
VERTEX
  5
13F
330
13D
100
AcDbEntity
  8
_U+30EC_U+30A4_U+30E4_U+30FC 1
 62
   179
420
  2234388
370
     9
100
AcDbVertex
100
AcDb2dVertex
 10
114.1405062546998
 20
-135.9779121882274
 30
0.0
  0
SEQEND
  5
140
330
13D
100
AcDbEntity
  8
_U+30EC_U+30A4_U+30E4_U+30FC 1
 62
   179
420
  2234388
370
     9
  0
POLYLINE
  5
141
330
1F
100
AcDbEntity
  8
_U+30EC_U+30A4_U+30E4_U+30FC 1
 62
   179
420
  2234388
370
     9
100
AcDb2dPolyline
 66
     1
 10
0.0
 20
0.0
 30
0.0
  0
VERTEX
  5
142
330
141
100
AcDbEntity
  8
_U+30EC_U+30A4_U+30E4_U+30FC 1
 62
   179
420
  2234388
370
     9
100
AcDbVertex
100
AcDb2dVertex
 10
115.0909953971174
 20
-135.6685613549717
 30
0.0
  0
VERTEX
  5
143
330
141
100
AcDbEntity
  8
_U+30EC_U+30A4_U+30E4_U+30FC 1
 62
   179
420
  2234388
370
     9
100
AcDbVertex
100
AcDb2dVertex
 10
114.4223051363994
 20
-136.412005243675
 30
0.0
  0
SEQEND
  5
144
330
141
100
AcDbEntity
  8
_U+30EC_U+30A4_U+30E4_U+30FC 1
 62
   179
420
  2234388
370
     9
  0
INSERT
  5
146
330
1F
100
AcDbEntity
  8
_U+30EC_U+30A4_U+30E4_U+30FC 1
100
AcDbBlockReference
  2
block 6
 10
0.0
 20
0.0
 30
0.0
  0
ENDSEC
  0
SECTION
  2
OBJECTS
  0
DICTIONARY
  5
C
330
0
100
AcDbDictionary
281
     1
  3
ACAD_GROUP
350
D
  3
ACAD_LAYOUT
350
1A
  3
ACAD_MATERIAL
350
3B
  3
ACAD_MLEADERSTYLE
350
16E
  3
ACAD_MLINESTYLE
350
17
  3
ACAD_PLOTSETTINGS
350
19
  3
ACAD_PLOTSTYLENAME
350
E
  3
ACAD_TABLESTYLE
350
16D
  3
ACAD_VISUALSTYLE
350
2A
  0
SUN
  5
3F
330
29
100
AcDbSun
 90
        1
290
     0
 63
     7
421
 16777215
 40
1.0
291
     1
 91
  2455826
 92
 54000000
292
     0
 70
     2
 71
   256
280
     1
  0
DICTIONARY
  5
D
102
{ACAD_REACTORS
330
C
102
}
330
C
100
AcDbDictionary
281
     1
  0
DICTIONARY
  5
1A
102
{ACAD_REACTORS
330
C
102
}
330
C
100
AcDbDictionary
281
     1
  3
Layout1
350
1E
  3
Layout2
350
26
  3
Model
350
22
  0
DICTIONARY
  5
3B
102
{ACAD_REACTORS
330
C
102
}
330
C
100
AcDbDictionary
281
     1
  3
ByBlock
350
3D
  3
ByLayer
350
3C
  3
Global
350
3E
  0
DICTIONARY
  5
16E
102
{ACAD_REACTORS
330
C
102
}
330
C
100
AcDbDictionary
281
     1
  0
DICTIONARY
  5
17
102
{ACAD_REACTORS
330
C
102
}
330
C
100
AcDbDictionary
281
     1
  3
Standard
350
18
  0
DICTIONARY
  5
19
102
{ACAD_REACTORS
330
C
102
}
330
C
100
AcDbDictionary
281
     1
  0
ACDBDICTIONARYWDFLT
  5
E
102
{ACAD_REACTORS
330
C
102
}
330
C
100
AcDbDictionary
281
     1
  3
Normal
350
F
100
AcDbDictionaryWithDefault
340
F
  0
DICTIONARY
  5
16D
102
{ACAD_REACTORS
330
C
102
}
330
C
100
AcDbDictionary
281
     1
  0
DICTIONARY
  5
2A
102
{ACAD_REACTORS
330
C
102
}
330
C
100
AcDbDictionary
281
     1
  3
2dWireframe
350
2F
  3
3D Hidden
350
31
  3
3dWireframe
350
30
  3
Basic
350
32
  3
Brighten
350
36
  3
ColorChange
350
3A
  3
Conceptual
350
34
  3
Dim
350
35
  3
Facepattern
350
39
  3
Flat
350
2B
  3
FlatWithEdges
350
2C
  3
Gouraud
350
2D
  3
GouraudWithEdges
350
2E
  3
Linepattern
350
38
  3
Realistic
350
33
  3
Thicken
350
37
  0
LAYOUT
  5
1E
102
{ACAD_REACTORS
330
1A
102
}
330
1A
100
AcDbPlotSettings
  1

  2
none_device
  4

  6

 40
0.0
 41
0.0
 42
0.0
 43
0.0
 44
0.0
 45
0.0
 46
0.0
 47
0.0
 48
0.0
 49
0.0
140
0.0
141
0.0
142
1.0
143
1.0
 70
   688
 72
     0
 73
     0
 74
     5
  7

 75
    16
 76
     0
 77
     2
 78
   300
147
1.0
148
0.0
149
0.0
100
AcDbLayout
  1
Layout1
 70
     1
 71
     1
 10
0.0
 20
0.0
 11
12.0
 21
9.0
 12
0.0
 22
0.0
 32
0.0
 14
1.000000000000000E+20
 24
1.000000000000000E+20
 34
1.000000000000000E+20
 15
-1.000000000000000E+20
 25
-1.000000000000000E+20
 35
-1.000000000000000E+20
146
0.0
 13
0.0
 23
0.0
 33
0.0
 16
1.0
 26
0.0
 36
0.0
 17
0.0
 27
1.0
 37
0.0
 76
     0
330
1B
  0
LAYOUT
  5
26
102
{ACAD_REACTORS
330
1A
102
}
330
1A
100
AcDbPlotSettings
  1

  2
none_device
  4

  6

 40
0.0
 41
0.0
 42
0.0
 43
0.0
 44
0.0
 45
0.0
 46
0.0
 47
0.0
 48
0.0
 49
0.0
140
0.0
141
0.0
142
1.0
143
1.0
 70
   688
 72
     0
 73
     0
 74
     5
  7

 75
    16
 76
     0
 77
     2
 78
   300
147
1.0
148
0.0
149
0.0
100
AcDbLayout
  1
Layout2
 70
     1
 71
     2
 10
0.0
 20
0.0
 11
0.0
 21
0.0
 12
0.0
 22
0.0
 32
0.0
 14
0.0
 24
0.0
 34
0.0
 15
0.0
 25
0.0
 35
0.0
146
0.0
 13
0.0
 23
0.0
 33
0.0
 16
1.0
 26
0.0
 36
0.0
 17
0.0
 27
1.0
 37
0.0
 76
     0
330
23
  0
LAYOUT
  5
22
102
{ACAD_REACTORS
330
1A
102
}
330
1A
100
AcDbPlotSettings
  1

  2
none_device
  4

  6

 40
0.0
 41
0.0
 42
0.0
 43
0.0
 44
0.0
 45
0.0
 46
0.0
 47
0.0
 48
0.0
 49
0.0
140
0.0
141
0.0
142
1.0
143
1.0
 70
  1712
 72
     0
 73
     0
 74
     0
  7

 75
     0
 76
     0
 77
     2
 78
   300
147
1.0
148
0.0
149
0.0
100
AcDbLayout
  1
Model
 70
     1
 71
     0
 10
0.0
 20
0.0
 11
12.0
 21
9.0
 12
0.0
 22
0.0
 32
0.0
 14
1.000000000000000E+20
 24
1.000000000000000E+20
 34
1.000000000000000E+20
 15
-1.000000000000000E+20
 25
-1.000000000000000E+20
 35
-1.000000000000000E+20
146
0.0
 13
0.0
 23
0.0
 33
0.0
 16
1.0
 26
0.0
 36
0.0
 17
0.0
 27
1.0
 37
0.0
 76
     0
330
1F
331
29
  0
MATERIAL
  5
3D
102
{ACAD_REACTORS
330
3B
102
}
330
3B
100
AcDbMaterial
  1
ByBlock
 72
     1
 94
      127
  0
MATERIAL
  5
3C
102
{ACAD_REACTORS
330
3B
102
}
330
3B
100
AcDbMaterial
  1
ByLayer
 72
     1
 94
      127
  0
MATERIAL
  5
3E
102
{ACAD_REACTORS
330
3B
102
}
330
3B
100
AcDbMaterial
  1
Global
 72
     1
 94
      127
  0
MLINESTYLE
  5
18
102
{ACAD_REACTORS
330
17
102
}
330
17
100
AcDbMlineStyle
  2
Standard
 70
     0
  3

 62
   256
 51
90.0
 52
90.0
 71
     2
 49
0.5
 62
   256
  6
BYLAYER
 49
-0.5
 62
   256
  6
BYLAYER
  0
ACDBPLACEHOLDER
  5
F
102
{ACAD_REACTORS
330
E
102
}
330
E
  0
VISUALSTYLE
  5
2F
102
{ACAD_REACTORS
330
2A
102
}
330
2A
100
AcDbVisualStyle
  2
2dWireframe
 70
     4
177
     2
291
     0
 71
     0
176
     1
 72
     2
176
     1
 73
     0
176
     1
 90
        0
176
     1
 40
-0.6
176
     1
 41
-30.0
176
     1
 62
     5
 63
     7
421
 16777215
176
     1
 74
     1
176
     1
 91
        4
176
     1
 64
     7
176
     1
 65
   257
176
     1
 75
     1
176
     1
175
     1
176
     1
 42
1.0
176
     1
 92
        0
176
     1
 66
   257
176
     1
 43
1.0
176
     1
 76
     1
176
     1
 77
     6
176
     1
 78
     2
176
     1
 67
     7
176
     1
 79
     5
176
     1
170
     0
176
     1
171
     0
176
     1
290
     0
176
     1
 93
        1
176
     1
 44
0.0
176
     1
173
     0
176
     1
  0
VISUALSTYLE
  5
31
102
{ACAD_REACTORS
330
2A
102
}
330
2A
100
AcDbVisualStyle
  2
3D Hidden
 70
     6
177
     2
291
     0
 71
     1
176
     1
 72
     2
176
     1
 73
     2
176
     1
 90
        0
176
     1
 40
-0.6
176
     1
 41
-30.0
176
     1
 62
     5
 63
     7
421
 16777215
176
     1
 74
     2
176
     1
 91
        2
176
     1
 64
     7
176
     1
 65
   257
176
     1
 75
     2
176
     1
175
     1
176
     1
 42
40.0
176
     1
 92
        0
176
     1
 66
   257
176
     1
 43
1.0
176
     1
 76
     1
176
     1
 77
     6
176
     1
 78
     2
176
     1
 67
     7
176
     1
 79
     3
176
     1
170
     0
176
     1
171
     0
176
     1
290
     0
176
     1
 93
        1
176
     1
 44
0.0
176
     1
173
     0
176
     1
  0
VISUALSTYLE
  5
30
102
{ACAD_REACTORS
330
2A
102
}
330
2A
100
AcDbVisualStyle
  2
3dWireframe
 70
     5
177
     2
291
     0
 71
     0
176
     1
 72
     2
176
     1
 73
     0
176
     1
 90
        0
176
     1
 40
-0.6
176
     1
 41
-30.0
176
     1
 62
     5
 63
     7
421
 16777215
176
     1
 74
     1
176
     1
 91
        4
176
     1
 64
     7
176
     1
 65
   257
176
     1
 75
     1
176
     1
175
     1
176
     1
 42
1.0
176
     1
 92
        0
176
     1
 66
   257
176
     1
 43
1.0
176
     1
 76
     1
176
     1
 77
     6
176
     1
 78
     2
176
     1
 67
     7
176
     1
 79
     5
176
     1
170
     0
176
     1
171
     0
176
     1
290
     0
176
     1
 93
        1
176
     1
 44
0.0
176
     1
173
     0
176
     1
  0
VISUALSTYLE
  5
32
102
{ACAD_REACTORS
330
2A
102
}
330
2A
100
AcDbVisualStyle
  2
Basic
 70
     7
177
     2
291
     1
 71
     1
176
     1
 72
     0
176
     1
 73
     1
176
     1
 90
        0
176
     1
 40
-0.6
176
     1
 41
-30.0
176
     1
 62
     5
 63
     7
421
 16777215
176
     1
 74
     0
176
     1
 91
        4
176
     1
 64
     7
176
     1
 65
   257
176
     1
 75
     1
176
     1
175
     1
176
     1
 42
1.0
176
     1
 92
        8
176
     1
 66
     7
176
     1
 43
1.0
176
     1
 76
     1
176
     1
 77
     6
176
     1
 78
     2
176
     1
 67
     7
176
     1
 79
     5
176
     1
170
     0
176
     1
171
     0
176
     1
290
     0
176
     1
 93
        1
176
     1
 44
0.0
176
     1
173
     0
176
     1
  0
VISUALSTYLE
  5
36
102
{ACAD_REACTORS
330
2A
102
}
330
2A
100
AcDbVisualStyle
  2
Brighten
 70
    12
177
     2
291
     1
 71
     2
176
     1
 72
     2
176
     1
 73
     0
176
     1
 90
        0
176
     1
 40
-0.6
176
     1
 41
-30.0
176
     1
 62
     5
 63
     7
421
 16777215
176
     1
 74
     1
176
     1
 91
        4
176
     1
 64
     7
176
     1
 65
   257
176
     1
 75
     1
176
     1
175
     1
176
     1
 42
1.0
176
     1
 92
        8
176
     1
 66
     7
176
     1
 43
1.0
176
     1
 76
     1
176
     1
 77
     6
176
     1
 78
     2
176
     1
 67
     7
176
     1
 79
     5
176
     1
170
     0
176
     1
171
     0
176
     1
290
     0
176
     1
 93
        1
176
     1
 44
50.0
176
     1
173
     0
176
     1
  0
VISUALSTYLE
  5
3A
102
{ACAD_REACTORS
330
2A
102
}
330
2A
100
AcDbVisualStyle
  2
ColorChange
 70
    16
177
     2
291
     1
 71
     2
176
     1
 72
     2
176
     1
 73
     3
176
     1
 90
        0
176
     1
 40
-0.6
176
     1
 41
-30.0
176
     1
 62
     5
 63
     8
421
  8421504
176
     1
 74
     1
176
     1
 91
        4
176
     1
 64
     7
176
     1
 65
   257
176
     1
 75
     1
176
     1
175
     1
176
     1
 42
1.0
176
     1
 92
        8
176
     1
 66
     8
424
  8421504
176
     1
 43
1.0
176
     1
 76
     1
176
     1
 77
     6
176
     1
 78
     2
176
     1
 67
     7
176
     1
 79
     5
176
     1
170
     0
176
     1
171
     0
176
     1
290
     0
176
     1
 93
        1
176
     1
 44
0.0
176
     1
173
     0
176
     1
  0
VISUALSTYLE
  5
34
102
{ACAD_REACTORS
330
2A
102
}
330
2A
100
AcDbVisualStyle
  2
Conceptual
 70
     9
177
     2
291
     0
 71
     3
176
     1
 72
     2
176
     1
 73
     0
176
     1
 90
        0
176
     1
 40
-0.6
176
     1
 41
-30.0
176
     1
 62
     5
 63
     7
421
 16777215
176
     1
 74
     2
176
     1
 91
        2
176
     1
 64
     7
176
     1
 65
   257
176
     1
 75
     1
176
     1
175
     1
176
     1
 42
40.0
176
     1
 92
        8
176
     1
 66
     7
176
     1
 43
1.0
176
     1
 76
     1
176
     1
 77
     6
176
     1
 78
     2
176
     1
 67
     7
176
     1
 79
     3
176
     1
170
     0
176
     1
171
     0
176
     1
290
     0
176
     1
 93
        1
176
     1
 44
0.0
176
     1
173
     0
176
     1
  0
VISUALSTYLE
  5
35
102
{ACAD_REACTORS
330
2A
102
}
330
2A
100
AcDbVisualStyle
  2
Dim
 70
    11
177
     2
291
     1
 71
     2
176
     1
 72
     2
176
     1
 73
     0
176
     1
 90
        0
176
     1
 40
-0.6
176
     1
 41
-30.0
176
     1
 62
     5
 63
     7
421
 16777215
176
     1
 74
     1
176
     1
 91
        4
176
     1
 64
     7
176
     1
 65
   257
176
     1
 75
     1
176
     1
175
     1
176
     1
 42
1.0
176
     1
 92
        8
176
     1
 66
     7
176
     1
 43
1.0
176
     1
 76
     1
176
     1
 77
     6
176
     1
 78
     2
176
     1
 67
     7
176
     1
 79
     5
176
     1
170
     0
176
     1
171
     0
176
     1
290
     0
176
     1
 93
        1
176
     1
 44
-50.0
176
     1
173
     0
176
     1
  0
VISUALSTYLE
  5
39
102
{ACAD_REACTORS
330
2A
102
}
330
2A
100
AcDbVisualStyle
  2
Facepattern
 70
    15
177
     2
291
     1
 71
     2
176
     1
 72
     2
176
     1
 73
     0
176
     1
 90
        0
176
     1
 40
-0.6
176
     1
 41
-30.0
176
     1
 62
     5
 63
     7
421
 16777215
176
     1
 74
     1
176
     1
 91
        4
176
     1
 64
     7
176
     1
 65
   257
176
     1
 75
     1
176
     1
175
     1
176
     1
 42
1.0
176
     1
 92
        8
176
     1
 66
     7
176
     1
 43
1.0
176
     1
 76
     1
176
     1
 77
     6
176
     1
 78
     2
176
     1
 67
     7
176
     1
 79
     5
176
     1
170
     0
176
     1
171
     0
176
     1
290
     0
176
     1
 93
        1
176
     1
 44
0.0
176
     1
173
     0
176
     1
  0
VISUALSTYLE
  5
2B
102
{ACAD_REACTORS
330
2A
102
}
330
2A
100
AcDbVisualStyle
  2
Flat
 70
     0
177
     2
291
     1
 71
     2
176
     1
 72
     1
176
     1
 73
     1
176
     1
 90
        2
176
     1
 40
-0.6
176
     1
 41
30.0
176
     1
 62
     5
 63
     7
421
 16777215
176
     1
 74
     0
176
     1
 91
        4
176
     1
 64
     7
176
     1
 65
   257
176
     1
 75
     1
176
     1
175
     1
176
     1
 42
1.0
176
     1
 92
        8
176
     1
 66
     7
176
     1
 43
1.0
176
     1
 76
     1
176
     1
 77
     6
176
     1
 78
     2
176
     1
 67
     7
176
     1
 79
     5
176
     1
170
     0
176
     1
171
     0
176
     1
290
     0
176
     1
 93
       13
176
     1
 44
0.0
176
     1
173
     0
176
     1
  0
VISUALSTYLE
  5
2C
102
{ACAD_REACTORS
330
2A
102
}
330
2A
100
AcDbVisualStyle
  2
FlatWithEdges
 70
     1
177
     2
291
     1
 71
     2
176
     1
 72
     1
176
     1
 73
     1
176
     1
 90
        2
176
     1
 40
-0.6
176
     1
 41
30.0
176
     1
 62
     5
 63
     7
421
 16777215
176
     1
 74
     1
176
     1
 91
        4
176
     1
 64
     7
176
     1
 65
   257
176
     1
 75
     1
176
     1
175
     1
176
     1
 42
1.0
176
     1
 92
        0
176
     1
 66
   257
176
     1
 43
1.0
176
     1
 76
     1
176
     1
 77
     6
176
     1
 78
     2
176
     1
 67
     7
176
     1
 79
     5
176
     1
170
     0
176
     1
171
     0
176
     1
290
     0
176
     1
 93
       13
176
     1
 44
0.0
176
     1
173
     0
176
     1
  0
VISUALSTYLE
  5
2D
102
{ACAD_REACTORS
330
2A
102
}
330
2A
100
AcDbVisualStyle
  2
Gouraud
 70
     2
177
     2
291
     1
 71
     2
176
     1
 72
     2
176
     1
 73
     1
176
     1
 90
        2
176
     1
 40
-0.6
176
     1
 41
30.0
176
     1
 62
     5
 63
     7
421
 16777215
176
     1
 74
     0
176
     1
 91
        4
176
     1
 64
     7
176
     1
 65
   257
176
     1
 75
     1
176
     1
175
     1
176
     1
 42
1.0
176
     1
 92
        0
176
     1
 66
     7
176
     1
 43
1.0
176
     1
 76
     1
176
     1
 77
     6
176
     1
 78
     2
176
     1
 67
     7
176
     1
 79
     5
176
     1
170
     0
176
     1
171
     0
176
     1
290
     0
176
     1
 93
       13
176
     1
 44
0.0
176
     1
173
     0
176
     1
  0
VISUALSTYLE
  5
2E
102
{ACAD_REACTORS
330
2A
102
}
330
2A
100
AcDbVisualStyle
  2
GouraudWithEdges
 70
     3
177
     2
291
     1
 71
     2
176
     1
 72
     2
176
     1
 73
     1
176
     1
 90
        2
176
     1
 40
-0.6
176
     1
 41
30.0
176
     1
 62
     5
 63
     7
421
 16777215
176
     1
 74
     1
176
     1
 91
        4
176
     1
 64
     7
176
     1
 65
   257
176
     1
 75
     1
176
     1
175
     1
176
     1
 42
1.0
176
     1
 92
        0
176
     1
 66
   257
176
     1
 43
1.0
176
     1
 76
     1
176
     1
 77
     6
176
     1
 78
     2
176
     1
 67
     7
176
     1
 79
     5
176
     1
170
     0
176
     1
171
     0
176
     1
290
     0
176
     1
 93
       13
176
     1
 44
0.0
176
     1
173
     0
176
     1
  0
VISUALSTYLE
  5
38
102
{ACAD_REACTORS
330
2A
102
}
330
2A
100
AcDbVisualStyle
  2
Linepattern
 70
    14
177
     2
291
     1
 71
     2
176
     1
 72
     2
176
     1
 73
     0
176
     1
 90
        0
176
     1
 40
-0.6
176
     1
 41
-30.0
176
     1
 62
     5
 63
     7
421
 16777215
176
     1
 74
     1
176
     1
 91
        4
176
     1
 64
     7
176
     1
 65
   257
176
     1
 75
     7
176
     1
175
     7
176
     1
 42
1.0
176
     1
 92
        8
176
     1
 66
     7
176
     1
 43
1.0
176
     1
 76
     1
176
     1
 77
     6
176
     1
 78
     2
176
     1
 67
     7
176
     1
 79
     5
176
     1
170
     0
176
     1
171
     0
176
     1
290
     0
176
     1
 93
        1
176
     1
 44
0.0
176
     1
173
     0
176
     1
  0
VISUALSTYLE
  5
33
102
{ACAD_REACTORS
330
2A
102
}
330
2A
100
AcDbVisualStyle
  2
Realistic
 70
     8
177
     2
291
     0
 71
     2
176
     1
 72
     2
176
     1
 73
     0
176
     1
 90
        0
176
     1
 40
-0.6
176
     1
 41
-30.0
176
     1
 62
     5
 63
     7
421
 16777215
176
     1
 74
     1
176
     1
 91
        0
176
     1
 64
     7
176
     1
 65
   257
176
     1
 75
     1
176
     1
175
     1
176
     1
 42
1.0
176
     1
 92
        8
176
     1
 66
     8
424
  7895160
176
     1
 43
1.0
176
     1
 76
     1
176
     1
 77
     6
176
     1
 78
     2
176
     1
 67
     7
176
     1
 79
     5
176
     1
170
     0
176
     1
171
     0
176
     1
290
     0
176
     1
 93
       13
176
     1
 44
0.0
176
     1
173
     0
176
     1
  0
VISUALSTYLE
  5
37
102
{ACAD_REACTORS
330
2A
102
}
330
2A
100
AcDbVisualStyle
  2
Thicken
 70
    13
177
     2
291
     1
 71
     2
176
     1
 72
     2
176
     1
 73
     0
176
     1
 90
        0
176
     1
 40
-0.6
176
     1
 41
-30.0
176
     1
 62
     5
 63
     7
421
 16777215
176
     1
 74
     1
176
     1
 91
        4
176
     1
 64
     7
176
     1
 65
   257
176
     1
 75
     1
176
     1
175
     1
176
     1
 42
1.0
176
     1
 92
       12
176
     1
 66
     7
176
     1
 43
1.0
176
     1
 76
     1
176
     1
 77
     6
176
     1
 78
     2
176
     1
 67
     7
176
     1
 79
     5
176
     1
170
     0
176
     1
171
     0
176
     1
290
     0
176
     1
 93
        1
176
     1
 44
0.0
176
     1
173
     0
176
     1
  0
ENDSEC
  0
EOF
