  0
SECTION
  2
HEADER
  9
$ACADVER
  1
AC1024
  9
$ACADMAINTVER
 70
     6
  9
$DWGCODEPAGE
  3
UNDEFINED
  9
$INSBASE
 10
0.0
 20
0.0
 30
0.0
  9
$EXTMIN
 10
1.000000000000000E+20
 20
1.000000000000000E+20
 30
1.000000000000000E+20
  9
$EXTMAX
 10
-1.000000000000000E+20
 20
-1.000000000000000E+20
 30
-1.000000000000000E+20
  9
$LIMMIN
 10
0.0
 20
0.0
  9
$LIMMAX
 10
12.0
 20
9.0
  9
$ORTHOMODE
 70
     0
  9
$REGENMODE
 70
     1
  9
$FILLMODE
 70
     1
  9
$QTEXTMODE
 70
     0
  9
$MIRRTEXT
 70
     1
  9
$LTSCALE
 40
1.0
  9
$ATTMODE
 70
     1
  9
$TEXTSIZE
 40
0.2
  9
$TRACEWID
 40
0.05
  9
$TEXTSTYLE
  7
Standard
  9
$CLAYER
  8
0
  9
$CELTYPE
  6
ByLayer
  9
$CECOLOR
 62
   256
  9
$CELTSCALE
 40
1.0
  9
$DISPSILH
 70
     0
  9
$DIMSCALE
 40
1.0
  9
$DIMASZ
 40
0.18
  9
$DIMEXO
 40
0.0625
  9
$DIMDLI
 40
0.38
  9
$DIMRND
 40
0.0
  9
$DIMDLE
 40
0.0
  9
$DIMEXE
 40
0.18
  9
$DIMTP
 40
0.0
  9
$DIMTM
 40
0.0
  9
$DIMTXT
 40
0.18
  9
$DIMCEN
 40
0.09
  9
$DIMTSZ
 40
0.0
  9
$DIMTOL
 70
     0
  9
$DIMLIM
 70
     0
  9
$DIMTIH
 70
     1
  9
$DIMTOH
 70
     1
  9
$DIMSE1
 70
     0
  9
$DIMSE2
 70
     0
  9
$DIMTAD
 70
     0
  9
$DIMZIN
 70
     0
  9
$DIMBLK
  1

  9
$DIMASO
 70
     1
  9
$DIMSHO
 70
     1
  9
$DIMPOST
  1

  9
$DIMAPOST
  1

  9
$DIMALT
 70
     0
  9
$DIMALTD
 70
     2
  9
$DIMALTF
 40
25.4
  9
$DIMLFAC
 40
1.0
  9
$DIMTOFL
 70
     0
  9
$DIMTVP
 40
0.0
  9
$DIMTIX
 70
     0
  9
$DIMSOXD
 70
     0
  9
$DIMSAH
 70
     0
  9
$DIMBLK1
  1

  9
$DIMBLK2
  1

  9
$DIMSTYLE
  2
Standard
  9
$DIMCLRD
 70
     0
  9
$DIMCLRE
 70
     0
  9
$DIMCLRT
 70
     0
  9
$DIMTFAC
 40
1.0
  9
$DIMGAP
 40
0.09
  9
$DIMJUST
 70
     0
  9
$DIMSD1
 70
     0
  9
$DIMSD2
 70
     0
  9
$DIMTOLJ
 70
     1
  9
$DIMTZIN
 70
     0
  9
$DIMALTZ
 70
     0
  9
$DIMALTTZ
 70
     0
  9
$DIMUPT
 70
     0
  9
$DIMDEC
 70
     4
  9
$DIMTDEC
 70
     4
  9
$DIMALTU
 70
     2
  9
$DIMALTTD
 70
     2
  9
$DIMTXSTY
  7
Standard
  9
$DIMAUNIT
 70
     0
  9
$DIMADEC
 70
     0
  9
$DIMALTRND
 40
0.0
  9
$DIMAZIN
 70
     0
  9
$DIMDSEP
 70
    46
  9
$DIMATFIT
 70
     3
  9
$DIMFRAC
 70
     0
  9
$DIMLDRBLK
  1

  9
$DIMLUNIT
 70
     2
  9
$DIMLWD
 70
    -2
  9
$DIMLWE
 70
    -2
  9
$DIMTMOVE
 70
     0
  9
$DIMFXL
 40
1.0
  9
$DIMFXLON
 70
     0
  9
$DIMJOGANG
 40
0.7853981633974483
  9
$DIMTFILL
 70
     0
  9
$DIMTFILLCLR
 70
     0
  9
$DIMARCSYM
 70
     0
  9
$DIMLTYPE
  6

  9
$DIMLTEX1
  6

  9
$DIMLTEX2
  6

  9
$DIMTXTDIRECTION
 70
     0
  9
$LUNITS
 70
     2
  9
$LUPREC
 70
     4
  9
$SKETCHINC
 40
0.1
  9
$FILLETRAD
 40
0.5
  9
$AUNITS
 70
     0
  9
$AUPREC
 70
     0
  9
$MENU
  1
.
  9
$ELEVATION
 40
0.0
  9
$PELEVATION
 40
0.0
  9
$THICKNESS
 40
0.0
  9
$LIMCHECK
 70
     0
  9
$CHAMFERA
 40
0.5
  9
$CHAMFERB
 40
0.5
  9
$CHAMFERC
 40
1.0
  9
$CHAMFERD
 40
0.0
  9
$SKPOLY
 70
     0
  9
$TDCREATE
 40
2457917.58466434
  9
$TDUCREATE
 40
2457917.209664352
  9
$TDUPDATE
 40
2457917.58466434
  9
$TDUUPDATE
 40
2457917.209664352
  9
$TDINDWG
 40
0.0000000116
  9
$TDUSRTIMER
 40
0.0000000116
  9
$USRTIMER
 70
     1
  9
$ANGBASE
 50
0.0
  9
$ANGDIR
 70
     0
  9
$PDMODE
 70
     0
  9
$PDSIZE
 40
0.0
  9
$PLINEWID
 40
0.0
  9
$SPLFRAME
 70
     0
  9
$SPLINETYPE
 70
     6
  9
$SPLINESEGS
 70
     8
  9
$HANDSEED
  5
E7
  9
$SURFTAB1
 70
     6
  9
$SURFTAB2
 70
     6
  9
$SURFTYPE
 70
     6
  9
$SURFU
 70
     6
  9
$SURFV
 70
     6
  9
$UCSBASE
  2

  9
$UCSNAME
  2

  9
$UCSORG
 10
0.0
 20
0.0
 30
0.0
  9
$UCSXDIR
 10
1.0
 20
0.0
 30
0.0
  9
$UCSYDIR
 10
0.0
 20
1.0
 30
0.0
  9
$UCSORTHOREF
  2

  9
$UCSORTHOVIEW
 70
     0
  9
$UCSORGTOP
 10
0.0
 20
0.0
 30
0.0
  9
$UCSORGBOTTOM
 10
0.0
 20
0.0
 30
0.0
  9
$UCSORGLEFT
 10
0.0
 20
0.0
 30
0.0
  9
$UCSORGRIGHT
 10
0.0
 20
0.0
 30
0.0
  9
$UCSORGFRONT
 10
0.0
 20
0.0
 30
0.0
  9
$UCSORGBACK
 10
0.0
 20
0.0
 30
0.0
  9
$PUCSBASE
  2

  9
$PUCSNAME
  2

  9
$PUCSORG
 10
0.0
 20
0.0
 30
0.0
  9
$PUCSXDIR
 10
1.0
 20
0.0
 30
0.0
  9
$PUCSYDIR
 10
0.0
 20
1.0
 30
0.0
  9
$PUCSORTHOREF
  2

  9
$PUCSORTHOVIEW
 70
     0
  9
$PUCSORGTOP
 10
0.0
 20
0.0
 30
0.0
  9
$PUCSORGBOTTOM
 10
0.0
 20
0.0
 30
0.0
  9
$PUCSORGLEFT
 10
0.0
 20
0.0
 30
0.0
  9
$PUCSORGRIGHT
 10
0.0
 20
0.0
 30
0.0
  9
$PUCSORGFRONT
 10
0.0
 20
0.0
 30
0.0
  9
$PUCSORGBACK
 10
0.0
 20
0.0
 30
0.0
  9
$USERI1
 70
     0
  9
$USERI2
 70
     0
  9
$USERI3
 70
     0
  9
$USERI4
 70
     0
  9
$USERI5
 70
     0
  9
$USERR1
 40
0.0
  9
$USERR2
 40
0.0
  9
$USERR3
 40
0.0
  9
$USERR4
 40
0.0
  9
$USERR5
 40
0.0
  9
$WORLDVIEW
 70
     1
  9
$SHADEDGE
 70
     3
  9
$SHADEDIF
 70
    70
  9
$TILEMODE
 70
     1
  9
$MAXACTVP
 70
    64
  9
$PINSBASE
 10
0.0
 20
0.0
 30
0.0
  9
$PLIMCHECK
 70
     0
  9
$PEXTMIN
 10
1.000000000000000E+20
 20
1.000000000000000E+20
 30
1.000000000000000E+20
  9
$PEXTMAX
 10
-1.000000000000000E+20
 20
-1.000000000000000E+20
 30
-1.000000000000000E+20
  9
$PLIMMIN
 10
0.0
 20
0.0
  9
$PLIMMAX
 10
12.0
 20
9.0
  9
$UNITMODE
 70
     0
  9
$VISRETAIN
 70
     1
  9
$PLINEGEN
 70
     0
  9
$PSLTSCALE
 70
     1
  9
$TREEDEPTH
 70
  3020
  9
$CMLSTYLE
  2
Standard
  9
$CMLJUST
 70
     0
  9
$CMLSCALE
 40
1.0
  9
$PROXYGRAPHICS
 70
     1
  9
$MEASUREMENT
 70
     0
  9
$CELWEIGHT
370
    -1
  9
$ENDCAPS
280
     0
  9
$JOINSTYLE
280
     0
  9
$LWDISPLAY
290
     1
  9
$INSUNITS
 70
     1
  9
$HYPERLINKBASE
  1

  9
$STYLESHEET
  1

  9
$XEDIT
290
     1
  9
$CEPSNTYPE
380
     0
  9
$PSTYLEMODE
290
     1
  9
$FINGERPRINTGUID
  2
{229BEBDC-FAF7-D1D0-B47D-D7C3641D9D7F}
  9
$VERSIONGUID
  2
{FAEB1C32-E019-11D5-929B-00C0DF256EC4}
  9
$EXTNAMES
290
     1
  9
$PSVPSCALE
 40
0.0
  9
$OLESTARTUP
290
     0
  9
$SORTENTS
280
   127
  9
$INDEXCTL
280
     0
  9
$HIDETEXT
280
     1
  9
$XCLIPFRAME
280
     2
  9
$HALOGAP
280
     0
  9
$OBSCOLOR
 70
   257
  9
$OBSLTYPE
280
     0
  9
$INTERSECTIONDISPLAY
280
     0
  9
$INTERSECTIONCOLOR
 70
   257
  9
$DIMASSOC
280
     2
  9
$PROJECTNAME
  1

  9
$CAMERADISPLAY
290
     0
  9
$LENSLENGTH
 40
50.0
  9
$CAMERAHEIGHT
 40
0.0
  9
$STEPSPERSEC
 40
2.0
  9
$STEPSIZE
 40
6.0
  9
$3DDWFPREC
 40
2.0
  9
$PSOLWIDTH
 40
0.25
  9
$PSOLHEIGHT
 40
4.0
  9
$LOFTANG1
 40
1.570796326794897
  9
$LOFTANG2
 40
1.570796326794897
  9
$LOFTMAG1
 40
0.0
  9
$LOFTMAG2
 40
0.0
  9
$LOFTPARAM
 70
     7
  9
$LOFTNORMALS
280
     1
  9
$LATITUDE
 40
37.795
  9
$LONGITUDE
 40
-122.394
  9
$NORTHDIRECTION
 40
0.0
  9
$TIMEZONE
 70
 -8000
  9
$LIGHTGLYPHDISPLAY
280
     1
  9
$TILEMODELIGHTSYNCH
280
     1
  9
$CMATERIAL
347
3C
  9
$SOLIDHIST
280
     1
  9
$SHOWHIST
280
     1
  9
$DWFFRAME
280
     2
  9
$DGNFRAME
280
     2
  9
$REALWORLDSCALE
290
     1
  9
$INTERFERECOLOR
 62
   256
  9
$CSHADOW
280
     0
  9
$SHADOWPLANELOCATION
 40
0.0
  0
ENDSEC
  0
SECTION
  2
CLASSES
  0
CLASS
  1
ACDBDICTIONARYWDFLT
  2
AcDbDictionaryWithDefault
  3
ObjectDBX Classes
 90
        0
 91
        4
280
     0
281
     0
  0
CLASS
  1
VISUALSTYLE
  2
AcDbVisualStyle
  3
ObjectDBX Classes
 90
     4095
 91
        4
280
     0
281
     0
  0
CLASS
  1
MATERIAL
  2
AcDbMaterial
  3
ObjectDBX Classes
 90
     1153
 91
        4
280
     0
281
     0
  0
CLASS
  1
SUN
  2
AcDbSun
  3
SCENEOE
 90
     1024
 91
        4
280
     0
281
     0
  0
ENDSEC
  0
SECTION
  2
TABLES
  0
TABLE
  2
VPORT
  5
8
330
0
100
AcDbSymbolTable
 70
     1
  0
VPORT
  5
29
330
8
100
AcDbSymbolTableRecord
100
AcDbViewportTableRecord
  2
*Active
 70
     0
 10
0.0
 20
0.0
 11
1.0
 21
1.0
 12
0.0
 22
0.0
 13
0.0
 23
0.0
 14
0.5
 24
0.5
 15
0.5
 25
0.5
 16
0.0
 26
0.0
 36
1.0
 17
91.00082462281999
 27
-128.4993055234307
 37
0.0
 40
256.9986110468615
 41
0.7081814508812795
 42
50.0
 43
0.0
 44
0.0
 50
0.0
 51
0.0
 71
     0
 72
   100
 73
     1
 74
     3
 75
     0
 76
     0
 77
     0
 78
     0
281
     0
 65
     1
110
0.0
120
0.0
130
0.0
111
1.0
121
0.0
131
0.0
112
0.0
122
1.0
132
0.0
 79
     0
146
0.0
 60
     3
 61
     5
292
     1
282
     1
141
0.0
142
0.0
 63
   250
361
3F
  0
ENDTAB
  0
TABLE
  2
LTYPE
  5
5
330
0
100
AcDbSymbolTable
 70
     1
  0
LTYPE
  5
14
330
5
100
AcDbSymbolTableRecord
100
AcDbLinetypeTableRecord
  2
ByBlock
 70
     0
  3

 72
    65
 73
     0
 40
0.0
  0
LTYPE
  5
15
330
5
100
AcDbSymbolTableRecord
100
AcDbLinetypeTableRecord
  2
ByLayer
 70
     0
  3

 72
    65
 73
     0
 40
0.0
  0
LTYPE
  5
16
330
5
100
AcDbSymbolTableRecord
100
AcDbLinetypeTableRecord
  2
Continuous
 70
     0
  3
Solid line
 72
    65
 73
     0
 40
0.0
  0
ENDTAB
  0
TABLE
  2
LAYER
  5
2
330
0
100
AcDbSymbolTable
 70
     2
  0
LAYER
  5
10
330
2
100
AcDbSymbolTableRecord
100
AcDbLayerTableRecord
  2
0
 70
     0
 62
     7
  6
Continuous
370
    -3
390
F
347
3E
  0
LAYER
  5
40
330
2
100
AcDbSymbolTableRecord
100
AcDbLayerTableRecord
  2
_U+30EC_U+30A4_U+30E4_U+30FC 1
 70
     0
 62
     7
  6
Continuous
370
    -3
390
F
347
3E
  0
ENDTAB
  0
TABLE
  2
STYLE
  5
3
330
0
100
AcDbSymbolTable
 70
     1
  0
STYLE
  5
11
330
3
100
AcDbSymbolTableRecord
100
AcDbTextStyleTableRecord
  2
Standard
 70
     0
 40
0.0
 41
1.0
 50
0.0
 71
     0
 42
0.2
  3
txt
  4

  0
ENDTAB
  0
TABLE
  2
VIEW
  5
6
330
0
100
AcDbSymbolTable
 70
     0
  0
ENDTAB
  0
TABLE
  2
UCS
  5
7
330
0
100
AcDbSymbolTable
 70
     0
  0
ENDTAB
  0
TABLE
  2
APPID
  5
9
330
0
100
AcDbSymbolTable
 70
     1
  0
APPID
  5
12
330
9
100
AcDbSymbolTableRecord
100
AcDbRegAppTableRecord
  2
ACAD
 70
     0
  0
ENDTAB
  0
TABLE
  2
DIMSTYLE
  5
A
330
0
100
AcDbSymbolTable
 70
     1
100
AcDbDimStyleTable
  0
DIMSTYLE
105
27
330
A
100
AcDbSymbolTableRecord
100
AcDbDimStyleTableRecord
  2
Standard
 70
     0
178
     0
340
11
  0
ENDTAB
  0
TABLE
  2
BLOCK_RECORD
  5
1
330
0
100
AcDbSymbolTable
 70
    13
  0
BLOCK_RECORD
  5
1F
330
1
100
AcDbSymbolTableRecord
100
AcDbBlockTableRecord
  2
*Model_Space
340
22
 70
     0
280
     1
281
     0
  0
BLOCK_RECORD
  5
1B
330
1
100
AcDbSymbolTableRecord
100
AcDbBlockTableRecord
  2
*Paper_Space
340
1E
 70
     0
280
     1
281
     0
  0
BLOCK_RECORD
  5
23
330
1
100
AcDbSymbolTableRecord
100
AcDbBlockTableRecord
  2
*Paper_Space0
340
26
 70
     0
280
     1
281
     0
  0
BLOCK_RECORD
  5
42
330
1
100
AcDbSymbolTableRecord
100
AcDbBlockTableRecord
  2
block 2
340
0
102
{BLKREFS
331
43
102
}
 70
     0
280
     1
281
     0
  0
BLOCK_RECORD
  5
4A
330
1
100
AcDbSymbolTableRecord
100
AcDbBlockTableRecord
  2
block 3
340
0
102
{BLKREFS
331
4B
102
}
 70
     0
280
     1
281
     0
  0
BLOCK_RECORD
  5
52
330
1
100
AcDbSymbolTableRecord
100
AcDbBlockTableRecord
  2
block 4
340
0
102
{BLKREFS
331
53
102
}
 70
     0
280
     1
281
     0
  0
BLOCK_RECORD
  5
5A
330
1
100
AcDbSymbolTableRecord
100
AcDbBlockTableRecord
  2
block 5
340
0
102
{BLKREFS
331
5B
102
}
 70
     0
280
     1
281
     0
  0
BLOCK_RECORD
  5
63
330
1
100
AcDbSymbolTableRecord
100
AcDbBlockTableRecord
  2
block 6
340
0
102
{BLKREFS
331
64
102
}
 70
     0
280
     1
281
     0
  0
BLOCK_RECORD
  5
7B
330
1
100
AcDbSymbolTableRecord
100
AcDbBlockTableRecord
  2
block 7
340
0
102
{BLKREFS
331
7C
102
}
 70
     0
280
     1
281
     0
  0
BLOCK_RECORD
  5
83
330
1
100
AcDbSymbolTableRecord
100
AcDbBlockTableRecord
  2
block 8
340
0
102
{BLKREFS
331
84
102
}
 70
     0
280
     1
281
     0
  0
BLOCK_RECORD
  5
8D
330
1
100
AcDbSymbolTableRecord
100
AcDbBlockTableRecord
  2
block 9
340
0
102
{BLKREFS
331
8E
102
}
 70
     0
280
     1
281
     0
  0
BLOCK_RECORD
  5
9D
330
1
100
AcDbSymbolTableRecord
100
AcDbBlockTableRecord
  2
block 10
340
0
102
{BLKREFS
331
9E
102
}
 70
     0
280
     1
281
     0
  0
BLOCK_RECORD
  5
A9
330
1
100
AcDbSymbolTableRecord
100
AcDbBlockTableRecord
  2
block 11
340
0
102
{BLKREFS
331
AA
102
}
 70
     0
280
     1
281
     0
  0
BLOCK_RECORD
  5
C1
330
1
100
AcDbSymbolTableRecord
100
AcDbBlockTableRecord
  2
block 12
340
0
102
{BLKREFS
331
C2
102
}
 70
     0
280
     1
281
     0
  0
BLOCK_RECORD
  5
C9
330
1
100
AcDbSymbolTableRecord
100
AcDbBlockTableRecord
  2
block 13
340
0
102
{BLKREFS
331
CA
102
}
 70
     0
280
     1
281
     0
  0
ENDTAB
  0
ENDSEC
  0
SECTION
  2
BLOCKS
  0
BLOCK
  5
20
330
1F
100
AcDbEntity
  8
0
100
AcDbBlockBegin
  2
*Model_Space
 70
     0
 10
0.0
 20
0.0
 30
0.0
  3
*Model_Space
  1

  0
ENDBLK
  5
21
330
1F
100
AcDbEntity
  8
0
100
AcDbBlockEnd
  0
BLOCK
  5
1C
330
1B
100
AcDbEntity
 67
     1
  8
0
100
AcDbBlockBegin
  2
*Paper_Space
 70
     0
 10
0.0
 20
0.0
 30
0.0
  3
*Paper_Space
  1

  0
ENDBLK
  5
1D
330
1B
100
AcDbEntity
 67
     1
  8
0
100
AcDbBlockEnd
  0
BLOCK
  5
24
330
23
100
AcDbEntity
  8
0
100
AcDbBlockBegin
  2
*Paper_Space0
 70
     0
 10
0.0
 20
0.0
 30
0.0
  3
*Paper_Space0
  1

  0
ENDBLK
  5
25
330
23
100
AcDbEntity
  8
0
100
AcDbBlockEnd
  0
BLOCK
  5
44
330
42
100
AcDbEntity
  8
0
100
AcDbBlockBegin
  2
block 2
 70
     0
 10
0.0
 20
0.0
 30
0.0
  3
block 2
  1

  0
POLYLINE
  5
46
330
42
100
AcDbEntity
  8
_U+30EC_U+30A4_U+30E4_U+30FC 1
 62
     7
420
 16777215
370
     9
100
AcDb2dPolyline
 66
     1
 10
0.0
 20
0.0
 30
0.0
  0
VERTEX
  5
47
330
46
100
AcDbEntity
  8
_U+30EC_U+30A4_U+30E4_U+30FC 1
 62
     7
420
 16777215
370
     9
100
AcDbVertex
100
AcDb2dVertex
 10
70.13387848851347
 20
-150.9647588511477
 30
0.0
  0
VERTEX
  5
48
330
46
100
AcDbEntity
  8
_U+30EC_U+30A4_U+30E4_U+30FC 1
 62
     7
420
 16777215
370
     9
100
AcDbVertex
100
AcDb2dVertex
 10
95.0391422975717
 20
-150.9647588511477
 30
0.0
  0
SEQEND
  5
49
330
46
100
AcDbEntity
  8
_U+30EC_U+30A4_U+30E4_U+30FC 1
 62
     7
420
 16777215
370
     9
  0
ENDBLK
  5
45
330
42
100
AcDbEntity
  8
0
100
AcDbBlockEnd
  0
BLOCK
  5
4C
330
4A
100
AcDbEntity
  8
0
100
AcDbBlockBegin
  2
block 3
 70
     0
 10
0.0
 20
0.0
 30
0.0
  3
block 3
  1

  0
SPLINE
  5
4E
330
4A
100
AcDbEntity
  8
_U+30EC_U+30A4_U+30E4_U+30FC 1
370
     0
100
AcDbSpline
210
0.0
220
0.0
230
1.0
 70
    11
 71
     3
 72
    26
 73
    22
 74
     0
 42
0.0000000001
 43
0.0000000001
 12
1.0
 22
0.0
 32
0.0
 13
1.0
 23
0.0
 33
0.0
 40
0.0
 40
0.0
 40
0.0
 40
0.0
 40
1.0
 40
1.0
 40
1.0
 40
2.0
 40
2.0
 40
2.0
 40
3.0
 40
3.0
 40
3.0
 40
4.0
 40
4.0
 40
4.0
 40
5.0
 40
5.0
 40
5.0
 40
6.0
 40
6.0
 40
6.0
 40
7.0
 40
7.0
 40
7.0
 40
7.0
 10
87.06996525601029
 20
-150.2226996152221
 30
0.0
 10
87.06996525601029
 20
-150.2226996152221
 30
0.0
 10
87.06996525601029
 20
-149.118202002651
 30
0.0
 10
87.06996525601029
 20
-149.118202002651
 30
0.0
 10
87.06996525601029
 20
-149.118202002651
 30
0.0
 10
86.73992510852335
 20
-149.118202002651
 30
0.0
 10
86.73992510852335
 20
-149.118202002651
 30
0.0
 10
86.73992510852335
 20
-149.118202002651
 30
0.0
 10
86.73992510852335
 20
-148.9704074063338
 30
0.0
 10
86.73992510852335
 20
-148.9704074063338
 30
0.0
 10
87.07203231330143
 20
-148.9555934957472
 30
0.0
 10
87.11854110235231
 20
-148.7926404792949
 30
0.0
 10
87.14816892352546
 20
-148.6786078187331
 30
0.0
 10
87.14816892352546
 20
-148.6786078187331
 30
0.0
 10
87.29424097210006
 20
-148.6786078187331
 30
0.0
 10
87.29424097210006
 20
-148.6786078187331
 30
0.0
 10
87.29424097210006
 20
-148.6786078187331
 30
0.0
 10
87.29424097210006
 20
-150.2226996152221
 30
0.0
 10
87.29424097210006
 20
-150.2226996152221
 30
0.0
 10
87.29424097210006
 20
-150.2226996152221
 30
0.0
 10
87.06996525601029
 20
-150.2226996152221
 30
0.0
 10
87.06996525601029
 20
-150.2226996152221
 30
0.0
  0
HATCH
  5
4F
330
4A
100
AcDbEntity
  8
_U+30EC_U+30A4_U+30E4_U+30FC 1
 62
     7
420
 16777215
100
AcDbHatch
 10
0.0
 20
0.0
 30
0.0
210
0.0
220
0.0
230
1.0
  2
SOLID
 70
     1
 71
     0
 91
        1
 92
        1
 93
        1
 72
     4
 94
        3
 73
     0
 74
     1
 95
       26
 96
       22
 40
0.0
 40
0.0
 40
0.0
 40
0.0
 40
1.0
 40
1.0
 40
1.0
 40
2.0
 40
2.0
 40
2.0
 40
3.0
 40
3.0
 40
3.0
 40
4.0
 40
4.0
 40
4.0
 40
5.0
 40
5.0
 40
5.0
 40
6.0
 40
6.0
 40
6.0
 40
7.0
 40
7.0
 40
7.0
 40
7.0
 10
87.06996525601029
 20
-150.2226996152221
 10
87.06996525601029
 20
-150.2226996152221
 10
87.06996525601029
 20
-149.118202002651
 10
87.06996525601029
 20
-149.118202002651
 10
87.06996525601029
 20
-149.118202002651
 10
86.73992510852335
 20
-149.118202002651
 10
86.73992510852335
 20
-149.118202002651
 10
86.73992510852335
 20
-149.118202002651
 10
86.73992510852335
 20
-148.9704074063338
 10
86.73992510852335
 20
-148.9704074063338
 10
87.07203231330143
 20
-148.9555934957472
 10
87.11854110235231
 20
-148.7926404792949
 10
87.14816892352546
 20
-148.6786078187331
 10
87.14816892352546
 20
-148.6786078187331
 10
87.29424097210006
 20
-148.6786078187331
 10
87.29424097210006
 20
-148.6786078187331
 10
87.29424097210006
 20
-148.6786078187331
 10
87.29424097210006
 20
-150.2226996152221
 10
87.29424097210006
 20
-150.2226996152221
 10
87.29424097210006
 20
-150.2226996152221
 10
87.06996525601029
 20
-150.2226996152221
 10
87.06996525601029
 20
-150.2226996152221
 97
        0
 97
        0
 75
     2
 76
     1
 98
        0
  0
SPLINE
  5
50
330
4A
100
AcDbEntity
  8
_U+30EC_U+30A4_U+30E4_U+30FC 1
370
     0
100
AcDbSpline
210
0.0
220
0.0
230
1.0
 70
    11
 71
     3
 72
    53
 73
    49
 74
     0
 42
0.0000000001
 43
0.0000000001
 12
1.0
 22
0.0
 32
0.0
 13
1.0
 23
0.0
 33
0.0
 40
0.0
 40
0.0
 40
0.0
 40
0.0
 40
1.0
 40
1.0
 40
1.0
 40
2.0
 40
2.0
 40
2.0
 40
3.0
 40
3.0
 40
3.0
 40
4.0
 40
4.0
 40
4.0
 40
5.0
 40
5.0
 40
5.0
 40
6.0
 40
6.0
 40
6.0
 40
7.0
 40
7.0
 40
7.0
 40
8.0
 40
8.0
 40
8.0
 40
9.0
 40
9.0
 40
9.0
 40
10.0
 40
10.0
 40
10.0
 40
11.0
 40
11.0
 40
11.0
 40
12.0
 40
12.0
 40
12.0
 40
13.0
 40
13.0
 40
13.0
 40
14.0
 40
14.0
 40
14.0
 40
15.0
 40
15.0
 40
15.0
 40
16.0
 40
16.0
 40
16.0
 40
16.0
 10
88.27643769494479
 20
-150.2736870284038
 30
0.0
 10
88.19806177265535
 20
-150.2736870284038
 30
0.0
 10
88.09660371061474
 20
-150.2564615509775
 30
0.0
 10
87.99497339379987
 20
-150.193071794049
 30
0.0
 10
87.82151283611755
 20
-150.082828738521
 30
0.0
 10
87.80032549888325
 20
-149.9519151100815
 30
0.0
 10
87.78137747371439
 20
-149.8440836213931
 30
0.0
 10
87.78137747371439
 20
-149.8440836213931
 30
0.0
 10
88.00341387773874
 20
-149.8440836213931
 30
0.0
 10
88.00341387773874
 20
-149.8440836213931
 30
0.0
 10
88.05853540550274
 20
-150.0428656308921
 30
0.0
 10
88.18548717413418
 20
-150.0724934520652
 30
0.0
 10
88.27850475223593
 20
-150.0724934520652
 30
0.0
 10
88.41820337416281
 20
-150.0724934520652
 30
0.0
 10
88.57047659461085
 20
-149.97327470209
 30
0.0
 10
88.57047659461085
 20
-149.7403862472871
 30
0.0
 10
88.57047659461085
 20
-149.4844156527331
 30
0.0
 10
88.39064261028082
 20
-149.4144802143825
 30
0.0
 10
88.27006426829708
 20
-149.4144802143825
 30
0.0
 10
88.23836938983277
 20
-149.4144802143825
 30
0.0
 10
88.09660371061474
 20
-149.4144802143825
 30
0.0
 10
88.00772024709529
 20
-149.5436712950794
 30
0.0
 10
88.00772024709529
 20
-149.5436712950794
 30
0.0
 10
87.83219263212182
 20
-149.5247232699105
 30
0.0
 10
87.83219263212182
 20
-149.5247232699105
 30
0.0
 10
87.83219263212182
 20
-149.5247232699105
 30
0.0
 10
87.95277097410556
 20
-148.6786078187331
 30
0.0
 10
87.95277097410556
 20
-148.6786078187331
 30
0.0
 10
87.95277097410556
 20
-148.6786078187331
 30
0.0
 10
88.73119029899776
 20
-148.6786078187331
 30
0.0
 10
88.73119029899776
 20
-148.6786078187331
 30
0.0
 10
88.73119029899776
 20
-148.6786078187331
 30
0.0
 10
88.73119029899776
 20
-148.8729112041012
 30
0.0
 10
88.73119029899776
 20
-148.8729112041012
 30
0.0
 10
88.73119029899776
 20
-148.8729112041012
 30
0.0
 10
88.11555173578361
 20
-148.8729112041012
 30
0.0
 10
88.11555173578361
 20
-148.8729112041012
 30
0.0
 10
88.11555173578361
 20
-148.8729112041012
 30
0.0
 10
88.05009492156387
 20
-149.2959689296899
 30
0.0
 10
88.05009492156387
 20
-149.2959689296899
 30
0.0
 10
88.11141762120131
 20
-149.2622069939345
 30
0.0
 10
88.19392765807305
 20
-149.2222438863056
 30
0.0
 10
88.31226668799138
 20
-149.2222438863056
 30
0.0
 10
88.5661702252543
 20
-149.2222438863056
 30
0.0
 10
88.80319279463949
 20
-149.408279042509
 30
0.0
 10
88.80319279463949
 20
-149.7210937125697
 30
0.0
 10
88.80319279463949
 20
-150.0387315163098
 30
0.0
 10
88.57891707854972
 20
-150.2736870284038
 30
0.0
 10
88.27643769494479
 20
-150.2736870284038
 30
0.0
  0
HATCH
  5
51
330
4A
100
AcDbEntity
  8
_U+30EC_U+30A4_U+30E4_U+30FC 1
 62
     7
420
 16777215
100
AcDbHatch
 10
0.0
 20
0.0
 30
0.0
210
0.0
220
0.0
230
1.0
  2
SOLID
 70
     1
 71
     0
 91
        1
 92
        1
 93
        1
 72
     4
 94
        3
 73
     0
 74
     1
 95
       53
 96
       49
 40
0.0
 40
0.0
 40
0.0
 40
0.0
 40
1.0
 40
1.0
 40
1.0
 40
2.0
 40
2.0
 40
2.0
 40
3.0
 40
3.0
 40
3.0
 40
4.0
 40
4.0
 40
4.0
 40
5.0
 40
5.0
 40
5.0
 40
6.0
 40
6.0
 40
6.0
 40
7.0
 40
7.0
 40
7.0
 40
8.0
 40
8.0
 40
8.0
 40
9.0
 40
9.0
 40
9.0
 40
10.0
 40
10.0
 40
10.0
 40
11.0
 40
11.0
 40
11.0
 40
12.0
 40
12.0
 40
12.0
 40
13.0
 40
13.0
 40
13.0
 40
14.0
 40
14.0
 40
14.0
 40
15.0
 40
15.0
 40
15.0
 40
16.0
 40
16.0
 40
16.0
 40
16.0
 10
88.27643769494479
 20
-150.2736870284038
 10
88.19806177265535
 20
-150.2736870284038
 10
88.09660371061474
 20
-150.2564615509775
 10
87.99497339379987
 20
-150.193071794049
 10
87.82151283611755
 20
-150.082828738521
 10
87.80032549888325
 20
-149.9519151100815
 10
87.78137747371439
 20
-149.8440836213931
 10
87.78137747371439
 20
-149.8440836213931
 10
88.00341387773874
 20
-149.8440836213931
 10
88.00341387773874
 20
-149.8440836213931
 10
88.05853540550274
 20
-150.0428656308921
 10
88.18548717413418
 20
-150.0724934520652
 10
88.27850475223593
 20
-150.0724934520652
 10
88.41820337416281
 20
-150.0724934520652
 10
88.57047659461085
 20
-149.97327470209
 10
88.57047659461085
 20
-149.7403862472871
 10
88.57047659461085
 20
-149.4844156527331
 10
88.39064261028082
 20
-149.4144802143825
 10
88.27006426829708
 20
-149.4144802143825
 10
88.23836938983277
 20
-149.4144802143825
 10
88.09660371061474
 20
-149.4144802143825
 10
88.00772024709529
 20
-149.5436712950794
 10
88.00772024709529
 20
-149.5436712950794
 10
87.83219263212182
 20
-149.5247232699105
 10
87.83219263212182
 20
-149.5247232699105
 10
87.83219263212182
 20
-149.5247232699105
 10
87.95277097410556
 20
-148.6786078187331
 10
87.95277097410556
 20
-148.6786078187331
 10
87.95277097410556
 20
-148.6786078187331
 10
88.73119029899776
 20
-148.6786078187331
 10
88.73119029899776
 20
-148.6786078187331
 10
88.73119029899776
 20
-148.6786078187331
 10
88.73119029899776
 20
-148.8729112041012
 10
88.73119029899776
 20
-148.8729112041012
 10
88.73119029899776
 20
-148.8729112041012
 10
88.11555173578361
 20
-148.8729112041012
 10
88.11555173578361
 20
-148.8729112041012
 10
88.11555173578361
 20
-148.8729112041012
 10
88.05009492156387
 20
-149.2959689296899
 10
88.05009492156387
 20
-149.2959689296899
 10
88.11141762120131
 20
-149.2622069939345
 10
88.19392765807305
 20
-149.2222438863056
 10
88.31226668799138
 20
-149.2222438863056
 10
88.5661702252543
 20
-149.2222438863056
 10
88.80319279463949
 20
-149.408279042509
 10
88.80319279463949
 20
-149.7210937125697
 10
88.80319279463949
 20
-150.0387315163098
 10
88.57891707854972
 20
-150.2736870284038
 10
88.27643769494479
 20
-150.2736870284038
 97
        0
 97
        0
 75
     2
 76
     1
 98
        0
  0
ENDBLK
  5
4D
330
4A
100
AcDbEntity
  8
0
100
AcDbBlockEnd
  0
BLOCK
  5
54
330
52
100
AcDbEntity
  8
0
100
AcDbBlockBegin
  2
block 4
 70
     0
 10
0.0
 20
0.0
 30
0.0
  3
block 4
  1

  0
POLYLINE
  5
56
330
52
100
AcDbEntity
  8
_U+30EC_U+30A4_U+30E4_U+30FC 1
 62
     7
420
 16777215
370
     9
100
AcDb2dPolyline
 66
     1
 10
0.0
 20
0.0
 30
0.0
  0
VERTEX
  5
57
330
56
100
AcDbEntity
  8
_U+30EC_U+30A4_U+30E4_U+30FC 1
 62
     7
420
 16777215
370
     9
100
AcDbVertex
100
AcDb2dVertex
 10
80.13396406672337
 20
-152.9050366284404
 30
0.0
  0
VERTEX
  5
58
330
56
100
AcDbEntity
  8
_U+30EC_U+30A4_U+30E4_U+30FC 1
 62
     7
420
 16777215
370
     9
100
AcDbVertex
100
AcDb2dVertex
 10
80.13396406672337
 20
-149.922300518075
 30
0.0
  0
SEQEND
  5
59
330
56
100
AcDbEntity
  8
_U+30EC_U+30A4_U+30E4_U+30FC 1
 62
     7
420
 16777215
370
     9
  0
ENDBLK
  5
55
330
52
100
AcDbEntity
  8
0
100
AcDbBlockEnd
  0
BLOCK
  5
5C
330
5A
100
AcDbEntity
  8
0
100
AcDbBlockBegin
  2
block 5
 70
     0
 10
0.0
 20
0.0
 30
0.0
  3
block 5
  1

  0
SPLINE
  5
5E
330
5A
100
AcDbEntity
  8
_U+30EC_U+30A4_U+30E4_U+30FC 1
370
     0
100
AcDbSpline
210
0.0
220
0.0
230
1.0
 70
    11
 71
     3
 72
    26
 73
    22
 74
     0
 42
0.0000000001
 43
0.0000000001
 12
1.0
 22
0.0
 32
0.0
 13
1.0
 23
0.0
 33
0.0
 40
0.0
 40
0.0
 40
0.0
 40
0.0
 40
1.0
 40
1.0
 40
1.0
 40
2.0
 40
2.0
 40
2.0
 40
3.0
 40
3.0
 40
3.0
 40
4.0
 40
4.0
 40
4.0
 40
5.0
 40
5.0
 40
5.0
 40
6.0
 40
6.0
 40
6.0
 40
7.0
 40
7.0
 40
7.0
 40
7.0
 10
74.4355943281793
 20
-150.2226996152221
 30
0.0
 10
74.4355943281793
 20
-150.2226996152221
 30
0.0
 10
74.4355943281793
 20
-149.118202002651
 30
0.0
 10
74.4355943281793
 20
-149.118202002651
 30
0.0
 10
74.4355943281793
 20
-149.118202002651
 30
0.0
 10
74.10555418069237
 20
-149.118202002651
 30
0.0
 10
74.10555418069237
 20
-149.118202002651
 30
0.0
 10
74.10555418069237
 20
-149.118202002651
 30
0.0
 10
74.10555418069237
 20
-148.9704074063338
 30
0.0
 10
74.10555418069237
 20
-148.9704074063338
 30
0.0
 10
74.43766138547045
 20
-148.9555934957472
 30
0.0
 10
74.48417017452132
 20
-148.7926404792949
 30
0.0
 10
74.51379799569447
 20
-148.6786078187331
 30
0.0
 10
74.51379799569447
 20
-148.6786078187331
 30
0.0
 10
74.65987004426907
 20
-148.6786078187331
 30
0.0
 10
74.65987004426907
 20
-148.6786078187331
 30
0.0
 10
74.65987004426907
 20
-148.6786078187331
 30
0.0
 10
74.65987004426907
 20
-150.2226996152221
 30
0.0
 10
74.65987004426907
 20
-150.2226996152221
 30
0.0
 10
74.65987004426907
 20
-150.2226996152221
 30
0.0
 10
74.4355943281793
 20
-150.2226996152221
 30
0.0
 10
74.4355943281793
 20
-150.2226996152221
 30
0.0
  0
HATCH
  5
5F
330
5A
100
AcDbEntity
  8
_U+30EC_U+30A4_U+30E4_U+30FC 1
 62
     7
420
 16777215
100
AcDbHatch
 10
0.0
 20
0.0
 30
0.0
210
0.0
220
0.0
230
1.0
  2
SOLID
 70
     1
 71
     0
 91
        1
 92
        1
 93
        1
 72
     4
 94
        3
 73
     0
 74
     1
 95
       26
 96
       22
 40
0.0
 40
0.0
 40
0.0
 40
0.0
 40
1.0
 40
1.0
 40
1.0
 40
2.0
 40
2.0
 40
2.0
 40
3.0
 40
3.0
 40
3.0
 40
4.0
 40
4.0
 40
4.0
 40
5.0
 40
5.0
 40
5.0
 40
6.0
 40
6.0
 40
6.0
 40
7.0
 40
7.0
 40
7.0
 40
7.0
 10
74.4355943281793
 20
-150.2226996152221
 10
74.4355943281793
 20
-150.2226996152221
 10
74.4355943281793
 20
-149.118202002651
 10
74.4355943281793
 20
-149.118202002651
 10
74.4355943281793
 20
-149.118202002651
 10
74.10555418069237
 20
-149.118202002651
 10
74.10555418069237
 20
-149.118202002651
 10
74.10555418069237
 20
-149.118202002651
 10
74.10555418069237
 20
-148.9704074063338
 10
74.10555418069237
 20
-148.9704074063338
 10
74.43766138547045
 20
-148.9555934957472
 10
74.48417017452132
 20
-148.7926404792949
 10
74.51379799569447
 20
-148.6786078187331
 10
74.51379799569447
 20
-148.6786078187331
 10
74.65987004426907
 20
-148.6786078187331
 10
74.65987004426907
 20
-148.6786078187331
 10
74.65987004426907
 20
-148.6786078187331
 10
74.65987004426907
 20
-150.2226996152221
 10
74.65987004426907
 20
-150.2226996152221
 10
74.65987004426907
 20
-150.2226996152221
 10
74.4355943281793
 20
-150.2226996152221
 10
74.4355943281793
 20
-150.2226996152221
 97
        0
 97
        0
 75
     2
 76
     1
 98
        0
  0
SPLINE
  5
60
330
5A
100
AcDbEntity
  8
_U+30EC_U+30A4_U+30E4_U+30FC 1
370
     0
100
AcDbSpline
210
0.0
220
0.0
230
1.0
 70
    11
 71
     3
 72
    29
 73
    25
 74
     0
 42
0.0000000001
 43
0.0000000001
 12
1.0
 22
0.0
 32
0.0
 13
1.0
 23
0.0
 33
0.0
 40
0.0
 40
0.0
 40
0.0
 40
0.0
 40
1.0
 40
1.0
 40
1.0
 40
2.0
 40
2.0
 40
2.0
 40
3.0
 40
3.0
 40
3.0
 40
4.0
 40
4.0
 40
4.0
 40
5.0
 40
5.0
 40
5.0
 40
6.0
 40
6.0
 40
6.0
 40
7.0
 40
7.0
 40
7.0
 40
8.0
 40
8.0
 40
8.0
 40
8.0
 10
76.05875106605475
 20
-150.0449326881832
 30
0.0
 10
75.95091957736643
 20
-150.2543944936864
 30
0.0
 10
75.77745901968412
 20
-150.2736870284038
 30
0.0
 10
75.66101479228267
 20
-150.2736870284038
 30
0.0
 10
75.50030108789576
 20
-150.2736870284038
 30
0.0
 10
75.35853540867772
 20
-150.2268337298044
 30
0.0
 10
75.26327851851057
 20
-150.0449326881832
 30
0.0
 10
75.15975339917881
 20
-149.8502847932666
 30
0.0
 10
75.14063311923567
 20
-149.6136067334299
 30
0.0
 10
75.14063311923567
 20
-149.4503092074291
 30
0.0
 10
75.14063311923567
 20
-149.3066487256942
 30
0.0
 10
75.1575140871134
 20
-149.0548122457224
 30
0.0
 10
75.26327851851057
 20
-148.8560302362235
 30
0.0
 10
75.37128226197315
 20
-148.6531141121423
 30
0.0
 10
75.53199596636006
 20
-148.6296874628426
 30
0.0
 10
75.66101479228267
 20
-148.6296874628426
 30
0.0
 10
75.81966143937842
 20
-148.6296874628426
 30
0.0
 10
75.9634941758876
 20
-148.6741291946023
 30
0.0
 10
76.05875106605475
 20
-148.8560302362235
 30
0.0
 10
76.15814207080422
 20
-149.048611073849
 30
0.0
 10
76.18139646532966
 20
-149.277020904521
 30
0.0
 10
76.18139646532966
 20
-149.4503092074291
 30
0.0
 10
76.18139646532966
 20
-149.6218749625945
 30
0.0
 10
76.16038138286963
 20
-149.8526963601063
 30
0.0
 10
76.05875106605475
 20
-150.0449326881832
 30
0.0
  0
SPLINE
  5
61
330
5A
100
AcDbEntity
  8
_U+30EC_U+30A4_U+30E4_U+30FC 1
370
     0
100
AcDbSpline
210
0.0
220
0.0
230
1.0
 70
    11
 71
     3
 72
    17
 73
    13
 74
     0
 42
0.0000000001
 43
0.0000000001
 12
1.0
 22
0.0
 32
0.0
 13
1.0
 23
0.0
 33
0.0
 40
0.0
 40
0.0
 40
0.0
 40
0.0
 40
1.0
 40
1.0
 40
1.0
 40
2.0
 40
2.0
 40
2.0
 40
3.0
 40
3.0
 40
3.0
 40
4.0
 40
4.0
 40
4.0
 40
4.0
 10
75.66101479228267
 20
-148.822268300468
 30
0.0
 10
75.41141762437631
 20
-148.822268300468
 30
0.0
 10
75.36490883532544
 20
-149.1057996589041
 30
0.0
 10
75.36490883532544
 20
-149.4503092074291
 30
0.0
 10
75.36490883532544
 20
-149.7700140684603
 30
0.0
 10
75.4009100831463
 20
-150.0786946239387
 30
0.0
 10
75.66101479228267
 20
-150.0786946239387
 30
0.0
 10
75.90854490289787
 20
-150.0786946239387
 30
0.0
 10
75.95729300401415
 20
-149.7975748323423
 30
0.0
 10
75.95729300401415
 20
-149.4503092074291
 30
0.0
 10
75.95729300401415
 20
-149.131293365495
 30
0.0
 10
75.91905244412789
 20
-148.822268300468
 30
0.0
 10
75.66101479228267
 20
-148.822268300468
 30
0.0
  0
HATCH
  5
62
330
5A
100
AcDbEntity
  8
_U+30EC_U+30A4_U+30E4_U+30FC 1
 62
     7
420
 16777215
100
AcDbHatch
 10
0.0
 20
0.0
 30
0.0
210
0.0
220
0.0
230
1.0
  2
SOLID
 70
     1
 71
     0
 91
        2
 92
        1
 93
        1
 72
     4
 94
        3
 73
     0
 74
     1
 95
       29
 96
       25
 40
0.0
 40
0.0
 40
0.0
 40
0.0
 40
1.0
 40
1.0
 40
1.0
 40
2.0
 40
2.0
 40
2.0
 40
3.0
 40
3.0
 40
3.0
 40
4.0
 40
4.0
 40
4.0
 40
5.0
 40
5.0
 40
5.0
 40
6.0
 40
6.0
 40
6.0
 40
7.0
 40
7.0
 40
7.0
 40
8.0
 40
8.0
 40
8.0
 40
8.0
 10
76.05875106605475
 20
-150.0449326881832
 10
75.95091957736643
 20
-150.2543944936864
 10
75.77745901968412
 20
-150.2736870284038
 10
75.66101479228267
 20
-150.2736870284038
 10
75.50030108789576
 20
-150.2736870284038
 10
75.35853540867772
 20
-150.2268337298044
 10
75.26327851851057
 20
-150.0449326881832
 10
75.15975339917881
 20
-149.8502847932666
 10
75.14063311923567
 20
-149.6136067334299
 10
75.14063311923567
 20
-149.4503092074291
 10
75.14063311923567
 20
-149.3066487256942
 10
75.1575140871134
 20
-149.0548122457224
 10
75.26327851851057
 20
-148.8560302362235
 10
75.37128226197315
 20
-148.6531141121423
 10
75.53199596636006
 20
-148.6296874628426
 10
75.66101479228267
 20
-148.6296874628426
 10
75.81966143937842
 20
-148.6296874628426
 10
75.9634941758876
 20
-148.6741291946023
 10
76.05875106605475
 20
-148.8560302362235
 10
76.15814207080422
 20
-149.048611073849
 10
76.18139646532966
 20
-149.277020904521
 10
76.18139646532966
 20
-149.4503092074291
 10
76.18139646532966
 20
-149.6218749625945
 10
76.16038138286963
 20
-149.8526963601063
 10
76.05875106605475
 20
-150.0449326881832
 97
        0
 97
        0
 92
        1
 93
        1
 72
     4
 94
        3
 73
     0
 74
     1
 95
       17
 96
       13
 40
0.0
 40
0.0
 40
0.0
 40
0.0
 40
1.0
 40
1.0
 40
1.0
 40
2.0
 40
2.0
 40
2.0
 40
3.0
 40
3.0
 40
3.0
 40
4.0
 40
4.0
 40
4.0
 40
4.0
 10
75.66101479228267
 20
-148.822268300468
 10
75.41141762437631
 20
-148.822268300468
 10
75.36490883532544
 20
-149.1057996589041
 10
75.36490883532544
 20
-149.4503092074291
 10
75.36490883532544
 20
-149.7700140684603
 10
75.4009100831463
 20
-150.0786946239387
 10
75.66101479228267
 20
-150.0786946239387
 10
75.90854490289787
 20
-150.0786946239387
 10
75.95729300401415
 20
-149.7975748323423
 10
75.95729300401415
 20
-149.4503092074291
 10
75.95729300401415
 20
-149.131293365495
 10
75.91905244412789
 20
-148.822268300468
 10
75.66101479228267
 20
-148.822268300468
 97
        0
 97
        0
 75
     2
 76
     1
 98
        0
  0
ENDBLK
  5
5D
330
5A
100
AcDbEntity
  8
0
100
AcDbBlockEnd
  0
BLOCK
  5
65
330
63
100
AcDbEntity
  8
0
100
AcDbBlockBegin
  2
block 6
 70
     0
 10
0.0
 20
0.0
 30
0.0
  3
block 6
  1

  0
POLYLINE
  5
67
330
63
100
AcDbEntity
  8
_U+30EC_U+30A4_U+30E4_U+30FC 1
 62
     7
420
 16777215
370
     9
100
AcDb2dPolyline
 66
     1
 10
0.0
 20
0.0
 30
0.0
  0
VERTEX
  5
68
330
67
100
AcDbEntity
  8
_U+30EC_U+30A4_U+30E4_U+30FC 1
 62
     7
420
 16777215
370
     9
100
AcDbVertex
100
AcDb2dVertex
 10
66.11277636887812
 20
-121.5550160807225
 30
0.0
  0
VERTEX
  5
69
330
67
100
AcDbEntity
  8
_U+30EC_U+30A4_U+30E4_U+30FC 1
 62
     7
420
 16777215
370
     9
100
AcDbVertex
100
AcDb2dVertex
 10
66.11277636887812
 20
-103.8677260851443
 30
0.0
  0
SEQEND
  5
6A
330
67
100
AcDbEntity
  8
_U+30EC_U+30A4_U+30E4_U+30FC 1
 62
     7
420
 16777215
370
     9
  0
POLYLINE
  5
6B
330
63
100
AcDbEntity
  8
_U+30EC_U+30A4_U+30E4_U+30FC 1
 62
     7
420
 16777215
370
     9
100
AcDb2dPolyline
 66
     1
 10
0.0
 20
0.0
 30
0.0
  0
VERTEX
  5
6C
330
6B
100
AcDbEntity
  8
_U+30EC_U+30A4_U+30E4_U+30FC 1
 62
     7
420
 16777215
370
     9
100
AcDbVertex
100
AcDb2dVertex
 10
66.11277636887812
 20
-146.7403860744261
 30
0.0
  0
VERTEX
  5
6D
330
6B
100
AcDbEntity
  8
_U+30EC_U+30A4_U+30E4_U+30FC 1
 62
     7
420
 16777215
370
     9
100
AcDbVertex
100
AcDb2dVertex
 10
66.11277636887812
 20
-121.5550160807225
 30
0.0
  0
SEQEND
  5
6E
330
6B
100
AcDbEntity
  8
_U+30EC_U+30A4_U+30E4_U+30FC 1
 62
     7
420
 16777215
370
     9
  0
POLYLINE
  5
6F
330
63
100
AcDbEntity
  8
_U+30EC_U+30A4_U+30E4_U+30FC 1
 62
     7
420
 16777215
370
     9
100
AcDb2dPolyline
 66
     1
 10
0.0
 20
0.0
 30
0.0
  0
VERTEX
  5
70
330
6F
100
AcDbEntity
  8
_U+30EC_U+30A4_U+30E4_U+30FC 1
 62
     7
420
 16777215
370
     9
100
AcDbVertex
100
AcDb2dVertex
 10
76.63373832268823
 20
-146.702497741102
 30
0.0
  0
VERTEX
  5
71
330
6F
100
AcDbEntity
  8
_U+30EC_U+30A4_U+30E4_U+30FC 1
 62
     7
420
 16777215
370
     9
100
AcDbVertex
100
AcDb2dVertex
 10
64.640317239777
 20
-146.702497741102
 30
0.0
  0
SEQEND
  5
72
330
6F
100
AcDbEntity
  8
_U+30EC_U+30A4_U+30E4_U+30FC 1
 62
     7
420
 16777215
370
     9
  0
POLYLINE
  5
73
330
63
100
AcDbEntity
  8
_U+30EC_U+30A4_U+30E4_U+30FC 1
 62
     7
420
 16777215
370
     9
100
AcDb2dPolyline
 66
     1
 10
0.0
 20
0.0
 30
0.0
  0
VERTEX
  5
74
330
73
100
AcDbEntity
  8
_U+30EC_U+30A4_U+30E4_U+30FC 1
 62
     7
420
 16777215
370
     9
100
AcDbVertex
100
AcDb2dVertex
 10
69.52339655964371
 20
-121.7055816362402
 30
0.0
  0
VERTEX
  5
75
330
73
100
AcDbEntity
  8
_U+30EC_U+30A4_U+30E4_U+30FC 1
 62
     7
420
 16777215
370
     9
100
AcDbVertex
100
AcDb2dVertex
 10
64.51836196511057
 20
-121.7055816362402
 30
0.0
  0
SEQEND
  5
76
330
73
100
AcDbEntity
  8
_U+30EC_U+30A4_U+30E4_U+30FC 1
 62
     7
420
 16777215
370
     9
  0
POLYLINE
  5
77
330
63
100
AcDbEntity
  8
_U+30EC_U+30A4_U+30E4_U+30FC 1
 62
     7
420
 16777215
370
     9
100
AcDb2dPolyline
 66
     1
 10
0.0
 20
0.0
 30
0.0
  0
VERTEX
  5
78
330
77
100
AcDbEntity
  8
_U+30EC_U+30A4_U+30E4_U+30FC 1
 62
     7
420
 16777215
370
     9
100
AcDbVertex
100
AcDb2dVertex
 10
81.98361318620155
 20
-103.7054835851849
 30
0.0
  0
VERTEX
  5
79
330
77
100
AcDbEntity
  8
_U+30EC_U+30A4_U+30E4_U+30FC 1
 62
     7
420
 16777215
370
     9
100
AcDbVertex
100
AcDb2dVertex
 10
64.51871474287934
 20
-103.7054835851849
 30
0.0
  0
SEQEND
  5
7A
330
77
100
AcDbEntity
  8
_U+30EC_U+30A4_U+30E4_U+30FC 1
 62
     7
420
 16777215
370
     9
  0
ENDBLK
  5
66
330
63
100
AcDbEntity
  8
0
100
AcDbBlockEnd
  0
BLOCK
  5
7D
330
7B
100
AcDbEntity
  8
0
100
AcDbBlockBegin
  2
block 7
 70
     0
 10
0.0
 20
0.0
 30
0.0
  3
block 7
  1

  0
SPLINE
  5
7F
330
7B
100
AcDbEntity
  8
_U+30EC_U+30A4_U+30E4_U+30FC 1
370
     0
100
AcDbSpline
210
0.0
220
0.0
230
1.0
 70
    11
 71
     3
 72
    44
 73
    40
 74
     0
 42
0.0000000001
 43
0.0000000001
 12
1.0
 22
0.0
 32
0.0
 13
1.0
 23
0.0
 33
0.0
 40
0.0
 40
0.0
 40
0.0
 40
0.0
 40
1.0
 40
1.0
 40
1.0
 40
2.0
 40
2.0
 40
2.0
 40
3.0
 40
3.0
 40
3.0
 40
4.0
 40
4.0
 40
4.0
 40
5.0
 40
5.0
 40
5.0
 40
6.0
 40
6.0
 40
6.0
 40
7.0
 40
7.0
 40
7.0
 40
8.0
 40
8.0
 40
8.0
 40
9.0
 40
9.0
 40
9.0
 40
10.0
 40
10.0
 40
10.0
 40
11.0
 40
11.0
 40
11.0
 40
12.0
 40
12.0
 40
12.0
 40
13.0
 40
13.0
 40
13.0
 40
13.0
 10
64.78881020515696
 20
-134.3952419368873
 30
0.0
 10
64.94745685225273
 20
-134.6129719715551
 30
0.0
 10
65.0215264051856
 20
-134.7059895496568
 30
0.0
 10
65.16535914169478
 20
-134.7549099055474
 30
0.0
 10
65.16535914169478
 20
-134.7549099055474
 30
0.0
 10
65.16535914169478
 20
-133.9763183258809
 30
0.0
 10
65.16535914169478
 20
-133.9763183258809
 30
0.0
 10
65.16535914169478
 20
-133.9763183258809
 30
0.0
 10
65.3705145778414
 20
-133.9763183258809
 30
0.0
 10
65.3705145778414
 20
-133.9763183258809
 30
0.0
 10
65.3705145778414
 20
-133.9763183258809
 30
0.0
 10
65.3705145778414
 20
-135.0043348186795
 30
0.0
 10
65.3705145778414
 20
-135.0043348186795
 30
0.0
 10
65.01291366647247
 20
-134.9726399402152
 30
0.0
 10
64.9347099989573
 20
-134.9071831259954
 30
0.0
 10
64.63636472993466
 20
-134.5220214507445
 30
0.0
 10
64.43758272043574
 20
-134.2660508561904
 30
0.0
 10
64.36988659415059
 20
-134.2005940419707
 30
0.0
 10
64.23242728428912
 20
-134.2005940419707
 30
0.0
 10
64.11391599959653
 20
-134.2005940419707
 30
0.0
 10
63.98283011638276
 20
-134.2725965376124
 30
0.0
 10
63.98283011638276
 20
-134.4689669802717
 30
0.0
 10
63.98283011638276
 20
-134.7294161989565
 30
0.0
 10
64.21330700434598
 20
-134.7376844281211
 30
0.0
 10
64.32975123174742
 20
-134.742163052252
 30
0.0
 10
64.32975123174742
 20
-134.742163052252
 30
0.0
 10
64.32975123174742
 20
-134.9664387683417
 30
0.0
 10
64.32975123174742
 20
-134.9664387683417
 30
0.0
 10
64.20279946311597
 20
-134.9578260296286
 30
0.0
 10
64.09066160507109
 20
-134.9471462336243
 30
0.0
 10
63.9721503203785
 20
-134.866875508818
 30
0.0
 10
63.81143661599159
 20
-134.7569769628385
 30
0.0
 10
63.77750242546188
 20
-134.5709418066351
 30
0.0
 10
63.77750242546188
 20
-134.4544975792336
 30
0.0
 10
63.77750242546188
 20
-134.177167392671
 30
0.0
 10
63.96164277914848
 20
-133.9701171540075
 30
0.0
 10
64.23449434158027
 20
-133.9701171540075
 30
0.0
 10
64.46290417225234
 20
-133.9701171540075
 30
0.0
 10
64.56246743177606
 20
-134.0862168718604
 30
0.0
 10
64.78881020515696
 20
-134.3952419368873
 30
0.0
  0
HATCH
  5
80
330
7B
100
AcDbEntity
  8
_U+30EC_U+30A4_U+30E4_U+30FC 1
 62
     7
420
 16777215
100
AcDbHatch
 10
0.0
 20
0.0
 30
0.0
210
0.0
220
0.0
230
1.0
  2
SOLID
 70
     1
 71
     0
 91
        1
 92
        1
 93
        1
 72
     4
 94
        3
 73
     0
 74
     1
 95
       44
 96
       40
 40
0.0
 40
0.0
 40
0.0
 40
0.0
 40
1.0
 40
1.0
 40
1.0
 40
2.0
 40
2.0
 40
2.0
 40
3.0
 40
3.0
 40
3.0
 40
4.0
 40
4.0
 40
4.0
 40
5.0
 40
5.0
 40
5.0
 40
6.0
 40
6.0
 40
6.0
 40
7.0
 40
7.0
 40
7.0
 40
8.0
 40
8.0
 40
8.0
 40
9.0
 40
9.0
 40
9.0
 40
10.0
 40
10.0
 40
10.0
 40
11.0
 40
11.0
 40
11.0
 40
12.0
 40
12.0
 40
12.0
 40
13.0
 40
13.0
 40
13.0
 40
13.0
 10
64.78881020515696
 20
-134.3952419368873
 10
64.94745685225273
 20
-134.6129719715551
 10
65.0215264051856
 20
-134.7059895496568
 10
65.16535914169478
 20
-134.7549099055474
 10
65.16535914169478
 20
-134.7549099055474
 10
65.16535914169478
 20
-133.9763183258809
 10
65.16535914169478
 20
-133.9763183258809
 10
65.16535914169478
 20
-133.9763183258809
 10
65.3705145778414
 20
-133.9763183258809
 10
65.3705145778414
 20
-133.9763183258809
 10
65.3705145778414
 20
-133.9763183258809
 10
65.3705145778414
 20
-135.0043348186795
 10
65.3705145778414
 20
-135.0043348186795
 10
65.01291366647247
 20
-134.9726399402152
 10
64.9347099989573
 20
-134.9071831259954
 10
64.63636472993466
 20
-134.5220214507445
 10
64.43758272043574
 20
-134.2660508561904
 10
64.36988659415059
 20
-134.2005940419707
 10
64.23242728428912
 20
-134.2005940419707
 10
64.11391599959653
 20
-134.2005940419707
 10
63.98283011638276
 20
-134.2725965376124
 10
63.98283011638276
 20
-134.4689669802717
 10
63.98283011638276
 20
-134.7294161989565
 10
64.21330700434598
 20
-134.7376844281211
 10
64.32975123174742
 20
-134.742163052252
 10
64.32975123174742
 20
-134.742163052252
 10
64.32975123174742
 20
-134.9664387683417
 10
64.32975123174742
 20
-134.9664387683417
 10
64.20279946311597
 20
-134.9578260296286
 10
64.09066160507109
 20
-134.9471462336243
 10
63.9721503203785
 20
-134.866875508818
 10
63.81143661599159
 20
-134.7569769628385
 10
63.77750242546188
 20
-134.5709418066351
 10
63.77750242546188
 20
-134.4544975792336
 10
63.77750242546188
 20
-134.177167392671
 10
63.96164277914848
 20
-133.9701171540075
 10
64.23449434158027
 20
-133.9701171540075
 10
64.46290417225234
 20
-133.9701171540075
 10
64.56246743177606
 20
-134.0862168718604
 10
64.78881020515696
 20
-134.3952419368873
 97
        0
 97
        0
 75
     2
 76
     1
 98
        0
  0
SPLINE
  5
81
330
7B
100
AcDbEntity
  8
_U+30EC_U+30A4_U+30E4_U+30FC 1
370
     0
100
AcDbSpline
210
0.0
220
0.0
230
1.0
 70
    11
 71
     3
 72
    53
 73
    49
 74
     0
 42
0.0000000001
 43
0.0000000001
 12
1.0
 22
0.0
 32
0.0
 13
1.0
 23
0.0
 33
0.0
 40
0.0
 40
0.0
 40
0.0
 40
0.0
 40
1.0
 40
1.0
 40
1.0
 40
2.0
 40
2.0
 40
2.0
 40
3.0
 40
3.0
 40
3.0
 40
4.0
 40
4.0
 40
4.0
 40
5.0
 40
5.0
 40
5.0
 40
6.0
 40
6.0
 40
6.0
 40
7.0
 40
7.0
 40
7.0
 40
8.0
 40
8.0
 40
8.0
 40
9.0
 40
9.0
 40
9.0
 40
10.0
 40
10.0
 40
10.0
 40
11.0
 40
11.0
 40
11.0
 40
12.0
 40
12.0
 40
12.0
 40
13.0
 40
13.0
 40
13.0
 40
14.0
 40
14.0
 40
14.0
 40
15.0
 40
15.0
 40
15.0
 40
16.0
 40
16.0
 40
16.0
 40
16.0
 10
65.42132973624884
 20
-133.3303629223966
 30
0.0
 10
65.42132973624884
 20
-133.4085665899117
 30
0.0
 10
65.40427651359686
 20
-133.5101969067266
 30
0.0
 10
65.34088675666825
 20
-133.6118272235415
 30
0.0
 10
65.23081595591452
 20
-133.7854600359981
 30
0.0
 10
65.09973007270077
 20
-133.8064751184581
 30
0.0
 10
64.99189858401245
 20
-133.825423143627
 30
0.0
 10
64.99189858401245
 20
-133.825423143627
 30
0.0
 10
64.99189858401245
 20
-133.6035589943769
 30
0.0
 10
64.99189858401245
 20
-133.6035589943769
 30
0.0
 10
65.19068059351136
 20
-133.5484374666129
 30
0.0
 10
65.22030841468451
 20
-133.4213134432072
 30
0.0
 10
65.22030841468451
 20
-133.3282958651054
 30
0.0
 10
65.22030841468451
 20
-133.1887694979528
 30
0.0
 10
65.12091740993505
 20
-133.0364962775048
 30
0.0
 10
64.88820120990643
 20
-133.0364962775048
 30
0.0
 10
64.63223061535236
 20
-133.0364962775048
 30
0.0
 10
64.56246743177606
 20
-133.2163302618348
 30
0.0
 10
64.56246743177606
 20
-133.3369086038186
 30
0.0
 10
64.56246743177606
 20
-133.3686034822829
 30
0.0
 10
64.56246743177606
 20
-133.5101969067266
 30
0.0
 10
64.69148625769866
 20
-133.5990803702461
 30
0.0
 10
64.69148625769866
 20
-133.5990803702461
 30
0.0
 10
64.67236597775552
 20
-133.7744357304453
 30
0.0
 10
64.67236597775552
 20
-133.7744357304453
 30
0.0
 10
64.67236597775552
 20
-133.7744357304453
 30
0.0
 10
63.82625052657816
 20
-133.6538573884615
 30
0.0
 10
63.82625052657816
 20
-133.6538573884615
 30
0.0
 10
63.82625052657816
 20
-133.6538573884615
 30
0.0
 10
63.82625052657816
 20
-132.8756103183436
 30
0.0
 10
63.82625052657816
 20
-132.8756103183436
 30
0.0
 10
63.82625052657816
 20
-132.8756103183436
 30
0.0
 10
64.02089842149478
 20
-132.8756103183436
 30
0.0
 10
64.02089842149478
 20
-132.8756103183436
 30
0.0
 10
64.02089842149478
 20
-132.8756103183436
 30
0.0
 10
64.02089842149478
 20
-133.4912488815577
 30
0.0
 10
64.02089842149478
 20
-133.4912488815577
 30
0.0
 10
64.02089842149478
 20
-133.4912488815577
 30
0.0
 10
64.44395614708345
 20
-133.5567056957775
 30
0.0
 10
64.44395614708345
 20
-133.5567056957775
 30
0.0
 10
64.41002195655375
 20
-133.4953829961401
 30
0.0
 10
64.36988659415059
 20
-133.4127007044941
 30
0.0
 10
64.36988659415059
 20
-133.29453392935
 30
0.0
 10
64.36988659415059
 20
-133.0406303920871
 30
0.0
 10
64.55609400512834
 20
-132.8036078227019
 30
0.0
 10
64.86908092996329
 20
-132.8036078227019
 30
0.0
 10
65.18654647892906
 20
-132.8036078227019
 30
0.0
 10
65.42132973624884
 20
-133.0278835387917
 30
0.0
 10
65.42132973624884
 20
-133.3303629223966
 30
0.0
  0
HATCH
  5
82
330
7B
100
AcDbEntity
  8
_U+30EC_U+30A4_U+30E4_U+30FC 1
 62
     7
420
 16777215
100
AcDbHatch
 10
0.0
 20
0.0
 30
0.0
210
0.0
220
0.0
230
1.0
  2
SOLID
 70
     1
 71
     0
 91
        1
 92
        1
 93
        1
 72
     4
 94
        3
 73
     0
 74
     1
 95
       53
 96
       49
 40
0.0
 40
0.0
 40
0.0
 40
0.0
 40
1.0
 40
1.0
 40
1.0
 40
2.0
 40
2.0
 40
2.0
 40
3.0
 40
3.0
 40
3.0
 40
4.0
 40
4.0
 40
4.0
 40
5.0
 40
5.0
 40
5.0
 40
6.0
 40
6.0
 40
6.0
 40
7.0
 40
7.0
 40
7.0
 40
8.0
 40
8.0
 40
8.0
 40
9.0
 40
9.0
 40
9.0
 40
10.0
 40
10.0
 40
10.0
 40
11.0
 40
11.0
 40
11.0
 40
12.0
 40
12.0
 40
12.0
 40
13.0
 40
13.0
 40
13.0
 40
14.0
 40
14.0
 40
14.0
 40
15.0
 40
15.0
 40
15.0
 40
16.0
 40
16.0
 40
16.0
 40
16.0
 10
65.42132973624884
 20
-133.3303629223966
 10
65.42132973624884
 20
-133.4085665899117
 10
65.40427651359686
 20
-133.5101969067266
 10
65.34088675666825
 20
-133.6118272235415
 10
65.23081595591452
 20
-133.7854600359981
 10
65.09973007270077
 20
-133.8064751184581
 10
64.99189858401245
 20
-133.825423143627
 10
64.99189858401245
 20
-133.825423143627
 10
64.99189858401245
 20
-133.6035589943769
 10
64.99189858401245
 20
-133.6035589943769
 10
65.19068059351136
 20
-133.5484374666129
 10
65.22030841468451
 20
-133.4213134432072
 10
65.22030841468451
 20
-133.3282958651054
 10
65.22030841468451
 20
-133.1887694979528
 10
65.12091740993505
 20
-133.0364962775048
 10
64.88820120990643
 20
-133.0364962775048
 10
64.63223061535236
 20
-133.0364962775048
 10
64.56246743177606
 20
-133.2163302618348
 10
64.56246743177606
 20
-133.3369086038186
 10
64.56246743177606
 20
-133.3686034822829
 10
64.56246743177606
 20
-133.5101969067266
 10
64.69148625769866
 20
-133.5990803702461
 10
64.69148625769866
 20
-133.5990803702461
 10
64.67236597775552
 20
-133.7744357304453
 10
64.67236597775552
 20
-133.7744357304453
 10
64.67236597775552
 20
-133.7744357304453
 10
63.82625052657816
 20
-133.6538573884615
 10
63.82625052657816
 20
-133.6538573884615
 10
63.82625052657816
 20
-133.6538573884615
 10
63.82625052657816
 20
-132.8756103183436
 10
63.82625052657816
 20
-132.8756103183436
 10
63.82625052657816
 20
-132.8756103183436
 10
64.02089842149478
 20
-132.8756103183436
 10
64.02089842149478
 20
-132.8756103183436
 10
64.02089842149478
 20
-132.8756103183436
 10
64.02089842149478
 20
-133.4912488815577
 10
64.02089842149478
 20
-133.4912488815577
 10
64.02089842149478
 20
-133.4912488815577
 10
64.44395614708345
 20
-133.5567056957775
 10
64.44395614708345
 20
-133.5567056957775
 10
64.41002195655375
 20
-133.4953829961401
 10
64.36988659415059
 20
-133.4127007044941
 10
64.36988659415059
 20
-133.29453392935
 10
64.36988659415059
 20
-133.0406303920871
 10
64.55609400512834
 20
-132.8036078227019
 10
64.86908092996329
 20
-132.8036078227019
 10
65.18654647892906
 20
-132.8036078227019
 10
65.42132973624884
 20
-133.0278835387917
 10
65.42132973624884
 20
-133.3303629223966
 97
        0
 97
        0
 75
     2
 76
     1
 98
        0
  0
ENDBLK
  5
7E
330
7B
100
AcDbEntity
  8
0
100
AcDbBlockEnd
  0
BLOCK
  5
85
330
83
100
AcDbEntity
  8
0
100
AcDbBlockBegin
  2
block 8
 70
     0
 10
0.0
 20
0.0
 30
0.0
  3
block 8
  1

  0
SPLINE
  5
87
330
83
100
AcDbEntity
  8
_U+30EC_U+30A4_U+30E4_U+30FC 1
370
     0
100
AcDbSpline
210
0.0
220
0.0
230
1.0
 70
    11
 71
     3
 72
    26
 73
    22
 74
     0
 42
0.0000000001
 43
0.0000000001
 12
1.0
 22
0.0
 32
0.0
 13
1.0
 23
0.0
 33
0.0
 40
0.0
 40
0.0
 40
0.0
 40
0.0
 40
1.0
 40
1.0
 40
1.0
 40
2.0
 40
2.0
 40
2.0
 40
3.0
 40
3.0
 40
3.0
 40
4.0
 40
4.0
 40
4.0
 40
5.0
 40
5.0
 40
5.0
 40
6.0
 40
6.0
 40
6.0
 40
7.0
 40
7.0
 40
7.0
 40
7.0
 10
65.3705145778414
 20
-113.3426079360741
 30
0.0
 10
65.3705145778414
 20
-113.3426079360741
 30
0.0
 10
64.26618922004457
 20
-113.3426079360741
 30
0.0
 10
64.26618922004457
 20
-113.3426079360741
 30
0.0
 10
64.26618922004457
 20
-113.3426079360741
 30
0.0
 10
64.26618922004457
 20
-113.672648083561
 30
0.0
 10
64.26618922004457
 20
-113.672648083561
 30
0.0
 10
64.26618922004457
 20
-113.672648083561
 30
0.0
 10
64.11805011417883
 20
-113.672648083561
 30
0.0
 10
64.11805011417883
 20
-113.672648083561
 30
0.0
 10
64.10340845836652
 20
-113.3405408787829
 30
0.0
 10
63.9404554419142
 20
-113.2940320897321
 30
0.0
 10
63.82625052657816
 20
-113.2644042685589
 30
0.0
 10
63.82625052657816
 20
-113.2644042685589
 30
0.0
 10
63.82625052657816
 20
-113.1183322199843
 30
0.0
 10
63.82625052657816
 20
-113.1183322199843
 30
0.0
 10
63.82625052657816
 20
-113.1183322199843
 30
0.0
 10
65.3705145778414
 20
-113.1183322199843
 30
0.0
 10
65.3705145778414
 20
-113.1183322199843
 30
0.0
 10
65.3705145778414
 20
-113.1183322199843
 30
0.0
 10
65.3705145778414
 20
-113.3426079360741
 30
0.0
 10
65.3705145778414
 20
-113.3426079360741
 30
0.0
  0
HATCH
  5
88
330
83
100
AcDbEntity
  8
_U+30EC_U+30A4_U+30E4_U+30FC 1
 62
     7
420
 16777215
100
AcDbHatch
 10
0.0
 20
0.0
 30
0.0
210
0.0
220
0.0
230
1.0
  2
SOLID
 70
     1
 71
     0
 91
        1
 92
        1
 93
        1
 72
     4
 94
        3
 73
     0
 74
     1
 95
       26
 96
       22
 40
0.0
 40
0.0
 40
0.0
 40
0.0
 40
1.0
 40
1.0
 40
1.0
 40
2.0
 40
2.0
 40
2.0
 40
3.0
 40
3.0
 40
3.0
 40
4.0
 40
4.0
 40
4.0
 40
5.0
 40
5.0
 40
5.0
 40
6.0
 40
6.0
 40
6.0
 40
7.0
 40
7.0
 40
7.0
 40
7.0
 10
65.3705145778414
 20
-113.3426079360741
 10
65.3705145778414
 20
-113.3426079360741
 10
64.26618922004457
 20
-113.3426079360741
 10
64.26618922004457
 20
-113.3426079360741
 10
64.26618922004457
 20
-113.3426079360741
 10
64.26618922004457
 20
-113.672648083561
 10
64.26618922004457
 20
-113.672648083561
 10
64.26618922004457
 20
-113.672648083561
 10
64.11805011417883
 20
-113.672648083561
 10
64.11805011417883
 20
-113.672648083561
 10
64.10340845836652
 20
-113.3405408787829
 10
63.9404554419142
 20
-113.2940320897321
 10
63.82625052657816
 20
-113.2644042685589
 10
63.82625052657816
 20
-113.2644042685589
 10
63.82625052657816
 20
-113.1183322199843
 10
63.82625052657816
 20
-113.1183322199843
 10
63.82625052657816
 20
-113.1183322199843
 10
65.3705145778414
 20
-113.1183322199843
 10
65.3705145778414
 20
-113.1183322199843
 10
65.3705145778414
 20
-113.1183322199843
 10
65.3705145778414
 20
-113.3426079360741
 10
65.3705145778414
 20
-113.3426079360741
 97
        0
 97
        0
 75
     2
 76
     1
 98
        0
  0
SPLINE
  5
89
330
83
100
AcDbEntity
  8
_U+30EC_U+30A4_U+30E4_U+30FC 1
370
     0
100
AcDbSpline
210
0.0
220
0.0
230
1.0
 70
    11
 71
     3
 72
    29
 73
    25
 74
     0
 42
0.0000000001
 43
0.0000000001
 12
1.0
 22
0.0
 32
0.0
 13
1.0
 23
0.0
 33
0.0
 40
0.0
 40
0.0
 40
0.0
 40
0.0
 40
1.0
 40
1.0
 40
1.0
 40
2.0
 40
2.0
 40
2.0
 40
3.0
 40
3.0
 40
3.0
 40
4.0
 40
4.0
 40
4.0
 40
5.0
 40
5.0
 40
5.0
 40
6.0
 40
6.0
 40
6.0
 40
7.0
 40
7.0
 40
7.0
 40
8.0
 40
8.0
 40
8.0
 40
8.0
 10
65.42132973624884
 20
-112.1171874719707
 30
0.0
 10
65.42132973624884
 20
-112.3836656077548
 30
0.0
 10
65.28369817161311
 20
-112.6375691450177
 30
0.0
 10
64.9347099989573
 20
-112.6375691450177
 30
0.0
 10
64.67873940440323
 20
-112.6375691450177
 30
0.0
 10
64.58348251423608
 20
-112.4958034657997
 30
0.0
 10
64.52215981459862
 20
-112.3900390344025
 30
0.0
 10
64.46290417225234
 20
-112.5149237457428
 30
0.0
 10
64.3486992569163
 20
-112.5910603559668
 30
0.0
 10
64.1879855525294
 20
-112.5910603559668
 30
0.0
 10
63.9128946780322
 20
-112.5910603559668
 30
0.0
 10
63.77750242546188
 20
-112.3921060916936
 30
0.0
 10
63.77750242546188
 20
-112.1171874719707
 30
0.0
 10
63.77750242546188
 20
-111.8336561135346
 30
0.0
 10
63.92133516197106
 20
-111.6433145879746
 30
0.0
 10
64.1879855525294
 20
-111.6433145879746
 30
0.0
 10
64.3486992569163
 20
-111.6433145879746
 30
0.0
 10
64.46290417225234
 20
-111.7215182554898
 30
0.0
 10
64.52215981459862
 20
-111.8464029668301
 30
0.0
 10
64.57297497300607
 20
-111.7575195033106
 30
0.0
 10
64.66823186317322
 20
-111.5988728562149
 30
0.0
 10
64.93040362960073
 20
-111.5988728562149
 30
0.0
 10
65.30488550884739
 20
-111.5988728562149
 30
0.0
 10
65.42132973624884
 20
-111.8780978452944
 30
0.0
 10
65.42132973624884
 20
-112.1171874719707
 30
0.0
  0
SPLINE
  5
8A
330
83
100
AcDbEntity
  8
_U+30EC_U+30A4_U+30E4_U+30FC 1
370
     0
100
AcDbSpline
210
0.0
220
0.0
230
1.0
 70
    11
 71
     3
 72
    17
 73
    13
 74
     0
 42
0.0000000001
 43
0.0000000001
 12
1.0
 22
0.0
 32
0.0
 13
1.0
 23
0.0
 33
0.0
 40
0.0
 40
0.0
 40
0.0
 40
0.0
 40
1.0
 40
1.0
 40
1.0
 40
2.0
 40
2.0
 40
2.0
 40
3.0
 40
3.0
 40
3.0
 40
4.0
 40
4.0
 40
4.0
 40
4.0
 10
63.97008326308735
 20
-112.1171874719707
 30
0.0
 10
63.97008326308735
 20
-112.2822075457142
 30
0.0
 10
64.06516789848024
 20
-112.3667846398771
 30
0.0
 10
64.20056015105055
 20
-112.3667846398771
 30
0.0
 10
64.32337780509971
 20
-112.3667846398771
 30
0.0
 10
64.44188908979231
 20
-112.2947821442353
 30
0.0
 10
64.44188908979231
 20
-112.1171874719707
 30
0.0
 10
64.44188908979231
 20
-111.9394205449318
 30
0.0
 10
64.32337780509971
 20
-111.8675903040644
 30
0.0
 10
64.20056015105055
 20
-111.8675903040644
 30
0.0
 10
64.06516789848024
 20
-111.8675903040644
 30
0.0
 10
63.97008326308735
 20
-111.9542344555184
 30
0.0
 10
63.97008326308735
 20
-112.1171874719707
 30
0.0
  0
SPLINE
  5
8B
330
83
100
AcDbEntity
  8
_U+30EC_U+30A4_U+30E4_U+30FC 1
370
     0
100
AcDbSpline
210
0.0
220
0.0
230
1.0
 70
    11
 71
     3
 72
    17
 73
    13
 74
     0
 42
0.0000000001
 43
0.0000000001
 12
1.0
 22
0.0
 32
0.0
 13
1.0
 23
0.0
 33
0.0
 40
0.0
 40
0.0
 40
0.0
 40
0.0
 40
1.0
 40
1.0
 40
1.0
 40
2.0
 40
2.0
 40
2.0
 40
3.0
 40
3.0
 40
3.0
 40
4.0
 40
4.0
 40
4.0
 40
4.0
 10
64.63016355806121
 20
-112.1171874719707
 30
0.0
 10
64.63016355806121
 20
-112.2610202084799
 30
0.0
 10
64.71680770951525
 20
-112.4132934289279
 30
0.0
 10
64.91989608837072
 20
-112.4132934289279
 30
0.0
 10
65.12505152451735
 20
-112.4132934289279
 30
0.0
 10
65.22668184133222
 20
-112.2863416602965
 30
0.0
 10
65.22668184133222
 20
-112.1171874719707
 30
0.0
 10
65.22668184133222
 20
-111.930980060993
 30
0.0
 10
65.10403644205732
 20
-111.8209092602392
 30
0.0
 10
64.92626951501843
 20
-111.8209092602392
 30
0.0
 10
64.70406085621983
 20
-111.8209092602392
 30
0.0
 10
64.63016355806121
 20
-111.9838622766915
 30
0.0
 10
64.63016355806121
 20
-112.1171874719707
 30
0.0
  0
HATCH
  5
8C
330
83
100
AcDbEntity
  8
_U+30EC_U+30A4_U+30E4_U+30FC 1
 62
     7
420
 16777215
100
AcDbHatch
 10
0.0
 20
0.0
 30
0.0
210
0.0
220
0.0
230
1.0
  2
SOLID
 70
     1
 71
     0
 91
        3
 92
        1
 93
        1
 72
     4
 94
        3
 73
     0
 74
     1
 95
       29
 96
       25
 40
0.0
 40
0.0
 40
0.0
 40
0.0
 40
1.0
 40
1.0
 40
1.0
 40
2.0
 40
2.0
 40
2.0
 40
3.0
 40
3.0
 40
3.0
 40
4.0
 40
4.0
 40
4.0
 40
5.0
 40
5.0
 40
5.0
 40
6.0
 40
6.0
 40
6.0
 40
7.0
 40
7.0
 40
7.0
 40
8.0
 40
8.0
 40
8.0
 40
8.0
 10
65.42132973624884
 20
-112.1171874719707
 10
65.42132973624884
 20
-112.3836656077548
 10
65.28369817161311
 20
-112.6375691450177
 10
64.9347099989573
 20
-112.6375691450177
 10
64.67873940440323
 20
-112.6375691450177
 10
64.58348251423608
 20
-112.4958034657997
 10
64.52215981459862
 20
-112.3900390344025
 10
64.46290417225234
 20
-112.5149237457428
 10
64.3486992569163
 20
-112.5910603559668
 10
64.1879855525294
 20
-112.5910603559668
 10
63.9128946780322
 20
-112.5910603559668
 10
63.77750242546188
 20
-112.3921060916936
 10
63.77750242546188
 20
-112.1171874719707
 10
63.77750242546188
 20
-111.8336561135346
 10
63.92133516197106
 20
-111.6433145879746
 10
64.1879855525294
 20
-111.6433145879746
 10
64.3486992569163
 20
-111.6433145879746
 10
64.46290417225234
 20
-111.7215182554898
 10
64.52215981459862
 20
-111.8464029668301
 10
64.57297497300607
 20
-111.7575195033106
 10
64.66823186317322
 20
-111.5988728562149
 10
64.93040362960073
 20
-111.5988728562149
 10
65.30488550884739
 20
-111.5988728562149
 10
65.42132973624884
 20
-111.8780978452944
 10
65.42132973624884
 20
-112.1171874719707
 97
        0
 97
        0
 92
        1
 93
        1
 72
     4
 94
        3
 73
     0
 74
     1
 95
       17
 96
       13
 40
0.0
 40
0.0
 40
0.0
 40
0.0
 40
1.0
 40
1.0
 40
1.0
 40
2.0
 40
2.0
 40
2.0
 40
3.0
 40
3.0
 40
3.0
 40
4.0
 40
4.0
 40
4.0
 40
4.0
 10
63.97008326308735
 20
-112.1171874719707
 10
63.97008326308735
 20
-112.2822075457142
 10
64.06516789848024
 20
-112.3667846398771
 10
64.20056015105055
 20
-112.3667846398771
 10
64.32337780509971
 20
-112.3667846398771
 10
64.44188908979231
 20
-112.2947821442353
 10
64.44188908979231
 20
-112.1171874719707
 10
64.44188908979231
 20
-111.9394205449318
 10
64.32337780509971
 20
-111.8675903040644
 10
64.20056015105055
 20
-111.8675903040644
 10
64.06516789848024
 20
-111.8675903040644
 10
63.97008326308735
 20
-111.9542344555184
 10
63.97008326308735
 20
-112.1171874719707
 97
        0
 97
        0
 92
        1
 93
        1
 72
     4
 94
        3
 73
     0
 74
     1
 95
       17
 96
       13
 40
0.0
 40
0.0
 40
0.0
 40
0.0
 40
1.0
 40
1.0
 40
1.0
 40
2.0
 40
2.0
 40
2.0
 40
3.0
 40
3.0
 40
3.0
 40
4.0
 40
4.0
 40
4.0
 40
4.0
 10
64.63016355806121
 20
-112.1171874719707
 10
64.63016355806121
 20
-112.2610202084799
 10
64.71680770951525
 20
-112.4132934289279
 10
64.91989608837072
 20
-112.4132934289279
 10
65.12505152451735
 20
-112.4132934289279
 10
65.22668184133222
 20
-112.2863416602965
 10
65.22668184133222
 20
-112.1171874719707
 10
65.22668184133222
 20
-111.930980060993
 10
65.10403644205732
 20
-111.8209092602392
 10
64.92626951501843
 20
-111.8209092602392
 10
64.70406085621983
 20
-111.8209092602392
 10
64.63016355806121
 20
-111.9838622766915
 10
64.63016355806121
 20
-112.1171874719707
 97
        0
 97
        0
 75
     2
 76
     1
 98
        0
  0
ENDBLK
  5
86
330
83
100
AcDbEntity
  8
0
100
AcDbBlockEnd
  0
BLOCK
  5
8F
330
8D
100
AcDbEntity
  8
0
100
AcDbBlockBegin
  2
block 9
 70
     0
 10
0.0
 20
0.0
 30
0.0
  3
block 9
  1

  0
POLYLINE
  5
91
330
8D
100
AcDbEntity
  8
_U+30EC_U+30A4_U+30E4_U+30FC 1
 62
     7
420
 16777215
370
     9
100
AcDb2dPolyline
 66
     1
 10
0.0
 20
0.0
 30
0.0
  0
VERTEX
  5
92
330
91
100
AcDbEntity
  8
_U+30EC_U+30A4_U+30E4_U+30FC 1
 62
     7
420
 16777215
370
     9
100
AcDbVertex
100
AcDb2dVertex
 10
73.20964202115532
 20
-143.9205980195756
 30
0.0
  0
VERTEX
  5
93
330
91
100
AcDbEntity
  8
_U+30EC_U+30A4_U+30E4_U+30FC 1
 62
     7
420
 16777215
370
     9
100
AcDbVertex
100
AcDb2dVertex
 10
74.1126138703606
 20
-143.3986632974834
 30
0.0
  0
SEQEND
  5
94
330
91
100
AcDbEntity
  8
_U+30EC_U+30A4_U+30E4_U+30FC 1
 62
     7
420
 16777215
370
     9
  0
POLYLINE
  5
95
330
8D
100
AcDbEntity
  8
_U+30EC_U+30A4_U+30E4_U+30FC 1
 62
     7
420
 16777215
370
     9
100
AcDb2dPolyline
 66
     1
 10
0.0
 20
0.0
 30
0.0
  0
VERTEX
  5
96
330
95
100
AcDbEntity
  8
_U+30EC_U+30A4_U+30E4_U+30FC 1
 62
     7
420
 16777215
370
     9
100
AcDbVertex
100
AcDb2dVertex
 10
73.20964202115532
 20
-143.9205980195756
 30
0.0
  0
VERTEX
  5
97
330
95
100
AcDbEntity
  8
_U+30EC_U+30A4_U+30E4_U+30FC 1
 62
     7
420
 16777215
370
     9
100
AcDbVertex
100
AcDb2dVertex
 10
87.397234992533
 20
-129.2072599676979
 30
0.0
  0
SEQEND
  5
98
330
95
100
AcDbEntity
  8
_U+30EC_U+30A4_U+30E4_U+30FC 1
 62
     7
420
 16777215
370
     9
  0
POLYLINE
  5
99
330
8D
100
AcDbEntity
  8
_U+30EC_U+30A4_U+30E4_U+30FC 1
 62
     7
420
 16777215
370
     9
100
AcDb2dPolyline
 66
     1
 10
0.0
 20
0.0
 30
0.0
  0
VERTEX
  5
9A
330
99
100
AcDbEntity
  8
_U+30EC_U+30A4_U+30E4_U+30FC 1
 62
     7
420
 16777215
370
     9
100
AcDbVertex
100
AcDb2dVertex
 10
73.20964202115532
 20
-143.9205980195756
 30
0.0
  0
VERTEX
  5
9B
330
99
100
AcDbEntity
  8
_U+30EC_U+30A4_U+30E4_U+30FC 1
 62
     7
420
 16777215
370
     9
100
AcDbVertex
100
AcDb2dVertex
 10
73.73126109267844
 20
-143.0176280198012
 30
0.0
  0
SEQEND
  5
9C
330
99
100
AcDbEntity
  8
_U+30EC_U+30A4_U+30E4_U+30FC 1
 62
     7
420
 16777215
370
     9
  0
ENDBLK
  5
90
330
8D
100
AcDbEntity
  8
0
100
AcDbBlockEnd
  0
BLOCK
  5
9F
330
9D
100
AcDbEntity
  8
0
100
AcDbBlockBegin
  2
block 10
 70
     0
 10
0.0
 20
0.0
 30
0.0
  3
block 10
  1

  0
SPLINE
  5
A1
330
9D
100
AcDbEntity
  8
_U+30EC_U+30A4_U+30E4_U+30FC 1
370
     0
100
AcDbSpline
210
0.0
220
0.0
230
1.0
 70
    11
 71
     3
 72
    44
 73
    40
 74
     0
 42
0.0000000001
 43
0.0000000001
 12
1.0
 22
0.0
 32
0.0
 13
1.0
 23
0.0
 33
0.0
 40
0.0
 40
0.0
 40
0.0
 40
0.0
 40
1.0
 40
1.0
 40
1.0
 40
2.0
 40
2.0
 40
2.0
 40
3.0
 40
3.0
 40
3.0
 40
4.0
 40
4.0
 40
4.0
 40
5.0
 40
5.0
 40
5.0
 40
6.0
 40
6.0
 40
6.0
 40
7.0
 40
7.0
 40
7.0
 40
8.0
 40
8.0
 40
8.0
 40
9.0
 40
9.0
 40
9.0
 40
10.0
 40
10.0
 40
10.0
 40
11.0
 40
11.0
 40
11.0
 40
12.0
 40
12.0
 40
12.0
 40
13.0
 40
13.0
 40
13.0
 40
13.0
 10
80.23231199166068
 20
-132.8153211473517
 30
0.0
 10
80.20888534236097
 20
-132.770879415592
 30
0.0
 10
80.18787025990095
 20
-132.7181694546677
 30
0.0
 10
80.18563094783553
 20
-132.4873480571559
 30
0.0
 10
80.18149683325323
 20
-132.2441243158973
 30
0.0
 10
80.12224119090695
 20
-132.1745333870953
 30
0.0
 10
79.94447426386805
 20
-132.1745333870953
 30
0.0
 10
79.94447426386805
 20
-132.1745333870953
 30
0.0
 10
79.53623044886595
 20
-132.1745333870953
 30
0.0
 10
79.53623044886595
 20
-132.1745333870953
 30
0.0
 10
79.53623044886595
 20
-132.1745333870953
 30
0.0
 10
79.53623044886595
 20
-132.8153211473517
 30
0.0
 10
79.53623044886595
 20
-132.8153211473517
 30
0.0
 10
79.53623044886595
 20
-132.8153211473517
 30
0.0
 10
79.30144719154617
 20
-132.8153211473517
 30
0.0
 10
79.30144719154617
 20
-132.8153211473517
 30
0.0
 10
79.30144719154617
 20
-132.8153211473517
 30
0.0
 10
79.30144719154617
 20
-131.2712293508628
 30
0.0
 10
79.30144719154617
 20
-131.2712293508628
 30
0.0
 10
79.30144719154617
 20
-131.2712293508628
 30
0.0
 10
79.97634139710661
 20
-131.2712293508628
 30
0.0
 10
79.97634139710661
 20
-131.2712293508628
 30
0.0
 10
80.28295489529386
 20
-131.2712293508628
 30
0.0
 10
80.45004202632846
 20
-131.4421060869311
 30
0.0
 10
80.45004202632846
 20
-131.6984211910337
 30
0.0
 10
80.45004202632846
 20
-131.7490640946669
 30
0.0
 10
80.4416015423896
 20
-131.8314018767644
 30
0.0
 10
80.39715981062989
 20
-131.9120171111192
 30
0.0
 10
80.33807642305784
 20
-132.0157144852252
 30
0.0
 10
80.27244735406384
 20
-132.0346625103941
 30
0.0
 10
80.21112465442638
 20
-132.0515434782718
 30
0.0
 10
80.34858396428785
 20
-132.0939181527404
 30
0.0
 10
80.41628009057301
 20
-132.142838508631
 30
0.0
 10
80.42058645992958
 20
-132.4577202359828
 30
0.0
 10
80.42472057451188
 20
-132.7285047411234
 30
0.0
 10
80.46072182233274
 20
-132.7601996195877
 30
0.0
 10
80.5284179486179
 20
-132.8153211473517
 30
0.0
 10
80.5284179486179
 20
-132.8153211473517
 30
0.0
 10
80.23231199166068
 20
-132.8153211473517
 30
0.0
 10
80.23231199166068
 20
-132.8153211473517
 30
0.0
  0
SPLINE
  5
A2
330
9D
100
AcDbEntity
  8
_U+30EC_U+30A4_U+30E4_U+30FC 1
370
     0
100
AcDbSpline
210
0.0
220
0.0
230
1.0
 70
    11
 71
     3
 72
    20
 73
    16
 74
     0
 42
0.0000000001
 43
0.0000000001
 12
1.0
 22
0.0
 32
0.0
 13
1.0
 23
0.0
 33
0.0
 40
0.0
 40
0.0
 40
0.0
 40
0.0
 40
1.0
 40
1.0
 40
1.0
 40
2.0
 40
2.0
 40
2.0
 40
3.0
 40
3.0
 40
3.0
 40
4.0
 40
4.0
 40
4.0
 40
5.0
 40
5.0
 40
5.0
 40
5.0
 10
79.98047551168891
 20
-131.4827582136571
 30
0.0
 10
79.98047551168891
 20
-131.4827582136571
 30
0.0
 10
79.53623044886595
 20
-131.4827582136571
 30
0.0
 10
79.53623044886595
 20
-131.4827582136571
 30
0.0
 10
79.53623044886595
 20
-131.4827582136571
 30
0.0
 10
79.53623044886595
 20
-131.9630045243009
 30
0.0
 10
79.53623044886595
 20
-131.9630045243009
 30
0.0
 10
79.53623044886595
 20
-131.9630045243009
 30
0.0
 10
79.97840845439777
 20
-131.9630045243009
 30
0.0
 10
79.97840845439777
 20
-131.9630045243009
 30
0.0
 10
80.07779945914722
 20
-131.9630045243009
 30
0.0
 10
80.21319171171754
 20
-131.8865234045284
 30
0.0
 10
80.21319171171754
 20
-131.7153021589115
 30
0.0
 10
80.21319171171754
 20
-131.6370984913963
 30
0.0
 10
80.17925752118782
 20
-131.4827582136571
 30
0.0
 10
79.98047551168891
 20
-131.4827582136571
 30
0.0
  0
HATCH
  5
A3
330
9D
100
AcDbEntity
  8
_U+30EC_U+30A4_U+30E4_U+30FC 1
 62
     7
420
 16777215
100
AcDbHatch
 10
0.0
 20
0.0
 30
0.0
210
0.0
220
0.0
230
1.0
  2
SOLID
 70
     1
 71
     0
 91
        2
 92
        1
 93
        1
 72
     4
 94
        3
 73
     0
 74
     1
 95
       44
 96
       40
 40
0.0
 40
0.0
 40
0.0
 40
0.0
 40
1.0
 40
1.0
 40
1.0
 40
2.0
 40
2.0
 40
2.0
 40
3.0
 40
3.0
 40
3.0
 40
4.0
 40
4.0
 40
4.0
 40
5.0
 40
5.0
 40
5.0
 40
6.0
 40
6.0
 40
6.0
 40
7.0
 40
7.0
 40
7.0
 40
8.0
 40
8.0
 40
8.0
 40
9.0
 40
9.0
 40
9.0
 40
10.0
 40
10.0
 40
10.0
 40
11.0
 40
11.0
 40
11.0
 40
12.0
 40
12.0
 40
12.0
 40
13.0
 40
13.0
 40
13.0
 40
13.0
 10
80.23231199166068
 20
-132.8153211473517
 10
80.20888534236097
 20
-132.770879415592
 10
80.18787025990095
 20
-132.7181694546677
 10
80.18563094783553
 20
-132.4873480571559
 10
80.18149683325323
 20
-132.2441243158973
 10
80.12224119090695
 20
-132.1745333870953
 10
79.94447426386805
 20
-132.1745333870953
 10
79.94447426386805
 20
-132.1745333870953
 10
79.53623044886595
 20
-132.1745333870953
 10
79.53623044886595
 20
-132.1745333870953
 10
79.53623044886595
 20
-132.1745333870953
 10
79.53623044886595
 20
-132.8153211473517
 10
79.53623044886595
 20
-132.8153211473517
 10
79.53623044886595
 20
-132.8153211473517
 10
79.30144719154617
 20
-132.8153211473517
 10
79.30144719154617
 20
-132.8153211473517
 10
79.30144719154617
 20
-132.8153211473517
 10
79.30144719154617
 20
-131.2712293508628
 10
79.30144719154617
 20
-131.2712293508628
 10
79.30144719154617
 20
-131.2712293508628
 10
79.97634139710661
 20
-131.2712293508628
 10
79.97634139710661
 20
-131.2712293508628
 10
80.28295489529386
 20
-131.2712293508628
 10
80.45004202632846
 20
-131.4421060869311
 10
80.45004202632846
 20
-131.6984211910337
 10
80.45004202632846
 20
-131.7490640946669
 10
80.4416015423896
 20
-131.8314018767644
 10
80.39715981062989
 20
-131.9120171111192
 10
80.33807642305784
 20
-132.0157144852252
 10
80.27244735406384
 20
-132.0346625103941
 10
80.21112465442638
 20
-132.0515434782718
 10
80.34858396428785
 20
-132.0939181527404
 10
80.41628009057301
 20
-132.142838508631
 10
80.42058645992958
 20
-132.4577202359828
 10
80.42472057451188
 20
-132.7285047411234
 10
80.46072182233274
 20
-132.7601996195877
 10
80.5284179486179
 20
-132.8153211473517
 10
80.5284179486179
 20
-132.8153211473517
 10
80.23231199166068
 20
-132.8153211473517
 10
80.23231199166068
 20
-132.8153211473517
 97
        0
 97
        0
 92
        1
 93
        1
 72
     4
 94
        3
 73
     0
 74
     1
 95
       20
 96
       16
 40
0.0
 40
0.0
 40
0.0
 40
0.0
 40
1.0
 40
1.0
 40
1.0
 40
2.0
 40
2.0
 40
2.0
 40
3.0
 40
3.0
 40
3.0
 40
4.0
 40
4.0
 40
4.0
 40
5.0
 40
5.0
 40
5.0
 40
5.0
 10
79.98047551168891
 20
-131.4827582136571
 10
79.98047551168891
 20
-131.4827582136571
 10
79.53623044886595
 20
-131.4827582136571
 10
79.53623044886595
 20
-131.4827582136571
 10
79.53623044886595
 20
-131.4827582136571
 10
79.53623044886595
 20
-131.9630045243009
 10
79.53623044886595
 20
-131.9630045243009
 10
79.53623044886595
 20
-131.9630045243009
 10
79.97840845439777
 20
-131.9630045243009
 10
79.97840845439777
 20
-131.9630045243009
 10
80.07779945914722
 20
-131.9630045243009
 10
80.21319171171754
 20
-131.8865234045284
 10
80.21319171171754
 20
-131.7153021589115
 10
80.21319171171754
 20
-131.6370984913963
 10
80.17925752118782
 20
-131.4827582136571
 10
79.98047551168891
 20
-131.4827582136571
 97
        0
 97
        0
 75
     2
 76
     1
 98
        0
  0
SPLINE
  5
A4
330
9D
100
AcDbEntity
  8
_U+30EC_U+30A4_U+30E4_U+30FC 1
370
     0
100
AcDbSpline
210
0.0
220
0.0
230
1.0
 70
    11
 71
     3
 72
    26
 73
    22
 74
     0
 42
0.0000000001
 43
0.0000000001
 12
1.0
 22
0.0
 32
0.0
 13
1.0
 23
0.0
 33
0.0
 40
0.0
 40
0.0
 40
0.0
 40
0.0
 40
1.0
 40
1.0
 40
1.0
 40
2.0
 40
2.0
 40
2.0
 40
3.0
 40
3.0
 40
3.0
 40
4.0
 40
4.0
 40
4.0
 40
5.0
 40
5.0
 40
5.0
 40
6.0
 40
6.0
 40
6.0
 40
7.0
 40
7.0
 40
7.0
 40
7.0
 10
81.1194240791125
 20
-132.8153211473517
 30
0.0
 10
81.1194240791125
 20
-132.8153211473517
 30
0.0
 10
81.1194240791125
 20
-131.7108235347806
 30
0.0
 10
81.1194240791125
 20
-131.7108235347806
 30
0.0
 10
81.1194240791125
 20
-131.7108235347806
 30
0.0
 10
80.78938393162558
 20
-131.7108235347806
 30
0.0
 10
80.78938393162558
 20
-131.7108235347806
 30
0.0
 10
80.78938393162558
 20
-131.7108235347806
 30
0.0
 10
80.78938393162558
 20
-131.5630289384634
 30
0.0
 10
80.78938393162558
 20
-131.5630289384634
 30
0.0
 10
81.12149113640366
 20
-131.5482150278768
 30
0.0
 10
81.16799992545454
 20
-131.3852620114245
 30
0.0
 10
81.19762774662767
 20
-131.2712293508628
 30
0.0
 10
81.19762774662767
 20
-131.2712293508628
 30
0.0
 10
81.34369979520227
 20
-131.2712293508628
 30
0.0
 10
81.34369979520227
 20
-131.2712293508628
 30
0.0
 10
81.34369979520227
 20
-131.2712293508628
 30
0.0
 10
81.34369979520227
 20
-132.8153211473517
 30
0.0
 10
81.34369979520227
 20
-132.8153211473517
 30
0.0
 10
81.34369979520227
 20
-132.8153211473517
 30
0.0
 10
81.1194240791125
 20
-132.8153211473517
 30
0.0
 10
81.1194240791125
 20
-132.8153211473517
 30
0.0
  0
HATCH
  5
A5
330
9D
100
AcDbEntity
  8
_U+30EC_U+30A4_U+30E4_U+30FC 1
 62
     7
420
 16777215
100
AcDbHatch
 10
0.0
 20
0.0
 30
0.0
210
0.0
220
0.0
230
1.0
  2
SOLID
 70
     1
 71
     0
 91
        1
 92
        1
 93
        1
 72
     4
 94
        3
 73
     0
 74
     1
 95
       26
 96
       22
 40
0.0
 40
0.0
 40
0.0
 40
0.0
 40
1.0
 40
1.0
 40
1.0
 40
2.0
 40
2.0
 40
2.0
 40
3.0
 40
3.0
 40
3.0
 40
4.0
 40
4.0
 40
4.0
 40
5.0
 40
5.0
 40
5.0
 40
6.0
 40
6.0
 40
6.0
 40
7.0
 40
7.0
 40
7.0
 40
7.0
 10
81.1194240791125
 20
-132.8153211473517
 10
81.1194240791125
 20
-132.8153211473517
 10
81.1194240791125
 20
-131.7108235347806
 10
81.1194240791125
 20
-131.7108235347806
 10
81.1194240791125
 20
-131.7108235347806
 10
80.78938393162558
 20
-131.7108235347806
 10
80.78938393162558
 20
-131.7108235347806
 10
80.78938393162558
 20
-131.7108235347806
 10
80.78938393162558
 20
-131.5630289384634
 10
80.78938393162558
 20
-131.5630289384634
 10
81.12149113640366
 20
-131.5482150278768
 10
81.16799992545454
 20
-131.3852620114245
 10
81.19762774662767
 20
-131.2712293508628
 10
81.19762774662767
 20
-131.2712293508628
 10
81.34369979520227
 20
-131.2712293508628
 10
81.34369979520227
 20
-131.2712293508628
 10
81.34369979520227
 20
-131.2712293508628
 10
81.34369979520227
 20
-132.8153211473517
 10
81.34369979520227
 20
-132.8153211473517
 10
81.34369979520227
 20
-132.8153211473517
 10
81.1194240791125
 20
-132.8153211473517
 10
81.1194240791125
 20
-132.8153211473517
 97
        0
 97
        0
 75
     2
 76
     1
 98
        0
  0
SPLINE
  5
A6
330
9D
100
AcDbEntity
  8
_U+30EC_U+30A4_U+30E4_U+30FC 1
370
     0
100
AcDbSpline
210
0.0
220
0.0
230
1.0
 70
    11
 71
     3
 72
    29
 73
    25
 74
     0
 42
0.0000000001
 43
0.0000000001
 12
1.0
 22
0.0
 32
0.0
 13
1.0
 23
0.0
 33
0.0
 40
0.0
 40
0.0
 40
0.0
 40
0.0
 40
1.0
 40
1.0
 40
1.0
 40
2.0
 40
2.0
 40
2.0
 40
3.0
 40
3.0
 40
3.0
 40
4.0
 40
4.0
 40
4.0
 40
5.0
 40
5.0
 40
5.0
 40
6.0
 40
6.0
 40
6.0
 40
7.0
 40
7.0
 40
7.0
 40
8.0
 40
8.0
 40
8.0
 40
8.0
 10
82.74258081698797
 20
-132.6375542203128
 30
0.0
 10
82.63474932829965
 20
-132.847016025816
 30
0.0
 10
82.46128877061732
 20
-132.8663085605334
 30
0.0
 10
82.34484454321587
 20
-132.8663085605334
 30
0.0
 10
82.18413083882898
 20
-132.8663085605334
 30
0.0
 10
82.04236515961094
 20
-132.819455261934
 30
0.0
 10
81.94710826944379
 20
-132.6375542203128
 30
0.0
 10
81.84358315011202
 20
-132.4429063253962
 30
0.0
 10
81.82446287016889
 20
-132.2062282655596
 30
0.0
 10
81.82446287016889
 20
-132.0429307395587
 30
0.0
 10
81.82446287016889
 20
-131.8992702578238
 30
0.0
 10
81.84134383804661
 20
-131.647433777852
 30
0.0
 10
81.94710826944379
 20
-131.4486517683531
 30
0.0
 10
82.05511201290636
 20
-131.2457356442719
 30
0.0
 10
82.21582571729327
 20
-131.2223089949722
 30
0.0
 10
82.34484454321587
 20
-131.2223089949722
 30
0.0
 10
82.50349119031164
 20
-131.2223089949722
 30
0.0
 10
82.64732392682082
 20
-131.2667507267319
 30
0.0
 10
82.74258081698797
 20
-131.4486517683531
 30
0.0
 10
82.84197182173743
 20
-131.6412326059786
 30
0.0
 10
82.86522621626287
 20
-131.8696424366507
 30
0.0
 10
82.86522621626287
 20
-132.0429307395587
 30
0.0
 10
82.86522621626287
 20
-132.2144964947242
 30
0.0
 10
82.84421113380284
 20
-132.4453178922359
 30
0.0
 10
82.74258081698797
 20
-132.6375542203128
 30
0.0
  0
SPLINE
  5
A7
330
9D
100
AcDbEntity
  8
_U+30EC_U+30A4_U+30E4_U+30FC 1
370
     0
100
AcDbSpline
210
0.0
220
0.0
230
1.0
 70
    11
 71
     3
 72
    17
 73
    13
 74
     0
 42
0.0000000001
 43
0.0000000001
 12
1.0
 22
0.0
 32
0.0
 13
1.0
 23
0.0
 33
0.0
 40
0.0
 40
0.0
 40
0.0
 40
0.0
 40
1.0
 40
1.0
 40
1.0
 40
2.0
 40
2.0
 40
2.0
 40
3.0
 40
3.0
 40
3.0
 40
4.0
 40
4.0
 40
4.0
 40
4.0
 10
82.34484454321587
 20
-131.4148898325977
 30
0.0
 10
82.09524737530953
 20
-131.4148898325977
 30
0.0
 10
82.04873858625865
 20
-131.6984211910337
 30
0.0
 10
82.04873858625865
 20
-132.0429307395587
 30
0.0
 10
82.04873858625865
 20
-132.3626356005899
 30
0.0
 10
82.08473983407951
 20
-132.6713161560683
 30
0.0
 10
82.34484454321587
 20
-132.6713161560683
 30
0.0
 10
82.59237465383107
 20
-132.6713161560683
 30
0.0
 10
82.64112275494736
 20
-132.3901963644719
 30
0.0
 10
82.64112275494736
 20
-132.0429307395587
 30
0.0
 10
82.64112275494736
 20
-131.7239148976246
 30
0.0
 10
82.60288219506108
 20
-131.4148898325977
 30
0.0
 10
82.34484454321587
 20
-131.4148898325977
 30
0.0
  0
HATCH
  5
A8
330
9D
100
AcDbEntity
  8
_U+30EC_U+30A4_U+30E4_U+30FC 1
 62
     7
420
 16777215
100
AcDbHatch
 10
0.0
 20
0.0
 30
0.0
210
0.0
220
0.0
230
1.0
  2
SOLID
 70
     1
 71
     0
 91
        2
 92
        1
 93
        1
 72
     4
 94
        3
 73
     0
 74
     1
 95
       29
 96
       25
 40
0.0
 40
0.0
 40
0.0
 40
0.0
 40
1.0
 40
1.0
 40
1.0
 40
2.0
 40
2.0
 40
2.0
 40
3.0
 40
3.0
 40
3.0
 40
4.0
 40
4.0
 40
4.0
 40
5.0
 40
5.0
 40
5.0
 40
6.0
 40
6.0
 40
6.0
 40
7.0
 40
7.0
 40
7.0
 40
8.0
 40
8.0
 40
8.0
 40
8.0
 10
82.74258081698797
 20
-132.6375542203128
 10
82.63474932829965
 20
-132.847016025816
 10
82.46128877061732
 20
-132.8663085605334
 10
82.34484454321587
 20
-132.8663085605334
 10
82.18413083882898
 20
-132.8663085605334
 10
82.04236515961094
 20
-132.819455261934
 10
81.94710826944379
 20
-132.6375542203128
 10
81.84358315011202
 20
-132.4429063253962
 10
81.82446287016889
 20
-132.2062282655596
 10
81.82446287016889
 20
-132.0429307395587
 10
81.82446287016889
 20
-131.8992702578238
 10
81.84134383804661
 20
-131.647433777852
 10
81.94710826944379
 20
-131.4486517683531
 10
82.05511201290636
 20
-131.2457356442719
 10
82.21582571729327
 20
-131.2223089949722
 10
82.34484454321587
 20
-131.2223089949722
 10
82.50349119031164
 20
-131.2223089949722
 10
82.64732392682082
 20
-131.2667507267319
 10
82.74258081698797
 20
-131.4486517683531
 10
82.84197182173743
 20
-131.6412326059786
 10
82.86522621626287
 20
-131.8696424366507
 10
82.86522621626287
 20
-132.0429307395587
 10
82.86522621626287
 20
-132.2144964947242
 10
82.84421113380284
 20
-132.4453178922359
 10
82.74258081698797
 20
-132.6375542203128
 97
        0
 97
        0
 92
        1
 93
        1
 72
     4
 94
        3
 73
     0
 74
     1
 95
       17
 96
       13
 40
0.0
 40
0.0
 40
0.0
 40
0.0
 40
1.0
 40
1.0
 40
1.0
 40
2.0
 40
2.0
 40
2.0
 40
3.0
 40
3.0
 40
3.0
 40
4.0
 40
4.0
 40
4.0
 40
4.0
 10
82.34484454321587
 20
-131.4148898325977
 10
82.09524737530953
 20
-131.4148898325977
 10
82.04873858625865
 20
-131.6984211910337
 10
82.04873858625865
 20
-132.0429307395587
 10
82.04873858625865
 20
-132.3626356005899
 10
82.08473983407951
 20
-132.6713161560683
 10
82.34484454321587
 20
-132.6713161560683
 10
82.59237465383107
 20
-132.6713161560683
 10
82.64112275494736
 20
-132.3901963644719
 10
82.64112275494736
 20
-132.0429307395587
 10
82.64112275494736
 20
-131.7239148976246
 10
82.60288219506108
 20
-131.4148898325977
 10
82.34484454321587
 20
-131.4148898325977
 97
        0
 97
        0
 75
     2
 76
     1
 98
        0
  0
ENDBLK
  5
A0
330
9D
100
AcDbEntity
  8
0
100
AcDbBlockEnd
  0
BLOCK
  5
AB
330
A9
100
AcDbEntity
  8
0
100
AcDbBlockBegin
  2
block 11
 70
     0
 10
0.0
 20
0.0
 30
0.0
  3
block 11
  1

  0
POLYLINE
  5
AD
330
A9
100
AcDbEntity
  8
_U+30EC_U+30A4_U+30E4_U+30FC 1
 62
     7
420
 16777215
370
     9
100
AcDb2dPolyline
 66
     1
 10
0.0
 20
0.0
 30
0.0
  0
VERTEX
  5
AE
330
AD
100
AcDbEntity
  8
_U+30EC_U+30A4_U+30E4_U+30FC 1
 62
     7
420
 16777215
370
     9
100
AcDbVertex
100
AcDb2dVertex
 10
117.087435346184
 20
-133.916384688743
 30
0.0
  0
VERTEX
  5
AF
330
AD
100
AcDbEntity
  8
_U+30EC_U+30A4_U+30E4_U+30FC 1
 62
     7
420
 16777215
370
     9
100
AcDbVertex
100
AcDb2dVertex
 10
117.087435346184
 20
-132.7643183001422
 30
0.0
  0
SEQEND
  5
B0
330
AD
100
AcDbEntity
  8
_U+30EC_U+30A4_U+30E4_U+30FC 1
 62
     7
420
 16777215
370
     9
  0
POLYLINE
  5
B1
330
A9
100
AcDbEntity
  8
_U+30EC_U+30A4_U+30E4_U+30FC 1
 62
     7
420
 16777215
370
     9
100
AcDb2dPolyline
 66
     1
 10
0.0
 20
0.0
 30
0.0
  0
VERTEX
  5
B2
330
B1
100
AcDbEntity
  8
_U+30EC_U+30A4_U+30E4_U+30FC 1
 62
     7
420
 16777215
370
     9
100
AcDbVertex
100
AcDb2dVertex
 10
117.0867297906464
 20
-146.6969944077705
 30
0.0
  0
VERTEX
  5
B3
330
B1
100
AcDbEntity
  8
_U+30EC_U+30A4_U+30E4_U+30FC 1
 62
     7
420
 16777215
370
     9
100
AcDbVertex
100
AcDb2dVertex
 10
117.0867297906464
 20
-133.916384688743
 30
0.0
  0
SEQEND
  5
B4
330
B1
100
AcDbEntity
  8
_U+30EC_U+30A4_U+30E4_U+30FC 1
 62
     7
420
 16777215
370
     9
  0
POLYLINE
  5
B5
330
A9
100
AcDbEntity
  8
_U+30EC_U+30A4_U+30E4_U+30FC 1
 62
     7
420
 16777215
370
     9
100
AcDb2dPolyline
 66
     1
 10
0.0
 20
0.0
 30
0.0
  0
VERTEX
  5
B6
330
B5
100
AcDbEntity
  8
_U+30EC_U+30A4_U+30E4_U+30FC 1
 62
     7
420
 16777215
370
     9
100
AcDbVertex
100
AcDb2dVertex
 10
118.43927975614
 20
-146.7056021855455
 30
0.0
  0
VERTEX
  5
B7
330
B5
100
AcDbEntity
  8
_U+30EC_U+30A4_U+30E4_U+30FC 1
 62
     7
420
 16777215
370
     9
100
AcDbVertex
100
AcDb2dVertex
 10
96.28420087691872
 20
-146.7056021855455
 30
0.0
  0
SEQEND
  5
B8
330
B5
100
AcDbEntity
  8
_U+30EC_U+30A4_U+30E4_U+30FC 1
 62
     7
420
 16777215
370
     9
  0
POLYLINE
  5
B9
330
A9
100
AcDbEntity
  8
_U+30EC_U+30A4_U+30E4_U+30FC 1
 62
     7
420
 16777215
370
     9
100
AcDb2dPolyline
 66
     1
 10
0.0
 20
0.0
 30
0.0
  0
VERTEX
  5
BA
330
B9
100
AcDbEntity
  8
_U+30EC_U+30A4_U+30E4_U+30FC 1
 62
     7
420
 16777215
370
     9
100
AcDbVertex
100
AcDb2dVertex
 10
118.43927975614
 20
-133.7055294110179
 30
0.0
  0
VERTEX
  5
BB
330
B9
100
AcDbEntity
  8
_U+30EC_U+30A4_U+30E4_U+30FC 1
 62
     7
420
 16777215
370
     9
100
AcDbVertex
100
AcDb2dVertex
 10
114.020599971495
 20
-133.7055294110179
 30
0.0
  0
SEQEND
  5
BC
330
B9
100
AcDbEntity
  8
_U+30EC_U+30A4_U+30E4_U+30FC 1
 62
     7
420
 16777215
370
     9
  0
POLYLINE
  5
BD
330
A9
100
AcDbEntity
  8
_U+30EC_U+30A4_U+30E4_U+30FC 1
 62
     7
420
 16777215
370
     9
100
AcDb2dPolyline
 66
     1
 10
0.0
 20
0.0
 30
0.0
  0
VERTEX
  5
BE
330
BD
100
AcDbEntity
  8
_U+30EC_U+30A4_U+30E4_U+30FC 1
 62
     7
420
 16777215
370
     9
100
AcDbVertex
100
AcDb2dVertex
 10
118.43927975614
 20
-132.7643183001422
 30
0.0
  0
VERTEX
  5
BF
330
BD
100
AcDbEntity
  8
_U+30EC_U+30A4_U+30E4_U+30FC 1
 62
     7
420
 16777215
370
     9
100
AcDbVertex
100
AcDb2dVertex
 10
114.020599971495
 20
-132.7643183001422
 30
0.0
  0
SEQEND
  5
C0
330
BD
100
AcDbEntity
  8
_U+30EC_U+30A4_U+30E4_U+30FC 1
 62
     7
420
 16777215
370
     9
  0
ENDBLK
  5
AC
330
A9
100
AcDbEntity
  8
0
100
AcDbBlockEnd
  0
BLOCK
  5
C3
330
C1
100
AcDbEntity
  8
0
100
AcDbBlockBegin
  2
block 12
 70
     0
 10
0.0
 20
0.0
 30
0.0
  3
block 12
  1

  0
SPLINE
  5
C5
330
C1
100
AcDbEntity
  8
_U+30EC_U+30A4_U+30E4_U+30FC 1
370
     0
100
AcDbSpline
210
0.0
220
0.0
230
1.0
 70
    11
 71
     3
 72
    26
 73
    22
 74
     0
 42
0.0000000001
 43
0.0000000001
 12
1.0
 22
0.0
 32
0.0
 13
1.0
 23
0.0
 33
0.0
 40
0.0
 40
0.0
 40
0.0
 40
0.0
 40
1.0
 40
1.0
 40
1.0
 40
2.0
 40
2.0
 40
2.0
 40
3.0
 40
3.0
 40
3.0
 40
4.0
 40
4.0
 40
4.0
 40
5.0
 40
5.0
 40
5.0
 40
6.0
 40
6.0
 40
6.0
 40
7.0
 40
7.0
 40
7.0
 40
7.0
 10
116.3443196323723
 20
-140.9188747477564
 30
0.0
 10
116.3443196323723
 20
-140.9188747477564
 30
0.0
 10
115.2398220198012
 20
-140.9188747477564
 30
0.0
 10
115.2398220198012
 20
-140.9188747477564
 30
0.0
 10
115.2398220198012
 20
-140.9188747477564
 30
0.0
 10
115.2398220198012
 20
-141.2489148952433
 30
0.0
 10
115.2398220198012
 20
-141.2489148952433
 30
0.0
 10
115.2398220198012
 20
-141.2489148952433
 30
0.0
 10
115.0916829139354
 20
-141.2489148952433
 30
0.0
 10
115.0916829139354
 20
-141.2489148952433
 30
0.0
 10
115.0772135128974
 20
-140.9168076904652
 30
0.0
 10
114.9142604964451
 20
-140.8699543918659
 30
0.0
 10
114.8002278358833
 20
-140.8403265706927
 30
0.0
 10
114.8002278358833
 20
-140.8403265706927
 30
0.0
 10
114.8002278358833
 20
-140.6942545221181
 30
0.0
 10
114.8002278358833
 20
-140.6942545221181
 30
0.0
 10
114.8002278358833
 20
-140.6942545221181
 30
0.0
 10
116.3443196323723
 20
-140.6942545221181
 30
0.0
 10
116.3443196323723
 20
-140.6942545221181
 30
0.0
 10
116.3443196323723
 20
-140.6942545221181
 30
0.0
 10
116.3443196323723
 20
-140.9188747477564
 30
0.0
 10
116.3443196323723
 20
-140.9188747477564
 30
0.0
  0
HATCH
  5
C6
330
C1
100
AcDbEntity
  8
_U+30EC_U+30A4_U+30E4_U+30FC 1
 62
     7
420
 16777215
100
AcDbHatch
 10
0.0
 20
0.0
 30
0.0
210
0.0
220
0.0
230
1.0
  2
SOLID
 70
     1
 71
     0
 91
        1
 92
        1
 93
        1
 72
     4
 94
        3
 73
     0
 74
     1
 95
       26
 96
       22
 40
0.0
 40
0.0
 40
0.0
 40
0.0
 40
1.0
 40
1.0
 40
1.0
 40
2.0
 40
2.0
 40
2.0
 40
3.0
 40
3.0
 40
3.0
 40
4.0
 40
4.0
 40
4.0
 40
5.0
 40
5.0
 40
5.0
 40
6.0
 40
6.0
 40
6.0
 40
7.0
 40
7.0
 40
7.0
 40
7.0
 10
116.3443196323723
 20
-140.9188747477564
 10
116.3443196323723
 20
-140.9188747477564
 10
115.2398220198012
 20
-140.9188747477564
 10
115.2398220198012
 20
-140.9188747477564
 10
115.2398220198012
 20
-140.9188747477564
 10
115.2398220198012
 20
-141.2489148952433
 10
115.2398220198012
 20
-141.2489148952433
 10
115.2398220198012
 20
-141.2489148952433
 10
115.0916829139354
 20
-141.2489148952433
 10
115.0916829139354
 20
-141.2489148952433
 10
115.0772135128974
 20
-140.9168076904652
 10
114.9142604964451
 20
-140.8699543918659
 10
114.8002278358833
 20
-140.8403265706927
 10
114.8002278358833
 20
-140.8403265706927
 10
114.8002278358833
 20
-140.6942545221181
 10
114.8002278358833
 20
-140.6942545221181
 10
114.8002278358833
 20
-140.6942545221181
 10
116.3443196323723
 20
-140.6942545221181
 10
116.3443196323723
 20
-140.6942545221181
 10
116.3443196323723
 20
-140.6942545221181
 10
116.3443196323723
 20
-140.9188747477564
 10
116.3443196323723
 20
-140.9188747477564
 97
        0
 97
        0
 75
     2
 76
     1
 98
        0
  0
SPLINE
  5
C7
330
C1
100
AcDbEntity
  8
_U+30EC_U+30A4_U+30E4_U+30FC 1
370
     0
100
AcDbSpline
210
0.0
220
0.0
230
1.0
 70
    11
 71
     3
 72
    62
 73
    58
 74
     0
 42
0.0000000001
 43
0.0000000001
 12
1.0
 22
0.0
 32
0.0
 13
1.0
 23
0.0
 33
0.0
 40
0.0
 40
0.0
 40
0.0
 40
0.0
 40
1.0
 40
1.0
 40
1.0
 40
2.0
 40
2.0
 40
2.0
 40
3.0
 40
3.0
 40
3.0
 40
4.0
 40
4.0
 40
4.0
 40
5.0
 40
5.0
 40
5.0
 40
6.0
 40
6.0
 40
6.0
 40
7.0
 40
7.0
 40
7.0
 40
8.0
 40
8.0
 40
8.0
 40
9.0
 40
9.0
 40
9.0
 40
10.0
 40
10.0
 40
10.0
 40
11.0
 40
11.0
 40
11.0
 40
12.0
 40
12.0
 40
12.0
 40
13.0
 40
13.0
 40
13.0
 40
14.0
 40
14.0
 40
14.0
 40
15.0
 40
15.0
 40
15.0
 40
16.0
 40
16.0
 40
16.0
 40
17.0
 40
17.0
 40
17.0
 40
18.0
 40
18.0
 40
18.0
 40
19.0
 40
19.0
 40
19.0
 40
19.0
 10
116.395307045554
 20
-139.7017225128176
 30
0.0
 10
116.395307045554
 20
-139.7971516577591
 30
0.0
 10
116.3739474535454
 20
-140.0148816924269
 30
0.0
 10
116.1879122973419
 20
-140.1395941489929
 30
0.0
 10
116.0756021845228
 20
-140.2136637019258
 30
0.0
 10
115.9763834345476
 20
-140.2181423260566
 30
0.0
 10
115.8916340856104
 20
-140.2222764406389
 30
0.0
 10
115.8916340856104
 20
-140.2222764406389
 30
0.0
 10
115.8916340856104
 20
-140.0021348391314
 30
0.0
 10
115.8916340856104
 20
-140.0021348391314
 30
0.0
 10
115.9657036385433
 20
-140.0000677818403
 30
0.0
 10
116.2003146410888
 20
-139.989387985836
 30
0.0
 10
116.2003146410888
 20
-139.7058566273999
 30
0.0
 10
116.2003146410888
 20
-139.5683973175385
 30
0.0
 10
116.1307237122868
 20
-139.4161240970904
 30
0.0
 10
115.9019693720662
 20
-139.4161240970904
 30
0.0
 10
115.7858696542133
 20
-139.4161240970904
 30
0.0
 10
115.7372938078712
 20
-139.4540201474282
 30
0.0
 10
115.7055989294069
 20
-139.4857150258925
 30
0.0
 10
115.6311848669255
 20
-139.5601290883739
 30
0.0
 10
115.6187825231786
 20
-139.6765733157753
 30
0.0
 10
115.6187825231786
 20
-139.7313503339908
 30
0.0
 10
115.6187825231786
 20
-139.7502983591596
 30
0.0
 10
115.6208495804698
 20
-139.7861273522063
 30
0.0
 10
115.6249836950521
 20
-139.8136881160883
 30
0.0
 10
115.6249836950521
 20
-139.8136881160883
 30
0.0
 10
115.430680309684
 20
-139.8136881160883
 30
0.0
 10
115.430680309684
 20
-139.8136881160883
 30
0.0
 10
115.4368814815574
 20
-139.7757920657505
 30
0.0
 10
115.4389485388486
 20
-139.7334173912819
 30
0.0
 10
115.4389485388486
 20
-139.7268717098599
 30
0.0
 10
115.4389485388486
 20
-139.6614148956402
 30
0.0
 10
115.4175889468401
 20
-139.4626328861413
 30
0.0
 10
115.1805663774549
 20
-139.4626328861413
 30
0.0
 10
115.0031439599645
 20
-139.4626328861413
 30
0.0
 10
114.9480224322005
 20
-139.5938910241293
 30
0.0
 10
114.9480224322005
 20
-139.7037895701088
 30
0.0
 10
114.9480224322005
 20
-139.9680283938274
 30
0.0
 10
115.1805663774549
 20
-139.9766411325406
 30
0.0
 10
115.2529133826451
 20
-139.9811197566714
 30
0.0
 10
115.2529133826451
 20
-139.9811197566714
 30
0.0
 10
115.2529133826451
 20
-140.1840358807526
 30
0.0
 10
115.2529133826451
 20
-140.1840358807526
 30
0.0
 10
115.1278564165305
 20
-140.1754231420395
 30
0.0
 10
114.7513074799927
 20
-140.1478623781575
 30
0.0
 10
114.7513074799927
 20
-139.6910427168134
 30
0.0
 10
114.7513074799927
 20
-139.4671115102721
 30
0.0
 10
114.8780869938499
 20
-139.2259548263046
 30
0.0
 10
115.1743652055814
 20
-139.2259548263046
 30
0.0
 10
115.3604003617849
 20
-139.2259548263046
 30
0.0
 10
115.4430826534309
 20
-139.3210394616975
 30
0.0
 10
115.5044053530683
 20
-139.4202582116727
 30
0.0
 10
115.5319661169503
 20
-139.3589355120353
 30
0.0
 10
115.6125813513052
 20
-139.1770344704141
 30
0.0
 10
115.8895670283193
 20
-139.1770344704141
 30
0.0
 10
116.2278754049708
 20
-139.1770344704141
 30
0.0
 10
116.395307045554
 20
-139.424392326255
 30
0.0
 10
116.395307045554
 20
-139.7017225128176
 30
0.0
  0
HATCH
  5
C8
330
C1
100
AcDbEntity
  8
_U+30EC_U+30A4_U+30E4_U+30FC 1
 62
     7
420
 16777215
100
AcDbHatch
 10
0.0
 20
0.0
 30
0.0
210
0.0
220
0.0
230
1.0
  2
SOLID
 70
     1
 71
     0
 91
        1
 92
        1
 93
        1
 72
     4
 94
        3
 73
     0
 74
     1
 95
       62
 96
       58
 40
0.0
 40
0.0
 40
0.0
 40
0.0
 40
1.0
 40
1.0
 40
1.0
 40
2.0
 40
2.0
 40
2.0
 40
3.0
 40
3.0
 40
3.0
 40
4.0
 40
4.0
 40
4.0
 40
5.0
 40
5.0
 40
5.0
 40
6.0
 40
6.0
 40
6.0
 40
7.0
 40
7.0
 40
7.0
 40
8.0
 40
8.0
 40
8.0
 40
9.0
 40
9.0
 40
9.0
 40
10.0
 40
10.0
 40
10.0
 40
11.0
 40
11.0
 40
11.0
 40
12.0
 40
12.0
 40
12.0
 40
13.0
 40
13.0
 40
13.0
 40
14.0
 40
14.0
 40
14.0
 40
15.0
 40
15.0
 40
15.0
 40
16.0
 40
16.0
 40
16.0
 40
17.0
 40
17.0
 40
17.0
 40
18.0
 40
18.0
 40
18.0
 40
19.0
 40
19.0
 40
19.0
 40
19.0
 10
116.395307045554
 20
-139.7017225128176
 10
116.395307045554
 20
-139.7971516577591
 10
116.3739474535454
 20
-140.0148816924269
 10
116.1879122973419
 20
-140.1395941489929
 10
116.0756021845228
 20
-140.2136637019258
 10
115.9763834345476
 20
-140.2181423260566
 10
115.8916340856104
 20
-140.2222764406389
 10
115.8916340856104
 20
-140.2222764406389
 10
115.8916340856104
 20
-140.0021348391314
 10
115.8916340856104
 20
-140.0021348391314
 10
115.9657036385433
 20
-140.0000677818403
 10
116.2003146410888
 20
-139.989387985836
 10
116.2003146410888
 20
-139.7058566273999
 10
116.2003146410888
 20
-139.5683973175385
 10
116.1307237122868
 20
-139.4161240970904
 10
115.9019693720662
 20
-139.4161240970904
 10
115.7858696542133
 20
-139.4161240970904
 10
115.7372938078712
 20
-139.4540201474282
 10
115.7055989294069
 20
-139.4857150258925
 10
115.6311848669255
 20
-139.5601290883739
 10
115.6187825231786
 20
-139.6765733157753
 10
115.6187825231786
 20
-139.7313503339908
 10
115.6187825231786
 20
-139.7502983591596
 10
115.6208495804698
 20
-139.7861273522063
 10
115.6249836950521
 20
-139.8136881160883
 10
115.6249836950521
 20
-139.8136881160883
 10
115.430680309684
 20
-139.8136881160883
 10
115.430680309684
 20
-139.8136881160883
 10
115.4368814815574
 20
-139.7757920657505
 10
115.4389485388486
 20
-139.7334173912819
 10
115.4389485388486
 20
-139.7268717098599
 10
115.4389485388486
 20
-139.6614148956402
 10
115.4175889468401
 20
-139.4626328861413
 10
115.1805663774549
 20
-139.4626328861413
 10
115.0031439599645
 20
-139.4626328861413
 10
114.9480224322005
 20
-139.5938910241293
 10
114.9480224322005
 20
-139.7037895701088
 10
114.9480224322005
 20
-139.9680283938274
 10
115.1805663774549
 20
-139.9766411325406
 10
115.2529133826451
 20
-139.9811197566714
 10
115.2529133826451
 20
-139.9811197566714
 10
115.2529133826451
 20
-140.1840358807526
 10
115.2529133826451
 20
-140.1840358807526
 10
115.1278564165305
 20
-140.1754231420395
 10
114.7513074799927
 20
-140.1478623781575
 10
114.7513074799927
 20
-139.6910427168134
 10
114.7513074799927
 20
-139.4671115102721
 10
114.8780869938499
 20
-139.2259548263046
 10
115.1743652055814
 20
-139.2259548263046
 10
115.3604003617849
 20
-139.2259548263046
 10
115.4430826534309
 20
-139.3210394616975
 10
115.5044053530683
 20
-139.4202582116727
 10
115.5319661169503
 20
-139.3589355120353
 10
115.6125813513052
 20
-139.1770344704141
 10
115.8895670283193
 20
-139.1770344704141
 10
116.2278754049708
 20
-139.1770344704141
 10
116.395307045554
 20
-139.424392326255
 10
116.395307045554
 20
-139.7017225128176
 97
        0
 97
        0
 75
     2
 76
     1
 98
        0
  0
ENDBLK
  5
C4
330
C1
100
AcDbEntity
  8
0
100
AcDbBlockEnd
  0
BLOCK
  5
CB
330
C9
100
AcDbEntity
  8
0
100
AcDbBlockBegin
  2
block 13
 70
     0
 10
0.0
 20
0.0
 30
0.0
  3
block 13
  1

  0
SPLINE
  5
CD
330
C9
100
AcDbEntity
  8
_U+30EC_U+30A4_U+30E4_U+30FC 1
370
     0
100
AcDbSpline
210
0.0
220
0.0
230
1.0
 70
    11
 71
     3
 72
    26
 73
    22
 74
     0
 42
0.0000000001
 43
0.0000000001
 12
1.0
 22
0.0
 32
0.0
 13
1.0
 23
0.0
 33
0.0
 40
0.0
 40
0.0
 40
0.0
 40
0.0
 40
1.0
 40
1.0
 40
1.0
 40
2.0
 40
2.0
 40
2.0
 40
3.0
 40
3.0
 40
3.0
 40
4.0
 40
4.0
 40
4.0
 40
5.0
 40
5.0
 40
5.0
 40
6.0
 40
6.0
 40
6.0
 40
7.0
 40
7.0
 40
7.0
 40
7.0
 10
116.3443196323723
 20
-131.839670105929
 30
0.0
 10
116.3443196323723
 20
-131.839670105929
 30
0.0
 10
115.2398220198012
 20
-131.839670105929
 30
0.0
 10
115.2398220198012
 20
-131.839670105929
 30
0.0
 10
115.2398220198012
 20
-131.839670105929
 30
0.0
 10
115.2398220198012
 20
-132.1697102534159
 30
0.0
 10
115.2398220198012
 20
-132.1697102534159
 30
0.0
 10
115.2398220198012
 20
-132.1697102534159
 30
0.0
 10
115.0916829139354
 20
-132.1697102534159
 30
0.0
 10
115.0916829139354
 20
-132.1697102534159
 30
0.0
 10
115.0772135128974
 20
-131.8376030486378
 30
0.0
 10
114.9142604964451
 20
-131.7907497500384
 30
0.0
 10
114.8002278358833
 20
-131.7611219288653
 30
0.0
 10
114.8002278358833
 20
-131.7611219288653
 30
0.0
 10
114.8002278358833
 20
-131.6150498802907
 30
0.0
 10
114.8002278358833
 20
-131.6150498802907
 30
0.0
 10
114.8002278358833
 20
-131.6150498802907
 30
0.0
 10
116.3443196323723
 20
-131.6150498802907
 30
0.0
 10
116.3443196323723
 20
-131.6150498802907
 30
0.0
 10
116.3443196323723
 20
-131.6150498802907
 30
0.0
 10
116.3443196323723
 20
-131.839670105929
 30
0.0
 10
116.3443196323723
 20
-131.839670105929
 30
0.0
  0
HATCH
  5
CE
330
C9
100
AcDbEntity
  8
_U+30EC_U+30A4_U+30E4_U+30FC 1
 62
     7
420
 16777215
100
AcDbHatch
 10
0.0
 20
0.0
 30
0.0
210
0.0
220
0.0
230
1.0
  2
SOLID
 70
     1
 71
     0
 91
        1
 92
        1
 93
        1
 72
     4
 94
        3
 73
     0
 74
     1
 95
       26
 96
       22
 40
0.0
 40
0.0
 40
0.0
 40
0.0
 40
1.0
 40
1.0
 40
1.0
 40
2.0
 40
2.0
 40
2.0
 40
3.0
 40
3.0
 40
3.0
 40
4.0
 40
4.0
 40
4.0
 40
5.0
 40
5.0
 40
5.0
 40
6.0
 40
6.0
 40
6.0
 40
7.0
 40
7.0
 40
7.0
 40
7.0
 10
116.3443196323723
 20
-131.839670105929
 10
116.3443196323723
 20
-131.839670105929
 10
115.2398220198012
 20
-131.839670105929
 10
115.2398220198012
 20
-131.839670105929
 10
115.2398220198012
 20
-131.839670105929
 10
115.2398220198012
 20
-132.1697102534159
 10
115.2398220198012
 20
-132.1697102534159
 10
115.2398220198012
 20
-132.1697102534159
 10
115.0916829139354
 20
-132.1697102534159
 10
115.0916829139354
 20
-132.1697102534159
 10
115.0772135128974
 20
-131.8376030486378
 10
114.9142604964451
 20
-131.7907497500384
 10
114.8002278358833
 20
-131.7611219288653
 10
114.8002278358833
 20
-131.7611219288653
 10
114.8002278358833
 20
-131.6150498802907
 10
114.8002278358833
 20
-131.6150498802907
 10
114.8002278358833
 20
-131.6150498802907
 10
116.3443196323723
 20
-131.6150498802907
 10
116.3443196323723
 20
-131.6150498802907
 10
116.3443196323723
 20
-131.6150498802907
 10
116.3443196323723
 20
-131.839670105929
 10
116.3443196323723
 20
-131.839670105929
 97
        0
 97
        0
 75
     2
 76
     1
 98
        0
  0
ENDBLK
  5
CC
330
C9
100
AcDbEntity
  8
0
100
AcDbBlockEnd
  0
ENDSEC
  0
SECTION
  2
ENTITIES
  0
SPLINE
  5
41
330
1F
100
AcDbEntity
  8
_U+30EC_U+30A4_U+30E4_U+30FC 1
 62
     7
420
 16777215
370
    25
100
AcDbSpline
210
0.0
220
0.0
230
1.0
 70
    11
 71
     3
 72
    65
 73
    61
 74
     0
 42
0.0000000001
 43
0.0000000001
 12
1.0
 22
0.0
 32
0.0
 13
1.0
 23
0.0
 33
0.0
 40
0.0
 40
0.0
 40
0.0
 40
0.0
 40
1.0
 40
1.0
 40
1.0
 40
2.0
 40
2.0
 40
2.0
 40
3.0
 40
3.0
 40
3.0
 40
4.0
 40
4.0
 40
4.0
 40
5.0
 40
5.0
 40
5.0
 40
6.0
 40
6.0
 40
6.0
 40
7.0
 40
7.0
 40
7.0
 40
8.0
 40
8.0
 40
8.0
 40
9.0
 40
9.0
 40
9.0
 40
10.0
 40
10.0
 40
10.0
 40
11.0
 40
11.0
 40
11.0
 40
12.0
 40
12.0
 40
12.0
 40
13.0
 40
13.0
 40
13.0
 40
14.0
 40
14.0
 40
14.0
 40
15.0
 40
15.0
 40
15.0
 40
16.0
 40
16.0
 40
16.0
 40
17.0
 40
17.0
 40
17.0
 40
18.0
 40
18.0
 40
18.0
 40
19.0
 40
19.0
 40
19.0
 40
20.0
 40
20.0
 40
20.0
 40
20.0
 10
104.8514795472381
 20
-133.7055294110179
 30
0.0
 10
104.8514795472381
 20
-133.7055294110179
 30
0.0
 10
94.87033813521158
 20
-133.7055294110179
 30
0.0
 10
94.87033813521158
 20
-133.7055294110179
 30
0.0
 10
94.87033813521158
 20
-133.7055294110179
 30
0.0
 10
95.13425118403416
 20
-146.7056021855455
 30
0.0
 10
95.13425118403416
 20
-146.7056021855455
 30
0.0
 10
95.13425118403416
 20
-146.7056021855455
 30
0.0
 10
80.13428156671527
 20
-146.7056021855455
 30
0.0
 10
80.13428156671527
 20
-146.7056021855455
 30
0.0
 10
74.61112226317836
 20
-146.7056021855455
 30
0.0
 10
70.13387848851347
 20
-142.2287110755538
 30
0.0
 10
70.13387848851347
 20
-136.7055163547122
 30
0.0
 10
70.13387848851347
 20
-136.7055163547122
 30
0.0
 10
70.13387848851347
 20
-121.6943633029097
 30
0.0
 10
70.13387848851347
 20
-121.6943633029097
 30
0.0
 10
70.13387848851347
 20
-121.6943633029097
 30
0.0
 10
83.13359815686299
 20
-121.9422602472921
 30
0.0
 10
83.13359815686299
 20
-121.9422602472921
 30
0.0
 10
83.13359815686299
 20
-121.9422602472921
 30
0.0
 10
83.13359815686299
 20
-112.9882663606417
 30
0.0
 10
83.13359815686299
 20
-112.9882663606417
 30
0.0
 10
83.13359815686299
 20
-112.9882663606417
 30
0.0
 10
83.13359815686299
 20
-112.4225871941167
 30
0.0
 10
83.13359815686299
 20
-112.4225871941167
 30
0.0
 10
83.13359815686299
 20
-112.4225871941167
 30
0.0
 10
83.13359815686299
 20
-103.7054835851849
 30
0.0
 10
83.13359815686299
 20
-103.7054835851849
 30
0.0
 10
83.13359815686299
 20
-103.7054835851849
 30
0.0
 10
84.13372313134768
 20
-103.7054835851849
 30
0.0
 10
84.13372313134768
 20
-103.7054835851849
 30
0.0
 10
84.13372313134768
 20
-103.7054835851849
 30
0.0
 10
84.13372313134768
 20
-122.9422088581532
 30
0.0
 10
84.13372313134768
 20
-122.9422088581532
 30
0.0
 10
84.13372313134768
 20
-122.9422088581532
 30
0.0
 10
71.13365068522938
 20
-122.774921635973
 30
0.0
 10
71.13365068522938
 20
-122.774921635973
 30
0.0
 10
71.13365068522938
 20
-122.774921635973
 30
0.0
 10
71.13365068522938
 20
-136.7055163547122
 30
0.0
 10
71.13365068522938
 20
-136.7055163547122
 30
0.0
 10
71.13365068522938
 20
-141.676119964581
 30
0.0
 10
75.16300780465414
 20
-145.7054771857959
 30
0.0
 10
80.1336112889546
 20
-145.7054771857959
 30
0.0
 10
80.1336112889546
 20
-145.7054771857959
 30
0.0
 10
94.13447898731825
 20
-145.7054771857959
 30
0.0
 10
94.13447898731825
 20
-145.7054771857959
 30
0.0
 10
94.13447898731825
 20
-145.7054771857959
 30
0.0
 10
93.87056593849569
 20
-132.7054396890457
 30
0.0
 10
93.87056593849569
 20
-132.7054396890457
 30
0.0
 10
93.87056593849569
 20
-132.7054396890457
 30
0.0
 10
112.8706121204308
 20
-132.7054396890457
 30
0.0
 10
112.8706121204308
 20
-132.7054396890457
 30
0.0
 10
112.8706121204308
 20
-132.7054396890457
 30
0.0
 10
112.8706121204308
 20
-133.7055294110179
 30
0.0
 10
112.8706121204308
 20
-133.7055294110179
 30
0.0
 10
112.8706121204308
 20
-133.7055294110179
 30
0.0
 10
105.4171586994731
 20
-133.7055294110179
 30
0.0
 10
105.4171586994731
 20
-133.7055294110179
 30
0.0
 10
105.4171586994731
 20
-133.7055294110179
 30
0.0
 10
104.8514795472381
 20
-133.7055294110179
 30
0.0
 10
104.8514795472381
 20
-133.7055294110179
 30
0.0
  0
INSERT
  5
43
330
1F
100
AcDbEntity
  8
_U+30EC_U+30A4_U+30E4_U+30FC 1
100
AcDbBlockReference
  2
block 2
 10
0.0
 20
0.0
 30
0.0
  0
INSERT
  5
4B
330
1F
100
AcDbEntity
  8
_U+30EC_U+30A4_U+30E4_U+30FC 1
100
AcDbBlockReference
  2
block 3
 10
0.0
 20
0.0
 30
0.0
  0
INSERT
  5
53
330
1F
100
AcDbEntity
  8
_U+30EC_U+30A4_U+30E4_U+30FC 1
100
AcDbBlockReference
  2
block 4
 10
0.0
 20
0.0
 30
0.0
  0
INSERT
  5
5B
330
1F
100
AcDbEntity
  8
_U+30EC_U+30A4_U+30E4_U+30FC 1
100
AcDbBlockReference
  2
block 5
 10
0.0
 20
0.0
 30
0.0
  0
INSERT
  5
64
330
1F
100
AcDbEntity
  8
_U+30EC_U+30A4_U+30E4_U+30FC 1
100
AcDbBlockReference
  2
block 6
 10
0.0
 20
0.0
 30
0.0
  0
INSERT
  5
7C
330
1F
100
AcDbEntity
  8
_U+30EC_U+30A4_U+30E4_U+30FC 1
100
AcDbBlockReference
  2
block 7
 10
0.0
 20
0.0
 30
0.0
  0
INSERT
  5
84
330
1F
100
AcDbEntity
  8
_U+30EC_U+30A4_U+30E4_U+30FC 1
100
AcDbBlockReference
  2
block 8
 10
0.0
 20
0.0
 30
0.0
  0
INSERT
  5
8E
330
1F
100
AcDbEntity
  8
_U+30EC_U+30A4_U+30E4_U+30FC 1
100
AcDbBlockReference
  2
block 9
 10
0.0
 20
0.0
 30
0.0
  0
INSERT
  5
9E
330
1F
100
AcDbEntity
  8
_U+30EC_U+30A4_U+30E4_U+30FC 1
100
AcDbBlockReference
  2
block 10
 10
0.0
 20
0.0
 30
0.0
  0
INSERT
  5
AA
330
1F
100
AcDbEntity
  8
_U+30EC_U+30A4_U+30E4_U+30FC 1
100
AcDbBlockReference
  2
block 11
 10
0.0
 20
0.0
 30
0.0
  0
INSERT
  5
C2
330
1F
100
AcDbEntity
  8
_U+30EC_U+30A4_U+30E4_U+30FC 1
100
AcDbBlockReference
  2
block 12
 10
0.0
 20
0.0
 30
0.0
  0
INSERT
  5
CA
330
1F
100
AcDbEntity
  8
_U+30EC_U+30A4_U+30E4_U+30FC 1
100
AcDbBlockReference
  2
block 13
 10
0.0
 20
0.0
 30
0.0
  0
SPLINE
  5
CF
330
1F
100
AcDbEntity
  8
_U+30EC_U+30A4_U+30E4_U+30FC 1
 62
     7
420
 16777215
370
     9
100
AcDbSpline
210
0.0
220
0.0
230
1.0
 70
    11
 71
     3
 72
    17
 73
    13
 74
     0
 42
0.0000000001
 43
0.0000000001
 12
1.0
 22
0.0
 32
0.0
 13
1.0
 23
0.0
 33
0.0
 40
0.0
 40
0.0
 40
0.0
 40
0.0
 40
1.0
 40
1.0
 40
1.0
 40
2.0
 40
2.0
 40
2.0
 40
3.0
 40
3.0
 40
3.0
 40
4.0
 40
4.0
 40
4.0
 40
4.0
 10
66.21712803288254
 20
-103.7363163629548
 30
0.0
 10
66.21712803288254
 20
-103.6813535851909
 30
0.0
 10
66.17236053402466
 20
-103.6369035852019
 30
0.0
 10
66.11690553902622
 20
-103.6369035852019
 30
0.0
 10
66.06247025905041
 20
-103.6369035852019
 30
0.0
 10
66.01766748241565
 20
-103.6813535851909
 30
0.0
 10
66.01766748241565
 20
-103.7363163629548
 30
0.0
 10
66.01766748241565
 20
-103.7915966407189
 30
0.0
 10
66.06247025905041
 20
-103.8365405295963
 30
0.0
 10
66.11690553902622
 20
-103.8365405295963
 30
0.0
 10
66.17236053402466
 20
-103.8365405295963
 30
0.0
 10
66.21712803288254
 20
-103.7915966407189
 30
0.0
 10
66.21712803288254
 20
-103.7363163629548
 30
0.0
  0
SPLINE
  5
D0
330
1F
100
AcDbEntity
  8
_U+30EC_U+30A4_U+30E4_U+30FC 1
 62
     7
420
 16777215
370
     9
100
AcDbSpline
210
0.0
220
0.0
230
1.0
 70
    11
 71
     3
 72
    17
 73
    13
 74
     0
 42
0.0000000001
 43
0.0000000001
 12
1.0
 22
0.0
 32
0.0
 13
1.0
 23
0.0
 33
0.0
 40
0.0
 40
0.0
 40
0.0
 40
0.0
 40
1.0
 40
1.0
 40
1.0
 40
2.0
 40
2.0
 40
2.0
 40
3.0
 40
3.0
 40
3.0
 40
4.0
 40
4.0
 40
4.0
 40
4.0
 10
66.23402776121928
 20
-121.7040294140184
 30
0.0
 10
66.23402776121928
 20
-121.6490666362545
 30
0.0
 10
66.18922498345255
 20
-121.6041227473768
 30
0.0
 10
66.13411942388916
 20
-121.6041227473768
 30
0.0
 10
66.07898025862922
 20
-121.6041227473768
 30
0.0
 10
66.03421275977132
 20
-121.6490666362545
 30
0.0
 10
66.03421275977132
 20
-121.7040294140184
 30
0.0
 10
66.03421275977132
 20
-121.7598388584488
 30
0.0
 10
66.07898025862922
 20
-121.80393608066
 30
0.0
 10
66.13411942388916
 20
-121.80393608066
 30
0.0
 10
66.18922498345255
 20
-121.80393608066
 30
0.0
 10
66.23402776121928
 20
-121.7598388584488
 30
0.0
 10
66.23402776121928
 20
-121.7040294140184
 30
0.0
  0
SPLINE
  5
D1
330
1F
100
AcDbEntity
  8
_U+30EC_U+30A4_U+30E4_U+30FC 1
 62
     7
420
 16777215
370
     9
100
AcDbSpline
210
0.0
220
0.0
230
1.0
 70
    11
 71
     3
 72
    17
 73
    13
 74
     0
 42
0.0000000001
 43
0.0000000001
 12
1.0
 22
0.0
 32
0.0
 13
1.0
 23
0.0
 33
0.0
 40
0.0
 40
0.0
 40
0.0
 40
0.0
 40
1.0
 40
1.0
 40
1.0
 40
2.0
 40
2.0
 40
2.0
 40
3.0
 40
3.0
 40
3.0
 40
4.0
 40
4.0
 40
4.0
 40
4.0
 10
66.20647414426546
 20
-146.7007691299914
 30
0.0
 10
66.20647414426546
 20
-146.6460180188942
 30
0.0
 10
66.1616713676307
 20
-146.6012152411275
 30
0.0
 10
66.10656748014763
 20
-146.6012152411275
 30
0.0
 10
66.0510755371189
 20
-146.6012152411275
 30
0.0
 10
66.0066608160298
 20
-146.6460180188942
 30
0.0
 10
66.0066608160298
 20
-146.7007691299914
 30
0.0
 10
66.0066608160298
 20
-146.7565785744218
 30
0.0
 10
66.0510755371189
 20
-146.8013813521885
 30
0.0
 10
66.10656748014763
 20
-146.8013813521885
 30
0.0
 10
66.1616713676307
 20
-146.8013813521885
 30
0.0
 10
66.20647414426546
 20
-146.7565785744218
 30
0.0
 10
66.20647414426546
 20
-146.7007691299914
 30
0.0
  0
SPLINE
  5
D2
330
1F
100
AcDbEntity
  8
_U+30EC_U+30A4_U+30E4_U+30FC 1
 62
     7
420
 16777215
370
     9
100
AcDbSpline
210
0.0
220
0.0
230
1.0
 70
    11
 71
     3
 72
    17
 73
    13
 74
     0
 42
0.0000000001
 43
0.0000000001
 12
1.0
 22
0.0
 32
0.0
 13
1.0
 23
0.0
 33
0.0
 40
0.0
 40
0.0
 40
0.0
 40
0.0
 40
1.0
 40
1.0
 40
1.0
 40
2.0
 40
2.0
 40
2.0
 40
3.0
 40
3.0
 40
3.0
 40
4.0
 40
4.0
 40
4.0
 40
4.0
 10
70.24962487444942
 20
-150.9530466289284
 30
0.0
 10
70.24962487444942
 20
-150.8979427400535
 30
0.0
 10
70.20485737559154
 20
-150.8531399622868
 30
0.0
 10
70.14904793257091
 20
-150.8531399622868
 30
0.0
 10
70.09461432284851
 20
-150.8531399622868
 30
0.0
 10
70.04981154621376
 20
-150.8979427400535
 30
0.0
 10
70.04981154621376
 20
-150.9530466289284
 30
0.0
 10
70.04981154621376
 20
-151.0088560733589
 30
0.0
 10
70.09461432284851
 20
-151.0536588511256
 30
0.0
 10
70.14904793257091
 20
-151.0536588511256
 30
0.0
 10
70.20485737559154
 20
-151.0536588511256
 30
0.0
 10
70.24962487444942
 20
-151.0088560733589
 30
0.0
 10
70.24962487444942
 20
-150.9530466289284
 30
0.0
  0
SPLINE
  5
D3
330
1F
100
AcDbEntity
  8
_U+30EC_U+30A4_U+30E4_U+30FC 1
 62
     7
420
 16777215
370
     9
100
AcDbSpline
210
0.0
220
0.0
230
1.0
 70
    11
 71
     3
 72
    17
 73
    13
 74
     0
 42
0.0000000001
 43
0.0000000001
 12
1.0
 22
0.0
 32
0.0
 13
1.0
 23
0.0
 33
0.0
 40
0.0
 40
0.0
 40
0.0
 40
0.0
 40
1.0
 40
1.0
 40
1.0
 40
2.0
 40
2.0
 40
2.0
 40
3.0
 40
3.0
 40
3.0
 40
4.0
 40
4.0
 40
4.0
 40
4.0
 10
95.22174007069103
 20
-150.9468730178189
 30
0.0
 10
95.22174007069103
 20
-151.0019769066938
 30
0.0
 10
95.17697497620564
 20
-151.0467796844605
 30
0.0
 10
95.12183340657319
 20
-151.0467796844605
 30
0.0
 10
95.06672951909012
 20
-151.0467796844605
 30
0.0
 10
95.02192674245535
 20
-151.0019769066938
 30
0.0
 10
95.02192674245535
 20
-150.9468730178189
 30
0.0
 10
95.02192674245535
 20
-150.8917338511658
 30
0.0
 10
95.06672951909012
 20
-150.8469663511773
 30
0.0
 10
95.12183340657319
 20
-150.8469663511773
 30
0.0
 10
95.17697497620564
 20
-150.8469663511773
 30
0.0
 10
95.22174007069103
 20
-150.8917338511658
 30
0.0
 10
95.22174007069103
 20
-150.9468730178189
 30
0.0
  0
HATCH
  5
D4
330
1F
100
AcDbEntity
  8
_U+30EC_U+30A4_U+30E4_U+30FC 1
 62
     7
420
 16777215
100
AcDbHatch
 10
0.0
 20
0.0
 30
0.0
210
0.0
220
0.0
230
1.0
  2
SOLID
 70
     1
 71
     0
 91
        1
 92
        1
 93
        1
 72
     4
 94
        3
 73
     0
 74
     1
 95
       17
 96
       13
 40
0.0
 40
0.0
 40
0.0
 40
0.0
 40
1.0
 40
1.0
 40
1.0
 40
2.0
 40
2.0
 40
2.0
 40
3.0
 40
3.0
 40
3.0
 40
4.0
 40
4.0
 40
4.0
 40
4.0
 10
95.22174007069103
 20
-150.9468730178189
 10
95.22174007069103
 20
-151.0019769066938
 10
95.17697497620564
 20
-151.0467796844605
 10
95.12183340657319
 20
-151.0467796844605
 10
95.06672951909012
 20
-151.0467796844605
 10
95.02192674245535
 20
-151.0019769066938
 10
95.02192674245535
 20
-150.9468730178189
 10
95.02192674245535
 20
-150.8917338511658
 10
95.06672951909012
 20
-150.8469663511773
 10
95.12183340657319
 20
-150.8469663511773
 10
95.17697497620564
 20
-150.8469663511773
 10
95.22174007069103
 20
-150.8917338511658
 10
95.22174007069103
 20
-150.9468730178189
 97
        0
 97
        0
 75
     2
 76
     1
 98
        0
  0
SPLINE
  5
D5
330
1F
100
AcDbEntity
  8
_U+30EC_U+30A4_U+30E4_U+30FC 1
 62
     7
420
 16777215
370
     9
100
AcDbSpline
210
0.0
220
0.0
230
1.0
 70
    11
 71
     3
 72
    17
 73
    13
 74
     0
 42
0.0000000001
 43
0.0000000001
 12
1.0
 22
0.0
 32
0.0
 13
1.0
 23
0.0
 33
0.0
 40
0.0
 40
0.0
 40
0.0
 40
0.0
 40
1.0
 40
1.0
 40
1.0
 40
2.0
 40
2.0
 40
2.0
 40
3.0
 40
3.0
 40
3.0
 40
4.0
 40
4.0
 40
4.0
 40
4.0
 10
117.1866364547643
 20
-146.6969944077705
 30
0.0
 10
117.1866364547643
 20
-146.7520982966454
 30
0.0
 10
117.1418689559064
 20
-146.7969010744121
 30
0.0
 10
117.0867297906464
 20
-146.7969010744121
 30
0.0
 10
117.0316259031634
 20
-146.7969010744121
 30
0.0
 10
116.9868231265286
 20
-146.7520982966454
 30
0.0
 10
116.9868231265286
 20
-146.6969944077705
 30
0.0
 10
116.9868231265286
 20
-146.6418552411174
 30
0.0
 10
117.0316259031634
 20
-146.5970877411288
 30
0.0
 10
117.0867297906464
 20
-146.5970877411288
 30
0.0
 10
117.1418689559064
 20
-146.5970877411288
 30
0.0
 10
117.1866364547643
 20
-146.6418552411174
 30
0.0
 10
117.1866364547643
 20
-146.6969944077705
 30
0.0
  0
HATCH
  5
D6
330
1F
100
AcDbEntity
  8
_U+30EC_U+30A4_U+30E4_U+30FC 1
 62
     7
420
 16777215
100
AcDbHatch
 10
0.0
 20
0.0
 30
0.0
210
0.0
220
0.0
230
1.0
  2
SOLID
 70
     1
 71
     0
 91
        1
 92
        1
 93
        1
 72
     4
 94
        3
 73
     0
 74
     1
 95
       17
 96
       13
 40
0.0
 40
0.0
 40
0.0
 40
0.0
 40
1.0
 40
1.0
 40
1.0
 40
2.0
 40
2.0
 40
2.0
 40
3.0
 40
3.0
 40
3.0
 40
4.0
 40
4.0
 40
4.0
 40
4.0
 10
117.1866364547643
 20
-146.6969944077705
 10
117.1866364547643
 20
-146.7520982966454
 10
117.1418689559064
 20
-146.7969010744121
 10
117.0867297906464
 20
-146.7969010744121
 10
117.0316259031634
 20
-146.7969010744121
 10
116.9868231265286
 20
-146.7520982966454
 10
116.9868231265286
 20
-146.6969944077705
 10
116.9868231265286
 20
-146.6418552411174
 10
117.0316259031634
 20
-146.5970877411288
 10
117.0867297906464
 20
-146.5970877411288
 10
117.1418689559064
 20
-146.5970877411288
 10
117.1866364547643
 20
-146.6418552411174
 10
117.1866364547643
 20
-146.6969944077705
 97
        0
 97
        0
 75
     2
 76
     1
 98
        0
  0
SPLINE
  5
D7
330
1F
100
AcDbEntity
  8
_U+30EC_U+30A4_U+30E4_U+30FC 1
 62
     7
420
 16777215
370
     9
100
AcDbSpline
210
0.0
220
0.0
230
1.0
 70
    11
 71
     3
 72
    17
 73
    13
 74
     0
 42
0.0000000001
 43
0.0000000001
 12
1.0
 22
0.0
 32
0.0
 13
1.0
 23
0.0
 33
0.0
 40
0.0
 40
0.0
 40
0.0
 40
0.0
 40
1.0
 40
1.0
 40
1.0
 40
2.0
 40
2.0
 40
2.0
 40
3.0
 40
3.0
 40
3.0
 40
4.0
 40
4.0
 40
4.0
 40
4.0
 10
117.1866364547643
 20
-133.7055294110179
 30
0.0
 10
117.1866364547643
 20
-133.7606685776709
 30
0.0
 10
117.1418689559064
 20
-133.8054360776595
 30
0.0
 10
117.0867297906464
 20
-133.8054360776595
 30
0.0
 10
117.0316259031634
 20
-133.8054360776595
 30
0.0
 10
116.9868231265286
 20
-133.7606685776709
 30
0.0
 10
116.9868231265286
 20
-133.7055294110179
 30
0.0
 10
116.9868231265286
 20
-133.6504255221429
 30
0.0
 10
117.0316259031634
 20
-133.6056227443762
 30
0.0
 10
117.0867297906464
 20
-133.6056227443762
 30
0.0
 10
117.1418689559064
 20
-133.6056227443762
 30
0.0
 10
117.1866364547643
 20
-133.6504255221429
 30
0.0
 10
117.1866364547643
 20
-133.7055294110179
 30
0.0
  0
HATCH
  5
D8
330
1F
100
AcDbEntity
  8
_U+30EC_U+30A4_U+30E4_U+30FC 1
 62
     7
420
 16777215
100
AcDbHatch
 10
0.0
 20
0.0
 30
0.0
210
0.0
220
0.0
230
1.0
  2
SOLID
 70
     1
 71
     0
 91
        1
 92
        1
 93
        1
 72
     4
 94
        3
 73
     0
 74
     1
 95
       17
 96
       13
 40
0.0
 40
0.0
 40
0.0
 40
0.0
 40
1.0
 40
1.0
 40
1.0
 40
2.0
 40
2.0
 40
2.0
 40
3.0
 40
3.0
 40
3.0
 40
4.0
 40
4.0
 40
4.0
 40
4.0
 10
117.1866364547643
 20
-133.7055294110179
 10
117.1866364547643
 20
-133.7606685776709
 10
117.1418689559064
 20
-133.8054360776595
 10
117.0867297906464
 20
-133.8054360776595
 10
117.0316259031634
 20
-133.8054360776595
 10
116.9868231265286
 20
-133.7606685776709
 10
116.9868231265286
 20
-133.7055294110179
 10
116.9868231265286
 20
-133.6504255221429
 10
117.0316259031634
 20
-133.6056227443762
 10
117.0867297906464
 20
-133.6056227443762
 10
117.1418689559064
 20
-133.6056227443762
 10
117.1866364547643
 20
-133.6504255221429
 10
117.1866364547643
 20
-133.7055294110179
 97
        0
 97
        0
 75
     2
 76
     1
 98
        0
  0
SPLINE
  5
D9
330
1F
100
AcDbEntity
  8
_U+30EC_U+30A4_U+30E4_U+30FC 1
 62
     7
420
 16777215
370
     9
100
AcDbSpline
210
0.0
220
0.0
230
1.0
 70
    11
 71
     3
 72
    17
 73
    13
 74
     0
 42
0.0000000001
 43
0.0000000001
 12
1.0
 22
0.0
 32
0.0
 13
1.0
 23
0.0
 33
0.0
 40
0.0
 40
0.0
 40
0.0
 40
0.0
 40
1.0
 40
1.0
 40
1.0
 40
2.0
 40
2.0
 40
2.0
 40
3.0
 40
3.0
 40
3.0
 40
4.0
 40
4.0
 40
4.0
 40
4.0
 10
117.1866364547643
 20
-132.7643183001422
 30
0.0
 10
117.1866364547643
 20
-132.8194574667953
 30
0.0
 10
117.1418689559064
 20
-132.8642249667838
 30
0.0
 10
117.0867297906464
 20
-132.8642249667838
 30
0.0
 10
117.0316259031634
 20
-132.8642249667838
 30
0.0
 10
116.9868231265286
 20
-132.8194574667953
 30
0.0
 10
116.9868231265286
 20
-132.7643183001422
 30
0.0
 10
116.9868231265286
 20
-132.7092144112673
 30
0.0
 10
117.0316259031634
 20
-132.6644116335005
 30
0.0
 10
117.0867297906464
 20
-132.6644116335005
 30
0.0
 10
117.1418689559064
 20
-132.6644116335005
 30
0.0
 10
117.1866364547643
 20
-132.7092144112673
 30
0.0
 10
117.1866364547643
 20
-132.7643183001422
 30
0.0
  0
HATCH
  5
DA
330
1F
100
AcDbEntity
  8
_U+30EC_U+30A4_U+30E4_U+30FC 1
 62
     7
420
 16777215
100
AcDbHatch
 10
0.0
 20
0.0
 30
0.0
210
0.0
220
0.0
230
1.0
  2
SOLID
 70
     1
 71
     0
 91
        1
 92
        1
 93
        1
 72
     4
 94
        3
 73
     0
 74
     1
 95
       17
 96
       13
 40
0.0
 40
0.0
 40
0.0
 40
0.0
 40
1.0
 40
1.0
 40
1.0
 40
2.0
 40
2.0
 40
2.0
 40
3.0
 40
3.0
 40
3.0
 40
4.0
 40
4.0
 40
4.0
 40
4.0
 10
117.1866364547643
 20
-132.7643183001422
 10
117.1866364547643
 20
-132.8194574667953
 10
117.1418689559064
 20
-132.8642249667838
 10
117.0867297906464
 20
-132.8642249667838
 10
117.0316259031634
 20
-132.8642249667838
 10
116.9868231265286
 20
-132.8194574667953
 10
116.9868231265286
 20
-132.7643183001422
 10
116.9868231265286
 20
-132.7092144112673
 10
117.0316259031634
 20
-132.6644116335005
 10
117.0867297906464
 20
-132.6644116335005
 10
117.1418689559064
 20
-132.6644116335005
 10
117.1866364547643
 20
-132.7092144112673
 10
117.1866364547643
 20
-132.7643183001422
 97
        0
 97
        0
 75
     2
 76
     1
 98
        0
  0
SPLINE
  5
DB
330
1F
100
AcDbEntity
  8
_U+30EC_U+30A4_U+30E4_U+30FC 1
 62
     7
420
 16777215
370
     9
100
AcDbSpline
210
0.0
220
0.0
230
1.0
 70
    11
 71
     3
 72
    17
 73
    13
 74
     0
 42
0.0000000001
 43
0.0000000001
 12
1.0
 22
0.0
 32
0.0
 13
1.0
 23
0.0
 33
0.0
 40
0.0
 40
0.0
 40
0.0
 40
0.0
 40
1.0
 40
1.0
 40
1.0
 40
2.0
 40
2.0
 40
2.0
 40
3.0
 40
3.0
 40
3.0
 40
4.0
 40
4.0
 40
4.0
 40
4.0
 10
80.22318156444724
 20
-150.9468730178189
 30
0.0
 10
80.22318156444724
 20
-151.0019769066938
 30
0.0
 10
80.17837878781248
 20
-151.0467796844605
 30
0.0
 10
80.1232749003294
 20
-151.0467796844605
 30
0.0
 10
80.06813573506946
 20
-151.0467796844605
 30
0.0
 10
80.02336823621157
 20
-151.0019769066938
 30
0.0
 10
80.02336823621157
 20
-150.9468730178189
 30
0.0
 10
80.02336823621157
 20
-150.8917338511658
 30
0.0
 10
80.06813573506946
 20
-150.8469663511773
 30
0.0
 10
80.1232749003294
 20
-150.8469663511773
 30
0.0
 10
80.17837878781248
 20
-150.8469663511773
 30
0.0
 10
80.22318156444724
 20
-150.8917338511658
 30
0.0
 10
80.22318156444724
 20
-150.9468730178189
 30
0.0
  0
HATCH
  5
DC
330
1F
100
AcDbEntity
  8
_U+30EC_U+30A4_U+30E4_U+30FC 1
 62
     7
420
 16777215
100
AcDbHatch
 10
0.0
 20
0.0
 30
0.0
210
0.0
220
0.0
230
1.0
  2
SOLID
 70
     1
 71
     0
 91
        1
 92
        1
 93
        1
 72
     4
 94
        3
 73
     0
 74
     1
 95
       17
 96
       13
 40
0.0
 40
0.0
 40
0.0
 40
0.0
 40
1.0
 40
1.0
 40
1.0
 40
2.0
 40
2.0
 40
2.0
 40
3.0
 40
3.0
 40
3.0
 40
4.0
 40
4.0
 40
4.0
 40
4.0
 10
80.22318156444724
 20
-150.9468730178189
 10
80.22318156444724
 20
-151.0019769066938
 10
80.17837878781248
 20
-151.0467796844605
 10
80.1232749003294
 20
-151.0467796844605
 10
80.06813573506946
 20
-151.0467796844605
 10
80.02336823621157
 20
-151.0019769066938
 10
80.02336823621157
 20
-150.9468730178189
 10
80.02336823621157
 20
-150.8917338511658
 10
80.06813573506946
 20
-150.8469663511773
 10
80.1232749003294
 20
-150.8469663511773
 10
80.17837878781248
 20
-150.8469663511773
 10
80.22318156444724
 20
-150.8917338511658
 10
80.22318156444724
 20
-150.9468730178189
 97
        0
 97
        0
 75
     2
 76
     1
 98
        0
  0
POLYLINE
  5
DD
330
1F
100
AcDbEntity
  8
_U+30EC_U+30A4_U+30E4_U+30FC 1
 62
     7
420
 16777215
370
     9
100
AcDb2dPolyline
 66
     1
 10
0.0
 20
0.0
 30
0.0
  0
VERTEX
  5
DE
330
DD
100
AcDbEntity
  8
_U+30EC_U+30A4_U+30E4_U+30FC 1
 62
     7
420
 16777215
370
     9
100
AcDbVertex
100
AcDb2dVertex
 10
70.13387848851347
 20
-153.1145160728327
 30
0.0
  0
VERTEX
  5
DF
330
DD
100
AcDbEntity
  8
_U+30EC_U+30A4_U+30E4_U+30FC 1
 62
     7
420
 16777215
370
     9
100
AcDbVertex
100
AcDb2dVertex
 10
70.13387848851347
 20
-140.2057421871709
 30
0.0
  0
SEQEND
  5
E0
330
DD
100
AcDbEntity
  8
_U+30EC_U+30A4_U+30E4_U+30FC 1
 62
     7
420
 16777215
370
     9
  0
POLYLINE
  5
E1
330
1F
100
AcDbEntity
  8
_U+30EC_U+30A4_U+30E4_U+30FC 1
 62
     7
420
 16777215
370
     9
100
AcDb2dPolyline
 66
     1
 10
0.0
 20
0.0
 30
0.0
  0
VERTEX
  5
E2
330
E1
100
AcDbEntity
  8
_U+30EC_U+30A4_U+30E4_U+30FC 1
 62
     7
420
 16777215
370
     9
100
AcDbVertex
100
AcDb2dVertex
 10
95.13389840626539
 20
-152.9050366284404
 30
0.0
  0
VERTEX
  5
E3
330
E1
100
AcDbEntity
  8
_U+30EC_U+30A4_U+30E4_U+30FC 1
 62
     7
420
 16777215
370
     9
100
AcDbVertex
100
AcDb2dVertex
 10
95.13389840626539
 20
-149.922300518075
 30
0.0
  0
SEQEND
  5
E4
330
E1
100
AcDbEntity
  8
_U+30EC_U+30A4_U+30E4_U+30FC 1
 62
     7
420
 16777215
370
     9
  0
ENDSEC
  0
SECTION
  2
OBJECTS
  0
DICTIONARY
  5
C
330
0
100
AcDbDictionary
281
     1
  3
ACAD_GROUP
350
D
  3
ACAD_LAYOUT
350
1A
  3
ACAD_MATERIAL
350
3B
  3
ACAD_MLEADERSTYLE
350
E6
  3
ACAD_MLINESTYLE
350
17
  3
ACAD_PLOTSETTINGS
350
19
  3
ACAD_PLOTSTYLENAME
350
E
  3
ACAD_TABLESTYLE
350
E5
  3
ACAD_VISUALSTYLE
350
2A
  0
SUN
  5
3F
330
29
100
AcDbSun
 90
        1
290
     0
 63
     7
421
 16777215
 40
1.0
291
     1
 91
  2455826
 92
 54000000
292
     0
 70
     2
 71
   256
280
     1
  0
DICTIONARY
  5
D
102
{ACAD_REACTORS
330
C
102
}
330
C
100
AcDbDictionary
281
     1
  0
DICTIONARY
  5
1A
102
{ACAD_REACTORS
330
C
102
}
330
C
100
AcDbDictionary
281
     1
  3
Layout1
350
1E
  3
Layout2
350
26
  3
Model
350
22
  0
DICTIONARY
  5
3B
102
{ACAD_REACTORS
330
C
102
}
330
C
100
AcDbDictionary
281
     1
  3
ByBlock
350
3D
  3
ByLayer
350
3C
  3
Global
350
3E
  0
DICTIONARY
  5
E6
102
{ACAD_REACTORS
330
C
102
}
330
C
100
AcDbDictionary
281
     1
  0
DICTIONARY
  5
17
102
{ACAD_REACTORS
330
C
102
}
330
C
100
AcDbDictionary
281
     1
  3
Standard
350
18
  0
DICTIONARY
  5
19
102
{ACAD_REACTORS
330
C
102
}
330
C
100
AcDbDictionary
281
     1
  0
ACDBDICTIONARYWDFLT
  5
E
102
{ACAD_REACTORS
330
C
102
}
330
C
100
AcDbDictionary
281
     1
  3
Normal
350
F
100
AcDbDictionaryWithDefault
340
F
  0
DICTIONARY
  5
E5
102
{ACAD_REACTORS
330
C
102
}
330
C
100
AcDbDictionary
281
     1
  0
DICTIONARY
  5
2A
102
{ACAD_REACTORS
330
C
102
}
330
C
100
AcDbDictionary
281
     1
  3
2dWireframe
350
2F
  3
3D Hidden
350
31
  3
3dWireframe
350
30
  3
Basic
350
32
  3
Brighten
350
36
  3
ColorChange
350
3A
  3
Conceptual
350
34
  3
Dim
350
35
  3
Facepattern
350
39
  3
Flat
350
2B
  3
FlatWithEdges
350
2C
  3
Gouraud
350
2D
  3
GouraudWithEdges
350
2E
  3
Linepattern
350
38
  3
Realistic
350
33
  3
Thicken
350
37
  0
LAYOUT
  5
1E
102
{ACAD_REACTORS
330
1A
102
}
330
1A
100
AcDbPlotSettings
  1

  2
none_device
  4

  6

 40
0.0
 41
0.0
 42
0.0
 43
0.0
 44
0.0
 45
0.0
 46
0.0
 47
0.0
 48
0.0
 49
0.0
140
0.0
141
0.0
142
1.0
143
1.0
 70
   688
 72
     0
 73
     0
 74
     5
  7

 75
    16
 76
     0
 77
     2
 78
   300
147
1.0
148
0.0
149
0.0
100
AcDbLayout
  1
Layout1
 70
     1
 71
     1
 10
0.0
 20
0.0
 11
12.0
 21
9.0
 12
0.0
 22
0.0
 32
0.0
 14
1.000000000000000E+20
 24
1.000000000000000E+20
 34
1.000000000000000E+20
 15
-1.000000000000000E+20
 25
-1.000000000000000E+20
 35
-1.000000000000000E+20
146
0.0
 13
0.0
 23
0.0
 33
0.0
 16
1.0
 26
0.0
 36
0.0
 17
0.0
 27
1.0
 37
0.0
 76
     0
330
1B
  0
LAYOUT
  5
26
102
{ACAD_REACTORS
330
1A
102
}
330
1A
100
AcDbPlotSettings
  1

  2
none_device
  4

  6

 40
0.0
 41
0.0
 42
0.0
 43
0.0
 44
0.0
 45
0.0
 46
0.0
 47
0.0
 48
0.0
 49
0.0
140
0.0
141
0.0
142
1.0
143
1.0
 70
   688
 72
     0
 73
     0
 74
     5
  7

 75
    16
 76
     0
 77
     2
 78
   300
147
1.0
148
0.0
149
0.0
100
AcDbLayout
  1
Layout2
 70
     1
 71
     2
 10
0.0
 20
0.0
 11
0.0
 21
0.0
 12
0.0
 22
0.0
 32
0.0
 14
0.0
 24
0.0
 34
0.0
 15
0.0
 25
0.0
 35
0.0
146
0.0
 13
0.0
 23
0.0
 33
0.0
 16
1.0
 26
0.0
 36
0.0
 17
0.0
 27
1.0
 37
0.0
 76
     0
330
23
  0
LAYOUT
  5
22
102
{ACAD_REACTORS
330
1A
102
}
330
1A
100
AcDbPlotSettings
  1

  2
none_device
  4

  6

 40
0.0
 41
0.0
 42
0.0
 43
0.0
 44
0.0
 45
0.0
 46
0.0
 47
0.0
 48
0.0
 49
0.0
140
0.0
141
0.0
142
1.0
143
1.0
 70
  1712
 72
     0
 73
     0
 74
     0
  7

 75
     0
 76
     0
 77
     2
 78
   300
147
1.0
148
0.0
149
0.0
100
AcDbLayout
  1
Model
 70
     1
 71
     0
 10
0.0
 20
0.0
 11
12.0
 21
9.0
 12
0.0
 22
0.0
 32
0.0
 14
1.000000000000000E+20
 24
1.000000000000000E+20
 34
1.000000000000000E+20
 15
-1.000000000000000E+20
 25
-1.000000000000000E+20
 35
-1.000000000000000E+20
146
0.0
 13
0.0
 23
0.0
 33
0.0
 16
1.0
 26
0.0
 36
0.0
 17
0.0
 27
1.0
 37
0.0
 76
     0
330
1F
331
29
  0
MATERIAL
  5
3D
102
{ACAD_REACTORS
330
3B
102
}
330
3B
100
AcDbMaterial
  1
ByBlock
 72
     1
 94
      127
  0
MATERIAL
  5
3C
102
{ACAD_REACTORS
330
3B
102
}
330
3B
100
AcDbMaterial
  1
ByLayer
 72
     1
 94
      127
  0
MATERIAL
  5
3E
102
{ACAD_REACTORS
330
3B
102
}
330
3B
100
AcDbMaterial
  1
Global
 72
     1
 94
      127
  0
MLINESTYLE
  5
18
102
{ACAD_REACTORS
330
17
102
}
330
17
100
AcDbMlineStyle
  2
Standard
 70
     0
  3

 62
   256
 51
90.0
 52
90.0
 71
     2
 49
0.5
 62
   256
  6
BYLAYER
 49
-0.5
 62
   256
  6
BYLAYER
  0
ACDBPLACEHOLDER
  5
F
102
{ACAD_REACTORS
330
E
102
}
330
E
  0
VISUALSTYLE
  5
2F
102
{ACAD_REACTORS
330
2A
102
}
330
2A
100
AcDbVisualStyle
  2
2dWireframe
 70
     4
177
     2
291
     0
 71
     0
176
     1
 72
     2
176
     1
 73
     0
176
     1
 90
        0
176
     1
 40
-0.6
176
     1
 41
-30.0
176
     1
 62
     5
 63
     7
421
 16777215
176
     1
 74
     1
176
     1
 91
        4
176
     1
 64
     7
176
     1
 65
   257
176
     1
 75
     1
176
     1
175
     1
176
     1
 42
1.0
176
     1
 92
        0
176
     1
 66
   257
176
     1
 43
1.0
176
     1
 76
     1
176
     1
 77
     6
176
     1
 78
     2
176
     1
 67
     7
176
     1
 79
     5
176
     1
170
     0
176
     1
171
     0
176
     1
290
     0
176
     1
 93
        1
176
     1
 44
0.0
176
     1
173
     0
176
     1
  0
VISUALSTYLE
  5
31
102
{ACAD_REACTORS
330
2A
102
}
330
2A
100
AcDbVisualStyle
  2
3D Hidden
 70
     6
177
     2
291
     0
 71
     1
176
     1
 72
     2
176
     1
 73
     2
176
     1
 90
        0
176
     1
 40
-0.6
176
     1
 41
-30.0
176
     1
 62
     5
 63
     7
421
 16777215
176
     1
 74
     2
176
     1
 91
        2
176
     1
 64
     7
176
     1
 65
   257
176
     1
 75
     2
176
     1
175
     1
176
     1
 42
40.0
176
     1
 92
        0
176
     1
 66
   257
176
     1
 43
1.0
176
     1
 76
     1
176
     1
 77
     6
176
     1
 78
     2
176
     1
 67
     7
176
     1
 79
     3
176
     1
170
     0
176
     1
171
     0
176
     1
290
     0
176
     1
 93
        1
176
     1
 44
0.0
176
     1
173
     0
176
     1
  0
VISUALSTYLE
  5
30
102
{ACAD_REACTORS
330
2A
102
}
330
2A
100
AcDbVisualStyle
  2
3dWireframe
 70
     5
177
     2
291
     0
 71
     0
176
     1
 72
     2
176
     1
 73
     0
176
     1
 90
        0
176
     1
 40
-0.6
176
     1
 41
-30.0
176
     1
 62
     5
 63
     7
421
 16777215
176
     1
 74
     1
176
     1
 91
        4
176
     1
 64
     7
176
     1
 65
   257
176
     1
 75
     1
176
     1
175
     1
176
     1
 42
1.0
176
     1
 92
        0
176
     1
 66
   257
176
     1
 43
1.0
176
     1
 76
     1
176
     1
 77
     6
176
     1
 78
     2
176
     1
 67
     7
176
     1
 79
     5
176
     1
170
     0
176
     1
171
     0
176
     1
290
     0
176
     1
 93
        1
176
     1
 44
0.0
176
     1
173
     0
176
     1
  0
VISUALSTYLE
  5
32
102
{ACAD_REACTORS
330
2A
102
}
330
2A
100
AcDbVisualStyle
  2
Basic
 70
     7
177
     2
291
     1
 71
     1
176
     1
 72
     0
176
     1
 73
     1
176
     1
 90
        0
176
     1
 40
-0.6
176
     1
 41
-30.0
176
     1
 62
     5
 63
     7
421
 16777215
176
     1
 74
     0
176
     1
 91
        4
176
     1
 64
     7
176
     1
 65
   257
176
     1
 75
     1
176
     1
175
     1
176
     1
 42
1.0
176
     1
 92
        8
176
     1
 66
     7
176
     1
 43
1.0
176
     1
 76
     1
176
     1
 77
     6
176
     1
 78
     2
176
     1
 67
     7
176
     1
 79
     5
176
     1
170
     0
176
     1
171
     0
176
     1
290
     0
176
     1
 93
        1
176
     1
 44
0.0
176
     1
173
     0
176
     1
  0
VISUALSTYLE
  5
36
102
{ACAD_REACTORS
330
2A
102
}
330
2A
100
AcDbVisualStyle
  2
Brighten
 70
    12
177
     2
291
     1
 71
     2
176
     1
 72
     2
176
     1
 73
     0
176
     1
 90
        0
176
     1
 40
-0.6
176
     1
 41
-30.0
176
     1
 62
     5
 63
     7
421
 16777215
176
     1
 74
     1
176
     1
 91
        4
176
     1
 64
     7
176
     1
 65
   257
176
     1
 75
     1
176
     1
175
     1
176
     1
 42
1.0
176
     1
 92
        8
176
     1
 66
     7
176
     1
 43
1.0
176
     1
 76
     1
176
     1
 77
     6
176
     1
 78
     2
176
     1
 67
     7
176
     1
 79
     5
176
     1
170
     0
176
     1
171
     0
176
     1
290
     0
176
     1
 93
        1
176
     1
 44
50.0
176
     1
173
     0
176
     1
  0
VISUALSTYLE
  5
3A
102
{ACAD_REACTORS
330
2A
102
}
330
2A
100
AcDbVisualStyle
  2
ColorChange
 70
    16
177
     2
291
     1
 71
     2
176
     1
 72
     2
176
     1
 73
     3
176
     1
 90
        0
176
     1
 40
-0.6
176
     1
 41
-30.0
176
     1
 62
     5
 63
     8
421
  8421504
176
     1
 74
     1
176
     1
 91
        4
176
     1
 64
     7
176
     1
 65
   257
176
     1
 75
     1
176
     1
175
     1
176
     1
 42
1.0
176
     1
 92
        8
176
     1
 66
     8
424
  8421504
176
     1
 43
1.0
176
     1
 76
     1
176
     1
 77
     6
176
     1
 78
     2
176
     1
 67
     7
176
     1
 79
     5
176
     1
170
     0
176
     1
171
     0
176
     1
290
     0
176
     1
 93
        1
176
     1
 44
0.0
176
     1
173
     0
176
     1
  0
VISUALSTYLE
  5
34
102
{ACAD_REACTORS
330
2A
102
}
330
2A
100
AcDbVisualStyle
  2
Conceptual
 70
     9
177
     2
291
     0
 71
     3
176
     1
 72
     2
176
     1
 73
     0
176
     1
 90
        0
176
     1
 40
-0.6
176
     1
 41
-30.0
176
     1
 62
     5
 63
     7
421
 16777215
176
     1
 74
     2
176
     1
 91
        2
176
     1
 64
     7
176
     1
 65
   257
176
     1
 75
     1
176
     1
175
     1
176
     1
 42
40.0
176
     1
 92
        8
176
     1
 66
     7
176
     1
 43
1.0
176
     1
 76
     1
176
     1
 77
     6
176
     1
 78
     2
176
     1
 67
     7
176
     1
 79
     3
176
     1
170
     0
176
     1
171
     0
176
     1
290
     0
176
     1
 93
        1
176
     1
 44
0.0
176
     1
173
     0
176
     1
  0
VISUALSTYLE
  5
35
102
{ACAD_REACTORS
330
2A
102
}
330
2A
100
AcDbVisualStyle
  2
Dim
 70
    11
177
     2
291
     1
 71
     2
176
     1
 72
     2
176
     1
 73
     0
176
     1
 90
        0
176
     1
 40
-0.6
176
     1
 41
-30.0
176
     1
 62
     5
 63
     7
421
 16777215
176
     1
 74
     1
176
     1
 91
        4
176
     1
 64
     7
176
     1
 65
   257
176
     1
 75
     1
176
     1
175
     1
176
     1
 42
1.0
176
     1
 92
        8
176
     1
 66
     7
176
     1
 43
1.0
176
     1
 76
     1
176
     1
 77
     6
176
     1
 78
     2
176
     1
 67
     7
176
     1
 79
     5
176
     1
170
     0
176
     1
171
     0
176
     1
290
     0
176
     1
 93
        1
176
     1
 44
-50.0
176
     1
173
     0
176
     1
  0
VISUALSTYLE
  5
39
102
{ACAD_REACTORS
330
2A
102
}
330
2A
100
AcDbVisualStyle
  2
Facepattern
 70
    15
177
     2
291
     1
 71
     2
176
     1
 72
     2
176
     1
 73
     0
176
     1
 90
        0
176
     1
 40
-0.6
176
     1
 41
-30.0
176
     1
 62
     5
 63
     7
421
 16777215
176
     1
 74
     1
176
     1
 91
        4
176
     1
 64
     7
176
     1
 65
   257
176
     1
 75
     1
176
     1
175
     1
176
     1
 42
1.0
176
     1
 92
        8
176
     1
 66
     7
176
     1
 43
1.0
176
     1
 76
     1
176
     1
 77
     6
176
     1
 78
     2
176
     1
 67
     7
176
     1
 79
     5
176
     1
170
     0
176
     1
171
     0
176
     1
290
     0
176
     1
 93
        1
176
     1
 44
0.0
176
     1
173
     0
176
     1
  0
VISUALSTYLE
  5
2B
102
{ACAD_REACTORS
330
2A
102
}
330
2A
100
AcDbVisualStyle
  2
Flat
 70
     0
177
     2
291
     1
 71
     2
176
     1
 72
     1
176
     1
 73
     1
176
     1
 90
        2
176
     1
 40
-0.6
176
     1
 41
30.0
176
     1
 62
     5
 63
     7
421
 16777215
176
     1
 74
     0
176
     1
 91
        4
176
     1
 64
     7
176
     1
 65
   257
176
     1
 75
     1
176
     1
175
     1
176
     1
 42
1.0
176
     1
 92
        8
176
     1
 66
     7
176
     1
 43
1.0
176
     1
 76
     1
176
     1
 77
     6
176
     1
 78
     2
176
     1
 67
     7
176
     1
 79
     5
176
     1
170
     0
176
     1
171
     0
176
     1
290
     0
176
     1
 93
       13
176
     1
 44
0.0
176
     1
173
     0
176
     1
  0
VISUALSTYLE
  5
2C
102
{ACAD_REACTORS
330
2A
102
}
330
2A
100
AcDbVisualStyle
  2
FlatWithEdges
 70
     1
177
     2
291
     1
 71
     2
176
     1
 72
     1
176
     1
 73
     1
176
     1
 90
        2
176
     1
 40
-0.6
176
     1
 41
30.0
176
     1
 62
     5
 63
     7
421
 16777215
176
     1
 74
     1
176
     1
 91
        4
176
     1
 64
     7
176
     1
 65
   257
176
     1
 75
     1
176
     1
175
     1
176
     1
 42
1.0
176
     1
 92
        0
176
     1
 66
   257
176
     1
 43
1.0
176
     1
 76
     1
176
     1
 77
     6
176
     1
 78
     2
176
     1
 67
     7
176
     1
 79
     5
176
     1
170
     0
176
     1
171
     0
176
     1
290
     0
176
     1
 93
       13
176
     1
 44
0.0
176
     1
173
     0
176
     1
  0
VISUALSTYLE
  5
2D
102
{ACAD_REACTORS
330
2A
102
}
330
2A
100
AcDbVisualStyle
  2
Gouraud
 70
     2
177
     2
291
     1
 71
     2
176
     1
 72
     2
176
     1
 73
     1
176
     1
 90
        2
176
     1
 40
-0.6
176
     1
 41
30.0
176
     1
 62
     5
 63
     7
421
 16777215
176
     1
 74
     0
176
     1
 91
        4
176
     1
 64
     7
176
     1
 65
   257
176
     1
 75
     1
176
     1
175
     1
176
     1
 42
1.0
176
     1
 92
        0
176
     1
 66
     7
176
     1
 43
1.0
176
     1
 76
     1
176
     1
 77
     6
176
     1
 78
     2
176
     1
 67
     7
176
     1
 79
     5
176
     1
170
     0
176
     1
171
     0
176
     1
290
     0
176
     1
 93
       13
176
     1
 44
0.0
176
     1
173
     0
176
     1
  0
VISUALSTYLE
  5
2E
102
{ACAD_REACTORS
330
2A
102
}
330
2A
100
AcDbVisualStyle
  2
GouraudWithEdges
 70
     3
177
     2
291
     1
 71
     2
176
     1
 72
     2
176
     1
 73
     1
176
     1
 90
        2
176
     1
 40
-0.6
176
     1
 41
30.0
176
     1
 62
     5
 63
     7
421
 16777215
176
     1
 74
     1
176
     1
 91
        4
176
     1
 64
     7
176
     1
 65
   257
176
     1
 75
     1
176
     1
175
     1
176
     1
 42
1.0
176
     1
 92
        0
176
     1
 66
   257
176
     1
 43
1.0
176
     1
 76
     1
176
     1
 77
     6
176
     1
 78
     2
176
     1
 67
     7
176
     1
 79
     5
176
     1
170
     0
176
     1
171
     0
176
     1
290
     0
176
     1
 93
       13
176
     1
 44
0.0
176
     1
173
     0
176
     1
  0
VISUALSTYLE
  5
38
102
{ACAD_REACTORS
330
2A
102
}
330
2A
100
AcDbVisualStyle
  2
Linepattern
 70
    14
177
     2
291
     1
 71
     2
176
     1
 72
     2
176
     1
 73
     0
176
     1
 90
        0
176
     1
 40
-0.6
176
     1
 41
-30.0
176
     1
 62
     5
 63
     7
421
 16777215
176
     1
 74
     1
176
     1
 91
        4
176
     1
 64
     7
176
     1
 65
   257
176
     1
 75
     7
176
     1
175
     7
176
     1
 42
1.0
176
     1
 92
        8
176
     1
 66
     7
176
     1
 43
1.0
176
     1
 76
     1
176
     1
 77
     6
176
     1
 78
     2
176
     1
 67
     7
176
     1
 79
     5
176
     1
170
     0
176
     1
171
     0
176
     1
290
     0
176
     1
 93
        1
176
     1
 44
0.0
176
     1
173
     0
176
     1
  0
VISUALSTYLE
  5
33
102
{ACAD_REACTORS
330
2A
102
}
330
2A
100
AcDbVisualStyle
  2
Realistic
 70
     8
177
     2
291
     0
 71
     2
176
     1
 72
     2
176
     1
 73
     0
176
     1
 90
        0
176
     1
 40
-0.6
176
     1
 41
-30.0
176
     1
 62
     5
 63
     7
421
 16777215
176
     1
 74
     1
176
     1
 91
        0
176
     1
 64
     7
176
     1
 65
   257
176
     1
 75
     1
176
     1
175
     1
176
     1
 42
1.0
176
     1
 92
        8
176
     1
 66
     8
424
  7895160
176
     1
 43
1.0
176
     1
 76
     1
176
     1
 77
     6
176
     1
 78
     2
176
     1
 67
     7
176
     1
 79
     5
176
     1
170
     0
176
     1
171
     0
176
     1
290
     0
176
     1
 93
       13
176
     1
 44
0.0
176
     1
173
     0
176
     1
  0
VISUALSTYLE
  5
37
102
{ACAD_REACTORS
330
2A
102
}
330
2A
100
AcDbVisualStyle
  2
Thicken
 70
    13
177
     2
291
     1
 71
     2
176
     1
 72
     2
176
     1
 73
     0
176
     1
 90
        0
176
     1
 40
-0.6
176
     1
 41
-30.0
176
     1
 62
     5
 63
     7
421
 16777215
176
     1
 74
     1
176
     1
 91
        4
176
     1
 64
     7
176
     1
 65
   257
176
     1
 75
     1
176
     1
175
     1
176
     1
 42
1.0
176
     1
 92
       12
176
     1
 66
     7
176
     1
 43
1.0
176
     1
 76
     1
176
     1
 77
     6
176
     1
 78
     2
176
     1
 67
     7
176
     1
 79
     5
176
     1
170
     0
176
     1
171
     0
176
     1
290
     0
176
     1
 93
        1
176
     1
 44
0.0
176
     1
173
     0
176
     1
  0
ENDSEC
  0
EOF
