  0
SECTION
  2
HEADER
  9
$ACADVER
  1
AC1024
  9
$ACADMAINTVER
 70
     6
  9
$DWGCODEPAGE
  3
UNDEFINED
  9
$INSBASE
 10
0.0
 20
0.0
 30
0.0
  9
$EXTMIN
 10
1.000000000000000E+20
 20
1.000000000000000E+20
 30
1.000000000000000E+20
  9
$EXTMAX
 10
-1.000000000000000E+20
 20
-1.000000000000000E+20
 30
-1.000000000000000E+20
  9
$LIMMIN
 10
0.0
 20
0.0
  9
$LIMMAX
 10
12.0
 20
9.0
  9
$ORTHOMODE
 70
     0
  9
$REGENMODE
 70
     1
  9
$FILLMODE
 70
     1
  9
$QTEXTMODE
 70
     0
  9
$MIRRTEXT
 70
     1
  9
$LTSCALE
 40
1.0
  9
$ATTMODE
 70
     1
  9
$TEXTSIZE
 40
0.2
  9
$TRACEWID
 40
0.05
  9
$TEXTSTYLE
  7
Standard
  9
$CLAYER
  8
0
  9
$CELTYPE
  6
ByLayer
  9
$CECOLOR
 62
   256
  9
$CELTSCALE
 40
1.0
  9
$DISPSILH
 70
     0
  9
$DIMSCALE
 40
1.0
  9
$DIMASZ
 40
0.18
  9
$DIMEXO
 40
0.0625
  9
$DIMDLI
 40
0.38
  9
$DIMRND
 40
0.0
  9
$DIMDLE
 40
0.0
  9
$DIMEXE
 40
0.18
  9
$DIMTP
 40
0.0
  9
$DIMTM
 40
0.0
  9
$DIMTXT
 40
0.18
  9
$DIMCEN
 40
0.09
  9
$DIMTSZ
 40
0.0
  9
$DIMTOL
 70
     0
  9
$DIMLIM
 70
     0
  9
$DIMTIH
 70
     1
  9
$DIMTOH
 70
     1
  9
$DIMSE1
 70
     0
  9
$DIMSE2
 70
     0
  9
$DIMTAD
 70
     0
  9
$DIMZIN
 70
     0
  9
$DIMBLK
  1

  9
$DIMASO
 70
     1
  9
$DIMSHO
 70
     1
  9
$DIMPOST
  1

  9
$DIMAPOST
  1

  9
$DIMALT
 70
     0
  9
$DIMALTD
 70
     2
  9
$DIMALTF
 40
25.4
  9
$DIMLFAC
 40
1.0
  9
$DIMTOFL
 70
     0
  9
$DIMTVP
 40
0.0
  9
$DIMTIX
 70
     0
  9
$DIMSOXD
 70
     0
  9
$DIMSAH
 70
     0
  9
$DIMBLK1
  1

  9
$DIMBLK2
  1

  9
$DIMSTYLE
  2
Standard
  9
$DIMCLRD
 70
     0
  9
$DIMCLRE
 70
     0
  9
$DIMCLRT
 70
     0
  9
$DIMTFAC
 40
1.0
  9
$DIMGAP
 40
0.09
  9
$DIMJUST
 70
     0
  9
$DIMSD1
 70
     0
  9
$DIMSD2
 70
     0
  9
$DIMTOLJ
 70
     1
  9
$DIMTZIN
 70
     0
  9
$DIMALTZ
 70
     0
  9
$DIMALTTZ
 70
     0
  9
$DIMUPT
 70
     0
  9
$DIMDEC
 70
     4
  9
$DIMTDEC
 70
     4
  9
$DIMALTU
 70
     2
  9
$DIMALTTD
 70
     2
  9
$DIMTXSTY
  7
Standard
  9
$DIMAUNIT
 70
     0
  9
$DIMADEC
 70
     0
  9
$DIMALTRND
 40
0.0
  9
$DIMAZIN
 70
     0
  9
$DIMDSEP
 70
    46
  9
$DIMATFIT
 70
     3
  9
$DIMFRAC
 70
     0
  9
$DIMLDRBLK
  1

  9
$DIMLUNIT
 70
     2
  9
$DIMLWD
 70
    -2
  9
$DIMLWE
 70
    -2
  9
$DIMTMOVE
 70
     0
  9
$DIMFXL
 40
1.0
  9
$DIMFXLON
 70
     0
  9
$DIMJOGANG
 40
0.7853981633974483
  9
$DIMTFILL
 70
     0
  9
$DIMTFILLCLR
 70
     0
  9
$DIMARCSYM
 70
     0
  9
$DIMLTYPE
  6

  9
$DIMLTEX1
  6

  9
$DIMLTEX2
  6

  9
$DIMTXTDIRECTION
 70
     0
  9
$LUNITS
 70
     2
  9
$LUPREC
 70
     4
  9
$SKETCHINC
 40
0.1
  9
$FILLETRAD
 40
0.5
  9
$AUNITS
 70
     0
  9
$AUPREC
 70
     0
  9
$MENU
  1
.
  9
$ELEVATION
 40
0.0
  9
$PELEVATION
 40
0.0
  9
$THICKNESS
 40
0.0
  9
$LIMCHECK
 70
     0
  9
$CHAMFERA
 40
0.5
  9
$CHAMFERB
 40
0.5
  9
$CHAMFERC
 40
1.0
  9
$CHAMFERD
 40
0.0
  9
$SKPOLY
 70
     0
  9
$TDCREATE
 40
2457917.584641204
  9
$TDUCREATE
 40
2457917.209641204
  9
$TDUPDATE
 40
2457917.584641204
  9
$TDUUPDATE
 40
2457917.209641204
  9
$TDINDWG
 40
0.0000000116
  9
$TDUSRTIMER
 40
0.0000000116
  9
$USRTIMER
 70
     1
  9
$ANGBASE
 50
0.0
  9
$ANGDIR
 70
     0
  9
$PDMODE
 70
     0
  9
$PDSIZE
 40
0.0
  9
$PLINEWID
 40
0.0
  9
$SPLFRAME
 70
     0
  9
$SPLINETYPE
 70
     6
  9
$SPLINESEGS
 70
     8
  9
$HANDSEED
  5
DF
  9
$SURFTAB1
 70
     6
  9
$SURFTAB2
 70
     6
  9
$SURFTYPE
 70
     6
  9
$SURFU
 70
     6
  9
$SURFV
 70
     6
  9
$UCSBASE
  2

  9
$UCSNAME
  2

  9
$UCSORG
 10
0.0
 20
0.0
 30
0.0
  9
$UCSXDIR
 10
1.0
 20
0.0
 30
0.0
  9
$UCSYDIR
 10
0.0
 20
1.0
 30
0.0
  9
$UCSORTHOREF
  2

  9
$UCSORTHOVIEW
 70
     0
  9
$UCSORGTOP
 10
0.0
 20
0.0
 30
0.0
  9
$UCSORGBOTTOM
 10
0.0
 20
0.0
 30
0.0
  9
$UCSORGLEFT
 10
0.0
 20
0.0
 30
0.0
  9
$UCSORGRIGHT
 10
0.0
 20
0.0
 30
0.0
  9
$UCSORGFRONT
 10
0.0
 20
0.0
 30
0.0
  9
$UCSORGBACK
 10
0.0
 20
0.0
 30
0.0
  9
$PUCSBASE
  2

  9
$PUCSNAME
  2

  9
$PUCSORG
 10
0.0
 20
0.0
 30
0.0
  9
$PUCSXDIR
 10
1.0
 20
0.0
 30
0.0
  9
$PUCSYDIR
 10
0.0
 20
1.0
 30
0.0
  9
$PUCSORTHOREF
  2

  9
$PUCSORTHOVIEW
 70
     0
  9
$PUCSORGTOP
 10
0.0
 20
0.0
 30
0.0
  9
$PUCSORGBOTTOM
 10
0.0
 20
0.0
 30
0.0
  9
$PUCSORGLEFT
 10
0.0
 20
0.0
 30
0.0
  9
$PUCSORGRIGHT
 10
0.0
 20
0.0
 30
0.0
  9
$PUCSORGFRONT
 10
0.0
 20
0.0
 30
0.0
  9
$PUCSORGBACK
 10
0.0
 20
0.0
 30
0.0
  9
$USERI1
 70
     0
  9
$USERI2
 70
     0
  9
$USERI3
 70
     0
  9
$USERI4
 70
     0
  9
$USERI5
 70
     0
  9
$USERR1
 40
0.0
  9
$USERR2
 40
0.0
  9
$USERR3
 40
0.0
  9
$USERR4
 40
0.0
  9
$USERR5
 40
0.0
  9
$WORLDVIEW
 70
     1
  9
$SHADEDGE
 70
     3
  9
$SHADEDIF
 70
    70
  9
$TILEMODE
 70
     1
  9
$MAXACTVP
 70
    64
  9
$PINSBASE
 10
0.0
 20
0.0
 30
0.0
  9
$PLIMCHECK
 70
     0
  9
$PEXTMIN
 10
1.000000000000000E+20
 20
1.000000000000000E+20
 30
1.000000000000000E+20
  9
$PEXTMAX
 10
-1.000000000000000E+20
 20
-1.000000000000000E+20
 30
-1.000000000000000E+20
  9
$PLIMMIN
 10
0.0
 20
0.0
  9
$PLIMMAX
 10
12.0
 20
9.0
  9
$UNITMODE
 70
     0
  9
$VISRETAIN
 70
     1
  9
$PLINEGEN
 70
     0
  9
$PSLTSCALE
 70
     1
  9
$TREEDEPTH
 70
  3020
  9
$CMLSTYLE
  2
Standard
  9
$CMLJUST
 70
     0
  9
$CMLSCALE
 40
1.0
  9
$PROXYGRAPHICS
 70
     1
  9
$MEASUREMENT
 70
     0
  9
$CELWEIGHT
370
    -1
  9
$ENDCAPS
280
     0
  9
$JOINSTYLE
280
     0
  9
$LWDISPLAY
290
     1
  9
$INSUNITS
 70
     1
  9
$HYPERLINKBASE
  1

  9
$STYLESHEET
  1

  9
$XEDIT
290
     1
  9
$CEPSNTYPE
380
     0
  9
$PSTYLEMODE
290
     1
  9
$FINGERPRINTGUID
  2
{D0ECE755-495A-2EA4-C7B4-CDCEEC731D74}
  9
$VERSIONGUID
  2
{FAEB1C32-E019-11D5-929B-00C0DF256EC4}
  9
$EXTNAMES
290
     1
  9
$PSVPSCALE
 40
0.0
  9
$OLESTARTUP
290
     0
  9
$SORTENTS
280
   127
  9
$INDEXCTL
280
     0
  9
$HIDETEXT
280
     1
  9
$XCLIPFRAME
280
     2
  9
$HALOGAP
280
     0
  9
$OBSCOLOR
 70
   257
  9
$OBSLTYPE
280
     0
  9
$INTERSECTIONDISPLAY
280
     0
  9
$INTERSECTIONCOLOR
 70
   257
  9
$DIMASSOC
280
     2
  9
$PROJECTNAME
  1

  9
$CAMERADISPLAY
290
     0
  9
$LENSLENGTH
 40
50.0
  9
$CAMERAHEIGHT
 40
0.0
  9
$STEPSPERSEC
 40
2.0
  9
$STEPSIZE
 40
6.0
  9
$3DDWFPREC
 40
2.0
  9
$PSOLWIDTH
 40
0.25
  9
$PSOLHEIGHT
 40
4.0
  9
$LOFTANG1
 40
1.570796326794897
  9
$LOFTANG2
 40
1.570796326794897
  9
$LOFTMAG1
 40
0.0
  9
$LOFTMAG2
 40
0.0
  9
$LOFTPARAM
 70
     7
  9
$LOFTNORMALS
280
     1
  9
$LATITUDE
 40
37.795
  9
$LONGITUDE
 40
-122.394
  9
$NORTHDIRECTION
 40
0.0
  9
$TIMEZONE
 70
 -8000
  9
$LIGHTGLYPHDISPLAY
280
     1
  9
$TILEMODELIGHTSYNCH
280
     1
  9
$CMATERIAL
347
3C
  9
$SOLIDHIST
280
     1
  9
$SHOWHIST
280
     1
  9
$DWFFRAME
280
     2
  9
$DGNFRAME
280
     2
  9
$REALWORLDSCALE
290
     1
  9
$INTERFERECOLOR
 62
   256
  9
$CSHADOW
280
     0
  9
$SHADOWPLANELOCATION
 40
0.0
  0
ENDSEC
  0
SECTION
  2
CLASSES
  0
CLASS
  1
ACDBDICTIONARYWDFLT
  2
AcDbDictionaryWithDefault
  3
ObjectDBX Classes
 90
        0
 91
        4
280
     0
281
     0
  0
CLASS
  1
VISUALSTYLE
  2
AcDbVisualStyle
  3
ObjectDBX Classes
 90
     4095
 91
        4
280
     0
281
     0
  0
CLASS
  1
MATERIAL
  2
AcDbMaterial
  3
ObjectDBX Classes
 90
     1153
 91
        4
280
     0
281
     0
  0
CLASS
  1
SUN
  2
AcDbSun
  3
SCENEOE
 90
     1024
 91
        4
280
     0
281
     0
  0
ENDSEC
  0
SECTION
  2
TABLES
  0
TABLE
  2
VPORT
  5
8
330
0
100
AcDbSymbolTable
 70
     1
  0
VPORT
  5
29
330
8
100
AcDbSymbolTableRecord
100
AcDbViewportTableRecord
  2
*Active
 70
     0
 10
0.0
 20
0.0
 11
1.0
 21
1.0
 12
0.0
 22
0.0
 13
0.0
 23
0.0
 14
0.5
 24
0.5
 15
0.5
 25
0.5
 16
0.0
 26
0.0
 36
1.0
 17
91.00082462281999
 27
-128.4993055234307
 37
0.0
 40
256.9986110468615
 41
0.7081814508812795
 42
50.0
 43
0.0
 44
0.0
 50
0.0
 51
0.0
 71
     0
 72
   100
 73
     1
 74
     3
 75
     0
 76
     0
 77
     0
 78
     0
281
     0
 65
     1
110
0.0
120
0.0
130
0.0
111
1.0
121
0.0
131
0.0
112
0.0
122
1.0
132
0.0
 79
     0
146
0.0
 60
     3
 61
     5
292
     1
282
     1
141
0.0
142
0.0
 63
   250
361
3F
  0
ENDTAB
  0
TABLE
  2
LTYPE
  5
5
330
0
100
AcDbSymbolTable
 70
     1
  0
LTYPE
  5
14
330
5
100
AcDbSymbolTableRecord
100
AcDbLinetypeTableRecord
  2
ByBlock
 70
     0
  3

 72
    65
 73
     0
 40
0.0
  0
LTYPE
  5
15
330
5
100
AcDbSymbolTableRecord
100
AcDbLinetypeTableRecord
  2
ByLayer
 70
     0
  3

 72
    65
 73
     0
 40
0.0
  0
LTYPE
  5
16
330
5
100
AcDbSymbolTableRecord
100
AcDbLinetypeTableRecord
  2
Continuous
 70
     0
  3
Solid line
 72
    65
 73
     0
 40
0.0
  0
ENDTAB
  0
TABLE
  2
LAYER
  5
2
330
0
100
AcDbSymbolTable
 70
     2
  0
LAYER
  5
10
330
2
100
AcDbSymbolTableRecord
100
AcDbLayerTableRecord
  2
0
 70
     0
 62
     7
  6
Continuous
370
    -3
390
F
347
3E
  0
LAYER
  5
40
330
2
100
AcDbSymbolTableRecord
100
AcDbLayerTableRecord
  2
_U+30EC_U+30A4_U+30E4_U+30FC 1
 70
     0
 62
     7
  6
Continuous
370
    -3
390
F
347
3E
  0
ENDTAB
  0
TABLE
  2
STYLE
  5
3
330
0
100
AcDbSymbolTable
 70
     1
  0
STYLE
  5
11
330
3
100
AcDbSymbolTableRecord
100
AcDbTextStyleTableRecord
  2
Standard
 70
     0
 40
0.0
 41
1.0
 50
0.0
 71
     0
 42
0.2
  3
txt
  4

  0
ENDTAB
  0
TABLE
  2
VIEW
  5
6
330
0
100
AcDbSymbolTable
 70
     0
  0
ENDTAB
  0
TABLE
  2
UCS
  5
7
330
0
100
AcDbSymbolTable
 70
     0
  0
ENDTAB
  0
TABLE
  2
APPID
  5
9
330
0
100
AcDbSymbolTable
 70
     1
  0
APPID
  5
12
330
9
100
AcDbSymbolTableRecord
100
AcDbRegAppTableRecord
  2
ACAD
 70
     0
  0
ENDTAB
  0
TABLE
  2
DIMSTYLE
  5
A
330
0
100
AcDbSymbolTable
 70
     1
100
AcDbDimStyleTable
  0
DIMSTYLE
105
27
330
A
100
AcDbSymbolTableRecord
100
AcDbDimStyleTableRecord
  2
Standard
 70
     0
178
     0
340
11
  0
ENDTAB
  0
TABLE
  2
BLOCK_RECORD
  5
1
330
0
100
AcDbSymbolTable
 70
    10
  0
BLOCK_RECORD
  5
1F
330
1
100
AcDbSymbolTableRecord
100
AcDbBlockTableRecord
  2
*Model_Space
340
22
 70
     0
280
     1
281
     0
  0
BLOCK_RECORD
  5
1B
330
1
100
AcDbSymbolTableRecord
100
AcDbBlockTableRecord
  2
*Paper_Space
340
1E
 70
     0
280
     1
281
     0
  0
BLOCK_RECORD
  5
23
330
1
100
AcDbSymbolTableRecord
100
AcDbBlockTableRecord
  2
*Paper_Space0
340
26
 70
     0
280
     1
281
     0
  0
BLOCK_RECORD
  5
4A
330
1
100
AcDbSymbolTableRecord
100
AcDbBlockTableRecord
  2
block 2
340
0
102
{BLKREFS
331
4B
102
}
 70
     0
280
     1
281
     0
  0
BLOCK_RECORD
  5
5B
330
1
100
AcDbSymbolTableRecord
100
AcDbBlockTableRecord
  2
block 3
340
0
102
{BLKREFS
331
5C
102
}
 70
     0
280
     1
281
     0
  0
BLOCK_RECORD
  5
64
330
1
100
AcDbSymbolTableRecord
100
AcDbBlockTableRecord
  2
block 4
340
0
102
{BLKREFS
331
65
102
}
 70
     0
280
     1
281
     0
  0
BLOCK_RECORD
  5
7C
330
1
100
AcDbSymbolTableRecord
100
AcDbBlockTableRecord
  2
block 5
340
0
102
{BLKREFS
331
7D
102
}
 70
     0
280
     1
281
     0
  0
BLOCK_RECORD
  5
85
330
1
100
AcDbSymbolTableRecord
100
AcDbBlockTableRecord
  2
block 6
340
0
102
{BLKREFS
331
86
102
}
 70
     0
280
     1
281
     0
  0
BLOCK_RECORD
  5
A3
330
1
100
AcDbSymbolTableRecord
100
AcDbBlockTableRecord
  2
block 7
340
0
102
{BLKREFS
331
A4
102
}
 70
     0
280
     1
281
     0
  0
BLOCK_RECORD
  5
AC
330
1
100
AcDbSymbolTableRecord
100
AcDbBlockTableRecord
  2
block 8
340
0
102
{BLKREFS
331
AD
102
}
 70
     0
280
     1
281
     0
  0
BLOCK_RECORD
  5
B5
330
1
100
AcDbSymbolTableRecord
100
AcDbBlockTableRecord
  2
block 9
340
0
102
{BLKREFS
331
B6
102
}
 70
     0
280
     1
281
     0
  0
BLOCK_RECORD
  5
C5
330
1
100
AcDbSymbolTableRecord
100
AcDbBlockTableRecord
  2
block 10
340
0
102
{BLKREFS
331
C6
102
}
 70
     0
280
     1
281
     0
  0
ENDTAB
  0
ENDSEC
  0
SECTION
  2
BLOCKS
  0
BLOCK
  5
20
330
1F
100
AcDbEntity
  8
0
100
AcDbBlockBegin
  2
*Model_Space
 70
     0
 10
0.0
 20
0.0
 30
0.0
  3
*Model_Space
  1

  0
ENDBLK
  5
21
330
1F
100
AcDbEntity
  8
0
100
AcDbBlockEnd
  0
BLOCK
  5
1C
330
1B
100
AcDbEntity
 67
     1
  8
0
100
AcDbBlockBegin
  2
*Paper_Space
 70
     0
 10
0.0
 20
0.0
 30
0.0
  3
*Paper_Space
  1

  0
ENDBLK
  5
1D
330
1B
100
AcDbEntity
 67
     1
  8
0
100
AcDbBlockEnd
  0
BLOCK
  5
24
330
23
100
AcDbEntity
  8
0
100
AcDbBlockBegin
  2
*Paper_Space0
 70
     0
 10
0.0
 20
0.0
 30
0.0
  3
*Paper_Space0
  1

  0
ENDBLK
  5
25
330
23
100
AcDbEntity
  8
0
100
AcDbBlockEnd
  0
BLOCK
  5
4C
330
4A
100
AcDbEntity
  8
0
100
AcDbBlockBegin
  2
block 2
 70
     0
 10
0.0
 20
0.0
 30
0.0
  3
block 2
  1

  0
SPLINE
  5
4E
330
4A
100
AcDbEntity
  8
_U+30EC_U+30A4_U+30E4_U+30FC 1
370
     0
100
AcDbSpline
210
0.0
220
0.0
230
1.0
 70
    11
 71
     3
 72
    26
 73
    22
 74
     0
 42
0.0000000001
 43
0.0000000001
 12
1.0
 22
0.0
 32
0.0
 13
1.0
 23
0.0
 33
0.0
 40
0.0
 40
0.0
 40
0.0
 40
0.0
 40
1.0
 40
1.0
 40
1.0
 40
2.0
 40
2.0
 40
2.0
 40
3.0
 40
3.0
 40
3.0
 40
4.0
 40
4.0
 40
4.0
 40
5.0
 40
5.0
 40
5.0
 40
6.0
 40
6.0
 40
6.0
 40
7.0
 40
7.0
 40
7.0
 40
7.0
 10
76.93656139569642
 20
-147.7549777191377
 30
0.0
 10
76.93656139569642
 20
-147.7549777191377
 30
0.0
 10
76.93656139569642
 20
-146.6508246161151
 30
0.0
 10
76.93656139569642
 20
-146.6508246161151
 30
0.0
 10
76.93656139569642
 20
-146.6508246161151
 30
0.0
 10
76.60652124820949
 20
-146.6508246161151
 30
0.0
 10
76.60652124820949
 20
-146.6508246161151
 30
0.0
 10
76.60652124820949
 20
-146.6508246161151
 30
0.0
 10
76.60652124820949
 20
-146.5026855102493
 30
0.0
 10
76.60652124820949
 20
-146.5026855102493
 30
0.0
 10
76.93862845298757
 20
-146.4878715996628
 30
0.0
 10
76.98513724203845
 20
-146.3249185832104
 30
0.0
 10
77.01476506321158
 20
-146.2105414131001
 30
0.0
 10
77.01476506321158
 20
-146.2105414131001
 30
0.0
 10
77.16083711178618
 20
-146.2105414131001
 30
0.0
 10
77.16083711178618
 20
-146.2105414131001
 30
0.0
 10
77.16083711178618
 20
-146.2105414131001
 30
0.0
 10
77.16083711178618
 20
-147.7549777191377
 30
0.0
 10
77.16083711178618
 20
-147.7549777191377
 30
0.0
 10
77.16083711178618
 20
-147.7549777191377
 30
0.0
 10
76.93656139569642
 20
-147.7549777191377
 30
0.0
 10
76.93656139569642
 20
-147.7549777191377
 30
0.0
  0
HATCH
  5
4F
330
4A
100
AcDbEntity
  8
_U+30EC_U+30A4_U+30E4_U+30FC 1
 62
     7
420
 16777215
100
AcDbHatch
 10
0.0
 20
0.0
 30
0.0
210
0.0
220
0.0
230
1.0
  2
SOLID
 70
     1
 71
     0
 91
        1
 92
        1
 93
        1
 72
     4
 94
        3
 73
     0
 74
     1
 95
       26
 96
       22
 40
0.0
 40
0.0
 40
0.0
 40
0.0
 40
1.0
 40
1.0
 40
1.0
 40
2.0
 40
2.0
 40
2.0
 40
3.0
 40
3.0
 40
3.0
 40
4.0
 40
4.0
 40
4.0
 40
5.0
 40
5.0
 40
5.0
 40
6.0
 40
6.0
 40
6.0
 40
7.0
 40
7.0
 40
7.0
 40
7.0
 10
76.93656139569642
 20
-147.7549777191377
 10
76.93656139569642
 20
-147.7549777191377
 10
76.93656139569642
 20
-146.6508246161151
 10
76.93656139569642
 20
-146.6508246161151
 10
76.93656139569642
 20
-146.6508246161151
 10
76.60652124820949
 20
-146.6508246161151
 10
76.60652124820949
 20
-146.6508246161151
 10
76.60652124820949
 20
-146.6508246161151
 10
76.60652124820949
 20
-146.5026855102493
 10
76.60652124820949
 20
-146.5026855102493
 10
76.93862845298757
 20
-146.4878715996628
 10
76.98513724203845
 20
-146.3249185832104
 10
77.01476506321158
 20
-146.2105414131001
 10
77.01476506321158
 20
-146.2105414131001
 10
77.16083711178618
 20
-146.2105414131001
 10
77.16083711178618
 20
-146.2105414131001
 10
77.16083711178618
 20
-146.2105414131001
 10
77.16083711178618
 20
-147.7549777191377
 10
77.16083711178618
 20
-147.7549777191377
 10
77.16083711178618
 20
-147.7549777191377
 10
76.93656139569642
 20
-147.7549777191377
 10
76.93656139569642
 20
-147.7549777191377
 97
        0
 97
        0
 75
     2
 76
     1
 98
        0
  0
SPLINE
  5
50
330
4A
100
AcDbEntity
  8
_U+30EC_U+30A4_U+30E4_U+30FC 1
370
     0
100
AcDbSpline
210
0.0
220
0.0
230
1.0
 70
    11
 71
     3
 72
    29
 73
    25
 74
     0
 42
0.0000000001
 43
0.0000000001
 12
1.0
 22
0.0
 32
0.0
 13
1.0
 23
0.0
 33
0.0
 40
0.0
 40
0.0
 40
0.0
 40
0.0
 40
1.0
 40
1.0
 40
1.0
 40
2.0
 40
2.0
 40
2.0
 40
3.0
 40
3.0
 40
3.0
 40
4.0
 40
4.0
 40
4.0
 40
5.0
 40
5.0
 40
5.0
 40
6.0
 40
6.0
 40
6.0
 40
7.0
 40
7.0
 40
7.0
 40
8.0
 40
8.0
 40
8.0
 40
8.0
 10
78.55971813357188
 20
-147.5772107920988
 30
0.0
 10
78.45188664488356
 20
-147.7866725976019
 30
0.0
 10
78.27842608720123
 20
-147.8056206227708
 30
0.0
 10
78.16198185979978
 20
-147.8056206227708
 30
0.0
 10
78.00126815541289
 20
-147.8056206227708
 30
0.0
 10
77.85950247619485
 20
-147.7594563432685
 30
0.0
 10
77.7642455860277
 20
-147.5772107920988
 30
0.0
 10
77.66072046669593
 20
-147.3825628971821
 30
0.0
 10
77.6416001867528
 20
-147.145540327797
 30
0.0
 10
77.6416001867528
 20
-146.9829318208932
 30
0.0
 10
77.6416001867528
 20
-146.8389268296097
 30
0.0
 10
77.65848115463052
 20
-146.5874348591865
 30
0.0
 10
77.7642455860277
 20
-146.388308340139
 30
0.0
 10
77.87224932949027
 20
-146.1850477065093
 30
0.0
 10
78.03296303387718
 20
-146.1619655667581
 30
0.0
 10
78.16198185979978
 20
-146.1619655667581
 30
0.0
 10
78.32062850689555
 20
-146.1619655667581
 30
0.0
 10
78.46446124340473
 20
-146.2064072985179
 30
0.0
 10
78.55971813357188
 20
-146.388308340139
 30
0.0
 10
78.65910913832134
 20
-146.5808891777645
 30
0.0
 10
78.68236353284678
 20
-146.8092990084366
 30
0.0
 10
78.68236353284678
 20
-146.9829318208932
 30
0.0
 10
78.68236353284678
 20
-147.1541530665101
 30
0.0
 10
78.66134845038675
 20
-147.3846299544733
 30
0.0
 10
78.55971813357188
 20
-147.5772107920988
 30
0.0
  0
SPLINE
  5
51
330
4A
100
AcDbEntity
  8
_U+30EC_U+30A4_U+30E4_U+30FC 1
370
     0
100
AcDbSpline
210
0.0
220
0.0
230
1.0
 70
    11
 71
     3
 72
    17
 73
    13
 74
     0
 42
0.0000000001
 43
0.0000000001
 12
1.0
 22
0.0
 32
0.0
 13
1.0
 23
0.0
 33
0.0
 40
0.0
 40
0.0
 40
0.0
 40
0.0
 40
1.0
 40
1.0
 40
1.0
 40
2.0
 40
2.0
 40
2.0
 40
3.0
 40
3.0
 40
3.0
 40
4.0
 40
4.0
 40
4.0
 40
4.0
 10
78.16198185979978
 20
-146.3545464043836
 30
0.0
 10
77.91238469189344
 20
-146.3545464043836
 30
0.0
 10
77.86587590284256
 20
-146.6380777628196
 30
0.0
 10
77.86587590284256
 20
-146.9829318208932
 30
0.0
 10
77.86587590284256
 20
-147.3022921723758
 30
0.0
 10
77.90187715066342
 20
-147.6113172374027
 30
0.0
 10
78.16198185979978
 20
-147.6113172374027
 30
0.0
 10
78.40951197041498
 20
-147.6113172374027
 30
0.0
 10
78.45826007153127
 20
-147.3295084267093
 30
0.0
 10
78.45826007153127
 20
-146.9829318208932
 30
0.0
 10
78.45826007153127
 20
-146.663226959862
 30
0.0
 10
78.42019176641926
 20
-146.3545464043836
 30
0.0
 10
78.16198185979978
 20
-146.3545464043836
 30
0.0
  0
HATCH
  5
52
330
4A
100
AcDbEntity
  8
_U+30EC_U+30A4_U+30E4_U+30FC 1
 62
     7
420
 16777215
100
AcDbHatch
 10
0.0
 20
0.0
 30
0.0
210
0.0
220
0.0
230
1.0
  2
SOLID
 70
     1
 71
     0
 91
        2
 92
        1
 93
        1
 72
     4
 94
        3
 73
     0
 74
     1
 95
       29
 96
       25
 40
0.0
 40
0.0
 40
0.0
 40
0.0
 40
1.0
 40
1.0
 40
1.0
 40
2.0
 40
2.0
 40
2.0
 40
3.0
 40
3.0
 40
3.0
 40
4.0
 40
4.0
 40
4.0
 40
5.0
 40
5.0
 40
5.0
 40
6.0
 40
6.0
 40
6.0
 40
7.0
 40
7.0
 40
7.0
 40
8.0
 40
8.0
 40
8.0
 40
8.0
 10
78.55971813357188
 20
-147.5772107920988
 10
78.45188664488356
 20
-147.7866725976019
 10
78.27842608720123
 20
-147.8056206227708
 10
78.16198185979978
 20
-147.8056206227708
 10
78.00126815541289
 20
-147.8056206227708
 10
77.85950247619485
 20
-147.7594563432685
 10
77.7642455860277
 20
-147.5772107920988
 10
77.66072046669593
 20
-147.3825628971821
 10
77.6416001867528
 20
-147.145540327797
 10
77.6416001867528
 20
-146.9829318208932
 10
77.6416001867528
 20
-146.8389268296097
 10
77.65848115463052
 20
-146.5874348591865
 10
77.7642455860277
 20
-146.388308340139
 10
77.87224932949027
 20
-146.1850477065093
 10
78.03296303387718
 20
-146.1619655667581
 10
78.16198185979978
 20
-146.1619655667581
 10
78.32062850689555
 20
-146.1619655667581
 10
78.46446124340473
 20
-146.2064072985179
 10
78.55971813357188
 20
-146.388308340139
 10
78.65910913832134
 20
-146.5808891777645
 10
78.68236353284678
 20
-146.8092990084366
 10
78.68236353284678
 20
-146.9829318208932
 10
78.68236353284678
 20
-147.1541530665101
 10
78.66134845038675
 20
-147.3846299544733
 10
78.55971813357188
 20
-147.5772107920988
 97
        0
 97
        0
 92
        1
 93
        1
 72
     4
 94
        3
 73
     0
 74
     1
 95
       17
 96
       13
 40
0.0
 40
0.0
 40
0.0
 40
0.0
 40
1.0
 40
1.0
 40
1.0
 40
2.0
 40
2.0
 40
2.0
 40
3.0
 40
3.0
 40
3.0
 40
4.0
 40
4.0
 40
4.0
 40
4.0
 10
78.16198185979978
 20
-146.3545464043836
 10
77.91238469189344
 20
-146.3545464043836
 10
77.86587590284256
 20
-146.6380777628196
 10
77.86587590284256
 20
-146.9829318208932
 10
77.86587590284256
 20
-147.3022921723758
 10
77.90187715066342
 20
-147.6113172374027
 10
78.16198185979978
 20
-147.6113172374027
 10
78.40951197041498
 20
-147.6113172374027
 10
78.45826007153127
 20
-147.3295084267093
 10
78.45826007153127
 20
-146.9829318208932
 10
78.45826007153127
 20
-146.663226959862
 10
78.42019176641926
 20
-146.3545464043836
 10
78.16198185979978
 20
-146.3545464043836
 97
        0
 97
        0
 75
     2
 76
     1
 98
        0
  0
ENDBLK
  5
4D
330
4A
100
AcDbEntity
  8
0
100
AcDbBlockEnd
  0
BLOCK
  5
5D
330
5B
100
AcDbEntity
  8
0
100
AcDbBlockBegin
  2
block 3
 70
     0
 10
0.0
 20
0.0
 30
0.0
  3
block 3
  1

  0
SPLINE
  5
5F
330
5B
100
AcDbEntity
  8
_U+30EC_U+30A4_U+30E4_U+30FC 1
370
     0
100
AcDbSpline
210
0.0
220
0.0
230
1.0
 70
    11
 71
     3
 72
    26
 73
    22
 74
     0
 42
0.0000000001
 43
0.0000000001
 12
1.0
 22
0.0
 32
0.0
 13
1.0
 23
0.0
 33
0.0
 40
0.0
 40
0.0
 40
0.0
 40
0.0
 40
1.0
 40
1.0
 40
1.0
 40
2.0
 40
2.0
 40
2.0
 40
3.0
 40
3.0
 40
3.0
 40
4.0
 40
4.0
 40
4.0
 40
5.0
 40
5.0
 40
5.0
 40
6.0
 40
6.0
 40
6.0
 40
7.0
 40
7.0
 40
7.0
 40
7.0
 10
86.77248126085897
 20
-147.7549777191377
 30
0.0
 10
86.77248126085897
 20
-147.7549777191377
 30
0.0
 10
86.77248126085897
 20
-146.6508246161151
 30
0.0
 10
86.77248126085897
 20
-146.6508246161151
 30
0.0
 10
86.77248126085897
 20
-146.6508246161151
 30
0.0
 10
86.44244111337203
 20
-146.6508246161151
 30
0.0
 10
86.44244111337203
 20
-146.6508246161151
 30
0.0
 10
86.44244111337203
 20
-146.6508246161151
 30
0.0
 10
86.44244111337203
 20
-146.5026855102493
 30
0.0
 10
86.44244111337203
 20
-146.5026855102493
 30
0.0
 10
86.77454831815011
 20
-146.4878715996628
 30
0.0
 10
86.82105710720099
 20
-146.3249185832104
 30
0.0
 10
86.85068492837414
 20
-146.2105414131001
 30
0.0
 10
86.85068492837414
 20
-146.2105414131001
 30
0.0
 10
86.99675697694873
 20
-146.2105414131001
 30
0.0
 10
86.99675697694873
 20
-146.2105414131001
 30
0.0
 10
86.99675697694873
 20
-146.2105414131001
 30
0.0
 10
86.99675697694873
 20
-147.7549777191377
 30
0.0
 10
86.99675697694873
 20
-147.7549777191377
 30
0.0
 10
86.99675697694873
 20
-147.7549777191377
 30
0.0
 10
86.77248126085897
 20
-147.7549777191377
 30
0.0
 10
86.77248126085897
 20
-147.7549777191377
 30
0.0
  0
HATCH
  5
60
330
5B
100
AcDbEntity
  8
_U+30EC_U+30A4_U+30E4_U+30FC 1
 62
     7
420
 16777215
100
AcDbHatch
 10
0.0
 20
0.0
 30
0.0
210
0.0
220
0.0
230
1.0
  2
SOLID
 70
     1
 71
     0
 91
        1
 92
        1
 93
        1
 72
     4
 94
        3
 73
     0
 74
     1
 95
       26
 96
       22
 40
0.0
 40
0.0
 40
0.0
 40
0.0
 40
1.0
 40
1.0
 40
1.0
 40
2.0
 40
2.0
 40
2.0
 40
3.0
 40
3.0
 40
3.0
 40
4.0
 40
4.0
 40
4.0
 40
5.0
 40
5.0
 40
5.0
 40
6.0
 40
6.0
 40
6.0
 40
7.0
 40
7.0
 40
7.0
 40
7.0
 10
86.77248126085897
 20
-147.7549777191377
 10
86.77248126085897
 20
-147.7549777191377
 10
86.77248126085897
 20
-146.6508246161151
 10
86.77248126085897
 20
-146.6508246161151
 10
86.77248126085897
 20
-146.6508246161151
 10
86.44244111337203
 20
-146.6508246161151
 10
86.44244111337203
 20
-146.6508246161151
 10
86.44244111337203
 20
-146.6508246161151
 10
86.44244111337203
 20
-146.5026855102493
 10
86.44244111337203
 20
-146.5026855102493
 10
86.77454831815011
 20
-146.4878715996628
 10
86.82105710720099
 20
-146.3249185832104
 10
86.85068492837414
 20
-146.2105414131001
 10
86.85068492837414
 20
-146.2105414131001
 10
86.99675697694873
 20
-146.2105414131001
 10
86.99675697694873
 20
-146.2105414131001
 10
86.99675697694873
 20
-146.2105414131001
 10
86.99675697694873
 20
-147.7549777191377
 10
86.99675697694873
 20
-147.7549777191377
 10
86.99675697694873
 20
-147.7549777191377
 10
86.77248126085897
 20
-147.7549777191377
 10
86.77248126085897
 20
-147.7549777191377
 97
        0
 97
        0
 75
     2
 76
     1
 98
        0
  0
SPLINE
  5
61
330
5B
100
AcDbEntity
  8
_U+30EC_U+30A4_U+30E4_U+30FC 1
370
     0
100
AcDbSpline
210
0.0
220
0.0
230
1.0
 70
    11
 71
     3
 72
    29
 73
    25
 74
     0
 42
0.0000000001
 43
0.0000000001
 12
1.0
 22
0.0
 32
0.0
 13
1.0
 23
0.0
 33
0.0
 40
0.0
 40
0.0
 40
0.0
 40
0.0
 40
1.0
 40
1.0
 40
1.0
 40
2.0
 40
2.0
 40
2.0
 40
3.0
 40
3.0
 40
3.0
 40
4.0
 40
4.0
 40
4.0
 40
5.0
 40
5.0
 40
5.0
 40
6.0
 40
6.0
 40
6.0
 40
7.0
 40
7.0
 40
7.0
 40
8.0
 40
8.0
 40
8.0
 40
8.0
 10
88.39563799873443
 20
-147.5772107920988
 30
0.0
 10
88.28780651004611
 20
-147.7866725976019
 30
0.0
 10
88.11434595236378
 20
-147.8056206227708
 30
0.0
 10
87.99790172496233
 20
-147.8056206227708
 30
0.0
 10
87.83718802057543
 20
-147.8056206227708
 30
0.0
 10
87.6954223413574
 20
-147.7594563432685
 30
0.0
 10
87.60016545119024
 20
-147.5772107920988
 30
0.0
 10
87.49664033185849
 20
-147.3825628971821
 30
0.0
 10
87.47752005191535
 20
-147.145540327797
 30
0.0
 10
87.47752005191535
 20
-146.9829318208932
 30
0.0
 10
87.47752005191535
 20
-146.8389268296097
 30
0.0
 10
87.49440101979307
 20
-146.5874348591865
 30
0.0
 10
87.60016545119024
 20
-146.388308340139
 30
0.0
 10
87.70816919465283
 20
-146.1850477065093
 30
0.0
 10
87.86888289903973
 20
-146.1619655667581
 30
0.0
 10
87.99790172496233
 20
-146.1619655667581
 30
0.0
 10
88.15654837205808
 20
-146.1619655667581
 30
0.0
 10
88.30038110856727
 20
-146.2064072985179
 30
0.0
 10
88.39563799873443
 20
-146.388308340139
 30
0.0
 10
88.49502900348388
 20
-146.5808891777645
 30
0.0
 10
88.51828339800932
 20
-146.8092990084366
 30
0.0
 10
88.51828339800932
 20
-146.9829318208932
 30
0.0
 10
88.51828339800932
 20
-147.1541530665101
 30
0.0
 10
88.49726831554929
 20
-147.3846299544733
 30
0.0
 10
88.39563799873443
 20
-147.5772107920988
 30
0.0
  0
SPLINE
  5
62
330
5B
100
AcDbEntity
  8
_U+30EC_U+30A4_U+30E4_U+30FC 1
370
     0
100
AcDbSpline
210
0.0
220
0.0
230
1.0
 70
    11
 71
     3
 72
    17
 73
    13
 74
     0
 42
0.0000000001
 43
0.0000000001
 12
1.0
 22
0.0
 32
0.0
 13
1.0
 23
0.0
 33
0.0
 40
0.0
 40
0.0
 40
0.0
 40
0.0
 40
1.0
 40
1.0
 40
1.0
 40
2.0
 40
2.0
 40
2.0
 40
3.0
 40
3.0
 40
3.0
 40
4.0
 40
4.0
 40
4.0
 40
4.0
 10
87.99790172496233
 20
-146.3545464043836
 30
0.0
 10
87.74830455705599
 20
-146.3545464043836
 30
0.0
 10
87.70179576800511
 20
-146.6380777628196
 30
0.0
 10
87.70179576800511
 20
-146.9829318208932
 30
0.0
 10
87.70179576800511
 20
-147.3022921723758
 30
0.0
 10
87.73779701582598
 20
-147.6113172374027
 30
0.0
 10
87.99790172496233
 20
-147.6113172374027
 30
0.0
 10
88.24543183557753
 20
-147.6113172374027
 30
0.0
 10
88.29417993669382
 20
-147.3295084267093
 30
0.0
 10
88.29417993669382
 20
-146.9829318208932
 30
0.0
 10
88.29417993669382
 20
-146.663226959862
 30
0.0
 10
88.25593937680755
 20
-146.3545464043836
 30
0.0
 10
87.99790172496233
 20
-146.3545464043836
 30
0.0
  0
HATCH
  5
63
330
5B
100
AcDbEntity
  8
_U+30EC_U+30A4_U+30E4_U+30FC 1
 62
     7
420
 16777215
100
AcDbHatch
 10
0.0
 20
0.0
 30
0.0
210
0.0
220
0.0
230
1.0
  2
SOLID
 70
     1
 71
     0
 91
        2
 92
        1
 93
        1
 72
     4
 94
        3
 73
     0
 74
     1
 95
       29
 96
       25
 40
0.0
 40
0.0
 40
0.0
 40
0.0
 40
1.0
 40
1.0
 40
1.0
 40
2.0
 40
2.0
 40
2.0
 40
3.0
 40
3.0
 40
3.0
 40
4.0
 40
4.0
 40
4.0
 40
5.0
 40
5.0
 40
5.0
 40
6.0
 40
6.0
 40
6.0
 40
7.0
 40
7.0
 40
7.0
 40
8.0
 40
8.0
 40
8.0
 40
8.0
 10
88.39563799873443
 20
-147.5772107920988
 10
88.28780651004611
 20
-147.7866725976019
 10
88.11434595236378
 20
-147.8056206227708
 10
87.99790172496233
 20
-147.8056206227708
 10
87.83718802057543
 20
-147.8056206227708
 10
87.6954223413574
 20
-147.7594563432685
 10
87.60016545119024
 20
-147.5772107920988
 10
87.49664033185849
 20
-147.3825628971821
 10
87.47752005191535
 20
-147.145540327797
 10
87.47752005191535
 20
-146.9829318208932
 10
87.47752005191535
 20
-146.8389268296097
 10
87.49440101979307
 20
-146.5874348591865
 10
87.60016545119024
 20
-146.388308340139
 10
87.70816919465283
 20
-146.1850477065093
 10
87.86888289903973
 20
-146.1619655667581
 10
87.99790172496233
 20
-146.1619655667581
 10
88.15654837205808
 20
-146.1619655667581
 10
88.30038110856727
 20
-146.2064072985179
 10
88.39563799873443
 20
-146.388308340139
 10
88.49502900348388
 20
-146.5808891777645
 10
88.51828339800932
 20
-146.8092990084366
 10
88.51828339800932
 20
-146.9829318208932
 10
88.51828339800932
 20
-147.1541530665101
 10
88.49726831554929
 20
-147.3846299544733
 10
88.39563799873443
 20
-147.5772107920988
 97
        0
 97
        0
 92
        1
 93
        1
 72
     4
 94
        3
 73
     0
 74
     1
 95
       17
 96
       13
 40
0.0
 40
0.0
 40
0.0
 40
0.0
 40
1.0
 40
1.0
 40
1.0
 40
2.0
 40
2.0
 40
2.0
 40
3.0
 40
3.0
 40
3.0
 40
4.0
 40
4.0
 40
4.0
 40
4.0
 10
87.99790172496233
 20
-146.3545464043836
 10
87.74830455705599
 20
-146.3545464043836
 10
87.70179576800511
 20
-146.6380777628196
 10
87.70179576800511
 20
-146.9829318208932
 10
87.70179576800511
 20
-147.3022921723758
 10
87.73779701582598
 20
-147.6113172374027
 10
87.99790172496233
 20
-147.6113172374027
 10
88.24543183557753
 20
-147.6113172374027
 10
88.29417993669382
 20
-147.3295084267093
 10
88.29417993669382
 20
-146.9829318208932
 10
88.29417993669382
 20
-146.663226959862
 10
88.25593937680755
 20
-146.3545464043836
 10
87.99790172496233
 20
-146.3545464043836
 97
        0
 97
        0
 75
     2
 76
     1
 98
        0
  0
ENDBLK
  5
5E
330
5B
100
AcDbEntity
  8
0
100
AcDbBlockEnd
  0
BLOCK
  5
66
330
64
100
AcDbEntity
  8
0
100
AcDbBlockBegin
  2
block 4
 70
     0
 10
0.0
 20
0.0
 30
0.0
  3
block 4
  1

  0
POLYLINE
  5
68
330
64
100
AcDbEntity
  8
_U+30EC_U+30A4_U+30E4_U+30FC 1
 62
     7
420
 16777215
370
     9
100
AcDb2dPolyline
 66
     1
 10
0.0
 20
0.0
 30
0.0
  0
VERTEX
  5
69
330
68
100
AcDbEntity
  8
_U+30EC_U+30A4_U+30E4_U+30FC 1
 62
     7
420
 16777215
370
     9
100
AcDbVertex
100
AcDb2dVertex
 10
68.53223214048599
 20
-124.057198302319
 30
0.0
  0
VERTEX
  5
6A
330
68
100
AcDbEntity
  8
_U+30EC_U+30A4_U+30E4_U+30FC 1
 62
     7
420
 16777215
370
     9
100
AcDbVertex
100
AcDb2dVertex
 10
68.53223214048599
 20
-106.2593124734353
 30
0.0
  0
SEQEND
  5
6B
330
68
100
AcDbEntity
  8
_U+30EC_U+30A4_U+30E4_U+30FC 1
 62
     7
420
 16777215
370
     9
  0
POLYLINE
  5
6C
330
64
100
AcDbEntity
  8
_U+30EC_U+30A4_U+30E4_U+30FC 1
 62
     7
420
 16777215
370
     9
100
AcDb2dPolyline
 66
     1
 10
0.0
 20
0.0
 30
0.0
  0
VERTEX
  5
6D
330
6C
100
AcDbEntity
  8
_U+30EC_U+30A4_U+30E4_U+30FC 1
 62
     7
420
 16777215
370
     9
100
AcDbVertex
100
AcDb2dVertex
 10
68.53223214048599
 20
-144.1582996861824
 30
0.0
  0
VERTEX
  5
6E
330
6C
100
AcDbEntity
  8
_U+30EC_U+30A4_U+30E4_U+30FC 1
 62
     7
420
 16777215
370
     9
100
AcDbVertex
100
AcDb2dVertex
 10
68.53223214048599
 20
-123.9972613578896
 30
0.0
  0
SEQEND
  5
6F
330
6C
100
AcDbEntity
  8
_U+30EC_U+30A4_U+30E4_U+30FC 1
 62
     7
420
 16777215
370
     9
  0
POLYLINE
  5
70
330
64
100
AcDbEntity
  8
_U+30EC_U+30A4_U+30E4_U+30FC 1
 62
     7
420
 16777215
370
     9
100
AcDb2dPolyline
 66
     1
 10
0.0
 20
0.0
 30
0.0
  0
VERTEX
  5
71
330
70
100
AcDbEntity
  8
_U+30EC_U+30A4_U+30E4_U+30FC 1
 62
     7
420
 16777215
370
     9
100
AcDbVertex
100
AcDb2dVertex
 10
79.05287659430421
 20
-144.09730440842
 30
0.0
  0
VERTEX
  5
72
330
70
100
AcDbEntity
  8
_U+30EC_U+30A4_U+30E4_U+30FC 1
 62
     7
420
 16777215
370
     9
100
AcDbVertex
100
AcDb2dVertex
 10
67.05945551139298
 20
-144.09730440842
 30
0.0
  0
SEQEND
  5
73
330
70
100
AcDbEntity
  8
_U+30EC_U+30A4_U+30E4_U+30FC 1
 62
     7
420
 16777215
370
     9
  0
POLYLINE
  5
74
330
64
100
AcDbEntity
  8
_U+30EC_U+30A4_U+30E4_U+30FC 1
 62
     7
420
 16777215
370
     9
100
AcDb2dPolyline
 66
     1
 10
0.0
 20
0.0
 30
0.0
  0
VERTEX
  5
75
330
74
100
AcDbEntity
  8
_U+30EC_U+30A4_U+30E4_U+30FC 1
 62
     7
420
 16777215
370
     9
100
AcDbVertex
100
AcDb2dVertex
 10
71.94288760902847
 20
-124.0971680245312
 30
0.0
  0
VERTEX
  5
76
330
74
100
AcDbEntity
  8
_U+30EC_U+30A4_U+30E4_U+30FC 1
 62
     7
420
 16777215
370
     9
100
AcDbVertex
100
AcDb2dVertex
 10
66.93785301449532
 20
-124.0971680245312
 30
0.0
  0
SEQEND
  5
77
330
74
100
AcDbEntity
  8
_U+30EC_U+30A4_U+30E4_U+30FC 1
 62
     7
420
 16777215
370
     9
  0
POLYLINE
  5
78
330
64
100
AcDbEntity
  8
_U+30EC_U+30A4_U+30E4_U+30FC 1
 62
     7
420
 16777215
370
     9
100
AcDb2dPolyline
 66
     1
 10
0.0
 20
0.0
 30
0.0
  0
VERTEX
  5
79
330
78
100
AcDbEntity
  8
_U+30EC_U+30A4_U+30E4_U+30FC 1
 62
     7
420
 16777215
370
     9
100
AcDbVertex
100
AcDb2dVertex
 10
81.4031194240936
 20
-106.0970699734756
 30
0.0
  0
VERTEX
  5
7A
330
78
100
AcDbEntity
  8
_U+30EC_U+30A4_U+30E4_U+30FC 1
 62
     7
420
 16777215
370
     9
100
AcDbVertex
100
AcDb2dVertex
 10
66.93785301449532
 20
-106.0970699734756
 30
0.0
  0
SEQEND
  5
7B
330
78
100
AcDbEntity
  8
_U+30EC_U+30A4_U+30E4_U+30FC 1
 62
     7
420
 16777215
370
     9
  0
ENDBLK
  5
67
330
64
100
AcDbEntity
  8
0
100
AcDbBlockEnd
  0
BLOCK
  5
7E
330
7C
100
AcDbEntity
  8
0
100
AcDbBlockBegin
  2
block 5
 70
     0
 10
0.0
 20
0.0
 30
0.0
  3
block 5
  1

  0
SPLINE
  5
80
330
7C
100
AcDbEntity
  8
_U+30EC_U+30A4_U+30E4_U+30FC 1
370
     0
100
AcDbSpline
210
0.0
220
0.0
230
1.0
 70
    11
 71
     3
 72
    44
 73
    40
 74
     0
 42
0.0000000001
 43
0.0000000001
 12
1.0
 22
0.0
 32
0.0
 13
1.0
 23
0.0
 33
0.0
 40
0.0
 40
0.0
 40
0.0
 40
0.0
 40
1.0
 40
1.0
 40
1.0
 40
2.0
 40
2.0
 40
2.0
 40
3.0
 40
3.0
 40
3.0
 40
4.0
 40
4.0
 40
4.0
 40
5.0
 40
5.0
 40
5.0
 40
6.0
 40
6.0
 40
6.0
 40
7.0
 40
7.0
 40
7.0
 40
8.0
 40
8.0
 40
8.0
 40
9.0
 40
9.0
 40
9.0
 40
10.0
 40
10.0
 40
10.0
 40
11.0
 40
11.0
 40
11.0
 40
12.0
 40
12.0
 40
12.0
 40
13.0
 40
13.0
 40
13.0
 40
13.0
 10
67.20812850967367
 20
-134.5530273101118
 30
0.0
 10
67.36677515676942
 20
-134.7707573447795
 30
0.0
 10
67.44084470970229
 20
-134.8637749228813
 30
0.0
 10
67.58467744621147
 20
-134.9126952787718
 30
0.0
 10
67.58467744621147
 20
-134.9126952787718
 30
0.0
 10
67.58467744621147
 20
-134.1341036991054
 30
0.0
 10
67.58467744621147
 20
-134.1341036991054
 30
0.0
 10
67.58467744621147
 20
-134.1341036991054
 30
0.0
 10
67.7898328823581
 20
-134.1341036991054
 30
0.0
 10
67.7898328823581
 20
-134.1341036991054
 30
0.0
 10
67.7898328823581
 20
-134.1341036991054
 30
0.0
 10
67.7898328823581
 20
-135.1621201919039
 30
0.0
 10
67.7898328823581
 20
-135.1621201919039
 30
0.0
 10
67.43223197098916
 20
-135.1304253134396
 30
0.0
 10
67.354028303474
 20
-135.0649684992199
 30
0.0
 10
67.05568303445136
 20
-134.6798068239689
 30
0.0
 10
66.85690102495245
 20
-134.4238362294149
 30
0.0
 10
66.78920489866728
 20
-134.3583794151951
 30
0.0
 10
66.65174558880582
 20
-134.3583794151951
 30
0.0
 10
66.53323430411322
 20
-134.3583794151951
 30
0.0
 10
66.40214842089947
 20
-134.4303819108368
 30
0.0
 10
66.40214842089947
 20
-134.6267523534961
 30
0.0
 10
66.40214842089947
 20
-134.887201572181
 30
0.0
 10
66.63262530886269
 20
-134.8954698013456
 30
0.0
 10
66.74906953626413
 20
-134.8999484254764
 30
0.0
 10
66.74906953626413
 20
-134.8999484254764
 30
0.0
 10
66.74906953626413
 20
-135.1242241415662
 30
0.0
 10
66.74906953626413
 20
-135.1242241415662
 30
0.0
 10
66.62211776763267
 20
-135.115611402853
 30
0.0
 10
66.50997990958778
 20
-135.1049316068488
 30
0.0
 10
66.3914686248952
 20
-135.0246608820424
 30
0.0
 10
66.23075492050829
 20
-134.914762336063
 30
0.0
 10
66.19682072997857
 20
-134.7287271798595
 30
0.0
 10
66.19682072997857
 20
-134.6122829524581
 30
0.0
 10
66.19682072997857
 20
-134.3349527658954
 30
0.0
 10
66.38096108366518
 20
-134.1279025272319
 30
0.0
 10
66.65381264609697
 20
-134.1279025272319
 30
0.0
 10
66.88222247676903
 20
-134.1279025272319
 30
0.0
 10
66.98178573629275
 20
-134.2440022450848
 30
0.0
 10
67.20812850967367
 20
-134.5530273101118
 30
0.0
  0
HATCH
  5
81
330
7C
100
AcDbEntity
  8
_U+30EC_U+30A4_U+30E4_U+30FC 1
 62
     7
420
 16777215
100
AcDbHatch
 10
0.0
 20
0.0
 30
0.0
210
0.0
220
0.0
230
1.0
  2
SOLID
 70
     1
 71
     0
 91
        1
 92
        1
 93
        1
 72
     4
 94
        3
 73
     0
 74
     1
 95
       44
 96
       40
 40
0.0
 40
0.0
 40
0.0
 40
0.0
 40
1.0
 40
1.0
 40
1.0
 40
2.0
 40
2.0
 40
2.0
 40
3.0
 40
3.0
 40
3.0
 40
4.0
 40
4.0
 40
4.0
 40
5.0
 40
5.0
 40
5.0
 40
6.0
 40
6.0
 40
6.0
 40
7.0
 40
7.0
 40
7.0
 40
8.0
 40
8.0
 40
8.0
 40
9.0
 40
9.0
 40
9.0
 40
10.0
 40
10.0
 40
10.0
 40
11.0
 40
11.0
 40
11.0
 40
12.0
 40
12.0
 40
12.0
 40
13.0
 40
13.0
 40
13.0
 40
13.0
 10
67.20812850967367
 20
-134.5530273101118
 10
67.36677515676942
 20
-134.7707573447795
 10
67.44084470970229
 20
-134.8637749228813
 10
67.58467744621147
 20
-134.9126952787718
 10
67.58467744621147
 20
-134.9126952787718
 10
67.58467744621147
 20
-134.1341036991054
 10
67.58467744621147
 20
-134.1341036991054
 10
67.58467744621147
 20
-134.1341036991054
 10
67.7898328823581
 20
-134.1341036991054
 10
67.7898328823581
 20
-134.1341036991054
 10
67.7898328823581
 20
-134.1341036991054
 10
67.7898328823581
 20
-135.1621201919039
 10
67.7898328823581
 20
-135.1621201919039
 10
67.43223197098916
 20
-135.1304253134396
 10
67.354028303474
 20
-135.0649684992199
 10
67.05568303445136
 20
-134.6798068239689
 10
66.85690102495245
 20
-134.4238362294149
 10
66.78920489866728
 20
-134.3583794151951
 10
66.65174558880582
 20
-134.3583794151951
 10
66.53323430411322
 20
-134.3583794151951
 10
66.40214842089947
 20
-134.4303819108368
 10
66.40214842089947
 20
-134.6267523534961
 10
66.40214842089947
 20
-134.887201572181
 10
66.63262530886269
 20
-134.8954698013456
 10
66.74906953626413
 20
-134.8999484254764
 10
66.74906953626413
 20
-134.8999484254764
 10
66.74906953626413
 20
-135.1242241415662
 10
66.74906953626413
 20
-135.1242241415662
 10
66.62211776763267
 20
-135.115611402853
 10
66.50997990958778
 20
-135.1049316068488
 10
66.3914686248952
 20
-135.0246608820424
 10
66.23075492050829
 20
-134.914762336063
 10
66.19682072997857
 20
-134.7287271798595
 10
66.19682072997857
 20
-134.6122829524581
 10
66.19682072997857
 20
-134.3349527658954
 10
66.38096108366518
 20
-134.1279025272319
 10
66.65381264609697
 20
-134.1279025272319
 10
66.88222247676903
 20
-134.1279025272319
 10
66.98178573629275
 20
-134.2440022450848
 10
67.20812850967367
 20
-134.5530273101118
 97
        0
 97
        0
 75
     2
 76
     1
 98
        0
  0
SPLINE
  5
82
330
7C
100
AcDbEntity
  8
_U+30EC_U+30A4_U+30E4_U+30FC 1
370
     0
100
AcDbSpline
210
0.0
220
0.0
230
1.0
 70
    11
 71
     3
 72
    29
 73
    25
 74
     0
 42
0.0000000001
 43
0.0000000001
 12
1.0
 22
0.0
 32
0.0
 13
1.0
 23
0.0
 33
0.0
 40
0.0
 40
0.0
 40
0.0
 40
0.0
 40
1.0
 40
1.0
 40
1.0
 40
2.0
 40
2.0
 40
2.0
 40
3.0
 40
3.0
 40
3.0
 40
4.0
 40
4.0
 40
4.0
 40
5.0
 40
5.0
 40
5.0
 40
6.0
 40
6.0
 40
6.0
 40
7.0
 40
7.0
 40
7.0
 40
8.0
 40
8.0
 40
8.0
 40
8.0
 10
67.61206595531921
 20
-133.0716362514543
 30
0.0
 10
67.8215277608224
 20
-133.1791232305941
 30
0.0
 10
67.84064804076553
 20
-133.3527560430507
 30
0.0
 10
67.84064804076553
 20
-133.4692002704521
 30
0.0
 10
67.84064804076553
 20
-133.6297417200648
 30
0.0
 10
67.79413925171467
 20
-133.7716796540571
 30
0.0
 10
67.61206595531921
 20
-133.86676428945
 30
0.0
 10
67.4174180604026
 20
-133.970461663556
 30
0.0
 10
67.18056774579166
 20
-133.9894096887249
 30
0.0
 10
67.01761472933934
 20
-133.9894096887249
 30
0.0
 10
66.87378199283017
 20
-133.9894096887249
 30
0.0
 10
66.62211776763267
 20
-133.9728732303957
 30
0.0
 10
66.42316350335949
 20
-133.86676428945
 30
0.0
 10
66.220075124504
 20
-133.7589328007617
 30
0.0
 10
66.19682072997857
 20
-133.5980468416005
 30
0.0
 10
66.19682072997857
 20
-133.4692002704521
 30
0.0
 10
66.19682072997857
 20
-133.3107258781307
 30
0.0
 10
66.2412624617383
 20
-133.1667208868472
 30
0.0
 10
66.42316350335949
 20
-133.0716362514543
 30
0.0
 10
66.61574434098496
 20
-132.9720729919306
 30
0.0
 10
66.84415417165702
 20
-132.9489908521794
 30
0.0
 10
67.01761472933934
 20
-132.9489908521794
 30
0.0
 10
67.18900822973053
 20
-132.9489908521794
 30
0.0
 10
67.41965737246801
 20
-132.9696614250909
 30
0.0
 10
67.61206595531921
 20
-133.0716362514543
 30
0.0
  0
SPLINE
  5
83
330
7C
100
AcDbEntity
  8
_U+30EC_U+30A4_U+30E4_U+30FC 1
370
     0
100
AcDbSpline
210
0.0
220
0.0
230
1.0
 70
    11
 71
     3
 72
    17
 73
    13
 74
     0
 42
0.0000000001
 43
0.0000000001
 12
1.0
 22
0.0
 32
0.0
 13
1.0
 23
0.0
 33
0.0
 40
0.0
 40
0.0
 40
0.0
 40
0.0
 40
1.0
 40
1.0
 40
1.0
 40
2.0
 40
2.0
 40
2.0
 40
3.0
 40
3.0
 40
3.0
 40
4.0
 40
4.0
 40
4.0
 40
4.0
 10
66.38940156760404
 20
-133.4692002704521
 30
0.0
 10
66.38940156760404
 20
-133.7186251835842
 30
0.0
 10
66.6729329260401
 20
-133.7654784821836
 30
0.0
 10
67.01761472933934
 20
-133.7654784821836
 30
0.0
 10
67.33714733559627
 20
-133.7654784821836
 30
0.0
 10
67.64600014584892
 20
-133.7293049795885
 30
0.0
 10
67.64600014584892
 20
-133.4692002704521
 30
0.0
 10
67.64600014584892
 20
-133.2218424146112
 30
0.0
 10
67.36453584470401
 20
-133.1729220587207
 30
0.0
 10
67.01761472933934
 20
-133.1729220587207
 30
0.0
 10
66.69825437785668
 20
-133.1729220587207
 30
0.0
 10
66.38940156760404
 20
-133.2111626186069
 30
0.0
 10
66.38940156760404
 20
-133.4692002704521
 30
0.0
  0
HATCH
  5
84
330
7C
100
AcDbEntity
  8
_U+30EC_U+30A4_U+30E4_U+30FC 1
 62
     7
420
 16777215
100
AcDbHatch
 10
0.0
 20
0.0
 30
0.0
210
0.0
220
0.0
230
1.0
  2
SOLID
 70
     1
 71
     0
 91
        2
 92
        1
 93
        1
 72
     4
 94
        3
 73
     0
 74
     1
 95
       29
 96
       25
 40
0.0
 40
0.0
 40
0.0
 40
0.0
 40
1.0
 40
1.0
 40
1.0
 40
2.0
 40
2.0
 40
2.0
 40
3.0
 40
3.0
 40
3.0
 40
4.0
 40
4.0
 40
4.0
 40
5.0
 40
5.0
 40
5.0
 40
6.0
 40
6.0
 40
6.0
 40
7.0
 40
7.0
 40
7.0
 40
8.0
 40
8.0
 40
8.0
 40
8.0
 10
67.61206595531921
 20
-133.0716362514543
 10
67.8215277608224
 20
-133.1791232305941
 10
67.84064804076553
 20
-133.3527560430507
 10
67.84064804076553
 20
-133.4692002704521
 10
67.84064804076553
 20
-133.6297417200648
 10
67.79413925171467
 20
-133.7716796540571
 10
67.61206595531921
 20
-133.86676428945
 10
67.4174180604026
 20
-133.970461663556
 10
67.18056774579166
 20
-133.9894096887249
 10
67.01761472933934
 20
-133.9894096887249
 10
66.87378199283017
 20
-133.9894096887249
 10
66.62211776763267
 20
-133.9728732303957
 10
66.42316350335949
 20
-133.86676428945
 10
66.220075124504
 20
-133.7589328007617
 10
66.19682072997857
 20
-133.5980468416005
 10
66.19682072997857
 20
-133.4692002704521
 10
66.19682072997857
 20
-133.3107258781307
 10
66.2412624617383
 20
-133.1667208868472
 10
66.42316350335949
 20
-133.0716362514543
 10
66.61574434098496
 20
-132.9720729919306
 10
66.84415417165702
 20
-132.9489908521794
 10
67.01761472933934
 20
-132.9489908521794
 10
67.18900822973053
 20
-132.9489908521794
 10
67.41965737246801
 20
-132.9696614250909
 10
67.61206595531921
 20
-133.0716362514543
 97
        0
 97
        0
 92
        1
 93
        1
 72
     4
 94
        3
 73
     0
 74
     1
 95
       17
 96
       13
 40
0.0
 40
0.0
 40
0.0
 40
0.0
 40
1.0
 40
1.0
 40
1.0
 40
2.0
 40
2.0
 40
2.0
 40
3.0
 40
3.0
 40
3.0
 40
4.0
 40
4.0
 40
4.0
 40
4.0
 10
66.38940156760404
 20
-133.4692002704521
 10
66.38940156760404
 20
-133.7186251835842
 10
66.6729329260401
 20
-133.7654784821836
 10
67.01761472933934
 20
-133.7654784821836
 10
67.33714733559627
 20
-133.7654784821836
 10
67.64600014584892
 20
-133.7293049795885
 10
67.64600014584892
 20
-133.4692002704521
 10
67.64600014584892
 20
-133.2218424146112
 10
67.36453584470401
 20
-133.1729220587207
 10
67.01761472933934
 20
-133.1729220587207
 10
66.69825437785668
 20
-133.1729220587207
 10
66.38940156760404
 20
-133.2111626186069
 10
66.38940156760404
 20
-133.4692002704521
 97
        0
 97
        0
 75
     2
 76
     1
 98
        0
  0
ENDBLK
  5
7F
330
7C
100
AcDbEntity
  8
0
100
AcDbBlockEnd
  0
BLOCK
  5
87
330
85
100
AcDbEntity
  8
0
100
AcDbBlockBegin
  2
block 6
 70
     0
 10
0.0
 20
0.0
 30
0.0
  3
block 6
  1

  0
SPLINE
  5
89
330
85
100
AcDbEntity
  8
_U+30EC_U+30A4_U+30E4_U+30FC 1
370
     0
100
AcDbSpline
210
0.0
220
0.0
230
1.0
 70
    11
 71
     3
 72
    26
 73
    22
 74
     0
 42
0.0000000001
 43
0.0000000001
 12
1.0
 22
0.0
 32
0.0
 13
1.0
 23
0.0
 33
0.0
 40
0.0
 40
0.0
 40
0.0
 40
0.0
 40
1.0
 40
1.0
 40
1.0
 40
2.0
 40
2.0
 40
2.0
 40
3.0
 40
3.0
 40
3.0
 40
4.0
 40
4.0
 40
4.0
 40
5.0
 40
5.0
 40
5.0
 40
6.0
 40
6.0
 40
6.0
 40
7.0
 40
7.0
 40
7.0
 40
7.0
 10
67.7898328823581
 20
-115.734537731483
 30
0.0
 10
67.7898328823581
 20
-115.734537731483
 30
0.0
 10
66.68550752456126
 20
-115.734537731483
 30
0.0
 10
66.68550752456126
 20
-115.734537731483
 30
0.0
 10
66.68550752456126
 20
-115.734537731483
 30
0.0
 10
66.68550752456126
 20
-116.06457787897
 30
0.0
 10
66.68550752456126
 20
-116.06457787897
 30
0.0
 10
66.68550752456126
 20
-116.06457787897
 30
0.0
 10
66.53736841869552
 20
-116.06457787897
 30
0.0
 10
66.53736841869552
 20
-116.06457787897
 30
0.0
 10
66.52272676288321
 20
-115.7324706741919
 30
0.0
 10
66.35977374643089
 20
-115.685961885141
 30
0.0
 10
66.24556883109486
 20
-115.6563340639679
 30
0.0
 10
66.24556883109486
 20
-115.6563340639679
 30
0.0
 10
66.24556883109486
 20
-115.5102620153933
 30
0.0
 10
66.24556883109486
 20
-115.5102620153933
 30
0.0
 10
66.24556883109486
 20
-115.5102620153933
 30
0.0
 10
67.7898328823581
 20
-115.5102620153933
 30
0.0
 10
67.7898328823581
 20
-115.5102620153933
 30
0.0
 10
67.7898328823581
 20
-115.5102620153933
 30
0.0
 10
67.7898328823581
 20
-115.734537731483
 30
0.0
 10
67.7898328823581
 20
-115.734537731483
 30
0.0
  0
HATCH
  5
8A
330
85
100
AcDbEntity
  8
_U+30EC_U+30A4_U+30E4_U+30FC 1
 62
     7
420
 16777215
100
AcDbHatch
 10
0.0
 20
0.0
 30
0.0
210
0.0
220
0.0
230
1.0
  2
SOLID
 70
     1
 71
     0
 91
        1
 92
        1
 93
        1
 72
     4
 94
        3
 73
     0
 74
     1
 95
       26
 96
       22
 40
0.0
 40
0.0
 40
0.0
 40
0.0
 40
1.0
 40
1.0
 40
1.0
 40
2.0
 40
2.0
 40
2.0
 40
3.0
 40
3.0
 40
3.0
 40
4.0
 40
4.0
 40
4.0
 40
5.0
 40
5.0
 40
5.0
 40
6.0
 40
6.0
 40
6.0
 40
7.0
 40
7.0
 40
7.0
 40
7.0
 10
67.7898328823581
 20
-115.734537731483
 10
67.7898328823581
 20
-115.734537731483
 10
66.68550752456126
 20
-115.734537731483
 10
66.68550752456126
 20
-115.734537731483
 10
66.68550752456126
 20
-115.734537731483
 10
66.68550752456126
 20
-116.06457787897
 10
66.68550752456126
 20
-116.06457787897
 10
66.68550752456126
 20
-116.06457787897
 10
66.53736841869552
 20
-116.06457787897
 10
66.53736841869552
 20
-116.06457787897
 10
66.52272676288321
 20
-115.7324706741919
 10
66.35977374643089
 20
-115.685961885141
 10
66.24556883109486
 20
-115.6563340639679
 10
66.24556883109486
 20
-115.6563340639679
 10
66.24556883109486
 20
-115.5102620153933
 10
66.24556883109486
 20
-115.5102620153933
 10
66.24556883109486
 20
-115.5102620153933
 10
67.7898328823581
 20
-115.5102620153933
 10
67.7898328823581
 20
-115.5102620153933
 10
67.7898328823581
 20
-115.5102620153933
 10
67.7898328823581
 20
-115.734537731483
 10
67.7898328823581
 20
-115.734537731483
 97
        0
 97
        0
 75
     2
 76
     1
 98
        0
  0
SPLINE
  5
8B
330
85
100
AcDbEntity
  8
_U+30EC_U+30A4_U+30E4_U+30FC 1
370
     0
100
AcDbSpline
210
0.0
220
0.0
230
1.0
 70
    11
 71
     3
 72
    29
 73
    25
 74
     0
 42
0.0000000001
 43
0.0000000001
 12
1.0
 22
0.0
 32
0.0
 13
1.0
 23
0.0
 33
0.0
 40
0.0
 40
0.0
 40
0.0
 40
0.0
 40
1.0
 40
1.0
 40
1.0
 40
2.0
 40
2.0
 40
2.0
 40
3.0
 40
3.0
 40
3.0
 40
4.0
 40
4.0
 40
4.0
 40
5.0
 40
5.0
 40
5.0
 40
6.0
 40
6.0
 40
6.0
 40
7.0
 40
7.0
 40
7.0
 40
8.0
 40
8.0
 40
8.0
 40
8.0
 10
67.84064804076553
 20
-114.5091172673797
 30
0.0
 10
67.84064804076553
 20
-114.7755954031637
 30
0.0
 10
67.7030164761298
 20
-115.0294989404267
 30
0.0
 10
67.354028303474
 20
-115.0294989404267
 30
0.0
 10
67.09805770891994
 20
-115.0294989404267
 30
0.0
 10
67.00280081875277
 20
-114.8877332612086
 30
0.0
 10
66.94147811911533
 20
-114.7819688298115
 30
0.0
 10
66.88222247676903
 20
-114.9068535411518
 30
0.0
 10
66.768017561433
 20
-114.9829901513758
 30
0.0
 10
66.60730385704609
 20
-114.9829901513758
 30
0.0
 10
66.3322129825489
 20
-114.9829901513758
 30
0.0
 10
66.19682072997857
 20
-114.7840358871026
 30
0.0
 10
66.19682072997857
 20
-114.5091172673797
 30
0.0
 10
66.19682072997857
 20
-114.2255859089436
 30
0.0
 10
66.34065346648775
 20
-114.0352443833836
 30
0.0
 10
66.60730385704609
 20
-114.0352443833836
 30
0.0
 10
66.768017561433
 20
-114.0352443833836
 30
0.0
 10
66.88222247676903
 20
-114.1134480508987
 30
0.0
 10
66.94147811911533
 20
-114.238332762239
 30
0.0
 10
66.99229327752276
 20
-114.1494492987196
 30
0.0
 10
67.08755016768993
 20
-113.9908026516238
 30
0.0
 10
67.34972193411744
 20
-113.9908026516238
 30
0.0
 10
67.72420381336408
 20
-113.9908026516238
 30
0.0
 10
67.84064804076553
 20
-114.2700276407033
 30
0.0
 10
67.84064804076553
 20
-114.5091172673797
 30
0.0
  0
SPLINE
  5
8C
330
85
100
AcDbEntity
  8
_U+30EC_U+30A4_U+30E4_U+30FC 1
370
     0
100
AcDbSpline
210
0.0
220
0.0
230
1.0
 70
    11
 71
     3
 72
    17
 73
    13
 74
     0
 42
0.0000000001
 43
0.0000000001
 12
1.0
 22
0.0
 32
0.0
 13
1.0
 23
0.0
 33
0.0
 40
0.0
 40
0.0
 40
0.0
 40
0.0
 40
1.0
 40
1.0
 40
1.0
 40
2.0
 40
2.0
 40
2.0
 40
3.0
 40
3.0
 40
3.0
 40
4.0
 40
4.0
 40
4.0
 40
4.0
 10
66.38940156760404
 20
-114.5091172673797
 30
0.0
 10
66.38940156760404
 20
-114.6741373411231
 30
0.0
 10
66.48448620299693
 20
-114.758714435286
 30
0.0
 10
66.61987845556726
 20
-114.758714435286
 30
0.0
 10
66.74269610961642
 20
-114.758714435286
 30
0.0
 10
66.861207394309
 20
-114.6867119396443
 30
0.0
 10
66.861207394309
 20
-114.5091172673797
 30
0.0
 10
66.861207394309
 20
-114.3313503403408
 30
0.0
 10
66.74269610961642
 20
-114.2595200994733
 30
0.0
 10
66.61987845556726
 20
-114.2595200994733
 30
0.0
 10
66.48448620299693
 20
-114.2595200994733
 30
0.0
 10
66.38940156760404
 20
-114.3461642509274
 30
0.0
 10
66.38940156760404
 20
-114.5091172673797
 30
0.0
  0
SPLINE
  5
8D
330
85
100
AcDbEntity
  8
_U+30EC_U+30A4_U+30E4_U+30FC 1
370
     0
100
AcDbSpline
210
0.0
220
0.0
230
1.0
 70
    11
 71
     3
 72
    17
 73
    13
 74
     0
 42
0.0000000001
 43
0.0000000001
 12
1.0
 22
0.0
 32
0.0
 13
1.0
 23
0.0
 33
0.0
 40
0.0
 40
0.0
 40
0.0
 40
0.0
 40
1.0
 40
1.0
 40
1.0
 40
2.0
 40
2.0
 40
2.0
 40
3.0
 40
3.0
 40
3.0
 40
4.0
 40
4.0
 40
4.0
 40
4.0
 10
67.0494818625779
 20
-114.5091172673797
 30
0.0
 10
67.0494818625779
 20
-114.6529500038888
 30
0.0
 10
67.13612601403194
 20
-114.8052232243369
 30
0.0
 10
67.33921439288743
 20
-114.8052232243369
 30
0.0
 10
67.54436982903405
 20
-114.8052232243369
 30
0.0
 10
67.64600014584892
 20
-114.6782714557054
 30
0.0
 10
67.64600014584892
 20
-114.5091172673797
 30
0.0
 10
67.64600014584892
 20
-114.3229098564019
 30
0.0
 10
67.52335474657403
 20
-114.2128390556482
 30
0.0
 10
67.34558781953514
 20
-114.2128390556482
 30
0.0
 10
67.12337916073652
 20
-114.2128390556482
 30
0.0
 10
67.0494818625779
 20
-114.3757920721005
 30
0.0
 10
67.0494818625779
 20
-114.5091172673797
 30
0.0
  0
HATCH
  5
8E
330
85
100
AcDbEntity
  8
_U+30EC_U+30A4_U+30E4_U+30FC 1
 62
     7
420
 16777215
100
AcDbHatch
 10
0.0
 20
0.0
 30
0.0
210
0.0
220
0.0
230
1.0
  2
SOLID
 70
     1
 71
     0
 91
        3
 92
        1
 93
        1
 72
     4
 94
        3
 73
     0
 74
     1
 95
       29
 96
       25
 40
0.0
 40
0.0
 40
0.0
 40
0.0
 40
1.0
 40
1.0
 40
1.0
 40
2.0
 40
2.0
 40
2.0
 40
3.0
 40
3.0
 40
3.0
 40
4.0
 40
4.0
 40
4.0
 40
5.0
 40
5.0
 40
5.0
 40
6.0
 40
6.0
 40
6.0
 40
7.0
 40
7.0
 40
7.0
 40
8.0
 40
8.0
 40
8.0
 40
8.0
 10
67.84064804076553
 20
-114.5091172673797
 10
67.84064804076553
 20
-114.7755954031637
 10
67.7030164761298
 20
-115.0294989404267
 10
67.354028303474
 20
-115.0294989404267
 10
67.09805770891994
 20
-115.0294989404267
 10
67.00280081875277
 20
-114.8877332612086
 10
66.94147811911533
 20
-114.7819688298115
 10
66.88222247676903
 20
-114.9068535411518
 10
66.768017561433
 20
-114.9829901513758
 10
66.60730385704609
 20
-114.9829901513758
 10
66.3322129825489
 20
-114.9829901513758
 10
66.19682072997857
 20
-114.7840358871026
 10
66.19682072997857
 20
-114.5091172673797
 10
66.19682072997857
 20
-114.2255859089436
 10
66.34065346648775
 20
-114.0352443833836
 10
66.60730385704609
 20
-114.0352443833836
 10
66.768017561433
 20
-114.0352443833836
 10
66.88222247676903
 20
-114.1134480508987
 10
66.94147811911533
 20
-114.238332762239
 10
66.99229327752276
 20
-114.1494492987196
 10
67.08755016768993
 20
-113.9908026516238
 10
67.34972193411744
 20
-113.9908026516238
 10
67.72420381336408
 20
-113.9908026516238
 10
67.84064804076553
 20
-114.2700276407033
 10
67.84064804076553
 20
-114.5091172673797
 97
        0
 97
        0
 92
        1
 93
        1
 72
     4
 94
        3
 73
     0
 74
     1
 95
       17
 96
       13
 40
0.0
 40
0.0
 40
0.0
 40
0.0
 40
1.0
 40
1.0
 40
1.0
 40
2.0
 40
2.0
 40
2.0
 40
3.0
 40
3.0
 40
3.0
 40
4.0
 40
4.0
 40
4.0
 40
4.0
 10
66.38940156760404
 20
-114.5091172673797
 10
66.38940156760404
 20
-114.6741373411231
 10
66.48448620299693
 20
-114.758714435286
 10
66.61987845556726
 20
-114.758714435286
 10
66.74269610961642
 20
-114.758714435286
 10
66.861207394309
 20
-114.6867119396443
 10
66.861207394309
 20
-114.5091172673797
 10
66.861207394309
 20
-114.3313503403408
 10
66.74269610961642
 20
-114.2595200994733
 10
66.61987845556726
 20
-114.2595200994733
 10
66.48448620299693
 20
-114.2595200994733
 10
66.38940156760404
 20
-114.3461642509274
 10
66.38940156760404
 20
-114.5091172673797
 97
        0
 97
        0
 92
        1
 93
        1
 72
     4
 94
        3
 73
     0
 74
     1
 95
       17
 96
       13
 40
0.0
 40
0.0
 40
0.0
 40
0.0
 40
1.0
 40
1.0
 40
1.0
 40
2.0
 40
2.0
 40
2.0
 40
3.0
 40
3.0
 40
3.0
 40
4.0
 40
4.0
 40
4.0
 40
4.0
 10
67.0494818625779
 20
-114.5091172673797
 10
67.0494818625779
 20
-114.6529500038888
 10
67.13612601403194
 20
-114.8052232243369
 10
67.33921439288743
 20
-114.8052232243369
 10
67.54436982903405
 20
-114.8052232243369
 10
67.64600014584892
 20
-114.6782714557054
 10
67.64600014584892
 20
-114.5091172673797
 10
67.64600014584892
 20
-114.3229098564019
 10
67.52335474657403
 20
-114.2128390556482
 10
67.34558781953514
 20
-114.2128390556482
 10
67.12337916073652
 20
-114.2128390556482
 10
67.0494818625779
 20
-114.3757920721005
 10
67.0494818625779
 20
-114.5091172673797
 97
        0
 97
        0
 75
     2
 76
     1
 98
        0
  0
ENDBLK
  5
88
330
85
100
AcDbEntity
  8
0
100
AcDbBlockEnd
  0
BLOCK
  5
A5
330
A3
100
AcDbEntity
  8
0
100
AcDbBlockBegin
  2
block 7
 70
     0
 10
0.0
 20
0.0
 30
0.0
  3
block 7
  1

  0
SPLINE
  5
A7
330
A3
100
AcDbEntity
  8
_U+30EC_U+30A4_U+30E4_U+30FC 1
370
     0
100
AcDbSpline
210
0.0
220
0.0
230
1.0
 70
    11
 71
     3
 72
    26
 73
    22
 74
     0
 42
0.0000000001
 43
0.0000000001
 12
1.0
 22
0.0
 32
0.0
 13
1.0
 23
0.0
 33
0.0
 40
0.0
 40
0.0
 40
0.0
 40
0.0
 40
1.0
 40
1.0
 40
1.0
 40
2.0
 40
2.0
 40
2.0
 40
3.0
 40
3.0
 40
3.0
 40
4.0
 40
4.0
 40
4.0
 40
5.0
 40
5.0
 40
5.0
 40
6.0
 40
6.0
 40
6.0
 40
7.0
 40
7.0
 40
7.0
 40
7.0
 10
113.7598089993378
 20
-139.8164441924764
 30
0.0
 10
113.7598089993378
 20
-139.8164441924764
 30
0.0
 10
112.6553113867667
 20
-139.8164441924764
 30
0.0
 10
112.6553113867667
 20
-139.8164441924764
 30
0.0
 10
112.6553113867667
 20
-139.8164441924764
 30
0.0
 10
112.6553113867667
 20
-140.1464843399634
 30
0.0
 10
112.6553113867667
 20
-140.1464843399634
 30
0.0
 10
112.6553113867667
 20
-140.1464843399634
 30
0.0
 10
112.507172280901
 20
-140.1464843399634
 30
0.0
 10
112.507172280901
 20
-140.1464843399634
 30
0.0
 10
112.4927028798629
 20
-139.8143771351853
 30
0.0
 10
112.3294053538621
 20
-139.7675238365859
 30
0.0
 10
112.2153726933003
 20
-139.7378960154128
 30
0.0
 10
112.2153726933003
 20
-139.7378960154128
 30
0.0
 10
112.2153726933003
 20
-139.5918239668381
 30
0.0
 10
112.2153726933003
 20
-139.5918239668381
 30
0.0
 10
112.2153726933003
 20
-139.5918239668381
 30
0.0
 10
113.7598089993378
 20
-139.5918239668381
 30
0.0
 10
113.7598089993378
 20
-139.5918239668381
 30
0.0
 10
113.7598089993378
 20
-139.5918239668381
 30
0.0
 10
113.7598089993378
 20
-139.8164441924764
 30
0.0
 10
113.7598089993378
 20
-139.8164441924764
 30
0.0
  0
HATCH
  5
A8
330
A3
100
AcDbEntity
  8
_U+30EC_U+30A4_U+30E4_U+30FC 1
 62
     7
420
 16777215
100
AcDbHatch
 10
0.0
 20
0.0
 30
0.0
210
0.0
220
0.0
230
1.0
  2
SOLID
 70
     1
 71
     0
 91
        1
 92
        1
 93
        1
 72
     4
 94
        3
 73
     0
 74
     1
 95
       26
 96
       22
 40
0.0
 40
0.0
 40
0.0
 40
0.0
 40
1.0
 40
1.0
 40
1.0
 40
2.0
 40
2.0
 40
2.0
 40
3.0
 40
3.0
 40
3.0
 40
4.0
 40
4.0
 40
4.0
 40
5.0
 40
5.0
 40
5.0
 40
6.0
 40
6.0
 40
6.0
 40
7.0
 40
7.0
 40
7.0
 40
7.0
 10
113.7598089993378
 20
-139.8164441924764
 10
113.7598089993378
 20
-139.8164441924764
 10
112.6553113867667
 20
-139.8164441924764
 10
112.6553113867667
 20
-139.8164441924764
 10
112.6553113867667
 20
-139.8164441924764
 10
112.6553113867667
 20
-140.1464843399634
 10
112.6553113867667
 20
-140.1464843399634
 10
112.6553113867667
 20
-140.1464843399634
 10
112.507172280901
 20
-140.1464843399634
 10
112.507172280901
 20
-140.1464843399634
 10
112.4927028798629
 20
-139.8143771351853
 10
112.3294053538621
 20
-139.7675238365859
 10
112.2153726933003
 20
-139.7378960154128
 10
112.2153726933003
 20
-139.7378960154128
 10
112.2153726933003
 20
-139.5918239668381
 10
112.2153726933003
 20
-139.5918239668381
 10
112.2153726933003
 20
-139.5918239668381
 10
113.7598089993378
 20
-139.5918239668381
 10
113.7598089993378
 20
-139.5918239668381
 10
113.7598089993378
 20
-139.5918239668381
 10
113.7598089993378
 20
-139.8164441924764
 10
113.7598089993378
 20
-139.8164441924764
 97
        0
 97
        0
 75
     2
 76
     1
 98
        0
  0
SPLINE
  5
A9
330
A3
100
AcDbEntity
  8
_U+30EC_U+30A4_U+30E4_U+30FC 1
370
     0
100
AcDbSpline
210
0.0
220
0.0
230
1.0
 70
    11
 71
     3
 72
    29
 73
    25
 74
     0
 42
0.0000000001
 43
0.0000000001
 12
1.0
 22
0.0
 32
0.0
 13
1.0
 23
0.0
 33
0.0
 40
0.0
 40
0.0
 40
0.0
 40
0.0
 40
1.0
 40
1.0
 40
1.0
 40
2.0
 40
2.0
 40
2.0
 40
3.0
 40
3.0
 40
3.0
 40
4.0
 40
4.0
 40
4.0
 40
5.0
 40
5.0
 40
5.0
 40
6.0
 40
6.0
 40
6.0
 40
7.0
 40
7.0
 40
7.0
 40
8.0
 40
8.0
 40
8.0
 40
8.0
 10
113.5820420722989
 20
-138.1931151998267
 30
0.0
 10
113.7915038778021
 20
-138.300946688515
 30
0.0
 10
113.810451902971
 20
-138.4742349914231
 30
0.0
 10
113.810451902971
 20
-138.5906792188246
 30
0.0
 10
113.810451902971
 20
-138.7515651779857
 30
0.0
 10
113.7639431139201
 20
-138.8931586024295
 30
0.0
 10
113.5820420722989
 20
-138.9885877473709
 30
0.0
 10
113.3873941773823
 20
-139.0922851214769
 30
0.0
 10
113.1503716079971
 20
-139.1112331466458
 30
0.0
 10
112.9874185915448
 20
-139.1112331466458
 30
0.0
 10
112.8434136002614
 20
-139.1112331466458
 30
0.0
 10
112.5919216298381
 20
-139.0943521787681
 30
0.0
 10
112.3927951107907
 20
-138.9885877473709
 30
0.0
 10
112.1898789867095
 20
-138.8807562586826
 30
0.0
 10
112.1667968469583
 20
-138.7198702995214
 30
0.0
 10
112.1667968469583
 20
-138.5906792188246
 30
0.0
 10
112.1667968469583
 20
-138.4322048265031
 30
0.0
 10
112.2108940691695
 20
-138.2881998352196
 30
0.0
 10
112.3927951107907
 20
-138.1931151998267
 30
0.0
 10
112.5857204579647
 20
-138.0938964498515
 30
0.0
 10
112.8137857790882
 20
-138.0704698005518
 30
0.0
 10
112.9874185915448
 20
-138.0704698005518
 30
0.0
 10
113.1589843467103
 20
-138.0704698005518
 30
0.0
 10
113.3894612346735
 20
-138.0914848830118
 30
0.0
 10
113.5820420722989
 20
-138.1931151998267
 30
0.0
  0
SPLINE
  5
AA
330
A3
100
AcDbEntity
  8
_U+30EC_U+30A4_U+30E4_U+30FC 1
370
     0
100
AcDbSpline
210
0.0
220
0.0
230
1.0
 70
    11
 71
     3
 72
    17
 73
    13
 74
     0
 42
0.0000000001
 43
0.0000000001
 12
1.0
 22
0.0
 32
0.0
 13
1.0
 23
0.0
 33
0.0
 40
0.0
 40
0.0
 40
0.0
 40
0.0
 40
1.0
 40
1.0
 40
1.0
 40
2.0
 40
2.0
 40
2.0
 40
3.0
 40
3.0
 40
3.0
 40
4.0
 40
4.0
 40
4.0
 40
4.0
 10
112.3590331750353
 20
-138.5906792188246
 30
0.0
 10
112.3590331750353
 20
-138.8404486415052
 30
0.0
 10
112.6425645334713
 20
-138.886957430556
 30
0.0
 10
112.9874185915448
 20
-138.886957430556
 30
0.0
 10
113.307123452576
 20
-138.886957430556
 30
0.0
 10
113.6158040080544
 20
-138.8511284375095
 30
0.0
 10
113.6158040080544
 20
-138.5906792188246
 30
0.0
 10
113.6158040080544
 20
-138.3433213629836
 30
0.0
 10
113.3343397069095
 20
-138.2944010070931
 30
0.0
 10
112.9874185915448
 20
-138.2944010070931
 30
0.0
 10
112.6680582400622
 20
-138.2944010070931
 30
0.0
 10
112.3590331750353
 20
-138.3326415669793
 30
0.0
 10
112.3590331750353
 20
-138.5906792188246
 30
0.0
  0
HATCH
  5
AB
330
A3
100
AcDbEntity
  8
_U+30EC_U+30A4_U+30E4_U+30FC 1
 62
     7
420
 16777215
100
AcDbHatch
 10
0.0
 20
0.0
 30
0.0
210
0.0
220
0.0
230
1.0
  2
SOLID
 70
     1
 71
     0
 91
        2
 92
        1
 93
        1
 72
     4
 94
        3
 73
     0
 74
     1
 95
       29
 96
       25
 40
0.0
 40
0.0
 40
0.0
 40
0.0
 40
1.0
 40
1.0
 40
1.0
 40
2.0
 40
2.0
 40
2.0
 40
3.0
 40
3.0
 40
3.0
 40
4.0
 40
4.0
 40
4.0
 40
5.0
 40
5.0
 40
5.0
 40
6.0
 40
6.0
 40
6.0
 40
7.0
 40
7.0
 40
7.0
 40
8.0
 40
8.0
 40
8.0
 40
8.0
 10
113.5820420722989
 20
-138.1931151998267
 10
113.7915038778021
 20
-138.300946688515
 10
113.810451902971
 20
-138.4742349914231
 10
113.810451902971
 20
-138.5906792188246
 10
113.810451902971
 20
-138.7515651779857
 10
113.7639431139201
 20
-138.8931586024295
 10
113.5820420722989
 20
-138.9885877473709
 10
113.3873941773823
 20
-139.0922851214769
 10
113.1503716079971
 20
-139.1112331466458
 10
112.9874185915448
 20
-139.1112331466458
 10
112.8434136002614
 20
-139.1112331466458
 10
112.5919216298381
 20
-139.0943521787681
 10
112.3927951107907
 20
-138.9885877473709
 10
112.1898789867095
 20
-138.8807562586826
 10
112.1667968469583
 20
-138.7198702995214
 10
112.1667968469583
 20
-138.5906792188246
 10
112.1667968469583
 20
-138.4322048265031
 10
112.2108940691695
 20
-138.2881998352196
 10
112.3927951107907
 20
-138.1931151998267
 10
112.5857204579647
 20
-138.0938964498515
 10
112.8137857790882
 20
-138.0704698005518
 10
112.9874185915448
 20
-138.0704698005518
 10
113.1589843467103
 20
-138.0704698005518
 10
113.3894612346735
 20
-138.0914848830118
 10
113.5820420722989
 20
-138.1931151998267
 97
        0
 97
        0
 92
        1
 93
        1
 72
     4
 94
        3
 73
     0
 74
     1
 95
       17
 96
       13
 40
0.0
 40
0.0
 40
0.0
 40
0.0
 40
1.0
 40
1.0
 40
1.0
 40
2.0
 40
2.0
 40
2.0
 40
3.0
 40
3.0
 40
3.0
 40
4.0
 40
4.0
 40
4.0
 40
4.0
 10
112.3590331750353
 20
-138.5906792188246
 10
112.3590331750353
 20
-138.8404486415052
 10
112.6425645334713
 20
-138.886957430556
 10
112.9874185915448
 20
-138.886957430556
 10
113.307123452576
 20
-138.886957430556
 10
113.6158040080544
 20
-138.8511284375095
 10
113.6158040080544
 20
-138.5906792188246
 10
113.6158040080544
 20
-138.3433213629836
 10
113.3343397069095
 20
-138.2944010070931
 10
112.9874185915448
 20
-138.2944010070931
 10
112.6680582400622
 20
-138.2944010070931
 10
112.3590331750353
 20
-138.3326415669793
 10
112.3590331750353
 20
-138.5906792188246
 97
        0
 97
        0
 75
     2
 76
     1
 98
        0
  0
ENDBLK
  5
A6
330
A3
100
AcDbEntity
  8
0
100
AcDbBlockEnd
  0
BLOCK
  5
AE
330
AC
100
AcDbEntity
  8
0
100
AcDbBlockBegin
  2
block 8
 70
     0
 10
0.0
 20
0.0
 30
0.0
  3
block 8
  1

  0
SPLINE
  5
B0
330
AC
100
AcDbEntity
  8
_U+30EC_U+30A4_U+30E4_U+30FC 1
370
     0
100
AcDbSpline
210
0.0
220
0.0
230
1.0
 70
    11
 71
     3
 72
    26
 73
    22
 74
     0
 42
0.0000000001
 43
0.0000000001
 12
1.0
 22
0.0
 32
0.0
 13
1.0
 23
0.0
 33
0.0
 40
0.0
 40
0.0
 40
0.0
 40
0.0
 40
1.0
 40
1.0
 40
1.0
 40
2.0
 40
2.0
 40
2.0
 40
3.0
 40
3.0
 40
3.0
 40
4.0
 40
4.0
 40
4.0
 40
5.0
 40
5.0
 40
5.0
 40
6.0
 40
6.0
 40
6.0
 40
7.0
 40
7.0
 40
7.0
 40
7.0
 10
113.7598089993378
 20
-132.1717773107071
 30
0.0
 10
113.7598089993378
 20
-132.1717773107071
 30
0.0
 10
112.6553113867667
 20
-132.1717773107071
 30
0.0
 10
112.6553113867667
 20
-132.1717773107071
 30
0.0
 10
112.6553113867667
 20
-132.1717773107071
 30
0.0
 10
112.6553113867667
 20
-132.501817458194
 30
0.0
 10
112.6553113867667
 20
-132.501817458194
 30
0.0
 10
112.6553113867667
 20
-132.501817458194
 30
0.0
 10
112.507172280901
 20
-132.501817458194
 30
0.0
 10
112.507172280901
 20
-132.501817458194
 30
0.0
 10
112.4927028798629
 20
-132.1697102534159
 30
0.0
 10
112.3294053538621
 20
-132.1228569548165
 30
0.0
 10
112.2153726933003
 20
-132.0932291336434
 30
0.0
 10
112.2153726933003
 20
-132.0932291336434
 30
0.0
 10
112.2153726933003
 20
-131.9471570850688
 30
0.0
 10
112.2153726933003
 20
-131.9471570850688
 30
0.0
 10
112.2153726933003
 20
-131.9471570850688
 30
0.0
 10
113.7598089993378
 20
-131.9471570850688
 30
0.0
 10
113.7598089993378
 20
-131.9471570850688
 30
0.0
 10
113.7598089993378
 20
-131.9471570850688
 30
0.0
 10
113.7598089993378
 20
-132.1717773107071
 30
0.0
 10
113.7598089993378
 20
-132.1717773107071
 30
0.0
  0
HATCH
  5
B1
330
AC
100
AcDbEntity
  8
_U+30EC_U+30A4_U+30E4_U+30FC 1
 62
     7
420
 16777215
100
AcDbHatch
 10
0.0
 20
0.0
 30
0.0
210
0.0
220
0.0
230
1.0
  2
SOLID
 70
     1
 71
     0
 91
        1
 92
        1
 93
        1
 72
     4
 94
        3
 73
     0
 74
     1
 95
       26
 96
       22
 40
0.0
 40
0.0
 40
0.0
 40
0.0
 40
1.0
 40
1.0
 40
1.0
 40
2.0
 40
2.0
 40
2.0
 40
3.0
 40
3.0
 40
3.0
 40
4.0
 40
4.0
 40
4.0
 40
5.0
 40
5.0
 40
5.0
 40
6.0
 40
6.0
 40
6.0
 40
7.0
 40
7.0
 40
7.0
 40
7.0
 10
113.7598089993378
 20
-132.1717773107071
 10
113.7598089993378
 20
-132.1717773107071
 10
112.6553113867667
 20
-132.1717773107071
 10
112.6553113867667
 20
-132.1717773107071
 10
112.6553113867667
 20
-132.1717773107071
 10
112.6553113867667
 20
-132.501817458194
 10
112.6553113867667
 20
-132.501817458194
 10
112.6553113867667
 20
-132.501817458194
 10
112.507172280901
 20
-132.501817458194
 10
112.507172280901
 20
-132.501817458194
 10
112.4927028798629
 20
-132.1697102534159
 10
112.3294053538621
 20
-132.1228569548165
 10
112.2153726933003
 20
-132.0932291336434
 10
112.2153726933003
 20
-132.0932291336434
 10
112.2153726933003
 20
-131.9471570850688
 10
112.2153726933003
 20
-131.9471570850688
 10
112.2153726933003
 20
-131.9471570850688
 10
113.7598089993378
 20
-131.9471570850688
 10
113.7598089993378
 20
-131.9471570850688
 10
113.7598089993378
 20
-131.9471570850688
 10
113.7598089993378
 20
-132.1717773107071
 10
113.7598089993378
 20
-132.1717773107071
 97
        0
 97
        0
 75
     2
 76
     1
 98
        0
  0
ENDBLK
  5
AF
330
AC
100
AcDbEntity
  8
0
100
AcDbBlockEnd
  0
BLOCK
  5
B7
330
B5
100
AcDbEntity
  8
0
100
AcDbBlockBegin
  2
block 9
 70
     0
 10
0.0
 20
0.0
 30
0.0
  3
block 9
  1

  0
POLYLINE
  5
B9
330
B5
100
AcDbEntity
  8
_U+30EC_U+30A4_U+30E4_U+30FC 1
 62
     7
420
 16777215
370
     9
100
AcDb2dPolyline
 66
     1
 10
0.0
 20
0.0
 30
0.0
  0
VERTEX
  5
BA
330
B9
100
AcDbEntity
  8
_U+30EC_U+30A4_U+30E4_U+30FC 1
 62
     7
420
 16777215
370
     9
100
AcDbVertex
100
AcDb2dVertex
 10
75.62881557054817
 20
-141.3123002424495
 30
0.0
  0
VERTEX
  5
BB
330
B9
100
AcDbEntity
  8
_U+30EC_U+30A4_U+30E4_U+30FC 1
 62
     7
420
 16777215
370
     9
100
AcDbVertex
100
AcDb2dVertex
 10
76.53175026973462
 20
-140.7903655203579
 30
0.0
  0
SEQEND
  5
BC
330
B9
100
AcDbEntity
  8
_U+30EC_U+30A4_U+30E4_U+30FC 1
 62
     7
420
 16777215
370
     9
  0
POLYLINE
  5
BD
330
B5
100
AcDbEntity
  8
_U+30EC_U+30A4_U+30E4_U+30FC 1
 62
     7
420
 16777215
370
     9
100
AcDb2dPolyline
 66
     1
 10
0.0
 20
0.0
 30
0.0
  0
VERTEX
  5
BE
330
BD
100
AcDbEntity
  8
_U+30EC_U+30A4_U+30E4_U+30FC 1
 62
     7
420
 16777215
370
     9
100
AcDbVertex
100
AcDb2dVertex
 10
75.62881557054817
 20
-141.3123002424495
 30
0.0
  0
VERTEX
  5
BF
330
BD
100
AcDbEntity
  8
_U+30EC_U+30A4_U+30E4_U+30FC 1
 62
     7
420
 16777215
370
     9
100
AcDbVertex
100
AcDb2dVertex
 10
89.81640854192585
 20
-126.5988210794614
 30
0.0
  0
SEQEND
  5
C0
330
BD
100
AcDbEntity
  8
_U+30EC_U+30A4_U+30E4_U+30FC 1
 62
     7
420
 16777215
370
     9
  0
POLYLINE
  5
C1
330
B5
100
AcDbEntity
  8
_U+30EC_U+30A4_U+30E4_U+30FC 1
 62
     7
420
 16777215
370
     9
100
AcDb2dPolyline
 66
     1
 10
0.0
 20
0.0
 30
0.0
  0
VERTEX
  5
C2
330
C1
100
AcDbEntity
  8
_U+30EC_U+30A4_U+30E4_U+30FC 1
 62
     7
420
 16777215
370
     9
100
AcDbVertex
100
AcDb2dVertex
 10
75.62881557054817
 20
-141.3123002424495
 30
0.0
  0
VERTEX
  5
C3
330
C1
100
AcDbEntity
  8
_U+30EC_U+30A4_U+30E4_U+30FC 1
 62
     7
420
 16777215
370
     9
100
AcDbVertex
100
AcDb2dVertex
 10
76.15075027945473
 20
-140.4093302426757
 30
0.0
  0
SEQEND
  5
C4
330
C1
100
AcDbEntity
  8
_U+30EC_U+30A4_U+30E4_U+30FC 1
 62
     7
420
 16777215
370
     9
  0
ENDBLK
  5
B8
330
B5
100
AcDbEntity
  8
0
100
AcDbBlockEnd
  0
BLOCK
  5
C7
330
C5
100
AcDbEntity
  8
0
100
AcDbBlockBegin
  2
block 10
 70
     0
 10
0.0
 20
0.0
 30
0.0
  3
block 10
  1

  0
SPLINE
  5
C9
330
C5
100
AcDbEntity
  8
_U+30EC_U+30A4_U+30E4_U+30FC 1
370
     0
100
AcDbSpline
210
0.0
220
0.0
230
1.0
 70
    11
 71
     3
 72
    44
 73
    40
 74
     0
 42
0.0000000001
 43
0.0000000001
 12
1.0
 22
0.0
 32
0.0
 13
1.0
 23
0.0
 33
0.0
 40
0.0
 40
0.0
 40
0.0
 40
0.0
 40
1.0
 40
1.0
 40
1.0
 40
2.0
 40
2.0
 40
2.0
 40
3.0
 40
3.0
 40
3.0
 40
4.0
 40
4.0
 40
4.0
 40
5.0
 40
5.0
 40
5.0
 40
6.0
 40
6.0
 40
6.0
 40
7.0
 40
7.0
 40
7.0
 40
8.0
 40
8.0
 40
8.0
 40
9.0
 40
9.0
 40
9.0
 40
10.0
 40
10.0
 40
10.0
 40
11.0
 40
11.0
 40
11.0
 40
12.0
 40
12.0
 40
12.0
 40
13.0
 40
13.0
 40
13.0
 40
13.0
 10
82.65163029617737
 20
-130.2066948459206
 30
0.0
 10
82.62820364687768
 20
-130.1622531141608
 30
0.0
 10
82.60718856441765
 20
-130.1095431532365
 30
0.0
 10
82.60494925235224
 20
-129.8787217557248
 30
0.0
 10
82.60081513776994
 20
-129.6354980144661
 30
0.0
 10
82.54155949542364
 20
-129.5659070856641
 30
0.0
 10
82.36379256838475
 20
-129.5659070856641
 30
0.0
 10
82.36379256838475
 20
-129.5659070856641
 30
0.0
 10
81.95554875338264
 20
-129.5659070856641
 30
0.0
 10
81.95554875338264
 20
-129.5659070856641
 30
0.0
 10
81.95554875338264
 20
-129.5659070856641
 30
0.0
 10
81.95554875338264
 20
-130.2066948459206
 30
0.0
 10
81.95554875338264
 20
-130.2066948459206
 30
0.0
 10
81.95554875338264
 20
-130.2066948459206
 30
0.0
 10
81.72076549606287
 20
-130.2066948459206
 30
0.0
 10
81.72076549606287
 20
-130.2066948459206
 30
0.0
 10
81.72076549606287
 20
-130.2066948459206
 30
0.0
 10
81.72076549606287
 20
-128.6624307946573
 30
0.0
 10
81.72076549606287
 20
-128.6624307946573
 30
0.0
 10
81.72076549606287
 20
-128.6624307946573
 30
0.0
 10
82.39565970162332
 20
-128.6624307946573
 30
0.0
 10
82.39565970162332
 20
-128.6624307946573
 30
0.0
 10
82.70227319981055
 20
-128.6624307946573
 30
0.0
 10
82.86936033084517
 20
-128.8334797855
 30
0.0
 10
82.86936033084517
 20
-129.0897948896026
 30
0.0
 10
82.86936033084517
 20
-129.1404377932357
 30
0.0
 10
82.8609198469063
 20
-129.2227755753332
 30
0.0
 10
82.81647811514658
 20
-129.303390809688
 30
0.0
 10
82.75739472757455
 20
-129.4070881837941
 30
0.0
 10
82.69176565858054
 20
-129.426036208963
 30
0.0
 10
82.63044295894309
 20
-129.4429171768407
 30
0.0
 10
82.76790226880456
 20
-129.4852918513092
 30
0.0
 10
82.83559839508972
 20
-129.5342122071998
 30
0.0
 10
82.83990476444627
 20
-129.8490939345516
 30
0.0
 10
82.84403887902857
 20
-130.1198784396923
 30
0.0
 10
82.88004012684944
 20
-130.1515733181566
 30
0.0
 10
82.9477362531346
 20
-130.2066948459206
 30
0.0
 10
82.9477362531346
 20
-130.2066948459206
 30
0.0
 10
82.65163029617737
 20
-130.2066948459206
 30
0.0
 10
82.65163029617737
 20
-130.2066948459206
 30
0.0
  0
SPLINE
  5
CA
330
C5
100
AcDbEntity
  8
_U+30EC_U+30A4_U+30E4_U+30FC 1
370
     0
100
AcDbSpline
210
0.0
220
0.0
230
1.0
 70
    11
 71
     3
 72
    20
 73
    16
 74
     0
 42
0.0000000001
 43
0.0000000001
 12
1.0
 22
0.0
 32
0.0
 13
1.0
 23
0.0
 33
0.0
 40
0.0
 40
0.0
 40
0.0
 40
0.0
 40
1.0
 40
1.0
 40
1.0
 40
2.0
 40
2.0
 40
2.0
 40
3.0
 40
3.0
 40
3.0
 40
4.0
 40
4.0
 40
4.0
 40
5.0
 40
5.0
 40
5.0
 40
5.0
 10
82.39979381620562
 20
-128.8741319122259
 30
0.0
 10
82.39979381620562
 20
-128.8741319122259
 30
0.0
 10
81.95554875338264
 20
-128.8741319122259
 30
0.0
 10
81.95554875338264
 20
-128.8741319122259
 30
0.0
 10
81.95554875338264
 20
-128.8741319122259
 30
0.0
 10
81.95554875338264
 20
-129.3543782228697
 30
0.0
 10
81.95554875338264
 20
-129.3543782228697
 30
0.0
 10
81.95554875338264
 20
-129.3543782228697
 30
0.0
 10
82.39772675891446
 20
-129.3543782228697
 30
0.0
 10
82.39772675891446
 20
-129.3543782228697
 30
0.0
 10
82.49711776366392
 20
-129.3543782228697
 30
0.0
 10
82.63251001623424
 20
-129.2778971030972
 30
0.0
 10
82.63251001623424
 20
-129.1066758574803
 30
0.0
 10
82.63251001623424
 20
-129.0284721899651
 30
0.0
 10
82.59857582570453
 20
-128.8741319122259
 30
0.0
 10
82.39979381620562
 20
-128.8741319122259
 30
0.0
  0
HATCH
  5
CB
330
C5
100
AcDbEntity
  8
_U+30EC_U+30A4_U+30E4_U+30FC 1
 62
     7
420
 16777215
100
AcDbHatch
 10
0.0
 20
0.0
 30
0.0
210
0.0
220
0.0
230
1.0
  2
SOLID
 70
     1
 71
     0
 91
        2
 92
        1
 93
        1
 72
     4
 94
        3
 73
     0
 74
     1
 95
       44
 96
       40
 40
0.0
 40
0.0
 40
0.0
 40
0.0
 40
1.0
 40
1.0
 40
1.0
 40
2.0
 40
2.0
 40
2.0
 40
3.0
 40
3.0
 40
3.0
 40
4.0
 40
4.0
 40
4.0
 40
5.0
 40
5.0
 40
5.0
 40
6.0
 40
6.0
 40
6.0
 40
7.0
 40
7.0
 40
7.0
 40
8.0
 40
8.0
 40
8.0
 40
9.0
 40
9.0
 40
9.0
 40
10.0
 40
10.0
 40
10.0
 40
11.0
 40
11.0
 40
11.0
 40
12.0
 40
12.0
 40
12.0
 40
13.0
 40
13.0
 40
13.0
 40
13.0
 10
82.65163029617737
 20
-130.2066948459206
 10
82.62820364687768
 20
-130.1622531141608
 10
82.60718856441765
 20
-130.1095431532365
 10
82.60494925235224
 20
-129.8787217557248
 10
82.60081513776994
 20
-129.6354980144661
 10
82.54155949542364
 20
-129.5659070856641
 10
82.36379256838475
 20
-129.5659070856641
 10
82.36379256838475
 20
-129.5659070856641
 10
81.95554875338264
 20
-129.5659070856641
 10
81.95554875338264
 20
-129.5659070856641
 10
81.95554875338264
 20
-129.5659070856641
 10
81.95554875338264
 20
-130.2066948459206
 10
81.95554875338264
 20
-130.2066948459206
 10
81.95554875338264
 20
-130.2066948459206
 10
81.72076549606287
 20
-130.2066948459206
 10
81.72076549606287
 20
-130.2066948459206
 10
81.72076549606287
 20
-130.2066948459206
 10
81.72076549606287
 20
-128.6624307946573
 10
81.72076549606287
 20
-128.6624307946573
 10
81.72076549606287
 20
-128.6624307946573
 10
82.39565970162332
 20
-128.6624307946573
 10
82.39565970162332
 20
-128.6624307946573
 10
82.70227319981055
 20
-128.6624307946573
 10
82.86936033084517
 20
-128.8334797855
 10
82.86936033084517
 20
-129.0897948896026
 10
82.86936033084517
 20
-129.1404377932357
 10
82.8609198469063
 20
-129.2227755753332
 10
82.81647811514658
 20
-129.303390809688
 10
82.75739472757455
 20
-129.4070881837941
 10
82.69176565858054
 20
-129.426036208963
 10
82.63044295894309
 20
-129.4429171768407
 10
82.76790226880456
 20
-129.4852918513092
 10
82.83559839508972
 20
-129.5342122071998
 10
82.83990476444627
 20
-129.8490939345516
 10
82.84403887902857
 20
-130.1198784396923
 10
82.88004012684944
 20
-130.1515733181566
 10
82.9477362531346
 20
-130.2066948459206
 10
82.9477362531346
 20
-130.2066948459206
 10
82.65163029617737
 20
-130.2066948459206
 10
82.65163029617737
 20
-130.2066948459206
 97
        0
 97
        0
 92
        1
 93
        1
 72
     4
 94
        3
 73
     0
 74
     1
 95
       20
 96
       16
 40
0.0
 40
0.0
 40
0.0
 40
0.0
 40
1.0
 40
1.0
 40
1.0
 40
2.0
 40
2.0
 40
2.0
 40
3.0
 40
3.0
 40
3.0
 40
4.0
 40
4.0
 40
4.0
 40
5.0
 40
5.0
 40
5.0
 40
5.0
 10
82.39979381620562
 20
-128.8741319122259
 10
82.39979381620562
 20
-128.8741319122259
 10
81.95554875338264
 20
-128.8741319122259
 10
81.95554875338264
 20
-128.8741319122259
 10
81.95554875338264
 20
-128.8741319122259
 10
81.95554875338264
 20
-129.3543782228697
 10
81.95554875338264
 20
-129.3543782228697
 10
81.95554875338264
 20
-129.3543782228697
 10
82.39772675891446
 20
-129.3543782228697
 10
82.39772675891446
 20
-129.3543782228697
 10
82.49711776366392
 20
-129.3543782228697
 10
82.63251001623424
 20
-129.2778971030972
 10
82.63251001623424
 20
-129.1066758574803
 10
82.63251001623424
 20
-129.0284721899651
 10
82.59857582570453
 20
-128.8741319122259
 10
82.39979381620562
 20
-128.8741319122259
 97
        0
 97
        0
 75
     2
 76
     1
 98
        0
  0
SPLINE
  5
CC
330
C5
100
AcDbEntity
  8
_U+30EC_U+30A4_U+30E4_U+30FC 1
370
     0
100
AcDbSpline
210
0.0
220
0.0
230
1.0
 70
    11
 71
     3
 72
    26
 73
    22
 74
     0
 42
0.0000000001
 43
0.0000000001
 12
1.0
 22
0.0
 32
0.0
 13
1.0
 23
0.0
 33
0.0
 40
0.0
 40
0.0
 40
0.0
 40
0.0
 40
1.0
 40
1.0
 40
1.0
 40
2.0
 40
2.0
 40
2.0
 40
3.0
 40
3.0
 40
3.0
 40
4.0
 40
4.0
 40
4.0
 40
5.0
 40
5.0
 40
5.0
 40
6.0
 40
6.0
 40
6.0
 40
7.0
 40
7.0
 40
7.0
 40
7.0
 10
83.53874238362921
 20
-130.2066948459206
 30
0.0
 10
83.53874238362921
 20
-130.2066948459206
 30
0.0
 10
83.53874238362921
 20
-129.1021972333494
 30
0.0
 10
83.53874238362921
 20
-129.1021972333494
 30
0.0
 10
83.53874238362921
 20
-129.1021972333494
 30
0.0
 10
83.20870223614227
 20
-129.1021972333494
 30
0.0
 10
83.20870223614227
 20
-129.1021972333494
 30
0.0
 10
83.20870223614227
 20
-129.1021972333494
 30
0.0
 10
83.20870223614227
 20
-128.9544026370322
 30
0.0
 10
83.20870223614227
 20
-128.9544026370322
 30
0.0
 10
83.54080944092036
 20
-128.9395887264457
 30
0.0
 10
83.58731822997123
 20
-128.7766357099933
 30
0.0
 10
83.61694605114438
 20
-128.6624307946573
 30
0.0
 10
83.61694605114438
 20
-128.6624307946573
 30
0.0
 10
83.76301809971898
 20
-128.6624307946573
 30
0.0
 10
83.76301809971898
 20
-128.6624307946573
 30
0.0
 10
83.76301809971898
 20
-128.6624307946573
 30
0.0
 10
83.76301809971898
 20
-130.2066948459206
 30
0.0
 10
83.76301809971898
 20
-130.2066948459206
 30
0.0
 10
83.76301809971898
 20
-130.2066948459206
 30
0.0
 10
83.53874238362921
 20
-130.2066948459206
 30
0.0
 10
83.53874238362921
 20
-130.2066948459206
 30
0.0
  0
HATCH
  5
CD
330
C5
100
AcDbEntity
  8
_U+30EC_U+30A4_U+30E4_U+30FC 1
 62
     7
420
 16777215
100
AcDbHatch
 10
0.0
 20
0.0
 30
0.0
210
0.0
220
0.0
230
1.0
  2
SOLID
 70
     1
 71
     0
 91
        1
 92
        1
 93
        1
 72
     4
 94
        3
 73
     0
 74
     1
 95
       26
 96
       22
 40
0.0
 40
0.0
 40
0.0
 40
0.0
 40
1.0
 40
1.0
 40
1.0
 40
2.0
 40
2.0
 40
2.0
 40
3.0
 40
3.0
 40
3.0
 40
4.0
 40
4.0
 40
4.0
 40
5.0
 40
5.0
 40
5.0
 40
6.0
 40
6.0
 40
6.0
 40
7.0
 40
7.0
 40
7.0
 40
7.0
 10
83.53874238362921
 20
-130.2066948459206
 10
83.53874238362921
 20
-130.2066948459206
 10
83.53874238362921
 20
-129.1021972333494
 10
83.53874238362921
 20
-129.1021972333494
 10
83.53874238362921
 20
-129.1021972333494
 10
83.20870223614227
 20
-129.1021972333494
 10
83.20870223614227
 20
-129.1021972333494
 10
83.20870223614227
 20
-129.1021972333494
 10
83.20870223614227
 20
-128.9544026370322
 10
83.20870223614227
 20
-128.9544026370322
 10
83.54080944092036
 20
-128.9395887264457
 10
83.58731822997123
 20
-128.7766357099933
 10
83.61694605114438
 20
-128.6624307946573
 10
83.61694605114438
 20
-128.6624307946573
 10
83.76301809971898
 20
-128.6624307946573
 10
83.76301809971898
 20
-128.6624307946573
 10
83.76301809971898
 20
-128.6624307946573
 10
83.76301809971898
 20
-130.2066948459206
 10
83.76301809971898
 20
-130.2066948459206
 10
83.76301809971898
 20
-130.2066948459206
 10
83.53874238362921
 20
-130.2066948459206
 10
83.53874238362921
 20
-130.2066948459206
 97
        0
 97
        0
 75
     2
 76
     1
 98
        0
  0
SPLINE
  5
CE
330
C5
100
AcDbEntity
  8
_U+30EC_U+30A4_U+30E4_U+30FC 1
370
     0
100
AcDbSpline
210
0.0
220
0.0
230
1.0
 70
    11
 71
     3
 72
    29
 73
    25
 74
     0
 42
0.0000000001
 43
0.0000000001
 12
1.0
 22
0.0
 32
0.0
 13
1.0
 23
0.0
 33
0.0
 40
0.0
 40
0.0
 40
0.0
 40
0.0
 40
1.0
 40
1.0
 40
1.0
 40
2.0
 40
2.0
 40
2.0
 40
3.0
 40
3.0
 40
3.0
 40
4.0
 40
4.0
 40
4.0
 40
5.0
 40
5.0
 40
5.0
 40
6.0
 40
6.0
 40
6.0
 40
7.0
 40
7.0
 40
7.0
 40
8.0
 40
8.0
 40
8.0
 40
8.0
 10
85.16189912150467
 20
-130.0289279188817
 30
0.0
 10
85.05406763281634
 20
-130.2383897243849
 30
0.0
 10
84.88060707513402
 20
-130.2576822591022
 30
0.0
 10
84.76416284773258
 20
-130.2576822591022
 30
0.0
 10
84.60344914334567
 20
-130.2576822591022
 30
0.0
 10
84.46168346412765
 20
-130.2108289605029
 30
0.0
 10
84.36642657396048
 20
-130.0289279188817
 30
0.0
 10
84.26290145462872
 20
-129.8342800239651
 30
0.0
 10
84.24378117468558
 20
-129.5976019641284
 30
0.0
 10
84.24378117468558
 20
-129.4343044381276
 30
0.0
 10
84.24378117468558
 20
-129.2906439563926
 30
0.0
 10
84.2606621425633
 20
-129.0388074764209
 30
0.0
 10
84.36642657396048
 20
-128.840025466922
 30
0.0
 10
84.47443031742306
 20
-128.6369370880665
 30
0.0
 10
84.63514402180996
 20
-128.613682693541
 30
0.0
 10
84.76416284773258
 20
-128.613682693541
 30
0.0
 10
84.92280949482833
 20
-128.613682693541
 30
0.0
 10
85.06664223133751
 20
-128.6581244253007
 30
0.0
 10
85.16189912150467
 20
-128.840025466922
 30
0.0
 10
85.26129012625412
 20
-129.0326063045474
 30
0.0
 10
85.28454452077956
 20
-129.2610161352195
 30
0.0
 10
85.28454452077956
 20
-129.4343044381276
 30
0.0
 10
85.28454452077956
 20
-129.605870193293
 30
0.0
 10
85.26352943831954
 20
-129.8366915908047
 30
0.0
 10
85.16189912150467
 20
-130.0289279188817
 30
0.0
  0
SPLINE
  5
CF
330
C5
100
AcDbEntity
  8
_U+30EC_U+30A4_U+30E4_U+30FC 1
370
     0
100
AcDbSpline
210
0.0
220
0.0
230
1.0
 70
    11
 71
     3
 72
    17
 73
    13
 74
     0
 42
0.0000000001
 43
0.0000000001
 12
1.0
 22
0.0
 32
0.0
 13
1.0
 23
0.0
 33
0.0
 40
0.0
 40
0.0
 40
0.0
 40
0.0
 40
1.0
 40
1.0
 40
1.0
 40
2.0
 40
2.0
 40
2.0
 40
3.0
 40
3.0
 40
3.0
 40
4.0
 40
4.0
 40
4.0
 40
4.0
 10
84.76416284773258
 20
-128.8062635311665
 30
0.0
 10
84.51456567982622
 20
-128.8062635311665
 30
0.0
 10
84.46805689077534
 20
-129.0897948896026
 30
0.0
 10
84.46805689077534
 20
-129.4343044381276
 30
0.0
 10
84.46805689077534
 20
-129.7540092991587
 30
0.0
 10
84.5040581385962
 20
-130.0626898546371
 30
0.0
 10
84.76416284773258
 20
-130.0626898546371
 30
0.0
 10
85.01169295834778
 20
-130.0626898546371
 30
0.0
 10
85.06044105946405
 20
-129.7815700630407
 30
0.0
 10
85.06044105946405
 20
-129.4343044381276
 30
0.0
 10
85.06044105946405
 20
-129.1152885961934
 30
0.0
 10
85.02220049957779
 20
-128.8062635311665
 30
0.0
 10
84.76416284773258
 20
-128.8062635311665
 30
0.0
  0
HATCH
  5
D0
330
C5
100
AcDbEntity
  8
_U+30EC_U+30A4_U+30E4_U+30FC 1
 62
     7
420
 16777215
100
AcDbHatch
 10
0.0
 20
0.0
 30
0.0
210
0.0
220
0.0
230
1.0
  2
SOLID
 70
     1
 71
     0
 91
        2
 92
        1
 93
        1
 72
     4
 94
        3
 73
     0
 74
     1
 95
       29
 96
       25
 40
0.0
 40
0.0
 40
0.0
 40
0.0
 40
1.0
 40
1.0
 40
1.0
 40
2.0
 40
2.0
 40
2.0
 40
3.0
 40
3.0
 40
3.0
 40
4.0
 40
4.0
 40
4.0
 40
5.0
 40
5.0
 40
5.0
 40
6.0
 40
6.0
 40
6.0
 40
7.0
 40
7.0
 40
7.0
 40
8.0
 40
8.0
 40
8.0
 40
8.0
 10
85.16189912150467
 20
-130.0289279188817
 10
85.05406763281634
 20
-130.2383897243849
 10
84.88060707513402
 20
-130.2576822591022
 10
84.76416284773258
 20
-130.2576822591022
 10
84.60344914334567
 20
-130.2576822591022
 10
84.46168346412765
 20
-130.2108289605029
 10
84.36642657396048
 20
-130.0289279188817
 10
84.26290145462872
 20
-129.8342800239651
 10
84.24378117468558
 20
-129.5976019641284
 10
84.24378117468558
 20
-129.4343044381276
 10
84.24378117468558
 20
-129.2906439563926
 10
84.2606621425633
 20
-129.0388074764209
 10
84.36642657396048
 20
-128.840025466922
 10
84.47443031742306
 20
-128.6369370880665
 10
84.63514402180996
 20
-128.613682693541
 10
84.76416284773258
 20
-128.613682693541
 10
84.92280949482833
 20
-128.613682693541
 10
85.06664223133751
 20
-128.6581244253007
 10
85.16189912150467
 20
-128.840025466922
 10
85.26129012625412
 20
-129.0326063045474
 10
85.28454452077956
 20
-129.2610161352195
 10
85.28454452077956
 20
-129.4343044381276
 10
85.28454452077956
 20
-129.605870193293
 10
85.26352943831954
 20
-129.8366915908047
 10
85.16189912150467
 20
-130.0289279188817
 97
        0
 97
        0
 92
        1
 93
        1
 72
     4
 94
        3
 73
     0
 74
     1
 95
       17
 96
       13
 40
0.0
 40
0.0
 40
0.0
 40
0.0
 40
1.0
 40
1.0
 40
1.0
 40
2.0
 40
2.0
 40
2.0
 40
3.0
 40
3.0
 40
3.0
 40
4.0
 40
4.0
 40
4.0
 40
4.0
 10
84.76416284773258
 20
-128.8062635311665
 10
84.51456567982622
 20
-128.8062635311665
 10
84.46805689077534
 20
-129.0897948896026
 10
84.46805689077534
 20
-129.4343044381276
 10
84.46805689077534
 20
-129.7540092991587
 10
84.5040581385962
 20
-130.0626898546371
 10
84.76416284773258
 20
-130.0626898546371
 10
85.01169295834778
 20
-130.0626898546371
 10
85.06044105946405
 20
-129.7815700630407
 10
85.06044105946405
 20
-129.4343044381276
 10
85.06044105946405
 20
-129.1152885961934
 10
85.02220049957779
 20
-128.8062635311665
 10
84.76416284773258
 20
-128.8062635311665
 97
        0
 97
        0
 75
     2
 76
     1
 98
        0
  0
ENDBLK
  5
C8
330
C5
100
AcDbEntity
  8
0
100
AcDbBlockEnd
  0
ENDSEC
  0
SECTION
  2
ENTITIES
  0
SPLINE
  5
41
330
1F
100
AcDbEntity
  8
_U+30EC_U+30A4_U+30E4_U+30FC 1
 62
     7
420
 16777215
370
    25
100
AcDbSpline
210
0.0
220
0.0
230
1.0
 70
    11
 71
     3
 72
    65
 73
    61
 74
     0
 42
0.0000000001
 43
0.0000000001
 12
1.0
 22
0.0
 32
0.0
 13
1.0
 23
0.0
 33
0.0
 40
0.0
 40
0.0
 40
0.0
 40
0.0
 40
1.0
 40
1.0
 40
1.0
 40
2.0
 40
2.0
 40
2.0
 40
3.0
 40
3.0
 40
3.0
 40
4.0
 40
4.0
 40
4.0
 40
5.0
 40
5.0
 40
5.0
 40
6.0
 40
6.0
 40
6.0
 40
7.0
 40
7.0
 40
7.0
 40
8.0
 40
8.0
 40
8.0
 40
9.0
 40
9.0
 40
9.0
 40
10.0
 40
10.0
 40
10.0
 40
11.0
 40
11.0
 40
11.0
 40
12.0
 40
12.0
 40
12.0
 40
13.0
 40
13.0
 40
13.0
 40
14.0
 40
14.0
 40
14.0
 40
15.0
 40
15.0
 40
15.0
 40
16.0
 40
16.0
 40
16.0
 40
17.0
 40
17.0
 40
17.0
 40
18.0
 40
18.0
 40
18.0
 40
19.0
 40
19.0
 40
19.0
 40
20.0
 40
20.0
 40
20.0
 40
20.0
 10
102.0030812865735
 20
-134.0969010775871
 30
0.0
 10
102.0030812865735
 20
-134.0969010775871
 30
0.0
 10
92.28585292336952
 20
-134.0969010775871
 30
0.0
 10
92.28585292336952
 20
-134.0969010775871
 30
0.0
 10
92.28585292336952
 20
-134.0969010775871
 30
0.0
 10
92.53872402802935
 20
-144.09730440842
 30
0.0
 10
92.53872402802935
 20
-144.09730440842
 30
0.0
 10
92.53872402802935
 20
-144.09730440842
 30
0.0
 10
82.55310233833934
 20
-144.09730440842
 30
0.0
 10
82.55310233833934
 20
-144.09730440842
 30
0.0
 10
77.02990775702555
 20
-144.09730440842
 30
0.0
 10
72.55301676012945
 20
-139.6200605206506
 30
0.0
 10
72.55301676012945
 20
-134.0972538553649
 30
0.0
 10
72.55301676012945
 20
-134.0972538553649
 30
0.0
 10
72.55852009332237
 20
-124.1071516356398
 30
0.0
 10
72.55852009332237
 20
-124.1071516356398
 30
0.0
 10
72.55852009332237
 20
-124.1071516356398
 30
0.0
 10
82.55310233833934
 20
-124.3471110800242
 30
0.0
 10
82.55310233833934
 20
-124.3471110800242
 30
0.0
 10
82.55310233833934
 20
-124.3471110800242
 30
0.0
 10
82.55310233833934
 20
-115.3798527489327
 30
0.0
 10
82.55310233833934
 20
-115.3798527489327
 30
0.0
 10
82.55310233833934
 20
-115.3798527489327
 30
0.0
 10
82.55310233833934
 20
-114.8141735824077
 30
0.0
 10
82.55310233833934
 20
-114.8141735824077
 30
0.0
 10
82.55310233833934
 20
-114.8141735824077
 30
0.0
 10
82.55310233833934
 20
-106.0970699734756
 30
0.0
 10
82.55310233833934
 20
-106.0970699734756
 30
0.0
 10
82.55310233833934
 20
-106.0970699734756
 30
0.0
 10
83.55287453505525
 20
-106.0970699734756
 30
0.0
 10
83.55287453505525
 20
-106.0970699734756
 30
0.0
 10
83.55287453505525
 20
-106.0970699734756
 30
0.0
 10
83.55287453505525
 20
-125.3470596908856
 30
0.0
 10
83.55287453505525
 20
-125.3470596908856
 30
0.0
 10
83.55287453505525
 20
-125.3470596908856
 30
0.0
 10
73.55314173461413
 20
-125.1856285798146
 30
0.0
 10
73.55314173461413
 20
-125.1856285798146
 30
0.0
 10
73.55314173461413
 20
-125.1856285798146
 30
0.0
 10
73.55314173461413
 20
-134.0972538553649
 30
0.0
 10
73.55314173461413
 20
-134.0972538553649
 30
0.0
 10
73.55314173461413
 20
-139.0678221874555
 30
0.0
 10
77.58249885403889
 20
-143.0972146864479
 30
0.0
 10
82.55310233833934
 20
-143.0972146864479
 30
0.0
 10
82.55310233833934
 20
-143.0972146864479
 30
0.0
 10
91.53274294258296
 20
-143.0972146864479
 30
0.0
 10
91.53274294258296
 20
-143.0972146864479
 30
0.0
 10
91.53274294258296
 20
-143.0972146864479
 30
0.0
 10
91.28572794888484
 20
-133.0971288556146
 30
0.0
 10
91.28572794888484
 20
-133.0971288556146
 30
0.0
 10
91.28572794888484
 20
-133.0971288556146
 30
0.0
 10
110.2861269085887
 20
-133.0971288556146
 30
0.0
 10
110.2861269085887
 20
-133.0971288556146
 30
0.0
 10
110.2861269085887
 20
-133.0971288556146
 30
0.0
 10
110.2861269085887
 20
-134.0969010775871
 30
0.0
 10
110.2861269085887
 20
-134.0969010775871
 30
0.0
 10
110.2861269085887
 20
-134.0969010775871
 30
0.0
 10
102.5687604388085
 20
-134.0969010775871
 30
0.0
 10
102.5687604388085
 20
-134.0969010775871
 30
0.0
 10
102.5687604388085
 20
-134.0969010775871
 30
0.0
 10
102.0030812865735
 20
-134.0969010775871
 30
0.0
 10
102.0030812865735
 20
-134.0969010775871
 30
0.0
  0
POLYLINE
  5
42
330
1F
100
AcDbEntity
  8
_U+30EC_U+30A4_U+30E4_U+30FC 1
 62
     7
420
 16777215
370
     9
100
AcDb2dPolyline
 66
     1
 10
0.0
 20
0.0
 30
0.0
  0
VERTEX
  5
43
330
42
100
AcDbEntity
  8
_U+30EC_U+30A4_U+30E4_U+30FC 1
 62
     7
420
 16777215
370
     9
100
AcDbVertex
100
AcDb2dVertex
 10
72.55301676012945
 20
-148.4966902406535
 30
0.0
  0
VERTEX
  5
44
330
42
100
AcDbEntity
  8
_U+30EC_U+30A4_U+30E4_U+30FC 1
 62
     7
420
 16777215
370
     9
100
AcDbVertex
100
AcDb2dVertex
 10
92.55318791654923
 20
-148.4966902406535
 30
0.0
  0
SEQEND
  5
45
330
42
100
AcDbEntity
  8
_U+30EC_U+30A4_U+30E4_U+30FC 1
 62
     7
420
 16777215
370
     9
  0
POLYLINE
  5
46
330
1F
100
AcDbEntity
  8
_U+30EC_U+30A4_U+30E4_U+30FC 1
 62
     7
420
 16777215
370
     9
100
AcDb2dPolyline
 66
     1
 10
0.0
 20
0.0
 30
0.0
  0
VERTEX
  5
47
330
46
100
AcDbEntity
  8
_U+30EC_U+30A4_U+30E4_U+30FC 1
 62
     7
420
 16777215
370
     9
100
AcDbVertex
100
AcDb2dVertex
 10
72.55301676012945
 20
-150.6464474623384
 30
0.0
  0
VERTEX
  5
48
330
46
100
AcDbEntity
  8
_U+30EC_U+30A4_U+30E4_U+30FC 1
 62
     7
420
 16777215
370
     9
100
AcDbVertex
100
AcDb2dVertex
 10
72.55301676012945
 20
-137.5971269100451
 30
0.0
  0
SEQEND
  5
49
330
46
100
AcDbEntity
  8
_U+30EC_U+30A4_U+30E4_U+30FC 1
 62
     7
420
 16777215
370
     9
  0
INSERT
  5
4B
330
1F
100
AcDbEntity
  8
_U+30EC_U+30A4_U+30E4_U+30FC 1
100
AcDbBlockReference
  2
block 2
 10
0.0
 20
0.0
 30
0.0
  0
POLYLINE
  5
53
330
1F
100
AcDbEntity
  8
_U+30EC_U+30A4_U+30E4_U+30FC 1
 62
     7
420
 16777215
370
     9
100
AcDb2dPolyline
 66
     1
 10
0.0
 20
0.0
 30
0.0
  0
VERTEX
  5
54
330
53
100
AcDbEntity
  8
_U+30EC_U+30A4_U+30E4_U+30FC 1
 62
     7
420
 16777215
370
     9
100
AcDbVertex
100
AcDb2dVertex
 10
82.55310233833934
 20
-150.4369680179462
 30
0.0
  0
VERTEX
  5
55
330
53
100
AcDbEntity
  8
_U+30EC_U+30A4_U+30E4_U+30FC 1
 62
     7
420
 16777215
370
     9
100
AcDbVertex
100
AcDb2dVertex
 10
82.55310233833934
 20
-147.4542319075808
 30
0.0
  0
SEQEND
  5
56
330
53
100
AcDbEntity
  8
_U+30EC_U+30A4_U+30E4_U+30FC 1
 62
     7
420
 16777215
370
     9
  0
POLYLINE
  5
57
330
1F
100
AcDbEntity
  8
_U+30EC_U+30A4_U+30E4_U+30FC 1
 62
     7
420
 16777215
370
     9
100
AcDb2dPolyline
 66
     1
 10
0.0
 20
0.0
 30
0.0
  0
VERTEX
  5
58
330
57
100
AcDbEntity
  8
_U+30EC_U+30A4_U+30E4_U+30FC 1
 62
     7
420
 16777215
370
     9
100
AcDbVertex
100
AcDb2dVertex
 10
92.55318791654923
 20
-150.4369680179462
 30
0.0
  0
VERTEX
  5
59
330
57
100
AcDbEntity
  8
_U+30EC_U+30A4_U+30E4_U+30FC 1
 62
     7
420
 16777215
370
     9
100
AcDbVertex
100
AcDb2dVertex
 10
92.55318791654923
 20
-147.4542319075808
 30
0.0
  0
SEQEND
  5
5A
330
57
100
AcDbEntity
  8
_U+30EC_U+30A4_U+30E4_U+30FC 1
 62
     7
420
 16777215
370
     9
  0
INSERT
  5
5C
330
1F
100
AcDbEntity
  8
_U+30EC_U+30A4_U+30E4_U+30FC 1
100
AcDbBlockReference
  2
block 3
 10
0.0
 20
0.0
 30
0.0
  0
INSERT
  5
65
330
1F
100
AcDbEntity
  8
_U+30EC_U+30A4_U+30E4_U+30FC 1
100
AcDbBlockReference
  2
block 4
 10
0.0
 20
0.0
 30
0.0
  0
INSERT
  5
7D
330
1F
100
AcDbEntity
  8
_U+30EC_U+30A4_U+30E4_U+30FC 1
100
AcDbBlockReference
  2
block 5
 10
0.0
 20
0.0
 30
0.0
  0
INSERT
  5
86
330
1F
100
AcDbEntity
  8
_U+30EC_U+30A4_U+30E4_U+30FC 1
100
AcDbBlockReference
  2
block 6
 10
0.0
 20
0.0
 30
0.0
  0
POLYLINE
  5
8F
330
1F
100
AcDbEntity
  8
_U+30EC_U+30A4_U+30E4_U+30FC 1
 62
     7
420
 16777215
370
     9
100
AcDb2dPolyline
 66
     1
 10
0.0
 20
0.0
 30
0.0
  0
VERTEX
  5
90
330
8F
100
AcDbEntity
  8
_U+30EC_U+30A4_U+30E4_U+30FC 1
 62
     7
420
 16777215
370
     9
100
AcDbVertex
100
AcDb2dVertex
 10
114.5029148565651
 20
-134.0844832998123
 30
0.0
  0
VERTEX
  5
91
330
8F
100
AcDbEntity
  8
_U+30EC_U+30A4_U+30E4_U+30FC 1
 62
     7
420
 16777215
370
     9
100
AcDbVertex
100
AcDb2dVertex
 10
114.5029148565651
 20
-133.0971288556146
 30
0.0
  0
SEQEND
  5
92
330
8F
100
AcDbEntity
  8
_U+30EC_U+30A4_U+30E4_U+30FC 1
 62
     7
420
 16777215
370
     9
  0
POLYLINE
  5
93
330
1F
100
AcDbEntity
  8
_U+30EC_U+30A4_U+30E4_U+30FC 1
 62
     7
420
 16777215
370
     9
100
AcDb2dPolyline
 66
     1
 10
0.0
 20
0.0
 30
0.0
  0
VERTEX
  5
94
330
93
100
AcDbEntity
  8
_U+30EC_U+30A4_U+30E4_U+30FC 1
 62
     7
420
 16777215
370
     9
100
AcDbVertex
100
AcDb2dVertex
 10
114.5022093010275
 20
-144.0883791306447
 30
0.0
  0
VERTEX
  5
95
330
93
100
AcDbEntity
  8
_U+30EC_U+30A4_U+30E4_U+30FC 1
 62
     7
420
 16777215
370
     9
100
AcDbVertex
100
AcDb2dVertex
 10
114.5022093010275
 20
-134.0844832998123
 30
0.0
  0
SEQEND
  5
96
330
93
100
AcDbEntity
  8
_U+30EC_U+30A4_U+30E4_U+30FC 1
 62
     7
420
 16777215
370
     9
  0
POLYLINE
  5
97
330
1F
100
AcDbEntity
  8
_U+30EC_U+30A4_U+30E4_U+30FC 1
 62
     7
420
 16777215
370
     9
100
AcDb2dPolyline
 66
     1
 10
0.0
 20
0.0
 30
0.0
  0
VERTEX
  5
98
330
97
100
AcDbEntity
  8
_U+30EC_U+30A4_U+30E4_U+30FC 1
 62
     7
420
 16777215
370
     9
100
AcDbVertex
100
AcDb2dVertex
 10
115.8547592665211
 20
-144.09730440842
 30
0.0
  0
VERTEX
  5
99
330
97
100
AcDbEntity
  8
_U+30EC_U+30A4_U+30E4_U+30FC 1
 62
     7
420
 16777215
370
     9
100
AcDbVertex
100
AcDb2dVertex
 10
93.43580261625408
 20
-144.09730440842
 30
0.0
  0
SEQEND
  5
9A
330
97
100
AcDbEntity
  8
_U+30EC_U+30A4_U+30E4_U+30FC 1
 62
     7
420
 16777215
370
     9
  0
POLYLINE
  5
9B
330
1F
100
AcDbEntity
  8
_U+30EC_U+30A4_U+30E4_U+30FC 1
 62
     7
420
 16777215
370
     9
100
AcDb2dPolyline
 66
     1
 10
0.0
 20
0.0
 30
0.0
  0
VERTEX
  5
9C
330
9B
100
AcDbEntity
  8
_U+30EC_U+30A4_U+30E4_U+30FC 1
 62
     7
420
 16777215
370
     9
100
AcDbVertex
100
AcDb2dVertex
 10
115.8547592665211
 20
-134.0972538553649
 30
0.0
  0
VERTEX
  5
9D
330
9B
100
AcDbEntity
  8
_U+30EC_U+30A4_U+30E4_U+30FC 1
 62
     7
420
 16777215
370
     9
100
AcDbVertex
100
AcDb2dVertex
 10
111.4360766014733
 20
-134.0972538553649
 30
0.0
  0
SEQEND
  5
9E
330
9B
100
AcDbEntity
  8
_U+30EC_U+30A4_U+30E4_U+30FC 1
 62
     7
420
 16777215
370
     9
  0
POLYLINE
  5
9F
330
1F
100
AcDbEntity
  8
_U+30EC_U+30A4_U+30E4_U+30FC 1
 62
     7
420
 16777215
370
     9
100
AcDb2dPolyline
 66
     1
 10
0.0
 20
0.0
 30
0.0
  0
VERTEX
  5
A0
330
9F
100
AcDbEntity
  8
_U+30EC_U+30A4_U+30E4_U+30FC 1
 62
     7
420
 16777215
370
     9
100
AcDbVertex
100
AcDb2dVertex
 10
115.8547592665211
 20
-133.0971288556146
 30
0.0
  0
VERTEX
  5
A1
330
9F
100
AcDbEntity
  8
_U+30EC_U+30A4_U+30E4_U+30FC 1
 62
     7
420
 16777215
370
     9
100
AcDbVertex
100
AcDb2dVertex
 10
111.4360766014733
 20
-133.0971288556146
 30
0.0
  0
SEQEND
  5
A2
330
9F
100
AcDbEntity
  8
_U+30EC_U+30A4_U+30E4_U+30FC 1
 62
     7
420
 16777215
370
     9
  0
INSERT
  5
A4
330
1F
100
AcDbEntity
  8
_U+30EC_U+30A4_U+30E4_U+30FC 1
100
AcDbBlockReference
  2
block 7
 10
0.0
 20
0.0
 30
0.0
  0
INSERT
  5
AD
330
1F
100
AcDbEntity
  8
_U+30EC_U+30A4_U+30E4_U+30FC 1
100
AcDbBlockReference
  2
block 8
 10
0.0
 20
0.0
 30
0.0
  0
SPLINE
  5
B2
330
1F
100
AcDbEntity
  8
_U+30EC_U+30A4_U+30E4_U+30FC 1
 62
     7
420
 16777215
370
     9
100
AcDbSpline
210
0.0
220
0.0
230
1.0
 70
    11
 71
     3
 72
    17
 73
    13
 74
     0
 42
0.0000000001
 43
0.0000000001
 12
1.0
 22
0.0
 32
0.0
 13
1.0
 23
0.0
 33
0.0
 40
0.0
 40
0.0
 40
0.0
 40
0.0
 40
1.0
 40
1.0
 40
1.0
 40
2.0
 40
2.0
 40
2.0
 40
3.0
 40
3.0
 40
3.0
 40
4.0
 40
4.0
 40
4.0
 40
4.0
 10
114.6041973539811
 20
-144.0966341306427
 30
0.0
 10
114.6041973539811
 20
-144.0414949639896
 30
0.0
 10
114.5594298551232
 20
-143.996727464001
 30
0.0
 10
114.5042906898633
 20
-143.996727464001
 30
0.0
 10
114.4491868023802
 20
-143.996727464001
 30
0.0
 10
114.4043840257454
 20
-144.0414949639896
 30
0.0
 10
114.4043840257454
 20
-144.0966341306427
 30
0.0
 10
114.4043840257454
 20
-144.1517380195176
 30
0.0
 10
114.4491868023802
 20
-144.1965407972843
 30
0.0
 10
114.5042906898633
 20
-144.1965407972843
 30
0.0
 10
114.5594298551232
 20
-144.1965407972843
 30
0.0
 10
114.6041973539811
 20
-144.1517380195176
 30
0.0
 10
114.6041973539811
 20
-144.0966341306427
 30
0.0
  0
SPLINE
  5
B3
330
1F
100
AcDbEntity
  8
_U+30EC_U+30A4_U+30E4_U+30FC 1
 62
     7
420
 16777215
370
     9
100
AcDbSpline
210
0.0
220
0.0
230
1.0
 70
    11
 71
     3
 72
    17
 73
    13
 74
     0
 42
0.0000000001
 43
0.0000000001
 12
1.0
 22
0.0
 32
0.0
 13
1.0
 23
0.0
 33
0.0
 40
0.0
 40
0.0
 40
0.0
 40
0.0
 40
1.0
 40
1.0
 40
1.0
 40
2.0
 40
2.0
 40
2.0
 40
3.0
 40
3.0
 40
3.0
 40
4.0
 40
4.0
 40
4.0
 40
4.0
 10
114.6041973539811
 20
-134.0972538553649
 30
0.0
 10
114.6041973539811
 20
-134.0424674664895
 30
0.0
 10
114.5594298551232
 20
-133.9973471887226
 30
0.0
 10
114.5042906898633
 20
-133.9973471887226
 30
0.0
 10
114.4491868023802
 20
-133.9973471887226
 30
0.0
 10
114.4043840257454
 20
-134.0424674664895
 30
0.0
 10
114.4043840257454
 20
-134.0972538553649
 30
0.0
 10
114.4043840257454
 20
-134.152004966462
 30
0.0
 10
114.4491868023802
 20
-134.1971605220065
 30
0.0
 10
114.5042906898633
 20
-134.1971605220065
 30
0.0
 10
114.5594298551232
 20
-134.1971605220065
 30
0.0
 10
114.6041973539811
 20
-134.152004966462
 30
0.0
 10
114.6041973539811
 20
-134.0972538553649
 30
0.0
  0
SPLINE
  5
B4
330
1F
100
AcDbEntity
  8
_U+30EC_U+30A4_U+30E4_U+30FC 1
 62
     7
420
 16777215
370
     9
100
AcDbSpline
210
0.0
220
0.0
230
1.0
 70
    11
 71
     3
 72
    17
 73
    13
 74
     0
 42
0.0000000001
 43
0.0000000001
 12
1.0
 22
0.0
 32
0.0
 13
1.0
 23
0.0
 33
0.0
 40
0.0
 40
0.0
 40
0.0
 40
0.0
 40
1.0
 40
1.0
 40
1.0
 40
2.0
 40
2.0
 40
2.0
 40
3.0
 40
3.0
 40
3.0
 40
4.0
 40
4.0
 40
4.0
 40
4.0
 10
114.6041973539811
 20
-133.0971288556146
 30
0.0
 10
114.6041973539811
 20
-133.0416721889619
 30
0.0
 10
114.5594298551232
 20
-132.9968694111951
 30
0.0
 10
114.5042906898633
 20
-132.9968694111951
 30
0.0
 10
114.4491868023802
 20
-132.9968694111951
 30
0.0
 10
114.4043840257454
 20
-133.0416721889619
 30
0.0
 10
114.4043840257454
 20
-133.0971288556146
 30
0.0
 10
114.4043840257454
 20
-133.1522680222676
 30
0.0
 10
114.4491868023802
 20
-133.1970355222562
 30
0.0
 10
114.5042906898633
 20
-133.1970355222562
 30
0.0
 10
114.5594298551232
 20
-133.1970355222562
 30
0.0
 10
114.6041973539811
 20
-133.1522680222676
 30
0.0
 10
114.6041973539811
 20
-133.0971288556146
 30
0.0
  0
INSERT
  5
B6
330
1F
100
AcDbEntity
  8
_U+30EC_U+30A4_U+30E4_U+30FC 1
100
AcDbBlockReference
  2
block 9
 10
0.0
 20
0.0
 30
0.0
  0
INSERT
  5
C6
330
1F
100
AcDbEntity
  8
_U+30EC_U+30A4_U+30E4_U+30FC 1
100
AcDbBlockReference
  2
block 10
 10
0.0
 20
0.0
 30
0.0
  0
SPLINE
  5
D1
330
1F
100
AcDbEntity
  8
_U+30EC_U+30A4_U+30E4_U+30FC 1
 62
     7
420
 16777215
370
     9
100
AcDbSpline
210
0.0
220
0.0
230
1.0
 70
    11
 71
     3
 72
    17
 73
    13
 74
     0
 42
0.0000000001
 43
0.0000000001
 12
1.0
 22
0.0
 32
0.0
 13
1.0
 23
0.0
 33
0.0
 40
0.0
 40
0.0
 40
0.0
 40
0.0
 40
1.0
 40
1.0
 40
1.0
 40
2.0
 40
2.0
 40
2.0
 40
3.0
 40
3.0
 40
3.0
 40
4.0
 40
4.0
 40
4.0
 40
4.0
 10
68.6321740823807
 20
-106.0970699734756
 30
0.0
 10
68.6321740823807
 20
-106.1523502512398
 30
0.0
 10
68.58737130574593
 20
-106.1971530290061
 30
0.0
 10
68.53223214048599
 20
-106.1971530290061
 30
0.0
 10
68.47712825300292
 20
-106.1971530290061
 30
0.0
 10
68.43232547636815
 20
-106.1523502512398
 30
0.0
 10
68.43232547636815
 20
-106.0970699734756
 30
0.0
 10
68.43232547636815
 20
-106.0419308068229
 30
0.0
 10
68.47712825300292
 20
-105.997163306834
 30
0.0
 10
68.53223214048599
 20
-105.997163306834
 30
0.0
 10
68.58737130574593
 20
-105.997163306834
 30
0.0
 10
68.6321740823807
 20
-106.0419308068229
 30
0.0
 10
68.6321740823807
 20
-106.0970699734756
 30
0.0
  0
HATCH
  5
D2
330
1F
100
AcDbEntity
  8
_U+30EC_U+30A4_U+30E4_U+30FC 1
 62
     7
420
 16777215
100
AcDbHatch
 10
0.0
 20
0.0
 30
0.0
210
0.0
220
0.0
230
1.0
  2
SOLID
 70
     1
 71
     0
 91
        1
 92
        1
 93
        1
 72
     4
 94
        3
 73
     0
 74
     1
 95
       17
 96
       13
 40
0.0
 40
0.0
 40
0.0
 40
0.0
 40
1.0
 40
1.0
 40
1.0
 40
2.0
 40
2.0
 40
2.0
 40
3.0
 40
3.0
 40
3.0
 40
4.0
 40
4.0
 40
4.0
 40
4.0
 10
68.6321740823807
 20
-106.0970699734756
 10
68.6321740823807
 20
-106.1523502512398
 10
68.58737130574593
 20
-106.1971530290061
 10
68.53223214048599
 20
-106.1971530290061
 10
68.47712825300292
 20
-106.1971530290061
 10
68.43232547636815
 20
-106.1523502512398
 10
68.43232547636815
 20
-106.0970699734756
 10
68.43232547636815
 20
-106.0419308068229
 10
68.47712825300292
 20
-105.997163306834
 10
68.53223214048599
 20
-105.997163306834
 10
68.58737130574593
 20
-105.997163306834
 10
68.6321740823807
 20
-106.0419308068229
 10
68.6321740823807
 20
-106.0970699734756
 97
        0
 97
        0
 75
     2
 76
     1
 98
        0
  0
SPLINE
  5
D3
330
1F
100
AcDbEntity
  8
_U+30EC_U+30A4_U+30E4_U+30FC 1
 62
     7
420
 16777215
370
     9
100
AcDbSpline
210
0.0
220
0.0
230
1.0
 70
    11
 71
     3
 72
    17
 73
    13
 74
     0
 42
0.0000000001
 43
0.0000000001
 12
1.0
 22
0.0
 32
0.0
 13
1.0
 23
0.0
 33
0.0
 40
0.0
 40
0.0
 40
0.0
 40
0.0
 40
1.0
 40
1.0
 40
1.0
 40
2.0
 40
2.0
 40
2.0
 40
3.0
 40
3.0
 40
3.0
 40
4.0
 40
4.0
 40
4.0
 40
4.0
 10
68.6321740823807
 20
-124.0971680245312
 30
0.0
 10
68.6321740823807
 20
-124.1524483022953
 30
0.0
 10
68.58737130574593
 20
-124.1972510800617
 30
0.0
 10
68.53223214048599
 20
-124.1972510800617
 30
0.0
 10
68.47712825300292
 20
-124.1972510800617
 30
0.0
 10
68.43232547636815
 20
-124.1524483022953
 30
0.0
 10
68.43232547636815
 20
-124.0971680245312
 30
0.0
 10
68.43232547636815
 20
-124.0420288578784
 30
0.0
 10
68.47712825300292
 20
-123.9972613578896
 30
0.0
 10
68.53223214048599
 20
-123.9972613578896
 30
0.0
 10
68.58737130574593
 20
-123.9972613578896
 30
0.0
 10
68.6321740823807
 20
-124.0420288578784
 30
0.0
 10
68.6321740823807
 20
-124.0971680245312
 30
0.0
  0
HATCH
  5
D4
330
1F
100
AcDbEntity
  8
_U+30EC_U+30A4_U+30E4_U+30FC 1
 62
     7
420
 16777215
100
AcDbHatch
 10
0.0
 20
0.0
 30
0.0
210
0.0
220
0.0
230
1.0
  2
SOLID
 70
     1
 71
     0
 91
        1
 92
        1
 93
        1
 72
     4
 94
        3
 73
     0
 74
     1
 95
       17
 96
       13
 40
0.0
 40
0.0
 40
0.0
 40
0.0
 40
1.0
 40
1.0
 40
1.0
 40
2.0
 40
2.0
 40
2.0
 40
3.0
 40
3.0
 40
3.0
 40
4.0
 40
4.0
 40
4.0
 40
4.0
 10
68.6321740823807
 20
-124.0971680245312
 10
68.6321740823807
 20
-124.1524483022953
 10
68.58737130574593
 20
-124.1972510800617
 10
68.53223214048599
 20
-124.1972510800617
 10
68.47712825300292
 20
-124.1972510800617
 10
68.43232547636815
 20
-124.1524483022953
 10
68.43232547636815
 20
-124.0971680245312
 10
68.43232547636815
 20
-124.0420288578784
 10
68.47712825300292
 20
-123.9972613578896
 10
68.53223214048599
 20
-123.9972613578896
 10
68.58737130574593
 20
-123.9972613578896
 10
68.6321740823807
 20
-124.0420288578784
 10
68.6321740823807
 20
-124.0971680245312
 97
        0
 97
        0
 75
     2
 76
     1
 98
        0
  0
SPLINE
  5
D5
330
1F
100
AcDbEntity
  8
_U+30EC_U+30A4_U+30E4_U+30FC 1
 62
     7
420
 16777215
370
     9
100
AcDbSpline
210
0.0
220
0.0
230
1.0
 70
    11
 71
     3
 72
    17
 73
    13
 74
     0
 42
0.0000000001
 43
0.0000000001
 12
1.0
 22
0.0
 32
0.0
 13
1.0
 23
0.0
 33
0.0
 40
0.0
 40
0.0
 40
0.0
 40
0.0
 40
1.0
 40
1.0
 40
1.0
 40
2.0
 40
2.0
 40
2.0
 40
3.0
 40
3.0
 40
3.0
 40
4.0
 40
4.0
 40
4.0
 40
4.0
 10
68.6321740823807
 20
-144.09730440842
 30
0.0
 10
68.6321740823807
 20
-144.1524435750731
 30
0.0
 10
68.58737130574593
 20
-144.1972110750617
 30
0.0
 10
68.53223214048599
 20
-144.1972110750617
 30
0.0
 10
68.47712825300292
 20
-144.1972110750617
 30
0.0
 10
68.43232547636815
 20
-144.1524435750731
 30
0.0
 10
68.43232547636815
 20
-144.09730440842
 30
0.0
 10
68.43232547636815
 20
-144.0422005195451
 30
0.0
 10
68.47712825300292
 20
-143.9973977417784
 30
0.0
 10
68.53223214048599
 20
-143.9973977417784
 30
0.0
 10
68.58737130574593
 20
-143.9973977417784
 30
0.0
 10
68.6321740823807
 20
-144.0422005195451
 30
0.0
 10
68.6321740823807
 20
-144.09730440842
 30
0.0
  0
HATCH
  5
D6
330
1F
100
AcDbEntity
  8
_U+30EC_U+30A4_U+30E4_U+30FC 1
 62
     7
420
 16777215
100
AcDbHatch
 10
0.0
 20
0.0
 30
0.0
210
0.0
220
0.0
230
1.0
  2
SOLID
 70
     1
 71
     0
 91
        1
 92
        1
 93
        1
 72
     4
 94
        3
 73
     0
 74
     1
 95
       17
 96
       13
 40
0.0
 40
0.0
 40
0.0
 40
0.0
 40
1.0
 40
1.0
 40
1.0
 40
2.0
 40
2.0
 40
2.0
 40
3.0
 40
3.0
 40
3.0
 40
4.0
 40
4.0
 40
4.0
 40
4.0
 10
68.6321740823807
 20
-144.09730440842
 10
68.6321740823807
 20
-144.1524435750731
 10
68.58737130574593
 20
-144.1972110750617
 10
68.53223214048599
 20
-144.1972110750617
 10
68.47712825300292
 20
-144.1972110750617
 10
68.43232547636815
 20
-144.1524435750731
 10
68.43232547636815
 20
-144.09730440842
 10
68.43232547636815
 20
-144.0422005195451
 10
68.47712825300292
 20
-143.9973977417784
 10
68.53223214048599
 20
-143.9973977417784
 10
68.58737130574593
 20
-143.9973977417784
 10
68.6321740823807
 20
-144.0422005195451
 10
68.6321740823807
 20
-144.09730440842
 97
        0
 97
        0
 75
     2
 76
     1
 98
        0
  0
SPLINE
  5
D7
330
1F
100
AcDbEntity
  8
_U+30EC_U+30A4_U+30E4_U+30FC 1
 62
     7
420
 16777215
370
     9
100
AcDbSpline
210
0.0
220
0.0
230
1.0
 70
    11
 71
     3
 72
    17
 73
    13
 74
     0
 42
0.0000000001
 43
0.0000000001
 12
1.0
 22
0.0
 32
0.0
 13
1.0
 23
0.0
 33
0.0
 40
0.0
 40
0.0
 40
0.0
 40
0.0
 40
1.0
 40
1.0
 40
1.0
 40
2.0
 40
2.0
 40
2.0
 40
3.0
 40
3.0
 40
3.0
 40
4.0
 40
4.0
 40
4.0
 40
4.0
 10
92.63415275461894
 20
-148.4963727406539
 30
0.0
 10
92.63415275461894
 20
-148.5518294073065
 30
0.0
 10
92.58934997685286
 20
-148.5966321850733
 30
0.0
 10
92.53424375036587
 20
-148.5966321850733
 30
0.0
 10
92.47875180733715
 20
-148.5966321850733
 30
0.0
 10
92.43398430847927
 20
-148.5518294073065
 30
0.0
 10
92.43398430847927
 20
-148.4963727406539
 30
0.0
 10
92.43398430847927
 20
-148.4412335740008
 30
0.0
 10
92.47875180733715
 20
-148.3964660740122
 30
0.0
 10
92.53424375036587
 20
-148.3964660740122
 30
0.0
 10
92.58934997685286
 20
-148.3964660740122
 30
0.0
 10
92.63415275461894
 20
-148.4412335740008
 30
0.0
 10
92.63415275461894
 20
-148.4963727406539
 30
0.0
  0
HATCH
  5
D8
330
1F
100
AcDbEntity
  8
_U+30EC_U+30A4_U+30E4_U+30FC 1
 62
     7
420
 16777215
100
AcDbHatch
 10
0.0
 20
0.0
 30
0.0
210
0.0
220
0.0
230
1.0
  2
SOLID
 70
     1
 71
     0
 91
        1
 92
        1
 93
        1
 72
     4
 94
        3
 73
     0
 74
     1
 95
       17
 96
       13
 40
0.0
 40
0.0
 40
0.0
 40
0.0
 40
1.0
 40
1.0
 40
1.0
 40
2.0
 40
2.0
 40
2.0
 40
3.0
 40
3.0
 40
3.0
 40
4.0
 40
4.0
 40
4.0
 40
4.0
 10
92.63415275461894
 20
-148.4963727406539
 10
92.63415275461894
 20
-148.5518294073065
 10
92.58934997685286
 20
-148.5966321850733
 10
92.53424375036587
 20
-148.5966321850733
 10
92.47875180733715
 20
-148.5966321850733
 10
92.43398430847927
 20
-148.5518294073065
 10
92.43398430847927
 20
-148.4963727406539
 10
92.43398430847927
 20
-148.4412335740008
 10
92.47875180733715
 20
-148.3964660740122
 10
92.53424375036587
 20
-148.3964660740122
 10
92.58934997685286
 20
-148.3964660740122
 10
92.63415275461894
 20
-148.4412335740008
 10
92.63415275461894
 20
-148.4963727406539
 97
        0
 97
        0
 75
     2
 76
     1
 98
        0
  0
SPLINE
  5
D9
330
1F
100
AcDbEntity
  8
_U+30EC_U+30A4_U+30E4_U+30FC 1
 62
     7
420
 16777215
370
     9
100
AcDbSpline
210
0.0
220
0.0
230
1.0
 70
    11
 71
     3
 72
    17
 73
    13
 74
     0
 42
0.0000000001
 43
0.0000000001
 12
1.0
 22
0.0
 32
0.0
 13
1.0
 23
0.0
 33
0.0
 40
0.0
 40
0.0
 40
0.0
 40
0.0
 40
1.0
 40
1.0
 40
1.0
 40
2.0
 40
2.0
 40
2.0
 40
3.0
 40
3.0
 40
3.0
 40
4.0
 40
4.0
 40
4.0
 40
4.0
 10
82.65988816894834
 20
-148.4963727406539
 30
0.0
 10
82.65988816894834
 20
-148.5518294073065
 30
0.0
 10
82.61512067009046
 20
-148.5966321850733
 30
0.0
 10
82.5599815048305
 20
-148.5966321850733
 30
0.0
 10
82.50487761734743
 20
-148.5966321850733
 30
0.0
 10
82.46007484071268
 20
-148.5518294073065
 30
0.0
 10
82.46007484071268
 20
-148.4963727406539
 30
0.0
 10
82.46007484071268
 20
-148.4412335740008
 30
0.0
 10
82.50487761734743
 20
-148.3964660740122
 30
0.0
 10
82.5599815048305
 20
-148.3964660740122
 30
0.0
 10
82.61512067009046
 20
-148.3964660740122
 30
0.0
 10
82.65988816894834
 20
-148.4412335740008
 30
0.0
 10
82.65988816894834
 20
-148.4963727406539
 30
0.0
  0
HATCH
  5
DA
330
1F
100
AcDbEntity
  8
_U+30EC_U+30A4_U+30E4_U+30FC 1
 62
     7
420
 16777215
100
AcDbHatch
 10
0.0
 20
0.0
 30
0.0
210
0.0
220
0.0
230
1.0
  2
SOLID
 70
     1
 71
     0
 91
        1
 92
        1
 93
        1
 72
     4
 94
        3
 73
     0
 74
     1
 95
       17
 96
       13
 40
0.0
 40
0.0
 40
0.0
 40
0.0
 40
1.0
 40
1.0
 40
1.0
 40
2.0
 40
2.0
 40
2.0
 40
3.0
 40
3.0
 40
3.0
 40
4.0
 40
4.0
 40
4.0
 40
4.0
 10
82.65988816894834
 20
-148.4963727406539
 10
82.65988816894834
 20
-148.5518294073065
 10
82.61512067009046
 20
-148.5966321850733
 10
82.5599815048305
 20
-148.5966321850733
 10
82.50487761734743
 20
-148.5966321850733
 10
82.46007484071268
 20
-148.5518294073065
 10
82.46007484071268
 20
-148.4963727406539
 10
82.46007484071268
 20
-148.4412335740008
 10
82.50487761734743
 20
-148.3964660740122
 10
82.5599815048305
 20
-148.3964660740122
 10
82.61512067009046
 20
-148.3964660740122
 10
82.65988816894834
 20
-148.4412335740008
 10
82.65988816894834
 20
-148.4963727406539
 97
        0
 97
        0
 75
     2
 76
     1
 98
        0
  0
SPLINE
  5
DB
330
1F
100
AcDbEntity
  8
_U+30EC_U+30A4_U+30E4_U+30FC 1
 62
     7
420
 16777215
370
     9
100
AcDbSpline
210
0.0
220
0.0
230
1.0
 70
    11
 71
     3
 72
    17
 73
    13
 74
     0
 42
0.0000000001
 43
0.0000000001
 12
1.0
 22
0.0
 32
0.0
 13
1.0
 23
0.0
 33
0.0
 40
0.0
 40
0.0
 40
0.0
 40
0.0
 40
1.0
 40
1.0
 40
1.0
 40
2.0
 40
2.0
 40
2.0
 40
3.0
 40
3.0
 40
3.0
 40
4.0
 40
4.0
 40
4.0
 40
4.0
 10
72.65292342424728
 20
-148.4963727406539
 30
0.0
 10
72.65292342424728
 20
-148.5518294073065
 30
0.0
 10
72.6081559253894
 20
-148.5966321850733
 30
0.0
 10
72.55301676012945
 20
-148.5966321850733
 30
0.0
 10
72.4975600948776
 20
-148.5966321850733
 30
0.0
 10
72.45275731824283
 20
-148.5518294073065
 30
0.0
 10
72.45275731824283
 20
-148.4963727406539
 30
0.0
 10
72.45275731824283
 20
-148.4412335740008
 30
0.0
 10
72.4975600948776
 20
-148.3964660740122
 30
0.0
 10
72.55301676012945
 20
-148.3964660740122
 30
0.0
 10
72.6081559253894
 20
-148.3964660740122
 30
0.0
 10
72.65292342424728
 20
-148.4412335740008
 30
0.0
 10
72.65292342424728
 20
-148.4963727406539
 30
0.0
  0
HATCH
  5
DC
330
1F
100
AcDbEntity
  8
_U+30EC_U+30A4_U+30E4_U+30FC 1
 62
     7
420
 16777215
100
AcDbHatch
 10
0.0
 20
0.0
 30
0.0
210
0.0
220
0.0
230
1.0
  2
SOLID
 70
     1
 71
     0
 91
        1
 92
        1
 93
        1
 72
     4
 94
        3
 73
     0
 74
     1
 95
       17
 96
       13
 40
0.0
 40
0.0
 40
0.0
 40
0.0
 40
1.0
 40
1.0
 40
1.0
 40
2.0
 40
2.0
 40
2.0
 40
3.0
 40
3.0
 40
3.0
 40
4.0
 40
4.0
 40
4.0
 40
4.0
 10
72.65292342424728
 20
-148.4963727406539
 10
72.65292342424728
 20
-148.5518294073065
 10
72.6081559253894
 20
-148.5966321850733
 10
72.55301676012945
 20
-148.5966321850733
 10
72.4975600948776
 20
-148.5966321850733
 10
72.45275731824283
 20
-148.5518294073065
 10
72.45275731824283
 20
-148.4963727406539
 10
72.45275731824283
 20
-148.4412335740008
 10
72.4975600948776
 20
-148.3964660740122
 10
72.55301676012945
 20
-148.3964660740122
 10
72.6081559253894
 20
-148.3964660740122
 10
72.65292342424728
 20
-148.4412335740008
 10
72.65292342424728
 20
-148.4963727406539
 97
        0
 97
        0
 75
     2
 76
     1
 98
        0
  0
ENDSEC
  0
SECTION
  2
OBJECTS
  0
DICTIONARY
  5
C
330
0
100
AcDbDictionary
281
     1
  3
ACAD_GROUP
350
D
  3
ACAD_LAYOUT
350
1A
  3
ACAD_MATERIAL
350
3B
  3
ACAD_MLEADERSTYLE
350
DE
  3
ACAD_MLINESTYLE
350
17
  3
ACAD_PLOTSETTINGS
350
19
  3
ACAD_PLOTSTYLENAME
350
E
  3
ACAD_TABLESTYLE
350
DD
  3
ACAD_VISUALSTYLE
350
2A
  0
SUN
  5
3F
330
29
100
AcDbSun
 90
        1
290
     0
 63
     7
421
 16777215
 40
1.0
291
     1
 91
  2455826
 92
 54000000
292
     0
 70
     2
 71
   256
280
     1
  0
DICTIONARY
  5
D
102
{ACAD_REACTORS
330
C
102
}
330
C
100
AcDbDictionary
281
     1
  0
DICTIONARY
  5
1A
102
{ACAD_REACTORS
330
C
102
}
330
C
100
AcDbDictionary
281
     1
  3
Layout1
350
1E
  3
Layout2
350
26
  3
Model
350
22
  0
DICTIONARY
  5
3B
102
{ACAD_REACTORS
330
C
102
}
330
C
100
AcDbDictionary
281
     1
  3
ByBlock
350
3D
  3
ByLayer
350
3C
  3
Global
350
3E
  0
DICTIONARY
  5
DE
102
{ACAD_REACTORS
330
C
102
}
330
C
100
AcDbDictionary
281
     1
  0
DICTIONARY
  5
17
102
{ACAD_REACTORS
330
C
102
}
330
C
100
AcDbDictionary
281
     1
  3
Standard
350
18
  0
DICTIONARY
  5
19
102
{ACAD_REACTORS
330
C
102
}
330
C
100
AcDbDictionary
281
     1
  0
ACDBDICTIONARYWDFLT
  5
E
102
{ACAD_REACTORS
330
C
102
}
330
C
100
AcDbDictionary
281
     1
  3
Normal
350
F
100
AcDbDictionaryWithDefault
340
F
  0
DICTIONARY
  5
DD
102
{ACAD_REACTORS
330
C
102
}
330
C
100
AcDbDictionary
281
     1
  0
DICTIONARY
  5
2A
102
{ACAD_REACTORS
330
C
102
}
330
C
100
AcDbDictionary
281
     1
  3
2dWireframe
350
2F
  3
3D Hidden
350
31
  3
3dWireframe
350
30
  3
Basic
350
32
  3
Brighten
350
36
  3
ColorChange
350
3A
  3
Conceptual
350
34
  3
Dim
350
35
  3
Facepattern
350
39
  3
Flat
350
2B
  3
FlatWithEdges
350
2C
  3
Gouraud
350
2D
  3
GouraudWithEdges
350
2E
  3
Linepattern
350
38
  3
Realistic
350
33
  3
Thicken
350
37
  0
LAYOUT
  5
1E
102
{ACAD_REACTORS
330
1A
102
}
330
1A
100
AcDbPlotSettings
  1

  2
none_device
  4

  6

 40
0.0
 41
0.0
 42
0.0
 43
0.0
 44
0.0
 45
0.0
 46
0.0
 47
0.0
 48
0.0
 49
0.0
140
0.0
141
0.0
142
1.0
143
1.0
 70
   688
 72
     0
 73
     0
 74
     5
  7

 75
    16
 76
     0
 77
     2
 78
   300
147
1.0
148
0.0
149
0.0
100
AcDbLayout
  1
Layout1
 70
     1
 71
     1
 10
0.0
 20
0.0
 11
12.0
 21
9.0
 12
0.0
 22
0.0
 32
0.0
 14
1.000000000000000E+20
 24
1.000000000000000E+20
 34
1.000000000000000E+20
 15
-1.000000000000000E+20
 25
-1.000000000000000E+20
 35
-1.000000000000000E+20
146
0.0
 13
0.0
 23
0.0
 33
0.0
 16
1.0
 26
0.0
 36
0.0
 17
0.0
 27
1.0
 37
0.0
 76
     0
330
1B
  0
LAYOUT
  5
26
102
{ACAD_REACTORS
330
1A
102
}
330
1A
100
AcDbPlotSettings
  1

  2
none_device
  4

  6

 40
0.0
 41
0.0
 42
0.0
 43
0.0
 44
0.0
 45
0.0
 46
0.0
 47
0.0
 48
0.0
 49
0.0
140
0.0
141
0.0
142
1.0
143
1.0
 70
   688
 72
     0
 73
     0
 74
     5
  7

 75
    16
 76
     0
 77
     2
 78
   300
147
1.0
148
0.0
149
0.0
100
AcDbLayout
  1
Layout2
 70
     1
 71
     2
 10
0.0
 20
0.0
 11
0.0
 21
0.0
 12
0.0
 22
0.0
 32
0.0
 14
0.0
 24
0.0
 34
0.0
 15
0.0
 25
0.0
 35
0.0
146
0.0
 13
0.0
 23
0.0
 33
0.0
 16
1.0
 26
0.0
 36
0.0
 17
0.0
 27
1.0
 37
0.0
 76
     0
330
23
  0
LAYOUT
  5
22
102
{ACAD_REACTORS
330
1A
102
}
330
1A
100
AcDbPlotSettings
  1

  2
none_device
  4

  6

 40
0.0
 41
0.0
 42
0.0
 43
0.0
 44
0.0
 45
0.0
 46
0.0
 47
0.0
 48
0.0
 49
0.0
140
0.0
141
0.0
142
1.0
143
1.0
 70
  1712
 72
     0
 73
     0
 74
     0
  7

 75
     0
 76
     0
 77
     2
 78
   300
147
1.0
148
0.0
149
0.0
100
AcDbLayout
  1
Model
 70
     1
 71
     0
 10
0.0
 20
0.0
 11
12.0
 21
9.0
 12
0.0
 22
0.0
 32
0.0
 14
1.000000000000000E+20
 24
1.000000000000000E+20
 34
1.000000000000000E+20
 15
-1.000000000000000E+20
 25
-1.000000000000000E+20
 35
-1.000000000000000E+20
146
0.0
 13
0.0
 23
0.0
 33
0.0
 16
1.0
 26
0.0
 36
0.0
 17
0.0
 27
1.0
 37
0.0
 76
     0
330
1F
331
29
  0
MATERIAL
  5
3D
102
{ACAD_REACTORS
330
3B
102
}
330
3B
100
AcDbMaterial
  1
ByBlock
 72
     1
 94
      127
  0
MATERIAL
  5
3C
102
{ACAD_REACTORS
330
3B
102
}
330
3B
100
AcDbMaterial
  1
ByLayer
 72
     1
 94
      127
  0
MATERIAL
  5
3E
102
{ACAD_REACTORS
330
3B
102
}
330
3B
100
AcDbMaterial
  1
Global
 72
     1
 94
      127
  0
MLINESTYLE
  5
18
102
{ACAD_REACTORS
330
17
102
}
330
17
100
AcDbMlineStyle
  2
Standard
 70
     0
  3

 62
   256
 51
90.0
 52
90.0
 71
     2
 49
0.5
 62
   256
  6
BYLAYER
 49
-0.5
 62
   256
  6
BYLAYER
  0
ACDBPLACEHOLDER
  5
F
102
{ACAD_REACTORS
330
E
102
}
330
E
  0
VISUALSTYLE
  5
2F
102
{ACAD_REACTORS
330
2A
102
}
330
2A
100
AcDbVisualStyle
  2
2dWireframe
 70
     4
177
     2
291
     0
 71
     0
176
     1
 72
     2
176
     1
 73
     0
176
     1
 90
        0
176
     1
 40
-0.6
176
     1
 41
-30.0
176
     1
 62
     5
 63
     7
421
 16777215
176
     1
 74
     1
176
     1
 91
        4
176
     1
 64
     7
176
     1
 65
   257
176
     1
 75
     1
176
     1
175
     1
176
     1
 42
1.0
176
     1
 92
        0
176
     1
 66
   257
176
     1
 43
1.0
176
     1
 76
     1
176
     1
 77
     6
176
     1
 78
     2
176
     1
 67
     7
176
     1
 79
     5
176
     1
170
     0
176
     1
171
     0
176
     1
290
     0
176
     1
 93
        1
176
     1
 44
0.0
176
     1
173
     0
176
     1
  0
VISUALSTYLE
  5
31
102
{ACAD_REACTORS
330
2A
102
}
330
2A
100
AcDbVisualStyle
  2
3D Hidden
 70
     6
177
     2
291
     0
 71
     1
176
     1
 72
     2
176
     1
 73
     2
176
     1
 90
        0
176
     1
 40
-0.6
176
     1
 41
-30.0
176
     1
 62
     5
 63
     7
421
 16777215
176
     1
 74
     2
176
     1
 91
        2
176
     1
 64
     7
176
     1
 65
   257
176
     1
 75
     2
176
     1
175
     1
176
     1
 42
40.0
176
     1
 92
        0
176
     1
 66
   257
176
     1
 43
1.0
176
     1
 76
     1
176
     1
 77
     6
176
     1
 78
     2
176
     1
 67
     7
176
     1
 79
     3
176
     1
170
     0
176
     1
171
     0
176
     1
290
     0
176
     1
 93
        1
176
     1
 44
0.0
176
     1
173
     0
176
     1
  0
VISUALSTYLE
  5
30
102
{ACAD_REACTORS
330
2A
102
}
330
2A
100
AcDbVisualStyle
  2
3dWireframe
 70
     5
177
     2
291
     0
 71
     0
176
     1
 72
     2
176
     1
 73
     0
176
     1
 90
        0
176
     1
 40
-0.6
176
     1
 41
-30.0
176
     1
 62
     5
 63
     7
421
 16777215
176
     1
 74
     1
176
     1
 91
        4
176
     1
 64
     7
176
     1
 65
   257
176
     1
 75
     1
176
     1
175
     1
176
     1
 42
1.0
176
     1
 92
        0
176
     1
 66
   257
176
     1
 43
1.0
176
     1
 76
     1
176
     1
 77
     6
176
     1
 78
     2
176
     1
 67
     7
176
     1
 79
     5
176
     1
170
     0
176
     1
171
     0
176
     1
290
     0
176
     1
 93
        1
176
     1
 44
0.0
176
     1
173
     0
176
     1
  0
VISUALSTYLE
  5
32
102
{ACAD_REACTORS
330
2A
102
}
330
2A
100
AcDbVisualStyle
  2
Basic
 70
     7
177
     2
291
     1
 71
     1
176
     1
 72
     0
176
     1
 73
     1
176
     1
 90
        0
176
     1
 40
-0.6
176
     1
 41
-30.0
176
     1
 62
     5
 63
     7
421
 16777215
176
     1
 74
     0
176
     1
 91
        4
176
     1
 64
     7
176
     1
 65
   257
176
     1
 75
     1
176
     1
175
     1
176
     1
 42
1.0
176
     1
 92
        8
176
     1
 66
     7
176
     1
 43
1.0
176
     1
 76
     1
176
     1
 77
     6
176
     1
 78
     2
176
     1
 67
     7
176
     1
 79
     5
176
     1
170
     0
176
     1
171
     0
176
     1
290
     0
176
     1
 93
        1
176
     1
 44
0.0
176
     1
173
     0
176
     1
  0
VISUALSTYLE
  5
36
102
{ACAD_REACTORS
330
2A
102
}
330
2A
100
AcDbVisualStyle
  2
Brighten
 70
    12
177
     2
291
     1
 71
     2
176
     1
 72
     2
176
     1
 73
     0
176
     1
 90
        0
176
     1
 40
-0.6
176
     1
 41
-30.0
176
     1
 62
     5
 63
     7
421
 16777215
176
     1
 74
     1
176
     1
 91
        4
176
     1
 64
     7
176
     1
 65
   257
176
     1
 75
     1
176
     1
175
     1
176
     1
 42
1.0
176
     1
 92
        8
176
     1
 66
     7
176
     1
 43
1.0
176
     1
 76
     1
176
     1
 77
     6
176
     1
 78
     2
176
     1
 67
     7
176
     1
 79
     5
176
     1
170
     0
176
     1
171
     0
176
     1
290
     0
176
     1
 93
        1
176
     1
 44
50.0
176
     1
173
     0
176
     1
  0
VISUALSTYLE
  5
3A
102
{ACAD_REACTORS
330
2A
102
}
330
2A
100
AcDbVisualStyle
  2
ColorChange
 70
    16
177
     2
291
     1
 71
     2
176
     1
 72
     2
176
     1
 73
     3
176
     1
 90
        0
176
     1
 40
-0.6
176
     1
 41
-30.0
176
     1
 62
     5
 63
     8
421
  8421504
176
     1
 74
     1
176
     1
 91
        4
176
     1
 64
     7
176
     1
 65
   257
176
     1
 75
     1
176
     1
175
     1
176
     1
 42
1.0
176
     1
 92
        8
176
     1
 66
     8
424
  8421504
176
     1
 43
1.0
176
     1
 76
     1
176
     1
 77
     6
176
     1
 78
     2
176
     1
 67
     7
176
     1
 79
     5
176
     1
170
     0
176
     1
171
     0
176
     1
290
     0
176
     1
 93
        1
176
     1
 44
0.0
176
     1
173
     0
176
     1
  0
VISUALSTYLE
  5
34
102
{ACAD_REACTORS
330
2A
102
}
330
2A
100
AcDbVisualStyle
  2
Conceptual
 70
     9
177
     2
291
     0
 71
     3
176
     1
 72
     2
176
     1
 73
     0
176
     1
 90
        0
176
     1
 40
-0.6
176
     1
 41
-30.0
176
     1
 62
     5
 63
     7
421
 16777215
176
     1
 74
     2
176
     1
 91
        2
176
     1
 64
     7
176
     1
 65
   257
176
     1
 75
     1
176
     1
175
     1
176
     1
 42
40.0
176
     1
 92
        8
176
     1
 66
     7
176
     1
 43
1.0
176
     1
 76
     1
176
     1
 77
     6
176
     1
 78
     2
176
     1
 67
     7
176
     1
 79
     3
176
     1
170
     0
176
     1
171
     0
176
     1
290
     0
176
     1
 93
        1
176
     1
 44
0.0
176
     1
173
     0
176
     1
  0
VISUALSTYLE
  5
35
102
{ACAD_REACTORS
330
2A
102
}
330
2A
100
AcDbVisualStyle
  2
Dim
 70
    11
177
     2
291
     1
 71
     2
176
     1
 72
     2
176
     1
 73
     0
176
     1
 90
        0
176
     1
 40
-0.6
176
     1
 41
-30.0
176
     1
 62
     5
 63
     7
421
 16777215
176
     1
 74
     1
176
     1
 91
        4
176
     1
 64
     7
176
     1
 65
   257
176
     1
 75
     1
176
     1
175
     1
176
     1
 42
1.0
176
     1
 92
        8
176
     1
 66
     7
176
     1
 43
1.0
176
     1
 76
     1
176
     1
 77
     6
176
     1
 78
     2
176
     1
 67
     7
176
     1
 79
     5
176
     1
170
     0
176
     1
171
     0
176
     1
290
     0
176
     1
 93
        1
176
     1
 44
-50.0
176
     1
173
     0
176
     1
  0
VISUALSTYLE
  5
39
102
{ACAD_REACTORS
330
2A
102
}
330
2A
100
AcDbVisualStyle
  2
Facepattern
 70
    15
177
     2
291
     1
 71
     2
176
     1
 72
     2
176
     1
 73
     0
176
     1
 90
        0
176
     1
 40
-0.6
176
     1
 41
-30.0
176
     1
 62
     5
 63
     7
421
 16777215
176
     1
 74
     1
176
     1
 91
        4
176
     1
 64
     7
176
     1
 65
   257
176
     1
 75
     1
176
     1
175
     1
176
     1
 42
1.0
176
     1
 92
        8
176
     1
 66
     7
176
     1
 43
1.0
176
     1
 76
     1
176
     1
 77
     6
176
     1
 78
     2
176
     1
 67
     7
176
     1
 79
     5
176
     1
170
     0
176
     1
171
     0
176
     1
290
     0
176
     1
 93
        1
176
     1
 44
0.0
176
     1
173
     0
176
     1
  0
VISUALSTYLE
  5
2B
102
{ACAD_REACTORS
330
2A
102
}
330
2A
100
AcDbVisualStyle
  2
Flat
 70
     0
177
     2
291
     1
 71
     2
176
     1
 72
     1
176
     1
 73
     1
176
     1
 90
        2
176
     1
 40
-0.6
176
     1
 41
30.0
176
     1
 62
     5
 63
     7
421
 16777215
176
     1
 74
     0
176
     1
 91
        4
176
     1
 64
     7
176
     1
 65
   257
176
     1
 75
     1
176
     1
175
     1
176
     1
 42
1.0
176
     1
 92
        8
176
     1
 66
     7
176
     1
 43
1.0
176
     1
 76
     1
176
     1
 77
     6
176
     1
 78
     2
176
     1
 67
     7
176
     1
 79
     5
176
     1
170
     0
176
     1
171
     0
176
     1
290
     0
176
     1
 93
       13
176
     1
 44
0.0
176
     1
173
     0
176
     1
  0
VISUALSTYLE
  5
2C
102
{ACAD_REACTORS
330
2A
102
}
330
2A
100
AcDbVisualStyle
  2
FlatWithEdges
 70
     1
177
     2
291
     1
 71
     2
176
     1
 72
     1
176
     1
 73
     1
176
     1
 90
        2
176
     1
 40
-0.6
176
     1
 41
30.0
176
     1
 62
     5
 63
     7
421
 16777215
176
     1
 74
     1
176
     1
 91
        4
176
     1
 64
     7
176
     1
 65
   257
176
     1
 75
     1
176
     1
175
     1
176
     1
 42
1.0
176
     1
 92
        0
176
     1
 66
   257
176
     1
 43
1.0
176
     1
 76
     1
176
     1
 77
     6
176
     1
 78
     2
176
     1
 67
     7
176
     1
 79
     5
176
     1
170
     0
176
     1
171
     0
176
     1
290
     0
176
     1
 93
       13
176
     1
 44
0.0
176
     1
173
     0
176
     1
  0
VISUALSTYLE
  5
2D
102
{ACAD_REACTORS
330
2A
102
}
330
2A
100
AcDbVisualStyle
  2
Gouraud
 70
     2
177
     2
291
     1
 71
     2
176
     1
 72
     2
176
     1
 73
     1
176
     1
 90
        2
176
     1
 40
-0.6
176
     1
 41
30.0
176
     1
 62
     5
 63
     7
421
 16777215
176
     1
 74
     0
176
     1
 91
        4
176
     1
 64
     7
176
     1
 65
   257
176
     1
 75
     1
176
     1
175
     1
176
     1
 42
1.0
176
     1
 92
        0
176
     1
 66
     7
176
     1
 43
1.0
176
     1
 76
     1
176
     1
 77
     6
176
     1
 78
     2
176
     1
 67
     7
176
     1
 79
     5
176
     1
170
     0
176
     1
171
     0
176
     1
290
     0
176
     1
 93
       13
176
     1
 44
0.0
176
     1
173
     0
176
     1
  0
VISUALSTYLE
  5
2E
102
{ACAD_REACTORS
330
2A
102
}
330
2A
100
AcDbVisualStyle
  2
GouraudWithEdges
 70
     3
177
     2
291
     1
 71
     2
176
     1
 72
     2
176
     1
 73
     1
176
     1
 90
        2
176
     1
 40
-0.6
176
     1
 41
30.0
176
     1
 62
     5
 63
     7
421
 16777215
176
     1
 74
     1
176
     1
 91
        4
176
     1
 64
     7
176
     1
 65
   257
176
     1
 75
     1
176
     1
175
     1
176
     1
 42
1.0
176
     1
 92
        0
176
     1
 66
   257
176
     1
 43
1.0
176
     1
 76
     1
176
     1
 77
     6
176
     1
 78
     2
176
     1
 67
     7
176
     1
 79
     5
176
     1
170
     0
176
     1
171
     0
176
     1
290
     0
176
     1
 93
       13
176
     1
 44
0.0
176
     1
173
     0
176
     1
  0
VISUALSTYLE
  5
38
102
{ACAD_REACTORS
330
2A
102
}
330
2A
100
AcDbVisualStyle
  2
Linepattern
 70
    14
177
     2
291
     1
 71
     2
176
     1
 72
     2
176
     1
 73
     0
176
     1
 90
        0
176
     1
 40
-0.6
176
     1
 41
-30.0
176
     1
 62
     5
 63
     7
421
 16777215
176
     1
 74
     1
176
     1
 91
        4
176
     1
 64
     7
176
     1
 65
   257
176
     1
 75
     7
176
     1
175
     7
176
     1
 42
1.0
176
     1
 92
        8
176
     1
 66
     7
176
     1
 43
1.0
176
     1
 76
     1
176
     1
 77
     6
176
     1
 78
     2
176
     1
 67
     7
176
     1
 79
     5
176
     1
170
     0
176
     1
171
     0
176
     1
290
     0
176
     1
 93
        1
176
     1
 44
0.0
176
     1
173
     0
176
     1
  0
VISUALSTYLE
  5
33
102
{ACAD_REACTORS
330
2A
102
}
330
2A
100
AcDbVisualStyle
  2
Realistic
 70
     8
177
     2
291
     0
 71
     2
176
     1
 72
     2
176
     1
 73
     0
176
     1
 90
        0
176
     1
 40
-0.6
176
     1
 41
-30.0
176
     1
 62
     5
 63
     7
421
 16777215
176
     1
 74
     1
176
     1
 91
        0
176
     1
 64
     7
176
     1
 65
   257
176
     1
 75
     1
176
     1
175
     1
176
     1
 42
1.0
176
     1
 92
        8
176
     1
 66
     8
424
  7895160
176
     1
 43
1.0
176
     1
 76
     1
176
     1
 77
     6
176
     1
 78
     2
176
     1
 67
     7
176
     1
 79
     5
176
     1
170
     0
176
     1
171
     0
176
     1
290
     0
176
     1
 93
       13
176
     1
 44
0.0
176
     1
173
     0
176
     1
  0
VISUALSTYLE
  5
37
102
{ACAD_REACTORS
330
2A
102
}
330
2A
100
AcDbVisualStyle
  2
Thicken
 70
    13
177
     2
291
     1
 71
     2
176
     1
 72
     2
176
     1
 73
     0
176
     1
 90
        0
176
     1
 40
-0.6
176
     1
 41
-30.0
176
     1
 62
     5
 63
     7
421
 16777215
176
     1
 74
     1
176
     1
 91
        4
176
     1
 64
     7
176
     1
 65
   257
176
     1
 75
     1
176
     1
175
     1
176
     1
 42
1.0
176
     1
 92
       12
176
     1
 66
     7
176
     1
 43
1.0
176
     1
 76
     1
176
     1
 77
     6
176
     1
 78
     2
176
     1
 67
     7
176
     1
 79
     5
176
     1
170
     0
176
     1
171
     0
176
     1
290
     0
176
     1
 93
        1
176
     1
 44
0.0
176
     1
173
     0
176
     1
  0
ENDSEC
  0
EOF
