  0
SECTION
  2
HEADER
  9
$ACADVER
  1
AC1024
  9
$ACADMAINTVER
 70
     6
  9
$DWGCODEPAGE
  3
UNDEFINED
  9
$INSBASE
 10
0.0
 20
0.0
 30
0.0
  9
$EXTMIN
 10
1.000000000000000E+20
 20
1.000000000000000E+20
 30
1.000000000000000E+20
  9
$EXTMAX
 10
-1.000000000000000E+20
 20
-1.000000000000000E+20
 30
-1.000000000000000E+20
  9
$LIMMIN
 10
0.0
 20
0.0
  9
$LIMMAX
 10
12.0
 20
9.0
  9
$ORTHOMODE
 70
     0
  9
$REGENMODE
 70
     1
  9
$FILLMODE
 70
     1
  9
$QTEXTMODE
 70
     0
  9
$MIRRTEXT
 70
     1
  9
$LTSCALE
 40
1.0
  9
$ATTMODE
 70
     1
  9
$TEXTSIZE
 40
0.2
  9
$TRACEWID
 40
0.05
  9
$TEXTSTYLE
  7
Standard
  9
$CLAYER
  8
0
  9
$CELTYPE
  6
ByLayer
  9
$CECOLOR
 62
   256
  9
$CELTSCALE
 40
1.0
  9
$DISPSILH
 70
     0
  9
$DIMSCALE
 40
1.0
  9
$DIMASZ
 40
0.18
  9
$DIMEXO
 40
0.0625
  9
$DIMDLI
 40
0.38
  9
$DIMRND
 40
0.0
  9
$DIMDLE
 40
0.0
  9
$DIMEXE
 40
0.18
  9
$DIMTP
 40
0.0
  9
$DIMTM
 40
0.0
  9
$DIMTXT
 40
0.18
  9
$DIMCEN
 40
0.09
  9
$DIMTSZ
 40
0.0
  9
$DIMTOL
 70
     0
  9
$DIMLIM
 70
     0
  9
$DIMTIH
 70
     1
  9
$DIMTOH
 70
     1
  9
$DIMSE1
 70
     0
  9
$DIMSE2
 70
     0
  9
$DIMTAD
 70
     0
  9
$DIMZIN
 70
     0
  9
$DIMBLK
  1

  9
$DIMASO
 70
     1
  9
$DIMSHO
 70
     1
  9
$DIMPOST
  1

  9
$DIMAPOST
  1

  9
$DIMALT
 70
     0
  9
$DIMALTD
 70
     2
  9
$DIMALTF
 40
25.4
  9
$DIMLFAC
 40
1.0
  9
$DIMTOFL
 70
     0
  9
$DIMTVP
 40
0.0
  9
$DIMTIX
 70
     0
  9
$DIMSOXD
 70
     0
  9
$DIMSAH
 70
     0
  9
$DIMBLK1
  1

  9
$DIMBLK2
  1

  9
$DIMSTYLE
  2
Standard
  9
$DIMCLRD
 70
     0
  9
$DIMCLRE
 70
     0
  9
$DIMCLRT
 70
     0
  9
$DIMTFAC
 40
1.0
  9
$DIMGAP
 40
0.09
  9
$DIMJUST
 70
     0
  9
$DIMSD1
 70
     0
  9
$DIMSD2
 70
     0
  9
$DIMTOLJ
 70
     1
  9
$DIMTZIN
 70
     0
  9
$DIMALTZ
 70
     0
  9
$DIMALTTZ
 70
     0
  9
$DIMUPT
 70
     0
  9
$DIMDEC
 70
     4
  9
$DIMTDEC
 70
     4
  9
$DIMALTU
 70
     2
  9
$DIMALTTD
 70
     2
  9
$DIMTXSTY
  7
Standard
  9
$DIMAUNIT
 70
     0
  9
$DIMADEC
 70
     0
  9
$DIMALTRND
 40
0.0
  9
$DIMAZIN
 70
     0
  9
$DIMDSEP
 70
    46
  9
$DIMATFIT
 70
     3
  9
$DIMFRAC
 70
     0
  9
$DIMLDRBLK
  1

  9
$DIMLUNIT
 70
     2
  9
$DIMLWD
 70
    -2
  9
$DIMLWE
 70
    -2
  9
$DIMTMOVE
 70
     0
  9
$DIMFXL
 40
1.0
  9
$DIMFXLON
 70
     0
  9
$DIMJOGANG
 40
0.7853981633974483
  9
$DIMTFILL
 70
     0
  9
$DIMTFILLCLR
 70
     0
  9
$DIMARCSYM
 70
     0
  9
$DIMLTYPE
  6

  9
$DIMLTEX1
  6

  9
$DIMLTEX2
  6

  9
$DIMTXTDIRECTION
 70
     0
  9
$LUNITS
 70
     2
  9
$LUPREC
 70
     4
  9
$SKETCHINC
 40
0.1
  9
$FILLETRAD
 40
0.5
  9
$AUNITS
 70
     0
  9
$AUPREC
 70
     0
  9
$MENU
  1
.
  9
$ELEVATION
 40
0.0
  9
$PELEVATION
 40
0.0
  9
$THICKNESS
 40
0.0
  9
$LIMCHECK
 70
     0
  9
$CHAMFERA
 40
0.5
  9
$CHAMFERB
 40
0.5
  9
$CHAMFERC
 40
1.0
  9
$CHAMFERD
 40
0.0
  9
$SKPOLY
 70
     0
  9
$TDCREATE
 40
2457917.584583322
  9
$TDUCREATE
 40
2457917.209583333
  9
$TDUPDATE
 40
2457917.584583322
  9
$TDUUPDATE
 40
2457917.209583333
  9
$TDINDWG
 40
0.0000000116
  9
$TDUSRTIMER
 40
0.0000000116
  9
$USRTIMER
 70
     1
  9
$ANGBASE
 50
0.0
  9
$ANGDIR
 70
     0
  9
$PDMODE
 70
     0
  9
$PDSIZE
 40
0.0
  9
$PLINEWID
 40
0.0
  9
$SPLFRAME
 70
     0
  9
$SPLINETYPE
 70
     6
  9
$SPLINESEGS
 70
     8
  9
$HANDSEED
  5
103
  9
$SURFTAB1
 70
     6
  9
$SURFTAB2
 70
     6
  9
$SURFTYPE
 70
     6
  9
$SURFU
 70
     6
  9
$SURFV
 70
     6
  9
$UCSBASE
  2

  9
$UCSNAME
  2

  9
$UCSORG
 10
0.0
 20
0.0
 30
0.0
  9
$UCSXDIR
 10
1.0
 20
0.0
 30
0.0
  9
$UCSYDIR
 10
0.0
 20
1.0
 30
0.0
  9
$UCSORTHOREF
  2

  9
$UCSORTHOVIEW
 70
     0
  9
$UCSORGTOP
 10
0.0
 20
0.0
 30
0.0
  9
$UCSORGBOTTOM
 10
0.0
 20
0.0
 30
0.0
  9
$UCSORGLEFT
 10
0.0
 20
0.0
 30
0.0
  9
$UCSORGRIGHT
 10
0.0
 20
0.0
 30
0.0
  9
$UCSORGFRONT
 10
0.0
 20
0.0
 30
0.0
  9
$UCSORGBACK
 10
0.0
 20
0.0
 30
0.0
  9
$PUCSBASE
  2

  9
$PUCSNAME
  2

  9
$PUCSORG
 10
0.0
 20
0.0
 30
0.0
  9
$PUCSXDIR
 10
1.0
 20
0.0
 30
0.0
  9
$PUCSYDIR
 10
0.0
 20
1.0
 30
0.0
  9
$PUCSORTHOREF
  2

  9
$PUCSORTHOVIEW
 70
     0
  9
$PUCSORGTOP
 10
0.0
 20
0.0
 30
0.0
  9
$PUCSORGBOTTOM
 10
0.0
 20
0.0
 30
0.0
  9
$PUCSORGLEFT
 10
0.0
 20
0.0
 30
0.0
  9
$PUCSORGRIGHT
 10
0.0
 20
0.0
 30
0.0
  9
$PUCSORGFRONT
 10
0.0
 20
0.0
 30
0.0
  9
$PUCSORGBACK
 10
0.0
 20
0.0
 30
0.0
  9
$USERI1
 70
     0
  9
$USERI2
 70
     0
  9
$USERI3
 70
     0
  9
$USERI4
 70
     0
  9
$USERI5
 70
     0
  9
$USERR1
 40
0.0
  9
$USERR2
 40
0.0
  9
$USERR3
 40
0.0
  9
$USERR4
 40
0.0
  9
$USERR5
 40
0.0
  9
$WORLDVIEW
 70
     1
  9
$SHADEDGE
 70
     3
  9
$SHADEDIF
 70
    70
  9
$TILEMODE
 70
     1
  9
$MAXACTVP
 70
    64
  9
$PINSBASE
 10
0.0
 20
0.0
 30
0.0
  9
$PLIMCHECK
 70
     0
  9
$PEXTMIN
 10
1.000000000000000E+20
 20
1.000000000000000E+20
 30
1.000000000000000E+20
  9
$PEXTMAX
 10
-1.000000000000000E+20
 20
-1.000000000000000E+20
 30
-1.000000000000000E+20
  9
$PLIMMIN
 10
0.0
 20
0.0
  9
$PLIMMAX
 10
12.0
 20
9.0
  9
$UNITMODE
 70
     0
  9
$VISRETAIN
 70
     1
  9
$PLINEGEN
 70
     0
  9
$PSLTSCALE
 70
     1
  9
$TREEDEPTH
 70
  3020
  9
$CMLSTYLE
  2
Standard
  9
$CMLJUST
 70
     0
  9
$CMLSCALE
 40
1.0
  9
$PROXYGRAPHICS
 70
     1
  9
$MEASUREMENT
 70
     0
  9
$CELWEIGHT
370
    -1
  9
$ENDCAPS
280
     0
  9
$JOINSTYLE
280
     0
  9
$LWDISPLAY
290
     1
  9
$INSUNITS
 70
     1
  9
$HYPERLINKBASE
  1

  9
$STYLESHEET
  1

  9
$XEDIT
290
     1
  9
$CEPSNTYPE
380
     0
  9
$PSTYLEMODE
290
     1
  9
$FINGERPRINTGUID
  2
{E53E2371-0B78-9E2E-57EC-9487EE5DD4F3}
  9
$VERSIONGUID
  2
{FAEB1C32-E019-11D5-929B-00C0DF256EC4}
  9
$EXTNAMES
290
     1
  9
$PSVPSCALE
 40
0.0
  9
$OLESTARTUP
290
     0
  9
$SORTENTS
280
   127
  9
$INDEXCTL
280
     0
  9
$HIDETEXT
280
     1
  9
$XCLIPFRAME
280
     2
  9
$HALOGAP
280
     0
  9
$OBSCOLOR
 70
   257
  9
$OBSLTYPE
280
     0
  9
$INTERSECTIONDISPLAY
280
     0
  9
$INTERSECTIONCOLOR
 70
   257
  9
$DIMASSOC
280
     2
  9
$PROJECTNAME
  1

  9
$CAMERADISPLAY
290
     0
  9
$LENSLENGTH
 40
50.0
  9
$CAMERAHEIGHT
 40
0.0
  9
$STEPSPERSEC
 40
2.0
  9
$STEPSIZE
 40
6.0
  9
$3DDWFPREC
 40
2.0
  9
$PSOLWIDTH
 40
0.25
  9
$PSOLHEIGHT
 40
4.0
  9
$LOFTANG1
 40
1.570796326794897
  9
$LOFTANG2
 40
1.570796326794897
  9
$LOFTMAG1
 40
0.0
  9
$LOFTMAG2
 40
0.0
  9
$LOFTPARAM
 70
     7
  9
$LOFTNORMALS
280
     1
  9
$LATITUDE
 40
37.795
  9
$LONGITUDE
 40
-122.394
  9
$NORTHDIRECTION
 40
0.0
  9
$TIMEZONE
 70
 -8000
  9
$LIGHTGLYPHDISPLAY
280
     1
  9
$TILEMODELIGHTSYNCH
280
     1
  9
$CMATERIAL
347
3C
  9
$SOLIDHIST
280
     1
  9
$SHOWHIST
280
     1
  9
$DWFFRAME
280
     2
  9
$DGNFRAME
280
     2
  9
$REALWORLDSCALE
290
     1
  9
$INTERFERECOLOR
 62
   256
  9
$CSHADOW
280
     0
  9
$SHADOWPLANELOCATION
 40
0.0
  0
ENDSEC
  0
SECTION
  2
CLASSES
  0
CLASS
  1
ACDBDICTIONARYWDFLT
  2
AcDbDictionaryWithDefault
  3
ObjectDBX Classes
 90
        0
 91
        4
280
     0
281
     0
  0
CLASS
  1
VISUALSTYLE
  2
AcDbVisualStyle
  3
ObjectDBX Classes
 90
     4095
 91
        4
280
     0
281
     0
  0
CLASS
  1
MATERIAL
  2
AcDbMaterial
  3
ObjectDBX Classes
 90
     1153
 91
        4
280
     0
281
     0
  0
CLASS
  1
SUN
  2
AcDbSun
  3
SCENEOE
 90
     1024
 91
        4
280
     0
281
     0
  0
ENDSEC
  0
SECTION
  2
TABLES
  0
TABLE
  2
VPORT
  5
8
330
0
100
AcDbSymbolTable
 70
     1
  0
VPORT
  5
29
330
8
100
AcDbSymbolTableRecord
100
AcDbViewportTableRecord
  2
*Active
 70
     0
 10
0.0
 20
0.0
 11
1.0
 21
1.0
 12
0.0
 22
0.0
 13
0.0
 23
0.0
 14
0.5
 24
0.5
 15
0.5
 25
0.5
 16
0.0
 26
0.0
 36
1.0
 17
91.00082462281999
 27
-128.4993055234307
 37
0.0
 40
256.9986110468615
 41
0.7081814508812795
 42
50.0
 43
0.0
 44
0.0
 50
0.0
 51
0.0
 71
     0
 72
   100
 73
     1
 74
     3
 75
     0
 76
     0
 77
     0
 78
     0
281
     0
 65
     1
110
0.0
120
0.0
130
0.0
111
1.0
121
0.0
131
0.0
112
0.0
122
1.0
132
0.0
 79
     0
146
0.0
 60
     3
 61
     5
292
     1
282
     1
141
0.0
142
0.0
 63
   250
361
3F
  0
ENDTAB
  0
TABLE
  2
LTYPE
  5
5
330
0
100
AcDbSymbolTable
 70
     1
  0
LTYPE
  5
14
330
5
100
AcDbSymbolTableRecord
100
AcDbLinetypeTableRecord
  2
ByBlock
 70
     0
  3

 72
    65
 73
     0
 40
0.0
  0
LTYPE
  5
15
330
5
100
AcDbSymbolTableRecord
100
AcDbLinetypeTableRecord
  2
ByLayer
 70
     0
  3

 72
    65
 73
     0
 40
0.0
  0
LTYPE
  5
16
330
5
100
AcDbSymbolTableRecord
100
AcDbLinetypeTableRecord
  2
Continuous
 70
     0
  3
Solid line
 72
    65
 73
     0
 40
0.0
  0
ENDTAB
  0
TABLE
  2
LAYER
  5
2
330
0
100
AcDbSymbolTable
 70
     2
  0
LAYER
  5
10
330
2
100
AcDbSymbolTableRecord
100
AcDbLayerTableRecord
  2
0
 70
     0
 62
     7
  6
Continuous
370
    -3
390
F
347
3E
  0
LAYER
  5
40
330
2
100
AcDbSymbolTableRecord
100
AcDbLayerTableRecord
  2
_U+30EC_U+30A4_U+30E4_U+30FC 1
 70
     0
 62
     7
  6
Continuous
370
    -3
390
F
347
3E
  0
ENDTAB
  0
TABLE
  2
STYLE
  5
3
330
0
100
AcDbSymbolTable
 70
     1
  0
STYLE
  5
11
330
3
100
AcDbSymbolTableRecord
100
AcDbTextStyleTableRecord
  2
Standard
 70
     0
 40
0.0
 41
1.0
 50
0.0
 71
     0
 42
0.2
  3
txt
  4

  0
ENDTAB
  0
TABLE
  2
VIEW
  5
6
330
0
100
AcDbSymbolTable
 70
     0
  0
ENDTAB
  0
TABLE
  2
UCS
  5
7
330
0
100
AcDbSymbolTable
 70
     0
  0
ENDTAB
  0
TABLE
  2
APPID
  5
9
330
0
100
AcDbSymbolTable
 70
     1
  0
APPID
  5
12
330
9
100
AcDbSymbolTableRecord
100
AcDbRegAppTableRecord
  2
ACAD
 70
     0
  0
ENDTAB
  0
TABLE
  2
DIMSTYLE
  5
A
330
0
100
AcDbSymbolTable
 70
     1
100
AcDbDimStyleTable
  0
DIMSTYLE
105
27
330
A
100
AcDbSymbolTableRecord
100
AcDbDimStyleTableRecord
  2
Standard
 70
     0
178
     0
340
11
  0
ENDTAB
  0
TABLE
  2
BLOCK_RECORD
  5
1
330
0
100
AcDbSymbolTable
 70
     7
  0
BLOCK_RECORD
  5
1F
330
1
100
AcDbSymbolTableRecord
100
AcDbBlockTableRecord
  2
*Model_Space
340
22
 70
     0
280
     1
281
     0
  0
BLOCK_RECORD
  5
1B
330
1
100
AcDbSymbolTableRecord
100
AcDbBlockTableRecord
  2
*Paper_Space
340
1E
 70
     0
280
     1
281
     0
  0
BLOCK_RECORD
  5
23
330
1
100
AcDbSymbolTableRecord
100
AcDbBlockTableRecord
  2
*Paper_Space0
340
26
 70
     0
280
     1
281
     0
  0
BLOCK_RECORD
  5
54
330
1
100
AcDbSymbolTableRecord
100
AcDbBlockTableRecord
  2
block 2
340
0
102
{BLKREFS
331
55
102
}
 70
     0
280
     1
281
     0
  0
BLOCK_RECORD
  5
5D
330
1
100
AcDbSymbolTableRecord
100
AcDbBlockTableRecord
  2
block 3
340
0
102
{BLKREFS
331
5E
102
}
 70
     0
280
     1
281
     0
  0
BLOCK_RECORD
  5
65
330
1
100
AcDbSymbolTableRecord
100
AcDbBlockTableRecord
  2
block 4
340
0
102
{BLKREFS
331
66
102
}
 70
     0
280
     1
281
     0
  0
BLOCK_RECORD
  5
71
330
1
100
AcDbSymbolTableRecord
100
AcDbBlockTableRecord
  2
block 5
340
0
102
{BLKREFS
331
72
102
}
 70
     0
280
     1
281
     0
  0
BLOCK_RECORD
  5
92
330
1
100
AcDbSymbolTableRecord
100
AcDbBlockTableRecord
  2
block 6
340
0
102
{BLKREFS
331
93
102
}
 70
     0
280
     1
281
     0
  0
BLOCK_RECORD
  5
98
330
1
100
AcDbSymbolTableRecord
100
AcDbBlockTableRecord
  2
block 7
340
0
102
{BLKREFS
331
99
102
}
 70
     0
280
     1
281
     0
  0
ENDTAB
  0
ENDSEC
  0
SECTION
  2
BLOCKS
  0
BLOCK
  5
20
330
1F
100
AcDbEntity
  8
0
100
AcDbBlockBegin
  2
*Model_Space
 70
     0
 10
0.0
 20
0.0
 30
0.0
  3
*Model_Space
  1

  0
ENDBLK
  5
21
330
1F
100
AcDbEntity
  8
0
100
AcDbBlockEnd
  0
BLOCK
  5
1C
330
1B
100
AcDbEntity
 67
     1
  8
0
100
AcDbBlockBegin
  2
*Paper_Space
 70
     0
 10
0.0
 20
0.0
 30
0.0
  3
*Paper_Space
  1

  0
ENDBLK
  5
1D
330
1B
100
AcDbEntity
 67
     1
  8
0
100
AcDbBlockEnd
  0
BLOCK
  5
24
330
23
100
AcDbEntity
  8
0
100
AcDbBlockBegin
  2
*Paper_Space0
 70
     0
 10
0.0
 20
0.0
 30
0.0
  3
*Paper_Space0
  1

  0
ENDBLK
  5
25
330
23
100
AcDbEntity
  8
0
100
AcDbBlockEnd
  0
BLOCK
  5
56
330
54
100
AcDbEntity
  8
0
100
AcDbBlockBegin
  2
block 2
 70
     0
 10
0.0
 20
0.0
 30
0.0
  3
block 2
  1

  0
SPLINE
  5
58
330
54
100
AcDbEntity
  8
_U+30EC_U+30A4_U+30E4_U+30FC 1
370
     0
100
AcDbSpline
210
0.0
220
0.0
230
1.0
 70
    11
 71
     3
 72
    26
 73
    22
 74
     0
 42
0.0000000001
 43
0.0000000001
 12
1.0
 22
0.0
 32
0.0
 13
1.0
 23
0.0
 33
0.0
 40
0.0
 40
0.0
 40
0.0
 40
0.0
 40
1.0
 40
1.0
 40
1.0
 40
2.0
 40
2.0
 40
2.0
 40
3.0
 40
3.0
 40
3.0
 40
4.0
 40
4.0
 40
4.0
 40
5.0
 40
5.0
 40
5.0
 40
6.0
 40
6.0
 40
6.0
 40
7.0
 40
7.0
 40
7.0
 40
7.0
 10
107.6509656848928
 20
-138.9520697352273
 30
0.0
 10
107.6509656848928
 20
-138.9520697352273
 30
0.0
 10
106.5468125818702
 20
-138.9544813020669
 30
0.0
 10
106.5468125818702
 20
-138.9544813020669
 30
0.0
 10
106.5468125818702
 20
-138.9544813020669
 30
0.0
 10
106.5475016009673
 20
-139.306914570208
 30
0.0
 10
106.5475016009673
 20
-139.306914570208
 30
0.0
 10
106.5475016009673
 20
-139.306914570208
 30
0.0
 10
106.3993624951016
 20
-139.3072590797565
 30
0.0
 10
106.3993624951016
 20
-139.3072590797565
 30
0.0
 10
106.3838595654179
 20
-138.9524142447758
 30
0.0
 10
106.2209065489656
 20
-138.9031493793367
 30
0.0
 10
106.1065293788553
 20
-138.8714545008724
 30
0.0
 10
106.1065293788553
 20
-138.8714545008724
 30
0.0
 10
106.1061848693068
 20
-138.7157361849391
 30
0.0
 10
106.1061848693068
 20
-138.7157361849391
 30
0.0
 10
106.1061848693068
 20
-138.7157361849391
 30
0.0
 10
107.6506211753443
 20
-138.7122910894539
 30
0.0
 10
107.6506211753443
 20
-138.7122910894539
 30
0.0
 10
107.6506211753443
 20
-138.7122910894539
 30
0.0
 10
107.6509656848928
 20
-138.9520697352273
 30
0.0
 10
107.6509656848928
 20
-138.9520697352273
 30
0.0
  0
HATCH
  5
59
330
54
100
AcDbEntity
  8
_U+30EC_U+30A4_U+30E4_U+30FC 1
 62
     7
420
 16777215
100
AcDbHatch
 10
0.0
 20
0.0
 30
0.0
210
0.0
220
0.0
230
1.0
  2
SOLID
 70
     1
 71
     0
 91
        1
 92
        1
 93
        1
 72
     4
 94
        3
 73
     0
 74
     1
 95
       26
 96
       22
 40
0.0
 40
0.0
 40
0.0
 40
0.0
 40
1.0
 40
1.0
 40
1.0
 40
2.0
 40
2.0
 40
2.0
 40
3.0
 40
3.0
 40
3.0
 40
4.0
 40
4.0
 40
4.0
 40
5.0
 40
5.0
 40
5.0
 40
6.0
 40
6.0
 40
6.0
 40
7.0
 40
7.0
 40
7.0
 40
7.0
 10
107.6509656848928
 20
-138.9520697352273
 10
107.6509656848928
 20
-138.9520697352273
 10
106.5468125818702
 20
-138.9544813020669
 10
106.5468125818702
 20
-138.9544813020669
 10
106.5468125818702
 20
-138.9544813020669
 10
106.5475016009673
 20
-139.306914570208
 10
106.5475016009673
 20
-139.306914570208
 10
106.5475016009673
 20
-139.306914570208
 10
106.3993624951016
 20
-139.3072590797565
 10
106.3993624951016
 20
-139.3072590797565
 10
106.3838595654179
 20
-138.9524142447758
 10
106.2209065489656
 20
-138.9031493793367
 10
106.1065293788553
 20
-138.8714545008724
 10
106.1065293788553
 20
-138.8714545008724
 10
106.1061848693068
 20
-138.7157361849391
 10
106.1061848693068
 20
-138.7157361849391
 10
106.1061848693068
 20
-138.7157361849391
 10
107.6506211753443
 20
-138.7122910894539
 10
107.6506211753443
 20
-138.7122910894539
 10
107.6506211753443
 20
-138.7122910894539
 10
107.6509656848928
 20
-138.9520697352273
 10
107.6509656848928
 20
-138.9520697352273
 97
        0
 97
        0
 75
     2
 76
     1
 98
        0
  0
SPLINE
  5
5A
330
54
100
AcDbEntity
  8
_U+30EC_U+30A4_U+30E4_U+30FC 1
370
     0
100
AcDbSpline
210
0.0
220
0.0
230
1.0
 70
    11
 71
     3
 72
    29
 73
    25
 74
     0
 42
0.0000000001
 43
0.0000000001
 12
1.0
 22
0.0
 32
0.0
 13
1.0
 23
0.0
 33
0.0
 40
0.0
 40
0.0
 40
0.0
 40
0.0
 40
1.0
 40
1.0
 40
1.0
 40
2.0
 40
2.0
 40
2.0
 40
3.0
 40
3.0
 40
3.0
 40
4.0
 40
4.0
 40
4.0
 40
5.0
 40
5.0
 40
5.0
 40
6.0
 40
6.0
 40
6.0
 40
7.0
 40
7.0
 40
7.0
 40
8.0
 40
8.0
 40
8.0
 40
8.0
 10
107.4697536623687
 20
-137.217464158404
 30
0.0
 10
107.6795599774204
 20
-137.3325303476113
 30
0.0
 10
107.6988525121378
 20
-137.5178764847178
 30
0.0
 10
107.6991970216863
 20
-137.6422444317353
 30
0.0
 10
107.6995415312348
 20
-137.8141546964492
 30
0.0
 10
107.6533772517325
 20
-137.9653943882517
 30
0.0
 10
107.4714762101113
 20
-138.0677137241636
 30
0.0
 10
107.2771728247432
 20
-138.1789903083372
 30
0.0
 10
107.040150255358
 20
-138.1996608812487
 30
0.0
 10
106.8775417484542
 20
-138.2000053907972
 30
0.0
 10
106.7335367571708
 20
-138.2003499003457
 30
0.0
 10
106.481700277199
 20
-138.182779913371
 30
0.0
 10
106.2825737581516
 20
-138.0701252910033
 30
0.0
 10
106.0793131245218
 20
-137.9554036113445
 30
0.0
 10
106.0555419656736
 20
-137.7834933466305
 30
0.0
 10
106.0555419656736
 20
-137.6456895272205
 30
0.0
 10
106.0551974561251
 20
-137.4761908293462
 30
0.0
 10
106.0992946783363
 20
-137.3221950611556
 30
0.0
 10
106.280851210409
 20
-137.2202202347922
 30
0.0
 10
106.4730875384859
 20
-137.1134222747494
 30
0.0
 10
106.701497369158
 20
-137.0879285681586
 30
0.0
 10
106.8751301816146
 20
-137.08758405861
 30
0.0
 10
107.0463514272315
 20
-137.0872395490615
 30
0.0
 10
107.2771728247432
 20
-137.1096326697157
 30
0.0
 10
107.4697536623687
 20
-137.217464158404
 30
0.0
  0
SPLINE
  5
5B
330
54
100
AcDbEntity
  8
_U+30EC_U+30A4_U+30E4_U+30FC 1
370
     0
100
AcDbSpline
210
0.0
220
0.0
230
1.0
 70
    11
 71
     3
 72
    17
 73
    13
 74
     0
 42
0.0000000001
 43
0.0000000001
 12
1.0
 22
0.0
 32
0.0
 13
1.0
 23
0.0
 33
0.0
 40
0.0
 40
0.0
 40
0.0
 40
0.0
 40
1.0
 40
1.0
 40
1.0
 40
2.0
 40
2.0
 40
2.0
 40
3.0
 40
3.0
 40
3.0
 40
4.0
 40
4.0
 40
4.0
 40
4.0
 10
106.2477782937506
 20
-137.645345017672
 30
0.0
 10
106.2484673128476
 20
-137.9119954082304
 30
0.0
 10
106.5319986712837
 20
-137.9612602736694
 30
0.0
 10
106.8768527293572
 20
-137.9602267450238
 30
0.0
 10
107.1962130808398
 20
-137.9598822354753
 30
0.0
 10
107.5052381458668
 20
-137.9206081469435
 30
0.0
 10
107.5045491267697
 20
-137.6425889412838
 30
0.0
 10
107.5038601076727
 20
-137.3780056080166
 30
0.0
 10
107.2223958065277
 20
-137.3266736852864
 30
0.0
 10
106.8754746911631
 20
-137.3273627043834
 30
0.0
 10
106.5561143396804
 20
-137.3280517234805
 30
0.0
 10
106.247433784202
 20
-137.3693928693035
 30
0.0
 10
106.2477782937506
 20
-137.645345017672
 30
0.0
  0
HATCH
  5
5C
330
54
100
AcDbEntity
  8
_U+30EC_U+30A4_U+30E4_U+30FC 1
 62
     7
420
 16777215
100
AcDbHatch
 10
0.0
 20
0.0
 30
0.0
210
0.0
220
0.0
230
1.0
  2
SOLID
 70
     1
 71
     0
 91
        2
 92
        1
 93
        1
 72
     4
 94
        3
 73
     0
 74
     1
 95
       29
 96
       25
 40
0.0
 40
0.0
 40
0.0
 40
0.0
 40
1.0
 40
1.0
 40
1.0
 40
2.0
 40
2.0
 40
2.0
 40
3.0
 40
3.0
 40
3.0
 40
4.0
 40
4.0
 40
4.0
 40
5.0
 40
5.0
 40
5.0
 40
6.0
 40
6.0
 40
6.0
 40
7.0
 40
7.0
 40
7.0
 40
8.0
 40
8.0
 40
8.0
 40
8.0
 10
107.4697536623687
 20
-137.217464158404
 10
107.6795599774204
 20
-137.3325303476113
 10
107.6988525121378
 20
-137.5178764847178
 10
107.6991970216863
 20
-137.6422444317353
 10
107.6995415312348
 20
-137.8141546964492
 10
107.6533772517325
 20
-137.9653943882517
 10
107.4714762101113
 20
-138.0677137241636
 10
107.2771728247432
 20
-138.1789903083372
 10
107.040150255358
 20
-138.1996608812487
 10
106.8775417484542
 20
-138.2000053907972
 10
106.7335367571708
 20
-138.2003499003457
 10
106.481700277199
 20
-138.182779913371
 10
106.2825737581516
 20
-138.0701252910033
 10
106.0793131245218
 20
-137.9554036113445
 10
106.0555419656736
 20
-137.7834933466305
 10
106.0555419656736
 20
-137.6456895272205
 10
106.0551974561251
 20
-137.4761908293462
 10
106.0992946783363
 20
-137.3221950611556
 10
106.280851210409
 20
-137.2202202347922
 10
106.4730875384859
 20
-137.1134222747494
 10
106.701497369158
 20
-137.0879285681586
 10
106.8751301816146
 20
-137.08758405861
 10
107.0463514272315
 20
-137.0872395490615
 10
107.2771728247432
 20
-137.1096326697157
 10
107.4697536623687
 20
-137.217464158404
 97
        0
 97
        0
 92
        1
 93
        1
 72
     4
 94
        3
 73
     0
 74
     1
 95
       17
 96
       13
 40
0.0
 40
0.0
 40
0.0
 40
0.0
 40
1.0
 40
1.0
 40
1.0
 40
2.0
 40
2.0
 40
2.0
 40
3.0
 40
3.0
 40
3.0
 40
4.0
 40
4.0
 40
4.0
 40
4.0
 10
106.2477782937506
 20
-137.645345017672
 10
106.2484673128476
 20
-137.9119954082304
 10
106.5319986712837
 20
-137.9612602736694
 10
106.8768527293572
 20
-137.9602267450238
 10
107.1962130808398
 20
-137.9598822354753
 10
107.5052381458668
 20
-137.9206081469435
 10
107.5045491267697
 20
-137.6425889412838
 10
107.5038601076727
 20
-137.3780056080166
 10
107.2223958065277
 20
-137.3266736852864
 10
106.8754746911631
 20
-137.3273627043834
 10
106.5561143396804
 20
-137.3280517234805
 10
106.247433784202
 20
-137.3693928693035
 10
106.2477782937506
 20
-137.645345017672
 97
        0
 97
        0
 75
     2
 76
     1
 98
        0
  0
ENDBLK
  5
57
330
54
100
AcDbEntity
  8
0
100
AcDbBlockEnd
  0
BLOCK
  5
5F
330
5D
100
AcDbEntity
  8
0
100
AcDbBlockBegin
  2
block 3
 70
     0
 10
0.0
 20
0.0
 30
0.0
  3
block 3
  1

  0
SPLINE
  5
61
330
5D
100
AcDbEntity
  8
_U+30EC_U+30A4_U+30E4_U+30FC 1
370
     0
100
AcDbSpline
210
0.0
220
0.0
230
1.0
 70
    11
 71
     3
 72
    44
 73
    40
 74
     0
 42
0.0000000001
 43
0.0000000001
 12
1.0
 22
0.0
 32
0.0
 13
1.0
 23
0.0
 33
0.0
 40
0.0
 40
0.0
 40
0.0
 40
0.0
 40
1.0
 40
1.0
 40
1.0
 40
2.0
 40
2.0
 40
2.0
 40
3.0
 40
3.0
 40
3.0
 40
4.0
 40
4.0
 40
4.0
 40
5.0
 40
5.0
 40
5.0
 40
6.0
 40
6.0
 40
6.0
 40
7.0
 40
7.0
 40
7.0
 40
8.0
 40
8.0
 40
8.0
 40
9.0
 40
9.0
 40
9.0
 40
10.0
 40
10.0
 40
10.0
 40
11.0
 40
11.0
 40
11.0
 40
12.0
 40
12.0
 40
12.0
 40
13.0
 40
13.0
 40
13.0
 40
13.0
 10
107.0332600643875
 20
-120.2071329452086
 30
0.0
 10
107.1924234758061
 20
-120.439676890463
 30
0.0
 10
107.2664930287389
 20
-120.5390678952125
 30
0.0
 10
107.4104980200224
 20
-120.5907443274912
 30
0.0
 10
107.4104980200224
 20
-120.5907443274912
 30
0.0
 10
107.4087754722798
 20
-119.7587537678034
 30
0.0
 10
107.4087754722798
 20
-119.7587537678034
 30
0.0
 10
107.4087754722798
 20
-119.7587537678034
 30
0.0
 10
107.6141031632006
 20
-119.7584092582548
 30
0.0
 10
107.6141031632006
 20
-119.7584092582548
 30
0.0
 10
107.6141031632006
 20
-119.7584092582548
 30
0.0
 10
107.6161702204918
 20
-120.857050208501
 30
0.0
 10
107.6161702204918
 20
-120.857050208501
 30
0.0
 10
107.2589138186714
 20
-120.8239772918426
 30
0.0
 10
107.1803656416077
 20
-120.7540418534921
 30
0.0
 10
106.881331353488
 20
-120.343214216876
 30
0.0
 10
106.681860324892
 20
-120.0700181448957
 30
0.0
 10
106.6139919438326
 20
-120.0000827065451
 30
0.0
 10
106.4765326339711
 20
-120.0004272160937
 30
0.0
 10
106.3580213492786
 20
-120.0005994708679
 30
0.0
 10
106.2271077208391
 20
-120.0777696097375
 30
0.0
 10
106.2274522303876
 20
-120.288092689112
 30
0.0
 10
106.2277967399361
 20
-120.5661118947717
 30
0.0
 10
106.4586181374479
 20
-120.5747246334848
 30
0.0
 10
106.5750623648493
 20
-120.5788587480671
 30
0.0
 10
106.5750623648493
 20
-120.5788587480671
 30
0.0
 10
106.5754068743978
 20
-120.8186373938405
 30
0.0
 10
106.5754068743978
 20
-120.8186373938405
 30
0.0
 10
106.4486273605406
 20
-120.8098524003531
 30
0.0
 10
106.3363172477215
 20
-120.7988280948003
 30
0.0
 10
106.2178059630289
 20
-120.7130452172176
 30
0.0
 10
106.0565754943192
 20
-120.5959119707191
 30
0.0
 10
106.0224690490152
 20
-120.3969577064459
 30
0.0
 10
106.0221245394667
 20
-120.2725897594284
 30
0.0
 10
106.0214355203696
 20
-119.9764838024712
 30
0.0
 10
106.2050591097335
 20
-119.7544473984468
 30
0.0
 10
106.4779106721653
 20
-119.753930634124
 30
0.0
 10
106.7063205028373
 20
-119.7534138698012
 30
0.0
 10
106.8062282719096
 20
-119.8776095620445
 30
0.0
 10
107.0332600643875
 20
-120.2071329452086
 30
0.0
  0
HATCH
  5
62
330
5D
100
AcDbEntity
  8
_U+30EC_U+30A4_U+30E4_U+30FC 1
 62
     7
420
 16777215
100
AcDbHatch
 10
0.0
 20
0.0
 30
0.0
210
0.0
220
0.0
230
1.0
  2
SOLID
 70
     1
 71
     0
 91
        1
 92
        1
 93
        1
 72
     4
 94
        3
 73
     0
 74
     1
 95
       44
 96
       40
 40
0.0
 40
0.0
 40
0.0
 40
0.0
 40
1.0
 40
1.0
 40
1.0
 40
2.0
 40
2.0
 40
2.0
 40
3.0
 40
3.0
 40
3.0
 40
4.0
 40
4.0
 40
4.0
 40
5.0
 40
5.0
 40
5.0
 40
6.0
 40
6.0
 40
6.0
 40
7.0
 40
7.0
 40
7.0
 40
8.0
 40
8.0
 40
8.0
 40
9.0
 40
9.0
 40
9.0
 40
10.0
 40
10.0
 40
10.0
 40
11.0
 40
11.0
 40
11.0
 40
12.0
 40
12.0
 40
12.0
 40
13.0
 40
13.0
 40
13.0
 40
13.0
 10
107.0332600643875
 20
-120.2071329452086
 10
107.1924234758061
 20
-120.439676890463
 10
107.2664930287389
 20
-120.5390678952125
 10
107.4104980200224
 20
-120.5907443274912
 10
107.4104980200224
 20
-120.5907443274912
 10
107.4087754722798
 20
-119.7587537678034
 10
107.4087754722798
 20
-119.7587537678034
 10
107.4087754722798
 20
-119.7587537678034
 10
107.6141031632006
 20
-119.7584092582548
 10
107.6141031632006
 20
-119.7584092582548
 10
107.6141031632006
 20
-119.7584092582548
 10
107.6161702204918
 20
-120.857050208501
 10
107.6161702204918
 20
-120.857050208501
 10
107.2589138186714
 20
-120.8239772918426
 10
107.1803656416077
 20
-120.7540418534921
 10
106.881331353488
 20
-120.343214216876
 10
106.681860324892
 20
-120.0700181448957
 10
106.6139919438326
 20
-120.0000827065451
 10
106.4765326339711
 20
-120.0004272160937
 10
106.3580213492786
 20
-120.0005994708679
 10
106.2271077208391
 20
-120.0777696097375
 10
106.2274522303876
 20
-120.288092689112
 10
106.2277967399361
 20
-120.5661118947717
 10
106.4586181374479
 20
-120.5747246334848
 10
106.5750623648493
 20
-120.5788587480671
 10
106.5750623648493
 20
-120.5788587480671
 10
106.5754068743978
 20
-120.8186373938405
 10
106.5754068743978
 20
-120.8186373938405
 10
106.4486273605406
 20
-120.8098524003531
 10
106.3363172477215
 20
-120.7988280948003
 10
106.2178059630289
 20
-120.7130452172176
 10
106.0565754943192
 20
-120.5959119707191
 10
106.0224690490152
 20
-120.3969577064459
 10
106.0221245394667
 20
-120.2725897594284
 10
106.0214355203696
 20
-119.9764838024712
 10
106.2050591097335
 20
-119.7544473984468
 10
106.4779106721653
 20
-119.753930634124
 10
106.7063205028373
 20
-119.7534138698012
 10
106.8062282719096
 20
-119.8776095620445
 10
107.0332600643875
 20
-120.2071329452086
 97
        0
 97
        0
 75
     2
 76
     1
 98
        0
  0
SPLINE
  5
63
330
5D
100
AcDbEntity
  8
_U+30EC_U+30A4_U+30E4_U+30FC 1
370
     0
100
AcDbSpline
210
0.0
220
0.0
230
1.0
 70
    11
 71
     3
 72
    53
 73
    49
 74
     0
 42
0.0000000001
 43
0.0000000001
 12
1.0
 22
0.0
 32
0.0
 13
1.0
 23
0.0
 33
0.0
 40
0.0
 40
0.0
 40
0.0
 40
0.0
 40
1.0
 40
1.0
 40
1.0
 40
2.0
 40
2.0
 40
2.0
 40
3.0
 40
3.0
 40
3.0
 40
4.0
 40
4.0
 40
4.0
 40
5.0
 40
5.0
 40
5.0
 40
6.0
 40
6.0
 40
6.0
 40
7.0
 40
7.0
 40
7.0
 40
8.0
 40
8.0
 40
8.0
 40
9.0
 40
9.0
 40
9.0
 40
10.0
 40
10.0
 40
10.0
 40
11.0
 40
11.0
 40
11.0
 40
12.0
 40
12.0
 40
12.0
 40
13.0
 40
13.0
 40
13.0
 40
14.0
 40
14.0
 40
14.0
 40
15.0
 40
15.0
 40
15.0
 40
16.0
 40
16.0
 40
16.0
 40
16.0
 10
107.6633680286397
 20
-119.0680121230108
 30
0.0
 10
107.6637125381882
 20
-119.1515556885281
 30
0.0
 10
107.6468315703105
 20
-119.2600761963135
 30
0.0
 10
107.5834418133819
 20
-119.3687689588731
 30
0.0
 10
107.473887776951
 20
-119.5544596055281
 30
0.0
 10
107.3429741485115
 20
-119.577369490505
 30
0.0
 10
107.2351426598232
 20
-119.5978678086422
 30
0.0
 10
107.2351426598232
 20
-119.5978678086422
 30
0.0
 10
107.2344536407261
 20
-119.3605007297085
 30
0.0
 10
107.2344536407261
 20
-119.3605007297085
 30
0.0
 10
107.433235650225
 20
-119.3012450873622
 30
0.0
 10
107.4625189618497
 20
-119.1655083252434
 30
0.0
 10
107.4625189618497
 20
-119.0661173204939
 30
0.0
 10
107.4621744523011
 20
-118.9169446859826
 30
0.0
 10
107.3622666832289
 20
-118.7543361790788
 30
0.0
 10
107.1297227379745
 20
-118.7548529434016
 30
0.0
 10
106.8737521434205
 20
-118.7553697077244
 30
0.0
 10
106.8041612146184
 20
-118.9476060358013
 30
0.0
 10
106.8045057241669
 20
-119.0764526069496
 30
0.0
 10
106.8045057241669
 20
-119.1103867974794
 30
0.0
 10
106.8048502337155
 20
-119.2619709988303
 30
0.0
 10
106.9340413144123
 20
-119.3565388699004
 30
0.0
 10
106.9340413144123
 20
-119.3565388699004
 30
0.0
 10
106.915437798792
 20
-119.5442965738466
 30
0.0
 10
106.915437798792
 20
-119.5442965738466
 30
0.0
 10
106.915437798792
 20
-119.5442965738466
 30
0.0
 10
106.0689778380661
 20
-119.4171725504409
 30
0.0
 10
106.0689778380661
 20
-119.4171725504409
 30
0.0
 10
106.0689778380661
 20
-119.4171725504409
 30
0.0
 10
106.0672552903235
 20
-118.585181990753
 30
0.0
 10
106.0672552903235
 20
-118.585181990753
 30
0.0
 10
106.0672552903235
 20
-118.585181990753
 30
0.0
 10
106.2619031852401
 20
-118.5848374812045
 30
0.0
 10
106.2619031852401
 20
-118.5848374812045
 30
0.0
 10
106.2619031852401
 20
-118.5848374812045
 30
0.0
 10
106.2632812234342
 20
-119.2426784641129
 30
0.0
 10
106.2632812234342
 20
-119.2426784641129
 30
0.0
 10
106.2632812234342
 20
-119.2426784641129
 30
0.0
 10
106.6866834585714
 20
-119.3119248833665
 30
0.0
 10
106.6866834585714
 20
-119.3119248833665
 30
0.0
 10
106.6525770132674
 20
-119.2464680691467
 30
0.0
 10
106.61226939609
 20
-119.1582736247243
 30
0.0
 10
106.6119248865415
 20
-119.0316663656414
 30
0.0
 10
106.6112358674444
 20
-118.760365096178
 30
0.0
 10
106.7969265140994
 20
-118.5068060684636
 30
0.0
 10
107.1100856937086
 20
-118.5061170493665
 30
0.0
 10
107.4273789879001
 20
-118.5054280302695
 30
0.0
 10
107.6626790095427
 20
-118.7446899117201
 30
0.0
 10
107.6633680286397
 20
-119.0680121230108
 30
0.0
  0
HATCH
  5
64
330
5D
100
AcDbEntity
  8
_U+30EC_U+30A4_U+30E4_U+30FC 1
 62
     7
420
 16777215
100
AcDbHatch
 10
0.0
 20
0.0
 30
0.0
210
0.0
220
0.0
230
1.0
  2
SOLID
 70
     1
 71
     0
 91
        1
 92
        1
 93
        1
 72
     4
 94
        3
 73
     0
 74
     1
 95
       53
 96
       49
 40
0.0
 40
0.0
 40
0.0
 40
0.0
 40
1.0
 40
1.0
 40
1.0
 40
2.0
 40
2.0
 40
2.0
 40
3.0
 40
3.0
 40
3.0
 40
4.0
 40
4.0
 40
4.0
 40
5.0
 40
5.0
 40
5.0
 40
6.0
 40
6.0
 40
6.0
 40
7.0
 40
7.0
 40
7.0
 40
8.0
 40
8.0
 40
8.0
 40
9.0
 40
9.0
 40
9.0
 40
10.0
 40
10.0
 40
10.0
 40
11.0
 40
11.0
 40
11.0
 40
12.0
 40
12.0
 40
12.0
 40
13.0
 40
13.0
 40
13.0
 40
14.0
 40
14.0
 40
14.0
 40
15.0
 40
15.0
 40
15.0
 40
16.0
 40
16.0
 40
16.0
 40
16.0
 10
107.6633680286397
 20
-119.0680121230108
 10
107.6637125381882
 20
-119.1515556885281
 10
107.6468315703105
 20
-119.2600761963135
 10
107.5834418133819
 20
-119.3687689588731
 10
107.473887776951
 20
-119.5544596055281
 10
107.3429741485115
 20
-119.577369490505
 10
107.2351426598232
 20
-119.5978678086422
 10
107.2351426598232
 20
-119.5978678086422
 10
107.2344536407261
 20
-119.3605007297085
 10
107.2344536407261
 20
-119.3605007297085
 10
107.433235650225
 20
-119.3012450873622
 10
107.4625189618497
 20
-119.1655083252434
 10
107.4625189618497
 20
-119.0661173204939
 10
107.4621744523011
 20
-118.9169446859826
 10
107.3622666832289
 20
-118.7543361790788
 10
107.1297227379745
 20
-118.7548529434016
 10
106.8737521434205
 20
-118.7553697077244
 10
106.8041612146184
 20
-118.9476060358013
 10
106.8045057241669
 20
-119.0764526069496
 10
106.8045057241669
 20
-119.1103867974794
 10
106.8048502337155
 20
-119.2619709988303
 10
106.9340413144123
 20
-119.3565388699004
 10
106.9340413144123
 20
-119.3565388699004
 10
106.915437798792
 20
-119.5442965738466
 10
106.915437798792
 20
-119.5442965738466
 10
106.915437798792
 20
-119.5442965738466
 10
106.0689778380661
 20
-119.4171725504409
 10
106.0689778380661
 20
-119.4171725504409
 10
106.0689778380661
 20
-119.4171725504409
 10
106.0672552903235
 20
-118.585181990753
 10
106.0672552903235
 20
-118.585181990753
 10
106.0672552903235
 20
-118.585181990753
 10
106.2619031852401
 20
-118.5848374812045
 10
106.2619031852401
 20
-118.5848374812045
 10
106.2619031852401
 20
-118.5848374812045
 10
106.2632812234342
 20
-119.2426784641129
 10
106.2632812234342
 20
-119.2426784641129
 10
106.2632812234342
 20
-119.2426784641129
 10
106.6866834585714
 20
-119.3119248833665
 10
106.6866834585714
 20
-119.3119248833665
 10
106.6525770132674
 20
-119.2464680691467
 10
106.61226939609
 20
-119.1582736247243
 10
106.6119248865415
 20
-119.0316663656414
 10
106.6112358674444
 20
-118.760365096178
 10
106.7969265140994
 20
-118.5068060684636
 10
107.1100856937086
 20
-118.5061170493665
 10
107.4273789879001
 20
-118.5054280302695
 10
107.6626790095427
 20
-118.7446899117201
 10
107.6633680286397
 20
-119.0680121230108
 97
        0
 97
        0
 75
     2
 76
     1
 98
        0
  0
ENDBLK
  5
60
330
5D
100
AcDbEntity
  8
0
100
AcDbBlockEnd
  0
BLOCK
  5
67
330
65
100
AcDbEntity
  8
0
100
AcDbBlockBegin
  2
block 4
 70
     0
 10
0.0
 20
0.0
 30
0.0
  3
block 4
  1

  0
SPLINE
  5
69
330
65
100
AcDbEntity
  8
_U+30EC_U+30A4_U+30E4_U+30FC 1
370
     0
100
AcDbSpline
210
0.0
220
0.0
230
1.0
 70
    11
 71
     3
 72
    26
 73
    22
 74
     0
 42
0.0000000001
 43
0.0000000001
 12
1.0
 22
0.0
 32
0.0
 13
1.0
 23
0.0
 33
0.0
 40
0.0
 40
0.0
 40
0.0
 40
0.0
 40
1.0
 40
1.0
 40
1.0
 40
2.0
 40
2.0
 40
2.0
 40
3.0
 40
3.0
 40
3.0
 40
4.0
 40
4.0
 40
4.0
 40
5.0
 40
5.0
 40
5.0
 40
6.0
 40
6.0
 40
6.0
 40
7.0
 40
7.0
 40
7.0
 40
7.0
 10
111.9332193730584
 20
-132.7247151360897
 30
0.0
 10
111.9332193730584
 20
-132.7247151360897
 30
0.0
 10
110.8290662700358
 20
-132.7271267029293
 30
0.0
 10
110.8290662700358
 20
-132.7271267029293
 30
0.0
 10
110.8290662700358
 20
-132.7271267029293
 30
0.0
 10
110.8297552891328
 20
-133.0795599710704
 30
0.0
 10
110.8297552891328
 20
-133.0795599710704
 30
0.0
 10
110.8297552891328
 20
-133.0795599710704
 30
0.0
 10
110.6816161832671
 20
-133.0799044806189
 30
0.0
 10
110.6816161832671
 20
-133.0799044806189
 30
0.0
 10
110.6661132535835
 20
-132.7250596456382
 30
0.0
 10
110.5031602371312
 20
-132.6757947801991
 30
0.0
 10
110.3887830670209
 20
-132.6440999017348
 30
0.0
 10
110.3887830670209
 20
-132.6440999017348
 30
0.0
 10
110.3884385574723
 20
-132.4883815858015
 30
0.0
 10
110.3884385574723
 20
-132.4883815858015
 30
0.0
 10
110.3884385574723
 20
-132.4883815858015
 30
0.0
 10
111.9328748635098
 20
-132.4849364903163
 30
0.0
 10
111.9328748635098
 20
-132.4849364903163
 30
0.0
 10
111.9328748635098
 20
-132.4849364903163
 30
0.0
 10
111.9332193730584
 20
-132.7247151360897
 30
0.0
 10
111.9332193730584
 20
-132.7247151360897
 30
0.0
  0
HATCH
  5
6A
330
65
100
AcDbEntity
  8
_U+30EC_U+30A4_U+30E4_U+30FC 1
 62
     7
420
 16777215
100
AcDbHatch
 10
0.0
 20
0.0
 30
0.0
210
0.0
220
0.0
230
1.0
  2
SOLID
 70
     1
 71
     0
 91
        1
 92
        1
 93
        1
 72
     4
 94
        3
 73
     0
 74
     1
 95
       26
 96
       22
 40
0.0
 40
0.0
 40
0.0
 40
0.0
 40
1.0
 40
1.0
 40
1.0
 40
2.0
 40
2.0
 40
2.0
 40
3.0
 40
3.0
 40
3.0
 40
4.0
 40
4.0
 40
4.0
 40
5.0
 40
5.0
 40
5.0
 40
6.0
 40
6.0
 40
6.0
 40
7.0
 40
7.0
 40
7.0
 40
7.0
 10
111.9332193730584
 20
-132.7247151360897
 10
111.9332193730584
 20
-132.7247151360897
 10
110.8290662700358
 20
-132.7271267029293
 10
110.8290662700358
 20
-132.7271267029293
 10
110.8290662700358
 20
-132.7271267029293
 10
110.8297552891328
 20
-133.0795599710704
 10
110.8297552891328
 20
-133.0795599710704
 10
110.8297552891328
 20
-133.0795599710704
 10
110.6816161832671
 20
-133.0799044806189
 10
110.6816161832671
 20
-133.0799044806189
 10
110.6661132535835
 20
-132.7250596456382
 10
110.5031602371312
 20
-132.6757947801991
 10
110.3887830670209
 20
-132.6440999017348
 10
110.3887830670209
 20
-132.6440999017348
 10
110.3884385574723
 20
-132.4883815858015
 10
110.3884385574723
 20
-132.4883815858015
 10
110.3884385574723
 20
-132.4883815858015
 10
111.9328748635098
 20
-132.4849364903163
 10
111.9328748635098
 20
-132.4849364903163
 10
111.9328748635098
 20
-132.4849364903163
 10
111.9332193730584
 20
-132.7247151360897
 10
111.9332193730584
 20
-132.7247151360897
 97
        0
 97
        0
 75
     2
 76
     1
 98
        0
  0
ENDBLK
  5
68
330
65
100
AcDbEntity
  8
0
100
AcDbBlockEnd
  0
BLOCK
  5
73
330
71
100
AcDbEntity
  8
0
100
AcDbBlockBegin
  2
block 5
 70
     0
 10
0.0
 20
0.0
 30
0.0
  3
block 5
  1

  0
SPLINE
  5
75
330
71
100
AcDbEntity
  8
_U+30EC_U+30A4_U+30E4_U+30FC 1
370
     0
100
AcDbSpline
210
0.0
220
0.0
230
1.0
 70
    11
 71
     3
 72
    44
 73
    40
 74
     0
 42
0.0000000001
 43
0.0000000001
 12
1.0
 22
0.0
 32
0.0
 13
1.0
 23
0.0
 33
0.0
 40
0.0
 40
0.0
 40
0.0
 40
0.0
 40
1.0
 40
1.0
 40
1.0
 40
2.0
 40
2.0
 40
2.0
 40
3.0
 40
3.0
 40
3.0
 40
4.0
 40
4.0
 40
4.0
 40
5.0
 40
5.0
 40
5.0
 40
6.0
 40
6.0
 40
6.0
 40
7.0
 40
7.0
 40
7.0
 40
8.0
 40
8.0
 40
8.0
 40
9.0
 40
9.0
 40
9.0
 40
10.0
 40
10.0
 40
10.0
 40
11.0
 40
11.0
 40
11.0
 40
12.0
 40
12.0
 40
12.0
 40
13.0
 40
13.0
 40
13.0
 40
13.0
 10
87.6697563799923
 20
-142.2800319739786
 30
0.0
 10
87.82891979141083
 20
-142.512575919233
 30
0.0
 10
87.90316159911796
 20
-142.6117946692082
 30
0.0
 10
88.04699433562715
 20
-142.6634711014869
 30
0.0
 10
88.04699433562715
 20
-142.6634711014869
 30
0.0
 10
88.04527178788452
 20
-141.8314805417991
 30
0.0
 10
88.04527178788452
 20
-141.8314805417991
 30
0.0
 10
88.04527178788452
 20
-141.8314805417991
 30
0.0
 10
88.25059947880541
 20
-141.8311360322506
 30
0.0
 10
88.25059947880541
 20
-141.8311360322506
 30
0.0
 10
88.25059947880541
 20
-141.8311360322506
 30
0.0
 10
88.25283879087083
 20
-142.9297769824967
 30
0.0
 10
88.25283879087083
 20
-142.9297769824967
 30
0.0
 10
87.89523787950189
 20
-142.8967040658383
 30
0.0
 10
87.81686195721245
 20
-142.8267686274878
 30
0.0
 10
87.51765541431851
 20
-142.4157687360974
 30
0.0
 10
87.31818438572255
 20
-142.1429171736657
 30
0.0
 10
87.25048825943738
 20
-142.0729817353151
 30
0.0
 10
87.11285669480165
 20
-142.0729817353151
 30
0.0
 10
86.99451766488332
 20
-142.0733262448636
 30
0.0
 10
86.86343178166956
 20
-142.1504963837332
 30
0.0
 10
86.86394854599234
 20
-142.3606472083335
 30
0.0
 10
86.86446531031514
 20
-142.6386664139931
 30
0.0
 10
87.09511445305262
 20
-142.6472791527062
 30
0.0
 10
87.21138642567979
 20
-142.6517577768371
 30
0.0
 10
87.21138642567979
 20
-142.6517577768371
 30
0.0
 10
87.21190319000259
 20
-142.8911919130619
 30
0.0
 10
87.21190319000259
 20
-142.8911919130619
 30
0.0
 10
87.08495142137113
 20
-142.8825791743488
 30
0.0
 10
86.97281356332624
 20
-142.871554868796
 30
0.0
 10
86.85413002385938
 20
-142.7857719912133
 30
0.0
 10
86.69324406469822
 20
-142.6686387447148
 30
0.0
 10
86.65896536461999
 20
-142.4698567352159
 30
0.0
 10
86.65862085507146
 20
-142.3454887881984
 30
0.0
 10
86.65810409074868
 20
-142.0492105764669
 30
0.0
 10
86.84155542533823
 20
-141.8273464272168
 30
0.0
 10
87.11457924254428
 20
-141.8266574081197
 30
0.0
 10
87.34298907321634
 20
-141.8263128985712
 30
0.0
 10
87.44272458751432
 20
-141.9503363360402
 30
0.0
 10
87.6697563799923
 20
-142.2800319739786
 30
0.0
  0
HATCH
  5
76
330
71
100
AcDbEntity
  8
_U+30EC_U+30A4_U+30E4_U+30FC 1
 62
     7
420
 16777215
100
AcDbHatch
 10
0.0
 20
0.0
 30
0.0
210
0.0
220
0.0
230
1.0
  2
SOLID
 70
     1
 71
     0
 91
        1
 92
        1
 93
        1
 72
     4
 94
        3
 73
     0
 74
     1
 95
       44
 96
       40
 40
0.0
 40
0.0
 40
0.0
 40
0.0
 40
1.0
 40
1.0
 40
1.0
 40
2.0
 40
2.0
 40
2.0
 40
3.0
 40
3.0
 40
3.0
 40
4.0
 40
4.0
 40
4.0
 40
5.0
 40
5.0
 40
5.0
 40
6.0
 40
6.0
 40
6.0
 40
7.0
 40
7.0
 40
7.0
 40
8.0
 40
8.0
 40
8.0
 40
9.0
 40
9.0
 40
9.0
 40
10.0
 40
10.0
 40
10.0
 40
11.0
 40
11.0
 40
11.0
 40
12.0
 40
12.0
 40
12.0
 40
13.0
 40
13.0
 40
13.0
 40
13.0
 10
87.6697563799923
 20
-142.2800319739786
 10
87.82891979141083
 20
-142.512575919233
 10
87.90316159911796
 20
-142.6117946692082
 10
88.04699433562715
 20
-142.6634711014869
 10
88.04699433562715
 20
-142.6634711014869
 10
88.04527178788452
 20
-141.8314805417991
 10
88.04527178788452
 20
-141.8314805417991
 10
88.04527178788452
 20
-141.8314805417991
 10
88.25059947880541
 20
-141.8311360322506
 10
88.25059947880541
 20
-141.8311360322506
 10
88.25059947880541
 20
-141.8311360322506
 10
88.25283879087083
 20
-142.9297769824967
 10
88.25283879087083
 20
-142.9297769824967
 10
87.89523787950189
 20
-142.8967040658383
 10
87.81686195721245
 20
-142.8267686274878
 10
87.51765541431851
 20
-142.4157687360974
 10
87.31818438572255
 20
-142.1429171736657
 10
87.25048825943738
 20
-142.0729817353151
 10
87.11285669480165
 20
-142.0729817353151
 10
86.99451766488332
 20
-142.0733262448636
 10
86.86343178166956
 20
-142.1504963837332
 10
86.86394854599234
 20
-142.3606472083335
 10
86.86446531031514
 20
-142.6386664139931
 10
87.09511445305262
 20
-142.6472791527062
 10
87.21138642567979
 20
-142.6517577768371
 10
87.21138642567979
 20
-142.6517577768371
 10
87.21190319000259
 20
-142.8911919130619
 10
87.21190319000259
 20
-142.8911919130619
 10
87.08495142137113
 20
-142.8825791743488
 10
86.97281356332624
 20
-142.871554868796
 10
86.85413002385938
 20
-142.7857719912133
 10
86.69324406469822
 20
-142.6686387447148
 10
86.65896536461999
 20
-142.4698567352159
 10
86.65862085507146
 20
-142.3454887881984
 10
86.65810409074868
 20
-142.0492105764669
 10
86.84155542533823
 20
-141.8273464272168
 10
87.11457924254428
 20
-141.8266574081197
 10
87.34298907321634
 20
-141.8263128985712
 10
87.44272458751432
 20
-141.9503363360402
 10
87.6697563799923
 20
-142.2800319739786
 97
        0
 97
        0
 75
     2
 76
     1
 98
        0
  0
ENDBLK
  5
74
330
71
100
AcDbEntity
  8
0
100
AcDbBlockEnd
  0
BLOCK
  5
94
330
92
100
AcDbEntity
  8
0
100
AcDbBlockBegin
  2
block 6
 70
     0
 10
0.0
 20
0.0
 30
0.0
  3
block 6
  1

  0
SPLINE
  5
96
330
92
100
AcDbEntity
  8
_U+30EC_U+30A4_U+30E4_U+30FC 1
370
     0
100
AcDbSpline
210
0.0
220
0.0
230
1.0
 70
    11
 71
     3
 72
    44
 73
    40
 74
     0
 42
0.0000000001
 43
0.0000000001
 12
1.0
 22
0.0
 32
0.0
 13
1.0
 23
0.0
 33
0.0
 40
0.0
 40
0.0
 40
0.0
 40
0.0
 40
1.0
 40
1.0
 40
1.0
 40
2.0
 40
2.0
 40
2.0
 40
3.0
 40
3.0
 40
3.0
 40
4.0
 40
4.0
 40
4.0
 40
5.0
 40
5.0
 40
5.0
 40
6.0
 40
6.0
 40
6.0
 40
7.0
 40
7.0
 40
7.0
 40
8.0
 40
8.0
 40
8.0
 40
9.0
 40
9.0
 40
9.0
 40
10.0
 40
10.0
 40
10.0
 40
11.0
 40
11.0
 40
11.0
 40
12.0
 40
12.0
 40
12.0
 40
13.0
 40
13.0
 40
13.0
 40
13.0
 10
80.14067245175303
 20
-147.0849066472566
 30
0.0
 10
79.90812850649867
 20
-147.2440700586751
 30
0.0
 10
79.8087375017492
 20
-147.318139611608
 30
0.0
 10
79.75706106947047
 20
-147.4621446028914
 30
0.0
 10
79.75706106947047
 20
-147.4621446028914
 30
0.0
 10
80.58905162915829
 20
-147.4604220551488
 30
0.0
 10
80.58905162915829
 20
-147.4604220551488
 30
0.0
 10
80.58905162915829
 20
-147.4604220551488
 30
0.0
 10
80.58939613870682
 20
-147.6657497460697
 30
0.0
 10
80.58939613870682
 20
-147.6657497460697
 30
0.0
 10
80.58939613870682
 20
-147.6657497460697
 30
0.0
 10
79.49075518846065
 20
-147.6681613129093
 30
0.0
 10
79.49075518846065
 20
-147.6681613129093
 30
0.0
 10
79.52382810511905
 20
-147.3105604015404
 30
0.0
 10
79.59376354346962
 20
-147.2320122244767
 30
0.0
 10
80.00459118008565
 20
-146.932977936357
 30
0.0
 10
80.27778725206598
 20
-146.7335069077611
 30
0.0
 10
80.34772269041655
 20
-146.6656385267017
 30
0.0
 10
80.34737818086802
 20
-146.5281792168402
 30
0.0
 10
80.34720592609376
 20
-146.4096679321476
 30
0.0
 10
80.27003578722416
 20
-146.2787543037081
 30
0.0
 10
80.05971270784966
 20
-146.2790988132566
 30
0.0
 10
79.78169350219
 20
-146.2797878323537
 30
0.0
 10
79.77308076347687
 20
-146.5102647203169
 30
0.0
 10
79.76894664889457
 20
-146.6267089477183
 30
0.0
 10
79.76894664889457
 20
-146.6267089477183
 30
0.0
 10
79.52916800312119
 20
-146.6270534572669
 30
0.0
 10
79.52916800312119
 20
-146.6270534572669
 30
0.0
 10
79.53795299660857
 20
-146.5002739434097
 30
0.0
 10
79.54897730216138
 20
-146.3879638305905
 30
0.0
 10
79.63476017974409
 20
-146.2694525458979
 30
0.0
 10
79.75189342624259
 20
-146.1082220771882
 30
0.0
 10
79.95084769051576
 20
-146.0741156318843
 30
0.0
 10
80.07521563753328
 20
-146.0737711223357
 30
0.0
 10
80.37132159449051
 20
-146.0730821032387
 30
0.0
 10
80.59335799851486
 20
-146.2567056926025
 30
0.0
 10
80.59387476283764
 20
-146.5295572550343
 30
0.0
 10
80.59439152716044
 20
-146.7579670857064
 30
0.0
 10
80.47019583491718
 20
-146.8578748547786
 30
0.0
 10
80.14067245175303
 20
-147.0849066472566
 30
0.0
  0
HATCH
  5
97
330
92
100
AcDbEntity
  8
_U+30EC_U+30A4_U+30E4_U+30FC 1
 62
     7
420
 16777215
100
AcDbHatch
 10
0.0
 20
0.0
 30
0.0
210
0.0
220
0.0
230
1.0
  2
SOLID
 70
     1
 71
     0
 91
        1
 92
        1
 93
        1
 72
     4
 94
        3
 73
     0
 74
     1
 95
       44
 96
       40
 40
0.0
 40
0.0
 40
0.0
 40
0.0
 40
1.0
 40
1.0
 40
1.0
 40
2.0
 40
2.0
 40
2.0
 40
3.0
 40
3.0
 40
3.0
 40
4.0
 40
4.0
 40
4.0
 40
5.0
 40
5.0
 40
5.0
 40
6.0
 40
6.0
 40
6.0
 40
7.0
 40
7.0
 40
7.0
 40
8.0
 40
8.0
 40
8.0
 40
9.0
 40
9.0
 40
9.0
 40
10.0
 40
10.0
 40
10.0
 40
11.0
 40
11.0
 40
11.0
 40
12.0
 40
12.0
 40
12.0
 40
13.0
 40
13.0
 40
13.0
 40
13.0
 10
80.14067245175303
 20
-147.0849066472566
 10
79.90812850649867
 20
-147.2440700586751
 10
79.8087375017492
 20
-147.318139611608
 10
79.75706106947047
 20
-147.4621446028914
 10
79.75706106947047
 20
-147.4621446028914
 10
80.58905162915829
 20
-147.4604220551488
 10
80.58905162915829
 20
-147.4604220551488
 10
80.58905162915829
 20
-147.4604220551488
 10
80.58939613870682
 20
-147.6657497460697
 10
80.58939613870682
 20
-147.6657497460697
 10
80.58939613870682
 20
-147.6657497460697
 10
79.49075518846065
 20
-147.6681613129093
 10
79.49075518846065
 20
-147.6681613129093
 10
79.52382810511905
 20
-147.3105604015404
 10
79.59376354346962
 20
-147.2320122244767
 10
80.00459118008565
 20
-146.932977936357
 10
80.27778725206598
 20
-146.7335069077611
 10
80.34772269041655
 20
-146.6656385267017
 10
80.34737818086802
 20
-146.5281792168402
 10
80.34720592609376
 20
-146.4096679321476
 10
80.27003578722416
 20
-146.2787543037081
 10
80.05971270784966
 20
-146.2790988132566
 10
79.78169350219
 20
-146.2797878323537
 10
79.77308076347687
 20
-146.5102647203169
 10
79.76894664889457
 20
-146.6267089477183
 10
79.76894664889457
 20
-146.6267089477183
 10
79.52916800312119
 20
-146.6270534572669
 10
79.52916800312119
 20
-146.6270534572669
 10
79.53795299660857
 20
-146.5002739434097
 10
79.54897730216138
 20
-146.3879638305905
 10
79.63476017974409
 20
-146.2694525458979
 10
79.75189342624259
 20
-146.1082220771882
 10
79.95084769051576
 20
-146.0741156318843
 10
80.07521563753328
 20
-146.0737711223357
 10
80.37132159449051
 20
-146.0730821032387
 10
80.59335799851486
 20
-146.2567056926025
 10
80.59387476283764
 20
-146.5295572550343
 10
80.59439152716044
 20
-146.7579670857064
 10
80.47019583491718
 20
-146.8578748547786
 10
80.14067245175303
 20
-147.0849066472566
 97
        0
 97
        0
 75
     2
 76
     1
 98
        0
  0
ENDBLK
  5
95
330
92
100
AcDbEntity
  8
0
100
AcDbBlockEnd
  0
BLOCK
  5
9A
330
98
100
AcDbEntity
  8
0
100
AcDbBlockBegin
  2
block 7
 70
     0
 10
0.0
 20
0.0
 30
0.0
  3
block 7
  1

  0
SPLINE
  5
9C
330
98
100
AcDbEntity
  8
_U+30EC_U+30A4_U+30E4_U+30FC 1
370
     0
100
AcDbSpline
210
0.0
220
0.0
230
1.0
 70
    11
 71
     3
 72
    26
 73
    22
 74
     0
 42
0.0000000001
 43
0.0000000001
 12
1.0
 22
0.0
 32
0.0
 13
1.0
 23
0.0
 33
0.0
 40
0.0
 40
0.0
 40
0.0
 40
0.0
 40
1.0
 40
1.0
 40
1.0
 40
2.0
 40
2.0
 40
2.0
 40
3.0
 40
3.0
 40
3.0
 40
4.0
 40
4.0
 40
4.0
 40
5.0
 40
5.0
 40
5.0
 40
6.0
 40
6.0
 40
6.0
 40
7.0
 40
7.0
 40
7.0
 40
7.0
 10
73.33712563270738
 20
-147.6740179752343
 30
0.0
 10
73.33712563270738
 20
-147.6740179752343
 30
0.0
 10
73.33488632064197
 20
-146.5695203626632
 30
0.0
 10
73.33488632064197
 20
-146.5695203626632
 30
0.0
 10
73.33488632064197
 20
-146.5695203626632
 30
0.0
 10
72.98210854295239
 20
-146.5702093817602
 30
0.0
 10
72.98210854295239
 20
-146.5702093817602
 30
0.0
 10
72.98210854295239
 20
-146.5702093817602
 30
0.0
 10
72.98193628817813
 20
-146.4220702758945
 30
0.0
 10
72.98193628817813
 20
-146.4220702758945
 30
0.0
 10
73.33678112315886
 20
-146.4065673462109
 30
0.0
 10
73.3862182433722
 20
-146.2436143297585
 30
0.0
 10
73.41756861228797
 20
-146.1292371596483
 30
0.0
 10
73.41756861228797
 20
-146.1292371596483
 30
0.0
 10
73.57363143776979
 20
-146.1288926500997
 30
0.0
 10
73.57363143776979
 20
-146.1288926500997
 30
0.0
 10
73.57363143776979
 20
-146.1288926500997
 30
0.0
 10
73.57690427848078
 20
-147.6733289561372
 30
0.0
 10
73.57690427848078
 20
-147.6733289561372
 30
0.0
 10
73.57690427848078
 20
-147.6733289561372
 30
0.0
 10
73.33712563270738
 20
-147.6740179752343
 30
0.0
 10
73.33712563270738
 20
-147.6740179752343
 30
0.0
  0
HATCH
  5
9D
330
98
100
AcDbEntity
  8
_U+30EC_U+30A4_U+30E4_U+30FC 1
 62
     7
420
 16777215
100
AcDbHatch
 10
0.0
 20
0.0
 30
0.0
210
0.0
220
0.0
230
1.0
  2
SOLID
 70
     1
 71
     0
 91
        1
 92
        1
 93
        1
 72
     4
 94
        3
 73
     0
 74
     1
 95
       26
 96
       22
 40
0.0
 40
0.0
 40
0.0
 40
0.0
 40
1.0
 40
1.0
 40
1.0
 40
2.0
 40
2.0
 40
2.0
 40
3.0
 40
3.0
 40
3.0
 40
4.0
 40
4.0
 40
4.0
 40
5.0
 40
5.0
 40
5.0
 40
6.0
 40
6.0
 40
6.0
 40
7.0
 40
7.0
 40
7.0
 40
7.0
 10
73.33712563270738
 20
-147.6740179752343
 10
73.33712563270738
 20
-147.6740179752343
 10
73.33488632064197
 20
-146.5695203626632
 10
73.33488632064197
 20
-146.5695203626632
 10
73.33488632064197
 20
-146.5695203626632
 10
72.98210854295239
 20
-146.5702093817602
 10
72.98210854295239
 20
-146.5702093817602
 10
72.98210854295239
 20
-146.5702093817602
 10
72.98193628817813
 20
-146.4220702758945
 10
72.98193628817813
 20
-146.4220702758945
 10
73.33678112315886
 20
-146.4065673462109
 10
73.3862182433722
 20
-146.2436143297585
 10
73.41756861228797
 20
-146.1292371596483
 10
73.41756861228797
 20
-146.1292371596483
 10
73.57363143776979
 20
-146.1288926500997
 10
73.57363143776979
 20
-146.1288926500997
 10
73.57363143776979
 20
-146.1288926500997
 10
73.57690427848078
 20
-147.6733289561372
 10
73.57690427848078
 20
-147.6733289561372
 10
73.57690427848078
 20
-147.6733289561372
 10
73.33712563270738
 20
-147.6740179752343
 10
73.33712563270738
 20
-147.6740179752343
 97
        0
 97
        0
 75
     2
 76
     1
 98
        0
  0
SPLINE
  5
9E
330
98
100
AcDbEntity
  8
_U+30EC_U+30A4_U+30E4_U+30FC 1
370
     0
100
AcDbSpline
210
0.0
220
0.0
230
1.0
 70
    11
 71
     3
 72
    29
 73
    25
 74
     0
 42
0.0000000001
 43
0.0000000001
 12
1.0
 22
0.0
 32
0.0
 13
1.0
 23
0.0
 33
0.0
 40
0.0
 40
0.0
 40
0.0
 40
0.0
 40
1.0
 40
1.0
 40
1.0
 40
2.0
 40
2.0
 40
2.0
 40
3.0
 40
3.0
 40
3.0
 40
4.0
 40
4.0
 40
4.0
 40
5.0
 40
5.0
 40
5.0
 40
6.0
 40
6.0
 40
6.0
 40
7.0
 40
7.0
 40
7.0
 40
8.0
 40
8.0
 40
8.0
 40
8.0
 10
75.07155895475641
 20
-147.4924614431616
 30
0.0
 10
74.95666502032334
 20
-147.7022677582133
 30
0.0
 10
74.77131888321689
 20
-147.7215602929307
 30
0.0
 10
74.64712319097364
 20
-147.7219048024793
 30
0.0
 10
74.47521292625967
 20
-147.7222493120278
 30
0.0
 10
74.32362872490867
 20
-147.6760850325254
 30
0.0
 10
74.22148164377103
 20
-147.4941839909042
 30
0.0
 10
74.11037731437172
 20
-147.2998806055361
 30
0.0
 10
74.08953448668595
 20
-147.062858036151
 30
0.0
 10
74.08918997713742
 20
-146.9002495292472
 30
0.0
 10
74.0888454675889
 20
-146.7562445379637
 30
0.0
 10
74.10641545456367
 20
-146.504408057992
 30
0.0
 10
74.21907007693135
 20
-146.3052815389445
 30
0.0
 10
74.33396401136443
 20
-146.1020209053148
 30
0.0
 10
74.50570202130413
 20
-146.0785942560151
 30
0.0
 10
74.64367809548838
 20
-146.0782497464666
 30
0.0
 10
74.81317679336269
 20
-146.077905236918
 30
0.0
 10
74.96700030677908
 20
-146.1220024591292
 30
0.0
 10
75.06914738791674
 20
-146.3035589912019
 30
0.0
 10
75.17577309318523
 20
-146.4957953192788
 30
0.0
 10
75.20109454500181
 20
-146.7242051499509
 30
0.0
 10
75.20143905455033
 20
-146.8978379624075
 30
0.0
 10
75.20178356409886
 20
-147.0690592080244
 30
0.0
 10
75.17973495299326
 20
-147.2998806055361
 30
0.0
 10
75.07155895475641
 20
-147.4924614431616
 30
0.0
  0
SPLINE
  5
9F
330
98
100
AcDbEntity
  8
_U+30EC_U+30A4_U+30E4_U+30FC 1
370
     0
100
AcDbSpline
210
0.0
220
0.0
230
1.0
 70
    11
 71
     3
 72
    17
 73
    13
 74
     0
 42
0.0000000001
 43
0.0000000001
 12
1.0
 22
0.0
 32
0.0
 13
1.0
 23
0.0
 33
0.0
 40
0.0
 40
0.0
 40
0.0
 40
0.0
 40
1.0
 40
1.0
 40
1.0
 40
2.0
 40
2.0
 40
2.0
 40
3.0
 40
3.0
 40
3.0
 40
4.0
 40
4.0
 40
4.0
 40
4.0
 10
74.64402260503691
 20
-146.2704860745435
 30
0.0
 10
74.37719995970431
 20
-146.2711750936406
 30
0.0
 10
74.3281073490395
 20
-146.5547064520766
 30
0.0
 10
74.32879636813655
 20
-146.8995605101501
 30
0.0
 10
74.3294853872336
 20
-147.2189208616328
 30
0.0
 10
74.36858722099119
 20
-147.5279459266597
 30
0.0
 10
74.64660642665085
 20
-147.5272569075626
 30
0.0
 10
74.91118975991805
 20
-147.5265678884656
 30
0.0
 10
74.96252168264826
 20
-147.2451035873207
 30
0.0
 10
74.9618326635512
 20
-146.898182471956
 30
0.0
 10
74.96114364445417
 20
-146.5788221204733
 30
0.0
 10
74.91980249863117
 20
-146.270141564995
 30
0.0
 10
74.64402260503691
 20
-146.2704860745435
 30
0.0
  0
HATCH
  5
A0
330
98
100
AcDbEntity
  8
_U+30EC_U+30A4_U+30E4_U+30FC 1
 62
     7
420
 16777215
100
AcDbHatch
 10
0.0
 20
0.0
 30
0.0
210
0.0
220
0.0
230
1.0
  2
SOLID
 70
     1
 71
     0
 91
        2
 92
        1
 93
        1
 72
     4
 94
        3
 73
     0
 74
     1
 95
       29
 96
       25
 40
0.0
 40
0.0
 40
0.0
 40
0.0
 40
1.0
 40
1.0
 40
1.0
 40
2.0
 40
2.0
 40
2.0
 40
3.0
 40
3.0
 40
3.0
 40
4.0
 40
4.0
 40
4.0
 40
5.0
 40
5.0
 40
5.0
 40
6.0
 40
6.0
 40
6.0
 40
7.0
 40
7.0
 40
7.0
 40
8.0
 40
8.0
 40
8.0
 40
8.0
 10
75.07155895475641
 20
-147.4924614431616
 10
74.95666502032334
 20
-147.7022677582133
 10
74.77131888321689
 20
-147.7215602929307
 10
74.64712319097364
 20
-147.7219048024793
 10
74.47521292625967
 20
-147.7222493120278
 10
74.32362872490867
 20
-147.6760850325254
 10
74.22148164377103
 20
-147.4941839909042
 10
74.11037731437172
 20
-147.2998806055361
 10
74.08953448668595
 20
-147.062858036151
 10
74.08918997713742
 20
-146.9002495292472
 10
74.0888454675889
 20
-146.7562445379637
 10
74.10641545456367
 20
-146.504408057992
 10
74.21907007693135
 20
-146.3052815389445
 10
74.33396401136443
 20
-146.1020209053148
 10
74.50570202130413
 20
-146.0785942560151
 10
74.64367809548838
 20
-146.0782497464666
 10
74.81317679336269
 20
-146.077905236918
 10
74.96700030677908
 20
-146.1220024591292
 10
75.06914738791674
 20
-146.3035589912019
 10
75.17577309318523
 20
-146.4957953192788
 10
75.20109454500181
 20
-146.7242051499509
 10
75.20143905455033
 20
-146.8978379624075
 10
75.20178356409886
 20
-147.0690592080244
 10
75.17973495299326
 20
-147.2998806055361
 10
75.07155895475641
 20
-147.4924614431616
 97
        0
 97
        0
 92
        1
 93
        1
 72
     4
 94
        3
 73
     0
 74
     1
 95
       17
 96
       13
 40
0.0
 40
0.0
 40
0.0
 40
0.0
 40
1.0
 40
1.0
 40
1.0
 40
2.0
 40
2.0
 40
2.0
 40
3.0
 40
3.0
 40
3.0
 40
4.0
 40
4.0
 40
4.0
 40
4.0
 10
74.64402260503691
 20
-146.2704860745435
 10
74.37719995970431
 20
-146.2711750936406
 10
74.3281073490395
 20
-146.5547064520766
 10
74.32879636813655
 20
-146.8995605101501
 10
74.3294853872336
 20
-147.2189208616328
 10
74.36858722099119
 20
-147.5279459266597
 10
74.64660642665085
 20
-147.5272569075626
 10
74.91118975991805
 20
-147.5265678884656
 10
74.96252168264826
 20
-147.2451035873207
 10
74.9618326635512
 20
-146.898182471956
 10
74.96114364445417
 20
-146.5788221204733
 10
74.91980249863117
 20
-146.270141564995
 10
74.64402260503691
 20
-146.2704860745435
 97
        0
 97
        0
 75
     2
 76
     1
 98
        0
  0
ENDBLK
  5
9B
330
98
100
AcDbEntity
  8
0
100
AcDbBlockEnd
  0
ENDSEC
  0
SECTION
  2
ENTITIES
  0
POLYLINE
  5
41
330
1F
100
AcDbEntity
  8
_U+30EC_U+30A4_U+30E4_U+30FC 1
370
     0
100
AcDb2dPolyline
 66
     1
 10
0.0
 20
0.0
 30
0.0
  0
VERTEX
  5
42
330
41
100
AcDbEntity
  8
_U+30EC_U+30A4_U+30E4_U+30FC 1
370
     0
100
AcDbVertex
100
AcDb2dVertex
 10
69.0125055383025
 20
-131.157874133877
 30
0.0
  0
VERTEX
  5
43
330
41
100
AcDbEntity
  8
_U+30EC_U+30A4_U+30E4_U+30FC 1
370
     0
100
AcDbVertex
100
AcDb2dVertex
 10
69.0125055383025
 20
-133.2159796889183
 30
0.0
  0
VERTEX
  5
44
330
41
100
AcDbEntity
  8
_U+30EC_U+30A4_U+30E4_U+30FC 1
370
     0
100
AcDbVertex
100
AcDb2dVertex
 10
78.98122742946546
 20
-133.2452602444667
 30
0.0
  0
VERTEX
  5
45
330
41
100
AcDbEntity
  8
_U+30EC_U+30A4_U+30E4_U+30FC 1
370
     0
100
AcDbVertex
100
AcDb2dVertex
 10
78.98122742946546
 20
-143.3779905197114
 30
0.0
  0
VERTEX
  5
46
330
41
100
AcDbEntity
  8
_U+30EC_U+30A4_U+30E4_U+30FC 1
370
     0
100
AcDbVertex
100
AcDb2dVertex
 10
81.03862737697682
 20
-143.3779905197114
 30
0.0
  0
VERTEX
  5
47
330
41
100
AcDbEntity
  8
_U+30EC_U+30A4_U+30E4_U+30FC 1
370
     0
100
AcDbVertex
100
AcDb2dVertex
 10
81.00969959993705
 20
-141.3770702424334
 30
0.0
  0
VERTEX
  5
48
330
41
100
AcDbEntity
  8
_U+30EC_U+30A4_U+30E4_U+30FC 1
370
     0
100
AcDbVertex
100
AcDb2dVertex
 10
80.00992740322114
 20
-141.3770702424334
 30
0.0
  0
VERTEX
  5
49
330
41
100
AcDbEntity
  8
_U+30EC_U+30A4_U+30E4_U+30FC 1
370
     0
100
AcDbVertex
100
AcDb2dVertex
 10
80.03956073579846
 20
-133.2159796889183
 30
0.0
  0
VERTEX
  5
4A
330
41
100
AcDbEntity
  8
_U+30EC_U+30A4_U+30E4_U+30FC 1
370
     0
100
AcDbVertex
100
AcDb2dVertex
 10
104.9985878768184
 20
-133.2159796889183
 30
0.0
  0
VERTEX
  5
4B
330
41
100
AcDbEntity
  8
_U+30EC_U+30A4_U+30E4_U+30FC 1
370
     0
100
AcDbVertex
100
AcDb2dVertex
 10
104.9985878768184
 20
-132.2162074669457
 30
0.0
  0
VERTEX
  5
4C
330
41
100
AcDbEntity
  8
_U+30EC_U+30A4_U+30E4_U+30FC 1
370
     0
100
AcDbVertex
100
AcDb2dVertex
 10
80.03956073579846
 20
-132.1576463558495
 30
0.0
  0
VERTEX
  5
4D
330
41
100
AcDbEntity
  8
_U+30EC_U+30A4_U+30E4_U+30FC 1
370
     0
100
AcDbVertex
100
AcDb2dVertex
 10
79.98029407064382
 20
-107.4042880287044
 30
0.0
  0
VERTEX
  5
4E
330
41
100
AcDbEntity
  8
_U+30EC_U+30A4_U+30E4_U+30FC 1
370
     0
100
AcDbVertex
100
AcDb2dVertex
 10
79.06942187165988
 20
-107.3750074731563
 30
0.0
  0
VERTEX
  5
4F
330
41
100
AcDbEntity
  8
_U+30EC_U+30A4_U+30E4_U+30FC 1
370
     0
100
AcDbVertex
100
AcDb2dVertex
 10
79.01015520650523
 20
-132.1576463558495
 30
0.0
  0
VERTEX
  5
50
330
41
100
AcDbEntity
  8
_U+30EC_U+30A4_U+30E4_U+30FC 1
370
     0
100
AcDbVertex
100
AcDb2dVertex
 10
71.01236568832361
 20
-132.1576463558495
 30
0.0
  0
VERTEX
  5
51
330
41
100
AcDbEntity
  8
_U+30EC_U+30A4_U+30E4_U+30FC 1
370
     0
100
AcDbVertex
100
AcDb2dVertex
 10
71.01236568832361
 20
-131.2167880227516
 30
0.0
  0
VERTEX
  5
52
330
41
100
AcDbEntity
  8
_U+30EC_U+30A4_U+30E4_U+30FC 1
370
     0
100
AcDbVertex
100
AcDb2dVertex
 10
69.0125055383025
 20
-131.157874133877
 30
0.0
  0
SEQEND
  5
53
330
41
100
AcDbEntity
  8
_U+30EC_U+30A4_U+30E4_U+30FC 1
370
     0
  0
INSERT
  5
55
330
1F
100
AcDbEntity
  8
_U+30EC_U+30A4_U+30E4_U+30FC 1
100
AcDbBlockReference
  2
block 2
 10
0.0
 20
0.0
 30
0.0
  0
INSERT
  5
5E
330
1F
100
AcDbEntity
  8
_U+30EC_U+30A4_U+30E4_U+30FC 1
100
AcDbBlockReference
  2
block 3
 10
0.0
 20
0.0
 30
0.0
  0
INSERT
  5
66
330
1F
100
AcDbEntity
  8
_U+30EC_U+30A4_U+30E4_U+30FC 1
100
AcDbBlockReference
  2
block 4
 10
0.0
 20
0.0
 30
0.0
  0
SPLINE
  5
6B
330
1F
100
AcDbEntity
  8
_U+30EC_U+30A4_U+30E4_U+30FC 1
 62
     7
420
 16777215
370
     9
100
AcDbSpline
210
0.0
220
0.0
230
1.0
 70
    11
 71
     3
 72
    17
 73
    13
 74
     0
 42
0.0000000001
 43
0.0000000001
 12
1.0
 22
0.0
 32
0.0
 13
1.0
 23
0.0
 33
0.0
 40
0.0
 40
0.0
 40
0.0
 40
0.0
 40
1.0
 40
1.0
 40
1.0
 40
2.0
 40
2.0
 40
2.0
 40
3.0
 40
3.0
 40
3.0
 40
4.0
 40
4.0
 40
4.0
 40
4.0
 10
108.914279999143
 20
-143.3748860752672
 30
0.0
 10
108.914279999143
 20
-143.4306955196977
 30
0.0
 10
108.8694772225082
 20
-143.4747927419089
 30
0.0
 10
108.8143733350252
 20
-143.4747927419089
 30
0.0
 10
108.7592341697652
 20
-143.4747927419089
 30
0.0
 10
108.7144694172656
 20
-143.4313657974756
 30
0.0
 10
108.7144694172656
 20
-143.3755563530452
 30
0.0
 10
108.7144694172656
 20
-143.3204524641696
 30
0.0
 10
108.7592341697652
 20
-143.2749794086256
 30
0.0
 10
108.8143733350252
 20
-143.2749794086256
 30
0.0
 10
108.8694772225082
 20
-143.2749794086256
 30
0.0
 10
108.914279999143
 20
-143.3197469086148
 30
0.0
 10
108.914279999143
 20
-143.3748860752672
 30
0.0
  0
SPLINE
  5
6C
330
1F
100
AcDbEntity
  8
_U+30EC_U+30A4_U+30E4_U+30FC 1
 62
     7
420
 16777215
370
     9
100
AcDbSpline
210
0.0
220
0.0
230
1.0
 70
    11
 71
     3
 72
    17
 73
    13
 74
     0
 42
0.0000000001
 43
0.0000000001
 12
1.0
 22
0.0
 32
0.0
 13
1.0
 23
0.0
 33
0.0
 40
0.0
 40
0.0
 40
0.0
 40
0.0
 40
1.0
 40
1.0
 40
1.0
 40
2.0
 40
2.0
 40
2.0
 40
3.0
 40
3.0
 40
3.0
 40
4.0
 40
4.0
 40
4.0
 40
4.0
 10
108.914279999143
 20
-133.1739638555955
 30
0.0
 10
108.914279999143
 20
-133.2290677444704
 30
0.0
 10
108.8694772225082
 20
-133.2738705222371
 30
0.0
 10
108.8143733350252
 20
-133.2738705222371
 30
0.0
 10
108.7592341697652
 20
-133.2742233000149
 30
0.0
 10
108.7144694172656
 20
-133.2294205222481
 30
0.0
 10
108.7144694172656
 20
-133.1743166333732
 30
0.0
 10
108.7144694172656
 20
-133.1185071889428
 30
0.0
 10
108.7592341697652
 20
-133.0744099667316
 30
0.0
 10
108.8143733350252
 20
-133.0740571889538
 30
0.0
 10
108.8694772225082
 20
-133.0740571889538
 30
0.0
 10
108.914279999143
 20
-133.118154411165
 30
0.0
 10
108.914279999143
 20
-133.1739638555955
 30
0.0
  0
POLYLINE
  5
6D
330
1F
100
AcDbEntity
  8
_U+30EC_U+30A4_U+30E4_U+30FC 1
 62
     7
420
 16777215
370
     9
100
AcDb2dPolyline
 66
     1
 10
0.0
 20
0.0
 30
0.0
  0
VERTEX
  5
6E
330
6D
100
AcDbEntity
  8
_U+30EC_U+30A4_U+30E4_U+30FC 1
 62
     7
420
 16777215
370
     9
100
AcDbVertex
100
AcDb2dVertex
 10
90.48026574721166
 20
-143.3728046863788
 30
0.0
  0
VERTEX
  5
6F
330
6D
100
AcDbEntity
  8
_U+30EC_U+30A4_U+30E4_U+30FC 1
 62
     7
420
 16777215
370
     9
100
AcDbVertex
100
AcDb2dVertex
 10
109.8865002521174
 20
-143.3728046863788
 30
0.0
  0
SEQEND
  5
70
330
6D
100
AcDbEntity
  8
_U+30EC_U+30A4_U+30E4_U+30FC 1
 62
     7
420
 16777215
370
     9
  0
INSERT
  5
72
330
1F
100
AcDbEntity
  8
_U+30EC_U+30A4_U+30E4_U+30FC 1
100
AcDbBlockReference
  2
block 5
 10
0.0
 20
0.0
 30
0.0
  0
SPLINE
  5
77
330
1F
100
AcDbEntity
  8
_U+30EC_U+30A4_U+30E4_U+30FC 1
 62
     7
420
 16777215
370
     9
100
AcDbSpline
210
0.0
220
0.0
230
1.0
 70
    11
 71
     3
 72
    17
 73
    13
 74
     0
 42
0.0000000001
 43
0.0000000001
 12
1.0
 22
0.0
 32
0.0
 13
1.0
 23
0.0
 33
0.0
 40
0.0
 40
0.0
 40
0.0
 40
0.0
 40
1.0
 40
1.0
 40
1.0
 40
2.0
 40
2.0
 40
2.0
 40
3.0
 40
3.0
 40
3.0
 40
4.0
 40
4.0
 40
4.0
 40
4.0
 10
89.58040021461359
 20
-143.3748860752672
 30
0.0
 10
89.58040021461359
 20
-143.4306955196977
 30
0.0
 10
89.53563271575571
 20
-143.4747927419089
 30
0.0
 10
89.48049355049575
 20
-143.4747927419089
 30
0.0
 10
89.42538966301268
 20
-143.4747927419089
 30
0.0
 10
89.38058688637793
 20
-143.4313657974756
 30
0.0
 10
89.38058688637793
 20
-143.3755563530452
 30
0.0
 10
89.38058688637793
 20
-143.3204524641696
 30
0.0
 10
89.42538966301268
 20
-143.2749794086256
 30
0.0
 10
89.48049355049575
 20
-143.2749794086256
 30
0.0
 10
89.53563271575571
 20
-143.2749794086256
 30
0.0
 10
89.58040021461359
 20
-143.3197469086148
 30
0.0
 10
89.58040021461359
 20
-143.3748860752672
 30
0.0
  0
SPLINE
  5
78
330
1F
100
AcDbEntity
  8
_U+30EC_U+30A4_U+30E4_U+30FC 1
 62
     7
420
 16777215
370
     9
100
AcDbSpline
210
0.0
220
0.0
230
1.0
 70
    11
 71
     3
 72
    17
 73
    13
 74
     0
 42
0.0000000001
 43
0.0000000001
 12
1.0
 22
0.0
 32
0.0
 13
1.0
 23
0.0
 33
0.0
 40
0.0
 40
0.0
 40
0.0
 40
0.0
 40
1.0
 40
1.0
 40
1.0
 40
2.0
 40
2.0
 40
2.0
 40
3.0
 40
3.0
 40
3.0
 40
4.0
 40
4.0
 40
4.0
 40
4.0
 10
89.57627497760606
 20
-141.2747646869038
 30
0.0
 10
89.57627497760606
 20
-141.3298685757787
 30
0.0
 10
89.53147219983934
 20
-141.3746713535454
 30
0.0
 10
89.47636605060106
 20
-141.3753416313228
 30
0.0
 10
89.42122688534111
 20
-141.3753416313228
 30
0.0
 10
89.37645938648322
 20
-141.3305741313342
 30
0.0
 10
89.37645938648322
 20
-141.2754349646811
 30
0.0
 10
89.37645938648322
 20
-141.2203310758062
 30
0.0
 10
89.42055660758044
 20
-141.1755282980395
 30
0.0
 10
89.47566049506351
 20
-141.1755282980395
 30
0.0
 10
89.53079966032345
 20
-141.1748580202621
 30
0.0
 10
89.57627497760606
 20
-141.2196255202507
 30
0.0
 10
89.57627497760606
 20
-141.2747646869038
 30
0.0
  0
POLYLINE
  5
79
330
1F
100
AcDbEntity
  8
_U+30EC_U+30A4_U+30E4_U+30FC 1
 62
     7
420
 16777215
370
     9
100
AcDb2dPolyline
 66
     1
 10
0.0
 20
0.0
 30
0.0
  0
VERTEX
  5
7A
330
79
100
AcDbEntity
  8
_U+30EC_U+30A4_U+30E4_U+30FC 1
 62
     7
420
 16777215
370
     9
100
AcDbVertex
100
AcDb2dVertex
 10
82.02048053505037
 20
-143.3783432974885
 30
0.0
  0
VERTEX
  5
7B
330
79
100
AcDbEntity
  8
_U+30EC_U+30A4_U+30E4_U+30FC 1
 62
     7
420
 16777215
370
     9
100
AcDbVertex
100
AcDb2dVertex
 10
90.48026574721166
 20
-143.3728046863788
 30
0.0
  0
SEQEND
  5
7C
330
79
100
AcDbEntity
  8
_U+30EC_U+30A4_U+30E4_U+30FC 1
 62
     7
420
 16777215
370
     9
  0
POLYLINE
  5
7D
330
1F
100
AcDbEntity
  8
_U+30EC_U+30A4_U+30E4_U+30FC 1
 62
     7
420
 16777215
370
     9
100
AcDb2dPolyline
 66
     1
 10
0.0
 20
0.0
 30
0.0
  0
VERTEX
  5
7E
330
7D
100
AcDbEntity
  8
_U+30EC_U+30A4_U+30E4_U+30FC 1
 62
     7
420
 16777215
370
     9
100
AcDbVertex
100
AcDb2dVertex
 10
89.48049355049575
 20
-143.3748860752672
 30
0.0
  0
VERTEX
  5
7F
330
7D
100
AcDbEntity
  8
_U+30EC_U+30A4_U+30E4_U+30FC 1
 62
     7
420
 16777215
370
     9
100
AcDbVertex
100
AcDb2dVertex
 10
89.47636605060106
 20
-141.3753416313228
 30
0.0
  0
SEQEND
  5
80
330
7D
100
AcDbEntity
  8
_U+30EC_U+30A4_U+30E4_U+30FC 1
 62
     7
420
 16777215
370
     9
  0
POLYLINE
  5
81
330
1F
100
AcDbEntity
  8
_U+30EC_U+30A4_U+30E4_U+30FC 1
 62
     7
420
 16777215
370
     9
100
AcDb2dPolyline
 66
     1
 10
0.0
 20
0.0
 30
0.0
  0
VERTEX
  5
82
330
81
100
AcDbEntity
  8
_U+30EC_U+30A4_U+30E4_U+30FC 1
 62
     7
420
 16777215
370
     9
100
AcDbVertex
100
AcDb2dVertex
 10
82.01635096314412
 20
-141.2733888535703
 30
0.0
  0
VERTEX
  5
83
330
81
100
AcDbEntity
  8
_U+30EC_U+30A4_U+30E4_U+30FC 1
 62
     7
420
 16777215
370
     9
100
AcDbVertex
100
AcDb2dVertex
 10
90.47613824731697
 20
-141.2733888535703
 30
0.0
  0
SEQEND
  5
84
330
81
100
AcDbEntity
  8
_U+30EC_U+30A4_U+30E4_U+30FC 1
 62
     7
420
 16777215
370
     9
  0
POLYLINE
  5
85
330
1F
100
AcDbEntity
  8
_U+30EC_U+30A4_U+30E4_U+30FC 1
 62
     7
420
 16777215
370
     9
100
AcDb2dPolyline
 66
     1
 10
0.0
 20
0.0
 30
0.0
  0
VERTEX
  5
86
330
85
100
AcDbEntity
  8
_U+30EC_U+30A4_U+30E4_U+30FC 1
 62
     7
420
 16777215
370
     9
100
AcDbVertex
100
AcDb2dVertex
 10
108.8143733350252
 20
-143.3779905197114
 30
0.0
  0
VERTEX
  5
87
330
85
100
AcDbEntity
  8
_U+30EC_U+30A4_U+30E4_U+30FC 1
 62
     7
420
 16777215
370
     9
100
AcDbVertex
100
AcDb2dVertex
 10
108.8143733350252
 20
-133.2738705222371
 30
0.0
  0
SEQEND
  5
88
330
85
100
AcDbEntity
  8
_U+30EC_U+30A4_U+30E4_U+30FC 1
 62
     7
420
 16777215
370
     9
  0
POLYLINE
  5
89
330
1F
100
AcDbEntity
  8
_U+30EC_U+30A4_U+30E4_U+30FC 1
 62
     7
420
 16777215
370
     9
100
AcDb2dPolyline
 66
     1
 10
0.0
 20
0.0
 30
0.0
  0
VERTEX
  5
8A
330
89
100
AcDbEntity
  8
_U+30EC_U+30A4_U+30E4_U+30FC 1
 62
     7
420
 16777215
370
     9
100
AcDbVertex
100
AcDb2dVertex
 10
107.4087655931074
 20
-133.1718824667071
 30
0.0
  0
VERTEX
  5
8B
330
89
100
AcDbEntity
  8
_U+30EC_U+30A4_U+30E4_U+30FC 1
 62
     7
420
 16777215
370
     9
100
AcDbVertex
100
AcDb2dVertex
 10
109.8685791414635
 20
-133.1718824667071
 30
0.0
  0
SEQEND
  5
8C
330
89
100
AcDbEntity
  8
_U+30EC_U+30A4_U+30E4_U+30FC 1
 62
     7
420
 16777215
370
     9
  0
SPLINE
  5
8D
330
1F
100
AcDbEntity
  8
_U+30EC_U+30A4_U+30E4_U+30FC 1
 62
     7
420
 16777215
370
     9
100
AcDbSpline
210
0.0
220
0.0
230
1.0
 70
    11
 71
     3
 72
    17
 73
    13
 74
     0
 42
0.0000000001
 43
0.0000000001
 12
1.0
 22
0.0
 32
0.0
 13
1.0
 23
0.0
 33
0.0
 40
0.0
 40
0.0
 40
0.0
 40
0.0
 40
1.0
 40
1.0
 40
1.0
 40
2.0
 40
2.0
 40
2.0
 40
3.0
 40
3.0
 40
3.0
 40
4.0
 40
4.0
 40
4.0
 40
4.0
 10
108.914279999143
 20
-132.1738388558452
 30
0.0
 10
108.914279999143
 20
-132.2289780224982
 30
0.0
 10
108.8694772225082
 20
-132.2737455224868
 30
0.0
 10
108.8143733350252
 20
-132.2740983002646
 30
0.0
 10
108.7592341697652
 20
-132.2740983002646
 30
0.0
 10
108.7144694172656
 20
-132.2292955224985
 30
0.0
 10
108.7144694172656
 20
-132.1741916336229
 30
0.0
 10
108.7144694172656
 20
-132.1183821891925
 30
0.0
 10
108.7592341697652
 20
-132.0739321892035
 30
0.0
 10
108.8143733350252
 20
-132.0739321892035
 30
0.0
 10
108.8694772225082
 20
-132.0735794114258
 30
0.0
 10
108.914279999143
 20
-132.1180294114147
 30
0.0
 10
108.914279999143
 20
-132.1738388558452
 30
0.0
  0
POLYLINE
  5
8E
330
1F
100
AcDbEntity
  8
_U+30EC_U+30A4_U+30E4_U+30FC 1
 62
     7
420
 16777215
370
     9
100
AcDb2dPolyline
 66
     1
 10
0.0
 20
0.0
 30
0.0
  0
VERTEX
  5
8F
330
8E
100
AcDbEntity
  8
_U+30EC_U+30A4_U+30E4_U+30FC 1
 62
     7
420
 16777215
370
     9
100
AcDbVertex
100
AcDb2dVertex
 10
108.8153963905546
 20
-133.1739638555955
 30
0.0
  0
VERTEX
  5
90
330
8E
100
AcDbEntity
  8
_U+30EC_U+30A4_U+30E4_U+30FC 1
 62
     7
420
 16777215
370
     9
100
AcDbVertex
100
AcDb2dVertex
 10
108.8133502794957
 20
-132.1741916336229
 30
0.0
  0
SEQEND
  5
91
330
8E
100
AcDbEntity
  8
_U+30EC_U+30A4_U+30E4_U+30FC 1
 62
     7
420
 16777215
370
     9
  0
INSERT
  5
93
330
1F
100
AcDbEntity
  8
_U+30EC_U+30A4_U+30E4_U+30FC 1
100
AcDbBlockReference
  2
block 6
 10
0.0
 20
0.0
 30
0.0
  0
INSERT
  5
99
330
1F
100
AcDbEntity
  8
_U+30EC_U+30A4_U+30E4_U+30FC 1
100
AcDbBlockReference
  2
block 7
 10
0.0
 20
0.0
 30
0.0
  0
SPLINE
  5
A1
330
1F
100
AcDbEntity
  8
_U+30EC_U+30A4_U+30E4_U+30FC 1
 62
     7
420
 16777215
370
     9
100
AcDbSpline
210
0.0
220
0.0
230
1.0
 70
    11
 71
     3
 72
    17
 73
    13
 74
     0
 42
0.0000000001
 43
0.0000000001
 12
1.0
 22
0.0
 32
0.0
 13
1.0
 23
0.0
 33
0.0
 40
0.0
 40
0.0
 40
0.0
 40
0.0
 40
1.0
 40
1.0
 40
1.0
 40
2.0
 40
2.0
 40
2.0
 40
3.0
 40
3.0
 40
3.0
 40
4.0
 40
4.0
 40
4.0
 40
4.0
 10
69.02111157245808
 20
-149.0031380183049
 30
0.0
 10
68.96530212943745
 20
-149.0031380183049
 30
0.0
 10
68.92120490834024
 20
-148.9583352405382
 30
0.0
 10
68.92120490834024
 20
-148.9032313516632
 30
0.0
 10
68.92120490834024
 20
-148.8480921850102
 30
0.0
 10
68.96530212943745
 20
-148.8033246850216
 30
0.0
 10
69.02111157245808
 20
-148.8033246850216
 30
0.0
 10
69.07621545994115
 20
-148.8033246850216
 30
0.0
 10
69.1210182365759
 20
-148.8480921850102
 30
0.0
 10
69.1210182365759
 20
-148.9032313516632
 30
0.0
 10
69.1210182365759
 20
-148.9583352405382
 30
0.0
 10
69.07621545994115
 20
-149.0031380183049
 30
0.0
 10
69.02111157245808
 20
-149.0031380183049
 30
0.0
  0
SPLINE
  5
A2
330
1F
100
AcDbEntity
  8
_U+30EC_U+30A4_U+30E4_U+30FC 1
 62
     7
420
 16777215
370
     9
100
AcDbSpline
210
0.0
220
0.0
230
1.0
 70
    11
 71
     3
 72
    17
 73
    13
 74
     0
 42
0.0000000001
 43
0.0000000001
 12
1.0
 22
0.0
 32
0.0
 13
1.0
 23
0.0
 33
0.0
 40
0.0
 40
0.0
 40
0.0
 40
0.0
 40
1.0
 40
1.0
 40
1.0
 40
2.0
 40
2.0
 40
2.0
 40
3.0
 40
3.0
 40
3.0
 40
4.0
 40
4.0
 40
4.0
 40
4.0
 10
79.0249718727939
 20
-148.9990105183056
 30
0.0
 10
78.96986798531083
 20
-148.9990105183056
 30
0.0
 10
78.92439493091538
 20
-148.9542077405395
 30
0.0
 10
78.92439493091538
 20
-148.8991038516639
 30
0.0
 10
78.92439493091538
 20
-148.8439646850115
 30
0.0
 10
78.96916242977326
 20
-148.7991971850223
 30
0.0
 10
79.02430159503322
 20
-148.7991971850223
 30
0.0
 10
79.0794054825163
 20
-148.7991971850223
 30
0.0
 10
79.12420825915105
 20
-148.8432944072335
 30
0.0
 10
79.12420825915105
 20
-148.8983982961084
 30
0.0
 10
79.12420825915105
 20
-148.9535374627615
 30
0.0
 10
79.08011103805384
 20
-148.9990105183056
 30
0.0
 10
79.0249718727939
 20
-148.9990105183056
 30
0.0
  0
SPLINE
  5
A3
330
1F
100
AcDbEntity
  8
_U+30EC_U+30A4_U+30E4_U+30FC 1
 62
     7
420
 16777215
370
     9
100
AcDbSpline
210
0.0
220
0.0
230
1.0
 70
    11
 71
     3
 72
    17
 73
    13
 74
     0
 42
0.0000000001
 43
0.0000000001
 12
1.0
 22
0.0
 32
0.0
 13
1.0
 23
0.0
 33
0.0
 40
0.0
 40
0.0
 40
0.0
 40
0.0
 40
1.0
 40
1.0
 40
1.0
 40
2.0
 40
2.0
 40
2.0
 40
3.0
 40
3.0
 40
3.0
 40
4.0
 40
4.0
 40
4.0
 40
4.0
 10
81.01763709973454
 20
-148.985216907198
 30
0.0
 10
80.96249997975937
 20
-148.985216907198
 30
0.0
 10
80.91769720199265
 20
-148.9404494072094
 30
0.0
 10
80.91769720199265
 20
-148.8853102405563
 30
0.0
 10
80.91769720199265
 20
-148.8302063516814
 30
0.0
 10
80.96249997975937
 20
-148.7854035739147
 30
0.0
 10
81.01763709973454
 20
-148.7854035739147
 30
0.0
 10
81.07344654275518
 20
-148.7854035739147
 30
0.0
 10
81.11754376385238
 20
-148.8302063516814
 30
0.0
 10
81.11754376385238
 20
-148.8853102405563
 30
0.0
 10
81.11754376385238
 20
-148.9404494072094
 30
0.0
 10
81.07344654275518
 20
-148.985216907198
 30
0.0
 10
81.01763709973454
 20
-148.985216907198
 30
0.0
  0
POLYLINE
  5
A4
330
1F
100
AcDbEntity
  8
_U+30EC_U+30A4_U+30E4_U+30FC 1
 62
     7
420
 16777215
370
     9
100
AcDb2dPolyline
 66
     1
 10
0.0
 20
0.0
 30
0.0
  0
VERTEX
  5
A5
330
A4
100
AcDbEntity
  8
_U+30EC_U+30A4_U+30E4_U+30FC 1
 62
     7
420
 16777215
370
     9
100
AcDbVertex
100
AcDb2dVertex
 10
69.02319296129386
 20
-147.4431899631389
 30
0.0
  0
VERTEX
  5
A6
330
A4
100
AcDbEntity
  8
_U+30EC_U+30A4_U+30E4_U+30FC 1
 62
     7
420
 16777215
370
     9
100
AcDbVertex
100
AcDb2dVertex
 10
69.02319296129386
 20
-149.9030035736351
 30
0.0
  0
SEQEND
  5
A7
330
A4
100
AcDbEntity
  8
_U+30EC_U+30A4_U+30E4_U+30FC 1
 62
     7
420
 16777215
370
     9
  0
POLYLINE
  5
A8
330
1F
100
AcDbEntity
  8
_U+30EC_U+30A4_U+30E4_U+30FC 1
 62
     7
420
 16777215
370
     9
100
AcDb2dPolyline
 66
     1
 10
0.0
 20
0.0
 30
0.0
  0
VERTEX
  5
A9
330
A8
100
AcDbEntity
  8
_U+30EC_U+30A4_U+30E4_U+30FC 1
 62
     7
420
 16777215
370
     9
100
AcDbVertex
100
AcDb2dVertex
 10
68.92120490834024
 20
-148.8921894072214
 30
0.0
  0
VERTEX
  5
AA
330
A8
100
AcDbEntity
  8
_U+30EC_U+30A4_U+30E4_U+30FC 1
 62
     7
420
 16777215
370
     9
100
AcDbVertex
100
AcDb2dVertex
 10
81.04035598804383
 20
-148.8921894072214
 30
0.0
  0
SEQEND
  5
AB
330
A8
100
AcDbEntity
  8
_U+30EC_U+30A4_U+30E4_U+30FC 1
 62
     7
420
 16777215
370
     9
  0
POLYLINE
  5
AC
330
1F
100
AcDbEntity
  8
_U+30EC_U+30A4_U+30E4_U+30FC 1
 62
     7
420
 16777215
370
     9
100
AcDb2dPolyline
 66
     1
 10
0.0
 20
0.0
 30
0.0
  0
VERTEX
  5
AD
330
AC
100
AcDbEntity
  8
_U+30EC_U+30A4_U+30E4_U+30FC 1
 62
     7
420
 16777215
370
     9
100
AcDbVertex
100
AcDb2dVertex
 10
79.01015520650523
 20
-147.4390624631402
 30
0.0
  0
VERTEX
  5
AE
330
AC
100
AcDbEntity
  8
_U+30EC_U+30A4_U+30E4_U+30FC 1
 62
     7
420
 16777215
370
     9
100
AcDbVertex
100
AcDb2dVertex
 10
79.01015520650523
 20
-149.8988760736365
 30
0.0
  0
SEQEND
  5
AF
330
AC
100
AcDbEntity
  8
_U+30EC_U+30A4_U+30E4_U+30FC 1
 62
     7
420
 16777215
370
     9
  0
POLYLINE
  5
B0
330
1F
100
AcDbEntity
  8
_U+30EC_U+30A4_U+30E4_U+30FC 1
 62
     7
420
 16777215
370
     9
100
AcDb2dPolyline
 66
     1
 10
0.0
 20
0.0
 30
0.0
  0
VERTEX
  5
B1
330
B0
100
AcDbEntity
  8
_U+30EC_U+30A4_U+30E4_U+30FC 1
 62
     7
420
 16777215
370
     9
100
AcDbVertex
100
AcDb2dVertex
 10
81.00349071120657
 20
-147.4252688520326
 30
0.0
  0
VERTEX
  5
B2
330
B0
100
AcDbEntity
  8
_U+30EC_U+30A4_U+30E4_U+30FC 1
 62
     7
420
 16777215
370
     9
100
AcDbVertex
100
AcDb2dVertex
 10
81.00349071120657
 20
-149.8850824625288
 30
0.0
  0
SEQEND
  5
B3
330
B0
100
AcDbEntity
  8
_U+30EC_U+30A4_U+30E4_U+30FC 1
 62
     7
420
 16777215
370
     9
  0
POLYLINE
  5
B4
330
1F
100
AcDbEntity
  8
_U+30EC_U+30A4_U+30E4_U+30FC 1
 62
     7
420
 16777215
370
     9
100
AcDb2dPolyline
 66
     1
 10
0.0
 20
0.0
 30
0.0
  0
VERTEX
  5
B5
330
B4
100
AcDbEntity
  8
_U+30EC_U+30A4_U+30E4_U+30FC 1
 62
     7
420
 16777215
370
     9
100
AcDbVertex
100
AcDb2dVertex
 10
107.4067221953702
 20
-132.1721102447345
 30
0.0
  0
VERTEX
  5
B6
330
B4
100
AcDbEntity
  8
_U+30EC_U+30A4_U+30E4_U+30FC 1
 62
     7
420
 16777215
370
     9
100
AcDbVertex
100
AcDb2dVertex
 10
109.8664977526277
 20
-132.1721102447345
 30
0.0
  0
SEQEND
  5
B7
330
B4
100
AcDbEntity
  8
_U+30EC_U+30A4_U+30E4_U+30FC 1
 62
     7
420
 16777215
370
     9
  0
SPLINE
  5
B8
330
1F
100
AcDbEntity
  8
_U+30EC_U+30A4_U+30E4_U+30FC 1
 62
     7
420
 16777215
370
     9
100
AcDbSpline
210
0.0
220
0.0
230
1.0
 70
    11
 71
     3
 72
    17
 73
    13
 74
     0
 42
0.0000000001
 43
0.0000000001
 12
1.0
 22
0.0
 32
0.0
 13
1.0
 23
0.0
 33
0.0
 40
0.0
 40
0.0
 40
0.0
 40
0.0
 40
1.0
 40
1.0
 40
1.0
 40
2.0
 40
2.0
 40
2.0
 40
3.0
 40
3.0
 40
3.0
 40
4.0
 40
4.0
 40
4.0
 40
4.0
 10
108.914279999143
 20
-107.1731480287621
 30
0.0
 10
108.914279999143
 20
-107.2282519176374
 30
0.0
 10
108.8694772225082
 20
-107.273372195404
 30
0.0
 10
108.8143733350252
 20
-107.273372195404
 30
0.0
 10
108.7592341697652
 20
-107.2737249731814
 30
0.0
 10
108.7144694172656
 20
-107.2289574731929
 30
0.0
 10
108.7144694172656
 20
-107.1738183065398
 30
0.0
 10
108.7144694172656
 20
-107.1180088621094
 30
0.0
 10
108.7592341697652
 20
-107.0739116398982
 30
0.0
 10
108.8143733350252
 20
-107.0735588621204
 30
0.0
 10
108.8694772225082
 20
-107.0735588621204
 30
0.0
 10
108.914279999143
 20
-107.1173033065542
 30
0.0
 10
108.914279999143
 20
-107.1731480287621
 30
0.0
  0
POLYLINE
  5
B9
330
1F
100
AcDbEntity
  8
_U+30EC_U+30A4_U+30E4_U+30FC 1
 62
     7
420
 16777215
370
     9
100
AcDb2dPolyline
 66
     1
 10
0.0
 20
0.0
 30
0.0
  0
VERTEX
  5
BA
330
B9
100
AcDbEntity
  8
_U+30EC_U+30A4_U+30E4_U+30FC 1
 62
     7
420
 16777215
370
     9
100
AcDbVertex
100
AcDb2dVertex
 10
108.8143733350252
 20
-132.1741916336229
 30
0.0
  0
VERTEX
  5
BB
330
B9
100
AcDbEntity
  8
_U+30EC_U+30A4_U+30E4_U+30FC 1
 62
     7
420
 16777215
370
     9
100
AcDbVertex
100
AcDb2dVertex
 10
108.8143733350252
 20
-107.1734655287624
 30
0.0
  0
SEQEND
  5
BC
330
B9
100
AcDbEntity
  8
_U+30EC_U+30A4_U+30E4_U+30FC 1
 62
     7
420
 16777215
370
     9
  0
POLYLINE
  5
BD
330
1F
100
AcDbEntity
  8
_U+30EC_U+30A4_U+30E4_U+30FC 1
 62
     7
420
 16777215
370
     9
100
AcDb2dPolyline
 66
     1
 10
0.0
 20
0.0
 30
0.0
  0
VERTEX
  5
BE
330
BD
100
AcDbEntity
  8
_U+30EC_U+30A4_U+30E4_U+30FC 1
 62
     7
420
 16777215
370
     9
100
AcDbVertex
100
AcDb2dVertex
 10
93.85437343890878
 20
-107.1714194176515
 30
0.0
  0
VERTEX
  5
BF
330
BD
100
AcDbEntity
  8
_U+30EC_U+30A4_U+30E4_U+30FC 1
 62
     7
420
 16777215
370
     9
100
AcDbVertex
100
AcDb2dVertex
 10
109.8141455317411
 20
-107.1714194176515
 30
0.0
  0
SEQEND
  5
C0
330
BD
100
AcDbEntity
  8
_U+30EC_U+30A4_U+30E4_U+30FC 1
 62
     7
420
 16777215
370
     9
  0
POLYLINE
  5
C1
330
1F
100
AcDbEntity
  8
_U+30EC_U+30A4_U+30E4_U+30FC 1
 62
     7
420
 16777215
370
    25
100
AcDb2dPolyline
 66
     1
 10
0.0
 20
0.0
 30
0.0
  0
VERTEX
  5
C2
330
C1
100
AcDbEntity
  8
_U+30EC_U+30A4_U+30E4_U+30FC 1
 62
     7
420
 16777215
370
    25
100
AcDbVertex
100
AcDb2dVertex
 10
69.0125055383025
 20
-133.2052905222542
 30
0.0
  0
VERTEX
  5
C3
330
C1
100
AcDbEntity
  8
_U+30EC_U+30A4_U+30E4_U+30FC 1
 62
     7
420
 16777215
370
    25
100
AcDbVertex
100
AcDb2dVertex
 10
69.0125055383025
 20
-131.2054285783095
 30
0.0
  0
SEQEND
  5
C4
330
C1
100
AcDbEntity
  8
_U+30EC_U+30A4_U+30E4_U+30FC 1
 62
     7
420
 16777215
370
    25
  0
POLYLINE
  5
C5
330
1F
100
AcDbEntity
  8
_U+30EC_U+30A4_U+30E4_U+30FC 1
 62
     7
420
 16777215
370
    25
100
AcDb2dPolyline
 66
     1
 10
0.0
 20
0.0
 30
0.0
  0
VERTEX
  5
C6
330
C5
100
AcDbEntity
  8
_U+30EC_U+30A4_U+30E4_U+30FC 1
 62
     7
420
 16777215
370
    25
100
AcDbVertex
100
AcDb2dVertex
 10
105.0378520424834
 20
-133.2052905222542
 30
0.0
  0
VERTEX
  5
C7
330
C5
100
AcDbEntity
  8
_U+30EC_U+30A4_U+30E4_U+30FC 1
 62
     7
420
 16777215
370
    25
100
AcDbVertex
100
AcDb2dVertex
 10
105.0378520424834
 20
-132.2055535780598
 30
0.0
  0
SEQEND
  5
C8
330
C5
100
AcDbEntity
  8
_U+30EC_U+30A4_U+30E4_U+30FC 1
 62
     7
420
 16777215
370
    25
  0
POLYLINE
  5
C9
330
1F
100
AcDbEntity
  8
_U+30EC_U+30A4_U+30E4_U+30FC 1
 62
     7
420
 16777215
370
    25
100
AcDb2dPolyline
 66
     1
 10
0.0
 20
0.0
 30
0.0
  0
VERTEX
  5
CA
330
C9
100
AcDbEntity
  8
_U+30EC_U+30A4_U+30E4_U+30FC 1
 62
     7
420
 16777215
370
    25
100
AcDbVertex
100
AcDb2dVertex
 10
71.01236568832361
 20
-132.205200800282
 30
0.0
  0
VERTEX
  5
CB
330
C9
100
AcDbEntity
  8
_U+30EC_U+30A4_U+30E4_U+30FC 1
 62
     7
420
 16777215
370
    25
100
AcDbVertex
100
AcDb2dVertex
 10
71.01236568832361
 20
-131.2054285783095
 30
0.0
  0
SEQEND
  5
CC
330
C9
100
AcDbEntity
  8
_U+30EC_U+30A4_U+30E4_U+30FC 1
 62
     7
420
 16777215
370
    25
  0
POLYLINE
  5
CD
330
1F
100
AcDbEntity
  8
_U+30EC_U+30A4_U+30E4_U+30FC 1
 62
     7
420
 16777215
370
    25
100
AcDb2dPolyline
 66
     1
 10
0.0
 20
0.0
 30
0.0
  0
VERTEX
  5
CE
330
CD
100
AcDbEntity
  8
_U+30EC_U+30A4_U+30E4_U+30FC 1
 62
     7
420
 16777215
370
    25
100
AcDbVertex
100
AcDb2dVertex
 10
69.01215276052474
 20
-131.2054285783095
 30
0.0
  0
VERTEX
  5
CF
330
CD
100
AcDbEntity
  8
_U+30EC_U+30A4_U+30E4_U+30FC 1
 62
     7
420
 16777215
370
    25
100
AcDbVertex
100
AcDb2dVertex
 10
71.01236568832361
 20
-131.2054285783095
 30
0.0
  0
SEQEND
  5
D0
330
CD
100
AcDbEntity
  8
_U+30EC_U+30A4_U+30E4_U+30FC 1
 62
     7
420
 16777215
370
    25
  0
POLYLINE
  5
D1
330
1F
100
AcDbEntity
  8
_U+30EC_U+30A4_U+30E4_U+30FC 1
 62
     7
420
 16777215
370
    25
100
AcDb2dPolyline
 66
     1
 10
0.0
 20
0.0
 30
0.0
  0
VERTEX
  5
D2
330
D1
100
AcDbEntity
  8
_U+30EC_U+30A4_U+30E4_U+30FC 1
 62
     7
420
 16777215
370
    25
100
AcDbVertex
100
AcDb2dVertex
 10
80.03197601376975
 20
-133.2052905222542
 30
0.0
  0
VERTEX
  5
D3
330
D1
100
AcDbEntity
  8
_U+30EC_U+30A4_U+30E4_U+30FC 1
 62
     7
420
 16777215
370
    25
100
AcDbVertex
100
AcDb2dVertex
 10
105.0378520424834
 20
-133.2052905222542
 30
0.0
  0
SEQEND
  5
D4
330
D1
100
AcDbEntity
  8
_U+30EC_U+30A4_U+30E4_U+30FC 1
 62
     7
420
 16777215
370
    25
  0
POLYLINE
  5
D5
330
1F
100
AcDbEntity
  8
_U+30EC_U+30A4_U+30E4_U+30FC 1
 62
     7
420
 16777215
370
    25
100
AcDb2dPolyline
 66
     1
 10
0.0
 20
0.0
 30
0.0
  0
VERTEX
  5
D6
330
D5
100
AcDbEntity
  8
_U+30EC_U+30A4_U+30E4_U+30FC 1
 62
     7
420
 16777215
370
    25
100
AcDbVertex
100
AcDb2dVertex
 10
78.95159409688814
 20
-133.2052905222542
 30
0.0
  0
VERTEX
  5
D7
330
D5
100
AcDbEntity
  8
_U+30EC_U+30A4_U+30E4_U+30FC 1
 62
     7
420
 16777215
370
    25
100
AcDbVertex
100
AcDb2dVertex
 10
69.0125055383025
 20
-133.2052905222542
 30
0.0
  0
SEQEND
  5
D8
330
D5
100
AcDbEntity
  8
_U+30EC_U+30A4_U+30E4_U+30FC 1
 62
     7
420
 16777215
370
    25
  0
POLYLINE
  5
D9
330
1F
100
AcDbEntity
  8
_U+30EC_U+30A4_U+30E4_U+30FC 1
 62
     7
420
 16777215
370
    25
100
AcDb2dPolyline
 66
     1
 10
0.0
 20
0.0
 30
0.0
  0
VERTEX
  5
DA
330
D9
100
AcDbEntity
  8
_U+30EC_U+30A4_U+30E4_U+30FC 1
 62
     7
420
 16777215
370
    25
100
AcDbVertex
100
AcDb2dVertex
 10
80.07607323486695
 20
-132.205200800282
 30
0.0
  0
VERTEX
  5
DB
330
D9
100
AcDbEntity
  8
_U+30EC_U+30A4_U+30E4_U+30FC 1
 62
     7
420
 16777215
370
    25
100
AcDbVertex
100
AcDb2dVertex
 10
105.0378520424834
 20
-132.205200800282
 30
0.0
  0
SEQEND
  5
DC
330
D9
100
AcDbEntity
  8
_U+30EC_U+30A4_U+30E4_U+30FC 1
 62
     7
420
 16777215
370
    25
  0
POLYLINE
  5
DD
330
1F
100
AcDbEntity
  8
_U+30EC_U+30A4_U+30E4_U+30FC 1
 62
     7
420
 16777215
370
    25
100
AcDb2dPolyline
 66
     1
 10
0.0
 20
0.0
 30
0.0
  0
VERTEX
  5
DE
330
DD
100
AcDbEntity
  8
_U+30EC_U+30A4_U+30E4_U+30FC 1
 62
     7
420
 16777215
370
    25
100
AcDbVertex
100
AcDb2dVertex
 10
71.01236568832361
 20
-132.205200800282
 30
0.0
  0
VERTEX
  5
DF
330
DD
100
AcDbEntity
  8
_U+30EC_U+30A4_U+30E4_U+30FC 1
 62
     7
420
 16777215
370
    25
100
AcDbVertex
100
AcDb2dVertex
 10
78.99569131798535
 20
-132.205200800282
 30
0.0
  0
SEQEND
  5
E0
330
DD
100
AcDbEntity
  8
_U+30EC_U+30A4_U+30E4_U+30FC 1
 62
     7
420
 16777215
370
    25
  0
POLYLINE
  5
E1
330
1F
100
AcDbEntity
  8
_U+30EC_U+30A4_U+30E4_U+30FC 1
 62
     7
420
 16777215
370
    25
100
AcDb2dPolyline
 66
     1
 10
0.0
 20
0.0
 30
0.0
  0
VERTEX
  5
E2
330
E1
100
AcDbEntity
  8
_U+30EC_U+30A4_U+30E4_U+30FC 1
 62
     7
420
 16777215
370
    25
100
AcDbVertex
100
AcDb2dVertex
 10
79.00948492874456
 20
-143.3779905197114
 30
0.0
  0
VERTEX
  5
E3
330
E1
100
AcDbEntity
  8
_U+30EC_U+30A4_U+30E4_U+30FC 1
 62
     7
420
 16777215
370
    25
100
AcDbVertex
100
AcDb2dVertex
 10
81.0089940443995
 20
-143.3786607974887
 30
0.0
  0
SEQEND
  5
E4
330
E1
100
AcDbEntity
  8
_U+30EC_U+30A4_U+30E4_U+30FC 1
 62
     7
420
 16777215
370
    25
  0
POLYLINE
  5
E5
330
1F
100
AcDbEntity
  8
_U+30EC_U+30A4_U+30E4_U+30FC 1
 62
     7
420
 16777215
370
    25
100
AcDb2dPolyline
 66
     1
 10
0.0
 20
0.0
 30
0.0
  0
VERTEX
  5
E6
330
E5
100
AcDbEntity
  8
_U+30EC_U+30A4_U+30E4_U+30FC 1
 62
     7
420
 16777215
370
    25
100
AcDbVertex
100
AcDb2dVertex
 10
79.00948492874456
 20
-107.3767360842669
 30
0.0
  0
VERTEX
  5
E7
330
E5
100
AcDbEntity
  8
_U+30EC_U+30A4_U+30E4_U+30FC 1
 62
     7
420
 16777215
370
    25
100
AcDbVertex
100
AcDb2dVertex
 10
80.00925712546046
 20
-107.3767360842669
 30
0.0
  0
SEQEND
  5
E8
330
E5
100
AcDbEntity
  8
_U+30EC_U+30A4_U+30E4_U+30FC 1
 62
     7
420
 16777215
370
    25
  0
POLYLINE
  5
E9
330
1F
100
AcDbEntity
  8
_U+30EC_U+30A4_U+30E4_U+30FC 1
 62
     7
420
 16777215
370
    25
100
AcDb2dPolyline
 66
     1
 10
0.0
 20
0.0
 30
0.0
  0
VERTEX
  5
EA
330
E9
100
AcDbEntity
  8
_U+30EC_U+30A4_U+30E4_U+30FC 1
 62
     7
420
 16777215
370
    25
100
AcDbVertex
100
AcDb2dVertex
 10
80.00925712546046
 20
-141.3770702424334
 30
0.0
  0
VERTEX
  5
EB
330
E9
100
AcDbEntity
  8
_U+30EC_U+30A4_U+30E4_U+30FC 1
 62
     7
420
 16777215
370
    25
100
AcDbVertex
100
AcDb2dVertex
 10
81.0089940443995
 20
-141.3777757979889
 30
0.0
  0
SEQEND
  5
EC
330
E9
100
AcDbEntity
  8
_U+30EC_U+30A4_U+30E4_U+30FC 1
 62
     7
420
 16777215
370
    25
  0
POLYLINE
  5
ED
330
1F
100
AcDbEntity
  8
_U+30EC_U+30A4_U+30E4_U+30FC 1
 62
     7
420
 16777215
370
    25
100
AcDb2dPolyline
 66
     1
 10
0.0
 20
0.0
 30
0.0
  0
VERTEX
  5
EE
330
ED
100
AcDbEntity
  8
_U+30EC_U+30A4_U+30E4_U+30FC 1
 62
     7
420
 16777215
370
    25
100
AcDbVertex
100
AcDb2dVertex
 10
81.0089940443995
 20
-143.3779905197114
 30
0.0
  0
VERTEX
  5
EF
330
ED
100
AcDbEntity
  8
_U+30EC_U+30A4_U+30E4_U+30FC 1
 62
     7
420
 16777215
370
    25
100
AcDbVertex
100
AcDb2dVertex
 10
81.0089940443995
 20
-141.3777757979889
 30
0.0
  0
SEQEND
  5
F0
330
ED
100
AcDbEntity
  8
_U+30EC_U+30A4_U+30E4_U+30FC 1
 62
     7
420
 16777215
370
    25
  0
POLYLINE
  5
F1
330
1F
100
AcDbEntity
  8
_U+30EC_U+30A4_U+30E4_U+30FC 1
 62
     7
420
 16777215
370
    25
100
AcDb2dPolyline
 66
     1
 10
0.0
 20
0.0
 30
0.0
  0
VERTEX
  5
F2
330
F1
100
AcDbEntity
  8
_U+30EC_U+30A4_U+30E4_U+30FC 1
 62
     7
420
 16777215
370
    25
100
AcDbVertex
100
AcDb2dVertex
 10
79.00948492874456
 20
-132.1796949669551
 30
0.0
  0
VERTEX
  5
F3
330
F1
100
AcDbEntity
  8
_U+30EC_U+30A4_U+30E4_U+30FC 1
 62
     7
420
 16777215
370
    25
100
AcDbVertex
100
AcDb2dVertex
 10
79.00948492874456
 20
-107.3767360842669
 30
0.0
  0
SEQEND
  5
F4
330
F1
100
AcDbEntity
  8
_U+30EC_U+30A4_U+30E4_U+30FC 1
 62
     7
420
 16777215
370
    25
  0
POLYLINE
  5
F5
330
1F
100
AcDbEntity
  8
_U+30EC_U+30A4_U+30E4_U+30FC 1
 62
     7
420
 16777215
370
    25
100
AcDb2dPolyline
 66
     1
 10
0.0
 20
0.0
 30
0.0
  0
VERTEX
  5
F6
330
F5
100
AcDbEntity
  8
_U+30EC_U+30A4_U+30E4_U+30FC 1
 62
     7
420
 16777215
370
    25
100
AcDbVertex
100
AcDb2dVertex
 10
79.00948492874456
 20
-143.3779905197114
 30
0.0
  0
VERTEX
  5
F7
330
F5
100
AcDbEntity
  8
_U+30EC_U+30A4_U+30E4_U+30FC 1
 62
     7
420
 16777215
370
    25
100
AcDbVertex
100
AcDb2dVertex
 10
79.00948492874456
 20
-133.2159796889183
 30
0.0
  0
SEQEND
  5
F8
330
F5
100
AcDbEntity
  8
_U+30EC_U+30A4_U+30E4_U+30FC 1
 62
     7
420
 16777215
370
    25
  0
POLYLINE
  5
F9
330
1F
100
AcDbEntity
  8
_U+30EC_U+30A4_U+30E4_U+30FC 1
 62
     7
420
 16777215
370
    25
100
AcDb2dPolyline
 66
     1
 10
0.0
 20
0.0
 30
0.0
  0
VERTEX
  5
FA
330
F9
100
AcDbEntity
  8
_U+30EC_U+30A4_U+30E4_U+30FC 1
 62
     7
420
 16777215
370
    25
100
AcDbVertex
100
AcDb2dVertex
 10
80.00925712546046
 20
-132.1576463558495
 30
0.0
  0
VERTEX
  5
FB
330
F9
100
AcDbEntity
  8
_U+30EC_U+30A4_U+30E4_U+30FC 1
 62
     7
420
 16777215
370
    25
100
AcDbVertex
100
AcDb2dVertex
 10
80.00925712546046
 20
-107.3767360842669
 30
0.0
  0
SEQEND
  5
FC
330
F9
100
AcDbEntity
  8
_U+30EC_U+30A4_U+30E4_U+30FC 1
 62
     7
420
 16777215
370
    25
  0
POLYLINE
  5
FD
330
1F
100
AcDbEntity
  8
_U+30EC_U+30A4_U+30E4_U+30FC 1
 62
     7
420
 16777215
370
    25
100
AcDb2dPolyline
 66
     1
 10
0.0
 20
0.0
 30
0.0
  0
VERTEX
  5
FE
330
FD
100
AcDbEntity
  8
_U+30EC_U+30A4_U+30E4_U+30FC 1
 62
     7
420
 16777215
370
    25
100
AcDbVertex
100
AcDb2dVertex
 10
80.00925712546046
 20
-141.3770702424334
 30
0.0
  0
VERTEX
  5
FF
330
FD
100
AcDbEntity
  8
_U+30EC_U+30A4_U+30E4_U+30FC 1
 62
     7
420
 16777215
370
    25
100
AcDbVertex
100
AcDb2dVertex
 10
80.00925712546046
 20
-133.2380283000239
 30
0.0
  0
SEQEND
  5
100
330
FD
100
AcDbEntity
  8
_U+30EC_U+30A4_U+30E4_U+30FC 1
 62
     7
420
 16777215
370
    25
  0
ENDSEC
  0
SECTION
  2
OBJECTS
  0
DICTIONARY
  5
C
330
0
100
AcDbDictionary
281
     1
  3
ACAD_GROUP
350
D
  3
ACAD_LAYOUT
350
1A
  3
ACAD_MATERIAL
350
3B
  3
ACAD_MLEADERSTYLE
350
102
  3
ACAD_MLINESTYLE
350
17
  3
ACAD_PLOTSETTINGS
350
19
  3
ACAD_PLOTSTYLENAME
350
E
  3
ACAD_TABLESTYLE
350
101
  3
ACAD_VISUALSTYLE
350
2A
  0
SUN
  5
3F
330
29
100
AcDbSun
 90
        1
290
     0
 63
     7
421
 16777215
 40
1.0
291
     1
 91
  2455826
 92
 54000000
292
     0
 70
     2
 71
   256
280
     1
  0
DICTIONARY
  5
D
102
{ACAD_REACTORS
330
C
102
}
330
C
100
AcDbDictionary
281
     1
  0
DICTIONARY
  5
1A
102
{ACAD_REACTORS
330
C
102
}
330
C
100
AcDbDictionary
281
     1
  3
Layout1
350
1E
  3
Layout2
350
26
  3
Model
350
22
  0
DICTIONARY
  5
3B
102
{ACAD_REACTORS
330
C
102
}
330
C
100
AcDbDictionary
281
     1
  3
ByBlock
350
3D
  3
ByLayer
350
3C
  3
Global
350
3E
  0
DICTIONARY
  5
102
102
{ACAD_REACTORS
330
C
102
}
330
C
100
AcDbDictionary
281
     1
  0
DICTIONARY
  5
17
102
{ACAD_REACTORS
330
C
102
}
330
C
100
AcDbDictionary
281
     1
  3
Standard
350
18
  0
DICTIONARY
  5
19
102
{ACAD_REACTORS
330
C
102
}
330
C
100
AcDbDictionary
281
     1
  0
ACDBDICTIONARYWDFLT
  5
E
102
{ACAD_REACTORS
330
C
102
}
330
C
100
AcDbDictionary
281
     1
  3
Normal
350
F
100
AcDbDictionaryWithDefault
340
F
  0
DICTIONARY
  5
101
102
{ACAD_REACTORS
330
C
102
}
330
C
100
AcDbDictionary
281
     1
  0
DICTIONARY
  5
2A
102
{ACAD_REACTORS
330
C
102
}
330
C
100
AcDbDictionary
281
     1
  3
2dWireframe
350
2F
  3
3D Hidden
350
31
  3
3dWireframe
350
30
  3
Basic
350
32
  3
Brighten
350
36
  3
ColorChange
350
3A
  3
Conceptual
350
34
  3
Dim
350
35
  3
Facepattern
350
39
  3
Flat
350
2B
  3
FlatWithEdges
350
2C
  3
Gouraud
350
2D
  3
GouraudWithEdges
350
2E
  3
Linepattern
350
38
  3
Realistic
350
33
  3
Thicken
350
37
  0
LAYOUT
  5
1E
102
{ACAD_REACTORS
330
1A
102
}
330
1A
100
AcDbPlotSettings
  1

  2
none_device
  4

  6

 40
0.0
 41
0.0
 42
0.0
 43
0.0
 44
0.0
 45
0.0
 46
0.0
 47
0.0
 48
0.0
 49
0.0
140
0.0
141
0.0
142
1.0
143
1.0
 70
   688
 72
     0
 73
     0
 74
     5
  7

 75
    16
 76
     0
 77
     2
 78
   300
147
1.0
148
0.0
149
0.0
100
AcDbLayout
  1
Layout1
 70
     1
 71
     1
 10
0.0
 20
0.0
 11
12.0
 21
9.0
 12
0.0
 22
0.0
 32
0.0
 14
1.000000000000000E+20
 24
1.000000000000000E+20
 34
1.000000000000000E+20
 15
-1.000000000000000E+20
 25
-1.000000000000000E+20
 35
-1.000000000000000E+20
146
0.0
 13
0.0
 23
0.0
 33
0.0
 16
1.0
 26
0.0
 36
0.0
 17
0.0
 27
1.0
 37
0.0
 76
     0
330
1B
  0
LAYOUT
  5
26
102
{ACAD_REACTORS
330
1A
102
}
330
1A
100
AcDbPlotSettings
  1

  2
none_device
  4

  6

 40
0.0
 41
0.0
 42
0.0
 43
0.0
 44
0.0
 45
0.0
 46
0.0
 47
0.0
 48
0.0
 49
0.0
140
0.0
141
0.0
142
1.0
143
1.0
 70
   688
 72
     0
 73
     0
 74
     5
  7

 75
    16
 76
     0
 77
     2
 78
   300
147
1.0
148
0.0
149
0.0
100
AcDbLayout
  1
Layout2
 70
     1
 71
     2
 10
0.0
 20
0.0
 11
0.0
 21
0.0
 12
0.0
 22
0.0
 32
0.0
 14
0.0
 24
0.0
 34
0.0
 15
0.0
 25
0.0
 35
0.0
146
0.0
 13
0.0
 23
0.0
 33
0.0
 16
1.0
 26
0.0
 36
0.0
 17
0.0
 27
1.0
 37
0.0
 76
     0
330
23
  0
LAYOUT
  5
22
102
{ACAD_REACTORS
330
1A
102
}
330
1A
100
AcDbPlotSettings
  1

  2
none_device
  4

  6

 40
0.0
 41
0.0
 42
0.0
 43
0.0
 44
0.0
 45
0.0
 46
0.0
 47
0.0
 48
0.0
 49
0.0
140
0.0
141
0.0
142
1.0
143
1.0
 70
  1712
 72
     0
 73
     0
 74
     0
  7

 75
     0
 76
     0
 77
     2
 78
   300
147
1.0
148
0.0
149
0.0
100
AcDbLayout
  1
Model
 70
     1
 71
     0
 10
0.0
 20
0.0
 11
12.0
 21
9.0
 12
0.0
 22
0.0
 32
0.0
 14
1.000000000000000E+20
 24
1.000000000000000E+20
 34
1.000000000000000E+20
 15
-1.000000000000000E+20
 25
-1.000000000000000E+20
 35
-1.000000000000000E+20
146
0.0
 13
0.0
 23
0.0
 33
0.0
 16
1.0
 26
0.0
 36
0.0
 17
0.0
 27
1.0
 37
0.0
 76
     0
330
1F
331
29
  0
MATERIAL
  5
3D
102
{ACAD_REACTORS
330
3B
102
}
330
3B
100
AcDbMaterial
  1
ByBlock
 72
     1
 94
      127
  0
MATERIAL
  5
3C
102
{ACAD_REACTORS
330
3B
102
}
330
3B
100
AcDbMaterial
  1
ByLayer
 72
     1
 94
      127
  0
MATERIAL
  5
3E
102
{ACAD_REACTORS
330
3B
102
}
330
3B
100
AcDbMaterial
  1
Global
 72
     1
 94
      127
  0
MLINESTYLE
  5
18
102
{ACAD_REACTORS
330
17
102
}
330
17
100
AcDbMlineStyle
  2
Standard
 70
     0
  3

 62
   256
 51
90.0
 52
90.0
 71
     2
 49
0.5
 62
   256
  6
BYLAYER
 49
-0.5
 62
   256
  6
BYLAYER
  0
ACDBPLACEHOLDER
  5
F
102
{ACAD_REACTORS
330
E
102
}
330
E
  0
VISUALSTYLE
  5
2F
102
{ACAD_REACTORS
330
2A
102
}
330
2A
100
AcDbVisualStyle
  2
2dWireframe
 70
     4
177
     2
291
     0
 71
     0
176
     1
 72
     2
176
     1
 73
     0
176
     1
 90
        0
176
     1
 40
-0.6
176
     1
 41
-30.0
176
     1
 62
     5
 63
     7
421
 16777215
176
     1
 74
     1
176
     1
 91
        4
176
     1
 64
     7
176
     1
 65
   257
176
     1
 75
     1
176
     1
175
     1
176
     1
 42
1.0
176
     1
 92
        0
176
     1
 66
   257
176
     1
 43
1.0
176
     1
 76
     1
176
     1
 77
     6
176
     1
 78
     2
176
     1
 67
     7
176
     1
 79
     5
176
     1
170
     0
176
     1
171
     0
176
     1
290
     0
176
     1
 93
        1
176
     1
 44
0.0
176
     1
173
     0
176
     1
  0
VISUALSTYLE
  5
31
102
{ACAD_REACTORS
330
2A
102
}
330
2A
100
AcDbVisualStyle
  2
3D Hidden
 70
     6
177
     2
291
     0
 71
     1
176
     1
 72
     2
176
     1
 73
     2
176
     1
 90
        0
176
     1
 40
-0.6
176
     1
 41
-30.0
176
     1
 62
     5
 63
     7
421
 16777215
176
     1
 74
     2
176
     1
 91
        2
176
     1
 64
     7
176
     1
 65
   257
176
     1
 75
     2
176
     1
175
     1
176
     1
 42
40.0
176
     1
 92
        0
176
     1
 66
   257
176
     1
 43
1.0
176
     1
 76
     1
176
     1
 77
     6
176
     1
 78
     2
176
     1
 67
     7
176
     1
 79
     3
176
     1
170
     0
176
     1
171
     0
176
     1
290
     0
176
     1
 93
        1
176
     1
 44
0.0
176
     1
173
     0
176
     1
  0
VISUALSTYLE
  5
30
102
{ACAD_REACTORS
330
2A
102
}
330
2A
100
AcDbVisualStyle
  2
3dWireframe
 70
     5
177
     2
291
     0
 71
     0
176
     1
 72
     2
176
     1
 73
     0
176
     1
 90
        0
176
     1
 40
-0.6
176
     1
 41
-30.0
176
     1
 62
     5
 63
     7
421
 16777215
176
     1
 74
     1
176
     1
 91
        4
176
     1
 64
     7
176
     1
 65
   257
176
     1
 75
     1
176
     1
175
     1
176
     1
 42
1.0
176
     1
 92
        0
176
     1
 66
   257
176
     1
 43
1.0
176
     1
 76
     1
176
     1
 77
     6
176
     1
 78
     2
176
     1
 67
     7
176
     1
 79
     5
176
     1
170
     0
176
     1
171
     0
176
     1
290
     0
176
     1
 93
        1
176
     1
 44
0.0
176
     1
173
     0
176
     1
  0
VISUALSTYLE
  5
32
102
{ACAD_REACTORS
330
2A
102
}
330
2A
100
AcDbVisualStyle
  2
Basic
 70
     7
177
     2
291
     1
 71
     1
176
     1
 72
     0
176
     1
 73
     1
176
     1
 90
        0
176
     1
 40
-0.6
176
     1
 41
-30.0
176
     1
 62
     5
 63
     7
421
 16777215
176
     1
 74
     0
176
     1
 91
        4
176
     1
 64
     7
176
     1
 65
   257
176
     1
 75
     1
176
     1
175
     1
176
     1
 42
1.0
176
     1
 92
        8
176
     1
 66
     7
176
     1
 43
1.0
176
     1
 76
     1
176
     1
 77
     6
176
     1
 78
     2
176
     1
 67
     7
176
     1
 79
     5
176
     1
170
     0
176
     1
171
     0
176
     1
290
     0
176
     1
 93
        1
176
     1
 44
0.0
176
     1
173
     0
176
     1
  0
VISUALSTYLE
  5
36
102
{ACAD_REACTORS
330
2A
102
}
330
2A
100
AcDbVisualStyle
  2
Brighten
 70
    12
177
     2
291
     1
 71
     2
176
     1
 72
     2
176
     1
 73
     0
176
     1
 90
        0
176
     1
 40
-0.6
176
     1
 41
-30.0
176
     1
 62
     5
 63
     7
421
 16777215
176
     1
 74
     1
176
     1
 91
        4
176
     1
 64
     7
176
     1
 65
   257
176
     1
 75
     1
176
     1
175
     1
176
     1
 42
1.0
176
     1
 92
        8
176
     1
 66
     7
176
     1
 43
1.0
176
     1
 76
     1
176
     1
 77
     6
176
     1
 78
     2
176
     1
 67
     7
176
     1
 79
     5
176
     1
170
     0
176
     1
171
     0
176
     1
290
     0
176
     1
 93
        1
176
     1
 44
50.0
176
     1
173
     0
176
     1
  0
VISUALSTYLE
  5
3A
102
{ACAD_REACTORS
330
2A
102
}
330
2A
100
AcDbVisualStyle
  2
ColorChange
 70
    16
177
     2
291
     1
 71
     2
176
     1
 72
     2
176
     1
 73
     3
176
     1
 90
        0
176
     1
 40
-0.6
176
     1
 41
-30.0
176
     1
 62
     5
 63
     8
421
  8421504
176
     1
 74
     1
176
     1
 91
        4
176
     1
 64
     7
176
     1
 65
   257
176
     1
 75
     1
176
     1
175
     1
176
     1
 42
1.0
176
     1
 92
        8
176
     1
 66
     8
424
  8421504
176
     1
 43
1.0
176
     1
 76
     1
176
     1
 77
     6
176
     1
 78
     2
176
     1
 67
     7
176
     1
 79
     5
176
     1
170
     0
176
     1
171
     0
176
     1
290
     0
176
     1
 93
        1
176
     1
 44
0.0
176
     1
173
     0
176
     1
  0
VISUALSTYLE
  5
34
102
{ACAD_REACTORS
330
2A
102
}
330
2A
100
AcDbVisualStyle
  2
Conceptual
 70
     9
177
     2
291
     0
 71
     3
176
     1
 72
     2
176
     1
 73
     0
176
     1
 90
        0
176
     1
 40
-0.6
176
     1
 41
-30.0
176
     1
 62
     5
 63
     7
421
 16777215
176
     1
 74
     2
176
     1
 91
        2
176
     1
 64
     7
176
     1
 65
   257
176
     1
 75
     1
176
     1
175
     1
176
     1
 42
40.0
176
     1
 92
        8
176
     1
 66
     7
176
     1
 43
1.0
176
     1
 76
     1
176
     1
 77
     6
176
     1
 78
     2
176
     1
 67
     7
176
     1
 79
     3
176
     1
170
     0
176
     1
171
     0
176
     1
290
     0
176
     1
 93
        1
176
     1
 44
0.0
176
     1
173
     0
176
     1
  0
VISUALSTYLE
  5
35
102
{ACAD_REACTORS
330
2A
102
}
330
2A
100
AcDbVisualStyle
  2
Dim
 70
    11
177
     2
291
     1
 71
     2
176
     1
 72
     2
176
     1
 73
     0
176
     1
 90
        0
176
     1
 40
-0.6
176
     1
 41
-30.0
176
     1
 62
     5
 63
     7
421
 16777215
176
     1
 74
     1
176
     1
 91
        4
176
     1
 64
     7
176
     1
 65
   257
176
     1
 75
     1
176
     1
175
     1
176
     1
 42
1.0
176
     1
 92
        8
176
     1
 66
     7
176
     1
 43
1.0
176
     1
 76
     1
176
     1
 77
     6
176
     1
 78
     2
176
     1
 67
     7
176
     1
 79
     5
176
     1
170
     0
176
     1
171
     0
176
     1
290
     0
176
     1
 93
        1
176
     1
 44
-50.0
176
     1
173
     0
176
     1
  0
VISUALSTYLE
  5
39
102
{ACAD_REACTORS
330
2A
102
}
330
2A
100
AcDbVisualStyle
  2
Facepattern
 70
    15
177
     2
291
     1
 71
     2
176
     1
 72
     2
176
     1
 73
     0
176
     1
 90
        0
176
     1
 40
-0.6
176
     1
 41
-30.0
176
     1
 62
     5
 63
     7
421
 16777215
176
     1
 74
     1
176
     1
 91
        4
176
     1
 64
     7
176
     1
 65
   257
176
     1
 75
     1
176
     1
175
     1
176
     1
 42
1.0
176
     1
 92
        8
176
     1
 66
     7
176
     1
 43
1.0
176
     1
 76
     1
176
     1
 77
     6
176
     1
 78
     2
176
     1
 67
     7
176
     1
 79
     5
176
     1
170
     0
176
     1
171
     0
176
     1
290
     0
176
     1
 93
        1
176
     1
 44
0.0
176
     1
173
     0
176
     1
  0
VISUALSTYLE
  5
2B
102
{ACAD_REACTORS
330
2A
102
}
330
2A
100
AcDbVisualStyle
  2
Flat
 70
     0
177
     2
291
     1
 71
     2
176
     1
 72
     1
176
     1
 73
     1
176
     1
 90
        2
176
     1
 40
-0.6
176
     1
 41
30.0
176
     1
 62
     5
 63
     7
421
 16777215
176
     1
 74
     0
176
     1
 91
        4
176
     1
 64
     7
176
     1
 65
   257
176
     1
 75
     1
176
     1
175
     1
176
     1
 42
1.0
176
     1
 92
        8
176
     1
 66
     7
176
     1
 43
1.0
176
     1
 76
     1
176
     1
 77
     6
176
     1
 78
     2
176
     1
 67
     7
176
     1
 79
     5
176
     1
170
     0
176
     1
171
     0
176
     1
290
     0
176
     1
 93
       13
176
     1
 44
0.0
176
     1
173
     0
176
     1
  0
VISUALSTYLE
  5
2C
102
{ACAD_REACTORS
330
2A
102
}
330
2A
100
AcDbVisualStyle
  2
FlatWithEdges
 70
     1
177
     2
291
     1
 71
     2
176
     1
 72
     1
176
     1
 73
     1
176
     1
 90
        2
176
     1
 40
-0.6
176
     1
 41
30.0
176
     1
 62
     5
 63
     7
421
 16777215
176
     1
 74
     1
176
     1
 91
        4
176
     1
 64
     7
176
     1
 65
   257
176
     1
 75
     1
176
     1
175
     1
176
     1
 42
1.0
176
     1
 92
        0
176
     1
 66
   257
176
     1
 43
1.0
176
     1
 76
     1
176
     1
 77
     6
176
     1
 78
     2
176
     1
 67
     7
176
     1
 79
     5
176
     1
170
     0
176
     1
171
     0
176
     1
290
     0
176
     1
 93
       13
176
     1
 44
0.0
176
     1
173
     0
176
     1
  0
VISUALSTYLE
  5
2D
102
{ACAD_REACTORS
330
2A
102
}
330
2A
100
AcDbVisualStyle
  2
Gouraud
 70
     2
177
     2
291
     1
 71
     2
176
     1
 72
     2
176
     1
 73
     1
176
     1
 90
        2
176
     1
 40
-0.6
176
     1
 41
30.0
176
     1
 62
     5
 63
     7
421
 16777215
176
     1
 74
     0
176
     1
 91
        4
176
     1
 64
     7
176
     1
 65
   257
176
     1
 75
     1
176
     1
175
     1
176
     1
 42
1.0
176
     1
 92
        0
176
     1
 66
     7
176
     1
 43
1.0
176
     1
 76
     1
176
     1
 77
     6
176
     1
 78
     2
176
     1
 67
     7
176
     1
 79
     5
176
     1
170
     0
176
     1
171
     0
176
     1
290
     0
176
     1
 93
       13
176
     1
 44
0.0
176
     1
173
     0
176
     1
  0
VISUALSTYLE
  5
2E
102
{ACAD_REACTORS
330
2A
102
}
330
2A
100
AcDbVisualStyle
  2
GouraudWithEdges
 70
     3
177
     2
291
     1
 71
     2
176
     1
 72
     2
176
     1
 73
     1
176
     1
 90
        2
176
     1
 40
-0.6
176
     1
 41
30.0
176
     1
 62
     5
 63
     7
421
 16777215
176
     1
 74
     1
176
     1
 91
        4
176
     1
 64
     7
176
     1
 65
   257
176
     1
 75
     1
176
     1
175
     1
176
     1
 42
1.0
176
     1
 92
        0
176
     1
 66
   257
176
     1
 43
1.0
176
     1
 76
     1
176
     1
 77
     6
176
     1
 78
     2
176
     1
 67
     7
176
     1
 79
     5
176
     1
170
     0
176
     1
171
     0
176
     1
290
     0
176
     1
 93
       13
176
     1
 44
0.0
176
     1
173
     0
176
     1
  0
VISUALSTYLE
  5
38
102
{ACAD_REACTORS
330
2A
102
}
330
2A
100
AcDbVisualStyle
  2
Linepattern
 70
    14
177
     2
291
     1
 71
     2
176
     1
 72
     2
176
     1
 73
     0
176
     1
 90
        0
176
     1
 40
-0.6
176
     1
 41
-30.0
176
     1
 62
     5
 63
     7
421
 16777215
176
     1
 74
     1
176
     1
 91
        4
176
     1
 64
     7
176
     1
 65
   257
176
     1
 75
     7
176
     1
175
     7
176
     1
 42
1.0
176
     1
 92
        8
176
     1
 66
     7
176
     1
 43
1.0
176
     1
 76
     1
176
     1
 77
     6
176
     1
 78
     2
176
     1
 67
     7
176
     1
 79
     5
176
     1
170
     0
176
     1
171
     0
176
     1
290
     0
176
     1
 93
        1
176
     1
 44
0.0
176
     1
173
     0
176
     1
  0
VISUALSTYLE
  5
33
102
{ACAD_REACTORS
330
2A
102
}
330
2A
100
AcDbVisualStyle
  2
Realistic
 70
     8
177
     2
291
     0
 71
     2
176
     1
 72
     2
176
     1
 73
     0
176
     1
 90
        0
176
     1
 40
-0.6
176
     1
 41
-30.0
176
     1
 62
     5
 63
     7
421
 16777215
176
     1
 74
     1
176
     1
 91
        0
176
     1
 64
     7
176
     1
 65
   257
176
     1
 75
     1
176
     1
175
     1
176
     1
 42
1.0
176
     1
 92
        8
176
     1
 66
     8
424
  7895160
176
     1
 43
1.0
176
     1
 76
     1
176
     1
 77
     6
176
     1
 78
     2
176
     1
 67
     7
176
     1
 79
     5
176
     1
170
     0
176
     1
171
     0
176
     1
290
     0
176
     1
 93
       13
176
     1
 44
0.0
176
     1
173
     0
176
     1
  0
VISUALSTYLE
  5
37
102
{ACAD_REACTORS
330
2A
102
}
330
2A
100
AcDbVisualStyle
  2
Thicken
 70
    13
177
     2
291
     1
 71
     2
176
     1
 72
     2
176
     1
 73
     0
176
     1
 90
        0
176
     1
 40
-0.6
176
     1
 41
-30.0
176
     1
 62
     5
 63
     7
421
 16777215
176
     1
 74
     1
176
     1
 91
        4
176
     1
 64
     7
176
     1
 65
   257
176
     1
 75
     1
176
     1
175
     1
176
     1
 42
1.0
176
     1
 92
       12
176
     1
 66
     7
176
     1
 43
1.0
176
     1
 76
     1
176
     1
 77
     6
176
     1
 78
     2
176
     1
 67
     7
176
     1
 79
     5
176
     1
170
     0
176
     1
171
     0
176
     1
290
     0
176
     1
 93
        1
176
     1
 44
0.0
176
     1
173
     0
176
     1
  0
ENDSEC
  0
EOF
