  0
SECTION
  2
HEADER
  9
$ACADVER
  1
AC1024
  9
$ACADMAINTVER
 70
     6
  9
$DWGCODEPAGE
  3
UNDEFINED
  9
$INSBASE
 10
0.0
 20
0.0
 30
0.0
  9
$EXTMIN
 10
1.000000000000000E+20
 20
1.000000000000000E+20
 30
1.000000000000000E+20
  9
$EXTMAX
 10
-1.000000000000000E+20
 20
-1.000000000000000E+20
 30
-1.000000000000000E+20
  9
$LIMMIN
 10
0.0
 20
0.0
  9
$LIMMAX
 10
12.0
 20
9.0
  9
$ORTHOMODE
 70
     0
  9
$REGENMODE
 70
     1
  9
$FILLMODE
 70
     1
  9
$QTEXTMODE
 70
     0
  9
$MIRRTEXT
 70
     1
  9
$LTSCALE
 40
1.0
  9
$ATTMODE
 70
     1
  9
$TEXTSIZE
 40
0.2
  9
$TRACEWID
 40
0.05
  9
$TEXTSTYLE
  7
Standard
  9
$CLAYER
  8
0
  9
$CELTYPE
  6
ByLayer
  9
$CECOLOR
 62
   256
  9
$CELTSCALE
 40
1.0
  9
$DISPSILH
 70
     0
  9
$DIMSCALE
 40
1.0
  9
$DIMASZ
 40
0.18
  9
$DIMEXO
 40
0.0625
  9
$DIMDLI
 40
0.38
  9
$DIMRND
 40
0.0
  9
$DIMDLE
 40
0.0
  9
$DIMEXE
 40
0.18
  9
$DIMTP
 40
0.0
  9
$DIMTM
 40
0.0
  9
$DIMTXT
 40
0.18
  9
$DIMCEN
 40
0.09
  9
$DIMTSZ
 40
0.0
  9
$DIMTOL
 70
     0
  9
$DIMLIM
 70
     0
  9
$DIMTIH
 70
     1
  9
$DIMTOH
 70
     1
  9
$DIMSE1
 70
     0
  9
$DIMSE2
 70
     0
  9
$DIMTAD
 70
     0
  9
$DIMZIN
 70
     0
  9
$DIMBLK
  1

  9
$DIMASO
 70
     1
  9
$DIMSHO
 70
     1
  9
$DIMPOST
  1

  9
$DIMAPOST
  1

  9
$DIMALT
 70
     0
  9
$DIMALTD
 70
     2
  9
$DIMALTF
 40
25.4
  9
$DIMLFAC
 40
1.0
  9
$DIMTOFL
 70
     0
  9
$DIMTVP
 40
0.0
  9
$DIMTIX
 70
     0
  9
$DIMSOXD
 70
     0
  9
$DIMSAH
 70
     0
  9
$DIMBLK1
  1

  9
$DIMBLK2
  1

  9
$DIMSTYLE
  2
Standard
  9
$DIMCLRD
 70
     0
  9
$DIMCLRE
 70
     0
  9
$DIMCLRT
 70
     0
  9
$DIMTFAC
 40
1.0
  9
$DIMGAP
 40
0.09
  9
$DIMJUST
 70
     0
  9
$DIMSD1
 70
     0
  9
$DIMSD2
 70
     0
  9
$DIMTOLJ
 70
     1
  9
$DIMTZIN
 70
     0
  9
$DIMALTZ
 70
     0
  9
$DIMALTTZ
 70
     0
  9
$DIMUPT
 70
     0
  9
$DIMDEC
 70
     4
  9
$DIMTDEC
 70
     4
  9
$DIMALTU
 70
     2
  9
$DIMALTTD
 70
     2
  9
$DIMTXSTY
  7
Standard
  9
$DIMAUNIT
 70
     0
  9
$DIMADEC
 70
     0
  9
$DIMALTRND
 40
0.0
  9
$DIMAZIN
 70
     0
  9
$DIMDSEP
 70
    46
  9
$DIMATFIT
 70
     3
  9
$DIMFRAC
 70
     0
  9
$DIMLDRBLK
  1

  9
$DIMLUNIT
 70
     2
  9
$DIMLWD
 70
    -2
  9
$DIMLWE
 70
    -2
  9
$DIMTMOVE
 70
     0
  9
$DIMFXL
 40
1.0
  9
$DIMFXLON
 70
     0
  9
$DIMJOGANG
 40
0.7853981633974483
  9
$DIMTFILL
 70
     0
  9
$DIMTFILLCLR
 70
     0
  9
$DIMARCSYM
 70
     0
  9
$DIMLTYPE
  6

  9
$DIMLTEX1
  6

  9
$DIMLTEX2
  6

  9
$DIMTXTDIRECTION
 70
     0
  9
$LUNITS
 70
     2
  9
$LUPREC
 70
     4
  9
$SKETCHINC
 40
0.1
  9
$FILLETRAD
 40
0.5
  9
$AUNITS
 70
     0
  9
$AUPREC
 70
     0
  9
$MENU
  1
.
  9
$ELEVATION
 40
0.0
  9
$PELEVATION
 40
0.0
  9
$THICKNESS
 40
0.0
  9
$LIMCHECK
 70
     0
  9
$CHAMFERA
 40
0.5
  9
$CHAMFERB
 40
0.5
  9
$CHAMFERC
 40
1.0
  9
$CHAMFERD
 40
0.0
  9
$SKPOLY
 70
     0
  9
$TDCREATE
 40
2457917.584571748
  9
$TDUCREATE
 40
2457917.209571759
  9
$TDUPDATE
 40
2457917.584571748
  9
$TDUUPDATE
 40
2457917.209571759
  9
$TDINDWG
 40
0.0000000116
  9
$TDUSRTIMER
 40
0.0000000116
  9
$USRTIMER
 70
     1
  9
$ANGBASE
 50
0.0
  9
$ANGDIR
 70
     0
  9
$PDMODE
 70
     0
  9
$PDSIZE
 40
0.0
  9
$PLINEWID
 40
0.0
  9
$SPLFRAME
 70
     0
  9
$SPLINETYPE
 70
     6
  9
$SPLINESEGS
 70
     8
  9
$HANDSEED
  5
112
  9
$SURFTAB1
 70
     6
  9
$SURFTAB2
 70
     6
  9
$SURFTYPE
 70
     6
  9
$SURFU
 70
     6
  9
$SURFV
 70
     6
  9
$UCSBASE
  2

  9
$UCSNAME
  2

  9
$UCSORG
 10
0.0
 20
0.0
 30
0.0
  9
$UCSXDIR
 10
1.0
 20
0.0
 30
0.0
  9
$UCSYDIR
 10
0.0
 20
1.0
 30
0.0
  9
$UCSORTHOREF
  2

  9
$UCSORTHOVIEW
 70
     0
  9
$UCSORGTOP
 10
0.0
 20
0.0
 30
0.0
  9
$UCSORGBOTTOM
 10
0.0
 20
0.0
 30
0.0
  9
$UCSORGLEFT
 10
0.0
 20
0.0
 30
0.0
  9
$UCSORGRIGHT
 10
0.0
 20
0.0
 30
0.0
  9
$UCSORGFRONT
 10
0.0
 20
0.0
 30
0.0
  9
$UCSORGBACK
 10
0.0
 20
0.0
 30
0.0
  9
$PUCSBASE
  2

  9
$PUCSNAME
  2

  9
$PUCSORG
 10
0.0
 20
0.0
 30
0.0
  9
$PUCSXDIR
 10
1.0
 20
0.0
 30
0.0
  9
$PUCSYDIR
 10
0.0
 20
1.0
 30
0.0
  9
$PUCSORTHOREF
  2

  9
$PUCSORTHOVIEW
 70
     0
  9
$PUCSORGTOP
 10
0.0
 20
0.0
 30
0.0
  9
$PUCSORGBOTTOM
 10
0.0
 20
0.0
 30
0.0
  9
$PUCSORGLEFT
 10
0.0
 20
0.0
 30
0.0
  9
$PUCSORGRIGHT
 10
0.0
 20
0.0
 30
0.0
  9
$PUCSORGFRONT
 10
0.0
 20
0.0
 30
0.0
  9
$PUCSORGBACK
 10
0.0
 20
0.0
 30
0.0
  9
$USERI1
 70
     0
  9
$USERI2
 70
     0
  9
$USERI3
 70
     0
  9
$USERI4
 70
     0
  9
$USERI5
 70
     0
  9
$USERR1
 40
0.0
  9
$USERR2
 40
0.0
  9
$USERR3
 40
0.0
  9
$USERR4
 40
0.0
  9
$USERR5
 40
0.0
  9
$WORLDVIEW
 70
     1
  9
$SHADEDGE
 70
     3
  9
$SHADEDIF
 70
    70
  9
$TILEMODE
 70
     1
  9
$MAXACTVP
 70
    64
  9
$PINSBASE
 10
0.0
 20
0.0
 30
0.0
  9
$PLIMCHECK
 70
     0
  9
$PEXTMIN
 10
1.000000000000000E+20
 20
1.000000000000000E+20
 30
1.000000000000000E+20
  9
$PEXTMAX
 10
-1.000000000000000E+20
 20
-1.000000000000000E+20
 30
-1.000000000000000E+20
  9
$PLIMMIN
 10
0.0
 20
0.0
  9
$PLIMMAX
 10
12.0
 20
9.0
  9
$UNITMODE
 70
     0
  9
$VISRETAIN
 70
     1
  9
$PLINEGEN
 70
     0
  9
$PSLTSCALE
 70
     1
  9
$TREEDEPTH
 70
  3020
  9
$CMLSTYLE
  2
Standard
  9
$CMLJUST
 70
     0
  9
$CMLSCALE
 40
1.0
  9
$PROXYGRAPHICS
 70
     1
  9
$MEASUREMENT
 70
     0
  9
$CELWEIGHT
370
    -1
  9
$ENDCAPS
280
     0
  9
$JOINSTYLE
280
     0
  9
$LWDISPLAY
290
     1
  9
$INSUNITS
 70
     1
  9
$HYPERLINKBASE
  1

  9
$STYLESHEET
  1

  9
$XEDIT
290
     1
  9
$CEPSNTYPE
380
     0
  9
$PSTYLEMODE
290
     1
  9
$FINGERPRINTGUID
  2
{92C92360-1A5A-6D07-C956-7F9B24031016}
  9
$VERSIONGUID
  2
{FAEB1C32-E019-11D5-929B-00C0DF256EC4}
  9
$EXTNAMES
290
     1
  9
$PSVPSCALE
 40
0.0
  9
$OLESTARTUP
290
     0
  9
$SORTENTS
280
   127
  9
$INDEXCTL
280
     0
  9
$HIDETEXT
280
     1
  9
$XCLIPFRAME
280
     2
  9
$HALOGAP
280
     0
  9
$OBSCOLOR
 70
   257
  9
$OBSLTYPE
280
     0
  9
$INTERSECTIONDISPLAY
280
     0
  9
$INTERSECTIONCOLOR
 70
   257
  9
$DIMASSOC
280
     2
  9
$PROJECTNAME
  1

  9
$CAMERADISPLAY
290
     0
  9
$LENSLENGTH
 40
50.0
  9
$CAMERAHEIGHT
 40
0.0
  9
$STEPSPERSEC
 40
2.0
  9
$STEPSIZE
 40
6.0
  9
$3DDWFPREC
 40
2.0
  9
$PSOLWIDTH
 40
0.25
  9
$PSOLHEIGHT
 40
4.0
  9
$LOFTANG1
 40
1.570796326794897
  9
$LOFTANG2
 40
1.570796326794897
  9
$LOFTMAG1
 40
0.0
  9
$LOFTMAG2
 40
0.0
  9
$LOFTPARAM
 70
     7
  9
$LOFTNORMALS
280
     1
  9
$LATITUDE
 40
37.795
  9
$LONGITUDE
 40
-122.394
  9
$NORTHDIRECTION
 40
0.0
  9
$TIMEZONE
 70
 -8000
  9
$LIGHTGLYPHDISPLAY
280
     1
  9
$TILEMODELIGHTSYNCH
280
     1
  9
$CMATERIAL
347
3C
  9
$SOLIDHIST
280
     1
  9
$SHOWHIST
280
     1
  9
$DWFFRAME
280
     2
  9
$DGNFRAME
280
     2
  9
$REALWORLDSCALE
290
     1
  9
$INTERFERECOLOR
 62
   256
  9
$CSHADOW
280
     0
  9
$SHADOWPLANELOCATION
 40
0.0
  0
ENDSEC
  0
SECTION
  2
CLASSES
  0
CLASS
  1
ACDBDICTIONARYWDFLT
  2
AcDbDictionaryWithDefault
  3
ObjectDBX Classes
 90
        0
 91
        4
280
     0
281
     0
  0
CLASS
  1
VISUALSTYLE
  2
AcDbVisualStyle
  3
ObjectDBX Classes
 90
     4095
 91
        4
280
     0
281
     0
  0
CLASS
  1
MATERIAL
  2
AcDbMaterial
  3
ObjectDBX Classes
 90
     1153
 91
        4
280
     0
281
     0
  0
CLASS
  1
SUN
  2
AcDbSun
  3
SCENEOE
 90
     1024
 91
        4
280
     0
281
     0
  0
ENDSEC
  0
SECTION
  2
TABLES
  0
TABLE
  2
VPORT
  5
8
330
0
100
AcDbSymbolTable
 70
     1
  0
VPORT
  5
29
330
8
100
AcDbSymbolTableRecord
100
AcDbViewportTableRecord
  2
*Active
 70
     0
 10
0.0
 20
0.0
 11
1.0
 21
1.0
 12
0.0
 22
0.0
 13
0.0
 23
0.0
 14
0.5
 24
0.5
 15
0.5
 25
0.5
 16
0.0
 26
0.0
 36
1.0
 17
91.00082462281999
 27
-128.4993055234307
 37
0.0
 40
256.9986110468615
 41
0.7081814508812795
 42
50.0
 43
0.0
 44
0.0
 50
0.0
 51
0.0
 71
     0
 72
   100
 73
     1
 74
     3
 75
     0
 76
     0
 77
     0
 78
     0
281
     0
 65
     1
110
0.0
120
0.0
130
0.0
111
1.0
121
0.0
131
0.0
112
0.0
122
1.0
132
0.0
 79
     0
146
0.0
 60
     3
 61
     5
292
     1
282
     1
141
0.0
142
0.0
 63
   250
361
3F
  0
ENDTAB
  0
TABLE
  2
LTYPE
  5
5
330
0
100
AcDbSymbolTable
 70
     1
  0
LTYPE
  5
14
330
5
100
AcDbSymbolTableRecord
100
AcDbLinetypeTableRecord
  2
ByBlock
 70
     0
  3

 72
    65
 73
     0
 40
0.0
  0
LTYPE
  5
15
330
5
100
AcDbSymbolTableRecord
100
AcDbLinetypeTableRecord
  2
ByLayer
 70
     0
  3

 72
    65
 73
     0
 40
0.0
  0
LTYPE
  5
16
330
5
100
AcDbSymbolTableRecord
100
AcDbLinetypeTableRecord
  2
Continuous
 70
     0
  3
Solid line
 72
    65
 73
     0
 40
0.0
  0
ENDTAB
  0
TABLE
  2
LAYER
  5
2
330
0
100
AcDbSymbolTable
 70
     2
  0
LAYER
  5
10
330
2
100
AcDbSymbolTableRecord
100
AcDbLayerTableRecord
  2
0
 70
     0
 62
     7
  6
Continuous
370
    -3
390
F
347
3E
  0
LAYER
  5
40
330
2
100
AcDbSymbolTableRecord
100
AcDbLayerTableRecord
  2
_U+30EC_U+30A4_U+30E4_U+30FC 1
 70
     0
 62
     7
  6
Continuous
370
    -3
390
F
347
3E
  0
ENDTAB
  0
TABLE
  2
STYLE
  5
3
330
0
100
AcDbSymbolTable
 70
     1
  0
STYLE
  5
11
330
3
100
AcDbSymbolTableRecord
100
AcDbTextStyleTableRecord
  2
Standard
 70
     0
 40
0.0
 41
1.0
 50
0.0
 71
     0
 42
0.2
  3
txt
  4

  0
ENDTAB
  0
TABLE
  2
VIEW
  5
6
330
0
100
AcDbSymbolTable
 70
     0
  0
ENDTAB
  0
TABLE
  2
UCS
  5
7
330
0
100
AcDbSymbolTable
 70
     0
  0
ENDTAB
  0
TABLE
  2
APPID
  5
9
330
0
100
AcDbSymbolTable
 70
     1
  0
APPID
  5
12
330
9
100
AcDbSymbolTableRecord
100
AcDbRegAppTableRecord
  2
ACAD
 70
     0
  0
ENDTAB
  0
TABLE
  2
DIMSTYLE
  5
A
330
0
100
AcDbSymbolTable
 70
     1
100
AcDbDimStyleTable
  0
DIMSTYLE
105
27
330
A
100
AcDbSymbolTableRecord
100
AcDbDimStyleTableRecord
  2
Standard
 70
     0
178
     0
340
11
  0
ENDTAB
  0
TABLE
  2
BLOCK_RECORD
  5
1
330
0
100
AcDbSymbolTable
 70
     7
  0
BLOCK_RECORD
  5
1F
330
1
100
AcDbSymbolTableRecord
100
AcDbBlockTableRecord
  2
*Model_Space
340
22
 70
     0
280
     1
281
     0
  0
BLOCK_RECORD
  5
1B
330
1
100
AcDbSymbolTableRecord
100
AcDbBlockTableRecord
  2
*Paper_Space
340
1E
 70
     0
280
     1
281
     0
  0
BLOCK_RECORD
  5
23
330
1
100
AcDbSymbolTableRecord
100
AcDbBlockTableRecord
  2
*Paper_Space0
340
26
 70
     0
280
     1
281
     0
  0
BLOCK_RECORD
  5
54
330
1
100
AcDbSymbolTableRecord
100
AcDbBlockTableRecord
  2
block 2
340
0
102
{BLKREFS
331
55
102
}
 70
     0
280
     1
281
     0
  0
BLOCK_RECORD
  5
65
330
1
100
AcDbSymbolTableRecord
100
AcDbBlockTableRecord
  2
block 3
340
0
102
{BLKREFS
331
66
102
}
 70
     0
280
     1
281
     0
  0
BLOCK_RECORD
  5
6D
330
1
100
AcDbSymbolTableRecord
100
AcDbBlockTableRecord
  2
block 4
340
0
102
{BLKREFS
331
6E
102
}
 70
     0
280
     1
281
     0
  0
BLOCK_RECORD
  5
7D
330
1
100
AcDbSymbolTableRecord
100
AcDbBlockTableRecord
  2
block 5
340
0
102
{BLKREFS
331
7E
102
}
 70
     0
280
     1
281
     0
  0
BLOCK_RECORD
  5
9E
330
1
100
AcDbSymbolTableRecord
100
AcDbBlockTableRecord
  2
block 6
340
0
102
{BLKREFS
331
9F
102
}
 70
     0
280
     1
281
     0
  0
BLOCK_RECORD
  5
A4
330
1
100
AcDbSymbolTableRecord
100
AcDbBlockTableRecord
  2
block 7
340
0
102
{BLKREFS
331
A5
102
}
 70
     0
280
     1
281
     0
  0
ENDTAB
  0
ENDSEC
  0
SECTION
  2
BLOCKS
  0
BLOCK
  5
20
330
1F
100
AcDbEntity
  8
0
100
AcDbBlockBegin
  2
*Model_Space
 70
     0
 10
0.0
 20
0.0
 30
0.0
  3
*Model_Space
  1

  0
ENDBLK
  5
21
330
1F
100
AcDbEntity
  8
0
100
AcDbBlockEnd
  0
BLOCK
  5
1C
330
1B
100
AcDbEntity
 67
     1
  8
0
100
AcDbBlockBegin
  2
*Paper_Space
 70
     0
 10
0.0
 20
0.0
 30
0.0
  3
*Paper_Space
  1

  0
ENDBLK
  5
1D
330
1B
100
AcDbEntity
 67
     1
  8
0
100
AcDbBlockEnd
  0
BLOCK
  5
24
330
23
100
AcDbEntity
  8
0
100
AcDbBlockBegin
  2
*Paper_Space0
 70
     0
 10
0.0
 20
0.0
 30
0.0
  3
*Paper_Space0
  1

  0
ENDBLK
  5
25
330
23
100
AcDbEntity
  8
0
100
AcDbBlockEnd
  0
BLOCK
  5
56
330
54
100
AcDbEntity
  8
0
100
AcDbBlockBegin
  2
block 2
 70
     0
 10
0.0
 20
0.0
 30
0.0
  3
block 2
  1

  0
SPLINE
  5
58
330
54
100
AcDbEntity
  8
_U+30EC_U+30A4_U+30E4_U+30FC 1
370
     0
100
AcDbSpline
210
0.0
220
0.0
230
1.0
 70
    11
 71
     3
 72
    32
 73
    28
 74
     0
 42
0.0000000001
 43
0.0000000001
 12
1.0
 22
0.0
 32
0.0
 13
1.0
 23
0.0
 33
0.0
 40
0.0
 40
0.0
 40
0.0
 40
0.0
 40
1.0
 40
1.0
 40
1.0
 40
2.0
 40
2.0
 40
2.0
 40
3.0
 40
3.0
 40
3.0
 40
4.0
 40
4.0
 40
4.0
 40
5.0
 40
5.0
 40
5.0
 40
6.0
 40
6.0
 40
6.0
 40
7.0
 40
7.0
 40
7.0
 40
8.0
 40
8.0
 40
8.0
 40
9.0
 40
9.0
 40
9.0
 40
9.0
 10
105.984228489129
 20
-139.0760931726963
 30
0.0
 10
105.985606527323
 20
-139.6276529598848
 30
0.0
 10
105.4312906637464
 20
-139.637643736792
 30
0.0
 10
105.2176947436609
 20
-139.638332755889
 30
0.0
 10
104.9872178556977
 20
-139.6386772654376
 30
0.0
 10
104.3395399044707
 20
-139.6197292402687
 30
0.0
 10
104.3385063758251
 20
-139.038541631907
 30
0.0
 10
104.3381618662766
 20
-138.8531954948006
 30
0.0
 10
104.4074082855301
 20
-138.5910237283731
 30
0.0
 10
104.7395154903082
 20
-138.5493380730016
 30
0.0
 10
104.7395154903082
 20
-138.5493380730016
 30
0.0
 10
104.7398599998567
 20
-138.7777479036736
 30
0.0
 10
104.7398599998567
 20
-138.7777479036736
 30
0.0
 10
104.6826714148016
 20
-138.7891167187749
 30
0.0
 10
104.5348768184843
 20
-138.8235676736275
 30
0.0
 10
104.5352213280329
 20
-139.0406086891982
 30
0.0
 10
104.5359103471299
 20
-139.3523898306133
 30
0.0
 10
104.8638834373257
 20
-139.3947645050819
 30
0.0
 10
105.0692111282466
 20
-139.4078558679258
 30
0.0
 10
104.9906629511829
 20
-139.3086371179506
 30
0.0
 10
104.9310627992881
 20
-139.2362901127604
 30
0.0
 10
104.9307182897395
 20
-139.0419867273923
 30
0.0
 10
104.930373780191
 20
-138.8497503993154
 30
0.0
 10
105.0375162497823
 20
-138.5262559332504
 30
0.0
 10
105.4436930074933
 20
-138.5255669141533
 30
0.0
 10
105.7633978685244
 20
-138.5248778950563
 30
0.0
 10
105.9835394700319
 20
-138.7367512673991
 30
0.0
 10
105.984228489129
 20
-139.0760931726963
 30
0.0
  0
SPLINE
  5
59
330
54
100
AcDbEntity
  8
_U+30EC_U+30A4_U+30E4_U+30FC 1
370
     0
100
AcDbSpline
210
0.0
220
0.0
230
1.0
 70
    11
 71
     3
 72
    17
 73
    13
 74
     0
 42
0.0000000001
 43
0.0000000001
 12
1.0
 22
0.0
 32
0.0
 13
1.0
 23
0.0
 33
0.0
 40
0.0
 40
0.0
 40
0.0
 40
0.0
 40
1.0
 40
1.0
 40
1.0
 40
2.0
 40
2.0
 40
2.0
 40
3.0
 40
3.0
 40
3.0
 40
4.0
 40
4.0
 40
4.0
 40
4.0
 10
105.1253661846562
 20
-139.0595567143671
 30
0.0
 10
105.1260552037532
 20
-139.3399874868664
 30
0.0
 10
105.3375840665475
 20
-139.3802951040438
 30
0.0
 10
105.454028293949
 20
-139.3799505944953
 30
0.0
 10
105.6297281636967
 20
-139.3796060849468
 30
0.0
 10
105.7923366706005
 20
-139.2776312585834
 30
0.0
 10
105.791992161052
 20
-139.0809163063756
 30
0.0
 10
105.7916476515035
 20
-138.9520697352273
 30
0.0
 10
105.7320474996087
 20
-138.7643120312812
 30
0.0
 10
105.4464490838814
 20
-138.7650010503782
 30
0.0
 10
105.2221733677917
 20
-138.7656900694753
 30
0.0
 10
105.1250216751076
 20
-138.9148627039866
 30
0.0
 10
105.1253661846562
 20
-139.0595567143671
 30
0.0
  0
HATCH
  5
5A
330
54
100
AcDbEntity
  8
_U+30EC_U+30A4_U+30E4_U+30FC 1
 62
     7
420
 16777215
100
AcDbHatch
 10
0.0
 20
0.0
 30
0.0
210
0.0
220
0.0
230
1.0
  2
SOLID
 70
     1
 71
     0
 91
        2
 92
        1
 93
        1
 72
     4
 94
        3
 73
     0
 74
     1
 95
       32
 96
       28
 40
0.0
 40
0.0
 40
0.0
 40
0.0
 40
1.0
 40
1.0
 40
1.0
 40
2.0
 40
2.0
 40
2.0
 40
3.0
 40
3.0
 40
3.0
 40
4.0
 40
4.0
 40
4.0
 40
5.0
 40
5.0
 40
5.0
 40
6.0
 40
6.0
 40
6.0
 40
7.0
 40
7.0
 40
7.0
 40
8.0
 40
8.0
 40
8.0
 40
9.0
 40
9.0
 40
9.0
 40
9.0
 10
105.984228489129
 20
-139.0760931726963
 10
105.985606527323
 20
-139.6276529598848
 10
105.4312906637464
 20
-139.637643736792
 10
105.2176947436609
 20
-139.638332755889
 10
104.9872178556977
 20
-139.6386772654376
 10
104.3395399044707
 20
-139.6197292402687
 10
104.3385063758251
 20
-139.038541631907
 10
104.3381618662766
 20
-138.8531954948006
 10
104.4074082855301
 20
-138.5910237283731
 10
104.7395154903082
 20
-138.5493380730016
 10
104.7395154903082
 20
-138.5493380730016
 10
104.7398599998567
 20
-138.7777479036736
 10
104.7398599998567
 20
-138.7777479036736
 10
104.6826714148016
 20
-138.7891167187749
 10
104.5348768184843
 20
-138.8235676736275
 10
104.5352213280329
 20
-139.0406086891982
 10
104.5359103471299
 20
-139.3523898306133
 10
104.8638834373257
 20
-139.3947645050819
 10
105.0692111282466
 20
-139.4078558679258
 10
104.9906629511829
 20
-139.3086371179506
 10
104.9310627992881
 20
-139.2362901127604
 10
104.9307182897395
 20
-139.0419867273923
 10
104.930373780191
 20
-138.8497503993154
 10
105.0375162497823
 20
-138.5262559332504
 10
105.4436930074933
 20
-138.5255669141533
 10
105.7633978685244
 20
-138.5248778950563
 10
105.9835394700319
 20
-138.7367512673991
 10
105.984228489129
 20
-139.0760931726963
 97
        0
 97
        0
 92
        1
 93
        1
 72
     4
 94
        3
 73
     0
 74
     1
 95
       17
 96
       13
 40
0.0
 40
0.0
 40
0.0
 40
0.0
 40
1.0
 40
1.0
 40
1.0
 40
2.0
 40
2.0
 40
2.0
 40
3.0
 40
3.0
 40
3.0
 40
4.0
 40
4.0
 40
4.0
 40
4.0
 10
105.1253661846562
 20
-139.0595567143671
 10
105.1260552037532
 20
-139.3399874868664
 10
105.3375840665475
 20
-139.3802951040438
 10
105.454028293949
 20
-139.3799505944953
 10
105.6297281636967
 20
-139.3796060849468
 10
105.7923366706005
 20
-139.2776312585834
 10
105.791992161052
 20
-139.0809163063756
 10
105.7916476515035
 20
-138.9520697352273
 10
105.7320474996087
 20
-138.7643120312812
 10
105.4464490838814
 20
-138.7650010503782
 10
105.2221733677917
 20
-138.7656900694753
 10
105.1250216751076
 20
-138.9148627039866
 10
105.1253661846562
 20
-139.0595567143671
 97
        0
 97
        0
 75
     2
 76
     1
 98
        0
  0
POLYLINE
  5
5B
330
54
100
AcDbEntity
  8
_U+30EC_U+30A4_U+30E4_U+30FC 1
370
     0
100
AcDb2dPolyline
 66
     1
 10
0.0
 20
0.0
 30
0.0
  0
VERTEX
  5
5C
330
5B
100
AcDbEntity
  8
_U+30EC_U+30A4_U+30E4_U+30FC 1
370
     0
100
AcDbVertex
100
AcDb2dVertex
 10
105.9318630377531
 20
-138.293022968899
 30
0.0
  0
VERTEX
  5
5D
330
5B
100
AcDbEntity
  8
_U+30EC_U+30A4_U+30E4_U+30FC 1
370
     0
100
AcDbVertex
100
AcDb2dVertex
 10
105.6803710673299
 20
-138.293711987996
 30
0.0
  0
VERTEX
  5
5E
330
5B
100
AcDbEntity
  8
_U+30EC_U+30A4_U+30E4_U+30FC 1
370
     0
100
AcDbVertex
100
AcDb2dVertex
 10
105.6796820482329
 20
-138.024650030598
 30
0.0
  0
VERTEX
  5
5F
330
5B
100
AcDbEntity
  8
_U+30EC_U+30A4_U+30E4_U+30FC 1
370
     0
100
AcDbVertex
100
AcDb2dVertex
 10
105.9315185282046
 20
-138.023961011501
 30
0.0
  0
VERTEX
  5
60
330
5B
100
AcDbEntity
  8
_U+30EC_U+30A4_U+30E4_U+30FC 1
370
     0
100
AcDbVertex
100
AcDb2dVertex
 10
105.9318630377531
 20
-138.293022968899
 30
0.0
  0
SEQEND
  5
61
330
5B
100
AcDbEntity
  8
_U+30EC_U+30A4_U+30E4_U+30FC 1
370
     0
  0
HATCH
  5
62
330
54
100
AcDbEntity
  8
_U+30EC_U+30A4_U+30E4_U+30FC 1
 62
     7
420
 16777215
100
AcDbHatch
 10
0.0
 20
0.0
 30
0.0
210
0.0
220
0.0
230
1.0
  2
SOLID
 70
     1
 71
     0
 91
        1
 92
        1
 93
        4
 72
     1
 10
105.9318630377531
 20
-138.293022968899
 11
105.6803710673299
 21
-138.293711987996
 72
     1
 10
105.6803710673299
 20
-138.293711987996
 11
105.6796820482329
 21
-138.024650030598
 72
     1
 10
105.6796820482329
 20
-138.024650030598
 11
105.9315185282046
 21
-138.023961011501
 72
     1
 10
105.9315185282046
 20
-138.023961011501
 11
105.9318630377531
 21
-138.293022968899
 97
        0
 75
     2
 76
     1
 98
        0
  0
SPLINE
  5
63
330
54
100
AcDbEntity
  8
_U+30EC_U+30A4_U+30E4_U+30FC 1
370
     0
100
AcDbSpline
210
0.0
220
0.0
230
1.0
 70
    11
 71
     3
 72
    53
 73
    49
 74
     0
 42
0.0000000001
 43
0.0000000001
 12
1.0
 22
0.0
 32
0.0
 13
1.0
 23
0.0
 33
0.0
 40
0.0
 40
0.0
 40
0.0
 40
0.0
 40
1.0
 40
1.0
 40
1.0
 40
2.0
 40
2.0
 40
2.0
 40
3.0
 40
3.0
 40
3.0
 40
4.0
 40
4.0
 40
4.0
 40
5.0
 40
5.0
 40
5.0
 40
6.0
 40
6.0
 40
6.0
 40
7.0
 40
7.0
 40
7.0
 40
8.0
 40
8.0
 40
8.0
 40
9.0
 40
9.0
 40
9.0
 40
10.0
 40
10.0
 40
10.0
 40
11.0
 40
11.0
 40
11.0
 40
12.0
 40
12.0
 40
12.0
 40
13.0
 40
13.0
 40
13.0
 40
14.0
 40
14.0
 40
14.0
 40
15.0
 40
15.0
 40
15.0
 40
16.0
 40
16.0
 40
16.0
 40
16.0
 10
105.9804388840952
 20
-137.2570827564844
 30
0.0
 10
105.9807833936437
 20
-137.3407985767759
 30
0.0
 10
105.963902425766
 20
-137.4493190845613
 30
0.0
 10
105.9008571783859
 20
-137.5581841018952
 30
0.0
 10
105.791303141955
 20
-137.7435302390016
 30
0.0
 10
105.6600450039669
 20
-137.7666123787528
 30
0.0
 10
105.5522135152786
 20
-137.7869384421158
 30
0.0
 10
105.5522135152786
 20
-137.7869384421158
 30
0.0
 10
105.5518690057301
 20
-137.5495713631821
 30
0.0
 10
105.5518690057301
 20
-137.5495713631821
 30
0.0
 10
105.750651015229
 20
-137.4906602303843
 30
0.0
 10
105.7799343268536
 20
-137.3549234682654
 30
0.0
 10
105.7795898173051
 20
-137.2553602087417
 30
0.0
 10
105.7792453077566
 20
-137.1061875742304
 30
0.0
 10
105.6796820482329
 20
-136.9435790673266
 30
0.0
 10
105.44679359343
 20
-136.9439235768751
 30
0.0
 10
105.1908229988759
 20
-136.9446125959722
 30
0.0
 10
105.1215765796224
 20
-137.1368489240491
 30
0.0
 10
105.1215765796224
 20
-137.2656954951975
 30
0.0
 10
105.1219210891709
 20
-137.2998019405015
 30
0.0
 10
105.1222655987194
 20
-137.4510416323039
 30
0.0
 10
105.2514566794163
 20
-137.5457817581483
 30
0.0
 10
105.2514566794163
 20
-137.5457817581483
 30
0.0
 10
105.232853163796
 20
-137.7335394620944
 30
0.0
 10
105.232853163796
 20
-137.7335394620944
 30
0.0
 10
105.232853163796
 20
-137.7335394620944
 30
0.0
 10
104.3863932030701
 20
-137.6064154386887
 30
0.0
 10
104.3863932030701
 20
-137.6064154386887
 30
0.0
 10
104.3863932030701
 20
-137.6064154386887
 30
0.0
 10
104.3846706553275
 20
-136.7744248790008
 30
0.0
 10
104.3846706553275
 20
-136.7744248790008
 30
0.0
 10
104.3846706553275
 20
-136.7744248790008
 30
0.0
 10
104.5789740406955
 20
-136.7740803694523
 30
0.0
 10
104.5789740406955
 20
-136.7740803694523
 30
0.0
 10
104.5789740406955
 20
-136.7740803694523
 30
0.0
 10
104.5803520788896
 20
-137.4317490975865
 30
0.0
 10
104.5803520788896
 20
-137.4317490975865
 30
0.0
 10
104.5803520788896
 20
-137.4317490975865
 30
0.0
 10
105.0037543140268
 20
-137.50099551684
 30
0.0
 10
105.0037543140268
 20
-137.50099551684
 30
0.0
 10
104.9696478687229
 20
-137.4355387026203
 30
0.0
 10
104.9293402515455
 20
-137.3476887677464
 30
0.0
 10
104.9289957419969
 20
-137.2209092538892
 30
0.0
 10
104.9286512324484
 20
-136.9497802392001
 30
0.0
 10
105.1143418791034
 20
-136.6958767019372
 30
0.0
 10
105.4271565491641
 20
-136.6955321923886
 30
0.0
 10
105.7444498433556
 20
-136.6948431732916
 30
0.0
 10
105.9797498649981
 20
-136.9339327999679
 30
0.0
 10
105.9804388840952
 20
-137.2570827564844
 30
0.0
  0
HATCH
  5
64
330
54
100
AcDbEntity
  8
_U+30EC_U+30A4_U+30E4_U+30FC 1
 62
     7
420
 16777215
100
AcDbHatch
 10
0.0
 20
0.0
 30
0.0
210
0.0
220
0.0
230
1.0
  2
SOLID
 70
     1
 71
     0
 91
        1
 92
        1
 93
        1
 72
     4
 94
        3
 73
     0
 74
     1
 95
       53
 96
       49
 40
0.0
 40
0.0
 40
0.0
 40
0.0
 40
1.0
 40
1.0
 40
1.0
 40
2.0
 40
2.0
 40
2.0
 40
3.0
 40
3.0
 40
3.0
 40
4.0
 40
4.0
 40
4.0
 40
5.0
 40
5.0
 40
5.0
 40
6.0
 40
6.0
 40
6.0
 40
7.0
 40
7.0
 40
7.0
 40
8.0
 40
8.0
 40
8.0
 40
9.0
 40
9.0
 40
9.0
 40
10.0
 40
10.0
 40
10.0
 40
11.0
 40
11.0
 40
11.0
 40
12.0
 40
12.0
 40
12.0
 40
13.0
 40
13.0
 40
13.0
 40
14.0
 40
14.0
 40
14.0
 40
15.0
 40
15.0
 40
15.0
 40
16.0
 40
16.0
 40
16.0
 40
16.0
 10
105.9804388840952
 20
-137.2570827564844
 10
105.9807833936437
 20
-137.3407985767759
 10
105.963902425766
 20
-137.4493190845613
 10
105.9008571783859
 20
-137.5581841018952
 10
105.791303141955
 20
-137.7435302390016
 10
105.6600450039669
 20
-137.7666123787528
 10
105.5522135152786
 20
-137.7869384421158
 10
105.5522135152786
 20
-137.7869384421158
 10
105.5518690057301
 20
-137.5495713631821
 10
105.5518690057301
 20
-137.5495713631821
 10
105.750651015229
 20
-137.4906602303843
 10
105.7799343268536
 20
-137.3549234682654
 10
105.7795898173051
 20
-137.2553602087417
 10
105.7792453077566
 20
-137.1061875742304
 10
105.6796820482329
 20
-136.9435790673266
 10
105.44679359343
 20
-136.9439235768751
 10
105.1908229988759
 20
-136.9446125959722
 10
105.1215765796224
 20
-137.1368489240491
 10
105.1215765796224
 20
-137.2656954951975
 10
105.1219210891709
 20
-137.2998019405015
 10
105.1222655987194
 20
-137.4510416323039
 10
105.2514566794163
 20
-137.5457817581483
 10
105.2514566794163
 20
-137.5457817581483
 10
105.232853163796
 20
-137.7335394620944
 10
105.232853163796
 20
-137.7335394620944
 10
105.232853163796
 20
-137.7335394620944
 10
104.3863932030701
 20
-137.6064154386887
 10
104.3863932030701
 20
-137.6064154386887
 10
104.3863932030701
 20
-137.6064154386887
 10
104.3846706553275
 20
-136.7744248790008
 10
104.3846706553275
 20
-136.7744248790008
 10
104.3846706553275
 20
-136.7744248790008
 10
104.5789740406955
 20
-136.7740803694523
 10
104.5789740406955
 20
-136.7740803694523
 10
104.5789740406955
 20
-136.7740803694523
 10
104.5803520788896
 20
-137.4317490975865
 10
104.5803520788896
 20
-137.4317490975865
 10
104.5803520788896
 20
-137.4317490975865
 10
105.0037543140268
 20
-137.50099551684
 10
105.0037543140268
 20
-137.50099551684
 10
104.9696478687229
 20
-137.4355387026203
 10
104.9293402515455
 20
-137.3476887677464
 10
104.9289957419969
 20
-137.2209092538892
 10
104.9286512324484
 20
-136.9497802392001
 10
105.1143418791034
 20
-136.6958767019372
 10
105.4271565491641
 20
-136.6955321923886
 10
105.7444498433556
 20
-136.6948431732916
 10
105.9797498649981
 20
-136.9339327999679
 10
105.9804388840952
 20
-137.2570827564844
 97
        0
 97
        0
 75
     2
 76
     1
 98
        0
  0
ENDBLK
  5
57
330
54
100
AcDbEntity
  8
0
100
AcDbBlockEnd
  0
BLOCK
  5
67
330
65
100
AcDbEntity
  8
0
100
AcDbBlockBegin
  2
block 3
 70
     0
 10
0.0
 20
0.0
 30
0.0
  3
block 3
  1

  0
SPLINE
  5
69
330
65
100
AcDbEntity
  8
_U+30EC_U+30A4_U+30E4_U+30FC 1
370
     0
100
AcDbSpline
210
0.0
220
0.0
230
1.0
 70
    11
 71
     3
 72
    44
 73
    40
 74
     0
 42
0.0000000001
 43
0.0000000001
 12
1.0
 22
0.0
 32
0.0
 13
1.0
 23
0.0
 33
0.0
 40
0.0
 40
0.0
 40
0.0
 40
0.0
 40
1.0
 40
1.0
 40
1.0
 40
2.0
 40
2.0
 40
2.0
 40
3.0
 40
3.0
 40
3.0
 40
4.0
 40
4.0
 40
4.0
 40
5.0
 40
5.0
 40
5.0
 40
6.0
 40
6.0
 40
6.0
 40
7.0
 40
7.0
 40
7.0
 40
8.0
 40
8.0
 40
8.0
 40
9.0
 40
9.0
 40
9.0
 40
10.0
 40
10.0
 40
10.0
 40
11.0
 40
11.0
 40
11.0
 40
12.0
 40
12.0
 40
12.0
 40
13.0
 40
13.0
 40
13.0
 40
13.0
 10
105.3158799649905
 20
-122.0237317945809
 30
0.0
 10
105.475043376409
 20
-122.2562757398352
 30
0.0
 10
105.5491129293419
 20
-122.3556667445847
 30
0.0
 10
105.6931179206253
 20
-122.4073431768634
 30
0.0
 10
105.6931179206253
 20
-122.4073431768634
 30
0.0
 10
105.6913953728827
 20
-121.5753526171756
 30
0.0
 10
105.6913953728827
 20
-121.5753526171756
 30
0.0
 10
105.6913953728827
 20
-121.5753526171756
 30
0.0
 10
105.8967230638036
 20
-121.5750081076271
 30
0.0
 10
105.8967230638036
 20
-121.5750081076271
 30
0.0
 10
105.8967230638036
 20
-121.5750081076271
 30
0.0
 10
105.8987901210947
 20
-122.6736490578733
 30
0.0
 10
105.8987901210947
 20
-122.6736490578733
 30
0.0
 10
105.5415337192743
 20
-122.6405761412149
 30
0.0
 10
105.4629855422106
 20
-122.5706407028643
 30
0.0
 10
105.163951254091
 20
-122.1598130662482
 30
0.0
 10
104.964480225495
 20
-121.8866169942679
 30
0.0
 10
104.8966118444356
 20
-121.8166815559174
 30
0.0
 10
104.7591525345741
 20
-121.8170260654659
 30
0.0
 10
104.6406412498815
 20
-121.8171983202402
 30
0.0
 10
104.509727621442
 20
-121.8943684591097
 30
0.0
 10
104.5100721309905
 20
-122.1046915384842
 30
0.0
 10
104.5104166405391
 20
-122.3827107441439
 30
0.0
 10
104.7412380380508
 20
-122.391323482857
 30
0.0
 10
104.8576822654523
 20
-122.3954575974393
 30
0.0
 10
104.8576822654523
 20
-122.3954575974393
 30
0.0
 10
104.8580267750008
 20
-122.6352362432127
 30
0.0
 10
104.8580267750008
 20
-122.6352362432127
 30
0.0
 10
104.7312472611436
 20
-122.6264512497253
 30
0.0
 10
104.6189371483244
 20
-122.6154269441725
 30
0.0
 10
104.5004258636318
 20
-122.5296440665898
 30
0.0
 10
104.3391953949222
 20
-122.4125108200913
 30
0.0
 10
104.3050889496182
 20
-122.2135565558181
 30
0.0
 10
104.3047444400697
 20
-122.0891886088006
 30
0.0
 10
104.3040554209726
 20
-121.7930826518434
 30
0.0
 10
104.4876790103364
 20
-121.5710462478191
 30
0.0
 10
104.7605305727682
 20
-121.5705294834963
 30
0.0
 10
104.9889404034403
 20
-121.5700127191735
 30
0.0
 10
105.0888481725125
 20
-121.6942084114167
 30
0.0
 10
105.3158799649905
 20
-122.0237317945809
 30
0.0
  0
HATCH
  5
6A
330
65
100
AcDbEntity
  8
_U+30EC_U+30A4_U+30E4_U+30FC 1
 62
     7
420
 16777215
100
AcDbHatch
 10
0.0
 20
0.0
 30
0.0
210
0.0
220
0.0
230
1.0
  2
SOLID
 70
     1
 71
     0
 91
        1
 92
        1
 93
        1
 72
     4
 94
        3
 73
     0
 74
     1
 95
       44
 96
       40
 40
0.0
 40
0.0
 40
0.0
 40
0.0
 40
1.0
 40
1.0
 40
1.0
 40
2.0
 40
2.0
 40
2.0
 40
3.0
 40
3.0
 40
3.0
 40
4.0
 40
4.0
 40
4.0
 40
5.0
 40
5.0
 40
5.0
 40
6.0
 40
6.0
 40
6.0
 40
7.0
 40
7.0
 40
7.0
 40
8.0
 40
8.0
 40
8.0
 40
9.0
 40
9.0
 40
9.0
 40
10.0
 40
10.0
 40
10.0
 40
11.0
 40
11.0
 40
11.0
 40
12.0
 40
12.0
 40
12.0
 40
13.0
 40
13.0
 40
13.0
 40
13.0
 10
105.3158799649905
 20
-122.0237317945809
 10
105.475043376409
 20
-122.2562757398352
 10
105.5491129293419
 20
-122.3556667445847
 10
105.6931179206253
 20
-122.4073431768634
 10
105.6931179206253
 20
-122.4073431768634
 10
105.6913953728827
 20
-121.5753526171756
 10
105.6913953728827
 20
-121.5753526171756
 10
105.6913953728827
 20
-121.5753526171756
 10
105.8967230638036
 20
-121.5750081076271
 10
105.8967230638036
 20
-121.5750081076271
 10
105.8967230638036
 20
-121.5750081076271
 10
105.8987901210947
 20
-122.6736490578733
 10
105.8987901210947
 20
-122.6736490578733
 10
105.5415337192743
 20
-122.6405761412149
 10
105.4629855422106
 20
-122.5706407028643
 10
105.163951254091
 20
-122.1598130662482
 10
104.964480225495
 20
-121.8866169942679
 10
104.8966118444356
 20
-121.8166815559174
 10
104.7591525345741
 20
-121.8170260654659
 10
104.6406412498815
 20
-121.8171983202402
 10
104.509727621442
 20
-121.8943684591097
 10
104.5100721309905
 20
-122.1046915384842
 10
104.5104166405391
 20
-122.3827107441439
 10
104.7412380380508
 20
-122.391323482857
 10
104.8576822654523
 20
-122.3954575974393
 10
104.8576822654523
 20
-122.3954575974393
 10
104.8580267750008
 20
-122.6352362432127
 10
104.8580267750008
 20
-122.6352362432127
 10
104.7312472611436
 20
-122.6264512497253
 10
104.6189371483244
 20
-122.6154269441725
 10
104.5004258636318
 20
-122.5296440665898
 10
104.3391953949222
 20
-122.4125108200913
 10
104.3050889496182
 20
-122.2135565558181
 10
104.3047444400697
 20
-122.0891886088006
 10
104.3040554209726
 20
-121.7930826518434
 10
104.4876790103364
 20
-121.5710462478191
 10
104.7605305727682
 20
-121.5705294834963
 10
104.9889404034403
 20
-121.5700127191735
 10
105.0888481725125
 20
-121.6942084114167
 10
105.3158799649905
 20
-122.0237317945809
 97
        0
 97
        0
 75
     2
 76
     1
 98
        0
  0
SPLINE
  5
6B
330
65
100
AcDbEntity
  8
_U+30EC_U+30A4_U+30E4_U+30FC 1
370
     0
100
AcDbSpline
210
0.0
220
0.0
230
1.0
 70
    11
 71
     3
 72
    53
 73
    49
 74
     0
 42
0.0000000001
 43
0.0000000001
 12
1.0
 22
0.0
 32
0.0
 13
1.0
 23
0.0
 33
0.0
 40
0.0
 40
0.0
 40
0.0
 40
0.0
 40
1.0
 40
1.0
 40
1.0
 40
2.0
 40
2.0
 40
2.0
 40
3.0
 40
3.0
 40
3.0
 40
4.0
 40
4.0
 40
4.0
 40
5.0
 40
5.0
 40
5.0
 40
6.0
 40
6.0
 40
6.0
 40
7.0
 40
7.0
 40
7.0
 40
8.0
 40
8.0
 40
8.0
 40
9.0
 40
9.0
 40
9.0
 40
10.0
 40
10.0
 40
10.0
 40
11.0
 40
11.0
 40
11.0
 40
12.0
 40
12.0
 40
12.0
 40
13.0
 40
13.0
 40
13.0
 40
14.0
 40
14.0
 40
14.0
 40
15.0
 40
15.0
 40
15.0
 40
16.0
 40
16.0
 40
16.0
 40
16.0
 10
105.9459879292427
 20
-120.884610972383
 30
0.0
 10
105.9463324387912
 20
-120.9681545379003
 30
0.0
 10
105.9294514709135
 20
-121.0766750456857
 30
0.0
 10
105.8660617139849
 20
-121.1853678082453
 30
0.0
 10
105.7565076775539
 20
-121.3710584549003
 30
0.0
 10
105.6255940491144
 20
-121.3939683398772
 30
0.0
 10
105.5177625604261
 20
-121.4144666580144
 30
0.0
 10
105.5177625604261
 20
-121.4144666580144
 30
0.0
 10
105.5170735413291
 20
-121.1770995790807
 30
0.0
 10
105.5170735413291
 20
-121.1770995790807
 30
0.0
 10
105.715855550828
 20
-121.1178439367344
 30
0.0
 10
105.7451388624526
 20
-120.9821071746156
 30
0.0
 10
105.7451388624526
 20
-120.8827161698661
 30
0.0
 10
105.7447943529041
 20
-120.7335435353548
 30
0.0
 10
105.6448865838318
 20
-120.570935028451
 30
0.0
 10
105.4123426385775
 20
-120.5714517927738
 30
0.0
 10
105.1563720440234
 20
-120.5719685570966
 30
0.0
 10
105.0867811152214
 20
-120.7642048851735
 30
0.0
 10
105.0871256247699
 20
-120.8930514563219
 30
0.0
 10
105.0871256247699
 20
-120.9269856468516
 30
0.0
 10
105.0874701343184
 20
-121.0785698482026
 30
0.0
 10
105.2166612150153
 20
-121.1731377192727
 30
0.0
 10
105.2166612150153
 20
-121.1731377192727
 30
0.0
 10
105.1980576993949
 20
-121.3608954232188
 30
0.0
 10
105.1980576993949
 20
-121.3608954232188
 30
0.0
 10
105.1980576993949
 20
-121.3608954232188
 30
0.0
 10
104.3515977386691
 20
-121.2337713998131
 30
0.0
 10
104.3515977386691
 20
-121.2337713998131
 30
0.0
 10
104.3515977386691
 20
-121.2337713998131
 30
0.0
 10
104.3498751909264
 20
-120.4017808401253
 30
0.0
 10
104.3498751909264
 20
-120.4017808401253
 30
0.0
 10
104.3498751909264
 20
-120.4017808401253
 30
0.0
 10
104.544523085843
 20
-120.4014363305767
 30
0.0
 10
104.544523085843
 20
-120.4014363305767
 30
0.0
 10
104.544523085843
 20
-120.4014363305767
 30
0.0
 10
104.5459011240371
 20
-121.0592773134852
 30
0.0
 10
104.5459011240371
 20
-121.0592773134852
 30
0.0
 10
104.5459011240371
 20
-121.0592773134852
 30
0.0
 10
104.9693033591743
 20
-121.1285237327387
 30
0.0
 10
104.9693033591743
 20
-121.1285237327387
 30
0.0
 10
104.9351969138704
 20
-121.063066918519
 30
0.0
 10
104.894889296693
 20
-120.9748724740966
 30
0.0
 10
104.8945447871444
 20
-120.8482652150136
 30
0.0
 10
104.8938557680474
 20
-120.5769639455502
 30
0.0
 10
105.0795464147023
 20
-120.3234049178358
 30
0.0
 10
105.3927055943116
 20
-120.3227158987388
 30
0.0
 10
105.7099988885031
 20
-120.3220268796417
 30
0.0
 10
105.9452989101456
 20
-120.5612887610923
 30
0.0
 10
105.9459879292427
 20
-120.884610972383
 30
0.0
  0
HATCH
  5
6C
330
65
100
AcDbEntity
  8
_U+30EC_U+30A4_U+30E4_U+30FC 1
 62
     7
420
 16777215
100
AcDbHatch
 10
0.0
 20
0.0
 30
0.0
210
0.0
220
0.0
230
1.0
  2
SOLID
 70
     1
 71
     0
 91
        1
 92
        1
 93
        1
 72
     4
 94
        3
 73
     0
 74
     1
 95
       53
 96
       49
 40
0.0
 40
0.0
 40
0.0
 40
0.0
 40
1.0
 40
1.0
 40
1.0
 40
2.0
 40
2.0
 40
2.0
 40
3.0
 40
3.0
 40
3.0
 40
4.0
 40
4.0
 40
4.0
 40
5.0
 40
5.0
 40
5.0
 40
6.0
 40
6.0
 40
6.0
 40
7.0
 40
7.0
 40
7.0
 40
8.0
 40
8.0
 40
8.0
 40
9.0
 40
9.0
 40
9.0
 40
10.0
 40
10.0
 40
10.0
 40
11.0
 40
11.0
 40
11.0
 40
12.0
 40
12.0
 40
12.0
 40
13.0
 40
13.0
 40
13.0
 40
14.0
 40
14.0
 40
14.0
 40
15.0
 40
15.0
 40
15.0
 40
16.0
 40
16.0
 40
16.0
 40
16.0
 10
105.9459879292427
 20
-120.884610972383
 10
105.9463324387912
 20
-120.9681545379003
 10
105.9294514709135
 20
-121.0766750456857
 10
105.8660617139849
 20
-121.1853678082453
 10
105.7565076775539
 20
-121.3710584549003
 10
105.6255940491144
 20
-121.3939683398772
 10
105.5177625604261
 20
-121.4144666580144
 10
105.5177625604261
 20
-121.4144666580144
 10
105.5170735413291
 20
-121.1770995790807
 10
105.5170735413291
 20
-121.1770995790807
 10
105.715855550828
 20
-121.1178439367344
 10
105.7451388624526
 20
-120.9821071746156
 10
105.7451388624526
 20
-120.8827161698661
 10
105.7447943529041
 20
-120.7335435353548
 10
105.6448865838318
 20
-120.570935028451
 10
105.4123426385775
 20
-120.5714517927738
 10
105.1563720440234
 20
-120.5719685570966
 10
105.0867811152214
 20
-120.7642048851735
 10
105.0871256247699
 20
-120.8930514563219
 10
105.0871256247699
 20
-120.9269856468516
 10
105.0874701343184
 20
-121.0785698482026
 10
105.2166612150153
 20
-121.1731377192727
 10
105.2166612150153
 20
-121.1731377192727
 10
105.1980576993949
 20
-121.3608954232188
 10
105.1980576993949
 20
-121.3608954232188
 10
105.1980576993949
 20
-121.3608954232188
 10
104.3515977386691
 20
-121.2337713998131
 10
104.3515977386691
 20
-121.2337713998131
 10
104.3515977386691
 20
-121.2337713998131
 10
104.3498751909264
 20
-120.4017808401253
 10
104.3498751909264
 20
-120.4017808401253
 10
104.3498751909264
 20
-120.4017808401253
 10
104.544523085843
 20
-120.4014363305767
 10
104.544523085843
 20
-120.4014363305767
 10
104.544523085843
 20
-120.4014363305767
 10
104.5459011240371
 20
-121.0592773134852
 10
104.5459011240371
 20
-121.0592773134852
 10
104.5459011240371
 20
-121.0592773134852
 10
104.9693033591743
 20
-121.1285237327387
 10
104.9693033591743
 20
-121.1285237327387
 10
104.9351969138704
 20
-121.063066918519
 10
104.894889296693
 20
-120.9748724740966
 10
104.8945447871444
 20
-120.8482652150136
 10
104.8938557680474
 20
-120.5769639455502
 10
105.0795464147023
 20
-120.3234049178358
 10
105.3927055943116
 20
-120.3227158987388
 10
105.7099988885031
 20
-120.3220268796417
 10
105.9452989101456
 20
-120.5612887610923
 10
105.9459879292427
 20
-120.884610972383
 97
        0
 97
        0
 75
     2
 76
     1
 98
        0
  0
ENDBLK
  5
68
330
65
100
AcDbEntity
  8
0
100
AcDbBlockEnd
  0
BLOCK
  5
6F
330
6D
100
AcDbEntity
  8
0
100
AcDbBlockBegin
  2
block 4
 70
     0
 10
0.0
 20
0.0
 30
0.0
  3
block 4
  1

  0
SPLINE
  5
71
330
6D
100
AcDbEntity
  8
_U+30EC_U+30A4_U+30E4_U+30FC 1
370
     0
100
AcDbSpline
210
0.0
220
0.0
230
1.0
 70
    11
 71
     3
 72
    26
 73
    22
 74
     0
 42
0.0000000001
 43
0.0000000001
 12
1.0
 22
0.0
 32
0.0
 13
1.0
 23
0.0
 33
0.0
 40
0.0
 40
0.0
 40
0.0
 40
0.0
 40
1.0
 40
1.0
 40
1.0
 40
2.0
 40
2.0
 40
2.0
 40
3.0
 40
3.0
 40
3.0
 40
4.0
 40
4.0
 40
4.0
 40
5.0
 40
5.0
 40
5.0
 40
6.0
 40
6.0
 40
6.0
 40
7.0
 40
7.0
 40
7.0
 40
7.0
 10
110.2158392736613
 20
-134.5413139854619
 30
0.0
 10
110.2158392736613
 20
-134.5413139854619
 30
0.0
 10
109.1116861706387
 20
-134.5437255523016
 30
0.0
 10
109.1116861706387
 20
-134.5437255523016
 30
0.0
 10
109.1116861706387
 20
-134.5437255523016
 30
0.0
 10
109.1123751897358
 20
-134.8961588204426
 30
0.0
 10
109.1123751897358
 20
-134.8961588204426
 30
0.0
 10
109.1123751897358
 20
-134.8961588204426
 30
0.0
 10
108.9642360838701
 20
-134.8965033299912
 30
0.0
 10
108.9642360838701
 20
-134.8965033299912
 30
0.0
 10
108.9487331541864
 20
-134.5416584950104
 30
0.0
 10
108.7857801377341
 20
-134.4923936295714
 30
0.0
 10
108.6714029676238
 20
-134.4606987511071
 30
0.0
 10
108.6714029676238
 20
-134.4606987511071
 30
0.0
 10
108.6710584580753
 20
-134.3049804351738
 30
0.0
 10
108.6710584580753
 20
-134.3049804351738
 30
0.0
 10
108.6710584580753
 20
-134.3049804351738
 30
0.0
 10
110.2154947641128
 20
-134.3015353396885
 30
0.0
 10
110.2154947641128
 20
-134.3015353396885
 30
0.0
 10
110.2154947641128
 20
-134.3015353396885
 30
0.0
 10
110.2158392736613
 20
-134.5413139854619
 30
0.0
 10
110.2158392736613
 20
-134.5413139854619
 30
0.0
  0
HATCH
  5
72
330
6D
100
AcDbEntity
  8
_U+30EC_U+30A4_U+30E4_U+30FC 1
 62
     7
420
 16777215
100
AcDbHatch
 10
0.0
 20
0.0
 30
0.0
210
0.0
220
0.0
230
1.0
  2
SOLID
 70
     1
 71
     0
 91
        1
 92
        1
 93
        1
 72
     4
 94
        3
 73
     0
 74
     1
 95
       26
 96
       22
 40
0.0
 40
0.0
 40
0.0
 40
0.0
 40
1.0
 40
1.0
 40
1.0
 40
2.0
 40
2.0
 40
2.0
 40
3.0
 40
3.0
 40
3.0
 40
4.0
 40
4.0
 40
4.0
 40
5.0
 40
5.0
 40
5.0
 40
6.0
 40
6.0
 40
6.0
 40
7.0
 40
7.0
 40
7.0
 40
7.0
 10
110.2158392736613
 20
-134.5413139854619
 10
110.2158392736613
 20
-134.5413139854619
 10
109.1116861706387
 20
-134.5437255523016
 10
109.1116861706387
 20
-134.5437255523016
 10
109.1116861706387
 20
-134.5437255523016
 10
109.1123751897358
 20
-134.8961588204426
 10
109.1123751897358
 20
-134.8961588204426
 10
109.1123751897358
 20
-134.8961588204426
 10
108.9642360838701
 20
-134.8965033299912
 10
108.9642360838701
 20
-134.8965033299912
 10
108.9487331541864
 20
-134.5416584950104
 10
108.7857801377341
 20
-134.4923936295714
 10
108.6714029676238
 20
-134.4606987511071
 10
108.6714029676238
 20
-134.4606987511071
 10
108.6710584580753
 20
-134.3049804351738
 10
108.6710584580753
 20
-134.3049804351738
 10
108.6710584580753
 20
-134.3049804351738
 10
110.2154947641128
 20
-134.3015353396885
 10
110.2154947641128
 20
-134.3015353396885
 10
110.2154947641128
 20
-134.3015353396885
 10
110.2158392736613
 20
-134.5413139854619
 10
110.2158392736613
 20
-134.5413139854619
 97
        0
 97
        0
 75
     2
 76
     1
 98
        0
  0
ENDBLK
  5
70
330
6D
100
AcDbEntity
  8
0
100
AcDbBlockEnd
  0
BLOCK
  5
7F
330
7D
100
AcDbEntity
  8
0
100
AcDbBlockBegin
  2
block 5
 70
     0
 10
0.0
 20
0.0
 30
0.0
  3
block 5
  1

  0
SPLINE
  5
81
330
7D
100
AcDbEntity
  8
_U+30EC_U+30A4_U+30E4_U+30FC 1
370
     0
100
AcDbSpline
210
0.0
220
0.0
230
1.0
 70
    11
 71
     3
 72
    44
 73
    40
 74
     0
 42
0.0000000001
 43
0.0000000001
 12
1.0
 22
0.0
 32
0.0
 13
1.0
 23
0.0
 33
0.0
 40
0.0
 40
0.0
 40
0.0
 40
0.0
 40
1.0
 40
1.0
 40
1.0
 40
2.0
 40
2.0
 40
2.0
 40
3.0
 40
3.0
 40
3.0
 40
4.0
 40
4.0
 40
4.0
 40
5.0
 40
5.0
 40
5.0
 40
6.0
 40
6.0
 40
6.0
 40
7.0
 40
7.0
 40
7.0
 40
8.0
 40
8.0
 40
8.0
 40
9.0
 40
9.0
 40
9.0
 40
10.0
 40
10.0
 40
10.0
 40
11.0
 40
11.0
 40
11.0
 40
12.0
 40
12.0
 40
12.0
 40
13.0
 40
13.0
 40
13.0
 40
13.0
 10
86.60694442279271
 20
-140.4575764622815
 30
0.0
 10
86.76610783421125
 20
-140.6901204075358
 30
0.0
 10
86.8403496419184
 20
-140.789339157511
 30
0.0
 10
86.98418237842758
 20
-140.8410155897897
 30
0.0
 10
86.98418237842758
 20
-140.8410155897897
 30
0.0
 10
86.98245983068495
 20
-140.0090250301019
 30
0.0
 10
86.98245983068495
 20
-140.0090250301019
 30
0.0
 10
86.98245983068495
 20
-140.0090250301019
 30
0.0
 10
87.18778752160584
 20
-140.0086805205534
 30
0.0
 10
87.18778752160584
 20
-140.0086805205534
 30
0.0
 10
87.18778752160584
 20
-140.0086805205534
 30
0.0
 10
87.19002683367125
 20
-141.1073214707996
 30
0.0
 10
87.19002683367125
 20
-141.1073214707996
 30
0.0
 10
86.83242592230232
 20
-141.0742485541412
 30
0.0
 10
86.75405000001288
 20
-141.0043131157906
 30
0.0
 10
86.45484345711893
 20
-140.5933132244003
 30
0.0
 10
86.25537242852296
 20
-140.3204616619685
 30
0.0
 10
86.1876763022378
 20
-140.2505262236179
 30
0.0
 10
86.05004473760208
 20
-140.2505262236179
 30
0.0
 10
85.93170570768375
 20
-140.2508707331665
 30
0.0
 10
85.80061982446999
 20
-140.328040872036
 30
0.0
 10
85.80113658879277
 20
-140.5381916966363
 30
0.0
 10
85.80165335311557
 20
-140.8162109022959
 30
0.0
 10
86.03230249585305
 20
-140.8248236410091
 30
0.0
 10
86.14857446848022
 20
-140.8293022651399
 30
0.0
 10
86.14857446848022
 20
-140.8293022651399
 30
0.0
 10
86.149091232803
 20
-141.0687364013648
 30
0.0
 10
86.149091232803
 20
-141.0687364013648
 30
0.0
 10
86.02213946417156
 20
-141.0601236626516
 30
0.0
 10
85.91000160612667
 20
-141.0490993570988
 30
0.0
 10
85.79131806665981
 20
-140.9633164795161
 30
0.0
 10
85.63043210749865
 20
-140.8461832330176
 30
0.0
 10
85.59615340742042
 20
-140.6474012235187
 30
0.0
 10
85.59580889787189
 20
-140.5230332765012
 30
0.0
 10
85.5952921335491
 20
-140.2267550647697
 30
0.0
 10
85.77874346813866
 20
-140.0048909155196
 30
0.0
 10
86.0517672853447
 20
-140.0042018964226
 30
0.0
 10
86.28017711601676
 20
-140.003857386874
 30
0.0
 10
86.37991263031475
 20
-140.127880824343
 30
0.0
 10
86.60694442279271
 20
-140.4575764622815
 30
0.0
  0
HATCH
  5
82
330
7D
100
AcDbEntity
  8
_U+30EC_U+30A4_U+30E4_U+30FC 1
 62
     7
420
 16777215
100
AcDbHatch
 10
0.0
 20
0.0
 30
0.0
210
0.0
220
0.0
230
1.0
  2
SOLID
 70
     1
 71
     0
 91
        1
 92
        1
 93
        1
 72
     4
 94
        3
 73
     0
 74
     1
 95
       44
 96
       40
 40
0.0
 40
0.0
 40
0.0
 40
0.0
 40
1.0
 40
1.0
 40
1.0
 40
2.0
 40
2.0
 40
2.0
 40
3.0
 40
3.0
 40
3.0
 40
4.0
 40
4.0
 40
4.0
 40
5.0
 40
5.0
 40
5.0
 40
6.0
 40
6.0
 40
6.0
 40
7.0
 40
7.0
 40
7.0
 40
8.0
 40
8.0
 40
8.0
 40
9.0
 40
9.0
 40
9.0
 40
10.0
 40
10.0
 40
10.0
 40
11.0
 40
11.0
 40
11.0
 40
12.0
 40
12.0
 40
12.0
 40
13.0
 40
13.0
 40
13.0
 40
13.0
 10
86.60694442279271
 20
-140.4575764622815
 10
86.76610783421125
 20
-140.6901204075358
 10
86.8403496419184
 20
-140.789339157511
 10
86.98418237842758
 20
-140.8410155897897
 10
86.98418237842758
 20
-140.8410155897897
 10
86.98245983068495
 20
-140.0090250301019
 10
86.98245983068495
 20
-140.0090250301019
 10
86.98245983068495
 20
-140.0090250301019
 10
87.18778752160584
 20
-140.0086805205534
 10
87.18778752160584
 20
-140.0086805205534
 10
87.18778752160584
 20
-140.0086805205534
 10
87.19002683367125
 20
-141.1073214707996
 10
87.19002683367125
 20
-141.1073214707996
 10
86.83242592230232
 20
-141.0742485541412
 10
86.75405000001288
 20
-141.0043131157906
 10
86.45484345711893
 20
-140.5933132244003
 10
86.25537242852296
 20
-140.3204616619685
 10
86.1876763022378
 20
-140.2505262236179
 10
86.05004473760208
 20
-140.2505262236179
 10
85.93170570768375
 20
-140.2508707331665
 10
85.80061982446999
 20
-140.328040872036
 10
85.80113658879277
 20
-140.5381916966363
 10
85.80165335311557
 20
-140.8162109022959
 10
86.03230249585305
 20
-140.8248236410091
 10
86.14857446848022
 20
-140.8293022651399
 10
86.14857446848022
 20
-140.8293022651399
 10
86.149091232803
 20
-141.0687364013648
 10
86.149091232803
 20
-141.0687364013648
 10
86.02213946417156
 20
-141.0601236626516
 10
85.91000160612667
 20
-141.0490993570988
 10
85.79131806665981
 20
-140.9633164795161
 10
85.63043210749865
 20
-140.8461832330176
 10
85.59615340742042
 20
-140.6474012235187
 10
85.59580889787189
 20
-140.5230332765012
 10
85.5952921335491
 20
-140.2267550647697
 10
85.77874346813866
 20
-140.0048909155196
 10
86.0517672853447
 20
-140.0042018964226
 10
86.28017711601676
 20
-140.003857386874
 10
86.37991263031475
 20
-140.127880824343
 10
86.60694442279271
 20
-140.4575764622815
 97
        0
 97
        0
 75
     2
 76
     1
 98
        0
  0
ENDBLK
  5
80
330
7D
100
AcDbEntity
  8
0
100
AcDbBlockEnd
  0
BLOCK
  5
A0
330
9E
100
AcDbEntity
  8
0
100
AcDbBlockBegin
  2
block 6
 70
     0
 10
0.0
 20
0.0
 30
0.0
  3
block 6
  1

  0
SPLINE
  5
A2
330
9E
100
AcDbEntity
  8
_U+30EC_U+30A4_U+30E4_U+30FC 1
370
     0
100
AcDbSpline
210
0.0
220
0.0
230
1.0
 70
    11
 71
     3
 72
    44
 73
    40
 74
     0
 42
0.0000000001
 43
0.0000000001
 12
1.0
 22
0.0
 32
0.0
 13
1.0
 23
0.0
 33
0.0
 40
0.0
 40
0.0
 40
0.0
 40
0.0
 40
1.0
 40
1.0
 40
1.0
 40
2.0
 40
2.0
 40
2.0
 40
3.0
 40
3.0
 40
3.0
 40
4.0
 40
4.0
 40
4.0
 40
5.0
 40
5.0
 40
5.0
 40
6.0
 40
6.0
 40
6.0
 40
7.0
 40
7.0
 40
7.0
 40
8.0
 40
8.0
 40
8.0
 40
9.0
 40
9.0
 40
9.0
 40
10.0
 40
10.0
 40
10.0
 40
11.0
 40
11.0
 40
11.0
 40
12.0
 40
12.0
 40
12.0
 40
13.0
 40
13.0
 40
13.0
 40
13.0
 10
78.42260333325893
 20
-145.2624511355594
 30
0.0
 10
78.19005938800457
 20
-145.4216145469779
 30
0.0
 10
78.09066838325512
 20
-145.4956840999108
 30
0.0
 10
78.03899195097637
 20
-145.6396890911942
 30
0.0
 10
78.03899195097637
 20
-145.6396890911942
 30
0.0
 10
78.8709825106642
 20
-145.6379665434516
 30
0.0
 10
78.8709825106642
 20
-145.6379665434516
 30
0.0
 10
78.8709825106642
 20
-145.6379665434516
 30
0.0
 10
78.87132702021273
 20
-145.8432942343725
 30
0.0
 10
78.87132702021273
 20
-145.8432942343725
 30
0.0
 10
78.87132702021273
 20
-145.8432942343725
 30
0.0
 10
77.77268606996655
 20
-145.8457058012122
 30
0.0
 10
77.77268606996655
 20
-145.8457058012122
 30
0.0
 10
77.80575898662495
 20
-145.4881048898433
 30
0.0
 10
77.87569442497552
 20
-145.4095567127796
 30
0.0
 10
78.28652206159157
 20
-145.1105224246599
 30
0.0
 10
78.55971813357188
 20
-144.9110513960639
 30
0.0
 10
78.62965357192245
 20
-144.8431830150045
 30
0.0
 10
78.62930906237392
 20
-144.705723705143
 30
0.0
 10
78.62913680759966
 20
-144.5872124204504
 30
0.0
 10
78.55196666873007
 20
-144.4562987920109
 30
0.0
 10
78.34164358935557
 20
-144.4566433015595
 30
0.0
 10
78.06362438369591
 20
-144.4573323206565
 30
0.0
 10
78.05501164498278
 20
-144.6878092086197
 30
0.0
 10
78.05087753040048
 20
-144.8042534360212
 30
0.0
 10
78.05087753040048
 20
-144.8042534360212
 30
0.0
 10
77.81109888462709
 20
-144.8045979455697
 30
0.0
 10
77.81109888462709
 20
-144.8045979455697
 30
0.0
 10
77.81988387811448
 20
-144.6778184317125
 30
0.0
 10
77.83090818366728
 20
-144.5655083188934
 30
0.0
 10
77.91669106124999
 20
-144.4469970342008
 30
0.0
 10
78.03382430774849
 20
-144.2857665654911
 30
0.0
 10
78.23277857202167
 20
-144.2516601201871
 30
0.0
 10
78.35714651903919
 20
-144.2513156106386
 30
0.0
 10
78.65325247599641
 20
-144.2506265915415
 30
0.0
 10
78.87528888002076
 20
-144.4342501809053
 30
0.0
 10
78.87580564434356
 20
-144.7071017433371
 30
0.0
 10
78.87632240866634
 20
-144.9355115740092
 30
0.0
 10
78.75212671642308
 20
-145.0354193430814
 30
0.0
 10
78.42260333325893
 20
-145.2624511355594
 30
0.0
  0
HATCH
  5
A3
330
9E
100
AcDbEntity
  8
_U+30EC_U+30A4_U+30E4_U+30FC 1
 62
     7
420
 16777215
100
AcDbHatch
 10
0.0
 20
0.0
 30
0.0
210
0.0
220
0.0
230
1.0
  2
SOLID
 70
     1
 71
     0
 91
        1
 92
        1
 93
        1
 72
     4
 94
        3
 73
     0
 74
     1
 95
       44
 96
       40
 40
0.0
 40
0.0
 40
0.0
 40
0.0
 40
1.0
 40
1.0
 40
1.0
 40
2.0
 40
2.0
 40
2.0
 40
3.0
 40
3.0
 40
3.0
 40
4.0
 40
4.0
 40
4.0
 40
5.0
 40
5.0
 40
5.0
 40
6.0
 40
6.0
 40
6.0
 40
7.0
 40
7.0
 40
7.0
 40
8.0
 40
8.0
 40
8.0
 40
9.0
 40
9.0
 40
9.0
 40
10.0
 40
10.0
 40
10.0
 40
11.0
 40
11.0
 40
11.0
 40
12.0
 40
12.0
 40
12.0
 40
13.0
 40
13.0
 40
13.0
 40
13.0
 10
78.42260333325893
 20
-145.2624511355594
 10
78.19005938800457
 20
-145.4216145469779
 10
78.09066838325512
 20
-145.4956840999108
 10
78.03899195097637
 20
-145.6396890911942
 10
78.03899195097637
 20
-145.6396890911942
 10
78.8709825106642
 20
-145.6379665434516
 10
78.8709825106642
 20
-145.6379665434516
 10
78.8709825106642
 20
-145.6379665434516
 10
78.87132702021273
 20
-145.8432942343725
 10
78.87132702021273
 20
-145.8432942343725
 10
78.87132702021273
 20
-145.8432942343725
 10
77.77268606996655
 20
-145.8457058012122
 10
77.77268606996655
 20
-145.8457058012122
 10
77.80575898662495
 20
-145.4881048898433
 10
77.87569442497552
 20
-145.4095567127796
 10
78.28652206159157
 20
-145.1105224246599
 10
78.55971813357188
 20
-144.9110513960639
 10
78.62965357192245
 20
-144.8431830150045
 10
78.62930906237392
 20
-144.705723705143
 10
78.62913680759966
 20
-144.5872124204504
 10
78.55196666873007
 20
-144.4562987920109
 10
78.34164358935557
 20
-144.4566433015595
 10
78.06362438369591
 20
-144.4573323206565
 10
78.05501164498278
 20
-144.6878092086197
 10
78.05087753040048
 20
-144.8042534360212
 10
78.05087753040048
 20
-144.8042534360212
 10
77.81109888462709
 20
-144.8045979455697
 10
77.81109888462709
 20
-144.8045979455697
 10
77.81988387811448
 20
-144.6778184317125
 10
77.83090818366728
 20
-144.5655083188934
 10
77.91669106124999
 20
-144.4469970342008
 10
78.03382430774849
 20
-144.2857665654911
 10
78.23277857202167
 20
-144.2516601201871
 10
78.35714651903919
 20
-144.2513156106386
 10
78.65325247599641
 20
-144.2506265915415
 10
78.87528888002076
 20
-144.4342501809053
 10
78.87580564434356
 20
-144.7071017433371
 10
78.87632240866634
 20
-144.9355115740092
 10
78.75212671642308
 20
-145.0354193430814
 10
78.42260333325893
 20
-145.2624511355594
 97
        0
 97
        0
 75
     2
 76
     1
 98
        0
  0
ENDBLK
  5
A1
330
9E
100
AcDbEntity
  8
0
100
AcDbBlockEnd
  0
BLOCK
  5
A6
330
A4
100
AcDbEntity
  8
0
100
AcDbBlockBegin
  2
block 7
 70
     0
 10
0.0
 20
0.0
 30
0.0
  3
block 7
  1

  0
SPLINE
  5
A8
330
A4
100
AcDbEntity
  8
_U+30EC_U+30A4_U+30E4_U+30FC 1
370
     0
100
AcDbSpline
210
0.0
220
0.0
230
1.0
 70
    11
 71
     3
 72
    32
 73
    28
 74
     0
 42
0.0000000001
 43
0.0000000001
 12
1.0
 22
0.0
 32
0.0
 13
1.0
 23
0.0
 33
0.0
 40
0.0
 40
0.0
 40
0.0
 40
0.0
 40
1.0
 40
1.0
 40
1.0
 40
2.0
 40
2.0
 40
2.0
 40
3.0
 40
3.0
 40
3.0
 40
4.0
 40
4.0
 40
4.0
 40
5.0
 40
5.0
 40
5.0
 40
6.0
 40
6.0
 40
6.0
 40
7.0
 40
7.0
 40
7.0
 40
8.0
 40
8.0
 40
8.0
 40
9.0
 40
9.0
 40
9.0
 40
9.0
 10
73.3765719760135
 20
-145.9022053671703
 30
0.0
 10
72.825012188825
 20
-145.9032388958159
 30
0.0
 10
72.81467690236926
 20
-145.3489230322392
 30
0.0
 10
72.81433239282073
 20
-145.1353271121537
 30
0.0
 10
72.81381562849793
 20
-144.9048502241905
 30
0.0
 10
72.83276365366682
 20
-144.2571722729635
 30
0.0
 10
73.41377900725419
 20
-144.2561387443179
 30
0.0
 10
73.5992973991349
 20
-144.2557942347694
 30
0.0
 10
73.86164142033668
 20
-144.3250406540229
 30
0.0
 10
73.90298256615968
 20
-144.657147858801
 30
0.0
 10
73.90298256615968
 20
-144.657147858801
 30
0.0
 10
73.67474499026187
 20
-144.6574923683495
 30
0.0
 10
73.67474499026187
 20
-144.6574923683495
 30
0.0
 10
73.66320392038628
 20
-144.6003037832944
 30
0.0
 10
73.62909747508232
 20
-144.4525091869772
 30
0.0
 10
73.41205645951158
 20
-144.4528536965257
 30
0.0
 10
73.09993080854794
 20
-144.4535427156227
 30
0.0
 10
73.05772838885363
 20
-144.7815158058185
 30
0.0
 10
73.04463702600968
 20
-144.9868434967394
 30
0.0
 10
73.14385577598487
 20
-144.9082953196757
 30
0.0
 10
73.21603052640086
 20
-144.8486951677809
 30
0.0
 10
73.41050616654321
 20
-144.8483506582324
 30
0.0
 10
73.60274249462014
 20
-144.8480061486839
 30
0.0
 10
73.92623696068512
 20
-144.9551486182751
 30
0.0
 10
73.92709823455642
 20
-145.3613253759861
 30
0.0
 10
73.92778725365348
 20
-145.6810302370172
 30
0.0
 10
73.71574162653634
 20
-145.9011718385247
 30
0.0
 10
73.3765719760135
 20
-145.9022053671703
 30
0.0
  0
SPLINE
  5
A9
330
A4
100
AcDbEntity
  8
_U+30EC_U+30A4_U+30E4_U+30FC 1
370
     0
100
AcDbSpline
210
0.0
220
0.0
230
1.0
 70
    11
 71
     3
 72
    17
 73
    13
 74
     0
 42
0.0000000001
 43
0.0000000001
 12
1.0
 22
0.0
 32
0.0
 13
1.0
 23
0.0
 33
0.0
 40
0.0
 40
0.0
 40
0.0
 40
0.0
 40
1.0
 40
1.0
 40
1.0
 40
2.0
 40
2.0
 40
2.0
 40
3.0
 40
3.0
 40
3.0
 40
4.0
 40
4.0
 40
4.0
 40
4.0
 10
73.39293617956844
 20
-145.042998553149
 30
0.0
 10
73.1125054070691
 20
-145.043687572246
 30
0.0
 10
73.07219778989167
 20
-145.2552164350404
 30
0.0
 10
73.0725422994402
 20
-145.3716606624418
 30
0.0
 10
73.07288680898873
 20
-145.5473605321895
 30
0.0
 10
73.17503389012639
 20
-145.7099690390934
 30
0.0
 10
73.37157658755989
 20
-145.7096245295448
 30
0.0
 10
73.5005954134825
 20
-145.7092800199963
 30
0.0
 10
73.68800860788008
 20
-145.6496798681015
 30
0.0
 10
73.6874918435573
 20
-145.3640814523743
 30
0.0
 10
73.68697507923451
 20
-145.1398057362845
 30
0.0
 10
73.53763018994893
 20
-145.0426540436005
 30
0.0
 10
73.39293617956844
 20
-145.042998553149
 30
0.0
  0
HATCH
  5
AA
330
A4
100
AcDbEntity
  8
_U+30EC_U+30A4_U+30E4_U+30FC 1
 62
     7
420
 16777215
100
AcDbHatch
 10
0.0
 20
0.0
 30
0.0
210
0.0
220
0.0
230
1.0
  2
SOLID
 70
     1
 71
     0
 91
        2
 92
        1
 93
        1
 72
     4
 94
        3
 73
     0
 74
     1
 95
       32
 96
       28
 40
0.0
 40
0.0
 40
0.0
 40
0.0
 40
1.0
 40
1.0
 40
1.0
 40
2.0
 40
2.0
 40
2.0
 40
3.0
 40
3.0
 40
3.0
 40
4.0
 40
4.0
 40
4.0
 40
5.0
 40
5.0
 40
5.0
 40
6.0
 40
6.0
 40
6.0
 40
7.0
 40
7.0
 40
7.0
 40
8.0
 40
8.0
 40
8.0
 40
9.0
 40
9.0
 40
9.0
 40
9.0
 10
73.3765719760135
 20
-145.9022053671703
 10
72.825012188825
 20
-145.9032388958159
 10
72.81467690236926
 20
-145.3489230322392
 10
72.81433239282073
 20
-145.1353271121537
 10
72.81381562849793
 20
-144.9048502241905
 10
72.83276365366682
 20
-144.2571722729635
 10
73.41377900725419
 20
-144.2561387443179
 10
73.5992973991349
 20
-144.2557942347694
 10
73.86164142033668
 20
-144.3250406540229
 10
73.90298256615968
 20
-144.657147858801
 10
73.90298256615968
 20
-144.657147858801
 10
73.67474499026187
 20
-144.6574923683495
 10
73.67474499026187
 20
-144.6574923683495
 10
73.66320392038628
 20
-144.6003037832944
 10
73.62909747508232
 20
-144.4525091869772
 10
73.41205645951158
 20
-144.4528536965257
 10
73.09993080854794
 20
-144.4535427156227
 10
73.05772838885363
 20
-144.7815158058185
 10
73.04463702600968
 20
-144.9868434967394
 10
73.14385577598487
 20
-144.9082953196757
 10
73.21603052640086
 20
-144.8486951677809
 10
73.41050616654321
 20
-144.8483506582324
 10
73.60274249462014
 20
-144.8480061486839
 10
73.92623696068512
 20
-144.9551486182751
 10
73.92709823455642
 20
-145.3613253759861
 10
73.92778725365348
 20
-145.6810302370172
 10
73.71574162653634
 20
-145.9011718385247
 10
73.3765719760135
 20
-145.9022053671703
 97
        0
 97
        0
 92
        1
 93
        1
 72
     4
 94
        3
 73
     0
 74
     1
 95
       17
 96
       13
 40
0.0
 40
0.0
 40
0.0
 40
0.0
 40
1.0
 40
1.0
 40
1.0
 40
2.0
 40
2.0
 40
2.0
 40
3.0
 40
3.0
 40
3.0
 40
4.0
 40
4.0
 40
4.0
 40
4.0
 10
73.39293617956844
 20
-145.042998553149
 10
73.1125054070691
 20
-145.043687572246
 10
73.07219778989167
 20
-145.2552164350404
 10
73.0725422994402
 20
-145.3716606624418
 10
73.07288680898873
 20
-145.5473605321895
 10
73.17503389012639
 20
-145.7099690390934
 10
73.37157658755989
 20
-145.7096245295448
 10
73.5005954134825
 20
-145.7092800199963
 10
73.68800860788008
 20
-145.6496798681015
 10
73.6874918435573
 20
-145.3640814523743
 10
73.68697507923451
 20
-145.1398057362845
 10
73.53763018994893
 20
-145.0426540436005
 10
73.39293617956844
 20
-145.042998553149
 97
        0
 97
        0
 75
     2
 76
     1
 98
        0
  0
POLYLINE
  5
AB
330
A4
100
AcDbEntity
  8
_U+30EC_U+30A4_U+30E4_U+30FC 1
370
     0
100
AcDb2dPolyline
 66
     1
 10
0.0
 20
0.0
 30
0.0
  0
VERTEX
  5
AC
330
AB
100
AcDbEntity
  8
_U+30EC_U+30A4_U+30E4_U+30FC 1
370
     0
100
AcDbVertex
100
AcDb2dVertex
 10
74.15946992503652
 20
-145.849495406246
 30
0.0
  0
VERTEX
  5
AD
330
AB
100
AcDbEntity
  8
_U+30EC_U+30A4_U+30E4_U+30FC 1
370
     0
100
AcDbVertex
100
AcDb2dVertex
 10
74.15895316071374
 20
-145.5980034358227
 30
0.0
  0
VERTEX
  5
AE
330
AB
100
AcDbEntity
  8
_U+30EC_U+30A4_U+30E4_U+30FC 1
370
     0
100
AcDbVertex
100
AcDb2dVertex
 10
74.42801511811174
 20
-145.5973144167257
 30
0.0
  0
VERTEX
  5
AF
330
AB
100
AcDbEntity
  8
_U+30EC_U+30A4_U+30E4_U+30FC 1
370
     0
100
AcDbVertex
100
AcDb2dVertex
 10
74.42853188243454
 20
-145.8491508966974
 30
0.0
  0
VERTEX
  5
B0
330
AB
100
AcDbEntity
  8
_U+30EC_U+30A4_U+30E4_U+30FC 1
370
     0
100
AcDbVertex
100
AcDb2dVertex
 10
74.15946992503652
 20
-145.849495406246
 30
0.0
  0
SEQEND
  5
B1
330
AB
100
AcDbEntity
  8
_U+30EC_U+30A4_U+30E4_U+30FC 1
370
     0
  0
HATCH
  5
B2
330
A4
100
AcDbEntity
  8
_U+30EC_U+30A4_U+30E4_U+30FC 1
 62
     7
420
 16777215
100
AcDbHatch
 10
0.0
 20
0.0
 30
0.0
210
0.0
220
0.0
230
1.0
  2
SOLID
 70
     1
 71
     0
 91
        1
 92
        1
 93
        4
 72
     1
 10
74.15946992503652
 20
-145.849495406246
 11
74.15895316071374
 21
-145.5980034358227
 72
     1
 10
74.15895316071374
 20
-145.5980034358227
 11
74.42801511811174
 21
-145.5973144167257
 72
     1
 10
74.42801511811174
 20
-145.5973144167257
 11
74.42853188243454
 21
-145.8491508966974
 72
     1
 10
74.42853188243454
 20
-145.8491508966974
 11
74.15946992503652
 21
-145.849495406246
 97
        0
 75
     2
 76
     1
 98
        0
  0
SPLINE
  5
B3
330
A4
100
AcDbEntity
  8
_U+30EC_U+30A4_U+30E4_U+30FC 1
370
     0
100
AcDbSpline
210
0.0
220
0.0
230
1.0
 70
    11
 71
     3
 72
    53
 73
    49
 74
     0
 42
0.0000000001
 43
0.0000000001
 12
1.0
 22
0.0
 32
0.0
 13
1.0
 23
0.0
 33
0.0
 40
0.0
 40
0.0
 40
0.0
 40
0.0
 40
1.0
 40
1.0
 40
1.0
 40
2.0
 40
2.0
 40
2.0
 40
3.0
 40
3.0
 40
3.0
 40
4.0
 40
4.0
 40
4.0
 40
5.0
 40
5.0
 40
5.0
 40
6.0
 40
6.0
 40
6.0
 40
7.0
 40
7.0
 40
7.0
 40
8.0
 40
8.0
 40
8.0
 40
9.0
 40
9.0
 40
9.0
 40
10.0
 40
10.0
 40
10.0
 40
11.0
 40
11.0
 40
11.0
 40
12.0
 40
12.0
 40
12.0
 40
13.0
 40
13.0
 40
13.0
 40
14.0
 40
14.0
 40
14.0
 40
15.0
 40
15.0
 40
15.0
 40
16.0
 40
16.0
 40
16.0
 40
16.0
 10
75.19541013745115
 20
-145.8984157621365
 30
0.0
 10
75.11169431715958
 20
-145.8984157621365
 30
0.0
 10
75.0031738093742
 20
-145.8818793038073
 30
0.0
 10
74.89448104681458
 20
-145.8184895468787
 30
0.0
 10
74.70879040015961
 20
-145.7089355104478
 30
0.0
 10
74.68605276995696
 20
-145.5776773724598
 30
0.0
 10
74.66538219704546
 20
-145.4698458837714
 30
0.0
 10
74.66538219704546
 20
-145.4698458837714
 30
0.0
 10
74.90274927597918
 20
-145.4695013742229
 30
0.0
 10
74.90274927597918
 20
-145.4695013742229
 30
0.0
 10
74.96200491832548
 20
-145.6682833837218
 30
0.0
 10
75.09774168044432
 20
-145.6975666953464
 30
0.0
 10
75.19713268519378
 20
-145.6972221857979
 30
0.0
 10
75.34647757447935
 20
-145.6968776762494
 30
0.0
 10
75.50891382660889
 20
-145.5973144167257
 30
0.0
 10
75.50856931706036
 20
-145.3644259619228
 30
0.0
 10
75.50788029796331
 20
-145.1084553673687
 30
0.0
 10
75.31564396988637
 20
-145.0392089481152
 30
0.0
 10
75.18679739873802
 20
-145.0392089481152
 30
0.0
 10
75.15286320820832
 20
-145.0395534576637
 30
0.0
 10
75.00145126163159
 20
-145.0398979672123
 30
0.0
 10
74.90671113578722
 20
-145.1690890479091
 30
0.0
 10
74.90671113578722
 20
-145.1690890479091
 30
0.0
 10
74.7189534318411
 20
-145.1504855322888
 30
0.0
 10
74.7189534318411
 20
-145.1504855322888
 30
0.0
 10
74.7189534318411
 20
-145.1504855322888
 30
0.0
 10
74.84607745524681
 20
-144.3040255715629
 30
0.0
 10
74.84607745524681
 20
-144.3040255715629
 30
0.0
 10
74.84607745524681
 20
-144.3040255715629
 30
0.0
 10
75.67806801493465
 20
-144.3023030238203
 30
0.0
 10
75.67806801493465
 20
-144.3023030238203
 30
0.0
 10
75.67806801493465
 20
-144.3023030238203
 30
0.0
 10
75.67858477925743
 20
-144.4966064091884
 30
0.0
 10
75.67858477925743
 20
-144.4966064091884
 30
0.0
 10
75.67858477925743
 20
-144.4966064091884
 30
0.0
 10
75.02057154157472
 20
-144.4979844473825
 30
0.0
 10
75.02057154157472
 20
-144.4979844473825
 30
0.0
 10
75.02057154157472
 20
-144.4979844473825
 30
0.0
 10
74.9513251223212
 20
-144.9213866825197
 30
0.0
 10
74.9513251223212
 20
-144.9213866825197
 30
0.0
 10
75.01695419131521
 20
-144.8872802372157
 30
0.0
 10
75.10497638096334
 20
-144.8469726200383
 30
0.0
 10
75.23158364004627
 20
-144.8466281104897
 30
0.0
 10
75.5028849095097
 20
-144.8462836009412
 30
0.0
 10
75.75644393722409
 20
-145.0319742475962
 30
0.0
 10
75.75713295632114
 20
-145.3447889176569
 30
0.0
 10
75.75782197541818
 20
-145.6620822118484
 30
0.0
 10
75.51873234874185
 20
-145.8977267430395
 30
0.0
 10
75.19541013745115
 20
-145.8984157621365
 30
0.0
  0
HATCH
  5
B4
330
A4
100
AcDbEntity
  8
_U+30EC_U+30A4_U+30E4_U+30FC 1
 62
     7
420
 16777215
100
AcDbHatch
 10
0.0
 20
0.0
 30
0.0
210
0.0
220
0.0
230
1.0
  2
SOLID
 70
     1
 71
     0
 91
        1
 92
        1
 93
        1
 72
     4
 94
        3
 73
     0
 74
     1
 95
       53
 96
       49
 40
0.0
 40
0.0
 40
0.0
 40
0.0
 40
1.0
 40
1.0
 40
1.0
 40
2.0
 40
2.0
 40
2.0
 40
3.0
 40
3.0
 40
3.0
 40
4.0
 40
4.0
 40
4.0
 40
5.0
 40
5.0
 40
5.0
 40
6.0
 40
6.0
 40
6.0
 40
7.0
 40
7.0
 40
7.0
 40
8.0
 40
8.0
 40
8.0
 40
9.0
 40
9.0
 40
9.0
 40
10.0
 40
10.0
 40
10.0
 40
11.0
 40
11.0
 40
11.0
 40
12.0
 40
12.0
 40
12.0
 40
13.0
 40
13.0
 40
13.0
 40
14.0
 40
14.0
 40
14.0
 40
15.0
 40
15.0
 40
15.0
 40
16.0
 40
16.0
 40
16.0
 40
16.0
 10
75.19541013745115
 20
-145.8984157621365
 10
75.11169431715958
 20
-145.8984157621365
 10
75.0031738093742
 20
-145.8818793038073
 10
74.89448104681458
 20
-145.8184895468787
 10
74.70879040015961
 20
-145.7089355104478
 10
74.68605276995696
 20
-145.5776773724598
 10
74.66538219704546
 20
-145.4698458837714
 10
74.66538219704546
 20
-145.4698458837714
 10
74.90274927597918
 20
-145.4695013742229
 10
74.90274927597918
 20
-145.4695013742229
 10
74.96200491832548
 20
-145.6682833837218
 10
75.09774168044432
 20
-145.6975666953464
 10
75.19713268519378
 20
-145.6972221857979
 10
75.34647757447935
 20
-145.6968776762494
 10
75.50891382660889
 20
-145.5973144167257
 10
75.50856931706036
 20
-145.3644259619228
 10
75.50788029796331
 20
-145.1084553673687
 10
75.31564396988637
 20
-145.0392089481152
 10
75.18679739873802
 20
-145.0392089481152
 10
75.15286320820832
 20
-145.0395534576637
 10
75.00145126163159
 20
-145.0398979672123
 10
74.90671113578722
 20
-145.1690890479091
 10
74.90671113578722
 20
-145.1690890479091
 10
74.7189534318411
 20
-145.1504855322888
 10
74.7189534318411
 20
-145.1504855322888
 10
74.7189534318411
 20
-145.1504855322888
 10
74.84607745524681
 20
-144.3040255715629
 10
74.84607745524681
 20
-144.3040255715629
 10
74.84607745524681
 20
-144.3040255715629
 10
75.67806801493465
 20
-144.3023030238203
 10
75.67806801493465
 20
-144.3023030238203
 10
75.67806801493465
 20
-144.3023030238203
 10
75.67858477925743
 20
-144.4966064091884
 10
75.67858477925743
 20
-144.4966064091884
 10
75.67858477925743
 20
-144.4966064091884
 10
75.02057154157472
 20
-144.4979844473825
 10
75.02057154157472
 20
-144.4979844473825
 10
75.02057154157472
 20
-144.4979844473825
 10
74.9513251223212
 20
-144.9213866825197
 10
74.9513251223212
 20
-144.9213866825197
 10
75.01695419131521
 20
-144.8872802372157
 10
75.10497638096334
 20
-144.8469726200383
 10
75.23158364004627
 20
-144.8466281104897
 10
75.5028849095097
 20
-144.8462836009412
 10
75.75644393722409
 20
-145.0319742475962
 10
75.75713295632114
 20
-145.3447889176569
 10
75.75782197541818
 20
-145.6620822118484
 10
75.51873234874185
 20
-145.8977267430395
 10
75.19541013745115
 20
-145.8984157621365
 97
        0
 97
        0
 75
     2
 76
     1
 98
        0
  0
ENDBLK
  5
A7
330
A4
100
AcDbEntity
  8
0
100
AcDbBlockEnd
  0
ENDSEC
  0
SECTION
  2
ENTITIES
  0
POLYLINE
  5
41
330
1F
100
AcDbEntity
  8
_U+30EC_U+30A4_U+30E4_U+30FC 1
370
     0
100
AcDb2dPolyline
 66
     1
 10
0.0
 20
0.0
 30
0.0
  0
VERTEX
  5
42
330
41
100
AcDbEntity
  8
_U+30EC_U+30A4_U+30E4_U+30FC 1
370
     0
100
AcDbVertex
100
AcDb2dVertex
 10
70.77053652782652
 20
-132.9744680223118
 30
0.0
  0
VERTEX
  5
43
330
41
100
AcDbEntity
  8
_U+30EC_U+30A4_U+30E4_U+30FC 1
370
     0
100
AcDbVertex
100
AcDb2dVertex
 10
70.79946430486629
 20
-135.0325735773531
 30
0.0
  0
VERTEX
  5
44
330
41
100
AcDbEntity
  8
_U+30EC_U+30A4_U+30E4_U+30FC 1
370
     0
100
AcDbVertex
100
AcDb2dVertex
 10
77.26401108438641
 20
-135.0618541329015
 30
0.0
  0
VERTEX
  5
45
330
41
100
AcDbEntity
  8
_U+30EC_U+30A4_U+30E4_U+30FC 1
370
     0
100
AcDbVertex
100
AcDb2dVertex
 10
77.26401108438641
 20
-141.593076075713
 30
0.0
  0
VERTEX
  5
46
330
41
100
AcDbEntity
  8
_U+30EC_U+30A4_U+30E4_U+30FC 1
370
     0
100
AcDbVertex
100
AcDb2dVertex
 10
79.32141103189777
 20
-141.6227094090385
 30
0.0
  0
VERTEX
  5
47
330
41
100
AcDbEntity
  8
_U+30EC_U+30A4_U+30E4_U+30FC 1
370
     0
100
AcDbVertex
100
AcDb2dVertex
 10
79.292483254858
 20
-139.6238705206496
 30
0.0
  0
VERTEX
  5
48
330
41
100
AcDbEntity
  8
_U+30EC_U+30A4_U+30E4_U+30FC 1
370
     0
100
AcDbVertex
100
AcDb2dVertex
 10
78.29271105814209
 20
-139.5646038539979
 30
0.0
  0
VERTEX
  5
49
330
41
100
AcDbEntity
  8
_U+30EC_U+30A4_U+30E4_U+30FC 1
370
     0
100
AcDbVertex
100
AcDb2dVertex
 10
78.32234439071941
 20
-135.0325735773531
 30
0.0
  0
VERTEX
  5
4A
330
41
100
AcDbEntity
  8
_U+30EC_U+30A4_U+30E4_U+30FC 1
370
     0
100
AcDbVertex
100
AcDb2dVertex
 10
103.281195142855
 20
-135.0325735773531
 30
0.0
  0
VERTEX
  5
4B
330
41
100
AcDbEntity
  8
_U+30EC_U+30A4_U+30E4_U+30FC 1
370
     0
100
AcDbVertex
100
AcDb2dVertex
 10
103.281195142855
 20
-134.0328013553805
 30
0.0
  0
VERTEX
  5
4C
330
41
100
AcDbEntity
  8
_U+30EC_U+30A4_U+30E4_U+30FC 1
370
     0
100
AcDbVertex
100
AcDb2dVertex
 10
78.32234439071941
 20
-133.9742402442843
 30
0.0
  0
VERTEX
  5
4D
330
41
100
AcDbEntity
  8
_U+30EC_U+30A4_U+30E4_U+30FC 1
370
     0
100
AcDbVertex
100
AcDb2dVertex
 10
78.26307772556477
 20
-109.2208819171392
 30
0.0
  0
VERTEX
  5
4E
330
41
100
AcDbEntity
  8
_U+30EC_U+30A4_U+30E4_U+30FC 1
370
     0
100
AcDbVertex
100
AcDb2dVertex
 10
77.35220552658083
 20
-109.1916013615911
 30
0.0
  0
VERTEX
  5
4F
330
41
100
AcDbEntity
  8
_U+30EC_U+30A4_U+30E4_U+30FC 1
370
     0
100
AcDbVertex
100
AcDb2dVertex
 10
77.29293886142618
 20
-133.9742402442843
 30
0.0
  0
VERTEX
  5
50
330
41
100
AcDbEntity
  8
_U+30EC_U+30A4_U+30E4_U+30FC 1
370
     0
100
AcDbVertex
100
AcDb2dVertex
 10
72.76937536572079
 20
-133.9742402442843
 30
0.0
  0
VERTEX
  5
51
330
41
100
AcDbEntity
  8
_U+30EC_U+30A4_U+30E4_U+30FC 1
370
     0
100
AcDbVertex
100
AcDb2dVertex
 10
72.79900869829811
 20
-133.0333819111864
 30
0.0
  0
VERTEX
  5
52
330
41
100
AcDbEntity
  8
_U+30EC_U+30A4_U+30E4_U+30FC 1
370
     0
100
AcDbVertex
100
AcDb2dVertex
 10
70.77053652782652
 20
-132.9744680223118
 30
0.0
  0
SEQEND
  5
53
330
41
100
AcDbEntity
  8
_U+30EC_U+30A4_U+30E4_U+30FC 1
370
     0
  0
INSERT
  5
55
330
1F
100
AcDbEntity
  8
_U+30EC_U+30A4_U+30E4_U+30FC 1
100
AcDbBlockReference
  2
block 2
 10
0.0
 20
0.0
 30
0.0
  0
INSERT
  5
66
330
1F
100
AcDbEntity
  8
_U+30EC_U+30A4_U+30E4_U+30FC 1
100
AcDbBlockReference
  2
block 3
 10
0.0
 20
0.0
 30
0.0
  0
INSERT
  5
6E
330
1F
100
AcDbEntity
  8
_U+30EC_U+30A4_U+30E4_U+30FC 1
100
AcDbBlockReference
  2
block 4
 10
0.0
 20
0.0
 30
0.0
  0
SPLINE
  5
73
330
1F
100
AcDbEntity
  8
_U+30EC_U+30A4_U+30E4_U+30FC 1
 62
     7
420
 16777215
370
     9
100
AcDbSpline
210
0.0
220
0.0
230
1.0
 70
    11
 71
     3
 72
    17
 73
    13
 74
     0
 42
0.0000000001
 43
0.0000000001
 12
1.0
 22
0.0
 32
0.0
 13
1.0
 23
0.0
 33
0.0
 40
0.0
 40
0.0
 40
0.0
 40
0.0
 40
1.0
 40
1.0
 40
1.0
 40
2.0
 40
2.0
 40
2.0
 40
3.0
 40
3.0
 40
3.0
 40
4.0
 40
4.0
 40
4.0
 40
4.0
 10
107.2692419855559
 20
-141.5524360757231
 30
0.0
 10
107.2692419855559
 20
-141.6082455201535
 30
0.0
 10
107.224474486698
 20
-141.6523427423647
 30
0.0
 10
107.169335321438
 20
-141.6523427423647
 30
0.0
 10
107.114231433955
 20
-141.6523427423647
 30
0.0
 10
107.0694286573202
 20
-141.6089157979309
 30
0.0
 10
107.0694286573202
 20
-141.5531063535005
 30
0.0
 10
107.0694286573202
 20
-141.4980024646255
 30
0.0
 10
107.114231433955
 20
-141.4525294090814
 30
0.0
 10
107.169335321438
 20
-141.4525294090814
 30
0.0
 10
107.224474486698
 20
-141.4525294090814
 30
0.0
 10
107.2692419855559
 20
-141.49729690907
 30
0.0
 10
107.2692419855559
 20
-141.5524360757231
 30
0.0
  0
SPLINE
  5
74
330
1F
100
AcDbEntity
  8
_U+30EC_U+30A4_U+30E4_U+30FC 1
 62
     7
420
 16777215
370
     9
100
AcDbSpline
210
0.0
220
0.0
230
1.0
 70
    11
 71
     3
 72
    17
 73
    13
 74
     0
 42
0.0000000001
 43
0.0000000001
 12
1.0
 22
0.0
 32
0.0
 13
1.0
 23
0.0
 33
0.0
 40
0.0
 40
0.0
 40
0.0
 40
0.0
 40
1.0
 40
1.0
 40
1.0
 40
2.0
 40
2.0
 40
2.0
 40
3.0
 40
3.0
 40
3.0
 40
4.0
 40
4.0
 40
4.0
 40
4.0
 10
107.251320874902
 20
-134.9905577440303
 30
0.0
 10
107.251320874902
 20
-135.0456616329052
 30
0.0
 10
107.2065533760441
 20
-135.0904644106719
 30
0.0
 10
107.1514142107841
 20
-135.0904644106719
 30
0.0
 10
107.0963103233011
 20
-135.0908171884497
 30
0.0
 10
107.0515075466663
 20
-135.046014410683
 30
0.0
 10
107.0515075466663
 20
-134.9909105218081
 30
0.0
 10
107.0515075466663
 20
-134.9351010773776
 30
0.0
 10
107.0963103233011
 20
-134.8910038551664
 30
0.0
 10
107.1514142107841
 20
-134.8906510773887
 30
0.0
 10
107.2065533760441
 20
-134.8906510773887
 30
0.0
 10
107.251320874902
 20
-134.9347482995999
 30
0.0
 10
107.251320874902
 20
-134.9905577440303
 30
0.0
  0
POLYLINE
  5
75
330
1F
100
AcDbEntity
  8
_U+30EC_U+30A4_U+30E4_U+30FC 1
 62
     7
420
 16777215
370
     9
100
AcDb2dPolyline
 66
     1
 10
0.0
 20
0.0
 30
0.0
  0
VERTEX
  5
76
330
75
100
AcDbEntity
  8
_U+30EC_U+30A4_U+30E4_U+30FC 1
 62
     7
420
 16777215
370
     9
100
AcDbVertex
100
AcDb2dVertex
 10
89.41350105220488
 20
-141.5558580201669
 30
0.0
  0
VERTEX
  5
77
330
75
100
AcDbEntity
  8
_U+30EC_U+30A4_U+30E4_U+30FC 1
 62
     7
420
 16777215
370
     9
100
AcDbVertex
100
AcDb2dVertex
 10
108.1691075181539
 20
-141.5503546868347
 30
0.0
  0
SEQEND
  5
78
330
75
100
AcDbEntity
  8
_U+30EC_U+30A4_U+30E4_U+30FC 1
 62
     7
420
 16777215
370
     9
  0
POLYLINE
  5
79
330
1F
100
AcDbEntity
  8
_U+30EC_U+30A4_U+30E4_U+30FC 1
 62
     7
420
 16777215
370
     9
100
AcDb2dPolyline
 66
     1
 10
0.0
 20
0.0
 30
0.0
  0
VERTEX
  5
7A
330
79
100
AcDbEntity
  8
_U+30EC_U+30A4_U+30E4_U+30FC 1
 62
     7
420
 16777215
370
     9
100
AcDbVertex
100
AcDb2dVertex
 10
107.169335321438
 20
-141.5524360757231
 30
0.0
  0
VERTEX
  5
7B
330
79
100
AcDbEntity
  8
_U+30EC_U+30A4_U+30E4_U+30FC 1
 62
     7
420
 16777215
370
     9
100
AcDbVertex
100
AcDb2dVertex
 10
107.1652078215433
 20
-139.5528916317786
 30
0.0
  0
SEQEND
  5
7C
330
79
100
AcDbEntity
  8
_U+30EC_U+30A4_U+30E4_U+30FC 1
 62
     7
420
 16777215
370
     9
  0
INSERT
  5
7E
330
1F
100
AcDbEntity
  8
_U+30EC_U+30A4_U+30E4_U+30FC 1
100
AcDbBlockReference
  2
block 5
 10
0.0
 20
0.0
 30
0.0
  0
SPLINE
  5
83
330
1F
100
AcDbEntity
  8
_U+30EC_U+30A4_U+30E4_U+30FC 1
 62
     7
420
 16777215
370
     9
100
AcDbSpline
210
0.0
220
0.0
230
1.0
 70
    11
 71
     3
 72
    17
 73
    13
 74
     0
 42
0.0000000001
 43
0.0000000001
 12
1.0
 22
0.0
 32
0.0
 13
1.0
 23
0.0
 33
0.0
 40
0.0
 40
0.0
 40
0.0
 40
0.0
 40
1.0
 40
1.0
 40
1.0
 40
2.0
 40
2.0
 40
2.0
 40
3.0
 40
3.0
 40
3.0
 40
4.0
 40
4.0
 40
4.0
 40
4.0
 10
88.5177630195015
 20
-141.5524360757231
 30
0.0
 10
88.5177630195015
 20
-141.6082455201535
 30
0.0
 10
88.47299552064362
 20
-141.6523427423647
 30
0.0
 10
88.41785635538366
 20
-141.6523427423647
 30
0.0
 10
88.36275246790059
 20
-141.6523427423647
 30
0.0
 10
88.31794969126584
 20
-141.6089157979309
 30
0.0
 10
88.31794969126584
 20
-141.5531063535005
 30
0.0
 10
88.31794969126584
 20
-141.4980024646255
 30
0.0
 10
88.36275246790059
 20
-141.4525294090814
 30
0.0
 10
88.41785635538366
 20
-141.4525294090814
 30
0.0
 10
88.47299552064362
 20
-141.4525294090814
 30
0.0
 10
88.5177630195015
 20
-141.49729690907
 30
0.0
 10
88.5177630195015
 20
-141.5524360757231
 30
0.0
  0
SPLINE
  5
84
330
1F
100
AcDbEntity
  8
_U+30EC_U+30A4_U+30E4_U+30FC 1
 62
     7
420
 16777215
370
     9
100
AcDbSpline
210
0.0
220
0.0
230
1.0
 70
    11
 71
     3
 72
    17
 73
    13
 74
     0
 42
0.0000000001
 43
0.0000000001
 12
1.0
 22
0.0
 32
0.0
 13
1.0
 23
0.0
 33
0.0
 40
0.0
 40
0.0
 40
0.0
 40
0.0
 40
1.0
 40
1.0
 40
1.0
 40
2.0
 40
2.0
 40
2.0
 40
3.0
 40
3.0
 40
3.0
 40
4.0
 40
4.0
 40
4.0
 40
4.0
 10
88.51363551960681
 20
-139.452314687359
 30
0.0
 10
88.51363551960681
 20
-139.5074185762346
 30
0.0
 10
88.46883274297204
 20
-139.5522213540006
 30
0.0
 10
88.41372885548897
 20
-139.5528916317786
 30
0.0
 10
88.35858969022902
 20
-139.5528916317786
 30
0.0
 10
88.31382219137113
 20
-139.5081241317894
 30
0.0
 10
88.31382219137113
 20
-139.452984965137
 30
0.0
 10
88.31382219137113
 20
-139.3978810762615
 30
0.0
 10
88.35791941246835
 20
-139.3530782984954
 30
0.0
 10
88.41302329995142
 20
-139.3530782984954
 30
0.0
 10
88.46816246521136
 20
-139.3523727429398
 30
0.0
 10
88.51363551960681
 20
-139.3971755207066
 30
0.0
 10
88.51363551960681
 20
-139.452314687359
 30
0.0
  0
POLYLINE
  5
85
330
1F
100
AcDbEntity
  8
_U+30EC_U+30A4_U+30E4_U+30FC 1
 62
     7
420
 16777215
370
     9
100
AcDb2dPolyline
 66
     1
 10
0.0
 20
0.0
 30
0.0
  0
VERTEX
  5
86
330
85
100
AcDbEntity
  8
_U+30EC_U+30A4_U+30E4_U+30FC 1
 62
     7
420
 16777215
370
     9
100
AcDbVertex
100
AcDb2dVertex
 10
80.95766487904234
 20
-141.5558580201669
 30
0.0
  0
VERTEX
  5
87
330
85
100
AcDbEntity
  8
_U+30EC_U+30A4_U+30E4_U+30FC 1
 62
     7
420
 16777215
370
     9
100
AcDbVertex
100
AcDb2dVertex
 10
89.41762855209957
 20
-141.5503546868347
 30
0.0
  0
SEQEND
  5
88
330
85
100
AcDbEntity
  8
_U+30EC_U+30A4_U+30E4_U+30FC 1
 62
     7
420
 16777215
370
     9
  0
POLYLINE
  5
89
330
1F
100
AcDbEntity
  8
_U+30EC_U+30A4_U+30E4_U+30FC 1
 62
     7
420
 16777215
370
     9
100
AcDb2dPolyline
 66
     1
 10
0.0
 20
0.0
 30
0.0
  0
VERTEX
  5
8A
330
89
100
AcDbEntity
  8
_U+30EC_U+30A4_U+30E4_U+30FC 1
 62
     7
420
 16777215
370
     9
100
AcDbVertex
100
AcDb2dVertex
 10
88.41785635538366
 20
-141.5524360757231
 30
0.0
  0
VERTEX
  5
8B
330
89
100
AcDbEntity
  8
_U+30EC_U+30A4_U+30E4_U+30FC 1
 62
     7
420
 16777215
370
     9
100
AcDbVertex
100
AcDb2dVertex
 10
88.41372885548897
 20
-139.5528916317786
 30
0.0
  0
SEQEND
  5
8C
330
89
100
AcDbEntity
  8
_U+30EC_U+30A4_U+30E4_U+30FC 1
 62
     7
420
 16777215
370
     9
  0
POLYLINE
  5
8D
330
1F
100
AcDbEntity
  8
_U+30EC_U+30A4_U+30E4_U+30FC 1
 62
     7
420
 16777215
370
     9
100
AcDb2dPolyline
 66
     1
 10
0.0
 20
0.0
 30
0.0
  0
VERTEX
  5
8E
330
8D
100
AcDbEntity
  8
_U+30EC_U+30A4_U+30E4_U+30FC 1
 62
     7
420
 16777215
370
     9
100
AcDbVertex
100
AcDb2dVertex
 10
80.95353737914765
 20
-139.4839941317954
 30
0.0
  0
VERTEX
  5
8F
330
8D
100
AcDbEntity
  8
_U+30EC_U+30A4_U+30E4_U+30FC 1
 62
     7
420
 16777215
370
     9
100
AcDbVertex
100
AcDb2dVertex
 10
89.41350105220488
 20
-139.4509035762486
 30
0.0
  0
SEQEND
  5
90
330
8D
100
AcDbEntity
  8
_U+30EC_U+30A4_U+30E4_U+30FC 1
 62
     7
420
 16777215
370
     9
  0
POLYLINE
  5
91
330
1F
100
AcDbEntity
  8
_U+30EC_U+30A4_U+30E4_U+30FC 1
 62
     7
420
 16777215
370
     9
100
AcDb2dPolyline
 66
     1
 10
0.0
 20
0.0
 30
0.0
  0
VERTEX
  5
92
330
91
100
AcDbEntity
  8
_U+30EC_U+30A4_U+30E4_U+30FC 1
 62
     7
420
 16777215
370
     9
100
AcDbVertex
100
AcDb2dVertex
 10
107.1652078215433
 20
-139.452984965137
 30
0.0
  0
VERTEX
  5
93
330
91
100
AcDbEntity
  8
_U+30EC_U+30A4_U+30E4_U+30FC 1
 62
     7
420
 16777215
370
     9
100
AcDbVertex
100
AcDb2dVertex
 10
107.1514142107841
 20
-135.0904644106719
 30
0.0
  0
SEQEND
  5
94
330
91
100
AcDbEntity
  8
_U+30EC_U+30A4_U+30E4_U+30FC 1
 62
     7
420
 16777215
370
     9
  0
POLYLINE
  5
95
330
1F
100
AcDbEntity
  8
_U+30EC_U+30A4_U+30E4_U+30FC 1
 62
     7
420
 16777215
370
     9
100
AcDb2dPolyline
 66
     1
 10
0.0
 20
0.0
 30
0.0
  0
VERTEX
  5
96
330
95
100
AcDbEntity
  8
_U+30EC_U+30A4_U+30E4_U+30FC 1
 62
     7
420
 16777215
370
     9
100
AcDbVertex
100
AcDb2dVertex
 10
105.6914081369209
 20
-135.0219196884665
 30
0.0
  0
VERTEX
  5
97
330
95
100
AcDbEntity
  8
_U+30EC_U+30A4_U+30E4_U+30FC 1
 62
     7
420
 16777215
370
     9
100
AcDbVertex
100
AcDb2dVertex
 10
108.1511864075
 20
-134.9884763551419
 30
0.0
  0
SEQEND
  5
98
330
95
100
AcDbEntity
  8
_U+30EC_U+30A4_U+30E4_U+30FC 1
 62
     7
420
 16777215
370
     9
  0
SPLINE
  5
99
330
1F
100
AcDbEntity
  8
_U+30EC_U+30A4_U+30E4_U+30FC 1
 62
     7
420
 16777215
370
     9
100
AcDbSpline
210
0.0
220
0.0
230
1.0
 70
    11
 71
     3
 72
    17
 73
    13
 74
     0
 42
0.0000000001
 43
0.0000000001
 12
1.0
 22
0.0
 32
0.0
 13
1.0
 23
0.0
 33
0.0
 40
0.0
 40
0.0
 40
0.0
 40
0.0
 40
1.0
 40
1.0
 40
1.0
 40
2.0
 40
2.0
 40
2.0
 40
3.0
 40
3.0
 40
3.0
 40
4.0
 40
4.0
 40
4.0
 40
4.0
 10
107.249274763843
 20
-133.99043274428
 30
0.0
 10
107.249274763843
 20
-134.0455719109331
 30
0.0
 10
107.2044719872083
 20
-134.0903394109216
 30
0.0
 10
107.1493680997252
 20
-134.0906921886994
 30
0.0
 10
107.0942289344653
 20
-134.0906921886994
 30
0.0
 10
107.0494614356074
 20
-134.0459246887108
 30
0.0
 10
107.0494614356074
 20
-133.9907855220578
 30
0.0
 10
107.0494614356074
 20
-133.9349760776273
 30
0.0
 10
107.0942289344653
 20
-133.8905260776384
 30
0.0
 10
107.1493680997252
 20
-133.8905260776384
 30
0.0
 10
107.2044719872083
 20
-133.8902085776388
 30
0.0
 10
107.249274763843
 20
-133.9346232998496
 30
0.0
 10
107.249274763843
 20
-133.99043274428
 30
0.0
  0
POLYLINE
  5
9A
330
1F
100
AcDbEntity
  8
_U+30EC_U+30A4_U+30E4_U+30FC 1
 62
     7
420
 16777215
370
     9
100
AcDb2dPolyline
 66
     1
 10
0.0
 20
0.0
 30
0.0
  0
VERTEX
  5
9B
330
9A
100
AcDbEntity
  8
_U+30EC_U+30A4_U+30E4_U+30FC 1
 62
     7
420
 16777215
370
     9
100
AcDbVertex
100
AcDb2dVertex
 10
107.1514142107841
 20
-134.9905577440303
 30
0.0
  0
VERTEX
  5
9C
330
9A
100
AcDbEntity
  8
_U+30EC_U+30A4_U+30E4_U+30FC 1
 62
     7
420
 16777215
370
     9
100
AcDbVertex
100
AcDb2dVertex
 10
107.1493680997252
 20
-133.9907855220578
 30
0.0
  0
SEQEND
  5
9D
330
9A
100
AcDbEntity
  8
_U+30EC_U+30A4_U+30E4_U+30FC 1
 62
     7
420
 16777215
370
     9
  0
INSERT
  5
9F
330
1F
100
AcDbEntity
  8
_U+30EC_U+30A4_U+30E4_U+30FC 1
100
AcDbBlockReference
  2
block 6
 10
0.0
 20
0.0
 30
0.0
  0
INSERT
  5
A5
330
1F
100
AcDbEntity
  8
_U+30EC_U+30A4_U+30E4_U+30FC 1
100
AcDbBlockReference
  2
block 7
 10
0.0
 20
0.0
 30
0.0
  0
SPLINE
  5
B5
330
1F
100
AcDbEntity
  8
_U+30EC_U+30A4_U+30E4_U+30FC 1
 62
     7
420
 16777215
370
     9
100
AcDbSpline
210
0.0
220
0.0
230
1.0
 70
    11
 71
     3
 72
    17
 73
    13
 74
     0
 42
0.0000000001
 43
0.0000000001
 12
1.0
 22
0.0
 32
0.0
 13
1.0
 23
0.0
 33
0.0
 40
0.0
 40
0.0
 40
0.0
 40
0.0
 40
1.0
 40
1.0
 40
1.0
 40
2.0
 40
2.0
 40
2.0
 40
3.0
 40
3.0
 40
3.0
 40
4.0
 40
4.0
 40
4.0
 40
4.0
 10
70.82909763744362
 20
-147.180335240983
 30
0.0
 10
70.77328819442299
 20
-147.180335240983
 30
0.0
 10
70.72919097332579
 20
-147.1355324632163
 30
0.0
 10
70.72919097332579
 20
-147.0804285743407
 30
0.0
 10
70.72919097332579
 20
-147.0252894076883
 30
0.0
 10
70.77328819442299
 20
-146.9805219076991
 30
0.0
 10
70.82909763744362
 20
-146.9805219076991
 30
0.0
 10
70.8842015249267
 20
-146.9805219076991
 30
0.0
 10
70.92900430156146
 20
-147.0252894076883
 30
0.0
 10
70.92900430156146
 20
-147.0804285743407
 30
0.0
 10
70.92900430156146
 20
-147.1355324632163
 30
0.0
 10
70.8842015249267
 20
-147.180335240983
 30
0.0
 10
70.82909763744362
 20
-147.180335240983
 30
0.0
  0
SPLINE
  5
B6
330
1F
100
AcDbEntity
  8
_U+30EC_U+30A4_U+30E4_U+30FC 1
 62
     7
420
 16777215
370
     9
100
AcDbSpline
210
0.0
220
0.0
230
1.0
 70
    11
 71
     3
 72
    17
 73
    13
 74
     0
 42
0.0000000001
 43
0.0000000001
 12
1.0
 22
0.0
 32
0.0
 13
1.0
 23
0.0
 33
0.0
 40
0.0
 40
0.0
 40
0.0
 40
0.0
 40
1.0
 40
1.0
 40
1.0
 40
2.0
 40
2.0
 40
2.0
 40
3.0
 40
3.0
 40
3.0
 40
4.0
 40
4.0
 40
4.0
 40
4.0
 10
77.32394998066891
 20
-147.1762077409837
 30
0.0
 10
77.26884413981867
 20
-147.1762077409837
 30
0.0
 10
77.22337108542322
 20
-147.131404963217
 30
0.0
 10
77.22337108542322
 20
-147.0763010743421
 30
0.0
 10
77.22337108542322
 20
-147.021161907689
 30
0.0
 10
77.26813858428112
 20
-146.9763944077004
 30
0.0
 10
77.32327774954106
 20
-146.9763944077004
 30
0.0
 10
77.37838163702413
 20
-146.9763944077004
 30
0.0
 10
77.4231844136589
 20
-147.0204916299116
 30
0.0
 10
77.4231844136589
 20
-147.0755955187865
 30
0.0
 10
77.4231844136589
 20
-147.1307346854396
 30
0.0
 10
77.37908719256168
 20
-147.1762077409837
 30
0.0
 10
77.32394998066891
 20
-147.1762077409837
 30
0.0
  0
SPLINE
  5
B7
330
1F
100
AcDbEntity
  8
_U+30EC_U+30A4_U+30E4_U+30FC 1
 62
     7
420
 16777215
370
     9
100
AcDbSpline
210
0.0
220
0.0
230
1.0
 70
    11
 71
     3
 72
    17
 73
    13
 74
     0
 42
0.0000000001
 43
0.0000000001
 12
1.0
 22
0.0
 32
0.0
 13
1.0
 23
0.0
 33
0.0
 40
0.0
 40
0.0
 40
0.0
 40
0.0
 40
1.0
 40
1.0
 40
1.0
 40
2.0
 40
2.0
 40
2.0
 40
3.0
 40
3.0
 40
3.0
 40
4.0
 40
4.0
 40
4.0
 40
4.0
 10
79.32349442461367
 20
-147.1624141298761
 30
0.0
 10
79.26838853325049
 20
-147.1624141298761
 30
0.0
 10
79.22358575661572
 20
-147.1176466298875
 30
0.0
 10
79.22358575661572
 20
-147.0625074632344
 30
0.0
 10
79.22358575661572
 20
-147.0074035743595
 30
0.0
 10
79.26838853325049
 20
-146.9626007965928
 30
0.0
 10
79.32349442461367
 20
-146.9626007965928
 30
0.0
 10
79.37930186375418
 20
-146.9626007965928
 30
0.0
 10
79.4233990848514
 20
-147.0074035743595
 30
0.0
 10
79.4233990848514
 20
-147.0625074632344
 30
0.0
 10
79.4233990848514
 20
-147.1176466298875
 30
0.0
 10
79.37930186375418
 20
-147.1624141298761
 30
0.0
 10
79.32349442461367
 20
-147.1624141298761
 30
0.0
  0
POLYLINE
  5
B8
330
1F
100
AcDbEntity
  8
_U+30EC_U+30A4_U+30E4_U+30FC 1
 62
     7
420
 16777215
370
     9
100
AcDb2dPolyline
 66
     1
 10
0.0
 20
0.0
 30
0.0
  0
VERTEX
  5
B9
330
B8
100
AcDbEntity
  8
_U+30EC_U+30A4_U+30E4_U+30FC 1
 62
     7
420
 16777215
370
     9
100
AcDbVertex
100
AcDb2dVertex
 10
70.82634597084716
 20
-145.620387185817
 30
0.0
  0
VERTEX
  5
BA
330
B8
100
AcDbEntity
  8
_U+30EC_U+30A4_U+30E4_U+30FC 1
 62
     7
420
 16777215
370
     9
100
AcDbVertex
100
AcDb2dVertex
 10
70.83117902627941
 20
-148.0802007963132
 30
0.0
  0
SEQEND
  5
BB
330
B8
100
AcDbEntity
  8
_U+30EC_U+30A4_U+30E4_U+30FC 1
 62
     7
420
 16777215
370
     9
  0
POLYLINE
  5
BC
330
1F
100
AcDbEntity
  8
_U+30EC_U+30A4_U+30E4_U+30FC 1
 62
     7
420
 16777215
370
     9
100
AcDb2dPolyline
 66
     1
 10
0.0
 20
0.0
 30
0.0
  0
VERTEX
  5
BD
330
BC
100
AcDbEntity
  8
_U+30EC_U+30A4_U+30E4_U+30FC 1
 62
     7
420
 16777215
370
     9
100
AcDbVertex
100
AcDb2dVertex
 10
70.72919097332579
 20
-147.0804285743407
 30
0.0
  0
VERTEX
  5
BE
330
BC
100
AcDbEntity
  8
_U+30EC_U+30A4_U+30E4_U+30FC 1
 62
     7
420
 16777215
370
     9
100
AcDbVertex
100
AcDb2dVertex
 10
77.22337108542322
 20
-147.0763010743421
 30
0.0
  0
SEQEND
  5
BF
330
BC
100
AcDbEntity
  8
_U+30EC_U+30A4_U+30E4_U+30FC 1
 62
     7
420
 16777215
370
     9
  0
POLYLINE
  5
C0
330
1F
100
AcDbEntity
  8
_U+30EC_U+30A4_U+30E4_U+30FC 1
 62
     7
420
 16777215
370
     9
100
AcDb2dPolyline
 66
     1
 10
0.0
 20
0.0
 30
0.0
  0
VERTEX
  5
C1
330
C0
100
AcDbEntity
  8
_U+30EC_U+30A4_U+30E4_U+30FC 1
 62
     7
420
 16777215
370
     9
100
AcDbVertex
100
AcDb2dVertex
 10
77.2922685836655
 20
-145.6162596858184
 30
0.0
  0
VERTEX
  5
C2
330
C0
100
AcDbEntity
  8
_U+30EC_U+30A4_U+30E4_U+30FC 1
 62
     7
420
 16777215
370
     9
100
AcDbVertex
100
AcDb2dVertex
 10
77.32532386059997
 20
-148.0760732963146
 30
0.0
  0
SEQEND
  5
C3
330
C0
100
AcDbEntity
  8
_U+30EC_U+30A4_U+30E4_U+30FC 1
 62
     7
420
 16777215
370
     9
  0
POLYLINE
  5
C4
330
1F
100
AcDbEntity
  8
_U+30EC_U+30A4_U+30E4_U+30FC 1
 62
     7
420
 16777215
370
     9
100
AcDb2dPolyline
 66
     1
 10
0.0
 20
0.0
 30
0.0
  0
VERTEX
  5
C5
330
C4
100
AcDbEntity
  8
_U+30EC_U+30A4_U+30E4_U+30FC 1
 62
     7
420
 16777215
370
     9
100
AcDbVertex
100
AcDb2dVertex
 10
77.32327774954106
 20
-147.0763010743421
 30
0.0
  0
VERTEX
  5
C6
330
C4
100
AcDbEntity
  8
_U+30EC_U+30A4_U+30E4_U+30FC 1
 62
     7
420
 16777215
370
     9
100
AcDbVertex
100
AcDb2dVertex
 10
79.32349442461367
 20
-147.0625074632344
 30
0.0
  0
SEQEND
  5
C7
330
C4
100
AcDbEntity
  8
_U+30EC_U+30A4_U+30E4_U+30FC 1
 62
     7
420
 16777215
370
     9
  0
POLYLINE
  5
C8
330
1F
100
AcDbEntity
  8
_U+30EC_U+30A4_U+30E4_U+30FC 1
 62
     7
420
 16777215
370
     9
100
AcDb2dPolyline
 66
     1
 10
0.0
 20
0.0
 30
0.0
  0
VERTEX
  5
C9
330
C8
100
AcDbEntity
  8
_U+30EC_U+30A4_U+30E4_U+30FC 1
 62
     7
420
 16777215
370
     9
100
AcDbVertex
100
AcDb2dVertex
 10
79.292483254858
 20
-145.6024660747107
 30
0.0
  0
VERTEX
  5
CA
330
C8
100
AcDbEntity
  8
_U+30EC_U+30A4_U+30E4_U+30FC 1
 62
     7
420
 16777215
370
     9
100
AcDbVertex
100
AcDb2dVertex
 10
79.32557380956935
 20
-148.062279685207
 30
0.0
  0
SEQEND
  5
CB
330
C8
100
AcDbEntity
  8
_U+30EC_U+30A4_U+30E4_U+30FC 1
 62
     7
420
 16777215
370
     9
  0
POLYLINE
  5
CC
330
1F
100
AcDbEntity
  8
_U+30EC_U+30A4_U+30E4_U+30FC 1
 62
     7
420
 16777215
370
     9
100
AcDb2dPolyline
 66
     1
 10
0.0
 20
0.0
 30
0.0
  0
VERTEX
  5
CD
330
CC
100
AcDbEntity
  8
_U+30EC_U+30A4_U+30E4_U+30FC 1
 62
     7
420
 16777215
370
     9
100
AcDbVertex
100
AcDb2dVertex
 10
105.6893267480851
 20
-134.0217946887168
 30
0.0
  0
VERTEX
  5
CE
330
CC
100
AcDbEntity
  8
_U+30EC_U+30A4_U+30E4_U+30FC 1
 62
     7
420
 16777215
370
     9
100
AcDbVertex
100
AcDb2dVertex
 10
108.1491402964411
 20
-133.9887041331694
 30
0.0
  0
SEQEND
  5
CF
330
CC
100
AcDbEntity
  8
_U+30EC_U+30A4_U+30E4_U+30FC 1
 62
     7
420
 16777215
370
     9
  0
POLYLINE
  5
D0
330
1F
100
AcDbEntity
  8
_U+30EC_U+30A4_U+30E4_U+30FC 1
 62
     7
420
 16777215
370
     9
100
AcDb2dPolyline
 66
     1
 10
0.0
 20
0.0
 30
0.0
  0
VERTEX
  5
D1
330
D0
100
AcDbEntity
  8
_U+30EC_U+30A4_U+30E4_U+30FC 1
 62
     7
420
 16777215
370
     9
100
AcDbVertex
100
AcDb2dVertex
 10
107.1493680997252
 20
-133.9907855220578
 30
0.0
  0
VERTEX
  5
D2
330
D0
100
AcDbEntity
  8
_U+30EC_U+30A4_U+30E4_U+30FC 1
 62
     7
420
 16777215
370
     9
100
AcDbVertex
100
AcDb2dVertex
 10
107.0969833065592
 20
-108.9900594171969
 30
0.0
  0
SEQEND
  5
D3
330
D0
100
AcDbEntity
  8
_U+30EC_U+30A4_U+30E4_U+30FC 1
 62
     7
420
 16777215
370
     9
  0
POLYLINE
  5
D4
330
1F
100
AcDbEntity
  8
_U+30EC_U+30A4_U+30E4_U+30FC 1
 62
     7
420
 16777215
370
    25
100
AcDb2dPolyline
 66
     1
 10
0.0
 20
0.0
 30
0.0
  0
VERTEX
  5
D5
330
D4
100
AcDbEntity
  8
_U+30EC_U+30A4_U+30E4_U+30FC 1
 62
     7
420
 16777215
370
    25
100
AcDbVertex
100
AcDb2dVertex
 10
70.82013887118386
 20
-135.0219196884665
 30
0.0
  0
VERTEX
  5
D6
330
D4
100
AcDbEntity
  8
_U+30EC_U+30A4_U+30E4_U+30FC 1
 62
     7
420
 16777215
370
    25
100
AcDbVertex
100
AcDb2dVertex
 10
70.82013887118386
 20
-133.0220224667443
 30
0.0
  0
SEQEND
  5
D7
330
D4
100
AcDbEntity
  8
_U+30EC_U+30A4_U+30E4_U+30FC 1
 62
     7
420
 16777215
370
    25
  0
POLYLINE
  5
D8
330
1F
100
AcDbEntity
  8
_U+30EC_U+30A4_U+30E4_U+30FC 1
 62
     7
420
 16777215
370
    25
100
AcDb2dPolyline
 66
     1
 10
0.0
 20
0.0
 30
0.0
  0
VERTEX
  5
D9
330
D8
100
AcDbEntity
  8
_U+30EC_U+30A4_U+30E4_U+30FC 1
 62
     7
420
 16777215
370
    25
100
AcDbVertex
100
AcDb2dVertex
 10
103.3204971963923
 20
-135.0219196884665
 30
0.0
  0
VERTEX
  5
DA
330
D8
100
AcDbEntity
  8
_U+30EC_U+30A4_U+30E4_U+30FC 1
 62
     7
420
 16777215
370
    25
100
AcDbVertex
100
AcDb2dVertex
 10
103.3204971963923
 20
-134.0221474664946
 30
0.0
  0
SEQEND
  5
DB
330
D8
100
AcDbEntity
  8
_U+30EC_U+30A4_U+30E4_U+30FC 1
 62
     7
420
 16777215
370
    25
  0
POLYLINE
  5
DC
330
1F
100
AcDbEntity
  8
_U+30EC_U+30A4_U+30E4_U+30FC 1
 62
     7
420
 16777215
370
    25
100
AcDb2dPolyline
 66
     1
 10
0.0
 20
0.0
 30
0.0
  0
VERTEX
  5
DD
330
DC
100
AcDbEntity
  8
_U+30EC_U+30A4_U+30E4_U+30FC 1
 62
     7
420
 16777215
370
    25
100
AcDbVertex
100
AcDb2dVertex
 10
72.82035175330917
 20
-134.0217946887168
 30
0.0
  0
VERTEX
  5
DE
330
DC
100
AcDbEntity
  8
_U+30EC_U+30A4_U+30E4_U+30FC 1
 62
     7
420
 16777215
370
    25
100
AcDbVertex
100
AcDb2dVertex
 10
72.82035175330917
 20
-133.0220224667443
 30
0.0
  0
SEQEND
  5
DF
330
DC
100
AcDbEntity
  8
_U+30EC_U+30A4_U+30E4_U+30FC 1
 62
     7
420
 16777215
370
    25
  0
POLYLINE
  5
E0
330
1F
100
AcDbEntity
  8
_U+30EC_U+30A4_U+30E4_U+30FC 1
 62
     7
420
 16777215
370
    25
100
AcDb2dPolyline
 66
     1
 10
0.0
 20
0.0
 30
0.0
  0
VERTEX
  5
E1
330
E0
100
AcDbEntity
  8
_U+30EC_U+30A4_U+30E4_U+30FC 1
 62
     7
420
 16777215
370
    25
100
AcDbVertex
100
AcDb2dVertex
 10
70.82013887118386
 20
-133.0220224667443
 30
0.0
  0
VERTEX
  5
E2
330
E0
100
AcDbEntity
  8
_U+30EC_U+30A4_U+30E4_U+30FC 1
 62
     7
420
 16777215
370
    25
100
AcDbVertex
100
AcDb2dVertex
 10
72.82035175330917
 20
-133.0220224667443
 30
0.0
  0
SEQEND
  5
E3
330
E0
100
AcDbEntity
  8
_U+30EC_U+30A4_U+30E4_U+30FC 1
 62
     7
420
 16777215
370
    25
  0
POLYLINE
  5
E4
330
1F
100
AcDbEntity
  8
_U+30EC_U+30A4_U+30E4_U+30FC 1
 62
     7
420
 16777215
370
    25
100
AcDb2dPolyline
 66
     1
 10
0.0
 20
0.0
 30
0.0
  0
VERTEX
  5
E5
330
E4
100
AcDbEntity
  8
_U+30EC_U+30A4_U+30E4_U+30FC 1
 62
     7
420
 16777215
370
    25
100
AcDbVertex
100
AcDb2dVertex
 10
78.3147596686907
 20
-135.0219196884665
 30
0.0
  0
VERTEX
  5
E6
330
E4
100
AcDbEntity
  8
_U+30EC_U+30A4_U+30E4_U+30FC 1
 62
     7
420
 16777215
370
    25
100
AcDbVertex
100
AcDb2dVertex
 10
103.3204971963923
 20
-135.0219196884665
 30
0.0
  0
SEQEND
  5
E7
330
E4
100
AcDbEntity
  8
_U+30EC_U+30A4_U+30E4_U+30FC 1
 62
     7
420
 16777215
370
    25
  0
POLYLINE
  5
E8
330
1F
100
AcDbEntity
  8
_U+30EC_U+30A4_U+30E4_U+30FC 1
 62
     7
420
 16777215
370
    25
100
AcDb2dPolyline
 66
     1
 10
0.0
 20
0.0
 30
0.0
  0
VERTEX
  5
E9
330
E8
100
AcDbEntity
  8
_U+30EC_U+30A4_U+30E4_U+30FC 1
 62
     7
420
 16777215
370
    25
100
AcDbVertex
100
AcDb2dVertex
 10
77.23437775180909
 20
-135.0219196884665
 30
0.0
  0
VERTEX
  5
EA
330
E8
100
AcDbEntity
  8
_U+30EC_U+30A4_U+30E4_U+30FC 1
 62
     7
420
 16777215
370
    25
100
AcDbVertex
100
AcDb2dVertex
 10
70.82013887118386
 20
-135.0219196884665
 30
0.0
  0
SEQEND
  5
EB
330
E8
100
AcDbEntity
  8
_U+30EC_U+30A4_U+30E4_U+30FC 1
 62
     7
420
 16777215
370
    25
  0
POLYLINE
  5
EC
330
1F
100
AcDbEntity
  8
_U+30EC_U+30A4_U+30E4_U+30FC 1
 62
     7
420
 16777215
370
    25
100
AcDb2dPolyline
 66
     1
 10
0.0
 20
0.0
 30
0.0
  0
VERTEX
  5
ED
330
EC
100
AcDbEntity
  8
_U+30EC_U+30A4_U+30E4_U+30FC 1
 62
     7
420
 16777215
370
    25
100
AcDbVertex
100
AcDb2dVertex
 10
78.3588568897879
 20
-134.0217946887168
 30
0.0
  0
VERTEX
  5
EE
330
EC
100
AcDbEntity
  8
_U+30EC_U+30A4_U+30E4_U+30FC 1
 62
     7
420
 16777215
370
    25
100
AcDbVertex
100
AcDb2dVertex
 10
103.3204971963923
 20
-134.0217946887168
 30
0.0
  0
SEQEND
  5
EF
330
EC
100
AcDbEntity
  8
_U+30EC_U+30A4_U+30E4_U+30FC 1
 62
     7
420
 16777215
370
    25
  0
POLYLINE
  5
F0
330
1F
100
AcDbEntity
  8
_U+30EC_U+30A4_U+30E4_U+30FC 1
 62
     7
420
 16777215
370
    25
100
AcDb2dPolyline
 66
     1
 10
0.0
 20
0.0
 30
0.0
  0
VERTEX
  5
F1
330
F0
100
AcDbEntity
  8
_U+30EC_U+30A4_U+30E4_U+30FC 1
 62
     7
420
 16777215
370
    25
100
AcDbVertex
100
AcDb2dVertex
 10
72.82035175330917
 20
-134.0217946887168
 30
0.0
  0
VERTEX
  5
F2
330
F0
100
AcDbEntity
  8
_U+30EC_U+30A4_U+30E4_U+30FC 1
 62
     7
420
 16777215
370
    25
100
AcDbVertex
100
AcDb2dVertex
 10
77.2784749729063
 20
-134.0217946887168
 30
0.0
  0
SEQEND
  5
F3
330
F0
100
AcDbEntity
  8
_U+30EC_U+30A4_U+30E4_U+30FC 1
 62
     7
420
 16777215
370
    25
  0
POLYLINE
  5
F4
330
1F
100
AcDbEntity
  8
_U+30EC_U+30A4_U+30E4_U+30FC 1
 62
     7
420
 16777215
370
    25
100
AcDb2dPolyline
 66
     1
 10
0.0
 20
0.0
 30
0.0
  0
VERTEX
  5
F5
330
F4
100
AcDbEntity
  8
_U+30EC_U+30A4_U+30E4_U+30FC 1
 62
     7
420
 16777215
370
    25
100
AcDbVertex
100
AcDb2dVertex
 10
77.2922685836655
 20
-141.5551877423889
 30
0.0
  0
VERTEX
  5
F6
330
F4
100
AcDbEntity
  8
_U+30EC_U+30A4_U+30E4_U+30FC 1
 62
     7
420
 16777215
370
    25
100
AcDbVertex
100
AcDb2dVertex
 10
79.29181297709732
 20
-141.5558580201669
 30
0.0
  0
SEQEND
  5
F7
330
F4
100
AcDbEntity
  8
_U+30EC_U+30A4_U+30E4_U+30FC 1
 62
     7
420
 16777215
370
    25
  0
POLYLINE
  5
F8
330
1F
100
AcDbEntity
  8
_U+30EC_U+30A4_U+30E4_U+30FC 1
 62
     7
420
 16777215
370
    25
100
AcDb2dPolyline
 66
     1
 10
0.0
 20
0.0
 30
0.0
  0
VERTEX
  5
F9
330
F8
100
AcDbEntity
  8
_U+30EC_U+30A4_U+30E4_U+30FC 1
 62
     7
420
 16777215
370
    25
100
AcDbVertex
100
AcDb2dVertex
 10
78.29204078038141
 20
-139.554973020667
 30
0.0
  0
VERTEX
  5
FA
330
F8
100
AcDbEntity
  8
_U+30EC_U+30A4_U+30E4_U+30FC 1
 62
     7
420
 16777215
370
    25
100
AcDbVertex
100
AcDb2dVertex
 10
79.29181297709732
 20
-139.5556432984444
 30
0.0
  0
SEQEND
  5
FB
330
F8
100
AcDbEntity
  8
_U+30EC_U+30A4_U+30E4_U+30FC 1
 62
     7
420
 16777215
370
    25
  0
POLYLINE
  5
FC
330
1F
100
AcDbEntity
  8
_U+30EC_U+30A4_U+30E4_U+30FC 1
 62
     7
420
 16777215
370
    25
100
AcDb2dPolyline
 66
     1
 10
0.0
 20
0.0
 30
0.0
  0
VERTEX
  5
FD
330
FC
100
AcDbEntity
  8
_U+30EC_U+30A4_U+30E4_U+30FC 1
 62
     7
420
 16777215
370
    25
100
AcDbVertex
100
AcDb2dVertex
 10
79.29181297709732
 20
-141.5558580201669
 30
0.0
  0
VERTEX
  5
FE
330
FC
100
AcDbEntity
  8
_U+30EC_U+30A4_U+30E4_U+30FC 1
 62
     7
420
 16777215
370
    25
100
AcDbVertex
100
AcDb2dVertex
 10
79.29181297709732
 20
-139.5556432984444
 30
0.0
  0
SEQEND
  5
FF
330
FC
100
AcDbEntity
  8
_U+30EC_U+30A4_U+30E4_U+30FC 1
 62
     7
420
 16777215
370
    25
  0
POLYLINE
  5
100
330
1F
100
AcDbEntity
  8
_U+30EC_U+30A4_U+30E4_U+30FC 1
 62
     7
420
 16777215
370
    25
100
AcDb2dPolyline
 66
     1
 10
0.0
 20
0.0
 30
0.0
  0
VERTEX
  5
101
330
100
100
AcDbEntity
  8
_U+30EC_U+30A4_U+30E4_U+30FC 1
 62
     7
420
 16777215
370
    25
100
AcDbVertex
100
AcDb2dVertex
 10
77.2922685836655
 20
-133.9962888553899
 30
0.0
  0
VERTEX
  5
102
330
100
100
AcDbEntity
  8
_U+30EC_U+30A4_U+30E4_U+30FC 1
 62
     7
420
 16777215
370
    25
100
AcDbVertex
100
AcDb2dVertex
 10
77.2922685836655
 20
-109.1933299727018
 30
0.0
  0
SEQEND
  5
103
330
100
100
AcDbEntity
  8
_U+30EC_U+30A4_U+30E4_U+30FC 1
 62
     7
420
 16777215
370
    25
  0
POLYLINE
  5
104
330
1F
100
AcDbEntity
  8
_U+30EC_U+30A4_U+30E4_U+30FC 1
 62
     7
420
 16777215
370
    25
100
AcDb2dPolyline
 66
     1
 10
0.0
 20
0.0
 30
0.0
  0
VERTEX
  5
105
330
104
100
AcDbEntity
  8
_U+30EC_U+30A4_U+30E4_U+30FC 1
 62
     7
420
 16777215
370
    25
100
AcDbVertex
100
AcDb2dVertex
 10
77.2922685836655
 20
-141.5551877423889
 30
0.0
  0
VERTEX
  5
106
330
104
100
AcDbEntity
  8
_U+30EC_U+30A4_U+30E4_U+30FC 1
 62
     7
420
 16777215
370
    25
100
AcDbVertex
100
AcDb2dVertex
 10
77.2922685836655
 20
-135.0325735773531
 30
0.0
  0
SEQEND
  5
107
330
104
100
AcDbEntity
  8
_U+30EC_U+30A4_U+30E4_U+30FC 1
 62
     7
420
 16777215
370
    25
  0
POLYLINE
  5
108
330
1F
100
AcDbEntity
  8
_U+30EC_U+30A4_U+30E4_U+30FC 1
 62
     7
420
 16777215
370
    25
100
AcDb2dPolyline
 66
     1
 10
0.0
 20
0.0
 30
0.0
  0
VERTEX
  5
109
330
108
100
AcDbEntity
  8
_U+30EC_U+30A4_U+30E4_U+30FC 1
 62
     7
420
 16777215
370
    25
100
AcDbVertex
100
AcDb2dVertex
 10
78.29204078038141
 20
-133.9742402442843
 30
0.0
  0
VERTEX
  5
10A
330
108
100
AcDbEntity
  8
_U+30EC_U+30A4_U+30E4_U+30FC 1
 62
     7
420
 16777215
370
    25
100
AcDbVertex
100
AcDb2dVertex
 10
78.29204078038141
 20
-109.1933299727018
 30
0.0
  0
SEQEND
  5
10B
330
108
100
AcDbEntity
  8
_U+30EC_U+30A4_U+30E4_U+30FC 1
 62
     7
420
 16777215
370
    25
  0
POLYLINE
  5
10C
330
1F
100
AcDbEntity
  8
_U+30EC_U+30A4_U+30E4_U+30FC 1
 62
     7
420
 16777215
370
    25
100
AcDb2dPolyline
 66
     1
 10
0.0
 20
0.0
 30
0.0
  0
VERTEX
  5
10D
330
10C
100
AcDbEntity
  8
_U+30EC_U+30A4_U+30E4_U+30FC 1
 62
     7
420
 16777215
370
    25
100
AcDbVertex
100
AcDb2dVertex
 10
78.29204078038141
 20
-139.554973020667
 30
0.0
  0
VERTEX
  5
10E
330
10C
100
AcDbEntity
  8
_U+30EC_U+30A4_U+30E4_U+30FC 1
 62
     7
420
 16777215
370
    25
100
AcDbVertex
100
AcDb2dVertex
 10
78.29204078038141
 20
-135.0546221884587
 30
0.0
  0
SEQEND
  5
10F
330
10C
100
AcDbEntity
  8
_U+30EC_U+30A4_U+30E4_U+30FC 1
 62
     7
420
 16777215
370
    25
  0
ENDSEC
  0
SECTION
  2
OBJECTS
  0
DICTIONARY
  5
C
330
0
100
AcDbDictionary
281
     1
  3
ACAD_GROUP
350
D
  3
ACAD_LAYOUT
350
1A
  3
ACAD_MATERIAL
350
3B
  3
ACAD_MLEADERSTYLE
350
111
  3
ACAD_MLINESTYLE
350
17
  3
ACAD_PLOTSETTINGS
350
19
  3
ACAD_PLOTSTYLENAME
350
E
  3
ACAD_TABLESTYLE
350
110
  3
ACAD_VISUALSTYLE
350
2A
  0
SUN
  5
3F
330
29
100
AcDbSun
 90
        1
290
     0
 63
     7
421
 16777215
 40
1.0
291
     1
 91
  2455826
 92
 54000000
292
     0
 70
     2
 71
   256
280
     1
  0
DICTIONARY
  5
D
102
{ACAD_REACTORS
330
C
102
}
330
C
100
AcDbDictionary
281
     1
  0
DICTIONARY
  5
1A
102
{ACAD_REACTORS
330
C
102
}
330
C
100
AcDbDictionary
281
     1
  3
Layout1
350
1E
  3
Layout2
350
26
  3
Model
350
22
  0
DICTIONARY
  5
3B
102
{ACAD_REACTORS
330
C
102
}
330
C
100
AcDbDictionary
281
     1
  3
ByBlock
350
3D
  3
ByLayer
350
3C
  3
Global
350
3E
  0
DICTIONARY
  5
111
102
{ACAD_REACTORS
330
C
102
}
330
C
100
AcDbDictionary
281
     1
  0
DICTIONARY
  5
17
102
{ACAD_REACTORS
330
C
102
}
330
C
100
AcDbDictionary
281
     1
  3
Standard
350
18
  0
DICTIONARY
  5
19
102
{ACAD_REACTORS
330
C
102
}
330
C
100
AcDbDictionary
281
     1
  0
ACDBDICTIONARYWDFLT
  5
E
102
{ACAD_REACTORS
330
C
102
}
330
C
100
AcDbDictionary
281
     1
  3
Normal
350
F
100
AcDbDictionaryWithDefault
340
F
  0
DICTIONARY
  5
110
102
{ACAD_REACTORS
330
C
102
}
330
C
100
AcDbDictionary
281
     1
  0
DICTIONARY
  5
2A
102
{ACAD_REACTORS
330
C
102
}
330
C
100
AcDbDictionary
281
     1
  3
2dWireframe
350
2F
  3
3D Hidden
350
31
  3
3dWireframe
350
30
  3
Basic
350
32
  3
Brighten
350
36
  3
ColorChange
350
3A
  3
Conceptual
350
34
  3
Dim
350
35
  3
Facepattern
350
39
  3
Flat
350
2B
  3
FlatWithEdges
350
2C
  3
Gouraud
350
2D
  3
GouraudWithEdges
350
2E
  3
Linepattern
350
38
  3
Realistic
350
33
  3
Thicken
350
37
  0
LAYOUT
  5
1E
102
{ACAD_REACTORS
330
1A
102
}
330
1A
100
AcDbPlotSettings
  1

  2
none_device
  4

  6

 40
0.0
 41
0.0
 42
0.0
 43
0.0
 44
0.0
 45
0.0
 46
0.0
 47
0.0
 48
0.0
 49
0.0
140
0.0
141
0.0
142
1.0
143
1.0
 70
   688
 72
     0
 73
     0
 74
     5
  7

 75
    16
 76
     0
 77
     2
 78
   300
147
1.0
148
0.0
149
0.0
100
AcDbLayout
  1
Layout1
 70
     1
 71
     1
 10
0.0
 20
0.0
 11
12.0
 21
9.0
 12
0.0
 22
0.0
 32
0.0
 14
1.000000000000000E+20
 24
1.000000000000000E+20
 34
1.000000000000000E+20
 15
-1.000000000000000E+20
 25
-1.000000000000000E+20
 35
-1.000000000000000E+20
146
0.0
 13
0.0
 23
0.0
 33
0.0
 16
1.0
 26
0.0
 36
0.0
 17
0.0
 27
1.0
 37
0.0
 76
     0
330
1B
  0
LAYOUT
  5
26
102
{ACAD_REACTORS
330
1A
102
}
330
1A
100
AcDbPlotSettings
  1

  2
none_device
  4

  6

 40
0.0
 41
0.0
 42
0.0
 43
0.0
 44
0.0
 45
0.0
 46
0.0
 47
0.0
 48
0.0
 49
0.0
140
0.0
141
0.0
142
1.0
143
1.0
 70
   688
 72
     0
 73
     0
 74
     5
  7

 75
    16
 76
     0
 77
     2
 78
   300
147
1.0
148
0.0
149
0.0
100
AcDbLayout
  1
Layout2
 70
     1
 71
     2
 10
0.0
 20
0.0
 11
0.0
 21
0.0
 12
0.0
 22
0.0
 32
0.0
 14
0.0
 24
0.0
 34
0.0
 15
0.0
 25
0.0
 35
0.0
146
0.0
 13
0.0
 23
0.0
 33
0.0
 16
1.0
 26
0.0
 36
0.0
 17
0.0
 27
1.0
 37
0.0
 76
     0
330
23
  0
LAYOUT
  5
22
102
{ACAD_REACTORS
330
1A
102
}
330
1A
100
AcDbPlotSettings
  1

  2
none_device
  4

  6

 40
0.0
 41
0.0
 42
0.0
 43
0.0
 44
0.0
 45
0.0
 46
0.0
 47
0.0
 48
0.0
 49
0.0
140
0.0
141
0.0
142
1.0
143
1.0
 70
  1712
 72
     0
 73
     0
 74
     0
  7

 75
     0
 76
     0
 77
     2
 78
   300
147
1.0
148
0.0
149
0.0
100
AcDbLayout
  1
Model
 70
     1
 71
     0
 10
0.0
 20
0.0
 11
12.0
 21
9.0
 12
0.0
 22
0.0
 32
0.0
 14
1.000000000000000E+20
 24
1.000000000000000E+20
 34
1.000000000000000E+20
 15
-1.000000000000000E+20
 25
-1.000000000000000E+20
 35
-1.000000000000000E+20
146
0.0
 13
0.0
 23
0.0
 33
0.0
 16
1.0
 26
0.0
 36
0.0
 17
0.0
 27
1.0
 37
0.0
 76
     0
330
1F
331
29
  0
MATERIAL
  5
3D
102
{ACAD_REACTORS
330
3B
102
}
330
3B
100
AcDbMaterial
  1
ByBlock
 72
     1
 94
      127
  0
MATERIAL
  5
3C
102
{ACAD_REACTORS
330
3B
102
}
330
3B
100
AcDbMaterial
  1
ByLayer
 72
     1
 94
      127
  0
MATERIAL
  5
3E
102
{ACAD_REACTORS
330
3B
102
}
330
3B
100
AcDbMaterial
  1
Global
 72
     1
 94
      127
  0
MLINESTYLE
  5
18
102
{ACAD_REACTORS
330
17
102
}
330
17
100
AcDbMlineStyle
  2
Standard
 70
     0
  3

 62
   256
 51
90.0
 52
90.0
 71
     2
 49
0.5
 62
   256
  6
BYLAYER
 49
-0.5
 62
   256
  6
BYLAYER
  0
ACDBPLACEHOLDER
  5
F
102
{ACAD_REACTORS
330
E
102
}
330
E
  0
VISUALSTYLE
  5
2F
102
{ACAD_REACTORS
330
2A
102
}
330
2A
100
AcDbVisualStyle
  2
2dWireframe
 70
     4
177
     2
291
     0
 71
     0
176
     1
 72
     2
176
     1
 73
     0
176
     1
 90
        0
176
     1
 40
-0.6
176
     1
 41
-30.0
176
     1
 62
     5
 63
     7
421
 16777215
176
     1
 74
     1
176
     1
 91
        4
176
     1
 64
     7
176
     1
 65
   257
176
     1
 75
     1
176
     1
175
     1
176
     1
 42
1.0
176
     1
 92
        0
176
     1
 66
   257
176
     1
 43
1.0
176
     1
 76
     1
176
     1
 77
     6
176
     1
 78
     2
176
     1
 67
     7
176
     1
 79
     5
176
     1
170
     0
176
     1
171
     0
176
     1
290
     0
176
     1
 93
        1
176
     1
 44
0.0
176
     1
173
     0
176
     1
  0
VISUALSTYLE
  5
31
102
{ACAD_REACTORS
330
2A
102
}
330
2A
100
AcDbVisualStyle
  2
3D Hidden
 70
     6
177
     2
291
     0
 71
     1
176
     1
 72
     2
176
     1
 73
     2
176
     1
 90
        0
176
     1
 40
-0.6
176
     1
 41
-30.0
176
     1
 62
     5
 63
     7
421
 16777215
176
     1
 74
     2
176
     1
 91
        2
176
     1
 64
     7
176
     1
 65
   257
176
     1
 75
     2
176
     1
175
     1
176
     1
 42
40.0
176
     1
 92
        0
176
     1
 66
   257
176
     1
 43
1.0
176
     1
 76
     1
176
     1
 77
     6
176
     1
 78
     2
176
     1
 67
     7
176
     1
 79
     3
176
     1
170
     0
176
     1
171
     0
176
     1
290
     0
176
     1
 93
        1
176
     1
 44
0.0
176
     1
173
     0
176
     1
  0
VISUALSTYLE
  5
30
102
{ACAD_REACTORS
330
2A
102
}
330
2A
100
AcDbVisualStyle
  2
3dWireframe
 70
     5
177
     2
291
     0
 71
     0
176
     1
 72
     2
176
     1
 73
     0
176
     1
 90
        0
176
     1
 40
-0.6
176
     1
 41
-30.0
176
     1
 62
     5
 63
     7
421
 16777215
176
     1
 74
     1
176
     1
 91
        4
176
     1
 64
     7
176
     1
 65
   257
176
     1
 75
     1
176
     1
175
     1
176
     1
 42
1.0
176
     1
 92
        0
176
     1
 66
   257
176
     1
 43
1.0
176
     1
 76
     1
176
     1
 77
     6
176
     1
 78
     2
176
     1
 67
     7
176
     1
 79
     5
176
     1
170
     0
176
     1
171
     0
176
     1
290
     0
176
     1
 93
        1
176
     1
 44
0.0
176
     1
173
     0
176
     1
  0
VISUALSTYLE
  5
32
102
{ACAD_REACTORS
330
2A
102
}
330
2A
100
AcDbVisualStyle
  2
Basic
 70
     7
177
     2
291
     1
 71
     1
176
     1
 72
     0
176
     1
 73
     1
176
     1
 90
        0
176
     1
 40
-0.6
176
     1
 41
-30.0
176
     1
 62
     5
 63
     7
421
 16777215
176
     1
 74
     0
176
     1
 91
        4
176
     1
 64
     7
176
     1
 65
   257
176
     1
 75
     1
176
     1
175
     1
176
     1
 42
1.0
176
     1
 92
        8
176
     1
 66
     7
176
     1
 43
1.0
176
     1
 76
     1
176
     1
 77
     6
176
     1
 78
     2
176
     1
 67
     7
176
     1
 79
     5
176
     1
170
     0
176
     1
171
     0
176
     1
290
     0
176
     1
 93
        1
176
     1
 44
0.0
176
     1
173
     0
176
     1
  0
VISUALSTYLE
  5
36
102
{ACAD_REACTORS
330
2A
102
}
330
2A
100
AcDbVisualStyle
  2
Brighten
 70
    12
177
     2
291
     1
 71
     2
176
     1
 72
     2
176
     1
 73
     0
176
     1
 90
        0
176
     1
 40
-0.6
176
     1
 41
-30.0
176
     1
 62
     5
 63
     7
421
 16777215
176
     1
 74
     1
176
     1
 91
        4
176
     1
 64
     7
176
     1
 65
   257
176
     1
 75
     1
176
     1
175
     1
176
     1
 42
1.0
176
     1
 92
        8
176
     1
 66
     7
176
     1
 43
1.0
176
     1
 76
     1
176
     1
 77
     6
176
     1
 78
     2
176
     1
 67
     7
176
     1
 79
     5
176
     1
170
     0
176
     1
171
     0
176
     1
290
     0
176
     1
 93
        1
176
     1
 44
50.0
176
     1
173
     0
176
     1
  0
VISUALSTYLE
  5
3A
102
{ACAD_REACTORS
330
2A
102
}
330
2A
100
AcDbVisualStyle
  2
ColorChange
 70
    16
177
     2
291
     1
 71
     2
176
     1
 72
     2
176
     1
 73
     3
176
     1
 90
        0
176
     1
 40
-0.6
176
     1
 41
-30.0
176
     1
 62
     5
 63
     8
421
  8421504
176
     1
 74
     1
176
     1
 91
        4
176
     1
 64
     7
176
     1
 65
   257
176
     1
 75
     1
176
     1
175
     1
176
     1
 42
1.0
176
     1
 92
        8
176
     1
 66
     8
424
  8421504
176
     1
 43
1.0
176
     1
 76
     1
176
     1
 77
     6
176
     1
 78
     2
176
     1
 67
     7
176
     1
 79
     5
176
     1
170
     0
176
     1
171
     0
176
     1
290
     0
176
     1
 93
        1
176
     1
 44
0.0
176
     1
173
     0
176
     1
  0
VISUALSTYLE
  5
34
102
{ACAD_REACTORS
330
2A
102
}
330
2A
100
AcDbVisualStyle
  2
Conceptual
 70
     9
177
     2
291
     0
 71
     3
176
     1
 72
     2
176
     1
 73
     0
176
     1
 90
        0
176
     1
 40
-0.6
176
     1
 41
-30.0
176
     1
 62
     5
 63
     7
421
 16777215
176
     1
 74
     2
176
     1
 91
        2
176
     1
 64
     7
176
     1
 65
   257
176
     1
 75
     1
176
     1
175
     1
176
     1
 42
40.0
176
     1
 92
        8
176
     1
 66
     7
176
     1
 43
1.0
176
     1
 76
     1
176
     1
 77
     6
176
     1
 78
     2
176
     1
 67
     7
176
     1
 79
     3
176
     1
170
     0
176
     1
171
     0
176
     1
290
     0
176
     1
 93
        1
176
     1
 44
0.0
176
     1
173
     0
176
     1
  0
VISUALSTYLE
  5
35
102
{ACAD_REACTORS
330
2A
102
}
330
2A
100
AcDbVisualStyle
  2
Dim
 70
    11
177
     2
291
     1
 71
     2
176
     1
 72
     2
176
     1
 73
     0
176
     1
 90
        0
176
     1
 40
-0.6
176
     1
 41
-30.0
176
     1
 62
     5
 63
     7
421
 16777215
176
     1
 74
     1
176
     1
 91
        4
176
     1
 64
     7
176
     1
 65
   257
176
     1
 75
     1
176
     1
175
     1
176
     1
 42
1.0
176
     1
 92
        8
176
     1
 66
     7
176
     1
 43
1.0
176
     1
 76
     1
176
     1
 77
     6
176
     1
 78
     2
176
     1
 67
     7
176
     1
 79
     5
176
     1
170
     0
176
     1
171
     0
176
     1
290
     0
176
     1
 93
        1
176
     1
 44
-50.0
176
     1
173
     0
176
     1
  0
VISUALSTYLE
  5
39
102
{ACAD_REACTORS
330
2A
102
}
330
2A
100
AcDbVisualStyle
  2
Facepattern
 70
    15
177
     2
291
     1
 71
     2
176
     1
 72
     2
176
     1
 73
     0
176
     1
 90
        0
176
     1
 40
-0.6
176
     1
 41
-30.0
176
     1
 62
     5
 63
     7
421
 16777215
176
     1
 74
     1
176
     1
 91
        4
176
     1
 64
     7
176
     1
 65
   257
176
     1
 75
     1
176
     1
175
     1
176
     1
 42
1.0
176
     1
 92
        8
176
     1
 66
     7
176
     1
 43
1.0
176
     1
 76
     1
176
     1
 77
     6
176
     1
 78
     2
176
     1
 67
     7
176
     1
 79
     5
176
     1
170
     0
176
     1
171
     0
176
     1
290
     0
176
     1
 93
        1
176
     1
 44
0.0
176
     1
173
     0
176
     1
  0
VISUALSTYLE
  5
2B
102
{ACAD_REACTORS
330
2A
102
}
330
2A
100
AcDbVisualStyle
  2
Flat
 70
     0
177
     2
291
     1
 71
     2
176
     1
 72
     1
176
     1
 73
     1
176
     1
 90
        2
176
     1
 40
-0.6
176
     1
 41
30.0
176
     1
 62
     5
 63
     7
421
 16777215
176
     1
 74
     0
176
     1
 91
        4
176
     1
 64
     7
176
     1
 65
   257
176
     1
 75
     1
176
     1
175
     1
176
     1
 42
1.0
176
     1
 92
        8
176
     1
 66
     7
176
     1
 43
1.0
176
     1
 76
     1
176
     1
 77
     6
176
     1
 78
     2
176
     1
 67
     7
176
     1
 79
     5
176
     1
170
     0
176
     1
171
     0
176
     1
290
     0
176
     1
 93
       13
176
     1
 44
0.0
176
     1
173
     0
176
     1
  0
VISUALSTYLE
  5
2C
102
{ACAD_REACTORS
330
2A
102
}
330
2A
100
AcDbVisualStyle
  2
FlatWithEdges
 70
     1
177
     2
291
     1
 71
     2
176
     1
 72
     1
176
     1
 73
     1
176
     1
 90
        2
176
     1
 40
-0.6
176
     1
 41
30.0
176
     1
 62
     5
 63
     7
421
 16777215
176
     1
 74
     1
176
     1
 91
        4
176
     1
 64
     7
176
     1
 65
   257
176
     1
 75
     1
176
     1
175
     1
176
     1
 42
1.0
176
     1
 92
        0
176
     1
 66
   257
176
     1
 43
1.0
176
     1
 76
     1
176
     1
 77
     6
176
     1
 78
     2
176
     1
 67
     7
176
     1
 79
     5
176
     1
170
     0
176
     1
171
     0
176
     1
290
     0
176
     1
 93
       13
176
     1
 44
0.0
176
     1
173
     0
176
     1
  0
VISUALSTYLE
  5
2D
102
{ACAD_REACTORS
330
2A
102
}
330
2A
100
AcDbVisualStyle
  2
Gouraud
 70
     2
177
     2
291
     1
 71
     2
176
     1
 72
     2
176
     1
 73
     1
176
     1
 90
        2
176
     1
 40
-0.6
176
     1
 41
30.0
176
     1
 62
     5
 63
     7
421
 16777215
176
     1
 74
     0
176
     1
 91
        4
176
     1
 64
     7
176
     1
 65
   257
176
     1
 75
     1
176
     1
175
     1
176
     1
 42
1.0
176
     1
 92
        0
176
     1
 66
     7
176
     1
 43
1.0
176
     1
 76
     1
176
     1
 77
     6
176
     1
 78
     2
176
     1
 67
     7
176
     1
 79
     5
176
     1
170
     0
176
     1
171
     0
176
     1
290
     0
176
     1
 93
       13
176
     1
 44
0.0
176
     1
173
     0
176
     1
  0
VISUALSTYLE
  5
2E
102
{ACAD_REACTORS
330
2A
102
}
330
2A
100
AcDbVisualStyle
  2
GouraudWithEdges
 70
     3
177
     2
291
     1
 71
     2
176
     1
 72
     2
176
     1
 73
     1
176
     1
 90
        2
176
     1
 40
-0.6
176
     1
 41
30.0
176
     1
 62
     5
 63
     7
421
 16777215
176
     1
 74
     1
176
     1
 91
        4
176
     1
 64
     7
176
     1
 65
   257
176
     1
 75
     1
176
     1
175
     1
176
     1
 42
1.0
176
     1
 92
        0
176
     1
 66
   257
176
     1
 43
1.0
176
     1
 76
     1
176
     1
 77
     6
176
     1
 78
     2
176
     1
 67
     7
176
     1
 79
     5
176
     1
170
     0
176
     1
171
     0
176
     1
290
     0
176
     1
 93
       13
176
     1
 44
0.0
176
     1
173
     0
176
     1
  0
VISUALSTYLE
  5
38
102
{ACAD_REACTORS
330
2A
102
}
330
2A
100
AcDbVisualStyle
  2
Linepattern
 70
    14
177
     2
291
     1
 71
     2
176
     1
 72
     2
176
     1
 73
     0
176
     1
 90
        0
176
     1
 40
-0.6
176
     1
 41
-30.0
176
     1
 62
     5
 63
     7
421
 16777215
176
     1
 74
     1
176
     1
 91
        4
176
     1
 64
     7
176
     1
 65
   257
176
     1
 75
     7
176
     1
175
     7
176
     1
 42
1.0
176
     1
 92
        8
176
     1
 66
     7
176
     1
 43
1.0
176
     1
 76
     1
176
     1
 77
     6
176
     1
 78
     2
176
     1
 67
     7
176
     1
 79
     5
176
     1
170
     0
176
     1
171
     0
176
     1
290
     0
176
     1
 93
        1
176
     1
 44
0.0
176
     1
173
     0
176
     1
  0
VISUALSTYLE
  5
33
102
{ACAD_REACTORS
330
2A
102
}
330
2A
100
AcDbVisualStyle
  2
Realistic
 70
     8
177
     2
291
     0
 71
     2
176
     1
 72
     2
176
     1
 73
     0
176
     1
 90
        0
176
     1
 40
-0.6
176
     1
 41
-30.0
176
     1
 62
     5
 63
     7
421
 16777215
176
     1
 74
     1
176
     1
 91
        0
176
     1
 64
     7
176
     1
 65
   257
176
     1
 75
     1
176
     1
175
     1
176
     1
 42
1.0
176
     1
 92
        8
176
     1
 66
     8
424
  7895160
176
     1
 43
1.0
176
     1
 76
     1
176
     1
 77
     6
176
     1
 78
     2
176
     1
 67
     7
176
     1
 79
     5
176
     1
170
     0
176
     1
171
     0
176
     1
290
     0
176
     1
 93
       13
176
     1
 44
0.0
176
     1
173
     0
176
     1
  0
VISUALSTYLE
  5
37
102
{ACAD_REACTORS
330
2A
102
}
330
2A
100
AcDbVisualStyle
  2
Thicken
 70
    13
177
     2
291
     1
 71
     2
176
     1
 72
     2
176
     1
 73
     0
176
     1
 90
        0
176
     1
 40
-0.6
176
     1
 41
-30.0
176
     1
 62
     5
 63
     7
421
 16777215
176
     1
 74
     1
176
     1
 91
        4
176
     1
 64
     7
176
     1
 65
   257
176
     1
 75
     1
176
     1
175
     1
176
     1
 42
1.0
176
     1
 92
       12
176
     1
 66
     7
176
     1
 43
1.0
176
     1
 76
     1
176
     1
 77
     6
176
     1
 78
     2
176
     1
 67
     7
176
     1
 79
     5
176
     1
170
     0
176
     1
171
     0
176
     1
290
     0
176
     1
 93
        1
176
     1
 44
0.0
176
     1
173
     0
176
     1
  0
ENDSEC
  0
EOF
