  0
SECTION
  2
HEADER
  9
$ACADVER
  1
AC1024
  9
$ACADMAINTVER
 70
     6
  9
$DWGCODEPAGE
  3
UNDEFINED
  9
$INSBASE
 10
0.0
 20
0.0
 30
0.0
  9
$EXTMIN
 10
1.000000000000000E+20
 20
1.000000000000000E+20
 30
1.000000000000000E+20
  9
$EXTMAX
 10
-1.000000000000000E+20
 20
-1.000000000000000E+20
 30
-1.000000000000000E+20
  9
$LIMMIN
 10
0.0
 20
0.0
  9
$LIMMAX
 10
12.0
 20
9.0
  9
$ORTHOMODE
 70
     0
  9
$REGENMODE
 70
     1
  9
$FILLMODE
 70
     1
  9
$QTEXTMODE
 70
     0
  9
$MIRRTEXT
 70
     1
  9
$LTSCALE
 40
1.0
  9
$ATTMODE
 70
     1
  9
$TEXTSIZE
 40
0.2
  9
$TRACEWID
 40
0.05
  9
$TEXTSTYLE
  7
Standard
  9
$CLAYER
  8
0
  9
$CELTYPE
  6
ByLayer
  9
$CECOLOR
 62
   256
  9
$CELTSCALE
 40
1.0
  9
$DISPSILH
 70
     0
  9
$DIMSCALE
 40
1.0
  9
$DIMASZ
 40
0.18
  9
$DIMEXO
 40
0.0625
  9
$DIMDLI
 40
0.38
  9
$DIMRND
 40
0.0
  9
$DIMDLE
 40
0.0
  9
$DIMEXE
 40
0.18
  9
$DIMTP
 40
0.0
  9
$DIMTM
 40
0.0
  9
$DIMTXT
 40
0.18
  9
$DIMCEN
 40
0.09
  9
$DIMTSZ
 40
0.0
  9
$DIMTOL
 70
     0
  9
$DIMLIM
 70
     0
  9
$DIMTIH
 70
     1
  9
$DIMTOH
 70
     1
  9
$DIMSE1
 70
     0
  9
$DIMSE2
 70
     0
  9
$DIMTAD
 70
     0
  9
$DIMZIN
 70
     0
  9
$DIMBLK
  1

  9
$DIMASO
 70
     1
  9
$DIMSHO
 70
     1
  9
$DIMPOST
  1

  9
$DIMAPOST
  1

  9
$DIMALT
 70
     0
  9
$DIMALTD
 70
     2
  9
$DIMALTF
 40
25.4
  9
$DIMLFAC
 40
1.0
  9
$DIMTOFL
 70
     0
  9
$DIMTVP
 40
0.0
  9
$DIMTIX
 70
     0
  9
$DIMSOXD
 70
     0
  9
$DIMSAH
 70
     0
  9
$DIMBLK1
  1

  9
$DIMBLK2
  1

  9
$DIMSTYLE
  2
Standard
  9
$DIMCLRD
 70
     0
  9
$DIMCLRE
 70
     0
  9
$DIMCLRT
 70
     0
  9
$DIMTFAC
 40
1.0
  9
$DIMGAP
 40
0.09
  9
$DIMJUST
 70
     0
  9
$DIMSD1
 70
     0
  9
$DIMSD2
 70
     0
  9
$DIMTOLJ
 70
     1
  9
$DIMTZIN
 70
     0
  9
$DIMALTZ
 70
     0
  9
$DIMALTTZ
 70
     0
  9
$DIMUPT
 70
     0
  9
$DIMDEC
 70
     4
  9
$DIMTDEC
 70
     4
  9
$DIMALTU
 70
     2
  9
$DIMALTTD
 70
     2
  9
$DIMTXSTY
  7
Standard
  9
$DIMAUNIT
 70
     0
  9
$DIMADEC
 70
     0
  9
$DIMALTRND
 40
0.0
  9
$DIMAZIN
 70
     0
  9
$DIMDSEP
 70
    46
  9
$DIMATFIT
 70
     3
  9
$DIMFRAC
 70
     0
  9
$DIMLDRBLK
  1

  9
$DIMLUNIT
 70
     2
  9
$DIMLWD
 70
    -2
  9
$DIMLWE
 70
    -2
  9
$DIMTMOVE
 70
     0
  9
$DIMFXL
 40
1.0
  9
$DIMFXLON
 70
     0
  9
$DIMJOGANG
 40
0.7853981633974483
  9
$DIMTFILL
 70
     0
  9
$DIMTFILLCLR
 70
     0
  9
$DIMARCSYM
 70
     0
  9
$DIMLTYPE
  6

  9
$DIMLTEX1
  6

  9
$DIMLTEX2
  6

  9
$DIMTXTDIRECTION
 70
     0
  9
$LUNITS
 70
     2
  9
$LUPREC
 70
     4
  9
$SKETCHINC
 40
0.1
  9
$FILLETRAD
 40
0.5
  9
$AUNITS
 70
     0
  9
$AUPREC
 70
     0
  9
$MENU
  1
.
  9
$ELEVATION
 40
0.0
  9
$PELEVATION
 40
0.0
  9
$THICKNESS
 40
0.0
  9
$LIMCHECK
 70
     0
  9
$CHAMFERA
 40
0.5
  9
$CHAMFERB
 40
0.5
  9
$CHAMFERC
 40
1.0
  9
$CHAMFERD
 40
0.0
  9
$SKPOLY
 70
     0
  9
$TDCREATE
 40
2457917.584537037
  9
$TDUCREATE
 40
2457917.209537037
  9
$TDUPDATE
 40
2457917.584537037
  9
$TDUUPDATE
 40
2457917.209537037
  9
$TDINDWG
 40
0.0000000116
  9
$TDUSRTIMER
 40
0.0000000116
  9
$USRTIMER
 70
     1
  9
$ANGBASE
 50
0.0
  9
$ANGDIR
 70
     0
  9
$PDMODE
 70
     0
  9
$PDSIZE
 40
0.0
  9
$PLINEWID
 40
0.0
  9
$SPLFRAME
 70
     0
  9
$SPLINETYPE
 70
     6
  9
$SPLINESEGS
 70
     8
  9
$HANDSEED
  5
3E2
  9
$SURFTAB1
 70
     6
  9
$SURFTAB2
 70
     6
  9
$SURFTYPE
 70
     6
  9
$SURFU
 70
     6
  9
$SURFV
 70
     6
  9
$UCSBASE
  2

  9
$UCSNAME
  2

  9
$UCSORG
 10
0.0
 20
0.0
 30
0.0
  9
$UCSXDIR
 10
1.0
 20
0.0
 30
0.0
  9
$UCSYDIR
 10
0.0
 20
1.0
 30
0.0
  9
$UCSORTHOREF
  2

  9
$UCSORTHOVIEW
 70
     0
  9
$UCSORGTOP
 10
0.0
 20
0.0
 30
0.0
  9
$UCSORGBOTTOM
 10
0.0
 20
0.0
 30
0.0
  9
$UCSORGLEFT
 10
0.0
 20
0.0
 30
0.0
  9
$UCSORGRIGHT
 10
0.0
 20
0.0
 30
0.0
  9
$UCSORGFRONT
 10
0.0
 20
0.0
 30
0.0
  9
$UCSORGBACK
 10
0.0
 20
0.0
 30
0.0
  9
$PUCSBASE
  2

  9
$PUCSNAME
  2

  9
$PUCSORG
 10
0.0
 20
0.0
 30
0.0
  9
$PUCSXDIR
 10
1.0
 20
0.0
 30
0.0
  9
$PUCSYDIR
 10
0.0
 20
1.0
 30
0.0
  9
$PUCSORTHOREF
  2

  9
$PUCSORTHOVIEW
 70
     0
  9
$PUCSORGTOP
 10
0.0
 20
0.0
 30
0.0
  9
$PUCSORGBOTTOM
 10
0.0
 20
0.0
 30
0.0
  9
$PUCSORGLEFT
 10
0.0
 20
0.0
 30
0.0
  9
$PUCSORGRIGHT
 10
0.0
 20
0.0
 30
0.0
  9
$PUCSORGFRONT
 10
0.0
 20
0.0
 30
0.0
  9
$PUCSORGBACK
 10
0.0
 20
0.0
 30
0.0
  9
$USERI1
 70
     0
  9
$USERI2
 70
     0
  9
$USERI3
 70
     0
  9
$USERI4
 70
     0
  9
$USERI5
 70
     0
  9
$USERR1
 40
0.0
  9
$USERR2
 40
0.0
  9
$USERR3
 40
0.0
  9
$USERR4
 40
0.0
  9
$USERR5
 40
0.0
  9
$WORLDVIEW
 70
     1
  9
$SHADEDGE
 70
     3
  9
$SHADEDIF
 70
    70
  9
$TILEMODE
 70
     1
  9
$MAXACTVP
 70
    64
  9
$PINSBASE
 10
0.0
 20
0.0
 30
0.0
  9
$PLIMCHECK
 70
     0
  9
$PEXTMIN
 10
1.000000000000000E+20
 20
1.000000000000000E+20
 30
1.000000000000000E+20
  9
$PEXTMAX
 10
-1.000000000000000E+20
 20
-1.000000000000000E+20
 30
-1.000000000000000E+20
  9
$PLIMMIN
 10
0.0
 20
0.0
  9
$PLIMMAX
 10
12.0
 20
9.0
  9
$UNITMODE
 70
     0
  9
$VISRETAIN
 70
     1
  9
$PLINEGEN
 70
     0
  9
$PSLTSCALE
 70
     1
  9
$TREEDEPTH
 70
  3020
  9
$CMLSTYLE
  2
Standard
  9
$CMLJUST
 70
     0
  9
$CMLSCALE
 40
1.0
  9
$PROXYGRAPHICS
 70
     1
  9
$MEASUREMENT
 70
     0
  9
$CELWEIGHT
370
    -1
  9
$ENDCAPS
280
     0
  9
$JOINSTYLE
280
     0
  9
$LWDISPLAY
290
     1
  9
$INSUNITS
 70
     1
  9
$HYPERLINKBASE
  1

  9
$STYLESHEET
  1

  9
$XEDIT
290
     1
  9
$CEPSNTYPE
380
     0
  9
$PSTYLEMODE
290
     1
  9
$FINGERPRINTGUID
  2
{BA46A36E-885C-C8D2-BCDE-2BFC19AADDD9}
  9
$VERSIONGUID
  2
{FAEB1C32-E019-11D5-929B-00C0DF256EC4}
  9
$EXTNAMES
290
     1
  9
$PSVPSCALE
 40
0.0
  9
$OLESTARTUP
290
     0
  9
$SORTENTS
280
   127
  9
$INDEXCTL
280
     0
  9
$HIDETEXT
280
     1
  9
$XCLIPFRAME
280
     2
  9
$HALOGAP
280
     0
  9
$OBSCOLOR
 70
   257
  9
$OBSLTYPE
280
     0
  9
$INTERSECTIONDISPLAY
280
     0
  9
$INTERSECTIONCOLOR
 70
   257
  9
$DIMASSOC
280
     2
  9
$PROJECTNAME
  1

  9
$CAMERADISPLAY
290
     0
  9
$LENSLENGTH
 40
50.0
  9
$CAMERAHEIGHT
 40
0.0
  9
$STEPSPERSEC
 40
2.0
  9
$STEPSIZE
 40
6.0
  9
$3DDWFPREC
 40
2.0
  9
$PSOLWIDTH
 40
0.25
  9
$PSOLHEIGHT
 40
4.0
  9
$LOFTANG1
 40
1.570796326794897
  9
$LOFTANG2
 40
1.570796326794897
  9
$LOFTMAG1
 40
0.0
  9
$LOFTMAG2
 40
0.0
  9
$LOFTPARAM
 70
     7
  9
$LOFTNORMALS
280
     1
  9
$LATITUDE
 40
37.795
  9
$LONGITUDE
 40
-122.394
  9
$NORTHDIRECTION
 40
0.0
  9
$TIMEZONE
 70
 -8000
  9
$LIGHTGLYPHDISPLAY
280
     1
  9
$TILEMODELIGHTSYNCH
280
     1
  9
$CMATERIAL
347
3C
  9
$SOLIDHIST
280
     1
  9
$SHOWHIST
280
     1
  9
$DWFFRAME
280
     2
  9
$DGNFRAME
280
     2
  9
$REALWORLDSCALE
290
     1
  9
$INTERFERECOLOR
 62
   256
  9
$CSHADOW
280
     0
  9
$SHADOWPLANELOCATION
 40
0.0
  0
ENDSEC
  0
SECTION
  2
CLASSES
  0
CLASS
  1
ACDBDICTIONARYWDFLT
  2
AcDbDictionaryWithDefault
  3
ObjectDBX Classes
 90
        0
 91
        4
280
     0
281
     0
  0
CLASS
  1
VISUALSTYLE
  2
AcDbVisualStyle
  3
ObjectDBX Classes
 90
     4095
 91
        4
280
     0
281
     0
  0
CLASS
  1
MATERIAL
  2
AcDbMaterial
  3
ObjectDBX Classes
 90
     1153
 91
        4
280
     0
281
     0
  0
CLASS
  1
SUN
  2
AcDbSun
  3
SCENEOE
 90
     1024
 91
        4
280
     0
281
     0
  0
ENDSEC
  0
SECTION
  2
TABLES
  0
TABLE
  2
VPORT
  5
8
330
0
100
AcDbSymbolTable
 70
     1
  0
VPORT
  5
29
330
8
100
AcDbSymbolTableRecord
100
AcDbViewportTableRecord
  2
*Active
 70
     0
 10
0.0
 20
0.0
 11
1.0
 21
1.0
 12
0.0
 22
0.0
 13
0.0
 23
0.0
 14
0.5
 24
0.5
 15
0.5
 25
0.5
 16
0.0
 26
0.0
 36
1.0
 17
91.00082462281999
 27
-128.4993055234307
 37
0.0
 40
256.9986110468615
 41
0.7081814508812795
 42
50.0
 43
0.0
 44
0.0
 50
0.0
 51
0.0
 71
     0
 72
   100
 73
     1
 74
     3
 75
     0
 76
     0
 77
     0
 78
     0
281
     0
 65
     1
110
0.0
120
0.0
130
0.0
111
1.0
121
0.0
131
0.0
112
0.0
122
1.0
132
0.0
 79
     0
146
0.0
 60
     3
 61
     5
292
     1
282
     1
141
0.0
142
0.0
 63
   250
361
3F
  0
ENDTAB
  0
TABLE
  2
LTYPE
  5
5
330
0
100
AcDbSymbolTable
 70
     3
  0
LTYPE
  5
14
330
5
100
AcDbSymbolTableRecord
100
AcDbLinetypeTableRecord
  2
ByBlock
 70
     0
  3

 72
    65
 73
     0
 40
0.0
  0
LTYPE
  5
15
330
5
100
AcDbSymbolTableRecord
100
AcDbLinetypeTableRecord
  2
ByLayer
 70
     0
  3

 72
    65
 73
     0
 40
0.0
  0
LTYPE
  5
16
330
5
100
AcDbSymbolTableRecord
100
AcDbLinetypeTableRecord
  2
Continuous
 70
     0
  3
Solid line
 72
    65
 73
     0
 40
0.0
  0
LTYPE
  5
35E
330
5
100
AcDbSymbolTableRecord
100
AcDbLinetypeTableRecord
  2
AI-Linetype-1
 70
     0
  3
Adobe Illustrator Linetype No. 1
 72
    65
 73
     2
 40
1.411111110758333
 49
0.7055555553791667
 74
     0
 49
-0.7055555553791667
 74
     0
  0
LTYPE
  5
3DE
330
5
100
AcDbSymbolTableRecord
100
AcDbLinetypeTableRecord
  2
AI-Linetype-2
 70
     0
  3
Adobe Illustrator Linetype No. 2
 72
    65
 73
     2
 40
1.411111110758333
 49
0.7055555553791667
 74
     0
 49
-0.7055555553791667
 74
     0
  0
ENDTAB
  0
TABLE
  2
LAYER
  5
2
330
0
100
AcDbSymbolTable
 70
     2
  0
LAYER
  5
10
330
2
100
AcDbSymbolTableRecord
100
AcDbLayerTableRecord
  2
0
 70
     0
 62
     7
  6
Continuous
370
    -3
390
F
347
3E
  0
LAYER
  5
40
330
2
100
AcDbSymbolTableRecord
100
AcDbLayerTableRecord
  2
_U+30EC_U+30A4_U+30E4_U+30FC 1
 70
     0
 62
     7
  6
Continuous
370
    -3
390
F
347
3E
  0
ENDTAB
  0
TABLE
  2
STYLE
  5
3
330
0
100
AcDbSymbolTable
 70
     1
  0
STYLE
  5
11
330
3
100
AcDbSymbolTableRecord
100
AcDbTextStyleTableRecord
  2
Standard
 70
     0
 40
0.0
 41
1.0
 50
0.0
 71
     0
 42
0.2
  3
txt
  4

  0
ENDTAB
  0
TABLE
  2
VIEW
  5
6
330
0
100
AcDbSymbolTable
 70
     0
  0
ENDTAB
  0
TABLE
  2
UCS
  5
7
330
0
100
AcDbSymbolTable
 70
     0
  0
ENDTAB
  0
TABLE
  2
APPID
  5
9
330
0
100
AcDbSymbolTable
 70
     1
  0
APPID
  5
12
330
9
100
AcDbSymbolTableRecord
100
AcDbRegAppTableRecord
  2
ACAD
 70
     0
  0
ENDTAB
  0
TABLE
  2
DIMSTYLE
  5
A
330
0
100
AcDbSymbolTable
 70
     1
100
AcDbDimStyleTable
  0
DIMSTYLE
105
27
330
A
100
AcDbSymbolTableRecord
100
AcDbDimStyleTableRecord
  2
Standard
 70
     0
178
     0
340
11
  0
ENDTAB
  0
TABLE
  2
BLOCK_RECORD
  5
1
330
0
100
AcDbSymbolTable
 70
    10
  0
BLOCK_RECORD
  5
1F
330
1
100
AcDbSymbolTableRecord
100
AcDbBlockTableRecord
  2
*Model_Space
340
22
 70
     0
280
     1
281
     0
  0
BLOCK_RECORD
  5
1B
330
1
100
AcDbSymbolTableRecord
100
AcDbBlockTableRecord
  2
*Paper_Space
340
1E
 70
     0
280
     1
281
     0
  0
BLOCK_RECORD
  5
23
330
1
100
AcDbSymbolTableRecord
100
AcDbBlockTableRecord
  2
*Paper_Space0
340
26
 70
     0
280
     1
281
     0
  0
BLOCK_RECORD
  5
321
330
1
100
AcDbSymbolTableRecord
100
AcDbBlockTableRecord
  2
block 2
340
0
102
{BLKREFS
331
322
102
}
 70
     0
280
     1
281
     0
  0
BLOCK_RECORD
  5
329
330
1
100
AcDbSymbolTableRecord
100
AcDbBlockTableRecord
  2
block 3
340
0
102
{BLKREFS
331
32A
102
}
 70
     0
280
     1
281
     0
  0
BLOCK_RECORD
  5
32E
330
1
100
AcDbSymbolTableRecord
100
AcDbBlockTableRecord
  2
block 4
340
0
102
{BLKREFS
331
32F
102
}
 70
     0
280
     1
281
     0
  0
BLOCK_RECORD
  5
333
330
1
100
AcDbSymbolTableRecord
100
AcDbBlockTableRecord
  2
block 5
340
0
102
{BLKREFS
331
334
102
}
 70
     0
280
     1
281
     0
  0
BLOCK_RECORD
  5
344
330
1
100
AcDbSymbolTableRecord
100
AcDbBlockTableRecord
  2
block 6
340
0
102
{BLKREFS
331
345
102
}
 70
     0
280
     1
281
     0
  0
BLOCK_RECORD
  5
34C
330
1
100
AcDbSymbolTableRecord
100
AcDbBlockTableRecord
  2
block 7
340
0
102
{BLKREFS
331
34D
102
}
 70
     0
280
     1
281
     0
  0
BLOCK_RECORD
  5
351
330
1
100
AcDbSymbolTableRecord
100
AcDbBlockTableRecord
  2
block 8
340
0
102
{BLKREFS
331
352
102
}
 70
     0
280
     1
281
     0
  0
BLOCK_RECORD
  5
356
330
1
100
AcDbSymbolTableRecord
100
AcDbBlockTableRecord
  2
block 9
340
0
102
{BLKREFS
331
357
102
}
 70
     0
280
     1
281
     0
  0
BLOCK_RECORD
  5
378
330
1
100
AcDbSymbolTableRecord
100
AcDbBlockTableRecord
  2
block 10
340
0
102
{BLKREFS
331
379
102
}
 70
     0
280
     1
281
     0
  0
ENDTAB
  0
ENDSEC
  0
SECTION
  2
BLOCKS
  0
BLOCK
  5
20
330
1F
100
AcDbEntity
  8
0
100
AcDbBlockBegin
  2
*Model_Space
 70
     0
 10
0.0
 20
0.0
 30
0.0
  3
*Model_Space
  1

  0
ENDBLK
  5
21
330
1F
100
AcDbEntity
  8
0
100
AcDbBlockEnd
  0
BLOCK
  5
1C
330
1B
100
AcDbEntity
 67
     1
  8
0
100
AcDbBlockBegin
  2
*Paper_Space
 70
     0
 10
0.0
 20
0.0
 30
0.0
  3
*Paper_Space
  1

  0
ENDBLK
  5
1D
330
1B
100
AcDbEntity
 67
     1
  8
0
100
AcDbBlockEnd
  0
BLOCK
  5
24
330
23
100
AcDbEntity
  8
0
100
AcDbBlockBegin
  2
*Paper_Space0
 70
     0
 10
0.0
 20
0.0
 30
0.0
  3
*Paper_Space0
  1

  0
ENDBLK
  5
25
330
23
100
AcDbEntity
  8
0
100
AcDbBlockEnd
  0
BLOCK
  5
323
330
321
100
AcDbEntity
  8
0
100
AcDbBlockBegin
  2
block 2
 70
     0
 10
0.0
 20
0.0
 30
0.0
  3
block 2
  1

  0
SPLINE
  5
325
330
321
100
AcDbEntity
  8
_U+30EC_U+30A4_U+30E4_U+30FC 1
370
     0
100
AcDbSpline
210
0.0
220
0.0
230
1.0
 70
    11
 71
     3
 72
    62
 73
    58
 74
     0
 42
0.0000000001
 43
0.0000000001
 12
1.0
 22
0.0
 32
0.0
 13
1.0
 23
0.0
 33
0.0
 40
0.0
 40
0.0
 40
0.0
 40
0.0
 40
1.0
 40
1.0
 40
1.0
 40
2.0
 40
2.0
 40
2.0
 40
3.0
 40
3.0
 40
3.0
 40
4.0
 40
4.0
 40
4.0
 40
5.0
 40
5.0
 40
5.0
 40
6.0
 40
6.0
 40
6.0
 40
7.0
 40
7.0
 40
7.0
 40
8.0
 40
8.0
 40
8.0
 40
9.0
 40
9.0
 40
9.0
 40
10.0
 40
10.0
 40
10.0
 40
11.0
 40
11.0
 40
11.0
 40
12.0
 40
12.0
 40
12.0
 40
13.0
 40
13.0
 40
13.0
 40
14.0
 40
14.0
 40
14.0
 40
15.0
 40
15.0
 40
15.0
 40
16.0
 40
16.0
 40
16.0
 40
17.0
 40
17.0
 40
17.0
 40
18.0
 40
18.0
 40
18.0
 40
19.0
 40
19.0
 40
19.0
 40
19.0
 10
75.97003985730957
 20
-146.5791666300219
 30
0.0
 10
75.8868408013408
 20
-146.5791666300219
 30
0.0
 10
75.69598251145796
 20
-146.5581515475619
 30
0.0
 10
75.58677298457553
 20
-146.3717718818098
 30
0.0
 10
75.52200518945284
 20
-146.2598062785392
 30
0.0
 10
75.51821558441907
 20
-146.1602430190155
 30
0.0
 10
75.51459823415955
 20
-146.0754936700783
 30
0.0
 10
75.51459823415955
 20
-146.0754936700783
 30
0.0
 10
75.70717907178502
 20
-146.0754936700783
 30
0.0
 10
75.70717907178502
 20
-146.0754936700783
 30
0.0
 10
75.70907387430191
 20
-146.1495632230112
 30
0.0
 10
75.71820337733782
 20
-146.3845187351053
 30
0.0
 10
75.96642250705007
 20
-146.3845187351053
 30
0.0
 10
76.08665633948529
 20
-146.3845187351053
 30
0.0
 10
76.21998153476446
 20
-146.3145832967547
 30
0.0
 10
76.21998153476446
 20
-146.0861734660826
 30
0.0
 10
76.21998153476446
 20
-145.9697292386812
 30
0.0
 10
76.18673636333179
 20
-145.9211533923392
 30
0.0
 10
76.15900334467553
 20
-145.8894585138749
 30
0.0
 10
76.09423554955283
 20
-145.815388960942
 30
0.0
 10
75.99226072318943
 20
-145.8026421076466
 30
0.0
 10
75.94420164117021
 20
-145.8026421076466
 30
0.0
 10
75.92749292806674
 20
-145.8026421076466
 30
0.0
 10
75.8959703043767
 20
-145.8047091649377
 30
0.0
 10
75.87202689075421
 20
-145.8091877890685
 30
0.0
 10
75.87202689075421
 20
-145.8091877890685
 30
0.0
 10
75.87202689075421
 20
-145.6145398941519
 30
0.0
 10
75.87202689075421
 20
-145.6145398941519
 30
0.0
 10
75.90527206218688
 20
-145.6207410660254
 30
0.0
 10
75.94230683865331
 20
-145.6228081233165
 30
0.0
 10
75.94781899142971
 20
-145.6228081233165
 30
0.0
 10
76.00535208603338
 20
-145.6228081233165
 30
0.0
 10
76.1793294080385
 20
-145.6017930408565
 30
0.0
 10
76.1793294080385
 20
-145.3647704714713
 30
0.0
 10
76.1793294080385
 20
-145.1870035444324
 30
0.0
 10
76.06460772837968
 20
-145.132226526217
 30
0.0
 10
75.96814505479269
 20
-145.132226526217
 30
0.0
 10
75.73680689295816
 20
-145.132226526217
 30
0.0
 10
75.72939993766488
 20
-145.3647704714713
 30
0.0
 10
75.7256103326311
 20
-145.436772967113
 30
0.0
 10
75.7256103326311
 20
-145.436772967113
 30
0.0
 10
75.5478434055922
 20
-145.436772967113
 30
0.0
 10
75.5478434055922
 20
-145.436772967113
 30
0.0
 10
75.5552503608855
 20
-145.312060510547
 30
0.0
 10
75.57936602928224
 20
-144.9355115740092
 30
0.0
 10
75.97934161511975
 20
-144.9355115740092
 30
0.0
 10
76.17553980300472
 20
-144.9355115740092
 30
0.0
 10
76.38672415625055
 20
-145.0622910878664
 30
0.0
 10
76.38672415625055
 20
-145.3585692995979
 30
0.0
 10
76.38672415625055
 20
-145.5446044558014
 30
0.0
 10
76.3033528455075
 20
-145.6272867474474
 30
0.0
 10
76.21636418450494
 20
-145.6886094470848
 30
0.0
 10
76.27010767407484
 20
-145.7161702109668
 30
0.0
 10
76.42927108549338
 20
-145.7964409357731
 30
0.0
 10
76.42927108549338
 20
-146.0734266127872
 30
0.0
 10
76.42927108549338
 20
-146.4120794989873
 30
0.0
 10
76.21274683424542
 20
-146.5791666300219
 30
0.0
 10
75.97003985730957
 20
-146.5791666300219
 30
0.0
  0
HATCH
  5
326
330
321
100
AcDbEntity
  8
_U+30EC_U+30A4_U+30E4_U+30FC 1
 62
   179
420
  2234388
100
AcDbHatch
 10
0.0
 20
0.0
 30
0.0
210
0.0
220
0.0
230
1.0
  2
SOLID
 70
     1
 71
     0
 91
        1
 92
        1
 93
        1
 72
     4
 94
        3
 73
     0
 74
     1
 95
       62
 96
       58
 40
0.0
 40
0.0
 40
0.0
 40
0.0
 40
1.0
 40
1.0
 40
1.0
 40
2.0
 40
2.0
 40
2.0
 40
3.0
 40
3.0
 40
3.0
 40
4.0
 40
4.0
 40
4.0
 40
5.0
 40
5.0
 40
5.0
 40
6.0
 40
6.0
 40
6.0
 40
7.0
 40
7.0
 40
7.0
 40
8.0
 40
8.0
 40
8.0
 40
9.0
 40
9.0
 40
9.0
 40
10.0
 40
10.0
 40
10.0
 40
11.0
 40
11.0
 40
11.0
 40
12.0
 40
12.0
 40
12.0
 40
13.0
 40
13.0
 40
13.0
 40
14.0
 40
14.0
 40
14.0
 40
15.0
 40
15.0
 40
15.0
 40
16.0
 40
16.0
 40
16.0
 40
17.0
 40
17.0
 40
17.0
 40
18.0
 40
18.0
 40
18.0
 40
19.0
 40
19.0
 40
19.0
 40
19.0
 10
75.97003985730957
 20
-146.5791666300219
 10
75.8868408013408
 20
-146.5791666300219
 10
75.69598251145796
 20
-146.5581515475619
 10
75.58677298457553
 20
-146.3717718818098
 10
75.52200518945284
 20
-146.2598062785392
 10
75.51821558441907
 20
-146.1602430190155
 10
75.51459823415955
 20
-146.0754936700783
 10
75.51459823415955
 20
-146.0754936700783
 10
75.70717907178502
 20
-146.0754936700783
 10
75.70717907178502
 20
-146.0754936700783
 10
75.70907387430191
 20
-146.1495632230112
 10
75.71820337733782
 20
-146.3845187351053
 10
75.96642250705007
 20
-146.3845187351053
 10
76.08665633948529
 20
-146.3845187351053
 10
76.21998153476446
 20
-146.3145832967547
 10
76.21998153476446
 20
-146.0861734660826
 10
76.21998153476446
 20
-145.9697292386812
 10
76.18673636333179
 20
-145.9211533923392
 10
76.15900334467553
 20
-145.8894585138749
 10
76.09423554955283
 20
-145.815388960942
 10
75.99226072318943
 20
-145.8026421076466
 10
75.94420164117021
 20
-145.8026421076466
 10
75.92749292806674
 20
-145.8026421076466
 10
75.8959703043767
 20
-145.8047091649377
 10
75.87202689075421
 20
-145.8091877890685
 10
75.87202689075421
 20
-145.8091877890685
 10
75.87202689075421
 20
-145.6145398941519
 10
75.87202689075421
 20
-145.6145398941519
 10
75.90527206218688
 20
-145.6207410660254
 10
75.94230683865331
 20
-145.6228081233165
 10
75.94781899142971
 20
-145.6228081233165
 10
76.00535208603338
 20
-145.6228081233165
 10
76.1793294080385
 20
-145.6017930408565
 10
76.1793294080385
 20
-145.3647704714713
 10
76.1793294080385
 20
-145.1870035444324
 10
76.06460772837968
 20
-145.132226526217
 10
75.96814505479269
 20
-145.132226526217
 10
75.73680689295816
 20
-145.132226526217
 10
75.72939993766488
 20
-145.3647704714713
 10
75.7256103326311
 20
-145.436772967113
 10
75.7256103326311
 20
-145.436772967113
 10
75.5478434055922
 20
-145.436772967113
 10
75.5478434055922
 20
-145.436772967113
 10
75.5552503608855
 20
-145.312060510547
 10
75.57936602928224
 20
-144.9355115740092
 10
75.97934161511975
 20
-144.9355115740092
 10
76.17553980300472
 20
-144.9355115740092
 10
76.38672415625055
 20
-145.0622910878664
 10
76.38672415625055
 20
-145.3585692995979
 10
76.38672415625055
 20
-145.5446044558014
 10
76.3033528455075
 20
-145.6272867474474
 10
76.21636418450494
 20
-145.6886094470848
 10
76.27010767407484
 20
-145.7161702109668
 10
76.42927108549338
 20
-145.7964409357731
 10
76.42927108549338
 20
-146.0734266127872
 10
76.42927108549338
 20
-146.4120794989873
 10
76.21274683424542
 20
-146.5791666300219
 10
75.97003985730957
 20
-146.5791666300219
 97
        0
 97
        0
 75
     2
 76
     1
 98
        0
  0
SPLINE
  5
327
330
321
100
AcDbEntity
  8
_U+30EC_U+30A4_U+30E4_U+30FC 1
370
     0
100
AcDbSpline
210
0.0
220
0.0
230
1.0
 70
    11
 71
     3
 72
    53
 73
    49
 74
     0
 42
0.0000000001
 43
0.0000000001
 12
1.0
 22
0.0
 32
0.0
 13
1.0
 23
0.0
 33
0.0
 40
0.0
 40
0.0
 40
0.0
 40
0.0
 40
1.0
 40
1.0
 40
1.0
 40
2.0
 40
2.0
 40
2.0
 40
3.0
 40
3.0
 40
3.0
 40
4.0
 40
4.0
 40
4.0
 40
5.0
 40
5.0
 40
5.0
 40
6.0
 40
6.0
 40
6.0
 40
7.0
 40
7.0
 40
7.0
 40
8.0
 40
8.0
 40
8.0
 40
9.0
 40
9.0
 40
9.0
 40
10.0
 40
10.0
 40
10.0
 40
11.0
 40
11.0
 40
11.0
 40
12.0
 40
12.0
 40
12.0
 40
13.0
 40
13.0
 40
13.0
 40
14.0
 40
14.0
 40
14.0
 40
15.0
 40
15.0
 40
15.0
 40
16.0
 40
16.0
 40
16.0
 40
16.0
 10
76.99168292346042
 20
-146.5791666300219
 30
0.0
 10
76.92312552330394
 20
-146.5791666300219
 30
0.0
 10
76.8342420597845
 20
-146.5622856621441
 30
0.0
 10
76.74535859626505
 20
-146.4988959052156
 30
0.0
 10
76.59342988536554
 20
-146.3886528496876
 30
0.0
 10
76.57499862451945
 20
-146.2577392212481
 30
0.0
 10
76.55828991141598
 20
-146.1495632230112
 30
0.0
 10
76.55828991141598
 20
-146.1495632230112
 30
0.0
 10
76.75276555155834
 20
-146.1495632230112
 30
0.0
 10
76.75276555155834
 20
-146.1495632230112
 30
0.0
 10
76.80082463357758
 20
-146.3486897420587
 30
0.0
 10
76.91210121775114
 20
-146.3783175632318
 30
0.0
 10
76.99340547120305
 20
-146.3783175632318
 30
0.0
 10
77.11570636092941
 20
-146.3783175632318
 30
0.0
 10
77.24903155620858
 20
-146.2787543037081
 30
0.0
 10
77.24903155620858
 20
-146.0462103584537
 30
0.0
 10
77.24903155620858
 20
-145.7902397638997
 30
0.0
 10
77.09159069253266
 20
-145.7203043255491
 30
0.0
 10
76.98617077068401
 20
-145.7203043255491
 30
0.0
 10
76.95826549725349
 20
-145.7203043255491
 30
0.0
 10
76.8342420597845
 20
-145.7203043255491
 30
0.0
 10
76.75638290181786
 20
-145.8491508966974
 30
0.0
 10
76.75638290181786
 20
-145.8491508966974
 30
0.0
 10
76.60273164317572
 20
-145.8302028715286
 30
0.0
 10
76.60273164317572
 20
-145.8302028715286
 30
0.0
 10
76.60273164317572
 20
-145.8302028715286
 30
0.0
 10
76.70832381979862
 20
-144.9840874203512
 30
0.0
 10
76.70832381979862
 20
-144.9840874203512
 30
0.0
 10
76.70832381979862
 20
-144.9840874203512
 30
0.0
 10
77.38976370678104
 20
-144.9840874203512
 30
0.0
 10
77.38976370678104
 20
-144.9840874203512
 30
0.0
 10
77.38976370678104
 20
-144.9840874203512
 30
0.0
 10
77.38976370678104
 20
-145.1787353152678
 30
0.0
 10
77.38976370678104
 20
-145.1787353152678
 30
0.0
 10
77.38976370678104
 20
-145.1787353152678
 30
0.0
 10
76.85095077288796
 20
-145.1787353152678
 30
0.0
 10
76.85095077288796
 20
-145.1787353152678
 30
0.0
 10
76.85095077288796
 20
-145.1787353152678
 30
0.0
 10
76.79358993305856
 20
-145.6017930408565
 30
0.0
 10
76.79358993305856
 20
-145.6017930408565
 30
0.0
 10
76.84716116785418
 20
-145.5680311051011
 30
0.0
 10
76.91933591827016
 20
-145.5277234879236
 30
0.0
 10
77.02303329237618
 20
-145.5277234879236
 30
0.0
 10
77.2452419511748
 20
-145.5277234879236
 30
0.0
 10
77.45263669938684
 20
-145.7137586441271
 30
0.0
 10
77.45263669938684
 20
-146.0269178237363
 30
0.0
 10
77.45263669938684
 20
-146.3442111179278
 30
0.0
 10
77.25643851150187
 20
-146.5791666300219
 30
0.0
 10
76.99168292346042
 20
-146.5791666300219
 30
0.0
  0
HATCH
  5
328
330
321
100
AcDbEntity
  8
_U+30EC_U+30A4_U+30E4_U+30FC 1
 62
   179
420
  2234388
100
AcDbHatch
 10
0.0
 20
0.0
 30
0.0
210
0.0
220
0.0
230
1.0
  2
SOLID
 70
     1
 71
     0
 91
        1
 92
        1
 93
        1
 72
     4
 94
        3
 73
     0
 74
     1
 95
       53
 96
       49
 40
0.0
 40
0.0
 40
0.0
 40
0.0
 40
1.0
 40
1.0
 40
1.0
 40
2.0
 40
2.0
 40
2.0
 40
3.0
 40
3.0
 40
3.0
 40
4.0
 40
4.0
 40
4.0
 40
5.0
 40
5.0
 40
5.0
 40
6.0
 40
6.0
 40
6.0
 40
7.0
 40
7.0
 40
7.0
 40
8.0
 40
8.0
 40
8.0
 40
9.0
 40
9.0
 40
9.0
 40
10.0
 40
10.0
 40
10.0
 40
11.0
 40
11.0
 40
11.0
 40
12.0
 40
12.0
 40
12.0
 40
13.0
 40
13.0
 40
13.0
 40
14.0
 40
14.0
 40
14.0
 40
15.0
 40
15.0
 40
15.0
 40
16.0
 40
16.0
 40
16.0
 40
16.0
 10
76.99168292346042
 20
-146.5791666300219
 10
76.92312552330394
 20
-146.5791666300219
 10
76.8342420597845
 20
-146.5622856621441
 10
76.74535859626505
 20
-146.4988959052156
 10
76.59342988536554
 20
-146.3886528496876
 10
76.57499862451945
 20
-146.2577392212481
 10
76.55828991141598
 20
-146.1495632230112
 10
76.55828991141598
 20
-146.1495632230112
 10
76.75276555155834
 20
-146.1495632230112
 10
76.75276555155834
 20
-146.1495632230112
 10
76.80082463357758
 20
-146.3486897420587
 10
76.91210121775114
 20
-146.3783175632318
 10
76.99340547120305
 20
-146.3783175632318
 10
77.11570636092941
 20
-146.3783175632318
 10
77.24903155620858
 20
-146.2787543037081
 10
77.24903155620858
 20
-146.0462103584537
 10
77.24903155620858
 20
-145.7902397638997
 10
77.09159069253266
 20
-145.7203043255491
 10
76.98617077068401
 20
-145.7203043255491
 10
76.95826549725349
 20
-145.7203043255491
 10
76.8342420597845
 20
-145.7203043255491
 10
76.75638290181786
 20
-145.8491508966974
 10
76.75638290181786
 20
-145.8491508966974
 10
76.60273164317572
 20
-145.8302028715286
 10
76.60273164317572
 20
-145.8302028715286
 10
76.60273164317572
 20
-145.8302028715286
 10
76.70832381979862
 20
-144.9840874203512
 10
76.70832381979862
 20
-144.9840874203512
 10
76.70832381979862
 20
-144.9840874203512
 10
77.38976370678104
 20
-144.9840874203512
 10
77.38976370678104
 20
-144.9840874203512
 10
77.38976370678104
 20
-144.9840874203512
 10
77.38976370678104
 20
-145.1787353152678
 10
77.38976370678104
 20
-145.1787353152678
 10
77.38976370678104
 20
-145.1787353152678
 10
76.85095077288796
 20
-145.1787353152678
 10
76.85095077288796
 20
-145.1787353152678
 10
76.85095077288796
 20
-145.1787353152678
 10
76.79358993305856
 20
-145.6017930408565
 10
76.79358993305856
 20
-145.6017930408565
 10
76.84716116785418
 20
-145.5680311051011
 10
76.91933591827016
 20
-145.5277234879236
 10
77.02303329237618
 20
-145.5277234879236
 10
77.2452419511748
 20
-145.5277234879236
 10
77.45263669938684
 20
-145.7137586441271
 10
77.45263669938684
 20
-146.0269178237363
 10
77.45263669938684
 20
-146.3442111179278
 10
77.25643851150187
 20
-146.5791666300219
 10
76.99168292346042
 20
-146.5791666300219
 97
        0
 97
        0
 75
     2
 76
     1
 98
        0
  0
ENDBLK
  5
324
330
321
100
AcDbEntity
  8
0
100
AcDbBlockEnd
  0
BLOCK
  5
32B
330
329
100
AcDbEntity
  8
0
100
AcDbBlockBegin
  2
block 3
 70
     0
 10
0.0
 20
0.0
 30
0.0
  3
block 3
  1

  0
SPLINE
  5
32D
330
329
100
AcDbEntity
  8
_U+30EC_U+30A4_U+30E4_U+30FC 1
 62
   179
420
  2234388
370
    25
100
AcDbSpline
210
0.0
220
0.0
230
1.0
 70
    11
 71
     3
 72
    17
 73
    13
 74
     0
 42
0.0000000001
 43
0.0000000001
 12
1.0
 22
0.0
 32
0.0
 13
1.0
 23
0.0
 33
0.0
 40
0.0
 40
0.0
 40
0.0
 40
0.0
 40
1.0
 40
1.0
 40
1.0
 40
2.0
 40
2.0
 40
2.0
 40
3.0
 40
3.0
 40
3.0
 40
4.0
 40
4.0
 40
4.0
 40
4.0
 10
59.02896349404568
 20
-142.4757260754925
 30
0.0
 10
59.02896349404568
 20
-142.4950230199317
 30
0.0
 10
59.01312377222756
 20
-142.5108627421502
 30
0.0
 10
58.99347405050665
 20
-142.5108627421502
 30
0.0
 10
58.97382432878573
 20
-142.5108627421502
 30
0.0
 10
58.95833887414938
 20
-142.4950230199317
 30
0.0
 10
58.95833887414938
 20
-142.4757260754925
 30
0.0
 10
58.95833887414938
 20
-142.4564291310526
 30
0.0
 10
58.97382432878573
 20
-142.4405894088341
 30
0.0
 10
58.99347405050665
 20
-142.4405894088341
 30
0.0
 10
59.01312377222756
 20
-142.4405894088341
 30
0.0
 10
59.02896349404568
 20
-142.4564291310526
 30
0.0
 10
59.02896349404568
 20
-142.4757260754925
 30
0.0
  0
ENDBLK
  5
32C
330
329
100
AcDbEntity
  8
0
100
AcDbBlockEnd
  0
BLOCK
  5
330
330
32E
100
AcDbEntity
  8
0
100
AcDbBlockBegin
  2
block 4
 70
     0
 10
0.0
 20
0.0
 30
0.0
  3
block 4
  1

  0
SPLINE
  5
332
330
32E
100
AcDbEntity
  8
_U+30EC_U+30A4_U+30E4_U+30FC 1
 62
   179
420
  2234388
370
    25
100
AcDbSpline
210
0.0
220
0.0
230
1.0
 70
    11
 71
     3
 72
    17
 73
    13
 74
     0
 42
0.0000000001
 43
0.0000000001
 12
1.0
 22
0.0
 32
0.0
 13
1.0
 23
0.0
 33
0.0
 40
0.0
 40
0.0
 40
0.0
 40
0.0
 40
1.0
 40
1.0
 40
1.0
 40
2.0
 40
2.0
 40
2.0
 40
3.0
 40
3.0
 40
3.0
 40
4.0
 40
4.0
 40
4.0
 40
4.0
 10
94.02906899000749
 20
-142.5011966310412
 30
0.0
 10
94.02906899000749
 20
-142.520493575481
 30
0.0
 10
94.01319399041249
 20
-142.5363332976996
 30
0.0
 10
93.99393232423724
 20
-142.5363332976996
 30
0.0
 10
93.9746353802851
 20
-142.5363332976996
 30
0.0
 10
93.9587603806901
 20
-142.520493575481
 30
0.0
 10
93.9587603806901
 20
-142.5011966310412
 30
0.0
 10
93.9587603806901
 20
-142.481899686602
 30
0.0
 10
93.9746353802851
 20
-142.4660599643835
 30
0.0
 10
93.99393232423724
 20
-142.4660599643835
 30
0.0
 10
94.01319399041249
 20
-142.4660599643835
 30
0.0
 10
94.02906899000749
 20
-142.481899686602
 30
0.0
 10
94.02906899000749
 20
-142.5011966310412
 30
0.0
  0
ENDBLK
  5
331
330
32E
100
AcDbEntity
  8
0
100
AcDbBlockEnd
  0
BLOCK
  5
335
330
333
100
AcDbEntity
  8
0
100
AcDbBlockBegin
  2
block 5
 70
     0
 10
0.0
 20
0.0
 30
0.0
  3
block 5
  1

  0
SPLINE
  5
337
330
333
100
AcDbEntity
  8
_U+30EC_U+30A4_U+30E4_U+30FC 1
 62
   179
420
  2234388
370
     9
100
AcDbSpline
210
0.0
220
0.0
230
1.0
 70
    11
 71
     3
 72
    17
 73
    13
 74
     0
 42
0.0000000001
 43
0.0000000001
 12
1.0
 22
0.0
 32
0.0
 13
1.0
 23
0.0
 33
0.0
 40
0.0
 40
0.0
 40
0.0
 40
0.0
 40
1.0
 40
1.0
 40
1.0
 40
2.0
 40
2.0
 40
2.0
 40
3.0
 40
3.0
 40
3.0
 40
4.0
 40
4.0
 40
4.0
 40
4.0
 10
94.02906899000749
 20
-146.9012880188301
 30
0.0
 10
94.02906899000749
 20
-146.92058496327
 30
0.0
 10
94.01319399041249
 20
-146.9364246854879
 30
0.0
 10
93.99393232423724
 20
-146.9364246854879
 30
0.0
 10
93.9746353802851
 20
-146.9364246854879
 30
0.0
 10
93.9587603806901
 20
-146.92058496327
 30
0.0
 10
93.9587603806901
 20
-146.9012880188301
 30
0.0
 10
93.9587603806901
 20
-146.8819910743903
 30
0.0
 10
93.9746353802851
 20
-146.8661513521724
 30
0.0
 10
93.99393232423724
 20
-146.8661513521724
 30
0.0
 10
94.01319399041249
 20
-146.8661513521724
 30
0.0
 10
94.02906899000749
 20
-146.8819910743903
 30
0.0
 10
94.02906899000749
 20
-146.9012880188301
 30
0.0
  0
ENDBLK
  5
336
330
333
100
AcDbEntity
  8
0
100
AcDbBlockEnd
  0
BLOCK
  5
346
330
344
100
AcDbEntity
  8
0
100
AcDbBlockBegin
  2
block 6
 70
     0
 10
0.0
 20
0.0
 30
0.0
  3
block 6
  1

  0
SPLINE
  5
348
330
344
100
AcDbEntity
  8
_U+30EC_U+30A4_U+30E4_U+30FC 1
370
     0
100
AcDbSpline
210
0.0
220
0.0
230
1.0
 70
    11
 71
     3
 72
    62
 73
    58
 74
     0
 42
0.0000000001
 43
0.0000000001
 12
1.0
 22
0.0
 32
0.0
 13
1.0
 23
0.0
 33
0.0
 40
0.0
 40
0.0
 40
0.0
 40
0.0
 40
1.0
 40
1.0
 40
1.0
 40
2.0
 40
2.0
 40
2.0
 40
3.0
 40
3.0
 40
3.0
 40
4.0
 40
4.0
 40
4.0
 40
5.0
 40
5.0
 40
5.0
 40
6.0
 40
6.0
 40
6.0
 40
7.0
 40
7.0
 40
7.0
 40
8.0
 40
8.0
 40
8.0
 40
9.0
 40
9.0
 40
9.0
 40
10.0
 40
10.0
 40
10.0
 40
11.0
 40
11.0
 40
11.0
 40
12.0
 40
12.0
 40
12.0
 40
13.0
 40
13.0
 40
13.0
 40
14.0
 40
14.0
 40
14.0
 40
15.0
 40
15.0
 40
15.0
 40
16.0
 40
16.0
 40
16.0
 40
17.0
 40
17.0
 40
17.0
 40
18.0
 40
18.0
 40
18.0
 40
19.0
 40
19.0
 40
19.0
 40
19.0
 10
54.84626463472593
 20
-126.0979017154373
 30
0.0
 10
54.84626463472593
 20
-126.1811007714061
 30
0.0
 10
54.82507729749165
 20
-126.371959061289
 30
0.0
 10
54.63886988651389
 20
-126.4811685881714
 30
0.0
 10
54.52673202846901
 20
-126.5459363832941
 30
0.0
 10
54.42734102371956
 20
-126.5497259883279
 30
0.0
 10
54.34276392955667
 20
-126.5533433385874
 30
0.0
 10
54.34276392955667
 20
-126.5533433385874
 30
0.0
 10
54.34276392955667
 20
-126.3607625009619
 30
0.0
 10
54.34276392955667
 20
-126.3607625009619
 30
0.0
 10
54.41683348248954
 20
-126.358867698445
 30
0.0
 10
54.65161673980932
 20
-126.3497381954091
 30
0.0
 10
54.65161673980932
 20
-126.1015190656968
 30
0.0
 10
54.65161673980932
 20
-125.9812852332616
 30
0.0
 10
54.58185355623301
 20
-125.8479600379825
 30
0.0
 10
54.35327147078669
 20
-125.8479600379825
 30
0.0
 10
54.23699949815951
 20
-125.8479600379825
 30
0.0
 10
54.18825139704322
 20
-125.8812052094151
 30
0.0
 10
54.15655651857892
 20
-125.9089382280714
 30
0.0
 10
54.08248696564605
 20
-125.9737060231941
 30
0.0
 10
54.06991236712489
 20
-126.0756808495575
 30
0.0
 10
54.06991236712489
 20
-126.1237399315767
 30
0.0
 10
54.06991236712489
 20
-126.1404486446802
 30
0.0
 10
54.07197942441604
 20
-126.1719712683702
 30
0.0
 10
54.0762857937726
 20
-126.1959146819927
 30
0.0
 10
54.0762857937726
 20
-126.1959146819927
 30
0.0
 10
53.88163789885598
 20
-126.1959146819927
 30
0.0
 10
53.88163789885598
 20
-126.1959146819927
 30
0.0
 10
53.8880113255037
 20
-126.16266951056
 30
0.0
 10
53.89007838279485
 20
-126.1256347340936
 30
0.0
 10
53.89007838279485
 20
-126.1201225813172
 30
0.0
 10
53.89007838279485
 20
-126.0625894867135
 30
0.0
 10
53.86889104556056
 20
-125.8886121647084
 30
0.0
 10
53.63186847617537
 20
-125.8886121647084
 30
0.0
 10
53.45427380391074
 20
-125.8886121647084
 30
0.0
 10
53.39932453092101
 20
-126.0033338443672
 30
0.0
 10
53.39932453092101
 20
-126.0997965179542
 30
0.0
 10
53.39932453092101
 20
-126.3311346797887
 30
0.0
 10
53.63186847617537
 20
-126.338541635082
 30
0.0
 10
53.70387097181709
 20
-126.3423312401158
 30
0.0
 10
53.70387097181709
 20
-126.3423312401158
 30
0.0
 10
53.70387097181709
 20
-126.5200981671547
 30
0.0
 10
53.70387097181709
 20
-126.5200981671547
 30
0.0
 10
53.57898626047678
 20
-126.5126912118614
 30
0.0
 10
53.20243732393897
 20
-126.4885755434647
 30
0.0
 10
53.20243732393897
 20
-126.0885999576272
 30
0.0
 10
53.20243732393897
 20
-125.8924017697422
 30
0.0
 10
53.32938909257043
 20
-125.6812174164964
 30
0.0
 10
53.62566730430192
 20
-125.6812174164964
 30
0.0
 10
53.81170246050541
 20
-125.6812174164964
 30
0.0
 10
53.89421249737715
 20
-125.7645887272394
 30
0.0
 10
53.95570745178885
 20
-125.851577388242
 30
0.0
 10
53.98309596089659
 20
-125.7978338986721
 30
0.0
 10
54.06353894047717
 20
-125.6386704872535
 30
0.0
 10
54.34069687226553
 20
-125.6386704872535
 30
0.0
 10
54.67917750369132
 20
-125.6386704872535
 30
0.0
 10
54.84626463472593
 20
-125.8551947385015
 30
0.0
 10
54.84626463472593
 20
-126.0979017154373
 30
0.0
  0
HATCH
  5
349
330
344
100
AcDbEntity
  8
_U+30EC_U+30A4_U+30E4_U+30FC 1
 62
   179
420
  2234388
100
AcDbHatch
 10
0.0
 20
0.0
 30
0.0
210
0.0
220
0.0
230
1.0
  2
SOLID
 70
     1
 71
     0
 91
        1
 92
        1
 93
        1
 72
     4
 94
        3
 73
     0
 74
     1
 95
       62
 96
       58
 40
0.0
 40
0.0
 40
0.0
 40
0.0
 40
1.0
 40
1.0
 40
1.0
 40
2.0
 40
2.0
 40
2.0
 40
3.0
 40
3.0
 40
3.0
 40
4.0
 40
4.0
 40
4.0
 40
5.0
 40
5.0
 40
5.0
 40
6.0
 40
6.0
 40
6.0
 40
7.0
 40
7.0
 40
7.0
 40
8.0
 40
8.0
 40
8.0
 40
9.0
 40
9.0
 40
9.0
 40
10.0
 40
10.0
 40
10.0
 40
11.0
 40
11.0
 40
11.0
 40
12.0
 40
12.0
 40
12.0
 40
13.0
 40
13.0
 40
13.0
 40
14.0
 40
14.0
 40
14.0
 40
15.0
 40
15.0
 40
15.0
 40
16.0
 40
16.0
 40
16.0
 40
17.0
 40
17.0
 40
17.0
 40
18.0
 40
18.0
 40
18.0
 40
19.0
 40
19.0
 40
19.0
 40
19.0
 10
54.84626463472593
 20
-126.0979017154373
 10
54.84626463472593
 20
-126.1811007714061
 10
54.82507729749165
 20
-126.371959061289
 10
54.63886988651389
 20
-126.4811685881714
 10
54.52673202846901
 20
-126.5459363832941
 10
54.42734102371956
 20
-126.5497259883279
 10
54.34276392955667
 20
-126.5533433385874
 10
54.34276392955667
 20
-126.5533433385874
 10
54.34276392955667
 20
-126.3607625009619
 10
54.34276392955667
 20
-126.3607625009619
 10
54.41683348248954
 20
-126.358867698445
 10
54.65161673980932
 20
-126.3497381954091
 10
54.65161673980932
 20
-126.1015190656968
 10
54.65161673980932
 20
-125.9812852332616
 10
54.58185355623301
 20
-125.8479600379825
 10
54.35327147078669
 20
-125.8479600379825
 10
54.23699949815951
 20
-125.8479600379825
 10
54.18825139704322
 20
-125.8812052094151
 10
54.15655651857892
 20
-125.9089382280714
 10
54.08248696564605
 20
-125.9737060231941
 10
54.06991236712489
 20
-126.0756808495575
 10
54.06991236712489
 20
-126.1237399315767
 10
54.06991236712489
 20
-126.1404486446802
 10
54.07197942441604
 20
-126.1719712683702
 10
54.0762857937726
 20
-126.1959146819927
 10
54.0762857937726
 20
-126.1959146819927
 10
53.88163789885598
 20
-126.1959146819927
 10
53.88163789885598
 20
-126.1959146819927
 10
53.8880113255037
 20
-126.16266951056
 10
53.89007838279485
 20
-126.1256347340936
 10
53.89007838279485
 20
-126.1201225813172
 10
53.89007838279485
 20
-126.0625894867135
 10
53.86889104556056
 20
-125.8886121647084
 10
53.63186847617537
 20
-125.8886121647084
 10
53.45427380391074
 20
-125.8886121647084
 10
53.39932453092101
 20
-126.0033338443672
 10
53.39932453092101
 20
-126.0997965179542
 10
53.39932453092101
 20
-126.3311346797887
 10
53.63186847617537
 20
-126.338541635082
 10
53.70387097181709
 20
-126.3423312401158
 10
53.70387097181709
 20
-126.3423312401158
 10
53.70387097181709
 20
-126.5200981671547
 10
53.70387097181709
 20
-126.5200981671547
 10
53.57898626047678
 20
-126.5126912118614
 10
53.20243732393897
 20
-126.4885755434647
 10
53.20243732393897
 20
-126.0885999576272
 10
53.20243732393897
 20
-125.8924017697422
 10
53.32938909257043
 20
-125.6812174164964
 10
53.62566730430192
 20
-125.6812174164964
 10
53.81170246050541
 20
-125.6812174164964
 10
53.89421249737715
 20
-125.7645887272394
 10
53.95570745178885
 20
-125.851577388242
 10
53.98309596089659
 20
-125.7978338986721
 10
54.06353894047717
 20
-125.6386704872535
 10
54.34069687226553
 20
-125.6386704872535
 10
54.67917750369132
 20
-125.6386704872535
 10
54.84626463472593
 20
-125.8551947385015
 10
54.84626463472593
 20
-126.0979017154373
 97
        0
 97
        0
 75
     2
 76
     1
 98
        0
  0
SPLINE
  5
34A
330
344
100
AcDbEntity
  8
_U+30EC_U+30A4_U+30E4_U+30FC 1
370
     0
100
AcDbSpline
210
0.0
220
0.0
230
1.0
 70
    11
 71
     3
 72
    53
 73
    49
 74
     0
 42
0.0000000001
 43
0.0000000001
 12
1.0
 22
0.0
 32
0.0
 13
1.0
 23
0.0
 33
0.0
 40
0.0
 40
0.0
 40
0.0
 40
0.0
 40
1.0
 40
1.0
 40
1.0
 40
2.0
 40
2.0
 40
2.0
 40
3.0
 40
3.0
 40
3.0
 40
4.0
 40
4.0
 40
4.0
 40
5.0
 40
5.0
 40
5.0
 40
6.0
 40
6.0
 40
6.0
 40
7.0
 40
7.0
 40
7.0
 40
8.0
 40
8.0
 40
8.0
 40
9.0
 40
9.0
 40
9.0
 40
10.0
 40
10.0
 40
10.0
 40
11.0
 40
11.0
 40
11.0
 40
12.0
 40
12.0
 40
12.0
 40
13.0
 40
13.0
 40
13.0
 40
14.0
 40
14.0
 40
14.0
 40
15.0
 40
15.0
 40
15.0
 40
16.0
 40
16.0
 40
16.0
 40
16.0
 10
54.84626463472593
 20
-125.0762586492865
 30
0.0
 10
54.84626463472593
 20
-125.144816049443
 30
0.0
 10
54.82938366684821
 20
-125.2336995129624
 30
0.0
 10
54.76582165514535
 20
-125.3225829764819
 30
0.0
 10
54.65592310916588
 20
-125.4745116873814
 30
0.0
 10
54.52466497117786
 20
-125.4929429482275
 30
0.0
 10
54.41683348248954
 20
-125.5096516613309
 30
0.0
 10
54.41683348248954
 20
-125.5096516613309
 30
0.0
 10
54.41683348248954
 20
-125.3151760211886
 30
0.0
 10
54.41683348248954
 20
-125.3151760211886
 30
0.0
 10
54.61561549198846
 20
-125.2671169391693
 30
0.0
 10
54.64524331316161
 20
-125.1558403549958
 30
0.0
 10
54.64524331316161
 20
-125.0745361015439
 30
0.0
 10
54.64524331316161
 20
-124.9522352118175
 30
0.0
 10
54.54585230841215
 20
-124.8189100165383
 30
0.0
 10
54.31313610838352
 20
-124.8189100165383
 30
0.0
 10
54.05716551382946
 20
-124.8189100165383
 30
0.0
 10
53.98740233025315
 20
-124.9763508802143
 30
0.0
 10
53.98740233025315
 20
-125.0817708020629
 30
0.0
 10
53.98740233025315
 20
-125.1096760754934
 30
0.0
 10
53.98740233025315
 20
-125.2336995129624
 30
0.0
 10
54.11642115617576
 20
-125.3115586709291
 30
0.0
 10
54.11642115617576
 20
-125.3115586709291
 30
0.0
 10
54.09730087623262
 20
-125.4652099295712
 30
0.0
 10
54.09730087623262
 20
-125.4652099295712
 30
0.0
 10
54.09730087623262
 20
-125.4652099295712
 30
0.0
 10
53.25118542505526
 20
-125.3596177529483
 30
0.0
 10
53.25118542505526
 20
-125.3596177529483
 30
0.0
 10
53.25118542505526
 20
-125.3596177529483
 30
0.0
 10
53.25118542505526
 20
-124.6781778659659
 30
0.0
 10
53.25118542505526
 20
-124.6781778659659
 30
0.0
 10
53.25118542505526
 20
-124.6781778659659
 30
0.0
 10
53.44583331997188
 20
-124.6781778659659
 30
0.0
 10
53.44583331997188
 20
-124.6781778659659
 30
0.0
 10
53.44583331997188
 20
-124.6781778659659
 30
0.0
 10
53.44583331997188
 20
-125.2169907998589
 30
0.0
 10
53.44583331997188
 20
-125.2169907998589
 30
0.0
 10
53.44583331997188
 20
-125.2169907998589
 30
0.0
 10
53.86889104556056
 20
-125.2743516396884
 30
0.0
 10
53.86889104556056
 20
-125.2743516396884
 30
0.0
 10
53.83512910980511
 20
-125.2207804048927
 30
0.0
 10
53.79482149262768
 20
-125.1486056544767
 30
0.0
 10
53.79482149262768
 20
-125.0449082803707
 30
0.0
 10
53.79482149262768
 20
-124.8226996215721
 30
0.0
 10
53.98102890360544
 20
-124.6153048733601
 30
0.0
 10
54.29418808321465
 20
-124.6153048733601
 30
0.0
 10
54.61148137740616
 20
-124.6153048733601
 30
0.0
 10
54.84626463472593
 20
-124.811503061245
 30
0.0
 10
54.84626463472593
 20
-125.0762586492865
 30
0.0
  0
HATCH
  5
34B
330
344
100
AcDbEntity
  8
_U+30EC_U+30A4_U+30E4_U+30FC 1
 62
   179
420
  2234388
100
AcDbHatch
 10
0.0
 20
0.0
 30
0.0
210
0.0
220
0.0
230
1.0
  2
SOLID
 70
     1
 71
     0
 91
        1
 92
        1
 93
        1
 72
     4
 94
        3
 73
     0
 74
     1
 95
       53
 96
       49
 40
0.0
 40
0.0
 40
0.0
 40
0.0
 40
1.0
 40
1.0
 40
1.0
 40
2.0
 40
2.0
 40
2.0
 40
3.0
 40
3.0
 40
3.0
 40
4.0
 40
4.0
 40
4.0
 40
5.0
 40
5.0
 40
5.0
 40
6.0
 40
6.0
 40
6.0
 40
7.0
 40
7.0
 40
7.0
 40
8.0
 40
8.0
 40
8.0
 40
9.0
 40
9.0
 40
9.0
 40
10.0
 40
10.0
 40
10.0
 40
11.0
 40
11.0
 40
11.0
 40
12.0
 40
12.0
 40
12.0
 40
13.0
 40
13.0
 40
13.0
 40
14.0
 40
14.0
 40
14.0
 40
15.0
 40
15.0
 40
15.0
 40
16.0
 40
16.0
 40
16.0
 40
16.0
 10
54.84626463472593
 20
-125.0762586492865
 10
54.84626463472593
 20
-125.144816049443
 10
54.82938366684821
 20
-125.2336995129624
 10
54.76582165514535
 20
-125.3225829764819
 10
54.65592310916588
 20
-125.4745116873814
 10
54.52466497117786
 20
-125.4929429482275
 10
54.41683348248954
 20
-125.5096516613309
 10
54.41683348248954
 20
-125.5096516613309
 10
54.41683348248954
 20
-125.3151760211886
 10
54.41683348248954
 20
-125.3151760211886
 10
54.61561549198846
 20
-125.2671169391693
 10
54.64524331316161
 20
-125.1558403549958
 10
54.64524331316161
 20
-125.0745361015439
 10
54.64524331316161
 20
-124.9522352118175
 10
54.54585230841215
 20
-124.8189100165383
 10
54.31313610838352
 20
-124.8189100165383
 10
54.05716551382946
 20
-124.8189100165383
 10
53.98740233025315
 20
-124.9763508802143
 10
53.98740233025315
 20
-125.0817708020629
 10
53.98740233025315
 20
-125.1096760754934
 10
53.98740233025315
 20
-125.2336995129624
 10
54.11642115617576
 20
-125.3115586709291
 10
54.11642115617576
 20
-125.3115586709291
 10
54.09730087623262
 20
-125.4652099295712
 10
54.09730087623262
 20
-125.4652099295712
 10
54.09730087623262
 20
-125.4652099295712
 10
53.25118542505526
 20
-125.3596177529483
 10
53.25118542505526
 20
-125.3596177529483
 10
53.25118542505526
 20
-125.3596177529483
 10
53.25118542505526
 20
-124.6781778659659
 10
53.25118542505526
 20
-124.6781778659659
 10
53.25118542505526
 20
-124.6781778659659
 10
53.44583331997188
 20
-124.6781778659659
 10
53.44583331997188
 20
-124.6781778659659
 10
53.44583331997188
 20
-124.6781778659659
 10
53.44583331997188
 20
-125.2169907998589
 10
53.44583331997188
 20
-125.2169907998589
 10
53.44583331997188
 20
-125.2169907998589
 10
53.86889104556056
 20
-125.2743516396884
 10
53.86889104556056
 20
-125.2743516396884
 10
53.83512910980511
 20
-125.2207804048927
 10
53.79482149262768
 20
-125.1486056544767
 10
53.79482149262768
 20
-125.0449082803707
 10
53.79482149262768
 20
-124.8226996215721
 10
53.98102890360544
 20
-124.6153048733601
 10
54.29418808321465
 20
-124.6153048733601
 10
54.61148137740616
 20
-124.6153048733601
 10
54.84626463472593
 20
-124.811503061245
 10
54.84626463472593
 20
-125.0762586492865
 97
        0
 97
        0
 75
     2
 76
     1
 98
        0
  0
ENDBLK
  5
347
330
344
100
AcDbEntity
  8
0
100
AcDbBlockEnd
  0
BLOCK
  5
34E
330
34C
100
AcDbEntity
  8
0
100
AcDbBlockBegin
  2
block 7
 70
     0
 10
0.0
 20
0.0
 30
0.0
  3
block 7
  1

  0
SPLINE
  5
350
330
34C
100
AcDbEntity
  8
_U+30EC_U+30A4_U+30E4_U+30FC 1
 62
   179
420
  2234388
370
    25
100
AcDbSpline
210
0.0
220
0.0
230
1.0
 70
    11
 71
     3
 72
    17
 73
    13
 74
     0
 42
0.0000000001
 43
0.0000000001
 12
1.0
 22
0.0
 32
0.0
 13
1.0
 23
0.0
 33
0.0
 40
0.0
 40
0.0
 40
0.0
 40
0.0
 40
1.0
 40
1.0
 40
1.0
 40
2.0
 40
2.0
 40
2.0
 40
3.0
 40
3.0
 40
3.0
 40
4.0
 40
4.0
 40
4.0
 40
4.0
 10
59.60325042383884
 20
-108.075729972981
 30
0.0
 10
59.60325042383884
 20
-108.0950269174208
 30
0.0
 10
59.5877634797895
 20
-108.1109019174168
 30
0.0
 10
59.56811375806858
 20
-108.1109019174168
 30
0.0
 10
59.54846403634767
 20
-108.1109019174168
 30
0.0
 10
59.53262431452956
 20
-108.0950269174208
 30
0.0
 10
59.53262431452956
 20
-108.075729972981
 30
0.0
 10
59.53262431452956
 20
-108.0564683063193
 30
0.0
 10
59.54846403634767
 20
-108.0405933063232
 30
0.0
 10
59.56811375806858
 20
-108.0405933063232
 30
0.0
 10
59.5877634797895
 20
-108.0405933063232
 30
0.0
 10
59.60325042383884
 20
-108.0564683063193
 30
0.0
 10
59.60325042383884
 20
-108.075729972981
 30
0.0
  0
ENDBLK
  5
34F
330
34C
100
AcDbEntity
  8
0
100
AcDbBlockEnd
  0
BLOCK
  5
353
330
351
100
AcDbEntity
  8
0
100
AcDbBlockBegin
  2
block 8
 70
     0
 10
0.0
 20
0.0
 30
0.0
  3
block 8
  1

  0
SPLINE
  5
355
330
351
100
AcDbEntity
  8
_U+30EC_U+30A4_U+30E4_U+30FC 1
 62
   179
420
  2234388
370
    25
100
AcDbSpline
210
0.0
220
0.0
230
1.0
 70
    11
 71
     3
 72
    17
 73
    13
 74
     0
 42
0.0000000001
 43
0.0000000001
 12
1.0
 22
0.0
 32
0.0
 13
1.0
 23
0.0
 33
0.0
 40
0.0
 40
0.0
 40
0.0
 40
0.0
 40
1.0
 40
1.0
 40
1.0
 40
2.0
 40
2.0
 40
2.0
 40
3.0
 40
3.0
 40
3.0
 40
4.0
 40
4.0
 40
4.0
 40
4.0
 10
59.57947320222323
 20
-143.0737902420094
 30
0.0
 10
59.57947320222323
 20
-143.0930871864492
 30
0.0
 10
59.56363348040511
 20
-143.1089269086671
 30
0.0
 10
59.54433653645297
 20
-143.1089269086671
 30
0.0
 10
59.52503959250083
 20
-143.1089269086671
 30
0.0
 10
59.50919987068271
 20
-143.0930871864492
 30
0.0
 10
59.50919987068271
 20
-143.0737902420094
 30
0.0
 10
59.50919987068271
 20
-143.0544932975696
 30
0.0
 10
59.52503959250083
 20
-143.0386535753517
 30
0.0
 10
59.54433653645297
 20
-143.0386535753517
 30
0.0
 10
59.56363348040511
 20
-143.0386535753517
 30
0.0
 10
59.57947320222323
 20
-143.0544932975696
 30
0.0
 10
59.57947320222323
 20
-143.0737902420094
 30
0.0
  0
ENDBLK
  5
354
330
351
100
AcDbEntity
  8
0
100
AcDbBlockEnd
  0
BLOCK
  5
358
330
356
100
AcDbEntity
  8
0
100
AcDbBlockBegin
  2
block 9
 70
     0
 10
0.0
 20
0.0
 30
0.0
  3
block 9
  1

  0
SPLINE
  5
35A
330
356
100
AcDbEntity
  8
_U+30EC_U+30A4_U+30E4_U+30FC 1
 62
   179
420
  2234388
370
     9
100
AcDbSpline
210
0.0
220
0.0
230
1.0
 70
    11
 71
     3
 72
    17
 73
    13
 74
     0
 42
0.0000000001
 43
0.0000000001
 12
1.0
 22
0.0
 32
0.0
 13
1.0
 23
0.0
 33
0.0
 40
0.0
 40
0.0
 40
0.0
 40
0.0
 40
1.0
 40
1.0
 40
1.0
 40
2.0
 40
2.0
 40
2.0
 40
3.0
 40
3.0
 40
3.0
 40
4.0
 40
4.0
 40
4.0
 40
4.0
 10
55.20351192497441
 20
-143.0737902420094
 30
0.0
 10
55.20351192497441
 20
-143.0930871864492
 30
0.0
 10
55.1876722031563
 20
-143.1089269086671
 30
0.0
 10
55.16802248143538
 20
-143.1089269086671
 30
0.0
 10
55.14840803749134
 20
-143.1089269086671
 30
0.0
 10
55.13256831567323
 20
-143.0930871864492
 30
0.0
 10
55.13256831567323
 20
-143.0737902420094
 30
0.0
 10
55.13256831567323
 20
-143.0544932975696
 30
0.0
 10
55.14840803749134
 20
-143.0386535753517
 30
0.0
 10
55.16802248143538
 20
-143.0386535753517
 30
0.0
 10
55.1876722031563
 20
-143.0386535753517
 30
0.0
 10
55.20351192497441
 20
-143.0544932975696
 30
0.0
 10
55.20351192497441
 20
-143.0737902420094
 30
0.0
  0
ENDBLK
  5
359
330
356
100
AcDbEntity
  8
0
100
AcDbBlockEnd
  0
BLOCK
  5
37A
330
378
100
AcDbEntity
  8
0
100
AcDbBlockBegin
  2
block 10
 70
     0
 10
0.0
 20
0.0
 30
0.0
  3
block 10
  1

  0
SPLINE
  5
37C
330
378
100
AcDbEntity
  8
_U+30EC_U+30A4_U+30E4_U+30FC 1
370
     0
100
AcDbSpline
210
0.0
220
0.0
230
1.0
 70
    11
 71
     3
 72
   242
 73
   238
 74
     0
 42
0.0000000001
 43
0.0000000001
 12
1.0
 22
0.0
 32
0.0
 13
1.0
 23
0.0
 33
0.0
 40
0.0
 40
0.0
 40
0.0
 40
0.0
 40
1.0
 40
1.0
 40
1.0
 40
2.0
 40
2.0
 40
2.0
 40
3.0
 40
3.0
 40
3.0
 40
4.0
 40
4.0
 40
4.0
 40
5.0
 40
5.0
 40
5.0
 40
6.0
 40
6.0
 40
6.0
 40
7.0
 40
7.0
 40
7.0
 40
8.0
 40
8.0
 40
8.0
 40
9.0
 40
9.0
 40
9.0
 40
10.0
 40
10.0
 40
10.0
 40
11.0
 40
11.0
 40
11.0
 40
12.0
 40
12.0
 40
12.0
 40
13.0
 40
13.0
 40
13.0
 40
14.0
 40
14.0
 40
14.0
 40
15.0
 40
15.0
 40
15.0
 40
16.0
 40
16.0
 40
16.0
 40
17.0
 40
17.0
 40
17.0
 40
18.0
 40
18.0
 40
18.0
 40
19.0
 40
19.0
 40
19.0
 40
20.0
 40
20.0
 40
20.0
 40
21.0
 40
21.0
 40
21.0
 40
22.0
 40
22.0
 40
22.0
 40
23.0
 40
23.0
 40
23.0
 40
24.0
 40
24.0
 40
24.0
 40
25.0
 40
25.0
 40
25.0
 40
26.0
 40
26.0
 40
26.0
 40
27.0
 40
27.0
 40
27.0
 40
28.0
 40
28.0
 40
28.0
 40
29.0
 40
29.0
 40
29.0
 40
30.0
 40
30.0
 40
30.0
 40
31.0
 40
31.0
 40
31.0
 40
32.0
 40
32.0
 40
32.0
 40
33.0
 40
33.0
 40
33.0
 40
34.0
 40
34.0
 40
34.0
 40
35.0
 40
35.0
 40
35.0
 40
36.0
 40
36.0
 40
36.0
 40
37.0
 40
37.0
 40
37.0
 40
38.0
 40
38.0
 40
38.0
 40
39.0
 40
39.0
 40
39.0
 40
40.0
 40
40.0
 40
40.0
 40
41.0
 40
41.0
 40
41.0
 40
42.0
 40
42.0
 40
42.0
 40
43.0
 40
43.0
 40
43.0
 40
44.0
 40
44.0
 40
44.0
 40
45.0
 40
45.0
 40
45.0
 40
46.0
 40
46.0
 40
46.0
 40
47.0
 40
47.0
 40
47.0
 40
48.0
 40
48.0
 40
48.0
 40
49.0
 40
49.0
 40
49.0
 40
50.0
 40
50.0
 40
50.0
 40
51.0
 40
51.0
 40
51.0
 40
52.0
 40
52.0
 40
52.0
 40
53.0
 40
53.0
 40
53.0
 40
54.0
 40
54.0
 40
54.0
 40
55.0
 40
55.0
 40
55.0
 40
56.0
 40
56.0
 40
56.0
 40
57.0
 40
57.0
 40
57.0
 40
58.0
 40
58.0
 40
58.0
 40
59.0
 40
59.0
 40
59.0
 40
60.0
 40
60.0
 40
60.0
 40
61.0
 40
61.0
 40
61.0
 40
62.0
 40
62.0
 40
62.0
 40
63.0
 40
63.0
 40
63.0
 40
64.0
 40
64.0
 40
64.0
 40
65.0
 40
65.0
 40
65.0
 40
66.0
 40
66.0
 40
66.0
 40
67.0
 40
67.0
 40
67.0
 40
68.0
 40
68.0
 40
68.0
 40
69.0
 40
69.0
 40
69.0
 40
70.0
 40
70.0
 40
70.0
 40
71.0
 40
71.0
 40
71.0
 40
72.0
 40
72.0
 40
72.0
 40
73.0
 40
73.0
 40
73.0
 40
74.0
 40
74.0
 40
74.0
 40
75.0
 40
75.0
 40
75.0
 40
76.0
 40
76.0
 40
76.0
 40
77.0
 40
77.0
 40
77.0
 40
78.0
 40
78.0
 40
78.0
 40
79.0
 40
79.0
 40
79.0
 40
79.0
 10
64.38091089970338
 20
-135.5400471666358
 30
0.0
 10
64.38091089970338
 20
-135.5400471666358
 30
0.0
 10
64.15870224090477
 20
-135.5400471666358
 30
0.0
 10
64.15870224090477
 20
-135.5400471666358
 30
0.0
 10
64.15870224090477
 20
-135.5400471666358
 30
0.0
 10
63.91616751874319
 20
-135.5400471666358
 30
0.0
 10
63.91616751874319
 20
-135.5400471666358
 30
0.0
 10
63.91616751874319
 20
-135.5400471666358
 30
0.0
 10
64.02727184814249
 20
-135.5824218411044
 30
0.0
 10
64.02727184814249
 20
-135.5824218411044
 30
0.0
 10
64.03657360595267
 20
-135.5865559556867
 30
0.0
 10
64.04759791150546
 20
-135.5931016371087
 30
0.0
 10
64.04759791150546
 20
-135.6058484904041
 30
0.0
 10
64.04759791150546
 20
-135.6268635728641
 30
0.0
 10
64.0198648928492
 20
-135.6330647447376
 30
0.0
 10
64.00143363200311
 20
-135.6375433688684
 30
0.0
 10
63.99213187419294
 20
-135.6606255086196
 30
0.0
 10
63.9661214032793
 20
-135.7264268323878
 30
0.0
 10
63.9495849449501
 20
-135.7708685641476
 30
0.0
 10
63.9495849449501
 20
-135.7708685641476
 30
0.0
 10
64.1866075143353
 20
-135.7708685641476
 30
0.0
 10
64.1866075143353
 20
-135.7708685641476
 30
0.0
 10
64.26618922004457
 20
-135.7708685641476
 30
0.0
 10
64.43844399430706
 20
-135.7663899400168
 30
0.0
 10
64.56246743177606
 20
-135.7581217108522
 30
0.0
 10
64.56246743177606
 20
-135.7581217108522
 30
0.0
 10
64.56246743177606
 20
-135.935888637891
 30
0.0
 10
64.56246743177606
 20
-135.935888637891
 30
0.0
 10
64.49029268136007
 20
-135.9314100137602
 30
0.0
 10
64.47168916573972
 20
-135.9314100137602
 30
0.0
 10
64.3142483020638
 20
-135.9272758991779
 30
0.0
 10
64.28651528340754
 20
-136.0816161769171
 30
0.0
 10
64.24758570442422
 20
-136.162231411272
 30
0.0
 10
64.20882838021515
 20
-136.231822340074
 30
0.0
 10
64.3142483020638
 20
-136.2910779824203
 30
0.0
 10
64.40692137061703
 20
-136.3589463634797
 30
0.0
 10
64.49769963665335
 20
-136.4412841455772
 30
0.0
 10
64.49769963665335
 20
-136.4412841455772
 30
0.0
 10
64.39400226254733
 20
-136.6083712766118
 30
0.0
 10
64.39400226254733
 20
-136.6083712766118
 30
0.0
 10
64.3735039444101
 20
-136.5894232514429
 30
0.0
 10
64.3624796388573
 20
-136.5808105127298
 30
0.0
 10
64.26429441752768
 20
-136.4964056733412
 30
0.0
 10
64.22174748828485
 20
-136.4581651134549
 30
0.0
 10
64.16989880123184
 20
-136.4223361204083
 30
0.0
 10
64.09944659855847
 20
-136.3778943886486
 30
0.0
 10
63.91427271622629
 20
-136.5639295448521
 30
0.0
 10
63.73478324144478
 20
-136.5873561941518
 30
0.0
 10
63.48105195895613
 20
-136.6169840153249
 30
0.0
 10
63.48105195895613
 20
-136.6169840153249
 30
0.0
 10
63.3902736929198
 20
-136.4371500309949
 30
0.0
 10
63.3902736929198
 20
-136.4371500309949
 30
0.0
 10
63.6681206438052
 20
-136.4330159164126
 30
0.0
 10
63.82177190244734
 20
-136.4075222098217
 30
0.0
 10
63.95509709772651
 20
-136.2976236638423
 30
0.0
 10
63.85139972362049
 20
-136.2466362506606
 30
0.0
 10
63.77354056565384
 20
-136.2190754867786
 30
0.0
 10
63.74219019673806
 20
-136.2066731430317
 30
0.0
 10
63.7254814836346
 20
-136.2338893973651
 30
0.0
 10
63.71256237556491
 20
-136.2531819320826
 30
0.0
 10
63.68844670716817
 20
-136.286943867838
 30
0.0
 10
63.68844670716817
 20
-136.286943867838
 30
0.0
 10
63.51619193290568
 20
-136.204261576192
 30
0.0
 10
63.51619193290568
 20
-136.204261576192
 30
0.0
 10
63.58836668332166
 20
-136.1239908513857
 30
0.0
 10
63.64211017289156
 20
-136.0289062159928
 30
0.0
 10
63.69206405742768
 20
-135.9272758991779
 30
0.0
 10
63.52549369071586
 20
-135.9314100137602
 30
0.0
 10
63.5068901750955
 20
-135.9314100137602
 30
0.0
 10
63.43471542467952
 20
-135.935888637891
 30
0.0
 10
63.43471542467952
 20
-135.935888637891
 30
0.0
 10
63.43471542467952
 20
-135.7581217108522
 30
0.0
 10
63.43471542467952
 20
-135.7581217108522
 30
0.0
 10
63.55701631440589
 20
-135.7643228827256
 30
0.0
 10
63.74029539422118
 20
-135.7684569973079
 30
0.0
 10
63.76251626010104
 20
-135.7684569973079
 30
0.0
 10
63.77733017068761
 20
-135.7346950615525
 30
0.0
 10
63.82538925270685
 20
-135.6141167195687
 30
0.0
 10
63.84209796581031
 20
-135.5400471666358
 30
0.0
 10
63.82538925270685
 20
-135.5400471666358
 30
0.0
 10
63.66984319154782
 20
-135.5465928480578
 30
0.0
 10
63.49948321980222
 20
-135.5593397013532
 30
0.0
 10
63.49948321980222
 20
-135.5593397013532
 30
0.0
 10
63.49948321980222
 20
-135.6923203870839
 30
0.0
 10
63.49948321980222
 20
-135.6923203870839
 30
0.0
 10
63.45693629055938
 20
-135.7178140936747
 30
0.0
 10
63.40508760350637
 20
-135.749508972139
 30
0.0
 10
63.28847112133067
 20
-135.8153102959073
 30
0.0
 10
63.28847112133067
 20
-135.8153102959073
 30
0.0
 10
63.28847112133067
 20
-135.9610378349334
 30
0.0
 10
63.28847112133067
 20
-135.9610378349334
 30
0.0
 10
63.28847112133067
 20
-135.9610378349334
 30
0.0
 10
63.28847112133067
 20
-136.4285372922818
 30
0.0
 10
63.28847112133067
 20
-136.4285372922818
 30
0.0
 10
63.28847112133067
 20
-136.5556613156875
 30
0.0
 10
63.25694849764063
 20
-136.6149169580338
 30
0.0
 10
63.00890162270264
 20
-136.6063042193207
 30
0.0
 10
63.00890162270264
 20
-136.6063042193207
 30
0.0
 10
62.91812335666631
 20
-136.3989094711086
 30
0.0
 10
62.91812335666631
 20
-136.3989094711086
 30
0.0
 10
62.97358939397883
 20
-136.411656324404
 30
0.0
 10
63.01630857799593
 20
-136.4161349485349
 30
0.0
 10
63.05144855194548
 20
-136.4161349485349
 30
0.0
 10
63.11811114958506
 20
-136.4161349485349
 30
0.0
 10
63.12741290739523
 20
-136.3927082992352
 30
0.0
 10
63.12741290739523
 20
-136.3272514850154
 30
0.0
 10
63.12741290739523
 20
-136.3272514850154
 30
0.0
 10
63.12741290739523
 20
-135.8976480780047
 30
0.0
 10
63.12741290739523
 20
-135.8976480780047
 30
0.0
 10
63.0421467941353
 20
-135.9379556951822
 30
0.0
 10
63.02733288354872
 20
-135.9441568670556
 30
0.0
 10
62.98668075682278
 20
-135.9631048922245
 30
0.0
 10
62.982891151789
 20
-135.9844644842331
 30
0.0
 10
62.97927380152949
 20
-136.0140923054062
 30
0.0
 10
62.96256508842603
 20
-136.0140923054062
 30
0.0
 10
62.95515813313274
 20
-136.0140923054062
 30
0.0
 10
62.94585637532256
 20
-136.0096136812754
 30
0.0
 10
62.94034422254617
 20
-135.9865315415242
 30
0.0
 10
62.94034422254617
 20
-135.9865315415242
 30
0.0
 10
62.89400768826955
 20
-135.7939507038987
 30
0.0
 10
62.89400768826955
 20
-135.7939507038987
 30
0.0
 10
63.02182073077233
 20
-135.7474419148479
 30
0.0
 10
63.07918157060173
 20
-135.7243597750967
 30
0.0
 10
63.12741290739523
 20
-135.7030001830881
 30
0.0
 10
63.12741290739523
 20
-135.7030001830881
 30
0.0
 10
63.12741290739523
 20
-135.2906222535037
 30
0.0
 10
63.12741290739523
 20
-135.2906222535037
 30
0.0
 10
63.12741290739523
 20
-135.2906222535037
 30
0.0
 10
63.08107637311862
 20
-135.2906222535037
 30
0.0
 10
63.08107637311862
 20
-135.2906222535037
 30
0.0
 10
63.08107637311862
 20
-135.2906222535037
 30
0.0
 10
63.01251897296215
 20
-135.2906222535037
 30
0.0
 10
63.01251897296215
 20
-135.2906222535037
 30
0.0
 10
62.95326333061585
 20
-135.2906222535037
 30
0.0
 10
62.94585637532256
 20
-135.2906222535037
 30
0.0
 10
62.91433375163253
 20
-135.2968234253772
 30
0.0
 10
62.91433375163253
 20
-135.2968234253772
 30
0.0
 10
62.91433375163253
 20
-135.1021755304606
 30
0.0
 10
62.91433375163253
 20
-135.1021755304606
 30
0.0
 10
62.93844942002928
 20
-135.1087212118825
 30
0.0
 10
62.94585637532256
 20
-135.1087212118825
 30
0.0
 10
63.00700682018575
 20
-135.1087212118825
 30
0.0
 10
63.00700682018575
 20
-135.1087212118825
 30
0.0
 10
63.12362330236146
 20
-135.1087212118825
 30
0.0
 10
63.12362330236146
 20
-135.1087212118825
 30
0.0
 10
63.12362330236146
 20
-135.038785773532
 30
0.0
 10
63.12362330236146
 20
-134.956103481886
 30
0.0
 10
63.12172849984457
 20
-134.9519693673037
 30
0.0
 10
63.11432154455128
 20
-134.7721353829736
 30
0.0
 10
63.11432154455128
 20
-134.7531873578048
 30
0.0
 10
63.11259899680866
 20
-134.7066785687539
 30
0.0
 10
63.11259899680866
 20
-134.7066785687539
 30
0.0
 10
63.30139022940035
 20
-134.7149467979185
 30
0.0
 10
63.30139022940035
 20
-134.7149467979185
 30
0.0
 10
63.31069198721053
 20
-134.7149467979185
 30
0.0
 10
63.32912324805661
 20
-134.7173583647582
 30
0.0
 10
63.32912324805661
 20
-134.7342393326359
 30
0.0
 10
63.32912324805661
 20
-134.7531873578048
 30
0.0
 10
63.31620413998692
 20
-134.763867153809
 30
0.0
 10
63.29398327410706
 20
-134.7828151789779
 30
0.0
 10
63.29398327410706
 20
-134.8334580826111
 30
0.0
 10
63.28847112133067
 20
-135.0622124228317
 30
0.0
 10
63.29036592384755
 20
-135.1087212118825
 30
0.0
 10
63.40319280098948
 20
-135.1087212118825
 30
0.0
 10
63.41438936131654
 20
-135.1087212118825
 30
0.0
 10
63.49948321980222
 20
-135.1001084731694
 30
0.0
 10
63.49948321980222
 20
-135.1001084731694
 30
0.0
 10
63.49948321980222
 20
-135.294756368086
 30
0.0
 10
63.49948321980222
 20
-135.294756368086
 30
0.0
 10
63.46623804836955
 20
-135.2926893107949
 30
0.0
 10
63.40698240602326
 20
-135.2885551962126
 30
0.0
 10
63.28847112133067
 20
-135.2906222535037
 30
0.0
 10
63.28847112133067
 20
-135.2906222535037
 30
0.0
 10
63.28847112133067
 20
-135.6289306301553
 30
0.0
 10
63.28847112133067
 20
-135.6289306301553
 30
0.0
 10
63.33653020334989
 20
-135.6058484904041
 30
0.0
 10
63.39406329795357
 20
-135.5782877265221
 30
0.0
 10
63.4366102271964
 20
-135.5548610772224
 30
0.0
 10
63.4366102271964
 20
-135.5548610772224
 30
0.0
 10
63.4366102271964
 20
-135.3770941501835
 30
0.0
 10
63.4366102271964
 20
-135.3770941501835
 30
0.0
 10
63.53651799626865
 20
-135.3898410034789
 30
0.0
 10
63.64021537037467
 20
-135.3898410034789
 30
0.0
 10
63.74219019673806
 20
-135.3898410034789
 30
0.0
 10
63.72169187860083
 20
-135.294756368086
 30
0.0
 10
63.69774846497835
 20
-135.21207407644
 30
0.0
 10
63.64211017289156
 20
-135.0790933907094
 30
0.0
 10
63.60318059390823
 20
-135.0811604480006
 30
0.0
 10
63.53100584349225
 20
-135.0852945625828
 30
0.0
 10
63.49776067205959
 20
-135.087361619874
 30
0.0
 10
63.49776067205959
 20
-135.087361619874
 30
0.0
 10
63.49776067205959
 20
-134.907527635544
 30
0.0
 10
63.49776067205959
 20
-134.907527635544
 30
0.0
 10
63.60697019894201
 20
-134.9161403742571
 30
0.0
 10
63.75872665506726
 20
-134.9202744888394
 30
0.0
 10
63.83107366025751
 20
-134.9202744888394
 30
0.0
 10
63.83107366025751
 20
-134.9202744888394
 30
0.0
 10
63.9032484106735
 20
-134.9202744888394
 30
0.0
 10
63.9032484106735
 20
-134.9202744888394
 30
0.0
 10
63.9032484106735
 20
-134.7573214723871
 30
0.0
 10
63.9032484106735
 20
-134.7469861859313
 30
0.0
 10
63.90135360815661
 20
-134.6918646581673
 30
0.0
 10
63.90135360815661
 20
-134.6918646581673
 30
0.0
 10
64.09772405081586
 20
-134.7173583647582
 30
0.0
 10
64.09772405081586
 20
-134.7173583647582
 30
0.0
 10
64.10134140107536
 20
-134.7173583647582
 30
0.0
 10
64.11994491669572
 20
-134.7194254220493
 30
0.0
 10
64.11994491669572
 20
-134.7363063899271
 30
0.0
 10
64.11994491669572
 20
-134.7511203005136
 30
0.0
 10
64.11064315888554
 20
-134.7593885296782
 30
0.0
 10
64.08652749048879
 20
-134.7742024402648
 30
0.0
 10
64.08101533771239
 20
-134.8400037640331
 30
0.0
 10
64.0791205351955
 20
-134.8610188464931
 30
0.0
 10
64.0791205351955
 20
-134.9202744888394
 30
0.0
 10
64.0791205351955
 20
-134.9202744888394
 30
0.0
 10
64.16249184593855
 20
-134.9202744888394
 30
0.0
 10
64.16249184593855
 20
-134.9202744888394
 30
0.0
 10
64.23466659635453
 20
-134.9202744888394
 30
0.0
 10
64.38659530725405
 20
-134.9161403742571
 30
0.0
 10
64.49580483413646
 20
-134.907527635544
 30
0.0
 10
64.49580483413646
 20
-134.907527635544
 30
0.0
 10
64.49580483413646
 20
-135.087361619874
 30
0.0
 10
64.49580483413646
 20
-135.087361619874
 30
0.0
 10
64.46979436322283
 20
-135.0852945625828
 30
0.0
 10
64.36609698911681
 20
-135.0811604480006
 30
0.0
 10
64.33095701516726
 20
-135.0790933907094
 30
0.0
 10
64.31803790709758
 20
-135.1297362943426
 30
0.0
 10
64.28841008592443
 20
-135.2417018976132
 30
0.0
 10
64.23104924609501
 20
-135.3815727743143
 30
0.0
 10
64.26808402256145
 20
-135.3815727743143
 30
0.0
 10
64.51061874472305
 20
-135.3622802395969
 30
0.0
 10
64.56436223429294
 20
-135.3602131823058
 30
0.0
 10
64.56436223429294
 20
-135.3602131823058
 30
0.0
 10
64.56436223429294
 20
-135.5445257907666
 30
0.0
 10
64.56436223429294
 20
-135.5445257907666
 30
0.0
 10
64.53835176337931
 20
-135.5445257907666
 30
0.0
 10
64.52353785279273
 20
-135.5400471666358
 30
0.0
 10
64.38091089970338
 20
-135.5400471666358
 30
0.0
  0
SPLINE
  5
37D
330
378
100
AcDbEntity
  8
_U+30EC_U+30A4_U+30E4_U+30FC 1
370
     0
100
AcDbSpline
210
0.0
220
0.0
230
1.0
 70
    11
 71
     3
 72
    20
 73
    16
 74
     0
 42
0.0000000001
 43
0.0000000001
 12
1.0
 22
0.0
 32
0.0
 13
1.0
 23
0.0
 33
0.0
 40
0.0
 40
0.0
 40
0.0
 40
0.0
 40
1.0
 40
1.0
 40
1.0
 40
2.0
 40
2.0
 40
2.0
 40
3.0
 40
3.0
 40
3.0
 40
4.0
 40
4.0
 40
4.0
 40
5.0
 40
5.0
 40
5.0
 40
5.0
 10
63.83107366025751
 20
-135.0746147665786
 30
0.0
 10
63.83107366025751
 20
-135.0746147665786
 30
0.0
 10
63.80316838682699
 20
-135.0746147665786
 30
0.0
 10
63.80316838682699
 20
-135.0746147665786
 30
0.0
 10
63.8439927683272
 20
-135.1741780261023
 30
0.0
 10
63.87172578698346
 20
-135.2544487509086
 30
0.0
 10
63.90135360815661
 20
-135.3815727743143
 30
0.0
 10
63.90135360815661
 20
-135.3815727743143
 30
0.0
 10
64.08291014022927
 20
-135.3815727743143
 30
0.0
 10
64.08291014022927
 20
-135.3815727743143
 30
0.0
 10
64.11064315888554
 20
-135.2885551962126
 30
0.0
 10
64.13096922224851
 20
-135.2038058472754
 30
0.0
 10
64.15129528561148
 20
-135.0746147665786
 30
0.0
 10
64.15129528561148
 20
-135.0746147665786
 30
0.0
 10
63.83107366025751
 20
-135.0746147665786
 30
0.0
 10
63.83107366025751
 20
-135.0746147665786
 30
0.0
  0
SPLINE
  5
37E
330
378
100
AcDbEntity
  8
_U+30EC_U+30A4_U+30E4_U+30FC 1
370
     0
100
AcDbSpline
210
0.0
220
0.0
230
1.0
 70
    11
 71
     3
 72
    17
 73
    13
 74
     0
 42
0.0000000001
 43
0.0000000001
 12
1.0
 22
0.0
 32
0.0
 13
1.0
 23
0.0
 33
0.0
 40
0.0
 40
0.0
 40
0.0
 40
0.0
 40
1.0
 40
1.0
 40
1.0
 40
2.0
 40
2.0
 40
2.0
 40
3.0
 40
3.0
 40
3.0
 40
4.0
 40
4.0
 40
4.0
 40
4.0
 10
63.88653969757004
 20
-135.9252088418868
 30
0.0
 10
63.87172578698346
 20
-135.9548366630599
 30
0.0
 10
63.82728405522374
 20
-136.0478542411616
 30
0.0
 10
63.81798229741356
 20
-136.0668022663305
 30
0.0
 10
63.98472491889966
 20
-136.1260579086768
 30
0.0
 10
64.00315617974574
 20
-136.1326035900988
 30
0.0
 10
64.06620142712582
 20
-136.1598198444323
 30
0.0
 10
64.11426050914505
 20
-136.0733479477525
 30
0.0
 10
64.13475882728228
 20
-135.9992783948196
 30
0.0
 10
64.14767793535198
 20
-135.9252088418868
 30
0.0
 10
64.14767793535198
 20
-135.9252088418868
 30
0.0
 10
63.88653969757004
 20
-135.9252088418868
 30
0.0
 10
63.88653969757004
 20
-135.9252088418868
 30
0.0
  0
HATCH
  5
37F
330
378
100
AcDbEntity
  8
_U+30EC_U+30A4_U+30E4_U+30FC 1
 62
   179
420
  2234388
100
AcDbHatch
 10
0.0
 20
0.0
 30
0.0
210
0.0
220
0.0
230
1.0
  2
SOLID
 70
     1
 71
     0
 91
        3
 92
        1
 93
        1
 72
     4
 94
        3
 73
     0
 74
     1
 95
      242
 96
      238
 40
0.0
 40
0.0
 40
0.0
 40
0.0
 40
1.0
 40
1.0
 40
1.0
 40
2.0
 40
2.0
 40
2.0
 40
3.0
 40
3.0
 40
3.0
 40
4.0
 40
4.0
 40
4.0
 40
5.0
 40
5.0
 40
5.0
 40
6.0
 40
6.0
 40
6.0
 40
7.0
 40
7.0
 40
7.0
 40
8.0
 40
8.0
 40
8.0
 40
9.0
 40
9.0
 40
9.0
 40
10.0
 40
10.0
 40
10.0
 40
11.0
 40
11.0
 40
11.0
 40
12.0
 40
12.0
 40
12.0
 40
13.0
 40
13.0
 40
13.0
 40
14.0
 40
14.0
 40
14.0
 40
15.0
 40
15.0
 40
15.0
 40
16.0
 40
16.0
 40
16.0
 40
17.0
 40
17.0
 40
17.0
 40
18.0
 40
18.0
 40
18.0
 40
19.0
 40
19.0
 40
19.0
 40
20.0
 40
20.0
 40
20.0
 40
21.0
 40
21.0
 40
21.0
 40
22.0
 40
22.0
 40
22.0
 40
23.0
 40
23.0
 40
23.0
 40
24.0
 40
24.0
 40
24.0
 40
25.0
 40
25.0
 40
25.0
 40
26.0
 40
26.0
 40
26.0
 40
27.0
 40
27.0
 40
27.0
 40
28.0
 40
28.0
 40
28.0
 40
29.0
 40
29.0
 40
29.0
 40
30.0
 40
30.0
 40
30.0
 40
31.0
 40
31.0
 40
31.0
 40
32.0
 40
32.0
 40
32.0
 40
33.0
 40
33.0
 40
33.0
 40
34.0
 40
34.0
 40
34.0
 40
35.0
 40
35.0
 40
35.0
 40
36.0
 40
36.0
 40
36.0
 40
37.0
 40
37.0
 40
37.0
 40
38.0
 40
38.0
 40
38.0
 40
39.0
 40
39.0
 40
39.0
 40
40.0
 40
40.0
 40
40.0
 40
41.0
 40
41.0
 40
41.0
 40
42.0
 40
42.0
 40
42.0
 40
43.0
 40
43.0
 40
43.0
 40
44.0
 40
44.0
 40
44.0
 40
45.0
 40
45.0
 40
45.0
 40
46.0
 40
46.0
 40
46.0
 40
47.0
 40
47.0
 40
47.0
 40
48.0
 40
48.0
 40
48.0
 40
49.0
 40
49.0
 40
49.0
 40
50.0
 40
50.0
 40
50.0
 40
51.0
 40
51.0
 40
51.0
 40
52.0
 40
52.0
 40
52.0
 40
53.0
 40
53.0
 40
53.0
 40
54.0
 40
54.0
 40
54.0
 40
55.0
 40
55.0
 40
55.0
 40
56.0
 40
56.0
 40
56.0
 40
57.0
 40
57.0
 40
57.0
 40
58.0
 40
58.0
 40
58.0
 40
59.0
 40
59.0
 40
59.0
 40
60.0
 40
60.0
 40
60.0
 40
61.0
 40
61.0
 40
61.0
 40
62.0
 40
62.0
 40
62.0
 40
63.0
 40
63.0
 40
63.0
 40
64.0
 40
64.0
 40
64.0
 40
65.0
 40
65.0
 40
65.0
 40
66.0
 40
66.0
 40
66.0
 40
67.0
 40
67.0
 40
67.0
 40
68.0
 40
68.0
 40
68.0
 40
69.0
 40
69.0
 40
69.0
 40
70.0
 40
70.0
 40
70.0
 40
71.0
 40
71.0
 40
71.0
 40
72.0
 40
72.0
 40
72.0
 40
73.0
 40
73.0
 40
73.0
 40
74.0
 40
74.0
 40
74.0
 40
75.0
 40
75.0
 40
75.0
 40
76.0
 40
76.0
 40
76.0
 40
77.0
 40
77.0
 40
77.0
 40
78.0
 40
78.0
 40
78.0
 40
79.0
 40
79.0
 40
79.0
 40
79.0
 10
64.38091089970338
 20
-135.5400471666358
 10
64.38091089970338
 20
-135.5400471666358
 10
64.15870224090477
 20
-135.5400471666358
 10
64.15870224090477
 20
-135.5400471666358
 10
64.15870224090477
 20
-135.5400471666358
 10
63.91616751874319
 20
-135.5400471666358
 10
63.91616751874319
 20
-135.5400471666358
 10
63.91616751874319
 20
-135.5400471666358
 10
64.02727184814249
 20
-135.5824218411044
 10
64.02727184814249
 20
-135.5824218411044
 10
64.03657360595267
 20
-135.5865559556867
 10
64.04759791150546
 20
-135.5931016371087
 10
64.04759791150546
 20
-135.6058484904041
 10
64.04759791150546
 20
-135.6268635728641
 10
64.0198648928492
 20
-135.6330647447376
 10
64.00143363200311
 20
-135.6375433688684
 10
63.99213187419294
 20
-135.6606255086196
 10
63.9661214032793
 20
-135.7264268323878
 10
63.9495849449501
 20
-135.7708685641476
 10
63.9495849449501
 20
-135.7708685641476
 10
64.1866075143353
 20
-135.7708685641476
 10
64.1866075143353
 20
-135.7708685641476
 10
64.26618922004457
 20
-135.7708685641476
 10
64.43844399430706
 20
-135.7663899400168
 10
64.56246743177606
 20
-135.7581217108522
 10
64.56246743177606
 20
-135.7581217108522
 10
64.56246743177606
 20
-135.935888637891
 10
64.56246743177606
 20
-135.935888637891
 10
64.49029268136007
 20
-135.9314100137602
 10
64.47168916573972
 20
-135.9314100137602
 10
64.3142483020638
 20
-135.9272758991779
 10
64.28651528340754
 20
-136.0816161769171
 10
64.24758570442422
 20
-136.162231411272
 10
64.20882838021515
 20
-136.231822340074
 10
64.3142483020638
 20
-136.2910779824203
 10
64.40692137061703
 20
-136.3589463634797
 10
64.49769963665335
 20
-136.4412841455772
 10
64.49769963665335
 20
-136.4412841455772
 10
64.39400226254733
 20
-136.6083712766118
 10
64.39400226254733
 20
-136.6083712766118
 10
64.3735039444101
 20
-136.5894232514429
 10
64.3624796388573
 20
-136.5808105127298
 10
64.26429441752768
 20
-136.4964056733412
 10
64.22174748828485
 20
-136.4581651134549
 10
64.16989880123184
 20
-136.4223361204083
 10
64.09944659855847
 20
-136.3778943886486
 10
63.91427271622629
 20
-136.5639295448521
 10
63.73478324144478
 20
-136.5873561941518
 10
63.48105195895613
 20
-136.6169840153249
 10
63.48105195895613
 20
-136.6169840153249
 10
63.3902736929198
 20
-136.4371500309949
 10
63.3902736929198
 20
-136.4371500309949
 10
63.6681206438052
 20
-136.4330159164126
 10
63.82177190244734
 20
-136.4075222098217
 10
63.95509709772651
 20
-136.2976236638423
 10
63.85139972362049
 20
-136.2466362506606
 10
63.77354056565384
 20
-136.2190754867786
 10
63.74219019673806
 20
-136.2066731430317
 10
63.7254814836346
 20
-136.2338893973651
 10
63.71256237556491
 20
-136.2531819320826
 10
63.68844670716817
 20
-136.286943867838
 10
63.68844670716817
 20
-136.286943867838
 10
63.51619193290568
 20
-136.204261576192
 10
63.51619193290568
 20
-136.204261576192
 10
63.58836668332166
 20
-136.1239908513857
 10
63.64211017289156
 20
-136.0289062159928
 10
63.69206405742768
 20
-135.9272758991779
 10
63.52549369071586
 20
-135.9314100137602
 10
63.5068901750955
 20
-135.9314100137602
 10
63.43471542467952
 20
-135.935888637891
 10
63.43471542467952
 20
-135.935888637891
 10
63.43471542467952
 20
-135.7581217108522
 10
63.43471542467952
 20
-135.7581217108522
 10
63.55701631440589
 20
-135.7643228827256
 10
63.74029539422118
 20
-135.7684569973079
 10
63.76251626010104
 20
-135.7684569973079
 10
63.77733017068761
 20
-135.7346950615525
 10
63.82538925270685
 20
-135.6141167195687
 10
63.84209796581031
 20
-135.5400471666358
 10
63.82538925270685
 20
-135.5400471666358
 10
63.66984319154782
 20
-135.5465928480578
 10
63.49948321980222
 20
-135.5593397013532
 10
63.49948321980222
 20
-135.5593397013532
 10
63.49948321980222
 20
-135.6923203870839
 10
63.49948321980222
 20
-135.6923203870839
 10
63.45693629055938
 20
-135.7178140936747
 10
63.40508760350637
 20
-135.749508972139
 10
63.28847112133067
 20
-135.8153102959073
 10
63.28847112133067
 20
-135.8153102959073
 10
63.28847112133067
 20
-135.9610378349334
 10
63.28847112133067
 20
-135.9610378349334
 10
63.28847112133067
 20
-135.9610378349334
 10
63.28847112133067
 20
-136.4285372922818
 10
63.28847112133067
 20
-136.4285372922818
 10
63.28847112133067
 20
-136.5556613156875
 10
63.25694849764063
 20
-136.6149169580338
 10
63.00890162270264
 20
-136.6063042193207
 10
63.00890162270264
 20
-136.6063042193207
 10
62.91812335666631
 20
-136.3989094711086
 10
62.91812335666631
 20
-136.3989094711086
 10
62.97358939397883
 20
-136.411656324404
 10
63.01630857799593
 20
-136.4161349485349
 10
63.05144855194548
 20
-136.4161349485349
 10
63.11811114958506
 20
-136.4161349485349
 10
63.12741290739523
 20
-136.3927082992352
 10
63.12741290739523
 20
-136.3272514850154
 10
63.12741290739523
 20
-136.3272514850154
 10
63.12741290739523
 20
-135.8976480780047
 10
63.12741290739523
 20
-135.8976480780047
 10
63.0421467941353
 20
-135.9379556951822
 10
63.02733288354872
 20
-135.9441568670556
 10
62.98668075682278
 20
-135.9631048922245
 10
62.982891151789
 20
-135.9844644842331
 10
62.97927380152949
 20
-136.0140923054062
 10
62.96256508842603
 20
-136.0140923054062
 10
62.95515813313274
 20
-136.0140923054062
 10
62.94585637532256
 20
-136.0096136812754
 10
62.94034422254617
 20
-135.9865315415242
 10
62.94034422254617
 20
-135.9865315415242
 10
62.89400768826955
 20
-135.7939507038987
 10
62.89400768826955
 20
-135.7939507038987
 10
63.02182073077233
 20
-135.7474419148479
 10
63.07918157060173
 20
-135.7243597750967
 10
63.12741290739523
 20
-135.7030001830881
 10
63.12741290739523
 20
-135.7030001830881
 10
63.12741290739523
 20
-135.2906222535037
 10
63.12741290739523
 20
-135.2906222535037
 10
63.12741290739523
 20
-135.2906222535037
 10
63.08107637311862
 20
-135.2906222535037
 10
63.08107637311862
 20
-135.2906222535037
 10
63.08107637311862
 20
-135.2906222535037
 10
63.01251897296215
 20
-135.2906222535037
 10
63.01251897296215
 20
-135.2906222535037
 10
62.95326333061585
 20
-135.2906222535037
 10
62.94585637532256
 20
-135.2906222535037
 10
62.91433375163253
 20
-135.2968234253772
 10
62.91433375163253
 20
-135.2968234253772
 10
62.91433375163253
 20
-135.1021755304606
 10
62.91433375163253
 20
-135.1021755304606
 10
62.93844942002928
 20
-135.1087212118825
 10
62.94585637532256
 20
-135.1087212118825
 10
63.00700682018575
 20
-135.1087212118825
 10
63.00700682018575
 20
-135.1087212118825
 10
63.12362330236146
 20
-135.1087212118825
 10
63.12362330236146
 20
-135.1087212118825
 10
63.12362330236146
 20
-135.038785773532
 10
63.12362330236146
 20
-134.956103481886
 10
63.12172849984457
 20
-134.9519693673037
 10
63.11432154455128
 20
-134.7721353829736
 10
63.11432154455128
 20
-134.7531873578048
 10
63.11259899680866
 20
-134.7066785687539
 10
63.11259899680866
 20
-134.7066785687539
 10
63.30139022940035
 20
-134.7149467979185
 10
63.30139022940035
 20
-134.7149467979185
 10
63.31069198721053
 20
-134.7149467979185
 10
63.32912324805661
 20
-134.7173583647582
 10
63.32912324805661
 20
-134.7342393326359
 10
63.32912324805661
 20
-134.7531873578048
 10
63.31620413998692
 20
-134.763867153809
 10
63.29398327410706
 20
-134.7828151789779
 10
63.29398327410706
 20
-134.8334580826111
 10
63.28847112133067
 20
-135.0622124228317
 10
63.29036592384755
 20
-135.1087212118825
 10
63.40319280098948
 20
-135.1087212118825
 10
63.41438936131654
 20
-135.1087212118825
 10
63.49948321980222
 20
-135.1001084731694
 10
63.49948321980222
 20
-135.1001084731694
 10
63.49948321980222
 20
-135.294756368086
 10
63.49948321980222
 20
-135.294756368086
 10
63.46623804836955
 20
-135.2926893107949
 10
63.40698240602326
 20
-135.2885551962126
 10
63.28847112133067
 20
-135.2906222535037
 10
63.28847112133067
 20
-135.2906222535037
 10
63.28847112133067
 20
-135.6289306301553
 10
63.28847112133067
 20
-135.6289306301553
 10
63.33653020334989
 20
-135.6058484904041
 10
63.39406329795357
 20
-135.5782877265221
 10
63.4366102271964
 20
-135.5548610772224
 10
63.4366102271964
 20
-135.5548610772224
 10
63.4366102271964
 20
-135.3770941501835
 10
63.4366102271964
 20
-135.3770941501835
 10
63.53651799626865
 20
-135.3898410034789
 10
63.64021537037467
 20
-135.3898410034789
 10
63.74219019673806
 20
-135.3898410034789
 10
63.72169187860083
 20
-135.294756368086
 10
63.69774846497835
 20
-135.21207407644
 10
63.64211017289156
 20
-135.0790933907094
 10
63.60318059390823
 20
-135.0811604480006
 10
63.53100584349225
 20
-135.0852945625828
 10
63.49776067205959
 20
-135.087361619874
 10
63.49776067205959
 20
-135.087361619874
 10
63.49776067205959
 20
-134.907527635544
 10
63.49776067205959
 20
-134.907527635544
 10
63.60697019894201
 20
-134.9161403742571
 10
63.75872665506726
 20
-134.9202744888394
 10
63.83107366025751
 20
-134.9202744888394
 10
63.83107366025751
 20
-134.9202744888394
 10
63.9032484106735
 20
-134.9202744888394
 10
63.9032484106735
 20
-134.9202744888394
 10
63.9032484106735
 20
-134.7573214723871
 10
63.9032484106735
 20
-134.7469861859313
 10
63.90135360815661
 20
-134.6918646581673
 10
63.90135360815661
 20
-134.6918646581673
 10
64.09772405081586
 20
-134.7173583647582
 10
64.09772405081586
 20
-134.7173583647582
 10
64.10134140107536
 20
-134.7173583647582
 10
64.11994491669572
 20
-134.7194254220493
 10
64.11994491669572
 20
-134.7363063899271
 10
64.11994491669572
 20
-134.7511203005136
 10
64.11064315888554
 20
-134.7593885296782
 10
64.08652749048879
 20
-134.7742024402648
 10
64.08101533771239
 20
-134.8400037640331
 10
64.0791205351955
 20
-134.8610188464931
 10
64.0791205351955
 20
-134.9202744888394
 10
64.0791205351955
 20
-134.9202744888394
 10
64.16249184593855
 20
-134.9202744888394
 10
64.16249184593855
 20
-134.9202744888394
 10
64.23466659635453
 20
-134.9202744888394
 10
64.38659530725405
 20
-134.9161403742571
 10
64.49580483413646
 20
-134.907527635544
 10
64.49580483413646
 20
-134.907527635544
 10
64.49580483413646
 20
-135.087361619874
 10
64.49580483413646
 20
-135.087361619874
 10
64.46979436322283
 20
-135.0852945625828
 10
64.36609698911681
 20
-135.0811604480006
 10
64.33095701516726
 20
-135.0790933907094
 10
64.31803790709758
 20
-135.1297362943426
 10
64.28841008592443
 20
-135.2417018976132
 10
64.23104924609501
 20
-135.3815727743143
 10
64.26808402256145
 20
-135.3815727743143
 10
64.51061874472305
 20
-135.3622802395969
 10
64.56436223429294
 20
-135.3602131823058
 10
64.56436223429294
 20
-135.3602131823058
 10
64.56436223429294
 20
-135.5445257907666
 10
64.56436223429294
 20
-135.5445257907666
 10
64.53835176337931
 20
-135.5445257907666
 10
64.52353785279273
 20
-135.5400471666358
 10
64.38091089970338
 20
-135.5400471666358
 97
        0
 97
        0
 92
        1
 93
        1
 72
     4
 94
        3
 73
     0
 74
     1
 95
       20
 96
       16
 40
0.0
 40
0.0
 40
0.0
 40
0.0
 40
1.0
 40
1.0
 40
1.0
 40
2.0
 40
2.0
 40
2.0
 40
3.0
 40
3.0
 40
3.0
 40
4.0
 40
4.0
 40
4.0
 40
5.0
 40
5.0
 40
5.0
 40
5.0
 10
63.83107366025751
 20
-135.0746147665786
 10
63.83107366025751
 20
-135.0746147665786
 10
63.80316838682699
 20
-135.0746147665786
 10
63.80316838682699
 20
-135.0746147665786
 10
63.8439927683272
 20
-135.1741780261023
 10
63.87172578698346
 20
-135.2544487509086
 10
63.90135360815661
 20
-135.3815727743143
 10
63.90135360815661
 20
-135.3815727743143
 10
64.08291014022927
 20
-135.3815727743143
 10
64.08291014022927
 20
-135.3815727743143
 10
64.11064315888554
 20
-135.2885551962126
 10
64.13096922224851
 20
-135.2038058472754
 10
64.15129528561148
 20
-135.0746147665786
 10
64.15129528561148
 20
-135.0746147665786
 10
63.83107366025751
 20
-135.0746147665786
 10
63.83107366025751
 20
-135.0746147665786
 97
        0
 97
        0
 92
        1
 93
        1
 72
     4
 94
        3
 73
     0
 74
     1
 95
       17
 96
       13
 40
0.0
 40
0.0
 40
0.0
 40
0.0
 40
1.0
 40
1.0
 40
1.0
 40
2.0
 40
2.0
 40
2.0
 40
3.0
 40
3.0
 40
3.0
 40
4.0
 40
4.0
 40
4.0
 40
4.0
 10
63.88653969757004
 20
-135.9252088418868
 10
63.87172578698346
 20
-135.9548366630599
 10
63.82728405522374
 20
-136.0478542411616
 10
63.81798229741356
 20
-136.0668022663305
 10
63.98472491889966
 20
-136.1260579086768
 10
64.00315617974574
 20
-136.1326035900988
 10
64.06620142712582
 20
-136.1598198444323
 10
64.11426050914505
 20
-136.0733479477525
 10
64.13475882728228
 20
-135.9992783948196
 10
64.14767793535198
 20
-135.9252088418868
 10
64.14767793535198
 20
-135.9252088418868
 10
63.88653969757004
 20
-135.9252088418868
 10
63.88653969757004
 20
-135.9252088418868
 97
        0
 97
        0
 75
     2
 76
     1
 98
        0
  0
SPLINE
  5
380
330
378
100
AcDbEntity
  8
_U+30EC_U+30A4_U+30E4_U+30FC 1
370
     0
100
AcDbSpline
210
0.0
220
0.0
230
1.0
 70
    11
 71
     3
 72
   203
 73
   199
 74
     0
 42
0.0000000001
 43
0.0000000001
 12
1.0
 22
0.0
 32
0.0
 13
1.0
 23
0.0
 33
0.0
 40
0.0
 40
0.0
 40
0.0
 40
0.0
 40
1.0
 40
1.0
 40
1.0
 40
2.0
 40
2.0
 40
2.0
 40
3.0
 40
3.0
 40
3.0
 40
4.0
 40
4.0
 40
4.0
 40
5.0
 40
5.0
 40
5.0
 40
6.0
 40
6.0
 40
6.0
 40
7.0
 40
7.0
 40
7.0
 40
8.0
 40
8.0
 40
8.0
 40
9.0
 40
9.0
 40
9.0
 40
10.0
 40
10.0
 40
10.0
 40
11.0
 40
11.0
 40
11.0
 40
12.0
 40
12.0
 40
12.0
 40
13.0
 40
13.0
 40
13.0
 40
14.0
 40
14.0
 40
14.0
 40
15.0
 40
15.0
 40
15.0
 40
16.0
 40
16.0
 40
16.0
 40
17.0
 40
17.0
 40
17.0
 40
18.0
 40
18.0
 40
18.0
 40
19.0
 40
19.0
 40
19.0
 40
20.0
 40
20.0
 40
20.0
 40
21.0
 40
21.0
 40
21.0
 40
22.0
 40
22.0
 40
22.0
 40
23.0
 40
23.0
 40
23.0
 40
24.0
 40
24.0
 40
24.0
 40
25.0
 40
25.0
 40
25.0
 40
26.0
 40
26.0
 40
26.0
 40
27.0
 40
27.0
 40
27.0
 40
28.0
 40
28.0
 40
28.0
 40
29.0
 40
29.0
 40
29.0
 40
30.0
 40
30.0
 40
30.0
 40
31.0
 40
31.0
 40
31.0
 40
32.0
 40
32.0
 40
32.0
 40
33.0
 40
33.0
 40
33.0
 40
34.0
 40
34.0
 40
34.0
 40
35.0
 40
35.0
 40
35.0
 40
36.0
 40
36.0
 40
36.0
 40
37.0
 40
37.0
 40
37.0
 40
38.0
 40
38.0
 40
38.0
 40
39.0
 40
39.0
 40
39.0
 40
40.0
 40
40.0
 40
40.0
 40
41.0
 40
41.0
 40
41.0
 40
42.0
 40
42.0
 40
42.0
 40
43.0
 40
43.0
 40
43.0
 40
44.0
 40
44.0
 40
44.0
 40
45.0
 40
45.0
 40
45.0
 40
46.0
 40
46.0
 40
46.0
 40
47.0
 40
47.0
 40
47.0
 40
48.0
 40
48.0
 40
48.0
 40
49.0
 40
49.0
 40
49.0
 40
50.0
 40
50.0
 40
50.0
 40
51.0
 40
51.0
 40
51.0
 40
52.0
 40
52.0
 40
52.0
 40
53.0
 40
53.0
 40
53.0
 40
54.0
 40
54.0
 40
54.0
 40
55.0
 40
55.0
 40
55.0
 40
56.0
 40
56.0
 40
56.0
 40
57.0
 40
57.0
 40
57.0
 40
58.0
 40
58.0
 40
58.0
 40
59.0
 40
59.0
 40
59.0
 40
60.0
 40
60.0
 40
60.0
 40
61.0
 40
61.0
 40
61.0
 40
62.0
 40
62.0
 40
62.0
 40
63.0
 40
63.0
 40
63.0
 40
64.0
 40
64.0
 40
64.0
 40
65.0
 40
65.0
 40
65.0
 40
66.0
 40
66.0
 40
66.0
 40
66.0
 10
65.8628187226836
 20
-135.6079155476953
 30
0.0
 10
65.8628187226836
 20
-135.6079155476953
 30
0.0
 10
65.37395967332665
 20
-135.6079155476953
 30
0.0
 10
65.37395967332665
 20
-135.6079155476953
 30
0.0
 10
65.36465791551647
 20
-135.652357279455
 30
0.0
 10
65.35725096022318
 20
-135.6840521579193
 30
0.0
 10
65.34622665467039
 20
-135.721948208257
 30
0.0
 10
65.36827526577599
 20
-135.721948208257
 30
0.0
 10
65.38136662861994
 20
-135.7243597750967
 30
0.0
 10
65.38687878139633
 20
-135.7243597750967
 30
0.0
 10
65.38687878139633
 20
-135.7243597750967
 30
0.0
 10
65.55172660036554
 20
-135.7243597750967
 30
0.0
 10
65.55172660036554
 20
-135.7243597750967
 30
0.0
 10
65.55172660036554
 20
-135.7243597750967
 30
0.0
 10
65.87952743578707
 20
-135.7243597750967
 30
0.0
 10
65.87952743578707
 20
-135.7243597750967
 30
0.0
 10
65.92396916754679
 20
-135.7243597750967
 30
0.0
 10
66.17201604248477
 20
-135.7116129218013
 30
0.0
 10
66.19974906114103
 20
-135.7116129218013
 30
0.0
 10
66.19785425862415
 20
-135.7388291761347
 30
0.0
 10
66.19613171088153
 20
-135.7581217108522
 30
0.0
 10
66.19613171088153
 20
-135.7877495320253
 30
0.0
 10
66.19423690836464
 20
-135.8194444104896
 30
0.0
 10
66.19423690836464
 20
-135.9548366630599
 30
0.0
 10
66.19423690836464
 20
-135.9823974269419
 30
0.0
 10
66.19423690836464
 20
-135.9823974269419
 30
0.0
 10
66.19423690836464
 20
-136.2276882254917
 30
0.0
 10
66.19423690836464
 20
-136.2276882254917
 30
0.0
 10
66.19423690836464
 20
-136.2721299572514
 30
0.0
 10
66.19785425862415
 20
-136.4688449094592
 30
0.0
 10
66.20164386365792
 20
-136.6211181299072
 30
0.0
 10
66.20164386365792
 20
-136.6211181299072
 30
0.0
 10
66.00355087325606
 20
-136.6211181299072
 30
0.0
 10
66.00355087325606
 20
-136.6211181299072
 30
0.0
 10
66.00355087325606
 20
-136.6211181299072
 30
0.0
 10
66.00527342099869
 20
-136.5873561941518
 30
0.0
 10
66.00527342099869
 20
-136.5873561941518
 30
0.0
 10
66.00527342099869
 20
-136.5873561941518
 30
0.0
 10
65.39066838643011
 20
-136.5873561941518
 30
0.0
 10
65.39066838643011
 20
-136.5873561941518
 30
0.0
 10
65.39066838643011
 20
-136.5873561941518
 30
0.0
 10
65.39239093417274
 20
-136.6211181299072
 30
0.0
 10
65.39239093417274
 20
-136.6211181299072
 30
0.0
 10
65.39239093417274
 20
-136.6211181299072
 30
0.0
 10
65.20170489906415
 20
-136.6211181299072
 30
0.0
 10
65.20170489906415
 20
-136.6211181299072
 30
0.0
 10
65.20532224932367
 20
-136.5659966021432
 30
0.0
 10
65.20532224932367
 20
-136.5535942583963
 30
0.0
 10
65.21100665687433
 20
-136.439217088286
 30
0.0
 10
65.21290145939122
 20
-136.411656324404
 30
0.0
 10
65.21462400713385
 20
-136.2783311291249
 30
0.0
 10
65.21462400713385
 20
-136.259383103956
 30
0.0
 10
65.21462400713385
 20
-136.259383103956
 30
0.0
 10
65.21462400713385
 20
-136.0564669798748
 30
0.0
 10
65.21462400713385
 20
-136.0564669798748
 30
0.0
 10
65.09249537218174
 20
-136.3058918930069
 30
0.0
 10
64.94435626631599
 20
-136.4371500309949
 30
0.0
 10
64.85168319776278
 20
-136.5026068452146
 30
0.0
 10
64.85168319776278
 20
-136.5026068452146
 30
0.0
 10
64.69992674163753
 20
-136.363080478062
 30
0.0
 10
64.69992674163753
 20
-136.363080478062
 30
0.0
 10
64.7776136448299
 20
-136.3124375744288
 30
0.0
 10
64.90353188481579
 20
-136.2256211682005
 30
0.0
 10
65.02393797202527
 20
-136.0309732732839
 30
0.0
 10
65.10351967773454
 20
-135.9038492498782
 30
0.0
 10
65.16088051756395
 20
-135.7601887681433
 30
0.0
 10
65.1905083387371
 20
-135.6079155476953
 30
0.0
 10
64.99069280059261
 20
-135.6099826049864
 30
0.0
 10
64.8332519369167
 20
-135.6161837768599
 30
0.0
 10
64.74988062617365
 20
-135.618250834151
 30
0.0
 10
64.74988062617365
 20
-135.618250834151
 30
0.0
 10
64.74988062617365
 20
-135.4408284166606
 30
0.0
 10
64.74988062617365
 20
-135.4408284166606
 30
0.0
 10
64.92213540043613
 20
-135.4470295885341
 30
0.0
 10
65.17018227537413
 20
-135.4511637031164
 30
0.0
 10
65.30178492291067
 20
-135.4511637031164
 30
0.0
 10
65.30178492291067
 20
-135.4511637031164
 30
0.0
 10
65.48868135298547
 20
-135.4511637031164
 30
0.0
 10
65.48868135298547
 20
-135.4511637031164
 30
0.0
 10
65.48868135298547
 20
-135.4511637031164
 30
0.0
 10
65.48868135298547
 20
-135.3433322144281
 30
0.0
 10
65.48868135298547
 20
-135.3433322144281
 30
0.0
 10
65.48868135298547
 20
-135.3433322144281
 30
0.0
 10
65.36104056525697
 20
-135.3433322144281
 30
0.0
 10
65.36104056525697
 20
-135.3433322144281
 30
0.0
 10
65.21290145939122
 20
-135.3433322144281
 30
0.0
 10
65.06476235352548
 20
-135.3474663290104
 30
0.0
 10
64.91834579540236
 20
-135.3540120104323
 30
0.0
 10
64.91834579540236
 20
-135.3540120104323
 30
0.0
 10
64.91834579540236
 20
-135.1827907648154
 30
0.0
 10
64.91834579540236
 20
-135.1827907648154
 30
0.0
 10
65.05356579319842
 20
-135.1931260512712
 30
0.0
 10
65.21651880965074
 20
-135.1931260512712
 30
0.0
 10
65.36104056525697
 20
-135.1931260512712
 30
0.0
 10
65.36104056525697
 20
-135.1931260512712
 30
0.0
 10
65.48868135298547
 20
-135.1931260512712
 30
0.0
 10
65.48868135298547
 20
-135.1931260512712
 30
0.0
 10
65.48868135298547
 20
-135.1931260512712
 30
0.0
 10
65.48868135298547
 20
-135.0746147665786
 30
0.0
 10
65.48868135298547
 20
-135.0746147665786
 30
0.0
 10
65.48868135298547
 20
-135.0746147665786
 30
0.0
 10
65.37395967332665
 20
-135.0746147665786
 30
0.0
 10
65.37395967332665
 20
-135.0746147665786
 30
0.0
 10
65.33313529182644
 20
-135.0746147665786
 30
0.0
 10
65.15536836478755
 20
-135.0832275052917
 30
0.0
 10
65.11833358832111
 20
-135.0832275052917
 30
0.0
 10
64.94056666128222
 20
-135.087361619874
 30
0.0
 10
64.87390406364264
 20
-135.0894286771652
 30
0.0
 10
64.80534666348616
 20
-135.0914957344563
 30
0.0
 10
64.80534666348616
 20
-135.0914957344563
 30
0.0
 10
64.80534666348616
 20
-134.907527635544
 30
0.0
 10
64.80534666348616
 20
-134.907527635544
 30
0.0
 10
64.90542668733268
 20
-134.9161403742571
 30
0.0
 10
64.94435626631599
 20
-134.9161403742571
 30
0.0
 10
65.27939180225654
 20
-134.9244086034217
 30
0.0
 10
65.22392576494403
 20
-134.8293239680288
 30
0.0
 10
65.19981009654727
 20
-134.8017632041468
 30
0.0
 10
65.1684597276315
 20
-134.7659342111002
 30
0.0
 10
65.1684597276315
 20
-134.7659342111002
 30
0.0
 10
65.32211098627364
 20
-134.6832519194542
 30
0.0
 10
65.32211098627364
 20
-134.6832519194542
 30
0.0
 10
65.35725096022318
 20
-134.7194254220493
 30
0.0
 10
65.39618053920651
 20
-134.7618000965179
 30
0.0
 10
65.46094833432922
 20
-134.8716986424974
 30
0.0
 10
65.46094833432922
 20
-134.8716986424974
 30
0.0
 10
65.36104056525697
 20
-134.9264756607128
 30
0.0
 10
65.36104056525697
 20
-134.9264756607128
 30
0.0
 10
65.36104056525697
 20
-134.9264756607128
 30
0.0
 10
65.37017006829288
 20
-134.9264756607128
 30
0.0
 10
65.37017006829288
 20
-134.9264756607128
 30
0.0
 10
65.37017006829288
 20
-134.9264756607128
 30
0.0
 10
65.82750649395979
 20
-134.9264756607128
 30
0.0
 10
65.82750649395979
 20
-134.9264756607128
 30
0.0
 10
65.82750649395979
 20
-134.9264756607128
 30
0.0
 10
65.74430743799101
 20
-134.8823784385016
 30
0.0
 10
65.74430743799101
 20
-134.8823784385016
 30
0.0
 10
65.7682508516135
 20
-134.8441378786154
 30
0.0
 10
65.81837699092388
 20
-134.763867153809
 30
0.0
 10
65.83129609899356
 20
-134.6897976008762
 30
0.0
 10
65.83129609899356
 20
-134.6897976008762
 30
0.0
 10
66.01836478384263
 20
-134.7531873578048
 30
0.0
 10
66.01836478384263
 20
-134.7531873578048
 30
0.0
 10
66.02577173913592
 20
-134.7552544150959
 30
0.0
 10
66.044202999982
 20
-134.7659342111002
 30
0.0
 10
66.044202999982
 20
-134.7869492935602
 30
0.0
 10
66.044202999982
 20
-134.8251898534465
 30
0.0
 10
65.98684216015259
 20
-134.8251898534465
 30
0.0
 10
65.97013344704914
 20
-134.8251898534465
 30
0.0
 10
65.96083168923896
 20
-134.8441378786154
 30
0.0
 10
65.94050562587599
 20
-134.8844454957928
 30
0.0
 10
65.91466740973661
 20
-134.9244086034217
 30
0.0
 10
66.264689111038
 20
-134.9182074315482
 30
0.0
 10
66.29052732717737
 20
-134.9161403742571
 30
0.0
 10
66.35718992481695
 20
-134.9095946928351
 30
0.0
 10
66.35718992481695
 20
-134.9095946928351
 30
0.0
 10
66.35718992481695
 20
-135.0914957344563
 30
0.0
 10
66.35718992481695
 20
-135.0914957344563
 30
0.0
 10
66.3404812117135
 20
-135.0914957344563
 30
0.0
 10
66.31826034583364
 20
-135.0894286771652
 30
0.0
 10
66.12567950820817
 20
-135.0811604480006
 30
0.0
 10
66.08123777644845
 20
-135.0790933907094
 30
0.0
 10
65.88865693882298
 20
-135.0746147665786
 30
0.0
 10
65.84989961461392
 20
-135.0746147665786
 30
0.0
 10
65.84989961461392
 20
-135.0746147665786
 30
0.0
 10
65.66093612724796
 20
-135.0746147665786
 30
0.0
 10
65.66093612724796
 20
-135.0746147665786
 30
0.0
 10
65.66093612724796
 20
-135.0746147665786
 30
0.0
 10
65.66093612724796
 20
-135.1931260512712
 30
0.0
 10
65.66093612724796
 20
-135.1931260512712
 30
0.0
 10
65.66093612724796
 20
-135.1931260512712
 30
0.0
 10
65.81269258337322
 20
-135.1931260512712
 30
0.0
 10
65.81269258337322
 20
-135.1931260512712
 30
0.0
 10
65.95531953646257
 20
-135.1931260512712
 30
0.0
 10
66.12206215794865
 20
-135.1931260512712
 30
0.0
 10
66.25900470348734
 20
-135.1827907648154
 30
0.0
 10
66.25900470348734
 20
-135.1827907648154
 30
0.0
 10
66.25900470348734
 20
-135.3540120104323
 30
0.0
 10
66.25900470348734
 20
-135.3540120104323
 30
0.0
 10
66.07572562367204
 20
-135.3453992717192
 30
0.0
 10
65.90347084940956
 20
-135.3433322144281
 30
0.0
 10
65.81269258337322
 20
-135.3433322144281
 30
0.0
 10
65.81269258337322
 20
-135.3433322144281
 30
0.0
 10
65.66093612724796
 20
-135.3433322144281
 30
0.0
 10
65.66093612724796
 20
-135.3433322144281
 30
0.0
 10
65.66093612724796
 20
-135.3433322144281
 30
0.0
 10
65.66093612724796
 20
-135.4511637031164
 30
0.0
 10
65.66093612724796
 20
-135.4511637031164
 30
0.0
 10
65.66093612724796
 20
-135.4511637031164
 30
0.0
 10
65.8628187226836
 20
-135.4511637031164
 30
0.0
 10
65.8628187226836
 20
-135.4511637031164
 30
0.0
 10
65.97943520485931
 20
-135.4511637031164
 30
0.0
 10
66.23127168483107
 20
-135.4470295885341
 30
0.0
 10
66.41455076464636
 20
-135.4408284166606
 30
0.0
 10
66.41455076464636
 20
-135.4408284166606
 30
0.0
 10
66.41455076464636
 20
-135.618250834151
 30
0.0
 10
66.41455076464636
 20
-135.618250834151
 30
0.0
 10
66.24608559541765
 20
-135.6120496622775
 30
0.0
 10
65.97202824956602
 20
-135.6079155476953
 30
0.0
 10
65.8628187226836
 20
-135.6079155476953
 30
0.0
  0
POLYLINE
  5
381
330
378
100
AcDbEntity
  8
_U+30EC_U+30A4_U+30E4_U+30FC 1
370
     0
100
AcDb2dPolyline
 66
     1
 10
0.0
 20
0.0
 30
0.0
  0
VERTEX
  5
382
330
381
100
AcDbEntity
  8
_U+30EC_U+30A4_U+30E4_U+30FC 1
370
     0
100
AcDbVertex
100
AcDb2dVertex
 10
66.00716822351558
 20
-135.8638861422493
 30
0.0
  0
VERTEX
  5
383
330
381
100
AcDbEntity
  8
_U+30EC_U+30A4_U+30E4_U+30FC 1
370
     0
100
AcDbVertex
100
AcDb2dVertex
 10
65.38877358391322
 20
-135.8638861422493
 30
0.0
  0
VERTEX
  5
384
330
381
100
AcDbEntity
  8
_U+30EC_U+30A4_U+30E4_U+30FC 1
370
     0
100
AcDbVertex
100
AcDb2dVertex
 10
65.38877358391322
 20
-135.9717176309376
 30
0.0
  0
VERTEX
  5
385
330
381
100
AcDbEntity
  8
_U+30EC_U+30A4_U+30E4_U+30FC 1
370
     0
100
AcDbVertex
100
AcDb2dVertex
 10
66.00716822351558
 20
-135.9717176309376
 30
0.0
  0
VERTEX
  5
386
330
381
100
AcDbEntity
  8
_U+30EC_U+30A4_U+30E4_U+30FC 1
370
     0
100
AcDbVertex
100
AcDb2dVertex
 10
66.00716822351558
 20
-135.8638861422493
 30
0.0
  0
SEQEND
  5
387
330
381
100
AcDbEntity
  8
_U+30EC_U+30A4_U+30E4_U+30FC 1
370
     0
  0
POLYLINE
  5
388
330
378
100
AcDbEntity
  8
_U+30EC_U+30A4_U+30E4_U+30FC 1
370
     0
100
AcDb2dPolyline
 66
     1
 10
0.0
 20
0.0
 30
0.0
  0
VERTEX
  5
389
330
388
100
AcDbEntity
  8
_U+30EC_U+30A4_U+30E4_U+30FC 1
370
     0
100
AcDbVertex
100
AcDb2dVertex
 10
66.00716822351558
 20
-136.0964300875037
 30
0.0
  0
VERTEX
  5
38A
330
388
100
AcDbEntity
  8
_U+30EC_U+30A4_U+30E4_U+30FC 1
370
     0
100
AcDbVertex
100
AcDb2dVertex
 10
65.38877358391322
 20
-136.0964300875037
 30
0.0
  0
VERTEX
  5
38B
330
388
100
AcDbEntity
  8
_U+30EC_U+30A4_U+30E4_U+30FC 1
370
     0
100
AcDbVertex
100
AcDb2dVertex
 10
65.38877358391322
 20
-136.210807257614
 30
0.0
  0
VERTEX
  5
38C
330
388
100
AcDbEntity
  8
_U+30EC_U+30A4_U+30E4_U+30FC 1
370
     0
100
AcDbVertex
100
AcDb2dVertex
 10
66.00716822351558
 20
-136.210807257614
 30
0.0
  0
VERTEX
  5
38D
330
388
100
AcDbEntity
  8
_U+30EC_U+30A4_U+30E4_U+30FC 1
370
     0
100
AcDbVertex
100
AcDb2dVertex
 10
66.00716822351558
 20
-136.0964300875037
 30
0.0
  0
SEQEND
  5
38E
330
388
100
AcDbEntity
  8
_U+30EC_U+30A4_U+30E4_U+30FC 1
370
     0
  0
POLYLINE
  5
38F
330
378
100
AcDbEntity
  8
_U+30EC_U+30A4_U+30E4_U+30FC 1
370
     0
100
AcDb2dPolyline
 66
     1
 10
0.0
 20
0.0
 30
0.0
  0
VERTEX
  5
390
330
38F
100
AcDbEntity
  8
_U+30EC_U+30A4_U+30E4_U+30FC 1
370
     0
100
AcDbVertex
100
AcDb2dVertex
 10
66.00716822351558
 20
-136.3396538287623
 30
0.0
  0
VERTEX
  5
391
330
38F
100
AcDbEntity
  8
_U+30EC_U+30A4_U+30E4_U+30FC 1
370
     0
100
AcDbVertex
100
AcDb2dVertex
 10
65.38877358391322
 20
-136.3396538287623
 30
0.0
  0
VERTEX
  5
392
330
38F
100
AcDbEntity
  8
_U+30EC_U+30A4_U+30E4_U+30FC 1
370
     0
100
AcDbVertex
100
AcDb2dVertex
 10
65.38877358391322
 20
-136.4540309988726
 30
0.0
  0
VERTEX
  5
393
330
38F
100
AcDbEntity
  8
_U+30EC_U+30A4_U+30E4_U+30FC 1
370
     0
100
AcDbVertex
100
AcDb2dVertex
 10
66.00716822351558
 20
-136.4540309988726
 30
0.0
  0
VERTEX
  5
394
330
38F
100
AcDbEntity
  8
_U+30EC_U+30A4_U+30E4_U+30FC 1
370
     0
100
AcDbVertex
100
AcDb2dVertex
 10
66.00716822351558
 20
-136.3396538287623
 30
0.0
  0
SEQEND
  5
395
330
38F
100
AcDbEntity
  8
_U+30EC_U+30A4_U+30E4_U+30FC 1
370
     0
  0
HATCH
  5
396
330
378
100
AcDbEntity
  8
_U+30EC_U+30A4_U+30E4_U+30FC 1
 62
   179
420
  2234388
100
AcDbHatch
 10
0.0
 20
0.0
 30
0.0
210
0.0
220
0.0
230
1.0
  2
SOLID
 70
     1
 71
     0
 91
        4
 92
        1
 93
        1
 72
     4
 94
        3
 73
     0
 74
     1
 95
      203
 96
      199
 40
0.0
 40
0.0
 40
0.0
 40
0.0
 40
1.0
 40
1.0
 40
1.0
 40
2.0
 40
2.0
 40
2.0
 40
3.0
 40
3.0
 40
3.0
 40
4.0
 40
4.0
 40
4.0
 40
5.0
 40
5.0
 40
5.0
 40
6.0
 40
6.0
 40
6.0
 40
7.0
 40
7.0
 40
7.0
 40
8.0
 40
8.0
 40
8.0
 40
9.0
 40
9.0
 40
9.0
 40
10.0
 40
10.0
 40
10.0
 40
11.0
 40
11.0
 40
11.0
 40
12.0
 40
12.0
 40
12.0
 40
13.0
 40
13.0
 40
13.0
 40
14.0
 40
14.0
 40
14.0
 40
15.0
 40
15.0
 40
15.0
 40
16.0
 40
16.0
 40
16.0
 40
17.0
 40
17.0
 40
17.0
 40
18.0
 40
18.0
 40
18.0
 40
19.0
 40
19.0
 40
19.0
 40
20.0
 40
20.0
 40
20.0
 40
21.0
 40
21.0
 40
21.0
 40
22.0
 40
22.0
 40
22.0
 40
23.0
 40
23.0
 40
23.0
 40
24.0
 40
24.0
 40
24.0
 40
25.0
 40
25.0
 40
25.0
 40
26.0
 40
26.0
 40
26.0
 40
27.0
 40
27.0
 40
27.0
 40
28.0
 40
28.0
 40
28.0
 40
29.0
 40
29.0
 40
29.0
 40
30.0
 40
30.0
 40
30.0
 40
31.0
 40
31.0
 40
31.0
 40
32.0
 40
32.0
 40
32.0
 40
33.0
 40
33.0
 40
33.0
 40
34.0
 40
34.0
 40
34.0
 40
35.0
 40
35.0
 40
35.0
 40
36.0
 40
36.0
 40
36.0
 40
37.0
 40
37.0
 40
37.0
 40
38.0
 40
38.0
 40
38.0
 40
39.0
 40
39.0
 40
39.0
 40
40.0
 40
40.0
 40
40.0
 40
41.0
 40
41.0
 40
41.0
 40
42.0
 40
42.0
 40
42.0
 40
43.0
 40
43.0
 40
43.0
 40
44.0
 40
44.0
 40
44.0
 40
45.0
 40
45.0
 40
45.0
 40
46.0
 40
46.0
 40
46.0
 40
47.0
 40
47.0
 40
47.0
 40
48.0
 40
48.0
 40
48.0
 40
49.0
 40
49.0
 40
49.0
 40
50.0
 40
50.0
 40
50.0
 40
51.0
 40
51.0
 40
51.0
 40
52.0
 40
52.0
 40
52.0
 40
53.0
 40
53.0
 40
53.0
 40
54.0
 40
54.0
 40
54.0
 40
55.0
 40
55.0
 40
55.0
 40
56.0
 40
56.0
 40
56.0
 40
57.0
 40
57.0
 40
57.0
 40
58.0
 40
58.0
 40
58.0
 40
59.0
 40
59.0
 40
59.0
 40
60.0
 40
60.0
 40
60.0
 40
61.0
 40
61.0
 40
61.0
 40
62.0
 40
62.0
 40
62.0
 40
63.0
 40
63.0
 40
63.0
 40
64.0
 40
64.0
 40
64.0
 40
65.0
 40
65.0
 40
65.0
 40
66.0
 40
66.0
 40
66.0
 40
66.0
 10
65.8628187226836
 20
-135.6079155476953
 10
65.8628187226836
 20
-135.6079155476953
 10
65.37395967332665
 20
-135.6079155476953
 10
65.37395967332665
 20
-135.6079155476953
 10
65.36465791551647
 20
-135.652357279455
 10
65.35725096022318
 20
-135.6840521579193
 10
65.34622665467039
 20
-135.721948208257
 10
65.36827526577599
 20
-135.721948208257
 10
65.38136662861994
 20
-135.7243597750967
 10
65.38687878139633
 20
-135.7243597750967
 10
65.38687878139633
 20
-135.7243597750967
 10
65.55172660036554
 20
-135.7243597750967
 10
65.55172660036554
 20
-135.7243597750967
 10
65.55172660036554
 20
-135.7243597750967
 10
65.87952743578707
 20
-135.7243597750967
 10
65.87952743578707
 20
-135.7243597750967
 10
65.92396916754679
 20
-135.7243597750967
 10
66.17201604248477
 20
-135.7116129218013
 10
66.19974906114103
 20
-135.7116129218013
 10
66.19785425862415
 20
-135.7388291761347
 10
66.19613171088153
 20
-135.7581217108522
 10
66.19613171088153
 20
-135.7877495320253
 10
66.19423690836464
 20
-135.8194444104896
 10
66.19423690836464
 20
-135.9548366630599
 10
66.19423690836464
 20
-135.9823974269419
 10
66.19423690836464
 20
-135.9823974269419
 10
66.19423690836464
 20
-136.2276882254917
 10
66.19423690836464
 20
-136.2276882254917
 10
66.19423690836464
 20
-136.2721299572514
 10
66.19785425862415
 20
-136.4688449094592
 10
66.20164386365792
 20
-136.6211181299072
 10
66.20164386365792
 20
-136.6211181299072
 10
66.00355087325606
 20
-136.6211181299072
 10
66.00355087325606
 20
-136.6211181299072
 10
66.00355087325606
 20
-136.6211181299072
 10
66.00527342099869
 20
-136.5873561941518
 10
66.00527342099869
 20
-136.5873561941518
 10
66.00527342099869
 20
-136.5873561941518
 10
65.39066838643011
 20
-136.5873561941518
 10
65.39066838643011
 20
-136.5873561941518
 10
65.39066838643011
 20
-136.5873561941518
 10
65.39239093417274
 20
-136.6211181299072
 10
65.39239093417274
 20
-136.6211181299072
 10
65.39239093417274
 20
-136.6211181299072
 10
65.20170489906415
 20
-136.6211181299072
 10
65.20170489906415
 20
-136.6211181299072
 10
65.20532224932367
 20
-136.5659966021432
 10
65.20532224932367
 20
-136.5535942583963
 10
65.21100665687433
 20
-136.439217088286
 10
65.21290145939122
 20
-136.411656324404
 10
65.21462400713385
 20
-136.2783311291249
 10
65.21462400713385
 20
-136.259383103956
 10
65.21462400713385
 20
-136.259383103956
 10
65.21462400713385
 20
-136.0564669798748
 10
65.21462400713385
 20
-136.0564669798748
 10
65.09249537218174
 20
-136.3058918930069
 10
64.94435626631599
 20
-136.4371500309949
 10
64.85168319776278
 20
-136.5026068452146
 10
64.85168319776278
 20
-136.5026068452146
 10
64.69992674163753
 20
-136.363080478062
 10
64.69992674163753
 20
-136.363080478062
 10
64.7776136448299
 20
-136.3124375744288
 10
64.90353188481579
 20
-136.2256211682005
 10
65.02393797202527
 20
-136.0309732732839
 10
65.10351967773454
 20
-135.9038492498782
 10
65.16088051756395
 20
-135.7601887681433
 10
65.1905083387371
 20
-135.6079155476953
 10
64.99069280059261
 20
-135.6099826049864
 10
64.8332519369167
 20
-135.6161837768599
 10
64.74988062617365
 20
-135.618250834151
 10
64.74988062617365
 20
-135.618250834151
 10
64.74988062617365
 20
-135.4408284166606
 10
64.74988062617365
 20
-135.4408284166606
 10
64.92213540043613
 20
-135.4470295885341
 10
65.17018227537413
 20
-135.4511637031164
 10
65.30178492291067
 20
-135.4511637031164
 10
65.30178492291067
 20
-135.4511637031164
 10
65.48868135298547
 20
-135.4511637031164
 10
65.48868135298547
 20
-135.4511637031164
 10
65.48868135298547
 20
-135.4511637031164
 10
65.48868135298547
 20
-135.3433322144281
 10
65.48868135298547
 20
-135.3433322144281
 10
65.48868135298547
 20
-135.3433322144281
 10
65.36104056525697
 20
-135.3433322144281
 10
65.36104056525697
 20
-135.3433322144281
 10
65.21290145939122
 20
-135.3433322144281
 10
65.06476235352548
 20
-135.3474663290104
 10
64.91834579540236
 20
-135.3540120104323
 10
64.91834579540236
 20
-135.3540120104323
 10
64.91834579540236
 20
-135.1827907648154
 10
64.91834579540236
 20
-135.1827907648154
 10
65.05356579319842
 20
-135.1931260512712
 10
65.21651880965074
 20
-135.1931260512712
 10
65.36104056525697
 20
-135.1931260512712
 10
65.36104056525697
 20
-135.1931260512712
 10
65.48868135298547
 20
-135.1931260512712
 10
65.48868135298547
 20
-135.1931260512712
 10
65.48868135298547
 20
-135.1931260512712
 10
65.48868135298547
 20
-135.0746147665786
 10
65.48868135298547
 20
-135.0746147665786
 10
65.48868135298547
 20
-135.0746147665786
 10
65.37395967332665
 20
-135.0746147665786
 10
65.37395967332665
 20
-135.0746147665786
 10
65.33313529182644
 20
-135.0746147665786
 10
65.15536836478755
 20
-135.0832275052917
 10
65.11833358832111
 20
-135.0832275052917
 10
64.94056666128222
 20
-135.087361619874
 10
64.87390406364264
 20
-135.0894286771652
 10
64.80534666348616
 20
-135.0914957344563
 10
64.80534666348616
 20
-135.0914957344563
 10
64.80534666348616
 20
-134.907527635544
 10
64.80534666348616
 20
-134.907527635544
 10
64.90542668733268
 20
-134.9161403742571
 10
64.94435626631599
 20
-134.9161403742571
 10
65.27939180225654
 20
-134.9244086034217
 10
65.22392576494403
 20
-134.8293239680288
 10
65.19981009654727
 20
-134.8017632041468
 10
65.1684597276315
 20
-134.7659342111002
 10
65.1684597276315
 20
-134.7659342111002
 10
65.32211098627364
 20
-134.6832519194542
 10
65.32211098627364
 20
-134.6832519194542
 10
65.35725096022318
 20
-134.7194254220493
 10
65.39618053920651
 20
-134.7618000965179
 10
65.46094833432922
 20
-134.8716986424974
 10
65.46094833432922
 20
-134.8716986424974
 10
65.36104056525697
 20
-134.9264756607128
 10
65.36104056525697
 20
-134.9264756607128
 10
65.36104056525697
 20
-134.9264756607128
 10
65.37017006829288
 20
-134.9264756607128
 10
65.37017006829288
 20
-134.9264756607128
 10
65.37017006829288
 20
-134.9264756607128
 10
65.82750649395979
 20
-134.9264756607128
 10
65.82750649395979
 20
-134.9264756607128
 10
65.82750649395979
 20
-134.9264756607128
 10
65.74430743799101
 20
-134.8823784385016
 10
65.74430743799101
 20
-134.8823784385016
 10
65.7682508516135
 20
-134.8441378786154
 10
65.81837699092388
 20
-134.763867153809
 10
65.83129609899356
 20
-134.6897976008762
 10
65.83129609899356
 20
-134.6897976008762
 10
66.01836478384263
 20
-134.7531873578048
 10
66.01836478384263
 20
-134.7531873578048
 10
66.02577173913592
 20
-134.7552544150959
 10
66.044202999982
 20
-134.7659342111002
 10
66.044202999982
 20
-134.7869492935602
 10
66.044202999982
 20
-134.8251898534465
 10
65.98684216015259
 20
-134.8251898534465
 10
65.97013344704914
 20
-134.8251898534465
 10
65.96083168923896
 20
-134.8441378786154
 10
65.94050562587599
 20
-134.8844454957928
 10
65.91466740973661
 20
-134.9244086034217
 10
66.264689111038
 20
-134.9182074315482
 10
66.29052732717737
 20
-134.9161403742571
 10
66.35718992481695
 20
-134.9095946928351
 10
66.35718992481695
 20
-134.9095946928351
 10
66.35718992481695
 20
-135.0914957344563
 10
66.35718992481695
 20
-135.0914957344563
 10
66.3404812117135
 20
-135.0914957344563
 10
66.31826034583364
 20
-135.0894286771652
 10
66.12567950820817
 20
-135.0811604480006
 10
66.08123777644845
 20
-135.0790933907094
 10
65.88865693882298
 20
-135.0746147665786
 10
65.84989961461392
 20
-135.0746147665786
 10
65.84989961461392
 20
-135.0746147665786
 10
65.66093612724796
 20
-135.0746147665786
 10
65.66093612724796
 20
-135.0746147665786
 10
65.66093612724796
 20
-135.0746147665786
 10
65.66093612724796
 20
-135.1931260512712
 10
65.66093612724796
 20
-135.1931260512712
 10
65.66093612724796
 20
-135.1931260512712
 10
65.81269258337322
 20
-135.1931260512712
 10
65.81269258337322
 20
-135.1931260512712
 10
65.95531953646257
 20
-135.1931260512712
 10
66.12206215794865
 20
-135.1931260512712
 10
66.25900470348734
 20
-135.1827907648154
 10
66.25900470348734
 20
-135.1827907648154
 10
66.25900470348734
 20
-135.3540120104323
 10
66.25900470348734
 20
-135.3540120104323
 10
66.07572562367204
 20
-135.3453992717192
 10
65.90347084940956
 20
-135.3433322144281
 10
65.81269258337322
 20
-135.3433322144281
 10
65.81269258337322
 20
-135.3433322144281
 10
65.66093612724796
 20
-135.3433322144281
 10
65.66093612724796
 20
-135.3433322144281
 10
65.66093612724796
 20
-135.3433322144281
 10
65.66093612724796
 20
-135.4511637031164
 10
65.66093612724796
 20
-135.4511637031164
 10
65.66093612724796
 20
-135.4511637031164
 10
65.8628187226836
 20
-135.4511637031164
 10
65.8628187226836
 20
-135.4511637031164
 10
65.97943520485931
 20
-135.4511637031164
 10
66.23127168483107
 20
-135.4470295885341
 10
66.41455076464636
 20
-135.4408284166606
 10
66.41455076464636
 20
-135.4408284166606
 10
66.41455076464636
 20
-135.618250834151
 10
66.41455076464636
 20
-135.618250834151
 10
66.24608559541765
 20
-135.6120496622775
 10
65.97202824956602
 20
-135.6079155476953
 10
65.8628187226836
 20
-135.6079155476953
 97
        0
 97
        0
 92
        1
 93
        4
 72
     1
 10
66.00716822351558
 20
-135.8638861422493
 11
65.38877358391322
 21
-135.8638861422493
 72
     1
 10
65.38877358391322
 20
-135.8638861422493
 11
65.38877358391322
 21
-135.9717176309376
 72
     1
 10
65.38877358391322
 20
-135.9717176309376
 11
66.00716822351558
 21
-135.9717176309376
 72
     1
 10
66.00716822351558
 20
-135.9717176309376
 11
66.00716822351558
 21
-135.8638861422493
 97
        0
 92
        1
 93
        4
 72
     1
 10
66.00716822351558
 20
-136.0964300875037
 11
65.38877358391322
 21
-136.0964300875037
 72
     1
 10
65.38877358391322
 20
-136.0964300875037
 11
65.38877358391322
 21
-136.210807257614
 72
     1
 10
65.38877358391322
 20
-136.210807257614
 11
66.00716822351558
 21
-136.210807257614
 72
     1
 10
66.00716822351558
 20
-136.210807257614
 11
66.00716822351558
 21
-136.0964300875037
 97
        0
 92
        1
 93
        4
 72
     1
 10
66.00716822351558
 20
-136.3396538287623
 11
65.38877358391322
 21
-136.3396538287623
 72
     1
 10
65.38877358391322
 20
-136.3396538287623
 11
65.38877358391322
 21
-136.4540309988726
 72
     1
 10
65.38877358391322
 20
-136.4540309988726
 11
66.00716822351558
 21
-136.4540309988726
 72
     1
 10
66.00716822351558
 20
-136.4540309988726
 11
66.00716822351558
 21
-136.3396538287623
 97
        0
 75
     2
 76
     1
 98
        0
  0
SPLINE
  5
397
330
378
100
AcDbEntity
  8
_U+30EC_U+30A4_U+30E4_U+30FC 1
370
     0
100
AcDbSpline
210
0.0
220
0.0
230
1.0
 70
    11
 71
     3
 72
    47
 73
    43
 74
     0
 42
0.0000000001
 43
0.0000000001
 12
1.0
 22
0.0
 32
0.0
 13
1.0
 23
0.0
 33
0.0
 40
0.0
 40
0.0
 40
0.0
 40
0.0
 40
1.0
 40
1.0
 40
1.0
 40
2.0
 40
2.0
 40
2.0
 40
3.0
 40
3.0
 40
3.0
 40
4.0
 40
4.0
 40
4.0
 40
5.0
 40
5.0
 40
5.0
 40
6.0
 40
6.0
 40
6.0
 40
7.0
 40
7.0
 40
7.0
 40
8.0
 40
8.0
 40
8.0
 40
9.0
 40
9.0
 40
9.0
 40
10.0
 40
10.0
 40
10.0
 40
11.0
 40
11.0
 40
11.0
 40
12.0
 40
12.0
 40
12.0
 40
13.0
 40
13.0
 40
13.0
 40
14.0
 40
14.0
 40
14.0
 40
14.0
 10
67.59449596834443
 20
-135.5844888983956
 30
0.0
 10
67.59449596834443
 20
-135.5844888983956
 30
0.0
 10
67.505612504825
 20
-135.5844888983956
 30
0.0
 10
67.505612504825
 20
-135.5844888983956
 30
0.0
 10
67.505612504825
 20
-135.6713053046238
 30
0.0
 10
67.48700898920464
 20
-136.0606010944571
 30
0.0
 10
67.31492646971641
 20
-136.280398186416
 30
0.0
 10
67.18160127443724
 20
-136.4498968842903
 30
0.0
 10
67.00004474236458
 20
-136.5194878130924
 30
0.0
 10
66.92597518943171
 20
-136.5470485769744
 30
0.0
 10
66.92597518943171
 20
-136.5470485769744
 30
0.0
 10
66.7556152176861
 20
-136.3799614459397
 30
0.0
 10
66.7556152176861
 20
-136.3799614459397
 30
0.0
 10
66.84088133094603
 20
-136.3672145926443
 30
0.0
 10
66.99453258958818
 20
-136.3441324528931
 30
0.0
 10
67.15938040855738
 20
-136.15568572985
 30
0.0
 10
67.22414820368007
 20
-136.0836832342083
 30
0.0
 10
67.31492646971641
 20
-135.9441568670556
 30
0.0
 10
67.31492646971641
 20
-135.5844888983956
 30
0.0
 10
67.31492646971641
 20
-135.5844888983956
 30
0.0
 10
67.11304387428078
 20
-135.5844888983956
 30
0.0
 10
67.11304387428078
 20
-135.5844888983956
 30
0.0
 10
66.95009085782846
 20
-135.5844888983956
 30
0.0
 10
66.78713784137614
 20
-135.5889675225264
 30
0.0
 10
66.62418482492382
 20
-135.6037814331129
 30
0.0
 10
66.62418482492382
 20
-135.6037814331129
 30
0.0
 10
66.62418482492382
 20
-135.3836398316055
 30
0.0
 10
66.62418482492382
 20
-135.3836398316055
 30
0.0
 10
66.78903264389302
 20
-135.3984537421921
 30
0.0
 10
67.0389743213479
 20
-135.4025878567743
 30
0.0
 10
67.11304387428078
 20
-135.4025878567743
 30
0.0
 10
67.11304387428078
 20
-135.4025878567743
 30
0.0
 10
67.59449596834443
 20
-135.4025878567743
 30
0.0
 10
67.59449596834443
 20
-135.4025878567743
 30
0.0
 10
67.6112046814479
 20
-135.4025878567743
 30
0.0
 10
67.88887937755904
 20
-135.4025878567743
 30
0.0
 10
68.08886717047778
 20
-135.3836398316055
 30
0.0
 10
68.08886717047778
 20
-135.3836398316055
 30
0.0
 10
68.08886717047778
 20
-135.6037814331129
 30
0.0
 10
68.08886717047778
 20
-135.6037814331129
 30
0.0
 10
67.92401935150858
 20
-135.5889675225264
 30
0.0
 10
67.75934378731364
 20
-135.5844888983956
 30
0.0
 10
67.59449596834443
 20
-135.5844888983956
 30
0.0
  0
SPLINE
  5
398
330
378
100
AcDbEntity
  8
_U+30EC_U+30A4_U+30E4_U+30FC 1
370
     0
100
AcDbSpline
210
0.0
220
0.0
230
1.0
 70
    11
 71
     3
 72
    29
 73
    25
 74
     0
 42
0.0000000001
 43
0.0000000001
 12
1.0
 22
0.0
 32
0.0
 13
1.0
 23
0.0
 33
0.0
 40
0.0
 40
0.0
 40
0.0
 40
0.0
 40
1.0
 40
1.0
 40
1.0
 40
2.0
 40
2.0
 40
2.0
 40
3.0
 40
3.0
 40
3.0
 40
4.0
 40
4.0
 40
4.0
 40
5.0
 40
5.0
 40
5.0
 40
6.0
 40
6.0
 40
6.0
 40
7.0
 40
7.0
 40
7.0
 40
8.0
 40
8.0
 40
8.0
 40
8.0
 10
67.505612504825
 20
-135.0556667414097
 30
0.0
 10
67.505612504825
 20
-135.0556667414097
 30
0.0
 10
67.19641518502381
 20
-135.0556667414097
 30
0.0
 10
67.19641518502381
 20
-135.0556667414097
 30
0.0
 10
67.0982299636942
 20
-135.0556667414097
 30
0.0
 10
66.97592907396782
 20
-135.0622124228317
 30
0.0
 10
66.88153345767198
 20
-135.0746147665786
 30
0.0
 10
66.88153345767198
 20
-135.0746147665786
 30
0.0
 10
66.88153345767198
 20
-134.8400037640331
 30
0.0
 10
66.88153345767198
 20
-134.8400037640331
 30
0.0
 10
66.985230831778
 20
-134.8548176746196
 30
0.0
 10
67.14628904571343
 20
-134.8589517892019
 30
0.0
 10
67.19641518502381
 20
-134.8589517892019
 30
0.0
 10
67.19641518502381
 20
-134.8589517892019
 30
0.0
 10
67.505612504825
 20
-134.8589517892019
 30
0.0
 10
67.505612504825
 20
-134.8589517892019
 30
0.0
 10
67.52232121792845
 20
-134.8589517892019
 30
0.0
 10
67.70008814496734
 20
-134.8589517892019
 30
0.0
 10
67.82411158243633
 20
-134.8400037640331
 30
0.0
 10
67.82411158243633
 20
-134.8400037640331
 30
0.0
 10
67.82411158243633
 20
-135.0746147665786
 30
0.0
 10
67.82411158243633
 20
-135.0746147665786
 30
0.0
 10
67.68699678212339
 20
-135.0556667414097
 30
0.0
 10
67.52042641541156
 20
-135.0556667414097
 30
0.0
 10
67.505612504825
 20
-135.0556667414097
 30
0.0
  0
HATCH
  5
399
330
378
100
AcDbEntity
  8
_U+30EC_U+30A4_U+30E4_U+30FC 1
 62
   179
420
  2234388
100
AcDbHatch
 10
0.0
 20
0.0
 30
0.0
210
0.0
220
0.0
230
1.0
  2
SOLID
 70
     1
 71
     0
 91
        2
 92
        1
 93
        1
 72
     4
 94
        3
 73
     0
 74
     1
 95
       47
 96
       43
 40
0.0
 40
0.0
 40
0.0
 40
0.0
 40
1.0
 40
1.0
 40
1.0
 40
2.0
 40
2.0
 40
2.0
 40
3.0
 40
3.0
 40
3.0
 40
4.0
 40
4.0
 40
4.0
 40
5.0
 40
5.0
 40
5.0
 40
6.0
 40
6.0
 40
6.0
 40
7.0
 40
7.0
 40
7.0
 40
8.0
 40
8.0
 40
8.0
 40
9.0
 40
9.0
 40
9.0
 40
10.0
 40
10.0
 40
10.0
 40
11.0
 40
11.0
 40
11.0
 40
12.0
 40
12.0
 40
12.0
 40
13.0
 40
13.0
 40
13.0
 40
14.0
 40
14.0
 40
14.0
 40
14.0
 10
67.59449596834443
 20
-135.5844888983956
 10
67.59449596834443
 20
-135.5844888983956
 10
67.505612504825
 20
-135.5844888983956
 10
67.505612504825
 20
-135.5844888983956
 10
67.505612504825
 20
-135.6713053046238
 10
67.48700898920464
 20
-136.0606010944571
 10
67.31492646971641
 20
-136.280398186416
 10
67.18160127443724
 20
-136.4498968842903
 10
67.00004474236458
 20
-136.5194878130924
 10
66.92597518943171
 20
-136.5470485769744
 10
66.92597518943171
 20
-136.5470485769744
 10
66.7556152176861
 20
-136.3799614459397
 10
66.7556152176861
 20
-136.3799614459397
 10
66.84088133094603
 20
-136.3672145926443
 10
66.99453258958818
 20
-136.3441324528931
 10
67.15938040855738
 20
-136.15568572985
 10
67.22414820368007
 20
-136.0836832342083
 10
67.31492646971641
 20
-135.9441568670556
 10
67.31492646971641
 20
-135.5844888983956
 10
67.31492646971641
 20
-135.5844888983956
 10
67.11304387428078
 20
-135.5844888983956
 10
67.11304387428078
 20
-135.5844888983956
 10
66.95009085782846
 20
-135.5844888983956
 10
66.78713784137614
 20
-135.5889675225264
 10
66.62418482492382
 20
-135.6037814331129
 10
66.62418482492382
 20
-135.6037814331129
 10
66.62418482492382
 20
-135.3836398316055
 10
66.62418482492382
 20
-135.3836398316055
 10
66.78903264389302
 20
-135.3984537421921
 10
67.0389743213479
 20
-135.4025878567743
 10
67.11304387428078
 20
-135.4025878567743
 10
67.11304387428078
 20
-135.4025878567743
 10
67.59449596834443
 20
-135.4025878567743
 10
67.59449596834443
 20
-135.4025878567743
 10
67.6112046814479
 20
-135.4025878567743
 10
67.88887937755904
 20
-135.4025878567743
 10
68.08886717047778
 20
-135.3836398316055
 10
68.08886717047778
 20
-135.3836398316055
 10
68.08886717047778
 20
-135.6037814331129
 10
68.08886717047778
 20
-135.6037814331129
 10
67.92401935150858
 20
-135.5889675225264
 10
67.75934378731364
 20
-135.5844888983956
 10
67.59449596834443
 20
-135.5844888983956
 97
        0
 97
        0
 92
        1
 93
        1
 72
     4
 94
        3
 73
     0
 74
     1
 95
       29
 96
       25
 40
0.0
 40
0.0
 40
0.0
 40
0.0
 40
1.0
 40
1.0
 40
1.0
 40
2.0
 40
2.0
 40
2.0
 40
3.0
 40
3.0
 40
3.0
 40
4.0
 40
4.0
 40
4.0
 40
5.0
 40
5.0
 40
5.0
 40
6.0
 40
6.0
 40
6.0
 40
7.0
 40
7.0
 40
7.0
 40
8.0
 40
8.0
 40
8.0
 40
8.0
 10
67.505612504825
 20
-135.0556667414097
 10
67.505612504825
 20
-135.0556667414097
 10
67.19641518502381
 20
-135.0556667414097
 10
67.19641518502381
 20
-135.0556667414097
 10
67.0982299636942
 20
-135.0556667414097
 10
66.97592907396782
 20
-135.0622124228317
 10
66.88153345767198
 20
-135.0746147665786
 10
66.88153345767198
 20
-135.0746147665786
 10
66.88153345767198
 20
-134.8400037640331
 10
66.88153345767198
 20
-134.8400037640331
 10
66.985230831778
 20
-134.8548176746196
 10
67.14628904571343
 20
-134.8589517892019
 10
67.19641518502381
 20
-134.8589517892019
 10
67.19641518502381
 20
-134.8589517892019
 10
67.505612504825
 20
-134.8589517892019
 10
67.505612504825
 20
-134.8589517892019
 10
67.52232121792845
 20
-134.8589517892019
 10
67.70008814496734
 20
-134.8589517892019
 10
67.82411158243633
 20
-134.8400037640331
 10
67.82411158243633
 20
-134.8400037640331
 10
67.82411158243633
 20
-135.0746147665786
 10
67.82411158243633
 20
-135.0746147665786
 10
67.68699678212339
 20
-135.0556667414097
 10
67.52042641541156
 20
-135.0556667414097
 10
67.505612504825
 20
-135.0556667414097
 97
        0
 97
        0
 75
     2
 76
     1
 98
        0
  0
SPLINE
  5
39A
330
378
100
AcDbEntity
  8
_U+30EC_U+30A4_U+30E4_U+30FC 1
370
     0
100
AcDbSpline
210
0.0
220
0.0
230
1.0
 70
    11
 71
     3
 72
    29
 73
    25
 74
     0
 42
0.0000000001
 43
0.0000000001
 12
1.0
 22
0.0
 32
0.0
 13
1.0
 23
0.0
 33
0.0
 40
0.0
 40
0.0
 40
0.0
 40
0.0
 40
1.0
 40
1.0
 40
1.0
 40
2.0
 40
2.0
 40
2.0
 40
3.0
 40
3.0
 40
3.0
 40
4.0
 40
4.0
 40
4.0
 40
5.0
 40
5.0
 40
5.0
 40
6.0
 40
6.0
 40
6.0
 40
7.0
 40
7.0
 40
7.0
 40
8.0
 40
8.0
 40
8.0
 40
8.0
 10
69.21127927957218
 20
-135.7474419148479
 30
0.0
 10
69.21127927957218
 20
-135.7474419148479
 30
0.0
 10
68.78718802533793
 20
-135.7474419148479
 30
0.0
 10
68.78718802533793
 20
-135.7474419148479
 30
0.0
 10
68.76307235694118
 20
-135.7474419148479
 30
0.0
 10
68.48539766083005
 20
-135.7474419148479
 30
0.0
 10
68.30022377849787
 20
-135.7729356214387
 30
0.0
 10
68.30022377849787
 20
-135.7729356214387
 30
0.0
 10
68.30022377849787
 20
-135.542114223927
 30
0.0
 10
68.30022377849787
 20
-135.542114223927
 30
0.0
 10
68.43906112655343
 20
-135.5655408732267
 30
0.0
 10
68.60563149326526
 20
-135.5676079305178
 30
0.0
 10
68.78718802533793
 20
-135.5676079305178
 30
0.0
 10
68.78718802533793
 20
-135.5676079305178
 30
0.0
 10
69.21127927957218
 20
-135.5676079305178
 30
0.0
 10
69.21127927957218
 20
-135.5676079305178
 30
0.0
 10
69.3742322960245
 20
-135.5676079305178
 30
0.0
 10
69.53718531247682
 20
-135.5655408732267
 30
0.0
 10
69.69824352641224
 20
-135.542114223927
 30
0.0
 10
69.69824352641224
 20
-135.542114223927
 30
0.0
 10
69.69824352641224
 20
-135.7729356214387
 30
0.0
 10
69.69824352641224
 20
-135.7729356214387
 30
0.0
 10
69.53718531247682
 20
-135.749508972139
 30
0.0
 10
69.3204888064546
 20
-135.7474419148479
 30
0.0
 10
69.21127927957218
 20
-135.7474419148479
 30
0.0
  0
HATCH
  5
39B
330
378
100
AcDbEntity
  8
_U+30EC_U+30A4_U+30E4_U+30FC 1
 62
   179
420
  2234388
100
AcDbHatch
 10
0.0
 20
0.0
 30
0.0
210
0.0
220
0.0
230
1.0
  2
SOLID
 70
     1
 71
     0
 91
        1
 92
        1
 93
        1
 72
     4
 94
        3
 73
     0
 74
     1
 95
       29
 96
       25
 40
0.0
 40
0.0
 40
0.0
 40
0.0
 40
1.0
 40
1.0
 40
1.0
 40
2.0
 40
2.0
 40
2.0
 40
3.0
 40
3.0
 40
3.0
 40
4.0
 40
4.0
 40
4.0
 40
5.0
 40
5.0
 40
5.0
 40
6.0
 40
6.0
 40
6.0
 40
7.0
 40
7.0
 40
7.0
 40
8.0
 40
8.0
 40
8.0
 40
8.0
 10
69.21127927957218
 20
-135.7474419148479
 10
69.21127927957218
 20
-135.7474419148479
 10
68.78718802533793
 20
-135.7474419148479
 10
68.78718802533793
 20
-135.7474419148479
 10
68.76307235694118
 20
-135.7474419148479
 10
68.48539766083005
 20
-135.7474419148479
 10
68.30022377849787
 20
-135.7729356214387
 10
68.30022377849787
 20
-135.7729356214387
 10
68.30022377849787
 20
-135.542114223927
 10
68.30022377849787
 20
-135.542114223927
 10
68.43906112655343
 20
-135.5655408732267
 10
68.60563149326526
 20
-135.5676079305178
 10
68.78718802533793
 20
-135.5676079305178
 10
68.78718802533793
 20
-135.5676079305178
 10
69.21127927957218
 20
-135.5676079305178
 10
69.21127927957218
 20
-135.5676079305178
 10
69.3742322960245
 20
-135.5676079305178
 10
69.53718531247682
 20
-135.5655408732267
 10
69.69824352641224
 20
-135.542114223927
 10
69.69824352641224
 20
-135.542114223927
 10
69.69824352641224
 20
-135.7729356214387
 10
69.69824352641224
 20
-135.7729356214387
 10
69.53718531247682
 20
-135.749508972139
 10
69.3204888064546
 20
-135.7474419148479
 10
69.21127927957218
 20
-135.7474419148479
 97
        0
 97
        0
 75
     2
 76
     1
 98
        0
  0
SPLINE
  5
39C
330
378
100
AcDbEntity
  8
_U+30EC_U+30A4_U+30E4_U+30FC 1
370
     0
100
AcDbSpline
210
0.0
220
0.0
230
1.0
 70
    11
 71
     3
 72
    47
 73
    43
 74
     0
 42
0.0000000001
 43
0.0000000001
 12
1.0
 22
0.0
 32
0.0
 13
1.0
 23
0.0
 33
0.0
 40
0.0
 40
0.0
 40
0.0
 40
0.0
 40
1.0
 40
1.0
 40
1.0
 40
2.0
 40
2.0
 40
2.0
 40
3.0
 40
3.0
 40
3.0
 40
4.0
 40
4.0
 40
4.0
 40
5.0
 40
5.0
 40
5.0
 40
6.0
 40
6.0
 40
6.0
 40
7.0
 40
7.0
 40
7.0
 40
8.0
 40
8.0
 40
8.0
 40
9.0
 40
9.0
 40
9.0
 40
10.0
 40
10.0
 40
10.0
 40
11.0
 40
11.0
 40
11.0
 40
12.0
 40
12.0
 40
12.0
 40
13.0
 40
13.0
 40
13.0
 40
14.0
 40
14.0
 40
14.0
 40
14.0
 10
71.15551891667293
 20
-135.1531629436423
 30
0.0
 10
71.094540726584
 20
-135.4322156779475
 30
0.0
 10
71.02787812894442
 20
-135.7367621188436
 30
0.0
 10
70.75382078309279
 20
-136.0688693236217
 30
0.0
 10
70.54642603488075
 20
-136.3186387463023
 30
0.0
 10
70.33162433137544
 20
-136.418202005826
 30
0.0
 10
70.23895126282221
 20
-136.4602321707461
 30
0.0
 10
70.23895126282221
 20
-136.4602321707461
 30
0.0
 10
70.0685912910766
 20
-136.2783311291249
 30
0.0
 10
70.0685912910766
 20
-136.2783311291249
 30
0.0
 10
70.23154430752892
 20
-136.231822340074
 30
0.0
 10
70.54814858262338
 20
-136.1388047619722
 30
0.0
 10
70.80739201788843
 20
-135.6437445407418
 30
0.0
 10
70.9481241684609
 20
-135.3770941501835
 30
0.0
 10
70.95932072878796
 20
-135.2038058472754
 30
0.0
 10
70.96672768408123
 20
-135.1128553264649
 30
0.0
 10
70.96672768408123
 20
-135.1128553264649
 30
0.0
 10
70.5242051690009
 20
-135.1128553264649
 30
0.0
 10
70.5242051690009
 20
-135.1128553264649
 30
0.0
 10
70.42050779489487
 20
-135.1128553264649
 30
0.0
 10
70.05188257797315
 20
-135.1318033516337
 30
0.0
 10
69.91855738269398
 20
-135.142483147638
 30
0.0
 10
69.91855738269398
 20
-135.142483147638
 30
0.0
 10
69.91855738269398
 20
-134.9330213421348
 30
0.0
 10
69.91855738269398
 20
-134.9330213421348
 30
0.0
 10
70.04275307493724
 20
-134.9457681954302
 30
0.0
 10
70.28528779709882
 20
-134.9499023100125
 30
0.0
 10
70.38709036868795
 20
-134.9499023100125
 30
0.0
 10
70.38709036868795
 20
-134.9499023100125
 30
0.0
 10
70.69818249100601
 20
-134.9499023100125
 30
0.0
 10
70.69818249100601
 20
-134.9499023100125
 30
0.0
 10
70.72229815940277
 20
-134.9499023100125
 30
0.0
 10
70.86303030997522
 20
-134.9478352527214
 30
0.0
 10
70.95932072878796
 20
-134.9330213421348
 30
0.0
 10
71.00927461332407
 20
-134.9264756607128
 30
0.0
 10
71.02408852391065
 20
-134.907527635544
 30
0.0
 10
71.04441458727362
 20
-134.8844454957928
 30
0.0
 10
71.04441458727362
 20
-134.8844454957928
 30
0.0
 10
71.20926240624283
 20
-135.0346516589497
 30
0.0
 10
71.20926240624283
 20
-135.0346516589497
 30
0.0
 10
71.19634329817313
 20
-135.0642794801228
 30
0.0
 10
71.18704154036297
 20
-135.0832275052917
 30
0.0
 10
71.15551891667293
 20
-135.1531629436423
 30
0.0
  0
HATCH
  5
39D
330
378
100
AcDbEntity
  8
_U+30EC_U+30A4_U+30E4_U+30FC 1
 62
   179
420
  2234388
100
AcDbHatch
 10
0.0
 20
0.0
 30
0.0
210
0.0
220
0.0
230
1.0
  2
SOLID
 70
     1
 71
     0
 91
        1
 92
        1
 93
        1
 72
     4
 94
        3
 73
     0
 74
     1
 95
       47
 96
       43
 40
0.0
 40
0.0
 40
0.0
 40
0.0
 40
1.0
 40
1.0
 40
1.0
 40
2.0
 40
2.0
 40
2.0
 40
3.0
 40
3.0
 40
3.0
 40
4.0
 40
4.0
 40
4.0
 40
5.0
 40
5.0
 40
5.0
 40
6.0
 40
6.0
 40
6.0
 40
7.0
 40
7.0
 40
7.0
 40
8.0
 40
8.0
 40
8.0
 40
9.0
 40
9.0
 40
9.0
 40
10.0
 40
10.0
 40
10.0
 40
11.0
 40
11.0
 40
11.0
 40
12.0
 40
12.0
 40
12.0
 40
13.0
 40
13.0
 40
13.0
 40
14.0
 40
14.0
 40
14.0
 40
14.0
 10
71.15551891667293
 20
-135.1531629436423
 10
71.094540726584
 20
-135.4322156779475
 10
71.02787812894442
 20
-135.7367621188436
 10
70.75382078309279
 20
-136.0688693236217
 10
70.54642603488075
 20
-136.3186387463023
 10
70.33162433137544
 20
-136.418202005826
 10
70.23895126282221
 20
-136.4602321707461
 10
70.23895126282221
 20
-136.4602321707461
 10
70.0685912910766
 20
-136.2783311291249
 10
70.0685912910766
 20
-136.2783311291249
 10
70.23154430752892
 20
-136.231822340074
 10
70.54814858262338
 20
-136.1388047619722
 10
70.80739201788843
 20
-135.6437445407418
 10
70.9481241684609
 20
-135.3770941501835
 10
70.95932072878796
 20
-135.2038058472754
 10
70.96672768408123
 20
-135.1128553264649
 10
70.96672768408123
 20
-135.1128553264649
 10
70.5242051690009
 20
-135.1128553264649
 10
70.5242051690009
 20
-135.1128553264649
 10
70.42050779489487
 20
-135.1128553264649
 10
70.05188257797315
 20
-135.1318033516337
 10
69.91855738269398
 20
-135.142483147638
 10
69.91855738269398
 20
-135.142483147638
 10
69.91855738269398
 20
-134.9330213421348
 10
69.91855738269398
 20
-134.9330213421348
 10
70.04275307493724
 20
-134.9457681954302
 10
70.28528779709882
 20
-134.9499023100125
 10
70.38709036868795
 20
-134.9499023100125
 10
70.38709036868795
 20
-134.9499023100125
 10
70.69818249100601
 20
-134.9499023100125
 10
70.69818249100601
 20
-134.9499023100125
 10
70.72229815940277
 20
-134.9499023100125
 10
70.86303030997522
 20
-134.9478352527214
 10
70.95932072878796
 20
-134.9330213421348
 10
71.00927461332407
 20
-134.9264756607128
 10
71.02408852391065
 20
-134.907527635544
 10
71.04441458727362
 20
-134.8844454957928
 10
71.04441458727362
 20
-134.8844454957928
 10
71.20926240624283
 20
-135.0346516589497
 10
71.20926240624283
 20
-135.0346516589497
 10
71.19634329817313
 20
-135.0642794801228
 10
71.18704154036297
 20
-135.0832275052917
 10
71.15551891667293
 20
-135.1531629436423
 97
        0
 97
        0
 75
     2
 76
     1
 98
        0
  0
SPLINE
  5
39E
330
378
100
AcDbEntity
  8
_U+30EC_U+30A4_U+30E4_U+30FC 1
370
     0
100
AcDbSpline
210
0.0
220
0.0
230
1.0
 70
    11
 71
     3
 72
    17
 73
    13
 74
     0
 42
0.0000000001
 43
0.0000000001
 12
1.0
 22
0.0
 32
0.0
 13
1.0
 23
0.0
 33
0.0
 40
0.0
 40
0.0
 40
0.0
 40
0.0
 40
1.0
 40
1.0
 40
1.0
 40
2.0
 40
2.0
 40
2.0
 40
3.0
 40
3.0
 40
3.0
 40
4.0
 40
4.0
 40
4.0
 40
4.0
 10
71.7742580658238
 20
-134.935088399426
 30
0.0
 10
71.7742580658238
 20
-135.0494655695362
 30
0.0
 10
71.69278155759764
 20
-135.1445502049291
 30
0.0
 10
71.59080673123425
 20
-135.1445502049291
 30
0.0
 10
71.490898962162
 20
-135.1445502049291
 30
0.0
 10
71.40752765141896
 20
-135.0494655695362
 30
0.0
 10
71.40752765141896
 20
-134.935088399426
 30
0.0
 10
71.40752765141896
 20
-134.8186441720245
 30
0.0
 10
71.490898962162
 20
-134.7256265939228
 30
0.0
 10
71.59080673123425
 20
-134.7256265939228
 30
0.0
 10
71.69088675508075
 20
-134.7256265939228
 30
0.0
 10
71.7742580658238
 20
-134.8186441720245
 30
0.0
 10
71.7742580658238
 20
-134.935088399426
 30
0.0
  0
SPLINE
  5
39F
330
378
100
AcDbEntity
  8
_U+30EC_U+30A4_U+30E4_U+30FC 1
370
     0
100
AcDbSpline
210
0.0
220
0.0
230
1.0
 70
    11
 71
     3
 72
    17
 73
    13
 74
     0
 42
0.0000000001
 43
0.0000000001
 12
1.0
 22
0.0
 32
0.0
 13
1.0
 23
0.0
 33
0.0
 40
0.0
 40
0.0
 40
0.0
 40
0.0
 40
1.0
 40
1.0
 40
1.0
 40
2.0
 40
2.0
 40
2.0
 40
3.0
 40
3.0
 40
3.0
 40
4.0
 40
4.0
 40
4.0
 40
4.0
 10
71.49830591745528
 20
-134.935088399426
 30
0.0
 10
71.49830591745528
 20
-134.9943440417723
 30
0.0
 10
71.53895804418124
 20
-135.0408528308231
 30
0.0
 10
71.59080673123425
 20
-135.0408528308231
 30
0.0
 10
71.64265541828726
 20
-135.0408528308231
 30
0.0
 10
71.68537460230435
 20
-134.9943440417723
 30
0.0
 10
71.68537460230435
 20
-134.935088399426
 30
0.0
 10
71.68537460230435
 20
-134.8758327570796
 30
0.0
 10
71.64265541828726
 20
-134.8272569107376
 30
0.0
 10
71.59080673123425
 20
-134.8272569107376
 30
0.0
 10
71.53895804418124
 20
-134.8272569107376
 30
0.0
 10
71.49830591745528
 20
-134.8758327570796
 30
0.0
 10
71.49830591745528
 20
-134.935088399426
 30
0.0
  0
HATCH
  5
3A0
330
378
100
AcDbEntity
  8
_U+30EC_U+30A4_U+30E4_U+30FC 1
 62
   179
420
  2234388
100
AcDbHatch
 10
0.0
 20
0.0
 30
0.0
210
0.0
220
0.0
230
1.0
  2
SOLID
 70
     1
 71
     0
 91
        2
 92
        1
 93
        1
 72
     4
 94
        3
 73
     0
 74
     1
 95
       17
 96
       13
 40
0.0
 40
0.0
 40
0.0
 40
0.0
 40
1.0
 40
1.0
 40
1.0
 40
2.0
 40
2.0
 40
2.0
 40
3.0
 40
3.0
 40
3.0
 40
4.0
 40
4.0
 40
4.0
 40
4.0
 10
71.7742580658238
 20
-134.935088399426
 10
71.7742580658238
 20
-135.0494655695362
 10
71.69278155759764
 20
-135.1445502049291
 10
71.59080673123425
 20
-135.1445502049291
 10
71.490898962162
 20
-135.1445502049291
 10
71.40752765141896
 20
-135.0494655695362
 10
71.40752765141896
 20
-134.935088399426
 10
71.40752765141896
 20
-134.8186441720245
 10
71.490898962162
 20
-134.7256265939228
 10
71.59080673123425
 20
-134.7256265939228
 10
71.69088675508075
 20
-134.7256265939228
 10
71.7742580658238
 20
-134.8186441720245
 10
71.7742580658238
 20
-134.935088399426
 97
        0
 97
        0
 92
        1
 93
        1
 72
     4
 94
        3
 73
     0
 74
     1
 95
       17
 96
       13
 40
0.0
 40
0.0
 40
0.0
 40
0.0
 40
1.0
 40
1.0
 40
1.0
 40
2.0
 40
2.0
 40
2.0
 40
3.0
 40
3.0
 40
3.0
 40
4.0
 40
4.0
 40
4.0
 40
4.0
 10
71.49830591745528
 20
-134.935088399426
 10
71.49830591745528
 20
-134.9943440417723
 10
71.53895804418124
 20
-135.0408528308231
 10
71.59080673123425
 20
-135.0408528308231
 10
71.64265541828726
 20
-135.0408528308231
 10
71.68537460230435
 20
-134.9943440417723
 10
71.68537460230435
 20
-134.935088399426
 10
71.68537460230435
 20
-134.8758327570796
 10
71.64265541828726
 20
-134.8272569107376
 10
71.59080673123425
 20
-134.8272569107376
 10
71.53895804418124
 20
-134.8272569107376
 10
71.49830591745528
 20
-134.8758327570796
 10
71.49830591745528
 20
-134.935088399426
 97
        0
 97
        0
 75
     2
 76
     1
 98
        0
  0
ENDBLK
  5
37B
330
378
100
AcDbEntity
  8
0
100
AcDbBlockEnd
  0
ENDSEC
  0
SECTION
  2
ENTITIES
  0
POLYLINE
  5
41
330
1F
100
AcDbEntity
  8
_U+30EC_U+30A4_U+30E4_U+30FC 1
 62
   179
420
  2234388
370
    25
100
AcDb2dPolyline
 66
     1
 10
0.0
 20
0.0
 30
0.0
  0
VERTEX
  5
42
330
41
100
AcDbEntity
  8
_U+30EC_U+30A4_U+30E4_U+30FC 1
 62
   179
420
  2234388
370
    25
100
AcDbVertex
100
AcDb2dVertex
 10
60.16963513161139
 20
-141.9010863534134
 30
0.0
  0
VERTEX
  5
43
330
41
100
AcDbEntity
  8
_U+30EC_U+30A4_U+30E4_U+30FC 1
 62
   179
420
  2234388
370
    25
100
AcDbVertex
100
AcDb2dVertex
 10
93.99393232423724
 20
-141.9010863534134
 30
0.0
  0
SEQEND
  5
44
330
41
100
AcDbEntity
  8
_U+30EC_U+30A4_U+30E4_U+30FC 1
 62
   179
420
  2234388
370
    25
  0
POLYLINE
  5
45
330
1F
100
AcDbEntity
  8
_U+30EC_U+30A4_U+30E4_U+30FC 1
 62
   179
420
  2234388
370
    25
100
AcDb2dPolyline
 66
     1
 10
0.0
 20
0.0
 30
0.0
  0
VERTEX
  5
46
330
45
100
AcDbEntity
  8
_U+30EC_U+30A4_U+30E4_U+30FC 1
 62
   179
420
  2234388
370
    25
100
AcDbVertex
100
AcDb2dVertex
 10
93.99393232423724
 20
-141.9010863534134
 30
0.0
  0
VERTEX
  5
47
330
45
100
AcDbEntity
  8
_U+30EC_U+30A4_U+30E4_U+30FC 1
 62
   179
420
  2234388
370
    25
100
AcDbVertex
100
AcDb2dVertex
 10
93.99393232423724
 20
-142.5011966310412
 30
0.0
  0
SEQEND
  5
48
330
45
100
AcDbEntity
  8
_U+30EC_U+30A4_U+30E4_U+30FC 1
 62
   179
420
  2234388
370
    25
  0
POLYLINE
  5
49
330
1F
100
AcDbEntity
  8
_U+30EC_U+30A4_U+30E4_U+30FC 1
 62
   179
420
  2234388
370
    25
100
AcDb2dPolyline
 66
     1
 10
0.0
 20
0.0
 30
0.0
  0
VERTEX
  5
4A
330
49
100
AcDbEntity
  8
_U+30EC_U+30A4_U+30E4_U+30FC 1
 62
   179
420
  2234388
370
    25
100
AcDbVertex
100
AcDb2dVertex
 10
92.99345457198376
 20
-142.5177419088153
 30
0.0
  0
VERTEX
  5
4B
330
49
100
AcDbEntity
  8
_U+30EC_U+30A4_U+30E4_U+30FC 1
 62
   179
420
  2234388
370
    25
100
AcDbVertex
100
AcDb2dVertex
 10
93.48681664329511
 20
-142.1098602422501
 30
0.0
  0
SEQEND
  5
4C
330
49
100
AcDbEntity
  8
_U+30EC_U+30A4_U+30E4_U+30FC 1
 62
   179
420
  2234388
370
    25
  0
POLYLINE
  5
4D
330
1F
100
AcDbEntity
  8
_U+30EC_U+30A4_U+30E4_U+30FC 1
 62
   179
420
  2234388
370
    25
100
AcDb2dPolyline
 66
     1
 10
0.0
 20
0.0
 30
0.0
  0
VERTEX
  5
4E
330
4D
100
AcDbEntity
  8
_U+30EC_U+30A4_U+30E4_U+30FC 1
 62
   179
420
  2234388
370
    25
100
AcDbVertex
100
AcDb2dVertex
 10
93.48681664329511
 20
-142.1098602422501
 30
0.0
  0
VERTEX
  5
4F
330
4D
100
AcDbEntity
  8
_U+30EC_U+30A4_U+30E4_U+30FC 1
 62
   179
420
  2234388
370
    25
100
AcDbVertex
100
AcDb2dVertex
 10
93.99393232423724
 20
-142.5011966310412
 30
0.0
  0
SEQEND
  5
50
330
4D
100
AcDbEntity
  8
_U+30EC_U+30A4_U+30E4_U+30FC 1
 62
   179
420
  2234388
370
    25
  0
POLYLINE
  5
51
330
1F
100
AcDbEntity
  8
_U+30EC_U+30A4_U+30E4_U+30FC 1
 62
   179
420
  2234388
370
    25
100
AcDb2dPolyline
 66
     1
 10
0.0
 20
0.0
 30
0.0
  0
VERTEX
  5
52
330
51
100
AcDbEntity
  8
_U+30EC_U+30A4_U+30E4_U+30FC 1
 62
   179
420
  2234388
370
    25
100
AcDbVertex
100
AcDb2dVertex
 10
91.99301209750718
 20
-142.5342871865887
 30
0.0
  0
VERTEX
  5
53
330
51
100
AcDbEntity
  8
_U+30EC_U+30A4_U+30E4_U+30FC 1
 62
   179
420
  2234388
370
    25
100
AcDbVertex
100
AcDb2dVertex
 10
92.48633886576705
 20
-142.126370242246
 30
0.0
  0
SEQEND
  5
54
330
51
100
AcDbEntity
  8
_U+30EC_U+30A4_U+30E4_U+30FC 1
 62
   179
420
  2234388
370
    25
  0
POLYLINE
  5
55
330
1F
100
AcDbEntity
  8
_U+30EC_U+30A4_U+30E4_U+30FC 1
 62
   179
420
  2234388
370
    25
100
AcDb2dPolyline
 66
     1
 10
0.0
 20
0.0
 30
0.0
  0
VERTEX
  5
56
330
55
100
AcDbEntity
  8
_U+30EC_U+30A4_U+30E4_U+30FC 1
 62
   179
420
  2234388
370
    25
100
AcDbVertex
100
AcDb2dVertex
 10
92.48633886576705
 20
-142.126370242246
 30
0.0
  0
VERTEX
  5
57
330
55
100
AcDbEntity
  8
_U+30EC_U+30A4_U+30E4_U+30FC 1
 62
   179
420
  2234388
370
    25
100
AcDbVertex
100
AcDb2dVertex
 10
92.99345457198376
 20
-142.5177419088153
 30
0.0
  0
SEQEND
  5
58
330
55
100
AcDbEntity
  8
_U+30EC_U+30A4_U+30E4_U+30FC 1
 62
   179
420
  2234388
370
    25
  0
POLYLINE
  5
59
330
1F
100
AcDbEntity
  8
_U+30EC_U+30A4_U+30E4_U+30FC 1
 62
   179
420
  2234388
370
    25
100
AcDb2dPolyline
 66
     1
 10
0.0
 20
0.0
 30
0.0
  0
VERTEX
  5
5A
330
59
100
AcDbEntity
  8
_U+30EC_U+30A4_U+30E4_U+30FC 1
 62
   179
420
  2234388
370
    25
100
AcDbVertex
100
AcDb2dVertex
 10
90.99253434525372
 20
-142.5515027421401
 30
0.0
  0
VERTEX
  5
5B
330
59
100
AcDbEntity
  8
_U+30EC_U+30A4_U+30E4_U+30FC 1
 62
   179
420
  2234388
370
    25
100
AcDbVertex
100
AcDb2dVertex
 10
91.48589405488929
 20
-142.1429155200201
 30
0.0
  0
SEQEND
  5
5C
330
59
100
AcDbEntity
  8
_U+30EC_U+30A4_U+30E4_U+30FC 1
 62
   179
420
  2234388
370
    25
  0
POLYLINE
  5
5D
330
1F
100
AcDbEntity
  8
_U+30EC_U+30A4_U+30E4_U+30FC 1
 62
   179
420
  2234388
370
    25
100
AcDb2dPolyline
 66
     1
 10
0.0
 20
0.0
 30
0.0
  0
VERTEX
  5
5E
330
5D
100
AcDbEntity
  8
_U+30EC_U+30A4_U+30E4_U+30FC 1
 62
   179
420
  2234388
370
    25
100
AcDbVertex
100
AcDb2dVertex
 10
91.48589405488929
 20
-142.1429155200201
 30
0.0
  0
VERTEX
  5
5F
330
5D
100
AcDbEntity
  8
_U+30EC_U+30A4_U+30E4_U+30FC 1
 62
   179
420
  2234388
370
    25
100
AcDbVertex
100
AcDb2dVertex
 10
91.99301209750718
 20
-142.5342871865887
 30
0.0
  0
SEQEND
  5
60
330
5D
100
AcDbEntity
  8
_U+30EC_U+30A4_U+30E4_U+30FC 1
 62
   179
420
  2234388
370
    25
  0
POLYLINE
  5
61
330
1F
100
AcDbEntity
  8
_U+30EC_U+30A4_U+30E4_U+30FC 1
 62
   179
420
  2234388
370
    25
100
AcDb2dPolyline
 66
     1
 10
0.0
 20
0.0
 30
0.0
  0
VERTEX
  5
62
330
61
100
AcDbEntity
  8
_U+30EC_U+30A4_U+30E4_U+30FC 1
 62
   179
420
  2234388
370
    25
100
AcDbVertex
100
AcDb2dVertex
 10
89.99209187077713
 20
-142.5680480199135
 30
0.0
  0
VERTEX
  5
63
330
61
100
AcDbEntity
  8
_U+30EC_U+30A4_U+30E4_U+30FC 1
 62
   179
420
  2234388
370
    25
100
AcDbVertex
100
AcDb2dVertex
 10
90.48541630263583
 20
-142.1594607977935
 30
0.0
  0
SEQEND
  5
64
330
61
100
AcDbEntity
  8
_U+30EC_U+30A4_U+30E4_U+30FC 1
 62
   179
420
  2234388
370
    25
  0
POLYLINE
  5
65
330
1F
100
AcDbEntity
  8
_U+30EC_U+30A4_U+30E4_U+30FC 1
 62
   179
420
  2234388
370
    25
100
AcDb2dPolyline
 66
     1
 10
0.0
 20
0.0
 30
0.0
  0
VERTEX
  5
66
330
65
100
AcDbEntity
  8
_U+30EC_U+30A4_U+30E4_U+30FC 1
 62
   179
420
  2234388
370
    25
100
AcDbVertex
100
AcDb2dVertex
 10
90.48541630263583
 20
-142.1594607977935
 30
0.0
  0
VERTEX
  5
67
330
65
100
AcDbEntity
  8
_U+30EC_U+30A4_U+30E4_U+30FC 1
 62
   179
420
  2234388
370
    25
100
AcDbVertex
100
AcDb2dVertex
 10
90.99253434525372
 20
-142.5515027421401
 30
0.0
  0
SEQEND
  5
68
330
65
100
AcDbEntity
  8
_U+30EC_U+30A4_U+30E4_U+30FC 1
 62
   179
420
  2234388
370
    25
  0
POLYLINE
  5
69
330
1F
100
AcDbEntity
  8
_U+30EC_U+30A4_U+30E4_U+30FC 1
 62
   179
420
  2234388
370
    25
100
AcDb2dPolyline
 66
     1
 10
0.0
 20
0.0
 30
0.0
  0
VERTEX
  5
6A
330
69
100
AcDbEntity
  8
_U+30EC_U+30A4_U+30E4_U+30FC 1
 62
   179
420
  2234388
370
    25
100
AcDbVertex
100
AcDb2dVertex
 10
88.99164939630055
 20
-142.5845932976869
 30
0.0
  0
VERTEX
  5
6B
330
69
100
AcDbEntity
  8
_U+30EC_U+30A4_U+30E4_U+30FC 1
 62
   179
420
  2234388
370
    25
100
AcDbVertex
100
AcDb2dVertex
 10
89.48567938369679
 20
-142.1760060755669
 30
0.0
  0
SEQEND
  5
6C
330
69
100
AcDbEntity
  8
_U+30EC_U+30A4_U+30E4_U+30FC 1
 62
   179
420
  2234388
370
    25
  0
POLYLINE
  5
6D
330
1F
100
AcDbEntity
  8
_U+30EC_U+30A4_U+30E4_U+30FC 1
 62
   179
420
  2234388
370
    25
100
AcDb2dPolyline
 66
     1
 10
0.0
 20
0.0
 30
0.0
  0
VERTEX
  5
6E
330
6D
100
AcDbEntity
  8
_U+30EC_U+30A4_U+30E4_U+30FC 1
 62
   179
420
  2234388
370
    25
100
AcDbVertex
100
AcDb2dVertex
 10
89.48567938369679
 20
-142.1760060755669
 30
0.0
  0
VERTEX
  5
6F
330
6D
100
AcDbEntity
  8
_U+30EC_U+30A4_U+30E4_U+30FC 1
 62
   179
420
  2234388
370
    25
100
AcDbVertex
100
AcDb2dVertex
 10
89.99209187077713
 20
-142.5680480199135
 30
0.0
  0
SEQEND
  5
70
330
6D
100
AcDbEntity
  8
_U+30EC_U+30A4_U+30E4_U+30FC 1
 62
   179
420
  2234388
370
    25
  0
POLYLINE
  5
71
330
1F
100
AcDbEntity
  8
_U+30EC_U+30A4_U+30E4_U+30FC 1
 62
   179
420
  2234388
370
    25
100
AcDb2dPolyline
 66
     1
 10
0.0
 20
0.0
 30
0.0
  0
VERTEX
  5
72
330
71
100
AcDbEntity
  8
_U+30EC_U+30A4_U+30E4_U+30FC 1
 62
   179
420
  2234388
370
    25
100
AcDbVertex
100
AcDb2dVertex
 10
87.99117164404709
 20
-142.6011032976828
 30
0.0
  0
VERTEX
  5
73
330
71
100
AcDbEntity
  8
_U+30EC_U+30A4_U+30E4_U+30FC 1
 62
   179
420
  2234388
370
    25
100
AcDbVertex
100
AcDb2dVertex
 10
88.48520163144333
 20
-142.1925160755628
 30
0.0
  0
SEQEND
  5
74
330
71
100
AcDbEntity
  8
_U+30EC_U+30A4_U+30E4_U+30FC 1
 62
   179
420
  2234388
370
    25
  0
POLYLINE
  5
75
330
1F
100
AcDbEntity
  8
_U+30EC_U+30A4_U+30E4_U+30FC 1
 62
   179
420
  2234388
370
    25
100
AcDb2dPolyline
 66
     1
 10
0.0
 20
0.0
 30
0.0
  0
VERTEX
  5
76
330
75
100
AcDbEntity
  8
_U+30EC_U+30A4_U+30E4_U+30FC 1
 62
   179
420
  2234388
370
    25
100
AcDbVertex
100
AcDb2dVertex
 10
88.48520163144333
 20
-142.1925160755628
 30
0.0
  0
VERTEX
  5
77
330
75
100
AcDbEntity
  8
_U+30EC_U+30A4_U+30E4_U+30FC 1
 62
   179
420
  2234388
370
    25
100
AcDbVertex
100
AcDb2dVertex
 10
88.99164939630055
 20
-142.5845932976869
 30
0.0
  0
SEQEND
  5
78
330
75
100
AcDbEntity
  8
_U+30EC_U+30A4_U+30E4_U+30FC 1
 62
   179
420
  2234388
370
    25
  0
POLYLINE
  5
79
330
1F
100
AcDbEntity
  8
_U+30EC_U+30A4_U+30E4_U+30FC 1
 62
   179
420
  2234388
370
    25
100
AcDb2dPolyline
 66
     1
 10
0.0
 20
0.0
 30
0.0
  0
VERTEX
  5
7A
330
79
100
AcDbEntity
  8
_U+30EC_U+30A4_U+30E4_U+30FC 1
 62
   179
420
  2234388
370
    25
100
AcDbVertex
100
AcDb2dVertex
 10
86.9907291695705
 20
-142.6176485754569
 30
0.0
  0
VERTEX
  5
7B
330
79
100
AcDbEntity
  8
_U+30EC_U+30A4_U+30E4_U+30FC 1
 62
   179
420
  2234388
370
    25
100
AcDbVertex
100
AcDb2dVertex
 10
87.48475915696675
 20
-142.2097669088918
 30
0.0
  0
SEQEND
  5
7C
330
79
100
AcDbEntity
  8
_U+30EC_U+30A4_U+30E4_U+30FC 1
 62
   179
420
  2234388
370
    25
  0
POLYLINE
  5
7D
330
1F
100
AcDbEntity
  8
_U+30EC_U+30A4_U+30E4_U+30FC 1
 62
   179
420
  2234388
370
    25
100
AcDb2dPolyline
 66
     1
 10
0.0
 20
0.0
 30
0.0
  0
VERTEX
  5
7E
330
7D
100
AcDbEntity
  8
_U+30EC_U+30A4_U+30E4_U+30FC 1
 62
   179
420
  2234388
370
    25
100
AcDbVertex
100
AcDb2dVertex
 10
87.48475915696675
 20
-142.2097669088918
 30
0.0
  0
VERTEX
  5
7F
330
7D
100
AcDbEntity
  8
_U+30EC_U+30A4_U+30E4_U+30FC 1
 62
   179
420
  2234388
370
    25
100
AcDbVertex
100
AcDb2dVertex
 10
87.99117164404709
 20
-142.6011032976828
 30
0.0
  0
SEQEND
  5
80
330
7D
100
AcDbEntity
  8
_U+30EC_U+30A4_U+30E4_U+30FC 1
 62
   179
420
  2234388
370
    25
  0
POLYLINE
  5
81
330
1F
100
AcDbEntity
  8
_U+30EC_U+30A4_U+30E4_U+30FC 1
 62
   179
420
  2234388
370
    25
100
AcDb2dPolyline
 66
     1
 10
0.0
 20
0.0
 30
0.0
  0
VERTEX
  5
82
330
81
100
AcDbEntity
  8
_U+30EC_U+30A4_U+30E4_U+30FC 1
 62
   179
420
  2234388
370
    25
100
AcDbVertex
100
AcDb2dVertex
 10
85.99028886739147
 20
-142.6341938532303
 30
0.0
  0
VERTEX
  5
83
330
81
100
AcDbEntity
  8
_U+30EC_U+30A4_U+30E4_U+30FC 1
 62
   179
420
  2234388
370
    25
100
AcDbVertex
100
AcDb2dVertex
 10
86.48428140471327
 20
-142.2262769088877
 30
0.0
  0
SEQEND
  5
84
330
81
100
AcDbEntity
  8
_U+30EC_U+30A4_U+30E4_U+30FC 1
 62
   179
420
  2234388
370
    25
  0
POLYLINE
  5
85
330
1F
100
AcDbEntity
  8
_U+30EC_U+30A4_U+30E4_U+30FC 1
 62
   179
420
  2234388
370
    25
100
AcDb2dPolyline
 66
     1
 10
0.0
 20
0.0
 30
0.0
  0
VERTEX
  5
86
330
85
100
AcDbEntity
  8
_U+30EC_U+30A4_U+30E4_U+30FC 1
 62
   179
420
  2234388
370
    25
100
AcDbVertex
100
AcDb2dVertex
 10
86.48428140471327
 20
-142.2262769088877
 30
0.0
  0
VERTEX
  5
87
330
85
100
AcDbEntity
  8
_U+30EC_U+30A4_U+30E4_U+30FC 1
 62
   179
420
  2234388
370
    25
100
AcDbVertex
100
AcDb2dVertex
 10
86.9907291695705
 20
-142.6176485754569
 30
0.0
  0
SEQEND
  5
88
330
85
100
AcDbEntity
  8
_U+30EC_U+30A4_U+30E4_U+30FC 1
 62
   179
420
  2234388
370
    25
  0
POLYLINE
  5
89
330
1F
100
AcDbEntity
  8
_U+30EC_U+30A4_U+30E4_U+30FC 1
 62
   179
420
  2234388
370
    25
100
AcDb2dPolyline
 66
     1
 10
0.0
 20
0.0
 30
0.0
  0
VERTEX
  5
8A
330
89
100
AcDbEntity
  8
_U+30EC_U+30A4_U+30E4_U+30FC 1
 62
   179
420
  2234388
370
    25
100
AcDbVertex
100
AcDb2dVertex
 10
84.98981108986372
 20
-142.6507391310037
 30
0.0
  0
VERTEX
  5
8B
330
89
100
AcDbEntity
  8
_U+30EC_U+30A4_U+30E4_U+30FC 1
 62
   179
420
  2234388
370
    25
100
AcDbVertex
100
AcDb2dVertex
 10
85.48383893023669
 20
-142.2428221866617
 30
0.0
  0
SEQEND
  5
8C
330
89
100
AcDbEntity
  8
_U+30EC_U+30A4_U+30E4_U+30FC 1
 62
   179
420
  2234388
370
    25
  0
POLYLINE
  5
8D
330
1F
100
AcDbEntity
  8
_U+30EC_U+30A4_U+30E4_U+30FC 1
 62
   179
420
  2234388
370
    25
100
AcDb2dPolyline
 66
     1
 10
0.0
 20
0.0
 30
0.0
  0
VERTEX
  5
8E
330
8D
100
AcDbEntity
  8
_U+30EC_U+30A4_U+30E4_U+30FC 1
 62
   179
420
  2234388
370
    25
100
AcDbVertex
100
AcDb2dVertex
 10
85.48383893023669
 20
-142.2428221866617
 30
0.0
  0
VERTEX
  5
8F
330
8D
100
AcDbEntity
  8
_U+30EC_U+30A4_U+30E4_U+30FC 1
 62
   179
420
  2234388
370
    25
100
AcDbVertex
100
AcDb2dVertex
 10
85.99028886739147
 20
-142.6341938532303
 30
0.0
  0
SEQEND
  5
90
330
8D
100
AcDbEntity
  8
_U+30EC_U+30A4_U+30E4_U+30FC 1
 62
   179
420
  2234388
370
    25
  0
POLYLINE
  5
91
330
1F
100
AcDbEntity
  8
_U+30EC_U+30A4_U+30E4_U+30FC 1
 62
   179
420
  2234388
370
    25
100
AcDb2dPolyline
 66
     1
 10
0.0
 20
0.0
 30
0.0
  0
VERTEX
  5
92
330
91
100
AcDbEntity
  8
_U+30EC_U+30A4_U+30E4_U+30FC 1
 62
   179
420
  2234388
370
    25
100
AcDbVertex
100
AcDb2dVertex
 10
83.98936646836385
 20
-142.6672491309996
 30
0.0
  0
VERTEX
  5
93
330
91
100
AcDbEntity
  8
_U+30EC_U+30A4_U+30E4_U+30FC 1
 62
   179
420
  2234388
370
    25
100
AcDbVertex
100
AcDb2dVertex
 10
84.4833964557601
 20
-142.2593674644351
 30
0.0
  0
SEQEND
  5
94
330
91
100
AcDbEntity
  8
_U+30EC_U+30A4_U+30E4_U+30FC 1
 62
   179
420
  2234388
370
    25
  0
POLYLINE
  5
95
330
1F
100
AcDbEntity
  8
_U+30EC_U+30A4_U+30E4_U+30FC 1
 62
   179
420
  2234388
370
    25
100
AcDb2dPolyline
 66
     1
 10
0.0
 20
0.0
 30
0.0
  0
VERTEX
  5
96
330
95
100
AcDbEntity
  8
_U+30EC_U+30A4_U+30E4_U+30FC 1
 62
   179
420
  2234388
370
    25
100
AcDbVertex
100
AcDb2dVertex
 10
84.4833964557601
 20
-142.2593674644351
 30
0.0
  0
VERTEX
  5
97
330
95
100
AcDbEntity
  8
_U+30EC_U+30A4_U+30E4_U+30FC 1
 62
   179
420
  2234388
370
    25
100
AcDbVertex
100
AcDb2dVertex
 10
84.98981108986372
 20
-142.6507391310037
 30
0.0
  0
SEQEND
  5
98
330
95
100
AcDbEntity
  8
_U+30EC_U+30A4_U+30E4_U+30FC 1
 62
   179
420
  2234388
370
    25
  0
POLYLINE
  5
99
330
1F
100
AcDbEntity
  8
_U+30EC_U+30A4_U+30E4_U+30FC 1
 62
   179
420
  2234388
370
    25
100
AcDb2dPolyline
 66
     1
 10
0.0
 20
0.0
 30
0.0
  0
VERTEX
  5
9A
330
99
100
AcDbEntity
  8
_U+30EC_U+30A4_U+30E4_U+30FC 1
 62
   179
420
  2234388
370
    25
100
AcDbVertex
100
AcDb2dVertex
 10
82.9888887161104
 20
-142.6844999643286
 30
0.0
  0
VERTEX
  5
9B
330
99
100
AcDbEntity
  8
_U+30EC_U+30A4_U+30E4_U+30FC 1
 62
   179
420
  2234388
370
    25
100
AcDbVertex
100
AcDb2dVertex
 10
83.48291870350664
 20
-142.2759127422086
 30
0.0
  0
SEQEND
  5
9C
330
99
100
AcDbEntity
  8
_U+30EC_U+30A4_U+30E4_U+30FC 1
 62
   179
420
  2234388
370
    25
  0
POLYLINE
  5
9D
330
1F
100
AcDbEntity
  8
_U+30EC_U+30A4_U+30E4_U+30FC 1
 62
   179
420
  2234388
370
    25
100
AcDb2dPolyline
 66
     1
 10
0.0
 20
0.0
 30
0.0
  0
VERTEX
  5
9E
330
9D
100
AcDbEntity
  8
_U+30EC_U+30A4_U+30E4_U+30FC 1
 62
   179
420
  2234388
370
    25
100
AcDbVertex
100
AcDb2dVertex
 10
83.48291870350664
 20
-142.2759127422086
 30
0.0
  0
VERTEX
  5
9F
330
9D
100
AcDbEntity
  8
_U+30EC_U+30A4_U+30E4_U+30FC 1
 62
   179
420
  2234388
370
    25
100
AcDbVertex
100
AcDb2dVertex
 10
83.98936646836385
 20
-142.6672491309996
 30
0.0
  0
SEQEND
  5
A0
330
9D
100
AcDbEntity
  8
_U+30EC_U+30A4_U+30E4_U+30FC 1
 62
   179
420
  2234388
370
    25
  0
POLYLINE
  5
A1
330
1F
100
AcDbEntity
  8
_U+30EC_U+30A4_U+30E4_U+30FC 1
 62
   179
420
  2234388
370
    25
100
AcDb2dPolyline
 66
     1
 10
0.0
 20
0.0
 30
0.0
  0
VERTEX
  5
A2
330
A1
100
AcDbEntity
  8
_U+30EC_U+30A4_U+30E4_U+30FC 1
 62
   179
420
  2234388
370
    25
100
AcDbVertex
100
AcDb2dVertex
 10
81.98844624163381
 20
-142.7010099643245
 30
0.0
  0
VERTEX
  5
A3
330
A1
100
AcDbEntity
  8
_U+30EC_U+30A4_U+30E4_U+30FC 1
 62
   179
420
  2234388
370
    25
100
AcDbVertex
100
AcDb2dVertex
 10
82.48247622903006
 20
-142.2924227422045
 30
0.0
  0
SEQEND
  5
A4
330
A1
100
AcDbEntity
  8
_U+30EC_U+30A4_U+30E4_U+30FC 1
 62
   179
420
  2234388
370
    25
  0
POLYLINE
  5
A5
330
1F
100
AcDbEntity
  8
_U+30EC_U+30A4_U+30E4_U+30FC 1
 62
   179
420
  2234388
370
    25
100
AcDb2dPolyline
 66
     1
 10
0.0
 20
0.0
 30
0.0
  0
VERTEX
  5
A6
330
A5
100
AcDbEntity
  8
_U+30EC_U+30A4_U+30E4_U+30FC 1
 62
   179
420
  2234388
370
    25
100
AcDbVertex
100
AcDb2dVertex
 10
82.48247622903006
 20
-142.2924227422045
 30
0.0
  0
VERTEX
  5
A7
330
A5
100
AcDbEntity
  8
_U+30EC_U+30A4_U+30E4_U+30FC 1
 62
   179
420
  2234388
370
    25
100
AcDbVertex
100
AcDb2dVertex
 10
82.9888887161104
 20
-142.6844999643286
 30
0.0
  0
SEQEND
  5
A8
330
A5
100
AcDbEntity
  8
_U+30EC_U+30A4_U+30E4_U+30FC 1
 62
   179
420
  2234388
370
    25
  0
POLYLINE
  5
A9
330
1F
100
AcDbEntity
  8
_U+30EC_U+30A4_U+30E4_U+30FC 1
 62
   179
420
  2234388
370
    25
100
AcDb2dPolyline
 66
     1
 10
0.0
 20
0.0
 30
0.0
  0
VERTEX
  5
AA
330
A9
100
AcDbEntity
  8
_U+30EC_U+30A4_U+30E4_U+30FC 1
 62
   179
420
  2234388
370
    25
100
AcDbVertex
100
AcDb2dVertex
 10
80.98832126714912
 20
-142.7175552420985
 30
0.0
  0
VERTEX
  5
AB
330
A9
100
AcDbEntity
  8
_U+30EC_U+30A4_U+30E4_U+30FC 1
 62
   179
420
  2234388
370
    25
100
AcDbVertex
100
AcDb2dVertex
 10
81.48168097678469
 20
-142.3089680199785
 30
0.0
  0
SEQEND
  5
AC
330
A9
100
AcDbEntity
  8
_U+30EC_U+30A4_U+30E4_U+30FC 1
 62
   179
420
  2234388
370
    25
  0
POLYLINE
  5
AD
330
1F
100
AcDbEntity
  8
_U+30EC_U+30A4_U+30E4_U+30FC 1
 62
   179
420
  2234388
370
    25
100
AcDb2dPolyline
 66
     1
 10
0.0
 20
0.0
 30
0.0
  0
VERTEX
  5
AE
330
AD
100
AcDbEntity
  8
_U+30EC_U+30A4_U+30E4_U+30FC 1
 62
   179
420
  2234388
370
    25
100
AcDbVertex
100
AcDb2dVertex
 10
81.48168097678469
 20
-142.3089680199785
 30
0.0
  0
VERTEX
  5
AF
330
AD
100
AcDbEntity
  8
_U+30EC_U+30A4_U+30E4_U+30FC 1
 62
   179
420
  2234388
370
    25
100
AcDbVertex
100
AcDb2dVertex
 10
81.98844624163381
 20
-142.7010099643245
 30
0.0
  0
SEQEND
  5
B0
330
AD
100
AcDbEntity
  8
_U+30EC_U+30A4_U+30E4_U+30FC 1
 62
   179
420
  2234388
370
    25
  0
POLYLINE
  5
B1
330
1F
100
AcDbEntity
  8
_U+30EC_U+30A4_U+30E4_U+30FC 1
 62
   179
420
  2234388
370
    25
100
AcDb2dPolyline
 66
     1
 10
0.0
 20
0.0
 30
0.0
  0
VERTEX
  5
B2
330
B1
100
AcDbEntity
  8
_U+30EC_U+30A4_U+30E4_U+30FC 1
 62
   179
420
  2234388
370
    25
100
AcDbVertex
100
AcDb2dVertex
 10
79.98787879267253
 20
-142.734100519872
 30
0.0
  0
VERTEX
  5
B3
330
B1
100
AcDbEntity
  8
_U+30EC_U+30A4_U+30E4_U+30FC 1
 62
   179
420
  2234388
370
    25
100
AcDbVertex
100
AcDb2dVertex
 10
80.48120322453123
 20
-142.3255132977519
 30
0.0
  0
SEQEND
  5
B4
330
B1
100
AcDbEntity
  8
_U+30EC_U+30A4_U+30E4_U+30FC 1
 62
   179
420
  2234388
370
    25
  0
POLYLINE
  5
B5
330
1F
100
AcDbEntity
  8
_U+30EC_U+30A4_U+30E4_U+30FC 1
 62
   179
420
  2234388
370
    25
100
AcDb2dPolyline
 66
     1
 10
0.0
 20
0.0
 30
0.0
  0
VERTEX
  5
B6
330
B5
100
AcDbEntity
  8
_U+30EC_U+30A4_U+30E4_U+30FC 1
 62
   179
420
  2234388
370
    25
100
AcDbVertex
100
AcDb2dVertex
 10
80.48120322453123
 20
-142.3255132977519
 30
0.0
  0
VERTEX
  5
B7
330
B5
100
AcDbEntity
  8
_U+30EC_U+30A4_U+30E4_U+30FC 1
 62
   179
420
  2234388
370
    25
100
AcDbVertex
100
AcDb2dVertex
 10
80.98832126714912
 20
-142.7175552420985
 30
0.0
  0
SEQEND
  5
B8
330
B5
100
AcDbEntity
  8
_U+30EC_U+30A4_U+30E4_U+30FC 1
 62
   179
420
  2234388
370
    25
  0
POLYLINE
  5
B9
330
1F
100
AcDbEntity
  8
_U+30EC_U+30A4_U+30E4_U+30FC 1
 62
   179
420
  2234388
370
    25
100
AcDb2dPolyline
 66
     1
 10
0.0
 20
0.0
 30
0.0
  0
VERTEX
  5
BA
330
B9
100
AcDbEntity
  8
_U+30EC_U+30A4_U+30E4_U+30FC 1
 62
   179
420
  2234388
370
    25
100
AcDbVertex
100
AcDb2dVertex
 10
78.98743631819595
 20
-142.7506457976454
 30
0.0
  0
VERTEX
  5
BB
330
B9
100
AcDbEntity
  8
_U+30EC_U+30A4_U+30E4_U+30FC 1
 62
   179
420
  2234388
370
    25
100
AcDbVertex
100
AcDb2dVertex
 10
79.48076075005464
 20
-142.3427288533034
 30
0.0
  0
SEQEND
  5
BC
330
B9
100
AcDbEntity
  8
_U+30EC_U+30A4_U+30E4_U+30FC 1
 62
   179
420
  2234388
370
    25
  0
POLYLINE
  5
BD
330
1F
100
AcDbEntity
  8
_U+30EC_U+30A4_U+30E4_U+30FC 1
 62
   179
420
  2234388
370
    25
100
AcDb2dPolyline
 66
     1
 10
0.0
 20
0.0
 30
0.0
  0
VERTEX
  5
BE
330
BD
100
AcDbEntity
  8
_U+30EC_U+30A4_U+30E4_U+30FC 1
 62
   179
420
  2234388
370
    25
100
AcDbVertex
100
AcDb2dVertex
 10
79.48076075005464
 20
-142.3427288533034
 30
0.0
  0
VERTEX
  5
BF
330
BD
100
AcDbEntity
  8
_U+30EC_U+30A4_U+30E4_U+30FC 1
 62
   179
420
  2234388
370
    25
100
AcDbVertex
100
AcDb2dVertex
 10
79.98787879267253
 20
-142.734100519872
 30
0.0
  0
SEQEND
  5
C0
330
BD
100
AcDbEntity
  8
_U+30EC_U+30A4_U+30E4_U+30FC 1
 62
   179
420
  2234388
370
    25
  0
POLYLINE
  5
C1
330
1F
100
AcDbEntity
  8
_U+30EC_U+30A4_U+30E4_U+30FC 1
 62
   179
420
  2234388
370
    25
100
AcDb2dPolyline
 66
     1
 10
0.0
 20
0.0
 30
0.0
  0
VERTEX
  5
C2
330
C1
100
AcDbEntity
  8
_U+30EC_U+30A4_U+30E4_U+30FC 1
 62
   179
420
  2234388
370
    25
100
AcDbVertex
100
AcDb2dVertex
 10
77.98695856594249
 20
-142.7671557976413
 30
0.0
  0
VERTEX
  5
C3
330
C1
100
AcDbEntity
  8
_U+30EC_U+30A4_U+30E4_U+30FC 1
 62
   179
420
  2234388
370
    25
100
AcDbVertex
100
AcDb2dVertex
 10
78.48031827557806
 20
-142.3592741310768
 30
0.0
  0
SEQEND
  5
C4
330
C1
100
AcDbEntity
  8
_U+30EC_U+30A4_U+30E4_U+30FC 1
 62
   179
420
  2234388
370
    25
  0
POLYLINE
  5
C5
330
1F
100
AcDbEntity
  8
_U+30EC_U+30A4_U+30E4_U+30FC 1
 62
   179
420
  2234388
370
    25
100
AcDb2dPolyline
 66
     1
 10
0.0
 20
0.0
 30
0.0
  0
VERTEX
  5
C6
330
C5
100
AcDbEntity
  8
_U+30EC_U+30A4_U+30E4_U+30FC 1
 62
   179
420
  2234388
370
    25
100
AcDbVertex
100
AcDb2dVertex
 10
78.48031827557806
 20
-142.3592741310768
 30
0.0
  0
VERTEX
  5
C7
330
C5
100
AcDbEntity
  8
_U+30EC_U+30A4_U+30E4_U+30FC 1
 62
   179
420
  2234388
370
    25
100
AcDbVertex
100
AcDb2dVertex
 10
78.98743631819595
 20
-142.7506457976454
 30
0.0
  0
SEQEND
  5
C8
330
C5
100
AcDbEntity
  8
_U+30EC_U+30A4_U+30E4_U+30FC 1
 62
   179
420
  2234388
370
    25
  0
POLYLINE
  5
C9
330
1F
100
AcDbEntity
  8
_U+30EC_U+30A4_U+30E4_U+30FC 1
 62
   179
420
  2234388
370
    25
100
AcDb2dPolyline
 66
     1
 10
0.0
 20
0.0
 30
0.0
  0
VERTEX
  5
CA
330
C9
100
AcDbEntity
  8
_U+30EC_U+30A4_U+30E4_U+30FC 1
 62
   179
420
  2234388
370
    25
100
AcDbVertex
100
AcDb2dVertex
 10
76.9865160914659
 20
-142.7837010754153
 30
0.0
  0
VERTEX
  5
CB
330
C9
100
AcDbEntity
  8
_U+30EC_U+30A4_U+30E4_U+30FC 1
 62
   179
420
  2234388
370
    25
100
AcDbVertex
100
AcDb2dVertex
 10
77.47984052332458
 20
-142.3758194088502
 30
0.0
  0
SEQEND
  5
CC
330
C9
100
AcDbEntity
  8
_U+30EC_U+30A4_U+30E4_U+30FC 1
 62
   179
420
  2234388
370
    25
  0
POLYLINE
  5
CD
330
1F
100
AcDbEntity
  8
_U+30EC_U+30A4_U+30E4_U+30FC 1
 62
   179
420
  2234388
370
    25
100
AcDb2dPolyline
 66
     1
 10
0.0
 20
0.0
 30
0.0
  0
VERTEX
  5
CE
330
CD
100
AcDbEntity
  8
_U+30EC_U+30A4_U+30E4_U+30FC 1
 62
   179
420
  2234388
370
    25
100
AcDbVertex
100
AcDb2dVertex
 10
77.47984052332458
 20
-142.3758194088502
 30
0.0
  0
VERTEX
  5
CF
330
CD
100
AcDbEntity
  8
_U+30EC_U+30A4_U+30E4_U+30FC 1
 62
   179
420
  2234388
370
    25
100
AcDbVertex
100
AcDb2dVertex
 10
77.98695856594249
 20
-142.7671557976413
 30
0.0
  0
SEQEND
  5
D0
330
CD
100
AcDbEntity
  8
_U+30EC_U+30A4_U+30E4_U+30FC 1
 62
   179
420
  2234388
370
    25
  0
POLYLINE
  5
D1
330
1F
100
AcDbEntity
  8
_U+30EC_U+30A4_U+30E4_U+30FC 1
 62
   179
420
  2234388
370
    25
100
AcDb2dPolyline
 66
     1
 10
0.0
 20
0.0
 30
0.0
  0
VERTEX
  5
D2
330
D1
100
AcDbEntity
  8
_U+30EC_U+30A4_U+30E4_U+30FC 1
 62
   179
420
  2234388
370
    25
100
AcDbVertex
100
AcDb2dVertex
 10
75.98607361698932
 20
-142.8002463531888
 30
0.0
  0
VERTEX
  5
D3
330
D1
100
AcDbEntity
  8
_U+30EC_U+30A4_U+30E4_U+30FC 1
 62
   179
420
  2234388
370
    25
100
AcDbVertex
100
AcDb2dVertex
 10
76.47939998088029
 20
-142.3923294088461
 30
0.0
  0
SEQEND
  5
D4
330
D1
100
AcDbEntity
  8
_U+30EC_U+30A4_U+30E4_U+30FC 1
 62
   179
420
  2234388
370
    25
  0
POLYLINE
  5
D5
330
1F
100
AcDbEntity
  8
_U+30EC_U+30A4_U+30E4_U+30FC 1
 62
   179
420
  2234388
370
    25
100
AcDb2dPolyline
 66
     1
 10
0.0
 20
0.0
 30
0.0
  0
VERTEX
  5
D6
330
D5
100
AcDbEntity
  8
_U+30EC_U+30A4_U+30E4_U+30FC 1
 62
   179
420
  2234388
370
    25
100
AcDbVertex
100
AcDb2dVertex
 10
76.47939998088029
 20
-142.3923294088461
 30
0.0
  0
VERTEX
  5
D7
330
D5
100
AcDbEntity
  8
_U+30EC_U+30A4_U+30E4_U+30FC 1
 62
   179
420
  2234388
370
    25
100
AcDbVertex
100
AcDb2dVertex
 10
76.9865160914659
 20
-142.7837010754153
 30
0.0
  0
SEQEND
  5
D8
330
D5
100
AcDbEntity
  8
_U+30EC_U+30A4_U+30E4_U+30FC 1
 62
   179
420
  2234388
370
    25
  0
POLYLINE
  5
D9
330
1F
100
AcDbEntity
  8
_U+30EC_U+30A4_U+30E4_U+30FC 1
 62
   179
420
  2234388
370
    25
100
AcDb2dPolyline
 66
     1
 10
0.0
 20
0.0
 30
0.0
  0
VERTEX
  5
DA
330
D9
100
AcDbEntity
  8
_U+30EC_U+30A4_U+30E4_U+30FC 1
 62
   179
420
  2234388
370
    25
100
AcDbVertex
100
AcDb2dVertex
 10
74.98559586473586
 20
-142.8174619087402
 30
0.0
  0
VERTEX
  5
DB
330
D9
100
AcDbEntity
  8
_U+30EC_U+30A4_U+30E4_U+30FC 1
 62
   179
420
  2234388
370
    25
100
AcDbVertex
100
AcDb2dVertex
 10
75.47895557437141
 20
-142.4088746866202
 30
0.0
  0
SEQEND
  5
DC
330
D9
100
AcDbEntity
  8
_U+30EC_U+30A4_U+30E4_U+30FC 1
 62
   179
420
  2234388
370
    25
  0
POLYLINE
  5
DD
330
1F
100
AcDbEntity
  8
_U+30EC_U+30A4_U+30E4_U+30FC 1
 62
   179
420
  2234388
370
    25
100
AcDb2dPolyline
 66
     1
 10
0.0
 20
0.0
 30
0.0
  0
VERTEX
  5
DE
330
DD
100
AcDbEntity
  8
_U+30EC_U+30A4_U+30E4_U+30FC 1
 62
   179
420
  2234388
370
    25
100
AcDbVertex
100
AcDb2dVertex
 10
75.47895557437141
 20
-142.4088746866202
 30
0.0
  0
VERTEX
  5
DF
330
DD
100
AcDbEntity
  8
_U+30EC_U+30A4_U+30E4_U+30FC 1
 62
   179
420
  2234388
370
    25
100
AcDbVertex
100
AcDb2dVertex
 10
75.98607361698932
 20
-142.8002463531888
 30
0.0
  0
SEQEND
  5
E0
330
DD
100
AcDbEntity
  8
_U+30EC_U+30A4_U+30E4_U+30FC 1
 62
   179
420
  2234388
370
    25
  0
POLYLINE
  5
E1
330
1F
100
AcDbEntity
  8
_U+30EC_U+30A4_U+30E4_U+30FC 1
 62
   179
420
  2234388
370
    25
100
AcDb2dPolyline
 66
     1
 10
0.0
 20
0.0
 30
0.0
  0
VERTEX
  5
E2
330
E1
100
AcDbEntity
  8
_U+30EC_U+30A4_U+30E4_U+30FC 1
 62
   179
420
  2234388
370
    25
100
AcDbVertex
100
AcDb2dVertex
 10
73.98515339025927
 20
-142.8340071865136
 30
0.0
  0
VERTEX
  5
E3
330
E1
100
AcDbEntity
  8
_U+30EC_U+30A4_U+30E4_U+30FC 1
 62
   179
420
  2234388
370
    25
100
AcDbVertex
100
AcDb2dVertex
 10
74.47847782211795
 20
-142.4254199643936
 30
0.0
  0
SEQEND
  5
E4
330
E1
100
AcDbEntity
  8
_U+30EC_U+30A4_U+30E4_U+30FC 1
 62
   179
420
  2234388
370
    25
  0
POLYLINE
  5
E5
330
1F
100
AcDbEntity
  8
_U+30EC_U+30A4_U+30E4_U+30FC 1
 62
   179
420
  2234388
370
    25
100
AcDb2dPolyline
 66
     1
 10
0.0
 20
0.0
 30
0.0
  0
VERTEX
  5
E6
330
E5
100
AcDbEntity
  8
_U+30EC_U+30A4_U+30E4_U+30FC 1
 62
   179
420
  2234388
370
    25
100
AcDbVertex
100
AcDb2dVertex
 10
74.47847782211795
 20
-142.4254199643936
 30
0.0
  0
VERTEX
  5
E7
330
E5
100
AcDbEntity
  8
_U+30EC_U+30A4_U+30E4_U+30FC 1
 62
   179
420
  2234388
370
    25
100
AcDbVertex
100
AcDb2dVertex
 10
74.98559586473586
 20
-142.8174619087402
 30
0.0
  0
SEQEND
  5
E8
330
E5
100
AcDbEntity
  8
_U+30EC_U+30A4_U+30E4_U+30FC 1
 62
   179
420
  2234388
370
    25
  0
POLYLINE
  5
E9
330
1F
100
AcDbEntity
  8
_U+30EC_U+30A4_U+30E4_U+30FC 1
 62
   179
420
  2234388
370
    25
100
AcDb2dPolyline
 66
     1
 10
0.0
 20
0.0
 30
0.0
  0
VERTEX
  5
EA
330
E9
100
AcDbEntity
  8
_U+30EC_U+30A4_U+30E4_U+30FC 1
 62
   179
420
  2234388
370
    25
100
AcDbVertex
100
AcDb2dVertex
 10
72.9846756380058
 20
-142.8505524642877
 30
0.0
  0
VERTEX
  5
EB
330
E9
100
AcDbEntity
  8
_U+30EC_U+30A4_U+30E4_U+30FC 1
 62
   179
420
  2234388
370
    25
100
AcDbVertex
100
AcDb2dVertex
 10
73.47803534764137
 20
-142.441965242167
 30
0.0
  0
SEQEND
  5
EC
330
E9
100
AcDbEntity
  8
_U+30EC_U+30A4_U+30E4_U+30FC 1
 62
   179
420
  2234388
370
    25
  0
POLYLINE
  5
ED
330
1F
100
AcDbEntity
  8
_U+30EC_U+30A4_U+30E4_U+30FC 1
 62
   179
420
  2234388
370
    25
100
AcDb2dPolyline
 66
     1
 10
0.0
 20
0.0
 30
0.0
  0
VERTEX
  5
EE
330
ED
100
AcDbEntity
  8
_U+30EC_U+30A4_U+30E4_U+30FC 1
 62
   179
420
  2234388
370
    25
100
AcDbVertex
100
AcDb2dVertex
 10
73.47803534764137
 20
-142.441965242167
 30
0.0
  0
VERTEX
  5
EF
330
ED
100
AcDbEntity
  8
_U+30EC_U+30A4_U+30E4_U+30FC 1
 62
   179
420
  2234388
370
    25
100
AcDbVertex
100
AcDb2dVertex
 10
73.98515339025927
 20
-142.8340071865136
 30
0.0
  0
SEQEND
  5
F0
330
ED
100
AcDbEntity
  8
_U+30EC_U+30A4_U+30E4_U+30FC 1
 62
   179
420
  2234388
370
    25
  0
POLYLINE
  5
F1
330
1F
100
AcDbEntity
  8
_U+30EC_U+30A4_U+30E4_U+30FC 1
 62
   179
420
  2234388
370
    25
100
AcDb2dPolyline
 66
     1
 10
0.0
 20
0.0
 30
0.0
  0
VERTEX
  5
F2
330
F1
100
AcDbEntity
  8
_U+30EC_U+30A4_U+30E4_U+30FC 1
 62
   179
420
  2234388
370
    25
100
AcDbVertex
100
AcDb2dVertex
 10
71.98423316352921
 20
-142.8670624642835
 30
0.0
  0
VERTEX
  5
F3
330
F1
100
AcDbEntity
  8
_U+30EC_U+30A4_U+30E4_U+30FC 1
 62
   179
420
  2234388
370
    25
100
AcDbVertex
100
AcDb2dVertex
 10
72.47791037315667
 20
-142.4584752421629
 30
0.0
  0
SEQEND
  5
F4
330
F1
100
AcDbEntity
  8
_U+30EC_U+30A4_U+30E4_U+30FC 1
 62
   179
420
  2234388
370
    25
  0
POLYLINE
  5
F5
330
1F
100
AcDbEntity
  8
_U+30EC_U+30A4_U+30E4_U+30FC 1
 62
   179
420
  2234388
370
    25
100
AcDb2dPolyline
 66
     1
 10
0.0
 20
0.0
 30
0.0
  0
VERTEX
  5
F6
330
F5
100
AcDbEntity
  8
_U+30EC_U+30A4_U+30E4_U+30FC 1
 62
   179
420
  2234388
370
    25
100
AcDbVertex
100
AcDb2dVertex
 10
72.47791037315667
 20
-142.4584752421629
 30
0.0
  0
VERTEX
  5
F7
330
F5
100
AcDbEntity
  8
_U+30EC_U+30A4_U+30E4_U+30FC 1
 62
   179
420
  2234388
370
    25
100
AcDbVertex
100
AcDb2dVertex
 10
72.9846756380058
 20
-142.8505524642877
 30
0.0
  0
SEQEND
  5
F8
330
F5
100
AcDbEntity
  8
_U+30EC_U+30A4_U+30E4_U+30FC 1
 62
   179
420
  2234388
370
    25
  0
POLYLINE
  5
F9
330
1F
100
AcDbEntity
  8
_U+30EC_U+30A4_U+30E4_U+30FC 1
 62
   179
420
  2234388
370
    25
100
AcDb2dPolyline
 66
     1
 10
0.0
 20
0.0
 30
0.0
  0
VERTEX
  5
FA
330
F9
100
AcDbEntity
  8
_U+30EC_U+30A4_U+30E4_U+30FC 1
 62
   179
420
  2234388
370
    25
100
AcDbVertex
100
AcDb2dVertex
 10
70.98379068905263
 20
-142.883607742057
 30
0.0
  0
VERTEX
  5
FB
330
F9
100
AcDbEntity
  8
_U+30EC_U+30A4_U+30E4_U+30FC 1
 62
   179
420
  2234388
370
    25
100
AcDbVertex
100
AcDb2dVertex
 10
71.47746789868009
 20
-142.4757260754925
 30
0.0
  0
SEQEND
  5
FC
330
F9
100
AcDbEntity
  8
_U+30EC_U+30A4_U+30E4_U+30FC 1
 62
   179
420
  2234388
370
    25
  0
POLYLINE
  5
FD
330
1F
100
AcDbEntity
  8
_U+30EC_U+30A4_U+30E4_U+30FC 1
 62
   179
420
  2234388
370
    25
100
AcDb2dPolyline
 66
     1
 10
0.0
 20
0.0
 30
0.0
  0
VERTEX
  5
FE
330
FD
100
AcDbEntity
  8
_U+30EC_U+30A4_U+30E4_U+30FC 1
 62
   179
420
  2234388
370
    25
100
AcDbVertex
100
AcDb2dVertex
 10
71.47746789868009
 20
-142.4757260754925
 30
0.0
  0
VERTEX
  5
FF
330
FD
100
AcDbEntity
  8
_U+30EC_U+30A4_U+30E4_U+30FC 1
 62
   179
420
  2234388
370
    25
100
AcDbVertex
100
AcDb2dVertex
 10
71.98423316352921
 20
-142.8670624642835
 30
0.0
  0
SEQEND
  5
100
330
FD
100
AcDbEntity
  8
_U+30EC_U+30A4_U+30E4_U+30FC 1
 62
   179
420
  2234388
370
    25
  0
POLYLINE
  5
101
330
1F
100
AcDbEntity
  8
_U+30EC_U+30A4_U+30E4_U+30FC 1
 62
   179
420
  2234388
370
    25
100
AcDb2dPolyline
 66
     1
 10
0.0
 20
0.0
 30
0.0
  0
VERTEX
  5
102
330
101
100
AcDbEntity
  8
_U+30EC_U+30A4_U+30E4_U+30FC 1
 62
   179
420
  2234388
370
    25
100
AcDbVertex
100
AcDb2dVertex
 10
69.98331293679917
 20
-142.9001530198304
 30
0.0
  0
VERTEX
  5
103
330
101
100
AcDbEntity
  8
_U+30EC_U+30A4_U+30E4_U+30FC 1
 62
   179
420
  2234388
370
    25
100
AcDbVertex
100
AcDb2dVertex
 10
70.47699014642663
 20
-142.4922360754884
 30
0.0
  0
SEQEND
  5
104
330
101
100
AcDbEntity
  8
_U+30EC_U+30A4_U+30E4_U+30FC 1
 62
   179
420
  2234388
370
    25
  0
POLYLINE
  5
105
330
1F
100
AcDbEntity
  8
_U+30EC_U+30A4_U+30E4_U+30FC 1
 62
   179
420
  2234388
370
    25
100
AcDb2dPolyline
 66
     1
 10
0.0
 20
0.0
 30
0.0
  0
VERTEX
  5
106
330
105
100
AcDbEntity
  8
_U+30EC_U+30A4_U+30E4_U+30FC 1
 62
   179
420
  2234388
370
    25
100
AcDbVertex
100
AcDb2dVertex
 10
70.47699014642663
 20
-142.4922360754884
 30
0.0
  0
VERTEX
  5
107
330
105
100
AcDbEntity
  8
_U+30EC_U+30A4_U+30E4_U+30FC 1
 62
   179
420
  2234388
370
    25
100
AcDbVertex
100
AcDb2dVertex
 10
70.98379068905263
 20
-142.883607742057
 30
0.0
  0
SEQEND
  5
108
330
105
100
AcDbEntity
  8
_U+30EC_U+30A4_U+30E4_U+30FC 1
 62
   179
420
  2234388
370
    25
  0
POLYLINE
  5
109
330
1F
100
AcDbEntity
  8
_U+30EC_U+30A4_U+30E4_U+30FC 1
 62
   179
420
  2234388
370
    25
100
AcDb2dPolyline
 66
     1
 10
0.0
 20
0.0
 30
0.0
  0
VERTEX
  5
10A
330
109
100
AcDbEntity
  8
_U+30EC_U+30A4_U+30E4_U+30FC 1
 62
   179
420
  2234388
370
    25
100
AcDbVertex
100
AcDb2dVertex
 10
64.94659889862977
 20
-124.996680802084
 30
0.0
  0
VERTEX
  5
10B
330
109
100
AcDbEntity
  8
_U+30EC_U+30A4_U+30E4_U+30FC 1
 62
   179
420
  2234388
370
    25
100
AcDbVertex
100
AcDb2dVertex
 10
75.04623836318873
 20
-114.8970410823868
 30
0.0
  0
SEQEND
  5
10C
330
109
100
AcDbEntity
  8
_U+30EC_U+30A4_U+30E4_U+30FC 1
 62
   179
420
  2234388
370
    25
  0
POLYLINE
  5
10D
330
1F
100
AcDbEntity
  8
_U+30EC_U+30A4_U+30E4_U+30FC 1
 62
   179
420
  2234388
370
    25
100
AcDb2dPolyline
 66
     1
 10
0.0
 20
0.0
 30
0.0
  0
VERTEX
  5
10E
330
10D
100
AcDbEntity
  8
_U+30EC_U+30A4_U+30E4_U+30FC 1
 62
   179
420
  2234388
370
    25
100
AcDbVertex
100
AcDb2dVertex
 10
65.98150776111594
 20
-142.9669691309252
 30
0.0
  0
VERTEX
  5
10F
330
10D
100
AcDbEntity
  8
_U+30EC_U+30A4_U+30E4_U+30FC 1
 62
   179
420
  2234388
370
    25
100
AcDbVertex
100
AcDb2dVertex
 10
65.47505999625872
 20
-142.5749271865786
 30
0.0
  0
SEQEND
  5
110
330
10D
100
AcDbEntity
  8
_U+30EC_U+30A4_U+30E4_U+30FC 1
 62
   179
420
  2234388
370
    25
  0
POLYLINE
  5
111
330
1F
100
AcDbEntity
  8
_U+30EC_U+30A4_U+30E4_U+30FC 1
 62
   179
420
  2234388
370
    25
100
AcDb2dPolyline
 66
     1
 10
0.0
 20
0.0
 30
0.0
  0
VERTEX
  5
112
330
111
100
AcDbEntity
  8
_U+30EC_U+30A4_U+30E4_U+30FC 1
 62
   179
420
  2234388
370
    25
100
AcDbVertex
100
AcDb2dVertex
 10
65.47505999625872
 20
-142.5749271865786
 30
0.0
  0
VERTEX
  5
113
330
111
100
AcDbEntity
  8
_U+30EC_U+30A4_U+30E4_U+30FC 1
 62
   179
420
  2234388
370
    25
100
AcDbVertex
100
AcDb2dVertex
 10
64.98138278663126
 20
-142.9835144086986
 30
0.0
  0
SEQEND
  5
114
330
111
100
AcDbEntity
  8
_U+30EC_U+30A4_U+30E4_U+30FC 1
 62
   179
420
  2234388
370
    25
  0
POLYLINE
  5
115
330
1F
100
AcDbEntity
  8
_U+30EC_U+30A4_U+30E4_U+30FC 1
 62
   179
420
  2234388
370
    25
100
AcDb2dPolyline
 66
     1
 10
0.0
 20
0.0
 30
0.0
  0
VERTEX
  5
116
330
115
100
AcDbEntity
  8
_U+30EC_U+30A4_U+30E4_U+30FC 1
 62
   179
420
  2234388
370
    25
100
AcDbVertex
100
AcDb2dVertex
 10
66.98195023559254
 20
-142.9504591309293
 30
0.0
  0
VERTEX
  5
117
330
115
100
AcDbEntity
  8
_U+30EC_U+30A4_U+30E4_U+30FC 1
 62
   179
420
  2234388
370
    25
100
AcDbVertex
100
AcDb2dVertex
 10
66.47553774851218
 20
-142.5583819088052
 30
0.0
  0
SEQEND
  5
118
330
115
100
AcDbEntity
  8
_U+30EC_U+30A4_U+30E4_U+30FC 1
 62
   179
420
  2234388
370
    25
  0
POLYLINE
  5
119
330
1F
100
AcDbEntity
  8
_U+30EC_U+30A4_U+30E4_U+30FC 1
 62
   179
420
  2234388
370
    25
100
AcDb2dPolyline
 66
     1
 10
0.0
 20
0.0
 30
0.0
  0
VERTEX
  5
11A
330
119
100
AcDbEntity
  8
_U+30EC_U+30A4_U+30E4_U+30FC 1
 62
   179
420
  2234388
370
    25
100
AcDbVertex
100
AcDb2dVertex
 10
66.47553774851218
 20
-142.5583819088052
 30
0.0
  0
VERTEX
  5
11B
330
119
100
AcDbEntity
  8
_U+30EC_U+30A4_U+30E4_U+30FC 1
 62
   179
420
  2234388
370
    25
100
AcDbVertex
100
AcDb2dVertex
 10
65.98150776111594
 20
-142.9669691309252
 30
0.0
  0
SEQEND
  5
11C
330
119
100
AcDbEntity
  8
_U+30EC_U+30A4_U+30E4_U+30FC 1
 62
   179
420
  2234388
370
    25
  0
POLYLINE
  5
11D
330
1F
100
AcDbEntity
  8
_U+30EC_U+30A4_U+30E4_U+30FC 1
 62
   179
420
  2234388
370
    25
100
AcDb2dPolyline
 66
     1
 10
0.0
 20
0.0
 30
0.0
  0
VERTEX
  5
11E
330
11D
100
AcDbEntity
  8
_U+30EC_U+30A4_U+30E4_U+30FC 1
 62
   179
420
  2234388
370
    25
100
AcDbVertex
100
AcDb2dVertex
 10
67.982427987846
 20
-142.9332082976003
 30
0.0
  0
VERTEX
  5
11F
330
11D
100
AcDbEntity
  8
_U+30EC_U+30A4_U+30E4_U+30FC 1
 62
   179
420
  2234388
370
    25
100
AcDbVertex
100
AcDb2dVertex
 10
67.47598022298877
 20
-142.5418719088093
 30
0.0
  0
SEQEND
  5
120
330
11D
100
AcDbEntity
  8
_U+30EC_U+30A4_U+30E4_U+30FC 1
 62
   179
420
  2234388
370
    25
  0
POLYLINE
  5
121
330
1F
100
AcDbEntity
  8
_U+30EC_U+30A4_U+30E4_U+30FC 1
 62
   179
420
  2234388
370
    25
100
AcDb2dPolyline
 66
     1
 10
0.0
 20
0.0
 30
0.0
  0
VERTEX
  5
122
330
121
100
AcDbEntity
  8
_U+30EC_U+30A4_U+30E4_U+30FC 1
 62
   179
420
  2234388
370
    25
100
AcDbVertex
100
AcDb2dVertex
 10
67.47598022298877
 20
-142.5418719088093
 30
0.0
  0
VERTEX
  5
123
330
121
100
AcDbEntity
  8
_U+30EC_U+30A4_U+30E4_U+30FC 1
 62
   179
420
  2234388
370
    25
100
AcDbVertex
100
AcDb2dVertex
 10
66.98195023559254
 20
-142.9504591309293
 30
0.0
  0
SEQEND
  5
124
330
121
100
AcDbEntity
  8
_U+30EC_U+30A4_U+30E4_U+30FC 1
 62
   179
420
  2234388
370
    25
  0
POLYLINE
  5
125
330
1F
100
AcDbEntity
  8
_U+30EC_U+30A4_U+30E4_U+30FC 1
 62
   179
420
  2234388
370
    25
100
AcDb2dPolyline
 66
     1
 10
0.0
 20
0.0
 30
0.0
  0
VERTEX
  5
126
330
125
100
AcDbEntity
  8
_U+30EC_U+30A4_U+30E4_U+30FC 1
 62
   179
420
  2234388
370
    25
100
AcDbVertex
100
AcDb2dVertex
 10
68.98287220497664
 20
-142.9166982976045
 30
0.0
  0
VERTEX
  5
127
330
125
100
AcDbEntity
  8
_U+30EC_U+30A4_U+30E4_U+30FC 1
 62
   179
420
  2234388
370
    25
100
AcDbVertex
100
AcDb2dVertex
 10
68.47610519747346
 20
-142.5253266310352
 30
0.0
  0
SEQEND
  5
128
330
125
100
AcDbEntity
  8
_U+30EC_U+30A4_U+30E4_U+30FC 1
 62
   179
420
  2234388
370
    25
  0
POLYLINE
  5
129
330
1F
100
AcDbEntity
  8
_U+30EC_U+30A4_U+30E4_U+30FC 1
 62
   179
420
  2234388
370
    25
100
AcDb2dPolyline
 66
     1
 10
0.0
 20
0.0
 30
0.0
  0
VERTEX
  5
12A
330
129
100
AcDbEntity
  8
_U+30EC_U+30A4_U+30E4_U+30FC 1
 62
   179
420
  2234388
370
    25
100
AcDbVertex
100
AcDb2dVertex
 10
68.47610519747346
 20
-142.5253266310352
 30
0.0
  0
VERTEX
  5
12B
330
129
100
AcDbEntity
  8
_U+30EC_U+30A4_U+30E4_U+30FC 1
 62
   179
420
  2234388
370
    25
100
AcDbVertex
100
AcDb2dVertex
 10
67.982427987846
 20
-142.9332082976003
 30
0.0
  0
SEQEND
  5
12C
330
129
100
AcDbEntity
  8
_U+30EC_U+30A4_U+30E4_U+30FC 1
 62
   179
420
  2234388
370
    25
  0
POLYLINE
  5
12D
330
1F
100
AcDbEntity
  8
_U+30EC_U+30A4_U+30E4_U+30FC 1
 62
   179
420
  2234388
370
    25
100
AcDb2dPolyline
 66
     1
 10
0.0
 20
0.0
 30
0.0
  0
VERTEX
  5
12E
330
12D
100
AcDbEntity
  8
_U+30EC_U+30A4_U+30E4_U+30FC 1
 62
   179
420
  2234388
370
    25
100
AcDbVertex
100
AcDb2dVertex
 10
69.98331293679917
 20
-142.9001530198304
 30
0.0
  0
VERTEX
  5
12F
330
12D
100
AcDbEntity
  8
_U+30EC_U+30A4_U+30E4_U+30FC 1
 62
   179
420
  2234388
370
    25
100
AcDbVertex
100
AcDb2dVertex
 10
69.47654767195004
 20
-142.5087813532618
 30
0.0
  0
SEQEND
  5
130
330
12D
100
AcDbEntity
  8
_U+30EC_U+30A4_U+30E4_U+30FC 1
 62
   179
420
  2234388
370
    25
  0
POLYLINE
  5
131
330
1F
100
AcDbEntity
  8
_U+30EC_U+30A4_U+30E4_U+30FC 1
 62
   179
420
  2234388
370
    25
100
AcDb2dPolyline
 66
     1
 10
0.0
 20
0.0
 30
0.0
  0
VERTEX
  5
132
330
131
100
AcDbEntity
  8
_U+30EC_U+30A4_U+30E4_U+30FC 1
 62
   179
420
  2234388
370
    25
100
AcDbVertex
100
AcDb2dVertex
 10
69.47654767195004
 20
-142.5087813532618
 30
0.0
  0
VERTEX
  5
133
330
131
100
AcDbEntity
  8
_U+30EC_U+30A4_U+30E4_U+30FC 1
 62
   179
420
  2234388
370
    25
100
AcDbVertex
100
AcDb2dVertex
 10
68.98287220497664
 20
-142.9166982976045
 30
0.0
  0
SEQEND
  5
134
330
131
100
AcDbEntity
  8
_U+30EC_U+30A4_U+30E4_U+30FC 1
 62
   179
420
  2234388
370
    25
  0
POLYLINE
  5
135
330
1F
100
AcDbEntity
  8
_U+30EC_U+30A4_U+30E4_U+30FC 1
 62
   179
420
  2234388
370
    25
100
AcDb2dPolyline
 66
     1
 10
0.0
 20
0.0
 30
0.0
  0
VERTEX
  5
136
330
135
100
AcDbEntity
  8
_U+30EC_U+30A4_U+30E4_U+30FC 1
 62
   179
420
  2234388
370
    25
100
AcDbVertex
100
AcDb2dVertex
 10
59.54433653645297
 20
-143.0737902420094
 30
0.0
  0
VERTEX
  5
137
330
135
100
AcDbEntity
  8
_U+30EC_U+30A4_U+30E4_U+30FC 1
 62
   179
420
  2234388
370
    25
100
AcDbVertex
100
AcDb2dVertex
 10
59.97909985869457
 20
-143.0668757975668
 30
0.0
  0
SEQEND
  5
138
330
135
100
AcDbEntity
  8
_U+30EC_U+30A4_U+30E4_U+30FC 1
 62
   179
420
  2234388
370
    25
  0
POLYLINE
  5
139
330
1F
100
AcDbEntity
  8
_U+30EC_U+30A4_U+30E4_U+30FC 1
 62
   179
420
  2234388
370
    25
100
AcDb2dPolyline
 66
     1
 10
0.0
 20
0.0
 30
0.0
  0
VERTEX
  5
13A
330
139
100
AcDbEntity
  8
_U+30EC_U+30A4_U+30E4_U+30FC 1
 62
   179
420
  2234388
370
    25
100
AcDbVertex
100
AcDb2dVertex
 10
63.98094031215467
 20
-143.000059686472
 30
0.0
  0
VERTEX
  5
13B
330
139
100
AcDbEntity
  8
_U+30EC_U+30A4_U+30E4_U+30FC 1
 62
   179
420
  2234388
370
    25
100
AcDbVertex
100
AcDb2dVertex
 10
64.47461752178214
 20
-142.591472464352
 30
0.0
  0
SEQEND
  5
13C
330
139
100
AcDbEntity
  8
_U+30EC_U+30A4_U+30E4_U+30FC 1
 62
   179
420
  2234388
370
    25
  0
POLYLINE
  5
13D
330
1F
100
AcDbEntity
  8
_U+30EC_U+30A4_U+30E4_U+30FC 1
 62
   179
420
  2234388
370
    25
100
AcDb2dPolyline
 66
     1
 10
0.0
 20
0.0
 30
0.0
  0
VERTEX
  5
13E
330
13D
100
AcDbEntity
  8
_U+30EC_U+30A4_U+30E4_U+30FC 1
 62
   179
420
  2234388
370
    25
100
AcDbVertex
100
AcDb2dVertex
 10
63.47417504730555
 20
-142.6086880199034
 30
0.0
  0
VERTEX
  5
13F
330
13D
100
AcDbEntity
  8
_U+30EC_U+30A4_U+30E4_U+30FC 1
 62
   179
420
  2234388
370
    25
100
AcDbVertex
100
AcDb2dVertex
 10
63.98094031215467
 20
-143.000059686472
 30
0.0
  0
SEQEND
  5
140
330
13D
100
AcDbEntity
  8
_U+30EC_U+30A4_U+30E4_U+30FC 1
 62
   179
420
  2234388
370
    25
  0
POLYLINE
  5
141
330
1F
100
AcDbEntity
  8
_U+30EC_U+30A4_U+30E4_U+30FC 1
 62
   179
420
  2234388
370
    25
100
AcDb2dPolyline
 66
     1
 10
0.0
 20
0.0
 30
0.0
  0
VERTEX
  5
142
330
141
100
AcDbEntity
  8
_U+30EC_U+30A4_U+30E4_U+30FC 1
 62
   179
420
  2234388
370
    25
100
AcDbVertex
100
AcDb2dVertex
 10
62.47369729505208
 20
-142.6252332976768
 30
0.0
  0
VERTEX
  5
143
330
141
100
AcDbEntity
  8
_U+30EC_U+30A4_U+30E4_U+30FC 1
 62
   179
420
  2234388
370
    25
100
AcDbVertex
100
AcDb2dVertex
 10
62.98046255990121
 20
-143.0166049642461
 30
0.0
  0
SEQEND
  5
144
330
141
100
AcDbEntity
  8
_U+30EC_U+30A4_U+30E4_U+30FC 1
 62
   179
420
  2234388
370
    25
  0
POLYLINE
  5
145
330
1F
100
AcDbEntity
  8
_U+30EC_U+30A4_U+30E4_U+30FC 1
 62
   179
420
  2234388
370
    25
100
AcDb2dPolyline
 66
     1
 10
0.0
 20
0.0
 30
0.0
  0
VERTEX
  5
146
330
145
100
AcDbEntity
  8
_U+30EC_U+30A4_U+30E4_U+30FC 1
 62
   179
420
  2234388
370
    25
100
AcDbVertex
100
AcDb2dVertex
 10
60.47277706832204
 20
-142.6582885754468
 30
0.0
  0
VERTEX
  5
147
330
145
100
AcDbEntity
  8
_U+30EC_U+30A4_U+30E4_U+30FC 1
 62
   179
420
  2234388
370
    25
100
AcDbVertex
100
AcDb2dVertex
 10
60.97957761094803
 20
-143.0496602420154
 30
0.0
  0
SEQEND
  5
148
330
145
100
AcDbEntity
  8
_U+30EC_U+30A4_U+30E4_U+30FC 1
 62
   179
420
  2234388
370
    25
  0
POLYLINE
  5
149
330
1F
100
AcDbEntity
  8
_U+30EC_U+30A4_U+30E4_U+30FC 1
 62
   179
420
  2234388
370
    25
100
AcDb2dPolyline
 66
     1
 10
0.0
 20
0.0
 30
0.0
  0
VERTEX
  5
14A
330
149
100
AcDbEntity
  8
_U+30EC_U+30A4_U+30E4_U+30FC 1
 62
   179
420
  2234388
370
    25
100
AcDbVertex
100
AcDb2dVertex
 10
59.97909985869457
 20
-143.0668757975668
 30
0.0
  0
VERTEX
  5
14B
330
149
100
AcDbEntity
  8
_U+30EC_U+30A4_U+30E4_U+30FC 1
 62
   179
420
  2234388
370
    25
100
AcDbVertex
100
AcDb2dVertex
 10
60.47277706832204
 20
-142.6582885754468
 30
0.0
  0
SEQEND
  5
14C
330
149
100
AcDbEntity
  8
_U+30EC_U+30A4_U+30E4_U+30FC 1
 62
   179
420
  2234388
370
    25
  0
POLYLINE
  5
14D
330
1F
100
AcDbEntity
  8
_U+30EC_U+30A4_U+30E4_U+30FC 1
 62
   179
420
  2234388
370
    25
100
AcDb2dPolyline
 66
     1
 10
0.0
 20
0.0
 30
0.0
  0
VERTEX
  5
14E
330
14D
100
AcDbEntity
  8
_U+30EC_U+30A4_U+30E4_U+30FC 1
 62
   179
420
  2234388
370
    25
100
AcDbVertex
100
AcDb2dVertex
 10
61.4732548205755
 20
-142.6417785754509
 30
0.0
  0
VERTEX
  5
14F
330
14D
100
AcDbEntity
  8
_U+30EC_U+30A4_U+30E4_U+30FC 1
 62
   179
420
  2234388
370
    25
100
AcDbVertex
100
AcDb2dVertex
 10
61.98002008542462
 20
-143.033114964242
 30
0.0
  0
SEQEND
  5
150
330
14D
100
AcDbEntity
  8
_U+30EC_U+30A4_U+30E4_U+30FC 1
 62
   179
420
  2234388
370
    25
  0
POLYLINE
  5
151
330
1F
100
AcDbEntity
  8
_U+30EC_U+30A4_U+30E4_U+30FC 1
 62
   179
420
  2234388
370
    25
100
AcDb2dPolyline
 66
     1
 10
0.0
 20
0.0
 30
0.0
  0
VERTEX
  5
152
330
151
100
AcDbEntity
  8
_U+30EC_U+30A4_U+30E4_U+30FC 1
 62
   179
420
  2234388
370
    25
100
AcDbVertex
100
AcDb2dVertex
 10
60.97957761094803
 20
-143.0496602420154
 30
0.0
  0
VERTEX
  5
153
330
151
100
AcDbEntity
  8
_U+30EC_U+30A4_U+30E4_U+30FC 1
 62
   179
420
  2234388
370
    25
100
AcDbVertex
100
AcDb2dVertex
 10
61.4732548205755
 20
-142.6417785754509
 30
0.0
  0
SEQEND
  5
154
330
151
100
AcDbEntity
  8
_U+30EC_U+30A4_U+30E4_U+30FC 1
 62
   179
420
  2234388
370
    25
  0
POLYLINE
  5
155
330
1F
100
AcDbEntity
  8
_U+30EC_U+30A4_U+30E4_U+30FC 1
 62
   179
420
  2234388
370
    25
100
AcDb2dPolyline
 66
     1
 10
0.0
 20
0.0
 30
0.0
  0
VERTEX
  5
156
330
155
100
AcDbEntity
  8
_U+30EC_U+30A4_U+30E4_U+30FC 1
 62
   179
420
  2234388
370
    25
100
AcDbVertex
100
AcDb2dVertex
 10
61.98002008542462
 20
-143.033114964242
 30
0.0
  0
VERTEX
  5
157
330
155
100
AcDbEntity
  8
_U+30EC_U+30A4_U+30E4_U+30FC 1
 62
   179
420
  2234388
370
    25
100
AcDbVertex
100
AcDb2dVertex
 10
62.47369729505208
 20
-142.6252332976768
 30
0.0
  0
SEQEND
  5
158
330
155
100
AcDbEntity
  8
_U+30EC_U+30A4_U+30E4_U+30FC 1
 62
   179
420
  2234388
370
    25
  0
POLYLINE
  5
159
330
1F
100
AcDbEntity
  8
_U+30EC_U+30A4_U+30E4_U+30FC 1
 62
   179
420
  2234388
370
    25
100
AcDb2dPolyline
 66
     1
 10
0.0
 20
0.0
 30
0.0
  0
VERTEX
  5
15A
330
159
100
AcDbEntity
  8
_U+30EC_U+30A4_U+30E4_U+30FC 1
 62
   179
420
  2234388
370
    25
100
AcDbVertex
100
AcDb2dVertex
 10
62.98046255990121
 20
-143.0166049642461
 30
0.0
  0
VERTEX
  5
15B
330
159
100
AcDbEntity
  8
_U+30EC_U+30A4_U+30E4_U+30FC 1
 62
   179
420
  2234388
370
    25
100
AcDbVertex
100
AcDb2dVertex
 10
63.47417504730555
 20
-142.6086880199034
 30
0.0
  0
SEQEND
  5
15C
330
159
100
AcDbEntity
  8
_U+30EC_U+30A4_U+30E4_U+30FC 1
 62
   179
420
  2234388
370
    25
  0
POLYLINE
  5
15D
330
1F
100
AcDbEntity
  8
_U+30EC_U+30A4_U+30E4_U+30FC 1
 62
   179
420
  2234388
370
    25
100
AcDb2dPolyline
 66
     1
 10
0.0
 20
0.0
 30
0.0
  0
VERTEX
  5
15E
330
15D
100
AcDbEntity
  8
_U+30EC_U+30A4_U+30E4_U+30FC 1
 62
   179
420
  2234388
370
    25
100
AcDbVertex
100
AcDb2dVertex
 10
64.47461752178214
 20
-142.591472464352
 30
0.0
  0
VERTEX
  5
15F
330
15D
100
AcDbEntity
  8
_U+30EC_U+30A4_U+30E4_U+30FC 1
 62
   179
420
  2234388
370
    25
100
AcDbVertex
100
AcDb2dVertex
 10
64.98138278663126
 20
-142.9835144086986
 30
0.0
  0
SEQEND
  5
160
330
15D
100
AcDbEntity
  8
_U+30EC_U+30A4_U+30E4_U+30FC 1
 62
   179
420
  2234388
370
    25
  0
POLYLINE
  5
161
330
1F
100
AcDbEntity
  8
_U+30EC_U+30A4_U+30E4_U+30FC 1
 62
   179
420
  2234388
370
    25
100
AcDb2dPolyline
 66
     1
 10
0.0
 20
0.0
 30
0.0
  0
VERTEX
  5
162
330
161
100
AcDbEntity
  8
_U+30EC_U+30A4_U+30E4_U+30FC 1
 62
   179
420
  2234388
370
    25
100
AcDbVertex
100
AcDb2dVertex
 10
60.16790652054438
 20
-108.075729972981
 30
0.0
  0
VERTEX
  5
163
330
161
100
AcDbEntity
  8
_U+30EC_U+30A4_U+30E4_U+30FC 1
 62
   179
420
  2234388
370
    25
100
AcDbVertex
100
AcDb2dVertex
 10
59.56811375806858
 20
-108.075729972981
 30
0.0
  0
SEQEND
  5
164
330
161
100
AcDbEntity
  8
_U+30EC_U+30A4_U+30E4_U+30FC 1
 62
   179
420
  2234388
370
    25
  0
POLYLINE
  5
165
330
1F
100
AcDbEntity
  8
_U+30EC_U+30A4_U+30E4_U+30FC 1
 62
   179
420
  2234388
370
    25
100
AcDb2dPolyline
 66
     1
 10
0.0
 20
0.0
 30
0.0
  0
VERTEX
  5
166
330
165
100
AcDbEntity
  8
_U+30EC_U+30A4_U+30E4_U+30FC 1
 62
   179
420
  2234388
370
    25
100
AcDbVertex
100
AcDb2dVertex
 10
60.16790652054438
 20
-141.8997105200805
 30
0.0
  0
VERTEX
  5
167
330
165
100
AcDbEntity
  8
_U+30EC_U+30A4_U+30E4_U+30FC 1
 62
   179
420
  2234388
370
    25
100
AcDbVertex
100
AcDb2dVertex
 10
60.16790652054438
 20
-108.075729972981
 30
0.0
  0
SEQEND
  5
168
330
165
100
AcDbEntity
  8
_U+30EC_U+30A4_U+30E4_U+30FC 1
 62
   179
420
  2234388
370
    25
  0
POLYLINE
  5
169
330
1F
100
AcDbEntity
  8
_U+30EC_U+30A4_U+30E4_U+30FC 1
 62
   179
420
  2234388
370
    25
100
AcDb2dPolyline
 66
     1
 10
0.0
 20
0.0
 30
0.0
  0
VERTEX
  5
16A
330
169
100
AcDbEntity
  8
_U+30EC_U+30A4_U+30E4_U+30FC 1
 62
   179
420
  2234388
370
    25
100
AcDbVertex
100
AcDb2dVertex
 10
59.55121570294413
 20
-109.0762077505087
 30
0.0
  0
VERTEX
  5
16B
330
169
100
AcDbEntity
  8
_U+30EC_U+30A4_U+30E4_U+30FC 1
 62
   179
420
  2234388
370
    25
100
AcDbVertex
100
AcDb2dVertex
 10
59.95980291474243
 20
-108.5828480284097
 30
0.0
  0
SEQEND
  5
16C
330
169
100
AcDbEntity
  8
_U+30EC_U+30A4_U+30E4_U+30FC 1
 62
   179
420
  2234388
370
    25
  0
POLYLINE
  5
16D
330
1F
100
AcDbEntity
  8
_U+30EC_U+30A4_U+30E4_U+30FC 1
 62
   179
420
  2234388
370
    25
100
AcDb2dPolyline
 66
     1
 10
0.0
 20
0.0
 30
0.0
  0
VERTEX
  5
16E
330
16D
100
AcDbEntity
  8
_U+30EC_U+30A4_U+30E4_U+30FC 1
 62
   179
420
  2234388
370
    25
100
AcDbVertex
100
AcDb2dVertex
 10
59.95980291474243
 20
-108.5828480284097
 30
0.0
  0
VERTEX
  5
16F
330
16D
100
AcDbEntity
  8
_U+30EC_U+30A4_U+30E4_U+30FC 1
 62
   179
420
  2234388
370
    25
100
AcDbVertex
100
AcDb2dVertex
 10
59.56811375806858
 20
-108.075729972981
 30
0.0
  0
SEQEND
  5
170
330
16D
100
AcDbEntity
  8
_U+30EC_U+30A4_U+30E4_U+30FC 1
 62
   179
420
  2234388
370
    25
  0
POLYLINE
  5
171
330
1F
100
AcDbEntity
  8
_U+30EC_U+30A4_U+30E4_U+30FC 1
 62
   179
420
  2234388
370
    25
100
AcDb2dPolyline
 66
     1
 10
0.0
 20
0.0
 30
0.0
  0
VERTEX
  5
172
330
171
100
AcDbEntity
  8
_U+30EC_U+30A4_U+30E4_U+30FC 1
 62
   179
420
  2234388
370
    25
100
AcDbVertex
100
AcDb2dVertex
 10
59.53470570336534
 20
-110.0766502502586
 30
0.0
  0
VERTEX
  5
173
330
171
100
AcDbEntity
  8
_U+30EC_U+30A4_U+30E4_U+30FC 1
 62
   179
420
  2234388
370
    25
100
AcDbVertex
100
AcDb2dVertex
 10
59.9432944294585
 20
-109.5833258059375
 30
0.0
  0
SEQEND
  5
174
330
171
100
AcDbEntity
  8
_U+30EC_U+30A4_U+30E4_U+30FC 1
 62
   179
420
  2234388
370
    25
  0
POLYLINE
  5
175
330
1F
100
AcDbEntity
  8
_U+30EC_U+30A4_U+30E4_U+30FC 1
 62
   179
420
  2234388
370
    25
100
AcDb2dPolyline
 66
     1
 10
0.0
 20
0.0
 30
0.0
  0
VERTEX
  5
176
330
175
100
AcDbEntity
  8
_U+30EC_U+30A4_U+30E4_U+30FC 1
 62
   179
420
  2234388
370
    25
100
AcDbVertex
100
AcDb2dVertex
 10
59.9432944294585
 20
-109.5833258059375
 30
0.0
  0
VERTEX
  5
177
330
175
100
AcDbEntity
  8
_U+30EC_U+30A4_U+30E4_U+30FC 1
 62
   179
420
  2234388
370
    25
100
AcDbVertex
100
AcDb2dVertex
 10
59.55121570294413
 20
-109.0762077505087
 30
0.0
  0
SEQEND
  5
178
330
175
100
AcDbEntity
  8
_U+30EC_U+30A4_U+30E4_U+30FC 1
 62
   179
420
  2234388
370
    25
  0
POLYLINE
  5
179
330
1F
100
AcDbEntity
  8
_U+30EC_U+30A4_U+30E4_U+30FC 1
 62
   179
420
  2234388
370
    25
100
AcDb2dPolyline
 66
     1
 10
0.0
 20
0.0
 30
0.0
  0
VERTEX
  5
17A
330
179
100
AcDbEntity
  8
_U+30EC_U+30A4_U+30E4_U+30FC 1
 62
   179
420
  2234388
370
    25
100
AcDbVertex
100
AcDb2dVertex
 10
59.51816042600967
 20
-111.0771280277863
 30
0.0
  0
VERTEX
  5
17B
330
179
100
AcDbEntity
  8
_U+30EC_U+30A4_U+30E4_U+30FC 1
 62
   179
420
  2234388
370
    25
100
AcDbVertex
100
AcDb2dVertex
 10
59.92639486003919
 20
-110.5837683056874
 30
0.0
  0
SEQEND
  5
17C
330
179
100
AcDbEntity
  8
_U+30EC_U+30A4_U+30E4_U+30FC 1
 62
   179
420
  2234388
370
    25
  0
POLYLINE
  5
17D
330
1F
100
AcDbEntity
  8
_U+30EC_U+30A4_U+30E4_U+30FC 1
 62
   179
420
  2234388
370
    25
100
AcDb2dPolyline
 66
     1
 10
0.0
 20
0.0
 30
0.0
  0
VERTEX
  5
17E
330
17D
100
AcDbEntity
  8
_U+30EC_U+30A4_U+30E4_U+30FC 1
 62
   179
420
  2234388
370
    25
100
AcDbVertex
100
AcDb2dVertex
 10
59.92639486003919
 20
-110.5837683056874
 30
0.0
  0
VERTEX
  5
17F
330
17D
100
AcDbEntity
  8
_U+30EC_U+30A4_U+30E4_U+30FC 1
 62
   179
420
  2234388
370
    25
100
AcDbVertex
100
AcDb2dVertex
 10
59.53470570336534
 20
-110.0766502502586
 30
0.0
  0
SEQEND
  5
180
330
17D
100
AcDbEntity
  8
_U+30EC_U+30A4_U+30E4_U+30FC 1
 62
   179
420
  2234388
370
    25
  0
POLYLINE
  5
181
330
1F
100
AcDbEntity
  8
_U+30EC_U+30A4_U+30E4_U+30FC 1
 62
   179
420
  2234388
370
    25
100
AcDb2dPolyline
 66
     1
 10
0.0
 20
0.0
 30
0.0
  0
VERTEX
  5
182
330
181
100
AcDbEntity
  8
_U+30EC_U+30A4_U+30E4_U+30FC 1
 62
   179
420
  2234388
370
    25
100
AcDbVertex
100
AcDb2dVertex
 10
59.50161665179132
 20
-112.0775705275363
 30
0.0
  0
VERTEX
  5
183
330
181
100
AcDbEntity
  8
_U+30EC_U+30A4_U+30E4_U+30FC 1
 62
   179
420
  2234388
370
    25
100
AcDbVertex
100
AcDb2dVertex
 10
59.90984958268351
 20
-111.5835405276596
 30
0.0
  0
SEQEND
  5
184
330
181
100
AcDbEntity
  8
_U+30EC_U+30A4_U+30E4_U+30FC 1
 62
   179
420
  2234388
370
    25
  0
POLYLINE
  5
185
330
1F
100
AcDbEntity
  8
_U+30EC_U+30A4_U+30E4_U+30FC 1
 62
   179
420
  2234388
370
    25
100
AcDb2dPolyline
 66
     1
 10
0.0
 20
0.0
 30
0.0
  0
VERTEX
  5
186
330
185
100
AcDbEntity
  8
_U+30EC_U+30A4_U+30E4_U+30FC 1
 62
   179
420
  2234388
370
    25
100
AcDbVertex
100
AcDb2dVertex
 10
59.90984958268351
 20
-111.5835405276596
 30
0.0
  0
VERTEX
  5
187
330
185
100
AcDbEntity
  8
_U+30EC_U+30A4_U+30E4_U+30FC 1
 62
   179
420
  2234388
370
    25
100
AcDbVertex
100
AcDb2dVertex
 10
59.51816042600967
 20
-111.0771280277863
 30
0.0
  0
SEQEND
  5
188
330
185
100
AcDbEntity
  8
_U+30EC_U+30A4_U+30E4_U+30FC 1
 62
   179
420
  2234388
370
    25
  0
POLYLINE
  5
189
330
1F
100
AcDbEntity
  8
_U+30EC_U+30A4_U+30E4_U+30FC 1
 62
   179
420
  2234388
370
    25
100
AcDb2dPolyline
 66
     1
 10
0.0
 20
0.0
 30
0.0
  0
VERTEX
  5
18A
330
189
100
AcDbEntity
  8
_U+30EC_U+30A4_U+30E4_U+30FC 1
 62
   179
420
  2234388
370
    25
100
AcDbVertex
100
AcDb2dVertex
 10
59.48506987129832
 20
-113.0780130272861
 30
0.0
  0
VERTEX
  5
18B
330
189
100
AcDbEntity
  8
_U+30EC_U+30A4_U+30E4_U+30FC 1
 62
   179
420
  2234388
370
    25
100
AcDbVertex
100
AcDb2dVertex
 10
59.89298680533594
 20
-112.5839830274095
 30
0.0
  0
SEQEND
  5
18C
330
189
100
AcDbEntity
  8
_U+30EC_U+30A4_U+30E4_U+30FC 1
 62
   179
420
  2234388
370
    25
  0
POLYLINE
  5
18D
330
1F
100
AcDbEntity
  8
_U+30EC_U+30A4_U+30E4_U+30FC 1
 62
   179
420
  2234388
370
    25
100
AcDb2dPolyline
 66
     1
 10
0.0
 20
0.0
 30
0.0
  0
VERTEX
  5
18E
330
18D
100
AcDbEntity
  8
_U+30EC_U+30A4_U+30E4_U+30FC 1
 62
   179
420
  2234388
370
    25
100
AcDbVertex
100
AcDb2dVertex
 10
59.89298680533594
 20
-112.5839830274095
 30
0.0
  0
VERTEX
  5
18F
330
18D
100
AcDbEntity
  8
_U+30EC_U+30A4_U+30E4_U+30FC 1
 62
   179
420
  2234388
370
    25
100
AcDbVertex
100
AcDb2dVertex
 10
59.50161665179132
 20
-112.0775705275363
 30
0.0
  0
SEQEND
  5
190
330
18D
100
AcDbEntity
  8
_U+30EC_U+30A4_U+30E4_U+30FC 1
 62
   179
420
  2234388
370
    25
  0
POLYLINE
  5
191
330
1F
100
AcDbEntity
  8
_U+30EC_U+30A4_U+30E4_U+30FC 1
 62
   179
420
  2234388
370
    25
100
AcDb2dPolyline
 66
     1
 10
0.0
 20
0.0
 30
0.0
  0
VERTEX
  5
192
330
191
100
AcDbEntity
  8
_U+30EC_U+30A4_U+30E4_U+30FC 1
 62
   179
420
  2234388
370
    25
100
AcDbVertex
100
AcDb2dVertex
 10
59.46855987171953
 20
-114.0784908048136
 30
0.0
  0
VERTEX
  5
193
330
191
100
AcDbEntity
  8
_U+30EC_U+30A4_U+30E4_U+30FC 1
 62
   179
420
  2234388
370
    25
100
AcDbVertex
100
AcDb2dVertex
 10
59.87644152798027
 20
-113.5844608049372
 30
0.0
  0
SEQEND
  5
194
330
191
100
AcDbEntity
  8
_U+30EC_U+30A4_U+30E4_U+30FC 1
 62
   179
420
  2234388
370
    25
  0
POLYLINE
  5
195
330
1F
100
AcDbEntity
  8
_U+30EC_U+30A4_U+30E4_U+30FC 1
 62
   179
420
  2234388
370
    25
100
AcDb2dPolyline
 66
     1
 10
0.0
 20
0.0
 30
0.0
  0
VERTEX
  5
196
330
195
100
AcDbEntity
  8
_U+30EC_U+30A4_U+30E4_U+30FC 1
 62
   179
420
  2234388
370
    25
100
AcDbVertex
100
AcDb2dVertex
 10
59.87644152798027
 20
-113.5844608049372
 30
0.0
  0
VERTEX
  5
197
330
195
100
AcDbEntity
  8
_U+30EC_U+30A4_U+30E4_U+30FC 1
 62
   179
420
  2234388
370
    25
100
AcDbVertex
100
AcDb2dVertex
 10
59.48506987129832
 20
-113.0780130272861
 30
0.0
  0
SEQEND
  5
198
330
195
100
AcDbEntity
  8
_U+30EC_U+30A4_U+30E4_U+30FC 1
 62
   179
420
  2234388
370
    25
  0
POLYLINE
  5
199
330
1F
100
AcDbEntity
  8
_U+30EC_U+30A4_U+30E4_U+30FC 1
 62
   179
420
  2234388
370
    25
100
AcDb2dPolyline
 66
     1
 10
0.0
 20
0.0
 30
0.0
  0
VERTEX
  5
19A
330
199
100
AcDbEntity
  8
_U+30EC_U+30A4_U+30E4_U+30FC 1
 62
   179
420
  2234388
370
    25
100
AcDbVertex
100
AcDb2dVertex
 10
59.45166181659508
 20
-115.0789333045635
 30
0.0
  0
VERTEX
  5
19B
330
199
100
AcDbEntity
  8
_U+30EC_U+30A4_U+30E4_U+30FC 1
 62
   179
420
  2234388
370
    25
100
AcDbVertex
100
AcDb2dVertex
 10
59.85989625062459
 20
-114.5849033046871
 30
0.0
  0
SEQEND
  5
19C
330
199
100
AcDbEntity
  8
_U+30EC_U+30A4_U+30E4_U+30FC 1
 62
   179
420
  2234388
370
    25
  0
POLYLINE
  5
19D
330
1F
100
AcDbEntity
  8
_U+30EC_U+30A4_U+30E4_U+30FC 1
 62
   179
420
  2234388
370
    25
100
AcDb2dPolyline
 66
     1
 10
0.0
 20
0.0
 30
0.0
  0
VERTEX
  5
19E
330
19D
100
AcDbEntity
  8
_U+30EC_U+30A4_U+30E4_U+30FC 1
 62
   179
420
  2234388
370
    25
100
AcDbVertex
100
AcDb2dVertex
 10
59.85989625062459
 20
-114.5849033046871
 30
0.0
  0
VERTEX
  5
19F
330
19D
100
AcDbEntity
  8
_U+30EC_U+30A4_U+30E4_U+30FC 1
 62
   179
420
  2234388
370
    25
100
AcDbVertex
100
AcDb2dVertex
 10
59.46855987171953
 20
-114.0784908048136
 30
0.0
  0
SEQEND
  5
1A0
330
19D
100
AcDbEntity
  8
_U+30EC_U+30A4_U+30E4_U+30FC 1
 62
   179
420
  2234388
370
    25
  0
POLYLINE
  5
1A1
330
1F
100
AcDbEntity
  8
_U+30EC_U+30A4_U+30E4_U+30FC 1
 62
   179
420
  2234388
370
    25
100
AcDb2dPolyline
 66
     1
 10
0.0
 20
0.0
 30
0.0
  0
VERTEX
  5
1A2
330
1A1
100
AcDbEntity
  8
_U+30EC_U+30A4_U+30E4_U+30FC 1
 62
   179
420
  2234388
370
    25
100
AcDbVertex
100
AcDb2dVertex
 10
59.43479903924751
 20
-116.0793758043134
 30
0.0
  0
VERTEX
  5
1A3
330
1A1
100
AcDbEntity
  8
_U+30EC_U+30A4_U+30E4_U+30FC 1
 62
   179
420
  2234388
370
    25
100
AcDbVertex
100
AcDb2dVertex
 10
59.8433862510458
 20
-115.5853810822149
 30
0.0
  0
SEQEND
  5
1A4
330
1A1
100
AcDbEntity
  8
_U+30EC_U+30A4_U+30E4_U+30FC 1
 62
   179
420
  2234388
370
    25
  0
POLYLINE
  5
1A5
330
1F
100
AcDbEntity
  8
_U+30EC_U+30A4_U+30E4_U+30FC 1
 62
   179
420
  2234388
370
    25
100
AcDb2dPolyline
 66
     1
 10
0.0
 20
0.0
 30
0.0
  0
VERTEX
  5
1A6
330
1A5
100
AcDbEntity
  8
_U+30EC_U+30A4_U+30E4_U+30FC 1
 62
   179
420
  2234388
370
    25
100
AcDbVertex
100
AcDb2dVertex
 10
59.8433862510458
 20
-115.5853810822149
 30
0.0
  0
VERTEX
  5
1A7
330
1A5
100
AcDbEntity
  8
_U+30EC_U+30A4_U+30E4_U+30FC 1
 62
   179
420
  2234388
370
    25
100
AcDbVertex
100
AcDb2dVertex
 10
59.45166181659508
 20
-115.0789333045635
 30
0.0
  0
SEQEND
  5
1A8
330
1A5
100
AcDbEntity
  8
_U+30EC_U+30A4_U+30E4_U+30FC 1
 62
   179
420
  2234388
370
    25
  0
POLYLINE
  5
1A9
330
1F
100
AcDbEntity
  8
_U+30EC_U+30A4_U+30E4_U+30FC 1
 62
   179
420
  2234388
370
    25
100
AcDb2dPolyline
 66
     1
 10
0.0
 20
0.0
 30
0.0
  0
VERTEX
  5
1AA
330
1A9
100
AcDbEntity
  8
_U+30EC_U+30A4_U+30E4_U+30FC 1
 62
   179
420
  2234388
370
    25
100
AcDbVertex
100
AcDb2dVertex
 10
59.41825376189183
 20
-117.0798535818411
 30
0.0
  0
VERTEX
  5
1AB
330
1A9
100
AcDbEntity
  8
_U+30EC_U+30A4_U+30E4_U+30FC 1
 62
   179
420
  2234388
370
    25
100
AcDbVertex
100
AcDb2dVertex
 10
59.82684097369013
 20
-116.5858235819648
 30
0.0
  0
SEQEND
  5
1AC
330
1A9
100
AcDbEntity
  8
_U+30EC_U+30A4_U+30E4_U+30FC 1
 62
   179
420
  2234388
370
    25
  0
POLYLINE
  5
1AD
330
1F
100
AcDbEntity
  8
_U+30EC_U+30A4_U+30E4_U+30FC 1
 62
   179
420
  2234388
370
    25
100
AcDb2dPolyline
 66
     1
 10
0.0
 20
0.0
 30
0.0
  0
VERTEX
  5
1AE
330
1AD
100
AcDbEntity
  8
_U+30EC_U+30A4_U+30E4_U+30FC 1
 62
   179
420
  2234388
370
    25
100
AcDbVertex
100
AcDb2dVertex
 10
59.82684097369013
 20
-116.5858235819648
 30
0.0
  0
VERTEX
  5
1AF
330
1AD
100
AcDbEntity
  8
_U+30EC_U+30A4_U+30E4_U+30FC 1
 62
   179
420
  2234388
370
    25
100
AcDbVertex
100
AcDb2dVertex
 10
59.43479903924751
 20
-116.0793758043134
 30
0.0
  0
SEQEND
  5
1B0
330
1AD
100
AcDbEntity
  8
_U+30EC_U+30A4_U+30E4_U+30FC 1
 62
   179
420
  2234388
370
    25
  0
POLYLINE
  5
1B1
330
1F
100
AcDbEntity
  8
_U+30EC_U+30A4_U+30E4_U+30FC 1
 62
   179
420
  2234388
370
    25
100
AcDb2dPolyline
 66
     1
 10
0.0
 20
0.0
 30
0.0
  0
VERTEX
  5
1B2
330
1B1
100
AcDbEntity
  8
_U+30EC_U+30A4_U+30E4_U+30FC 1
 62
   179
420
  2234388
370
    25
100
AcDbVertex
100
AcDb2dVertex
 10
59.40170848453617
 20
-118.080296081591
 30
0.0
  0
VERTEX
  5
1B3
330
1B1
100
AcDbEntity
  8
_U+30EC_U+30A4_U+30E4_U+30FC 1
 62
   179
420
  2234388
370
    25
100
AcDbVertex
100
AcDb2dVertex
 10
59.81029720726971
 20
-117.5862660817147
 30
0.0
  0
SEQEND
  5
1B4
330
1B1
100
AcDbEntity
  8
_U+30EC_U+30A4_U+30E4_U+30FC 1
 62
   179
420
  2234388
370
    25
  0
POLYLINE
  5
1B5
330
1F
100
AcDbEntity
  8
_U+30EC_U+30A4_U+30E4_U+30FC 1
 62
   179
420
  2234388
370
    25
100
AcDb2dPolyline
 66
     1
 10
0.0
 20
0.0
 30
0.0
  0
VERTEX
  5
1B6
330
1B5
100
AcDbEntity
  8
_U+30EC_U+30A4_U+30E4_U+30FC 1
 62
   179
420
  2234388
370
    25
100
AcDbVertex
100
AcDb2dVertex
 10
59.81029720726971
 20
-117.5862660817147
 30
0.0
  0
VERTEX
  5
1B7
330
1B5
100
AcDbEntity
  8
_U+30EC_U+30A4_U+30E4_U+30FC 1
 62
   179
420
  2234388
370
    25
100
AcDbVertex
100
AcDb2dVertex
 10
59.41825376189183
 20
-117.0798535818411
 30
0.0
  0
SEQEND
  5
1B8
330
1B5
100
AcDbEntity
  8
_U+30EC_U+30A4_U+30E4_U+30FC 1
 62
   179
420
  2234388
370
    25
  0
POLYLINE
  5
1B9
330
1F
100
AcDbEntity
  8
_U+30EC_U+30A4_U+30E4_U+30FC 1
 62
   179
420
  2234388
370
    25
100
AcDb2dPolyline
 66
     1
 10
0.0
 20
0.0
 30
0.0
  0
VERTEX
  5
1BA
330
1B9
100
AcDbEntity
  8
_U+30EC_U+30A4_U+30E4_U+30FC 1
 62
   179
420
  2234388
370
    25
100
AcDbVertex
100
AcDb2dVertex
 10
59.38516320718049
 20
-119.0800683035632
 30
0.0
  0
VERTEX
  5
1BB
330
1B9
100
AcDbEntity
  8
_U+30EC_U+30A4_U+30E4_U+30FC 1
 62
   179
420
  2234388
370
    25
100
AcDbVertex
100
AcDb2dVertex
 10
59.79343291898688
 20
-118.5867438592421
 30
0.0
  0
SEQEND
  5
1BC
330
1B9
100
AcDbEntity
  8
_U+30EC_U+30A4_U+30E4_U+30FC 1
 62
   179
420
  2234388
370
    25
  0
POLYLINE
  5
1BD
330
1F
100
AcDbEntity
  8
_U+30EC_U+30A4_U+30E4_U+30FC 1
 62
   179
420
  2234388
370
    25
100
AcDb2dPolyline
 66
     1
 10
0.0
 20
0.0
 30
0.0
  0
VERTEX
  5
1BE
330
1BD
100
AcDbEntity
  8
_U+30EC_U+30A4_U+30E4_U+30FC 1
 62
   179
420
  2234388
370
    25
100
AcDbVertex
100
AcDb2dVertex
 10
59.79343291898688
 20
-118.5867438592421
 30
0.0
  0
VERTEX
  5
1BF
330
1BD
100
AcDbEntity
  8
_U+30EC_U+30A4_U+30E4_U+30FC 1
 62
   179
420
  2234388
370
    25
100
AcDbVertex
100
AcDb2dVertex
 10
59.40170848453617
 20
-118.080296081591
 30
0.0
  0
SEQEND
  5
1C0
330
1BD
100
AcDbEntity
  8
_U+30EC_U+30A4_U+30E4_U+30FC 1
 62
   179
420
  2234388
370
    25
  0
POLYLINE
  5
1C1
330
1F
100
AcDbEntity
  8
_U+30EC_U+30A4_U+30E4_U+30FC 1
 62
   179
420
  2234388
370
    25
100
AcDb2dPolyline
 66
     1
 10
0.0
 20
0.0
 30
0.0
  0
VERTEX
  5
1C2
330
1C1
100
AcDbEntity
  8
_U+30EC_U+30A4_U+30E4_U+30FC 1
 62
   179
420
  2234388
370
    25
100
AcDbVertex
100
AcDb2dVertex
 10
59.3686532076017
 20
-120.0805108033131
 30
0.0
  0
VERTEX
  5
1C3
330
1C1
100
AcDbEntity
  8
_U+30EC_U+30A4_U+30E4_U+30FC 1
 62
   179
420
  2234388
370
    25
100
AcDbVertex
100
AcDb2dVertex
 10
59.77653486386243
 20
-119.587186358992
 30
0.0
  0
SEQEND
  5
1C4
330
1C1
100
AcDbEntity
  8
_U+30EC_U+30A4_U+30E4_U+30FC 1
 62
   179
420
  2234388
370
    25
  0
POLYLINE
  5
1C5
330
1F
100
AcDbEntity
  8
_U+30EC_U+30A4_U+30E4_U+30FC 1
 62
   179
420
  2234388
370
    25
100
AcDb2dPolyline
 66
     1
 10
0.0
 20
0.0
 30
0.0
  0
VERTEX
  5
1C6
330
1C5
100
AcDbEntity
  8
_U+30EC_U+30A4_U+30E4_U+30FC 1
 62
   179
420
  2234388
370
    25
100
AcDbVertex
100
AcDb2dVertex
 10
59.77653486386243
 20
-119.587186358992
 30
0.0
  0
VERTEX
  5
1C7
330
1C5
100
AcDbEntity
  8
_U+30EC_U+30A4_U+30E4_U+30FC 1
 62
   179
420
  2234388
370
    25
100
AcDbVertex
100
AcDb2dVertex
 10
59.38516320718049
 20
-119.0800683035632
 30
0.0
  0
SEQEND
  5
1C8
330
1C5
100
AcDbEntity
  8
_U+30EC_U+30A4_U+30E4_U+30FC 1
 62
   179
420
  2234388
370
    25
  0
POLYLINE
  5
1C9
330
1F
100
AcDbEntity
  8
_U+30EC_U+30A4_U+30E4_U+30FC 1
 62
   179
420
  2234388
370
    25
100
AcDb2dPolyline
 66
     1
 10
0.0
 20
0.0
 30
0.0
  0
VERTEX
  5
1CA
330
1C9
100
AcDbEntity
  8
_U+30EC_U+30A4_U+30E4_U+30FC 1
 62
   179
420
  2234388
370
    25
100
AcDbVertex
100
AcDb2dVertex
 10
59.35210793024602
 20
-121.0809885808409
 30
0.0
  0
VERTEX
  5
1CB
330
1C9
100
AcDbEntity
  8
_U+30EC_U+30A4_U+30E4_U+30FC 1
 62
   179
420
  2234388
370
    25
100
AcDbVertex
100
AcDb2dVertex
 10
59.75998958650676
 20
-120.5876288587419
 30
0.0
  0
SEQEND
  5
1CC
330
1C9
100
AcDbEntity
  8
_U+30EC_U+30A4_U+30E4_U+30FC 1
 62
   179
420
  2234388
370
    25
  0
POLYLINE
  5
1CD
330
1F
100
AcDbEntity
  8
_U+30EC_U+30A4_U+30E4_U+30FC 1
 62
   179
420
  2234388
370
    25
100
AcDb2dPolyline
 66
     1
 10
0.0
 20
0.0
 30
0.0
  0
VERTEX
  5
1CE
330
1CD
100
AcDbEntity
  8
_U+30EC_U+30A4_U+30E4_U+30FC 1
 62
   179
420
  2234388
370
    25
100
AcDbVertex
100
AcDb2dVertex
 10
59.75998958650676
 20
-120.5876288587419
 30
0.0
  0
VERTEX
  5
1CF
330
1CD
100
AcDbEntity
  8
_U+30EC_U+30A4_U+30E4_U+30FC 1
 62
   179
420
  2234388
370
    25
100
AcDbVertex
100
AcDb2dVertex
 10
59.3686532076017
 20
-120.0805108033131
 30
0.0
  0
SEQEND
  5
1D0
330
1CD
100
AcDbEntity
  8
_U+30EC_U+30A4_U+30E4_U+30FC 1
 62
   179
420
  2234388
370
    25
  0
POLYLINE
  5
1D1
330
1F
100
AcDbEntity
  8
_U+30EC_U+30A4_U+30E4_U+30FC 1
 62
   179
420
  2234388
370
    25
100
AcDb2dPolyline
 66
     1
 10
0.0
 20
0.0
 30
0.0
  0
VERTEX
  5
1D2
330
1D1
100
AcDbEntity
  8
_U+30EC_U+30A4_U+30E4_U+30FC 1
 62
   179
420
  2234388
370
    25
100
AcDbVertex
100
AcDb2dVertex
 10
59.33520987512157
 20
-122.0814310805908
 30
0.0
  0
VERTEX
  5
1D3
330
1D1
100
AcDbEntity
  8
_U+30EC_U+30A4_U+30E4_U+30FC 1
 62
   179
420
  2234388
370
    25
100
AcDbVertex
100
AcDb2dVertex
 10
59.74347958692797
 20
-121.5881066362697
 30
0.0
  0
SEQEND
  5
1D4
330
1D1
100
AcDbEntity
  8
_U+30EC_U+30A4_U+30E4_U+30FC 1
 62
   179
420
  2234388
370
    25
  0
POLYLINE
  5
1D5
330
1F
100
AcDbEntity
  8
_U+30EC_U+30A4_U+30E4_U+30FC 1
 62
   179
420
  2234388
370
    25
100
AcDb2dPolyline
 66
     1
 10
0.0
 20
0.0
 30
0.0
  0
VERTEX
  5
1D6
330
1D5
100
AcDbEntity
  8
_U+30EC_U+30A4_U+30E4_U+30FC 1
 62
   179
420
  2234388
370
    25
100
AcDbVertex
100
AcDb2dVertex
 10
59.74347958692797
 20
-121.5881066362697
 30
0.0
  0
VERTEX
  5
1D7
330
1D5
100
AcDbEntity
  8
_U+30EC_U+30A4_U+30E4_U+30FC 1
 62
   179
420
  2234388
370
    25
100
AcDbVertex
100
AcDb2dVertex
 10
59.35210793024602
 20
-121.0809885808409
 30
0.0
  0
SEQEND
  5
1D8
330
1D5
100
AcDbEntity
  8
_U+30EC_U+30A4_U+30E4_U+30FC 1
 62
   179
420
  2234388
370
    25
  0
POLYLINE
  5
1D9
330
1F
100
AcDbEntity
  8
_U+30EC_U+30A4_U+30E4_U+30FC 1
 62
   179
420
  2234388
370
    25
100
AcDb2dPolyline
 66
     1
 10
0.0
 20
0.0
 30
0.0
  0
VERTEX
  5
1DA
330
1D9
100
AcDbEntity
  8
_U+30EC_U+30A4_U+30E4_U+30FC 1
 62
   179
420
  2234388
370
    25
100
AcDbVertex
100
AcDb2dVertex
 10
59.31869987554278
 20
-123.0819088581185
 30
0.0
  0
VERTEX
  5
1DB
330
1D9
100
AcDbEntity
  8
_U+30EC_U+30A4_U+30E4_U+30FC 1
 62
   179
420
  2234388
370
    25
100
AcDbVertex
100
AcDb2dVertex
 10
59.72693430957229
 20
-122.5885491360196
 30
0.0
  0
SEQEND
  5
1DC
330
1D9
100
AcDbEntity
  8
_U+30EC_U+30A4_U+30E4_U+30FC 1
 62
   179
420
  2234388
370
    25
  0
POLYLINE
  5
1DD
330
1F
100
AcDbEntity
  8
_U+30EC_U+30A4_U+30E4_U+30FC 1
 62
   179
420
  2234388
370
    25
100
AcDb2dPolyline
 66
     1
 10
0.0
 20
0.0
 30
0.0
  0
VERTEX
  5
1DE
330
1DD
100
AcDbEntity
  8
_U+30EC_U+30A4_U+30E4_U+30FC 1
 62
   179
420
  2234388
370
    25
100
AcDbVertex
100
AcDb2dVertex
 10
59.72693430957229
 20
-122.5885491360196
 30
0.0
  0
VERTEX
  5
1DF
330
1DD
100
AcDbEntity
  8
_U+30EC_U+30A4_U+30E4_U+30FC 1
 62
   179
420
  2234388
370
    25
100
AcDbVertex
100
AcDb2dVertex
 10
59.33520987512157
 20
-122.0814310805908
 30
0.0
  0
SEQEND
  5
1E0
330
1DD
100
AcDbEntity
  8
_U+30EC_U+30A4_U+30E4_U+30FC 1
 62
   179
420
  2234388
370
    25
  0
POLYLINE
  5
1E1
330
1F
100
AcDbEntity
  8
_U+30EC_U+30A4_U+30E4_U+30FC 1
 62
   179
420
  2234388
370
    25
100
AcDb2dPolyline
 66
     1
 10
0.0
 20
0.0
 30
0.0
  0
VERTEX
  5
1E2
330
1E1
100
AcDbEntity
  8
_U+30EC_U+30A4_U+30E4_U+30FC 1
 62
   179
420
  2234388
370
    25
100
AcDbVertex
100
AcDb2dVertex
 10
59.30180182041833
 20
-124.0823513578684
 30
0.0
  0
VERTEX
  5
1E3
330
1E1
100
AcDbEntity
  8
_U+30EC_U+30A4_U+30E4_U+30FC 1
 62
   179
420
  2234388
370
    25
100
AcDbVertex
100
AcDb2dVertex
 10
59.71038903221662
 20
-123.5890269135473
 30
0.0
  0
SEQEND
  5
1E4
330
1E1
100
AcDbEntity
  8
_U+30EC_U+30A4_U+30E4_U+30FC 1
 62
   179
420
  2234388
370
    25
  0
POLYLINE
  5
1E5
330
1F
100
AcDbEntity
  8
_U+30EC_U+30A4_U+30E4_U+30FC 1
 62
   179
420
  2234388
370
    25
100
AcDb2dPolyline
 66
     1
 10
0.0
 20
0.0
 30
0.0
  0
VERTEX
  5
1E6
330
1E5
100
AcDbEntity
  8
_U+30EC_U+30A4_U+30E4_U+30FC 1
 62
   179
420
  2234388
370
    25
100
AcDbVertex
100
AcDb2dVertex
 10
59.71038903221662
 20
-123.5890269135473
 30
0.0
  0
VERTEX
  5
1E7
330
1E5
100
AcDbEntity
  8
_U+30EC_U+30A4_U+30E4_U+30FC 1
 62
   179
420
  2234388
370
    25
100
AcDbVertex
100
AcDb2dVertex
 10
59.31869987554278
 20
-123.0819088581185
 30
0.0
  0
SEQEND
  5
1E8
330
1E5
100
AcDbEntity
  8
_U+30EC_U+30A4_U+30E4_U+30FC 1
 62
   179
420
  2234388
370
    25
  0
POLYLINE
  5
1E9
330
1F
100
AcDbEntity
  8
_U+30EC_U+30A4_U+30E4_U+30FC 1
 62
   179
420
  2234388
370
    25
100
AcDb2dPolyline
 66
     1
 10
0.0
 20
0.0
 30
0.0
  0
VERTEX
  5
1EA
330
1E9
100
AcDbEntity
  8
_U+30EC_U+30A4_U+30E4_U+30FC 1
 62
   179
420
  2234388
370
    25
100
AcDbVertex
100
AcDb2dVertex
 10
59.28525654306265
 20
-125.0827938576183
 30
0.0
  0
VERTEX
  5
1EB
330
1E9
100
AcDbEntity
  8
_U+30EC_U+30A4_U+30E4_U+30FC 1
 62
   179
420
  2234388
370
    25
100
AcDbVertex
100
AcDb2dVertex
 10
59.69384375486095
 20
-124.5894694132972
 30
0.0
  0
SEQEND
  5
1EC
330
1E9
100
AcDbEntity
  8
_U+30EC_U+30A4_U+30E4_U+30FC 1
 62
   179
420
  2234388
370
    25
  0
POLYLINE
  5
1ED
330
1F
100
AcDbEntity
  8
_U+30EC_U+30A4_U+30E4_U+30FC 1
 62
   179
420
  2234388
370
    25
100
AcDb2dPolyline
 66
     1
 10
0.0
 20
0.0
 30
0.0
  0
VERTEX
  5
1EE
330
1ED
100
AcDbEntity
  8
_U+30EC_U+30A4_U+30E4_U+30FC 1
 62
   179
420
  2234388
370
    25
100
AcDbVertex
100
AcDb2dVertex
 10
59.69384375486095
 20
-124.5894694132972
 30
0.0
  0
VERTEX
  5
1EF
330
1ED
100
AcDbEntity
  8
_U+30EC_U+30A4_U+30E4_U+30FC 1
 62
   179
420
  2234388
370
    25
100
AcDbVertex
100
AcDb2dVertex
 10
59.30180182041833
 20
-124.0823513578684
 30
0.0
  0
SEQEND
  5
1F0
330
1ED
100
AcDbEntity
  8
_U+30EC_U+30A4_U+30E4_U+30FC 1
 62
   179
420
  2234388
370
    25
  0
POLYLINE
  5
1F1
330
1F
100
AcDbEntity
  8
_U+30EC_U+30A4_U+30E4_U+30FC 1
 62
   179
420
  2234388
370
    25
100
AcDb2dPolyline
 66
     1
 10
0.0
 20
0.0
 30
0.0
  0
VERTEX
  5
1F2
330
1F1
100
AcDbEntity
  8
_U+30EC_U+30A4_U+30E4_U+30FC 1
 62
   179
420
  2234388
370
    25
100
AcDbVertex
100
AcDb2dVertex
 10
59.26874654348386
 20
-126.0832716351458
 30
0.0
  0
VERTEX
  5
1F3
330
1F1
100
AcDbEntity
  8
_U+30EC_U+30A4_U+30E4_U+30FC 1
 62
   179
420
  2234388
370
    25
100
AcDbVertex
100
AcDb2dVertex
 10
59.67698097751337
 20
-125.5899119130471
 30
0.0
  0
SEQEND
  5
1F4
330
1F1
100
AcDbEntity
  8
_U+30EC_U+30A4_U+30E4_U+30FC 1
 62
   179
420
  2234388
370
    25
  0
POLYLINE
  5
1F5
330
1F
100
AcDbEntity
  8
_U+30EC_U+30A4_U+30E4_U+30FC 1
 62
   179
420
  2234388
370
    25
100
AcDb2dPolyline
 66
     1
 10
0.0
 20
0.0
 30
0.0
  0
VERTEX
  5
1F6
330
1F5
100
AcDbEntity
  8
_U+30EC_U+30A4_U+30E4_U+30FC 1
 62
   179
420
  2234388
370
    25
100
AcDbVertex
100
AcDb2dVertex
 10
59.67698097751337
 20
-125.5899119130471
 30
0.0
  0
VERTEX
  5
1F7
330
1F5
100
AcDbEntity
  8
_U+30EC_U+30A4_U+30E4_U+30FC 1
 62
   179
420
  2234388
370
    25
100
AcDbVertex
100
AcDb2dVertex
 10
59.28525654306265
 20
-125.0827938576183
 30
0.0
  0
SEQEND
  5
1F8
330
1F5
100
AcDbEntity
  8
_U+30EC_U+30A4_U+30E4_U+30FC 1
 62
   179
420
  2234388
370
    25
  0
POLYLINE
  5
1F9
330
1F
100
AcDbEntity
  8
_U+30EC_U+30A4_U+30E4_U+30FC 1
 62
   179
420
  2234388
370
    25
100
AcDb2dPolyline
 66
     1
 10
0.0
 20
0.0
 30
0.0
  0
VERTEX
  5
1FA
330
1F9
100
AcDbEntity
  8
_U+30EC_U+30A4_U+30E4_U+30FC 1
 62
   179
420
  2234388
370
    25
100
AcDbVertex
100
AcDb2dVertex
 10
59.25220276296467
 20
-127.0837141348957
 30
0.0
  0
VERTEX
  5
1FB
330
1F9
100
AcDbEntity
  8
_U+30EC_U+30A4_U+30E4_U+30FC 1
 62
   179
420
  2234388
370
    25
100
AcDbVertex
100
AcDb2dVertex
 10
59.66043570015771
 20
-126.5903896905745
 30
0.0
  0
SEQEND
  5
1FC
330
1F9
100
AcDbEntity
  8
_U+30EC_U+30A4_U+30E4_U+30FC 1
 62
   179
420
  2234388
370
    25
  0
POLYLINE
  5
1FD
330
1F
100
AcDbEntity
  8
_U+30EC_U+30A4_U+30E4_U+30FC 1
 62
   179
420
  2234388
370
    25
100
AcDb2dPolyline
 66
     1
 10
0.0
 20
0.0
 30
0.0
  0
VERTEX
  5
1FE
330
1FD
100
AcDbEntity
  8
_U+30EC_U+30A4_U+30E4_U+30FC 1
 62
   179
420
  2234388
370
    25
100
AcDbVertex
100
AcDb2dVertex
 10
59.66043570015771
 20
-126.5903896905745
 30
0.0
  0
VERTEX
  5
1FF
330
1FD
100
AcDbEntity
  8
_U+30EC_U+30A4_U+30E4_U+30FC 1
 62
   179
420
  2234388
370
    25
100
AcDbVertex
100
AcDb2dVertex
 10
59.26874654348386
 20
-126.0832716351458
 30
0.0
  0
SEQEND
  5
200
330
1FD
100
AcDbEntity
  8
_U+30EC_U+30A4_U+30E4_U+30FC 1
 62
   179
420
  2234388
370
    25
  0
POLYLINE
  5
201
330
1F
100
AcDbEntity
  8
_U+30EC_U+30A4_U+30E4_U+30FC 1
 62
   179
420
  2234388
370
    25
100
AcDb2dPolyline
 66
     1
 10
0.0
 20
0.0
 30
0.0
  0
VERTEX
  5
202
330
201
100
AcDbEntity
  8
_U+30EC_U+30A4_U+30E4_U+30FC 1
 62
   179
420
  2234388
370
    25
100
AcDbVertex
100
AcDb2dVertex
 10
59.23565598877251
 20
-128.0841566346456
 30
0.0
  0
VERTEX
  5
203
330
201
100
AcDbEntity
  8
_U+30EC_U+30A4_U+30E4_U+30FC 1
 62
   179
420
  2234388
370
    25
100
AcDbVertex
100
AcDb2dVertex
 10
59.64357292281013
 20
-127.5908321903244
 30
0.0
  0
SEQEND
  5
204
330
201
100
AcDbEntity
  8
_U+30EC_U+30A4_U+30E4_U+30FC 1
 62
   179
420
  2234388
370
    25
  0
POLYLINE
  5
205
330
1F
100
AcDbEntity
  8
_U+30EC_U+30A4_U+30E4_U+30FC 1
 62
   179
420
  2234388
370
    25
100
AcDb2dPolyline
 66
     1
 10
0.0
 20
0.0
 30
0.0
  0
VERTEX
  5
206
330
205
100
AcDbEntity
  8
_U+30EC_U+30A4_U+30E4_U+30FC 1
 62
   179
420
  2234388
370
    25
100
AcDbVertex
100
AcDb2dVertex
 10
59.64357292281013
 20
-127.5908321903244
 30
0.0
  0
VERTEX
  5
207
330
205
100
AcDbEntity
  8
_U+30EC_U+30A4_U+30E4_U+30FC 1
 62
   179
420
  2234388
370
    25
100
AcDbVertex
100
AcDb2dVertex
 10
59.25220276296467
 20
-127.0837141348957
 30
0.0
  0
SEQEND
  5
208
330
205
100
AcDbEntity
  8
_U+30EC_U+30A4_U+30E4_U+30FC 1
 62
   179
420
  2234388
370
    25
  0
POLYLINE
  5
209
330
1F
100
AcDbEntity
  8
_U+30EC_U+30A4_U+30E4_U+30FC 1
 62
   179
420
  2234388
370
    25
100
AcDb2dPolyline
 66
     1
 10
0.0
 20
0.0
 30
0.0
  0
VERTEX
  5
20A
330
209
100
AcDbEntity
  8
_U+30EC_U+30A4_U+30E4_U+30FC 1
 62
   179
420
  2234388
370
    25
100
AcDbVertex
100
AcDb2dVertex
 10
59.21911071141684
 20
-129.0846344121733
 30
0.0
  0
VERTEX
  5
20B
330
209
100
AcDbEntity
  8
_U+30EC_U+30A4_U+30E4_U+30FC 1
 62
   179
420
  2234388
370
    25
100
AcDbVertex
100
AcDb2dVertex
 10
59.62702764545446
 20
-128.5912746900744
 30
0.0
  0
SEQEND
  5
20C
330
209
100
AcDbEntity
  8
_U+30EC_U+30A4_U+30E4_U+30FC 1
 62
   179
420
  2234388
370
    25
  0
POLYLINE
  5
20D
330
1F
100
AcDbEntity
  8
_U+30EC_U+30A4_U+30E4_U+30FC 1
 62
   179
420
  2234388
370
    25
100
AcDb2dPolyline
 66
     1
 10
0.0
 20
0.0
 30
0.0
  0
VERTEX
  5
20E
330
20D
100
AcDbEntity
  8
_U+30EC_U+30A4_U+30E4_U+30FC 1
 62
   179
420
  2234388
370
    25
100
AcDbVertex
100
AcDb2dVertex
 10
59.62702764545446
 20
-128.5912746900744
 30
0.0
  0
VERTEX
  5
20F
330
20D
100
AcDbEntity
  8
_U+30EC_U+30A4_U+30E4_U+30FC 1
 62
   179
420
  2234388
370
    25
100
AcDbVertex
100
AcDb2dVertex
 10
59.23565598877251
 20
-128.0841566346456
 30
0.0
  0
SEQEND
  5
210
330
20D
100
AcDbEntity
  8
_U+30EC_U+30A4_U+30E4_U+30FC 1
 62
   179
420
  2234388
370
    25
  0
POLYLINE
  5
211
330
1F
100
AcDbEntity
  8
_U+30EC_U+30A4_U+30E4_U+30FC 1
 62
   179
420
  2234388
370
    25
100
AcDb2dPolyline
 66
     1
 10
0.0
 20
0.0
 30
0.0
  0
VERTEX
  5
212
330
211
100
AcDbEntity
  8
_U+30EC_U+30A4_U+30E4_U+30FC 1
 62
   179
420
  2234388
370
    25
100
AcDbVertex
100
AcDb2dVertex
 10
59.20224793406927
 20
-130.0850769119232
 30
0.0
  0
VERTEX
  5
213
330
211
100
AcDbEntity
  8
_U+30EC_U+30A4_U+30E4_U+30FC 1
 62
   179
420
  2234388
370
    25
100
AcDbVertex
100
AcDb2dVertex
 10
59.61048236809879
 20
-129.5917524676021
 30
0.0
  0
SEQEND
  5
214
330
211
100
AcDbEntity
  8
_U+30EC_U+30A4_U+30E4_U+30FC 1
 62
   179
420
  2234388
370
    25
  0
POLYLINE
  5
215
330
1F
100
AcDbEntity
  8
_U+30EC_U+30A4_U+30E4_U+30FC 1
 62
   179
420
  2234388
370
    25
100
AcDb2dPolyline
 66
     1
 10
0.0
 20
0.0
 30
0.0
  0
VERTEX
  5
216
330
215
100
AcDbEntity
  8
_U+30EC_U+30A4_U+30E4_U+30FC 1
 62
   179
420
  2234388
370
    25
100
AcDbVertex
100
AcDb2dVertex
 10
59.61048236809879
 20
-129.5917524676021
 30
0.0
  0
VERTEX
  5
217
330
215
100
AcDbEntity
  8
_U+30EC_U+30A4_U+30E4_U+30FC 1
 62
   179
420
  2234388
370
    25
100
AcDbVertex
100
AcDb2dVertex
 10
59.21911071141684
 20
-129.0846344121733
 30
0.0
  0
SEQEND
  5
218
330
215
100
AcDbEntity
  8
_U+30EC_U+30A4_U+30E4_U+30FC 1
 62
   179
420
  2234388
370
    25
  0
POLYLINE
  5
219
330
1F
100
AcDbEntity
  8
_U+30EC_U+30A4_U+30E4_U+30FC 1
 62
   179
420
  2234388
370
    25
100
AcDb2dPolyline
 66
     1
 10
0.0
 20
0.0
 30
0.0
  0
VERTEX
  5
21A
330
219
100
AcDbEntity
  8
_U+30EC_U+30A4_U+30E4_U+30FC 1
 62
   179
420
  2234388
370
    25
100
AcDbVertex
100
AcDb2dVertex
 10
59.18570265671359
 20
-131.0855546894506
 30
0.0
  0
VERTEX
  5
21B
330
219
100
AcDbEntity
  8
_U+30EC_U+30A4_U+30E4_U+30FC 1
 62
   179
420
  2234388
370
    25
100
AcDbVertex
100
AcDb2dVertex
 10
59.59393709074311
 20
-130.592194967352
 30
0.0
  0
SEQEND
  5
21C
330
219
100
AcDbEntity
  8
_U+30EC_U+30A4_U+30E4_U+30FC 1
 62
   179
420
  2234388
370
    25
  0
POLYLINE
  5
21D
330
1F
100
AcDbEntity
  8
_U+30EC_U+30A4_U+30E4_U+30FC 1
 62
   179
420
  2234388
370
    25
100
AcDb2dPolyline
 66
     1
 10
0.0
 20
0.0
 30
0.0
  0
VERTEX
  5
21E
330
21D
100
AcDbEntity
  8
_U+30EC_U+30A4_U+30E4_U+30FC 1
 62
   179
420
  2234388
370
    25
100
AcDbVertex
100
AcDb2dVertex
 10
59.59393709074311
 20
-130.592194967352
 30
0.0
  0
VERTEX
  5
21F
330
21D
100
AcDbEntity
  8
_U+30EC_U+30A4_U+30E4_U+30FC 1
 62
   179
420
  2234388
370
    25
100
AcDbVertex
100
AcDb2dVertex
 10
59.20224793406927
 20
-130.0850769119232
 30
0.0
  0
SEQEND
  5
220
330
21D
100
AcDbEntity
  8
_U+30EC_U+30A4_U+30E4_U+30FC 1
 62
   179
420
  2234388
370
    25
  0
POLYLINE
  5
221
330
1F
100
AcDbEntity
  8
_U+30EC_U+30A4_U+30E4_U+30FC 1
 62
   179
420
  2234388
370
    25
100
AcDb2dPolyline
 66
     1
 10
0.0
 20
0.0
 30
0.0
  0
VERTEX
  5
222
330
221
100
AcDbEntity
  8
_U+30EC_U+30A4_U+30E4_U+30FC 1
 62
   179
420
  2234388
370
    25
100
AcDbVertex
100
AcDb2dVertex
 10
59.16883987936603
 20
-132.0859971892005
 30
0.0
  0
VERTEX
  5
223
330
221
100
AcDbEntity
  8
_U+30EC_U+30A4_U+30E4_U+30FC 1
 62
   179
420
  2234388
370
    25
100
AcDbVertex
100
AcDb2dVertex
 10
59.57742709116432
 20
-131.5926727448794
 30
0.0
  0
SEQEND
  5
224
330
221
100
AcDbEntity
  8
_U+30EC_U+30A4_U+30E4_U+30FC 1
 62
   179
420
  2234388
370
    25
  0
POLYLINE
  5
225
330
1F
100
AcDbEntity
  8
_U+30EC_U+30A4_U+30E4_U+30FC 1
 62
   179
420
  2234388
370
    25
100
AcDb2dPolyline
 66
     1
 10
0.0
 20
0.0
 30
0.0
  0
VERTEX
  5
226
330
225
100
AcDbEntity
  8
_U+30EC_U+30A4_U+30E4_U+30FC 1
 62
   179
420
  2234388
370
    25
100
AcDbVertex
100
AcDb2dVertex
 10
59.57742709116432
 20
-131.5926727448794
 30
0.0
  0
VERTEX
  5
227
330
225
100
AcDbEntity
  8
_U+30EC_U+30A4_U+30E4_U+30FC 1
 62
   179
420
  2234388
370
    25
100
AcDbVertex
100
AcDb2dVertex
 10
59.18570265671359
 20
-131.0855546894506
 30
0.0
  0
SEQEND
  5
228
330
225
100
AcDbEntity
  8
_U+30EC_U+30A4_U+30E4_U+30FC 1
 62
   179
420
  2234388
370
    25
  0
POLYLINE
  5
229
330
1F
100
AcDbEntity
  8
_U+30EC_U+30A4_U+30E4_U+30FC 1
 62
   179
420
  2234388
370
    25
100
AcDb2dPolyline
 66
     1
 10
0.0
 20
0.0
 30
0.0
  0
VERTEX
  5
22A
330
229
100
AcDbEntity
  8
_U+30EC_U+30A4_U+30E4_U+30FC 1
 62
   179
420
  2234388
370
    25
100
AcDbVertex
100
AcDb2dVertex
 10
58.99552016156556
 20
-142.5253266310352
 30
0.0
  0
VERTEX
  5
22B
330
229
100
AcDbEntity
  8
_U+30EC_U+30A4_U+30E4_U+30FC 1
 62
   179
420
  2234388
370
    25
100
AcDbVertex
100
AcDb2dVertex
 10
59.00278887413834
 20
-142.0898577422554
 30
0.0
  0
SEQEND
  5
22C
330
229
100
AcDbEntity
  8
_U+30EC_U+30A4_U+30E4_U+30FC 1
 62
   179
420
  2234388
370
    25
  0
POLYLINE
  5
22D
330
1F
100
AcDbEntity
  8
_U+30EC_U+30A4_U+30E4_U+30FC 1
 62
   179
420
  2234388
370
    25
100
AcDb2dPolyline
 66
     1
 10
0.0
 20
0.0
 30
0.0
  0
VERTEX
  5
22E
330
22D
100
AcDbEntity
  8
_U+30EC_U+30A4_U+30E4_U+30FC 1
 62
   179
420
  2234388
370
    25
100
AcDbVertex
100
AcDb2dVertex
 10
59.10269404772021
 20
-136.0878024659783
 30
0.0
  0
VERTEX
  5
22F
330
22D
100
AcDbEntity
  8
_U+30EC_U+30A4_U+30E4_U+30FC 1
 62
   179
420
  2234388
370
    25
100
AcDbVertex
100
AcDb2dVertex
 10
59.49403042662528
 20
-136.5942502436291
 30
0.0
  0
SEQEND
  5
230
330
22D
100
AcDbEntity
  8
_U+30EC_U+30A4_U+30E4_U+30FC 1
 62
   179
420
  2234388
370
    25
  0
POLYLINE
  5
231
330
1F
100
AcDbEntity
  8
_U+30EC_U+30A4_U+30E4_U+30FC 1
 62
   179
420
  2234388
370
    25
100
AcDb2dPolyline
 66
     1
 10
0.0
 20
0.0
 30
0.0
  0
VERTEX
  5
232
330
231
100
AcDbEntity
  8
_U+30EC_U+30A4_U+30E4_U+30FC 1
 62
   179
420
  2234388
370
    25
100
AcDbVertex
100
AcDb2dVertex
 10
59.51057570398095
 20
-135.5938077438792
 30
0.0
  0
VERTEX
  5
233
330
231
100
AcDbEntity
  8
_U+30EC_U+30A4_U+30E4_U+30FC 1
 62
   179
420
  2234388
370
    25
100
AcDbVertex
100
AcDb2dVertex
 10
59.10269404772021
 20
-136.0878024659783
 30
0.0
  0
SEQEND
  5
234
330
231
100
AcDbEntity
  8
_U+30EC_U+30A4_U+30E4_U+30FC 1
 62
   179
420
  2234388
370
    25
  0
POLYLINE
  5
235
330
1F
100
AcDbEntity
  8
_U+30EC_U+30A4_U+30E4_U+30FC 1
 62
   179
420
  2234388
370
    25
100
AcDb2dPolyline
 66
     1
 10
0.0
 20
0.0
 30
0.0
  0
VERTEX
  5
236
330
235
100
AcDbEntity
  8
_U+30EC_U+30A4_U+30E4_U+30FC 1
 62
   179
420
  2234388
370
    25
100
AcDbVertex
100
AcDb2dVertex
 10
59.5274737591054
 20
-134.5933299663517
 30
0.0
  0
VERTEX
  5
237
330
235
100
AcDbEntity
  8
_U+30EC_U+30A4_U+30E4_U+30FC 1
 62
   179
420
  2234388
370
    25
100
AcDbVertex
100
AcDb2dVertex
 10
59.11920554077587
 20
-135.0873599662284
 30
0.0
  0
SEQEND
  5
238
330
235
100
AcDbEntity
  8
_U+30EC_U+30A4_U+30E4_U+30FC 1
 62
   179
420
  2234388
370
    25
  0
POLYLINE
  5
239
330
1F
100
AcDbEntity
  8
_U+30EC_U+30A4_U+30E4_U+30FC 1
 62
   179
420
  2234388
370
    25
100
AcDb2dPolyline
 66
     1
 10
0.0
 20
0.0
 30
0.0
  0
VERTEX
  5
23A
330
239
100
AcDbEntity
  8
_U+30EC_U+30A4_U+30E4_U+30FC 1
 62
   179
420
  2234388
370
    25
100
AcDbVertex
100
AcDb2dVertex
 10
59.56088331844305
 20
-132.5924096890744
 30
0.0
  0
VERTEX
  5
23B
330
239
100
AcDbEntity
  8
_U+30EC_U+30A4_U+30E4_U+30FC 1
 62
   179
420
  2234388
370
    25
100
AcDbVertex
100
AcDb2dVertex
 10
59.15229460201035
 20
-133.0864396889504
 30
0.0
  0
SEQEND
  5
23C
330
239
100
AcDbEntity
  8
_U+30EC_U+30A4_U+30E4_U+30FC 1
 62
   179
420
  2234388
370
    25
  0
POLYLINE
  5
23D
330
1F
100
AcDbEntity
  8
_U+30EC_U+30A4_U+30E4_U+30FC 1
 62
   179
420
  2234388
370
    25
100
AcDb2dPolyline
 66
     1
 10
0.0
 20
0.0
 30
0.0
  0
VERTEX
  5
23E
330
23D
100
AcDbEntity
  8
_U+30EC_U+30A4_U+30E4_U+30FC 1
 62
   179
420
  2234388
370
    25
100
AcDbVertex
100
AcDb2dVertex
 10
59.16883987936603
 20
-132.0859971892005
 30
0.0
  0
VERTEX
  5
23F
330
23D
100
AcDbEntity
  8
_U+30EC_U+30A4_U+30E4_U+30FC 1
 62
   179
420
  2234388
370
    25
100
AcDbVertex
100
AcDb2dVertex
 10
59.56088331844305
 20
-132.5924096890744
 30
0.0
  0
SEQEND
  5
240
330
23D
100
AcDbEntity
  8
_U+30EC_U+30A4_U+30E4_U+30FC 1
 62
   179
420
  2234388
370
    25
  0
POLYLINE
  5
241
330
1F
100
AcDbEntity
  8
_U+30EC_U+30A4_U+30E4_U+30FC 1
 62
   179
420
  2234388
370
    25
100
AcDb2dPolyline
 66
     1
 10
0.0
 20
0.0
 30
0.0
  0
VERTEX
  5
242
330
241
100
AcDbEntity
  8
_U+30EC_U+30A4_U+30E4_U+30FC 1
 62
   179
420
  2234388
370
    25
100
AcDbVertex
100
AcDb2dVertex
 10
59.54398375868419
 20
-133.5928874666019
 30
0.0
  0
VERTEX
  5
243
330
241
100
AcDbEntity
  8
_U+30EC_U+30A4_U+30E4_U+30FC 1
 62
   179
420
  2234388
370
    25
100
AcDbVertex
100
AcDb2dVertex
 10
59.13574932465468
 20
-134.0869174664785
 30
0.0
  0
SEQEND
  5
244
330
241
100
AcDbEntity
  8
_U+30EC_U+30A4_U+30E4_U+30FC 1
 62
   179
420
  2234388
370
    25
  0
POLYLINE
  5
245
330
1F
100
AcDbEntity
  8
_U+30EC_U+30A4_U+30E4_U+30FC 1
 62
   179
420
  2234388
370
    25
100
AcDb2dPolyline
 66
     1
 10
0.0
 20
0.0
 30
0.0
  0
VERTEX
  5
246
330
245
100
AcDbEntity
  8
_U+30EC_U+30A4_U+30E4_U+30FC 1
 62
   179
420
  2234388
370
    25
100
AcDbVertex
100
AcDb2dVertex
 10
59.15229460201035
 20
-133.0864396889504
 30
0.0
  0
VERTEX
  5
247
330
245
100
AcDbEntity
  8
_U+30EC_U+30A4_U+30E4_U+30FC 1
 62
   179
420
  2234388
370
    25
100
AcDbVertex
100
AcDb2dVertex
 10
59.54398375868419
 20
-133.5928874666019
 30
0.0
  0
SEQEND
  5
248
330
245
100
AcDbEntity
  8
_U+30EC_U+30A4_U+30E4_U+30FC 1
 62
   179
420
  2234388
370
    25
  0
POLYLINE
  5
249
330
1F
100
AcDbEntity
  8
_U+30EC_U+30A4_U+30E4_U+30FC 1
 62
   179
420
  2234388
370
    25
100
AcDb2dPolyline
 66
     1
 10
0.0
 20
0.0
 30
0.0
  0
VERTEX
  5
24A
330
249
100
AcDbEntity
  8
_U+30EC_U+30A4_U+30E4_U+30FC 1
 62
   179
420
  2234388
370
    25
100
AcDbVertex
100
AcDb2dVertex
 10
59.13574932465468
 20
-134.0869174664785
 30
0.0
  0
VERTEX
  5
24B
330
249
100
AcDbEntity
  8
_U+30EC_U+30A4_U+30E4_U+30FC 1
 62
   179
420
  2234388
370
    25
100
AcDbVertex
100
AcDb2dVertex
 10
59.5274737591054
 20
-134.5933299663517
 30
0.0
  0
SEQEND
  5
24C
330
249
100
AcDbEntity
  8
_U+30EC_U+30A4_U+30E4_U+30FC 1
 62
   179
420
  2234388
370
    25
  0
POLYLINE
  5
24D
330
1F
100
AcDbEntity
  8
_U+30EC_U+30A4_U+30E4_U+30FC 1
 62
   179
420
  2234388
370
    25
100
AcDb2dPolyline
 66
     1
 10
0.0
 20
0.0
 30
0.0
  0
VERTEX
  5
24E
330
24D
100
AcDbEntity
  8
_U+30EC_U+30A4_U+30E4_U+30FC 1
 62
   179
420
  2234388
370
    25
100
AcDbVertex
100
AcDb2dVertex
 10
59.11920554077587
 20
-135.0873599662284
 30
0.0
  0
VERTEX
  5
24F
330
24D
100
AcDbEntity
  8
_U+30EC_U+30A4_U+30E4_U+30FC 1
 62
   179
420
  2234388
370
    25
100
AcDbVertex
100
AcDb2dVertex
 10
59.51057570398095
 20
-135.5938077438792
 30
0.0
  0
SEQEND
  5
250
330
24D
100
AcDbEntity
  8
_U+30EC_U+30A4_U+30E4_U+30FC 1
 62
   179
420
  2234388
370
    25
  0
POLYLINE
  5
251
330
1F
100
AcDbEntity
  8
_U+30EC_U+30A4_U+30E4_U+30FC 1
 62
   179
420
  2234388
370
    25
100
AcDb2dPolyline
 66
     1
 10
0.0
 20
0.0
 30
0.0
  0
VERTEX
  5
252
330
251
100
AcDbEntity
  8
_U+30EC_U+30A4_U+30E4_U+30FC 1
 62
   179
420
  2234388
370
    25
100
AcDbVertex
100
AcDb2dVertex
 10
59.49403042662528
 20
-136.5942502436291
 30
0.0
  0
VERTEX
  5
253
330
251
100
AcDbEntity
  8
_U+30EC_U+30A4_U+30E4_U+30FC 1
 62
   179
420
  2234388
370
    25
100
AcDbVertex
100
AcDb2dVertex
 10
59.08614877036454
 20
-137.0882802435057
 30
0.0
  0
SEQEND
  5
254
330
251
100
AcDbEntity
  8
_U+30EC_U+30A4_U+30E4_U+30FC 1
 62
   179
420
  2234388
370
    25
  0
POLYLINE
  5
255
330
1F
100
AcDbEntity
  8
_U+30EC_U+30A4_U+30E4_U+30FC 1
 62
   179
420
  2234388
370
    25
100
AcDb2dPolyline
 66
     1
 10
0.0
 20
0.0
 30
0.0
  0
VERTEX
  5
256
330
255
100
AcDbEntity
  8
_U+30EC_U+30A4_U+30E4_U+30FC 1
 62
   179
420
  2234388
370
    25
100
AcDbVertex
100
AcDb2dVertex
 10
59.06925071524009
 20
-138.0887227432556
 30
0.0
  0
VERTEX
  5
257
330
255
100
AcDbEntity
  8
_U+30EC_U+30A4_U+30E4_U+30FC 1
 62
   179
420
  2234388
370
    25
100
AcDbVertex
100
AcDb2dVertex
 10
59.47752042704649
 20
-137.594692743379
 30
0.0
  0
SEQEND
  5
258
330
255
100
AcDbEntity
  8
_U+30EC_U+30A4_U+30E4_U+30FC 1
 62
   179
420
  2234388
370
    25
  0
POLYLINE
  5
259
330
1F
100
AcDbEntity
  8
_U+30EC_U+30A4_U+30E4_U+30FC 1
 62
   179
420
  2234388
370
    25
100
AcDb2dPolyline
 66
     1
 10
0.0
 20
0.0
 30
0.0
  0
VERTEX
  5
25A
330
259
100
AcDbEntity
  8
_U+30EC_U+30A4_U+30E4_U+30FC 1
 62
   179
420
  2234388
370
    25
100
AcDbVertex
100
AcDb2dVertex
 10
59.46097514969081
 20
-138.5951705209071
 30
0.0
  0
VERTEX
  5
25B
330
259
100
AcDbEntity
  8
_U+30EC_U+30A4_U+30E4_U+30FC 1
 62
   179
420
  2234388
370
    25
100
AcDbVertex
100
AcDb2dVertex
 10
59.06925071524009
 20
-138.0887227432556
 30
0.0
  0
SEQEND
  5
25C
330
259
100
AcDbEntity
  8
_U+30EC_U+30A4_U+30E4_U+30FC 1
 62
   179
420
  2234388
370
    25
  0
POLYLINE
  5
25D
330
1F
100
AcDbEntity
  8
_U+30EC_U+30A4_U+30E4_U+30FC 1
 62
   179
420
  2234388
370
    25
100
AcDb2dPolyline
 66
     1
 10
0.0
 20
0.0
 30
0.0
  0
VERTEX
  5
25E
330
25D
100
AcDbEntity
  8
_U+30EC_U+30A4_U+30E4_U+30FC 1
 62
   179
420
  2234388
370
    25
100
AcDbVertex
100
AcDb2dVertex
 10
59.44442987233514
 20
-139.5956130206569
 30
0.0
  0
VERTEX
  5
25F
330
25D
100
AcDbEntity
  8
_U+30EC_U+30A4_U+30E4_U+30FC 1
 62
   179
420
  2234388
370
    25
100
AcDbVertex
100
AcDb2dVertex
 10
59.05274071566129
 20
-139.0892005207831
 30
0.0
  0
SEQEND
  5
260
330
25D
100
AcDbEntity
  8
_U+30EC_U+30A4_U+30E4_U+30FC 1
 62
   179
420
  2234388
370
    25
  0
POLYLINE
  5
261
330
1F
100
AcDbEntity
  8
_U+30EC_U+30A4_U+30E4_U+30FC 1
 62
   179
420
  2234388
370
    25
100
AcDb2dPolyline
 66
     1
 10
0.0
 20
0.0
 30
0.0
  0
VERTEX
  5
262
330
261
100
AcDbEntity
  8
_U+30EC_U+30A4_U+30E4_U+30FC 1
 62
   179
420
  2234388
370
    25
100
AcDbVertex
100
AcDb2dVertex
 10
59.41102181763189
 20
-141.5965332979343
 30
0.0
  0
VERTEX
  5
263
330
261
100
AcDbEntity
  8
_U+30EC_U+30A4_U+30E4_U+30FC 1
 62
   179
420
  2234388
370
    25
100
AcDbVertex
100
AcDb2dVertex
 10
59.01929738318117
 20
-141.0894152425055
 30
0.0
  0
SEQEND
  5
264
330
261
100
AcDbEntity
  8
_U+30EC_U+30A4_U+30E4_U+30FC 1
 62
   179
420
  2234388
370
    25
  0
POLYLINE
  5
265
330
1F
100
AcDbEntity
  8
_U+30EC_U+30A4_U+30E4_U+30FC 1
 62
   179
420
  2234388
370
    25
100
AcDb2dPolyline
 66
     1
 10
0.0
 20
0.0
 30
0.0
  0
VERTEX
  5
266
330
265
100
AcDbEntity
  8
_U+30EC_U+30A4_U+30E4_U+30FC 1
 62
   179
420
  2234388
370
    25
100
AcDbVertex
100
AcDb2dVertex
 10
59.00278887413834
 20
-142.0898577422554
 30
0.0
  0
VERTEX
  5
267
330
265
100
AcDbEntity
  8
_U+30EC_U+30A4_U+30E4_U+30FC 1
 62
   179
420
  2234388
370
    25
100
AcDbVertex
100
AcDb2dVertex
 10
59.41102181763189
 20
-141.5965332979343
 30
0.0
  0
SEQEND
  5
268
330
265
100
AcDbEntity
  8
_U+30EC_U+30A4_U+30E4_U+30FC 1
 62
   179
420
  2234388
370
    25
  0
POLYLINE
  5
269
330
1F
100
AcDbEntity
  8
_U+30EC_U+30A4_U+30E4_U+30FC 1
 62
   179
420
  2234388
370
    25
100
AcDb2dPolyline
 66
     1
 10
0.0
 20
0.0
 30
0.0
  0
VERTEX
  5
26A
330
269
100
AcDbEntity
  8
_U+30EC_U+30A4_U+30E4_U+30FC 1
 62
   179
420
  2234388
370
    25
100
AcDbVertex
100
AcDb2dVertex
 10
59.42788609625426
 20
-140.5960555204068
 30
0.0
  0
VERTEX
  5
26B
330
269
100
AcDbEntity
  8
_U+30EC_U+30A4_U+30E4_U+30FC 1
 62
   179
420
  2234388
370
    25
100
AcDbVertex
100
AcDb2dVertex
 10
59.03584266053684
 20
-140.089643020533
 30
0.0
  0
SEQEND
  5
26C
330
269
100
AcDbEntity
  8
_U+30EC_U+30A4_U+30E4_U+30FC 1
 62
   179
420
  2234388
370
    25
  0
POLYLINE
  5
26D
330
1F
100
AcDbEntity
  8
_U+30EC_U+30A4_U+30E4_U+30FC 1
 62
   179
420
  2234388
370
    25
100
AcDb2dPolyline
 66
     1
 10
0.0
 20
0.0
 30
0.0
  0
VERTEX
  5
26E
330
26D
100
AcDbEntity
  8
_U+30EC_U+30A4_U+30E4_U+30FC 1
 62
   179
420
  2234388
370
    25
100
AcDbVertex
100
AcDb2dVertex
 10
59.01929738318117
 20
-141.0894152425055
 30
0.0
  0
VERTEX
  5
26F
330
26D
100
AcDbEntity
  8
_U+30EC_U+30A4_U+30E4_U+30FC 1
 62
   179
420
  2234388
370
    25
100
AcDbVertex
100
AcDb2dVertex
 10
59.42788609625426
 20
-140.5960555204068
 30
0.0
  0
SEQEND
  5
270
330
26D
100
AcDbEntity
  8
_U+30EC_U+30A4_U+30E4_U+30FC 1
 62
   179
420
  2234388
370
    25
  0
POLYLINE
  5
271
330
1F
100
AcDbEntity
  8
_U+30EC_U+30A4_U+30E4_U+30FC 1
 62
   179
420
  2234388
370
    25
100
AcDb2dPolyline
 66
     1
 10
0.0
 20
0.0
 30
0.0
  0
VERTEX
  5
272
330
271
100
AcDbEntity
  8
_U+30EC_U+30A4_U+30E4_U+30FC 1
 62
   179
420
  2234388
370
    25
100
AcDbVertex
100
AcDb2dVertex
 10
59.03584266053684
 20
-140.089643020533
 30
0.0
  0
VERTEX
  5
273
330
271
100
AcDbEntity
  8
_U+30EC_U+30A4_U+30E4_U+30FC 1
 62
   179
420
  2234388
370
    25
100
AcDbVertex
100
AcDb2dVertex
 10
59.44442987233514
 20
-139.5956130206569
 30
0.0
  0
SEQEND
  5
274
330
271
100
AcDbEntity
  8
_U+30EC_U+30A4_U+30E4_U+30FC 1
 62
   179
420
  2234388
370
    25
  0
POLYLINE
  5
275
330
1F
100
AcDbEntity
  8
_U+30EC_U+30A4_U+30E4_U+30FC 1
 62
   179
420
  2234388
370
    25
100
AcDb2dPolyline
 66
     1
 10
0.0
 20
0.0
 30
0.0
  0
VERTEX
  5
276
330
275
100
AcDbEntity
  8
_U+30EC_U+30A4_U+30E4_U+30FC 1
 62
   179
420
  2234388
370
    25
100
AcDbVertex
100
AcDb2dVertex
 10
59.05274071566129
 20
-139.0892005207831
 30
0.0
  0
VERTEX
  5
277
330
275
100
AcDbEntity
  8
_U+30EC_U+30A4_U+30E4_U+30FC 1
 62
   179
420
  2234388
370
    25
100
AcDbVertex
100
AcDb2dVertex
 10
59.46097514969081
 20
-138.5951705209071
 30
0.0
  0
SEQEND
  5
278
330
275
100
AcDbEntity
  8
_U+30EC_U+30A4_U+30E4_U+30FC 1
 62
   179
420
  2234388
370
    25
  0
POLYLINE
  5
279
330
1F
100
AcDbEntity
  8
_U+30EC_U+30A4_U+30E4_U+30FC 1
 62
   179
420
  2234388
370
    25
100
AcDb2dPolyline
 66
     1
 10
0.0
 20
0.0
 30
0.0
  0
VERTEX
  5
27A
330
279
100
AcDbEntity
  8
_U+30EC_U+30A4_U+30E4_U+30FC 1
 62
   179
420
  2234388
370
    25
100
AcDbVertex
100
AcDb2dVertex
 10
59.47752042704649
 20
-137.594692743379
 30
0.0
  0
VERTEX
  5
27B
330
279
100
AcDbEntity
  8
_U+30EC_U+30A4_U+30E4_U+30FC 1
 62
   179
420
  2234388
370
    25
100
AcDbVertex
100
AcDb2dVertex
 10
59.08614877036454
 20
-137.0882802435057
 30
0.0
  0
SEQEND
  5
27C
330
279
100
AcDbEntity
  8
_U+30EC_U+30A4_U+30E4_U+30FC 1
 62
   179
420
  2234388
370
    25
  0
POLYLINE
  5
27D
330
1F
100
AcDbEntity
  8
_U+30EC_U+30A4_U+30E4_U+30FC 1
 62
   179
420
  2234388
370
    25
100
AcDb2dPolyline
 66
     1
 10
0.0
 20
0.0
 30
0.0
  0
VERTEX
  5
27E
330
27D
100
AcDbEntity
  8
_U+30EC_U+30A4_U+30E4_U+30FC 1
 62
   179
420
  2234388
370
    25
100
AcDbVertex
100
AcDb2dVertex
 10
74.84571947941551
 20
-134.8958016329424
 30
0.0
  0
VERTEX
  5
27F
330
27D
100
AcDbEntity
  8
_U+30EC_U+30A4_U+30E4_U+30FC 1
 62
   179
420
  2234388
370
    25
100
AcDbVertex
100
AcDb2dVertex
 10
84.94571386765253
 20
-124.7961619132456
 30
0.0
  0
SEQEND
  5
280
330
27D
100
AcDbEntity
  8
_U+30EC_U+30A4_U+30E4_U+30FC 1
 62
   179
420
  2234388
370
    25
  0
POLYLINE
  5
281
330
1F
100
AcDbEntity
  8
_U+30EC_U+30A4_U+30E4_U+30FC 1
 62
   179
420
  2234388
370
    25
100
AcDb2dPolyline
 66
     1
 10
0.0
 20
0.0
 30
0.0
  0
VERTEX
  5
282
330
281
100
AcDbEntity
  8
_U+30EC_U+30A4_U+30E4_U+30FC 1
 62
   179
420
  2234388
370
    25
100
AcDbVertex
100
AcDb2dVertex
 10
67.87493660169943
 20
-131.9674991336746
 30
0.0
  0
VERTEX
  5
283
330
281
100
AcDbEntity
  8
_U+30EC_U+30A4_U+30E4_U+30FC 1
 62
   179
420
  2234388
370
    25
100
AcDbVertex
100
AcDb2dVertex
 10
70.1555743212933
 20
-129.6868260786895
 30
0.0
  0
SEQEND
  5
284
330
281
100
AcDbEntity
  8
_U+30EC_U+30A4_U+30E4_U+30FC 1
 62
   179
420
  2234388
370
    25
  0
POLYLINE
  5
285
330
1F
100
AcDbEntity
  8
_U+30EC_U+30A4_U+30E4_U+30FC 1
 62
   179
420
  2234388
370
    25
100
AcDb2dPolyline
 66
     1
 10
0.0
 20
0.0
 30
0.0
  0
VERTEX
  5
286
330
285
100
AcDbEntity
  8
_U+30EC_U+30A4_U+30E4_U+30FC 1
 62
   179
420
  2234388
370
    25
100
AcDbVertex
100
AcDb2dVertex
 10
69.22127767846253
 20
-133.0961058000594
 30
0.0
  0
VERTEX
  5
287
330
285
100
AcDbEntity
  8
_U+30EC_U+30A4_U+30E4_U+30FC 1
 62
   179
420
  2234388
370
    25
100
AcDbVertex
100
AcDb2dVertex
 10
83.1453103787864
 20
-119.1717199702069
 30
0.0
  0
SEQEND
  5
288
330
285
100
AcDbEntity
  8
_U+30EC_U+30A4_U+30E4_U+30FC 1
 62
   179
420
  2234388
370
    25
  0
POLYLINE
  5
289
330
1F
100
AcDbEntity
  8
_U+30EC_U+30A4_U+30E4_U+30FC 1
 62
   179
420
  2234388
370
    25
100
AcDb2dPolyline
 66
     1
 10
0.0
 20
0.0
 30
0.0
  0
VERTEX
  5
28A
330
289
100
AcDbEntity
  8
_U+30EC_U+30A4_U+30E4_U+30FC 1
 62
   179
420
  2234388
370
    25
100
AcDbVertex
100
AcDb2dVertex
 10
68.52051991856257
 20
-132.5593544113045
 30
0.0
  0
VERTEX
  5
28B
330
289
100
AcDbEntity
  8
_U+30EC_U+30A4_U+30E4_U+30FC 1
 62
   179
420
  2234388
370
    25
100
AcDbVertex
100
AcDb2dVertex
 10
71.01822179928533
 20
-130.0616524674847
 30
0.0
  0
SEQEND
  5
28C
330
289
100
AcDbEntity
  8
_U+30EC_U+30A4_U+30E4_U+30FC 1
 62
   179
420
  2234388
370
    25
  0
POLYLINE
  5
28D
330
1F
100
AcDbEntity
  8
_U+30EC_U+30A4_U+30E4_U+30FC 1
 62
   179
420
  2234388
370
    25
100
AcDb2dPolyline
 66
     1
 10
0.0
 20
0.0
 30
0.0
  0
VERTEX
  5
28E
330
28D
100
AcDbEntity
  8
_U+30EC_U+30A4_U+30E4_U+30FC 1
 62
   179
420
  2234388
370
    25
100
AcDbVertex
100
AcDb2dVertex
 10
72.64018814679442
 20
-134.6270907996766
 30
0.0
  0
VERTEX
  5
28F
330
28D
100
AcDbEntity
  8
_U+30EC_U+30A4_U+30E4_U+30FC 1
 62
   179
420
  2234388
370
    25
100
AcDbVertex
100
AcDb2dVertex
 10
84.67700089526528
 20
-122.590630524908
 30
0.0
  0
SEQEND
  5
290
330
28D
100
AcDbEntity
  8
_U+30EC_U+30A4_U+30E4_U+30FC 1
 62
   179
420
  2234388
370
    25
  0
POLYLINE
  5
291
330
1F
100
AcDbEntity
  8
_U+30EC_U+30A4_U+30E4_U+30FC 1
 62
   179
420
  2234388
370
    25
100
AcDb2dPolyline
 66
     1
 10
0.0
 20
0.0
 30
0.0
  0
VERTEX
  5
292
330
291
100
AcDbEntity
  8
_U+30EC_U+30A4_U+30E4_U+30FC 1
 62
   179
420
  2234388
370
    25
100
AcDbVertex
100
AcDb2dVertex
 10
73.68747950896467
 20
-134.8172732996291
 30
0.0
  0
VERTEX
  5
293
330
291
100
AcDbEntity
  8
_U+30EC_U+30A4_U+30E4_U+30FC 1
 62
   179
420
  2234388
370
    25
100
AcDbVertex
100
AcDb2dVertex
 10
84.86647783487577
 20
-123.6379219135348
 30
0.0
  0
SEQEND
  5
294
330
291
100
AcDbEntity
  8
_U+30EC_U+30A4_U+30E4_U+30FC 1
 62
   179
420
  2234388
370
    25
  0
POLYLINE
  5
295
330
1F
100
AcDbEntity
  8
_U+30EC_U+30A4_U+30E4_U+30FC 1
 62
   179
420
  2234388
370
    25
100
AcDb2dPolyline
 66
     1
 10
0.0
 20
0.0
 30
0.0
  0
VERTEX
  5
296
330
295
100
AcDbEntity
  8
_U+30EC_U+30A4_U+30E4_U+30FC 1
 62
   179
420
  2234388
370
    25
100
AcDbVertex
100
AcDb2dVertex
 10
71.68105594904169
 20
-134.3487491330793
 30
0.0
  0
VERTEX
  5
297
330
295
100
AcDbEntity
  8
_U+30EC_U+30A4_U+30E4_U+30FC 1
 62
   179
420
  2234388
370
    25
100
AcDbVertex
100
AcDb2dVertex
 10
84.39795368016215
 20
-121.6314983029253
 30
0.0
  0
SEQEND
  5
298
330
295
100
AcDbEntity
  8
_U+30EC_U+30A4_U+30E4_U+30FC 1
 62
   179
420
  2234388
370
    25
  0
POLYLINE
  5
299
330
1F
100
AcDbEntity
  8
_U+30EC_U+30A4_U+30E4_U+30FC 1
 62
   179
420
  2234388
370
    25
100
AcDb2dPolyline
 66
     1
 10
0.0
 20
0.0
 30
0.0
  0
VERTEX
  5
29A
330
299
100
AcDbEntity
  8
_U+30EC_U+30A4_U+30E4_U+30FC 1
 62
   179
420
  2234388
370
    25
100
AcDbVertex
100
AcDb2dVertex
 10
65.49400416244208
 20
-128.1613444124042
 30
0.0
  0
VERTEX
  5
29B
330
299
100
AcDbEntity
  8
_U+30EC_U+30A4_U+30E4_U+30FC 1
 62
   179
420
  2234388
370
    25
100
AcDbVertex
100
AcDb2dVertex
 10
67.21622995183778
 20
-126.4388010795014
 30
0.0
  0
SEQEND
  5
29C
330
299
100
AcDbEntity
  8
_U+30EC_U+30A4_U+30E4_U+30FC 1
 62
   179
420
  2234388
370
    25
  0
POLYLINE
  5
29D
330
1F
100
AcDbEntity
  8
_U+30EC_U+30A4_U+30E4_U+30FC 1
 62
   179
420
  2234388
370
    25
100
AcDb2dPolyline
 66
     1
 10
0.0
 20
0.0
 30
0.0
  0
VERTEX
  5
29E
330
29D
100
AcDbEntity
  8
_U+30EC_U+30A4_U+30E4_U+30FC 1
 62
   179
420
  2234388
370
    25
100
AcDbVertex
100
AcDb2dVertex
 10
65.21530972510773
 20
-127.2022121904216
 30
0.0
  0
VERTEX
  5
29F
330
29D
100
AcDbEntity
  8
_U+30EC_U+30A4_U+30E4_U+30FC 1
 62
   179
420
  2234388
370
    25
100
AcDbVertex
100
AcDb2dVertex
 10
77.25176969580983
 20
-115.165751915653
 30
0.0
  0
SEQEND
  5
2A0
330
29D
100
AcDbEntity
  8
_U+30EC_U+30A4_U+30E4_U+30FC 1
 62
   179
420
  2234388
370
    25
  0
POLYLINE
  5
2A1
330
1F
100
AcDbEntity
  8
_U+30EC_U+30A4_U+30E4_U+30FC 1
 62
   179
420
  2234388
370
    25
100
AcDb2dPolyline
 66
     1
 10
0.0
 20
0.0
 30
0.0
  0
VERTEX
  5
2A2
330
2A1
100
AcDbEntity
  8
_U+30EC_U+30A4_U+30E4_U+30FC 1
 62
   179
420
  2234388
370
    25
100
AcDbVertex
100
AcDb2dVertex
 10
65.84713470898853
 20
-129.0453702455163
 30
0.0
  0
VERTEX
  5
2A3
330
2A1
100
AcDbEntity
  8
_U+30EC_U+30A4_U+30E4_U+30FC 1
 62
   179
420
  2234388
370
    25
100
AcDbVertex
100
AcDb2dVertex
 10
67.7040527608519
 20
-127.1884538570918
 30
0.0
  0
SEQEND
  5
2A4
330
2A1
100
AcDbEntity
  8
_U+30EC_U+30A4_U+30E4_U+30FC 1
 62
   179
420
  2234388
370
    25
  0
POLYLINE
  5
2A5
330
1F
100
AcDbEntity
  8
_U+30EC_U+30A4_U+30E4_U+30FC 1
 62
   179
420
  2234388
370
    25
100
AcDb2dPolyline
 66
     1
 10
0.0
 20
0.0
 30
0.0
  0
VERTEX
  5
2A6
330
2A5
100
AcDbEntity
  8
_U+30EC_U+30A4_U+30E4_U+30FC 1
 62
   179
420
  2234388
370
    25
100
AcDbVertex
100
AcDb2dVertex
 10
65.02548000772846
 20
-126.1549208017947
 30
0.0
  0
VERTEX
  5
2A7
330
2A5
100
AcDbEntity
  8
_U+30EC_U+30A4_U+30E4_U+30FC 1
 62
   179
420
  2234388
370
    25
100
AcDbVertex
100
AcDb2dVertex
 10
76.20447833363957
 20
-114.9762749712561
 30
0.0
  0
SEQEND
  5
2A8
330
2A5
100
AcDbEntity
  8
_U+30EC_U+30A4_U+30E4_U+30FC 1
 62
   179
420
  2234388
370
    25
  0
POLYLINE
  5
2A9
330
1F
100
AcDbEntity
  8
_U+30EC_U+30A4_U+30E4_U+30FC 1
 62
   179
420
  2234388
370
    25
100
AcDb2dPolyline
 66
     1
 10
0.0
 20
0.0
 30
0.0
  0
VERTEX
  5
2AA
330
2A9
100
AcDbEntity
  8
_U+30EC_U+30A4_U+30E4_U+30FC 1
 62
   179
420
  2234388
370
    25
100
AcDbVertex
100
AcDb2dVertex
 10
67.20518800767503
 20
-128.9247908011019
 30
0.0
  0
VERTEX
  5
2AB
330
2A9
100
AcDbEntity
  8
_U+30EC_U+30A4_U+30E4_U+30FC 1
 62
   179
420
  2234388
370
    25
100
AcDbVertex
100
AcDb2dVertex
 10
70.48905514611883
 20
-125.6409235797009
 30
0.0
  0
SEQEND
  5
2AC
330
2A9
100
AcDbEntity
  8
_U+30EC_U+30A4_U+30E4_U+30FC 1
 62
   179
420
  2234388
370
    25
  0
POLYLINE
  5
2AD
330
1F
100
AcDbEntity
  8
_U+30EC_U+30A4_U+30E4_U+30FC 1
 62
   179
420
  2234388
370
    25
100
AcDb2dPolyline
 66
     1
 10
0.0
 20
0.0
 30
0.0
  0
VERTEX
  5
2AE
330
2AD
100
AcDbEntity
  8
_U+30EC_U+30A4_U+30E4_U+30FC 1
 62
   179
420
  2234388
370
    25
100
AcDbVertex
100
AcDb2dVertex
 10
66.74664746381782
 20
-130.6211227451226
 30
0.0
  0
VERTEX
  5
2AF
330
2AD
100
AcDbEntity
  8
_U+30EC_U+30A4_U+30E4_U+30FC 1
 62
   179
420
  2234388
370
    25
100
AcDbVertex
100
AcDb2dVertex
 10
66.87689301605054
 20
-130.4909124673775
 30
0.0
  0
SEQEND
  5
2B0
330
2AD
100
AcDbEntity
  8
_U+30EC_U+30A4_U+30E4_U+30FC 1
 62
   179
420
  2234388
370
    25
  0
POLYLINE
  5
2B1
330
1F
100
AcDbEntity
  8
_U+30EC_U+30A4_U+30E4_U+30FC 1
 62
   179
420
  2234388
370
    25
100
AcDb2dPolyline
 66
     1
 10
0.0
 20
0.0
 30
0.0
  0
VERTEX
  5
2B2
330
2B1
100
AcDbEntity
  8
_U+30EC_U+30A4_U+30E4_U+30FC 1
 62
   179
420
  2234388
370
    25
100
AcDbVertex
100
AcDb2dVertex
 10
68.00306548731949
 20
-125.6519302463649
 30
0.0
  0
VERTEX
  5
2B3
330
2B1
100
AcDbEntity
  8
_U+30EC_U+30A4_U+30E4_U+30FC 1
 62
   179
420
  2234388
370
    25
100
AcDbVertex
100
AcDb2dVertex
 10
71.4591940102574
 20
-122.196507191673
 30
0.0
  0
SEQEND
  5
2B4
330
2B1
100
AcDbEntity
  8
_U+30EC_U+30A4_U+30E4_U+30FC 1
 62
   179
420
  2234388
370
    25
  0
POLYLINE
  5
2B5
330
1F
100
AcDbEntity
  8
_U+30EC_U+30A4_U+30E4_U+30FC 1
 62
   179
420
  2234388
370
    25
100
AcDb2dPolyline
 66
     1
 10
0.0
 20
0.0
 30
0.0
  0
VERTEX
  5
2B6
330
2B5
100
AcDbEntity
  8
_U+30EC_U+30A4_U+30E4_U+30FC 1
 62
   179
420
  2234388
370
    25
100
AcDbVertex
100
AcDb2dVertex
 10
68.75271824597203
 20
-126.1397513573539
 30
0.0
  0
VERTEX
  5
2B7
330
2B5
100
AcDbEntity
  8
_U+30EC_U+30A4_U+30E4_U+30FC 1
 62
   179
420
  2234388
370
    25
100
AcDbVertex
100
AcDb2dVertex
 10
71.94669760893127
 20
-122.9461599692633
 30
0.0
  0
SEQEND
  5
2B8
330
2B5
100
AcDbEntity
  8
_U+30EC_U+30A4_U+30E4_U+30FC 1
 62
   179
420
  2234388
370
    25
  0
POLYLINE
  5
2B9
330
1F
100
AcDbEntity
  8
_U+30EC_U+30A4_U+30E4_U+30FC 1
 62
   179
420
  2234388
370
    25
100
AcDb2dPolyline
 66
     1
 10
0.0
 20
0.0
 30
0.0
  0
VERTEX
  5
2BA
330
2B9
100
AcDbEntity
  8
_U+30EC_U+30A4_U+30E4_U+30FC 1
 62
   179
420
  2234388
370
    25
100
AcDbVertex
100
AcDb2dVertex
 10
72.24571387082753
 20
-121.4096363585365
 30
0.0
  0
VERTEX
  5
2BB
330
2B9
100
AcDbEntity
  8
_U+30EC_U+30A4_U+30E4_U+30FC 1
 62
   179
420
  2234388
370
    25
100
AcDbVertex
100
AcDb2dVertex
 10
75.70148779091637
 20
-117.9535077482893
 30
0.0
  0
SEQEND
  5
2BC
330
2B9
100
AcDbEntity
  8
_U+30EC_U+30A4_U+30E4_U+30FC 1
 62
   179
420
  2234388
370
    25
  0
POLYLINE
  5
2BD
330
1F
100
AcDbEntity
  8
_U+30EC_U+30A4_U+30E4_U+30FC 1
 62
   179
420
  2234388
370
    25
100
AcDb2dPolyline
 66
     1
 10
0.0
 20
0.0
 30
0.0
  0
VERTEX
  5
2BE
330
2BD
100
AcDbEntity
  8
_U+30EC_U+30A4_U+30E4_U+30FC 1
 62
   179
420
  2234388
370
    25
100
AcDbVertex
100
AcDb2dVertex
 10
72.99571942619565
 20
-121.8974574695257
 30
0.0
  0
VERTEX
  5
2BF
330
2BD
100
AcDbEntity
  8
_U+30EC_U+30A4_U+30E4_U+30FC 1
 62
   179
420
  2234388
370
    25
100
AcDbVertex
100
AcDb2dVertex
 10
76.18930888958212
 20
-118.7031605258797
 30
0.0
  0
SEQEND
  5
2C0
330
2BD
100
AcDbEntity
  8
_U+30EC_U+30A4_U+30E4_U+30FC 1
 62
   179
420
  2234388
370
    25
  0
POLYLINE
  5
2C1
330
1F
100
AcDbEntity
  8
_U+30EC_U+30A4_U+30E4_U+30FC 1
 62
   179
420
  2234388
370
    25
100
AcDb2dPolyline
 66
     1
 10
0.0
 20
0.0
 30
0.0
  0
VERTEX
  5
2C2
330
2C1
100
AcDbEntity
  8
_U+30EC_U+30A4_U+30E4_U+30FC 1
 62
   179
420
  2234388
370
    25
100
AcDbVertex
100
AcDb2dVertex
 10
77.23801136282749
 20
-117.6544933039196
 30
0.0
  0
VERTEX
  5
2C3
330
2C1
100
AcDbEntity
  8
_U+30EC_U+30A4_U+30E4_U+30FC 1
 62
   179
420
  2234388
370
    25
100
AcDbVertex
100
AcDb2dVertex
 10
79.09492770434251
 20
-115.7975769154951
 30
0.0
  0
SEQEND
  5
2C4
330
2C1
100
AcDbEntity
  8
_U+30EC_U+30A4_U+30E4_U+30FC 1
 62
   179
420
  2234388
370
    25
  0
POLYLINE
  5
2C5
330
1F
100
AcDbEntity
  8
_U+30EC_U+30A4_U+30E4_U+30FC 1
 62
   179
420
  2234388
370
    25
100
AcDb2dPolyline
 66
     1
 10
0.0
 20
0.0
 30
0.0
  0
VERTEX
  5
2C6
330
2C5
100
AcDbEntity
  8
_U+30EC_U+30A4_U+30E4_U+30FC 1
 62
   179
420
  2234388
370
    25
100
AcDbVertex
100
AcDb2dVertex
 10
76.48835860417496
 20
-117.1666721929306
 30
0.0
  0
VERTEX
  5
2C7
330
2C5
100
AcDbEntity
  8
_U+30EC_U+30A4_U+30E4_U+30FC 1
 62
   179
420
  2234388
370
    25
100
AcDbVertex
100
AcDb2dVertex
 10
78.21090189356255
 20
-115.4441288600278
 30
0.0
  0
SEQEND
  5
2C8
330
2C5
100
AcDbEntity
  8
_U+30EC_U+30A4_U+30E4_U+30FC 1
 62
   179
420
  2234388
370
    25
  0
POLYLINE
  5
2C9
330
1F
100
AcDbEntity
  8
_U+30EC_U+30A4_U+30E4_U+30FC 1
 62
   179
420
  2234388
370
    25
100
AcDb2dPolyline
 66
     1
 10
0.0
 20
0.0
 30
0.0
  0
VERTEX
  5
2CA
330
2C9
100
AcDbEntity
  8
_U+30EC_U+30A4_U+30E4_U+30FC 1
 62
   179
420
  2234388
370
    25
100
AcDbVertex
100
AcDb2dVertex
 10
70.7970654160386
 20
-133.9952657998348
 30
0.0
  0
VERTEX
  5
2CB
330
2C9
100
AcDbEntity
  8
_U+30EC_U+30A4_U+30E4_U+30FC 1
 62
   179
420
  2234388
370
    25
100
AcDbVertex
100
AcDb2dVertex
 10
84.04517591138449
 20
-120.7475077475908
 30
0.0
  0
SEQEND
  5
2CC
330
2C9
100
AcDbEntity
  8
_U+30EC_U+30A4_U+30E4_U+30FC 1
 62
   179
420
  2234388
370
    25
  0
POLYLINE
  5
2CD
330
1F
100
AcDbEntity
  8
_U+30EC_U+30A4_U+30E4_U+30FC 1
 62
   179
420
  2234388
370
    25
100
AcDb2dPolyline
 66
     1
 10
0.0
 20
0.0
 30
0.0
  0
VERTEX
  5
2CE
330
2CD
100
AcDbEntity
  8
_U+30EC_U+30A4_U+30E4_U+30FC 1
 62
   179
420
  2234388
370
    25
100
AcDbVertex
100
AcDb2dVertex
 10
69.97918543690446
 20
-133.5756366332729
 30
0.0
  0
VERTEX
  5
2CF
330
2CD
100
AcDbEntity
  8
_U+30EC_U+30A4_U+30E4_U+30FC 1
 62
   179
420
  2234388
370
    25
100
AcDbVertex
100
AcDb2dVertex
 10
83.62554675542346
 20
-119.9296277477953
 30
0.0
  0
SEQEND
  5
2D0
330
2CD
100
AcDbEntity
  8
_U+30EC_U+30A4_U+30E4_U+30FC 1
 62
   179
420
  2234388
370
    25
  0
POLYLINE
  5
2D1
330
1F
100
AcDbEntity
  8
_U+30EC_U+30A4_U+30E4_U+30FC 1
 62
   179
420
  2234388
370
    25
100
AcDb2dPolyline
 66
     1
 10
0.0
 20
0.0
 30
0.0
  0
VERTEX
  5
2D2
330
2D1
100
AcDbEntity
  8
_U+30EC_U+30A4_U+30E4_U+30FC 1
 62
   179
420
  2234388
370
    25
100
AcDbVertex
100
AcDb2dVertex
 10
67.28304606124426
 20
-131.3218805227252
 30
0.0
  0
VERTEX
  5
2D3
330
2D1
100
AcDbEntity
  8
_U+30EC_U+30A4_U+30E4_U+30FC 1
 62
   179
420
  2234388
370
    25
100
AcDbVertex
100
AcDb2dVertex
 10
81.37143792404167
 20
-117.2334883040251
 30
0.0
  0
SEQEND
  5
2D4
330
2D1
100
AcDbEntity
  8
_U+30EC_U+30A4_U+30E4_U+30FC 1
 62
   179
420
  2234388
370
    25
  0
POLYLINE
  5
2D5
330
1F
100
AcDbEntity
  8
_U+30EC_U+30A4_U+30E4_U+30FC 1
 62
   179
420
  2234388
370
    25
100
AcDb2dPolyline
 66
     1
 10
0.0
 20
0.0
 30
0.0
  0
VERTEX
  5
2D6
330
2D5
100
AcDbEntity
  8
_U+30EC_U+30A4_U+30E4_U+30FC 1
 62
   179
420
  2234388
370
    25
100
AcDbVertex
100
AcDb2dVertex
 10
67.81221271441076
 20
-129.5552399676115
 30
0.0
  0
VERTEX
  5
2D7
330
2D5
100
AcDbEntity
  8
_U+30EC_U+30A4_U+30E4_U+30FC 1
 62
   179
420
  2234388
370
    25
100
AcDbVertex
100
AcDb2dVertex
 10
71.1195042967014
 20
-126.2479483017713
 30
0.0
  0
SEQEND
  5
2D8
330
2D5
100
AcDbEntity
  8
_U+30EC_U+30A4_U+30E4_U+30FC 1
 62
   179
420
  2234388
370
    25
  0
POLYLINE
  5
2D9
330
1F
100
AcDbEntity
  8
_U+30EC_U+30A4_U+30E4_U+30FC 1
 62
   179
420
  2234388
370
    25
100
AcDb2dPolyline
 66
     1
 10
0.0
 20
0.0
 30
0.0
  0
VERTEX
  5
2DA
330
2D9
100
AcDbEntity
  8
_U+30EC_U+30A4_U+30E4_U+30FC 1
 62
   179
420
  2234388
370
    25
100
AcDbVertex
100
AcDb2dVertex
 10
72.0548610930974
 20
-125.312946079783
 30
0.0
  0
VERTEX
  5
2DB
330
2D9
100
AcDbEntity
  8
_U+30EC_U+30A4_U+30E4_U+30FC 1
 62
   179
420
  2234388
370
    25
100
AcDbVertex
100
AcDb2dVertex
 10
75.36215275893724
 20
-122.0056544139432
 30
0.0
  0
SEQEND
  5
2DC
330
2D9
100
AcDbEntity
  8
_U+30EC_U+30A4_U+30E4_U+30FC 1
 62
   179
420
  2234388
370
    25
  0
POLYLINE
  5
2DD
330
1F
100
AcDbEntity
  8
_U+30EC_U+30A4_U+30E4_U+30FC 1
 62
   179
420
  2234388
370
    25
100
AcDb2dPolyline
 66
     1
 10
0.0
 20
0.0
 30
0.0
  0
VERTEX
  5
2DE
330
2DD
100
AcDbEntity
  8
_U+30EC_U+30A4_U+30E4_U+30FC 1
 62
   179
420
  2234388
370
    25
100
AcDbVertex
100
AcDb2dVertex
 10
71.44783456610277
 20
-124.6824969132738
 30
0.0
  0
VERTEX
  5
2DF
330
2DD
100
AcDbEntity
  8
_U+30EC_U+30A4_U+30E4_U+30FC 1
 62
   179
420
  2234388
370
    25
100
AcDbVertex
100
AcDb2dVertex
 10
74.73205448231533
 20
-121.3979241363172
 30
0.0
  0
SEQEND
  5
2E0
330
2DD
100
AcDbEntity
  8
_U+30EC_U+30A4_U+30E4_U+30FC 1
 62
   179
420
  2234388
370
    25
  0
POLYLINE
  5
2E1
330
1F
100
AcDbEntity
  8
_U+30EC_U+30A4_U+30E4_U+30FC 1
 62
   179
420
  2234388
370
    25
100
AcDb2dPolyline
 66
     1
 10
0.0
 20
0.0
 30
0.0
  0
VERTEX
  5
2E2
330
2E1
100
AcDbEntity
  8
_U+30EC_U+30A4_U+30E4_U+30FC 1
 62
   179
420
  2234388
370
    25
100
AcDbVertex
100
AcDb2dVertex
 10
75.6904811245305
 20
-120.4394974698901
 30
0.0
  0
VERTEX
  5
2E3
330
2E1
100
AcDbEntity
  8
_U+30EC_U+30A4_U+30E4_U+30FC 1
 62
   179
420
  2234388
370
    25
100
AcDbVertex
100
AcDb2dVertex
 10
78.9743482629743
 20
-117.1556302484887
 30
0.0
  0
SEQEND
  5
2E4
330
2E1
100
AcDbEntity
  8
_U+30EC_U+30A4_U+30E4_U+30FC 1
 62
   179
420
  2234388
370
    25
  0
POLYLINE
  5
2E5
330
1F
100
AcDbEntity
  8
_U+30EC_U+30A4_U+30E4_U+30FC 1
 62
   179
420
  2234388
370
    25
100
AcDb2dPolyline
 66
     1
 10
0.0
 20
0.0
 30
0.0
  0
VERTEX
  5
2E6
330
2E5
100
AcDbEntity
  8
_U+30EC_U+30A4_U+30E4_U+30FC 1
 62
   179
420
  2234388
370
    25
100
AcDbVertex
100
AcDb2dVertex
 10
76.29750583126624
 20
-121.0699466363993
 30
0.0
  0
VERTEX
  5
2E7
330
2E5
100
AcDbEntity
  8
_U+30EC_U+30A4_U+30E4_U+30FC 1
 62
   179
420
  2234388
370
    25
100
AcDbVertex
100
AcDb2dVertex
 10
79.60479741355687
 20
-117.7626549705595
 30
0.0
  0
SEQEND
  5
2E8
330
2E5
100
AcDbEntity
  8
_U+30EC_U+30A4_U+30E4_U+30FC 1
 62
   179
420
  2234388
370
    25
  0
POLYLINE
  5
2E9
330
1F
100
AcDbEntity
  8
_U+30EC_U+30A4_U+30E4_U+30FC 1
 62
   179
420
  2234388
370
    25
100
AcDb2dPolyline
 66
     1
 10
0.0
 20
0.0
 30
0.0
  0
VERTEX
  5
2EA
330
2E9
100
AcDbEntity
  8
_U+30EC_U+30A4_U+30E4_U+30FC 1
 62
   179
420
  2234388
370
    25
100
AcDbVertex
100
AcDb2dVertex
 10
80.5401171119171
 20
-116.8276527485709
 30
0.0
  0
VERTEX
  5
2EB
330
2E9
100
AcDbEntity
  8
_U+30EC_U+30A4_U+30E4_U+30FC 1
 62
   179
420
  2234388
370
    25
100
AcDbVertex
100
AcDb2dVertex
 10
80.67071544191859
 20
-116.6967369152702
 30
0.0
  0
SEQEND
  5
2EC
330
2E9
100
AcDbEntity
  8
_U+30EC_U+30A4_U+30E4_U+30FC 1
 62
   179
420
  2234388
370
    25
  0
POLYLINE
  5
2ED
330
1F
100
AcDbEntity
  8
_U+30EC_U+30A4_U+30E4_U+30FC 1
 62
   179
420
  2234388
370
    25
100
AcDb2dPolyline
 66
     1
 10
0.0
 20
0.0
 30
0.0
  0
VERTEX
  5
2EE
330
2ED
100
AcDbEntity
  8
_U+30EC_U+30A4_U+30E4_U+30FC 1
 62
   179
420
  2234388
370
    25
100
AcDbVertex
100
AcDb2dVertex
 10
71.25112568223234
 20
-128.5912746900744
 30
0.0
  0
VERTEX
  5
2EF
330
2ED
100
AcDbEntity
  8
_U+30EC_U+30A4_U+30E4_U+30FC 1
 62
   179
420
  2234388
370
    25
100
AcDbVertex
100
AcDb2dVertex
 10
74.39822087972104
 20
-125.4445321908611
 30
0.0
  0
SEQEND
  5
2F0
330
2ED
100
AcDbEntity
  8
_U+30EC_U+30A4_U+30E4_U+30FC 1
 62
   179
420
  2234388
370
    25
  0
POLYLINE
  5
2F1
330
1F
100
AcDbEntity
  8
_U+30EC_U+30A4_U+30E4_U+30FC 1
 62
   179
420
  2234388
370
    25
100
AcDb2dPolyline
 66
     1
 10
0.0
 20
0.0
 30
0.0
  0
VERTEX
  5
2F2
330
2F1
100
AcDbEntity
  8
_U+30EC_U+30A4_U+30E4_U+30FC 1
 62
   179
420
  2234388
370
    25
100
AcDbVertex
100
AcDb2dVertex
 10
71.62559928378984
 20
-129.4539574676363
 30
0.0
  0
VERTEX
  5
2F3
330
2F1
100
AcDbEntity
  8
_U+30EC_U+30A4_U+30E4_U+30FC 1
 62
   179
420
  2234388
370
    25
100
AcDbVertex
100
AcDb2dVertex
 10
75.26122113548185
 20
-125.8186883018786
 30
0.0
  0
SEQEND
  5
2F4
330
2F1
100
AcDbEntity
  8
_U+30EC_U+30A4_U+30E4_U+30FC 1
 62
   179
420
  2234388
370
    25
  0
POLYLINE
  5
2F5
330
1F
100
AcDbEntity
  8
_U+30EC_U+30A4_U+30E4_U+30FC 1
 62
   179
420
  2234388
370
    25
100
AcDb2dPolyline
 66
     1
 10
0.0
 20
0.0
 30
0.0
  0
VERTEX
  5
2F6
330
2F5
100
AcDbEntity
  8
_U+30EC_U+30A4_U+30E4_U+30FC 1
 62
   179
420
  2234388
370
    25
100
AcDbVertex
100
AcDb2dVertex
 10
75.86824584221758
 20
-125.2116635798082
 30
0.0
  0
VERTEX
  5
2F7
330
2F5
100
AcDbEntity
  8
_U+30EC_U+30A4_U+30E4_U+30FC 1
 62
   179
420
  2234388
370
    25
100
AcDbVertex
100
AcDb2dVertex
 10
79.5035149161408
 20
-121.5763944140504
 30
0.0
  0
SEQEND
  5
2F8
330
2F5
100
AcDbEntity
  8
_U+30EC_U+30A4_U+30E4_U+30FC 1
 62
   179
420
  2234388
370
    25
  0
POLYLINE
  5
2F9
330
1F
100
AcDbEntity
  8
_U+30EC_U+30A4_U+30E4_U+30FC 1
 62
   179
420
  2234388
370
    25
100
AcDb2dPolyline
 66
     1
 10
0.0
 20
0.0
 30
0.0
  0
VERTEX
  5
2FA
330
2F9
100
AcDbEntity
  8
_U+30EC_U+30A4_U+30E4_U+30FC 1
 62
   179
420
  2234388
370
    25
100
AcDbVertex
100
AcDb2dVertex
 10
75.49373887001532
 20
-124.3490160800237
 30
0.0
  0
VERTEX
  5
2FB
330
2F9
100
AcDbEntity
  8
_U+30EC_U+30A4_U+30E4_U+30FC 1
 62
   179
420
  2234388
370
    25
100
AcDbVertex
100
AcDb2dVertex
 10
78.64083216037189
 20
-121.2015680252552
 30
0.0
  0
SEQEND
  5
2FC
330
2F9
100
AcDbEntity
  8
_U+30EC_U+30A4_U+30E4_U+30FC 1
 62
   179
420
  2234388
370
    25
  0
POLYLINE
  5
2FD
330
1F
100
AcDbEntity
  8
_U+30EC_U+30A4_U+30E4_U+30FC 1
 62
   179
420
  2234388
370
    25
100
AcDb2dPolyline
 66
     1
 10
0.0
 20
0.0
 30
0.0
  0
VERTEX
  5
2FE
330
2FD
100
AcDbEntity
  8
_U+30EC_U+30A4_U+30E4_U+30FC 1
 62
   179
420
  2234388
370
    25
100
AcDbVertex
100
AcDb2dVertex
 10
79.73638352131094
 20
-120.10601663664
 30
0.0
  0
VERTEX
  5
2FF
330
2FD
100
AcDbEntity
  8
_U+30EC_U+30A4_U+30E4_U+30FC 1
 62
   179
420
  2234388
370
    25
100
AcDbVertex
100
AcDb2dVertex
 10
82.01737401867358
 20
-117.8253788594325
 30
0.0
  0
SEQEND
  5
300
330
2FD
100
AcDbEntity
  8
_U+30EC_U+30A4_U+30E4_U+30FC 1
 62
   179
420
  2234388
370
    25
  0
POLYLINE
  5
301
330
1F
100
AcDbEntity
  8
_U+30EC_U+30A4_U+30E4_U+30FC 1
 62
   179
420
  2234388
370
    25
100
AcDb2dPolyline
 66
     1
 10
0.0
 20
0.0
 30
0.0
  0
VERTEX
  5
302
330
301
100
AcDbEntity
  8
_U+30EC_U+30A4_U+30E4_U+30FC 1
 62
   179
420
  2234388
370
    25
100
AcDbVertex
100
AcDb2dVertex
 10
80.1112099006372
 20
-120.9686641364245
 30
0.0
  0
VERTEX
  5
303
330
301
100
AcDbEntity
  8
_U+30EC_U+30A4_U+30E4_U+30FC 1
 62
   179
420
  2234388
370
    25
100
AcDbVertex
100
AcDb2dVertex
 10
82.60856109045903
 20
-118.4709621926044
 30
0.0
  0
SEQEND
  5
304
330
301
100
AcDbEntity
  8
_U+30EC_U+30A4_U+30E4_U+30FC 1
 62
   179
420
  2234388
370
    25
  0
SPLINE
  5
305
330
1F
100
AcDbEntity
  8
_U+30EC_U+30A4_U+30E4_U+30FC 1
 62
   179
420
  2234388
370
    25
100
AcDbSpline
210
0.0
220
0.0
230
1.0
 70
    11
 71
     3
 72
    17
 73
    13
 74
     0
 42
0.0000000001
 43
0.0000000001
 12
1.0
 22
0.0
 32
0.0
 13
1.0
 23
0.0
 33
0.0
 40
0.0
 40
0.0
 40
0.0
 40
0.0
 40
1.0
 40
1.0
 40
1.0
 40
2.0
 40
2.0
 40
2.0
 40
3.0
 40
3.0
 40
3.0
 40
4.0
 40
4.0
 40
4.0
 40
4.0
 10
72.06897220420497
 20
-125.4624533019677
 30
0.0
 10
72.06897220420497
 20
-125.0201052465228
 30
0.0
 10
71.71068928161901
 20
-124.6624944132788
 30
0.0
 10
71.26904679288624
 20
-124.6624944132788
 30
0.0
 10
70.82736902637662
 20
-124.6624944132788
 30
0.0
 10
70.46908792440601
 20
-125.0201052465228
 30
0.0
 10
70.46908792440601
 20
-125.4624533019677
 30
0.0
 10
70.46908792440601
 20
-125.9041310796352
 30
0.0
 10
70.82736902637662
 20
-126.2624121906566
 30
0.0
 10
71.26904679288624
 20
-126.2624121906566
 30
0.0
 10
71.71068928161901
 20
-126.2624121906566
 30
0.0
 10
72.06897220420497
 20
-125.9041310796352
 30
0.0
 10
72.06897220420497
 20
-125.4624533019677
 30
0.0
  0
SPLINE
  5
306
330
1F
100
AcDbEntity
  8
_U+30EC_U+30A4_U+30E4_U+30FC 1
 62
   179
420
  2234388
370
    25
100
AcDbSpline
210
0.0
220
0.0
230
1.0
 70
    11
 71
     3
 72
    17
 73
    13
 74
     0
 42
0.0000000001
 43
0.0000000001
 12
1.0
 22
0.0
 32
0.0
 13
1.0
 23
0.0
 33
0.0
 40
0.0
 40
0.0
 40
0.0
 40
0.0
 40
1.0
 40
1.0
 40
1.0
 40
2.0
 40
2.0
 40
2.0
 40
3.0
 40
3.0
 40
3.0
 40
4.0
 40
4.0
 40
4.0
 40
4.0
 10
76.31161694201735
 20
-121.2194891363619
 30
0.0
 10
76.31161694201735
 20
-120.7778113586944
 30
0.0
 10
75.95368861781553
 20
-120.4195302476729
 30
0.0
 10
75.5116580735371
 20
-120.4195302476729
 30
0.0
 10
75.06966280703557
 20
-120.4195302476729
 30
0.0
 10
74.71173448283375
 20
-120.7778113586944
 30
0.0
 10
74.71173448283375
 20
-121.2194891363619
 30
0.0
 10
74.71173448283375
 20
-121.6611316362515
 30
0.0
 10
75.06966280703557
 20
-122.019412747273
 30
0.0
 10
75.5116580735371
 20
-122.019412747273
 30
0.0
 10
75.95368861781553
 20
-122.019412747273
 30
0.0
 10
76.31161694201735
 20
-121.6611316362515
 30
0.0
 10
76.31161694201735
 20
-121.2194891363619
 30
0.0
  0
SPLINE
  5
307
330
1F
100
AcDbEntity
  8
_U+30EC_U+30A4_U+30E4_U+30FC 1
 62
   179
420
  2234388
370
    25
100
AcDbSpline
210
0.0
220
0.0
230
1.0
 70
    11
 71
     3
 72
    17
 73
    13
 74
     0
 42
0.0000000001
 43
0.0000000001
 12
1.0
 22
0.0
 32
0.0
 13
1.0
 23
0.0
 33
0.0
 40
0.0
 40
0.0
 40
0.0
 40
0.0
 40
1.0
 40
1.0
 40
1.0
 40
2.0
 40
2.0
 40
2.0
 40
3.0
 40
3.0
 40
3.0
 40
4.0
 40
4.0
 40
4.0
 40
4.0
 10
68.81611241102138
 20
-126.4518891350536
 30
0.0
 10
68.81611241102138
 20
-126.0102113573864
 30
0.0
 10
68.45818408681956
 20
-125.6519302463649
 30
0.0
 10
68.01618882031802
 20
-125.6519302463649
 30
0.0
 10
67.57451105380838
 20
-125.6519302463649
 30
0.0
 10
67.21622995183778
 20
-126.0102113573864
 30
0.0
 10
67.21622995183778
 20
-126.4518891350536
 30
0.0
 10
67.21622995183778
 20
-126.8942371904987
 30
0.0
 10
67.57451105380838
 20
-127.2518480237425
 30
0.0
 10
68.01618882031802
 20
-127.2518480237425
 30
0.0
 10
68.45818408681956
 20
-127.2518480237425
 30
0.0
 10
68.81611241102138
 20
-126.8942371904987
 30
0.0
 10
68.81611241102138
 20
-126.4518891350536
 30
0.0
  0
SPLINE
  5
308
330
1F
100
AcDbEntity
  8
_U+30EC_U+30A4_U+30E4_U+30FC 1
 62
   179
420
  2234388
370
    25
100
AcDbSpline
210
0.0
220
0.0
230
1.0
 70
    11
 71
     3
 72
    17
 73
    13
 74
     0
 42
0.0000000001
 43
0.0000000001
 12
1.0
 22
0.0
 32
0.0
 13
1.0
 23
0.0
 33
0.0
 40
0.0
 40
0.0
 40
0.0
 40
0.0
 40
1.0
 40
1.0
 40
1.0
 40
2.0
 40
2.0
 40
2.0
 40
3.0
 40
3.0
 40
3.0
 40
4.0
 40
4.0
 40
4.0
 40
4.0
 10
73.05911174721788
 20
-122.2095952472254
 30
0.0
 10
73.05911174721788
 20
-121.7679174695579
 30
0.0
 10
72.7008306452473
 20
-121.4096363585365
 30
0.0
 10
72.25915287873765
 20
-121.4096363585365
 30
0.0
 10
71.81715761223612
 20
-121.4096363585365
 30
0.0
 10
71.4591940102574
 20
-121.7679174695579
 30
0.0
 10
71.4591940102574
 20
-122.2095952472254
 30
0.0
 10
71.4591940102574
 20
-122.6512730248926
 30
0.0
 10
71.81715761223612
 20
-123.0095541359144
 30
0.0
 10
72.25915287873765
 20
-123.0095541359144
 30
0.0
 10
72.7008306452473
 20
-123.0095541359144
 30
0.0
 10
73.05911174721788
 20
-122.6512730248926
 30
0.0
 10
73.05911174721788
 20
-122.2095952472254
 30
0.0
  0
SPLINE
  5
309
330
1F
100
AcDbEntity
  8
_U+30EC_U+30A4_U+30E4_U+30FC 1
 62
   179
420
  2234388
370
    25
100
AcDbSpline
210
0.0
220
0.0
230
1.0
 70
    11
 71
     3
 72
    17
 73
    13
 74
     0
 42
0.0000000001
 43
0.0000000001
 12
1.0
 22
0.0
 32
0.0
 13
1.0
 23
0.0
 33
0.0
 40
0.0
 40
0.0
 40
0.0
 40
0.0
 40
1.0
 40
1.0
 40
1.0
 40
2.0
 40
2.0
 40
2.0
 40
3.0
 40
3.0
 40
3.0
 40
4.0
 40
4.0
 40
4.0
 40
4.0
 10
77.30140552787685
 20
-117.9666310816196
 30
0.0
 10
77.30140552787685
 20
-117.5249533039521
 30
0.0
 10
76.94344192589814
 20
-117.1666721929306
 30
0.0
 10
76.5014466593966
 20
-117.1666721929306
 30
0.0
 10
76.05976889288696
 20
-117.1666721929306
 30
0.0
 10
75.70148779091637
 20
-117.5249533039521
 30
0.0
 10
75.70148779091637
 20
-117.9666310816196
 30
0.0
 10
75.70148779091637
 20
-118.4089791370644
 30
0.0
 10
76.05976889288696
 20
-118.7665546925307
 30
0.0
 10
76.5014466593966
 20
-118.7665546925307
 30
0.0
 10
76.94344192589814
 20
-118.7665546925307
 30
0.0
 10
77.30140552787685
 20
-118.4089791370644
 30
0.0
 10
77.30140552787685
 20
-117.9666310816196
 30
0.0
  0
SPLINE
  5
30A
330
1F
100
AcDbEntity
  8
_U+30EC_U+30A4_U+30E4_U+30FC 1
 62
   179
420
  2234388
370
    25
100
AcDbSpline
210
0.0
220
0.0
230
1.0
 70
    11
 71
     3
 72
    17
 73
    13
 74
     0
 42
0.0000000001
 43
0.0000000001
 12
1.0
 22
0.0
 32
0.0
 13
1.0
 23
0.0
 33
0.0
 40
0.0
 40
0.0
 40
0.0
 40
0.0
 40
1.0
 40
1.0
 40
1.0
 40
2.0
 40
2.0
 40
2.0
 40
3.0
 40
3.0
 40
3.0
 40
4.0
 40
4.0
 40
4.0
 40
4.0
 10
71.6445434499732
 20
-129.2803202454579
 30
0.0
 10
71.6445434499732
 20
-128.8386424677904
 30
0.0
 10
71.28661512577138
 20
-128.4803613567687
 30
0.0
 10
70.84458458149297
 20
-128.4803613567687
 30
0.0
 10
70.4029420927602
 20
-128.4803613567687
 30
0.0
 10
70.0446609907896
 20
-128.8386424677904
 30
0.0
 10
70.0446609907896
 20
-129.2803202454579
 30
0.0
 10
70.0446609907896
 20
-129.7226683009028
 30
0.0
 10
70.4029420927602
 20
-130.080243856369
 30
0.0
 10
70.84458458149297
 20
-130.080243856369
 30
0.0
 10
71.28661512577138
 20
-130.080243856369
 30
0.0
 10
71.6445434499732
 20
-129.7226683009028
 30
0.0
 10
71.6445434499732
 20
-129.2803202454579
 30
0.0
  0
SPLINE
  5
30B
330
1F
100
AcDbEntity
  8
_U+30EC_U+30A4_U+30E4_U+30FC 1
 62
   179
420
  2234388
370
    25
100
AcDbSpline
210
0.0
220
0.0
230
1.0
 70
    11
 71
     3
 72
    17
 73
    13
 74
     0
 42
0.0000000001
 43
0.0000000001
 12
1.0
 22
0.0
 32
0.0
 13
1.0
 23
0.0
 33
0.0
 40
0.0
 40
0.0
 40
0.0
 40
0.0
 40
1.0
 40
1.0
 40
1.0
 40
2.0
 40
2.0
 40
2.0
 40
3.0
 40
3.0
 40
3.0
 40
4.0
 40
4.0
 40
4.0
 40
4.0
 10
75.88754278616972
 20
-125.0380263576295
 30
0.0
 10
75.88754278616972
 20
-124.596348579962
 30
0.0
 10
75.52922640642224
 20
-124.2380674689405
 30
0.0
 10
75.08758391768947
 20
-124.2380674689405
 30
0.0
 10
74.64558865118794
 20
-124.2380674689405
 30
0.0
 10
74.28762504920924
 20
-124.596348579962
 30
0.0
 10
74.28762504920924
 20
-125.0380263576295
 30
0.0
 10
74.28762504920924
 20
-125.4796688575191
 30
0.0
 10
74.64558865118794
 20
-125.8379852463184
 30
0.0
 10
75.08758391768947
 20
-125.8379852463184
 30
0.0
 10
75.52922640642224
 20
-125.8379852463184
 30
0.0
 10
75.88754278616972
 20
-125.4796688575191
 30
0.0
 10
75.88754278616972
 20
-125.0380263576295
 30
0.0
  0
SPLINE
  5
30C
330
1F
100
AcDbEntity
  8
_U+30EC_U+30A4_U+30E4_U+30FC 1
 62
   179
420
  2234388
370
    25
100
AcDbSpline
210
0.0
220
0.0
230
1.0
 70
    11
 71
     3
 72
    17
 73
    13
 74
     0
 42
0.0000000001
 43
0.0000000001
 12
1.0
 22
0.0
 32
0.0
 13
1.0
 23
0.0
 33
0.0
 40
0.0
 40
0.0
 40
0.0
 40
0.0
 40
1.0
 40
1.0
 40
1.0
 40
2.0
 40
2.0
 40
2.0
 40
3.0
 40
3.0
 40
3.0
 40
4.0
 40
4.0
 40
4.0
 40
4.0
 10
80.1298012890518
 20
-120.7950269142458
 30
0.0
 10
80.1298012890518
 20
-120.3533844143561
 30
0.0
 10
79.77187498005704
 20
-119.9951033033347
 30
0.0
 10
79.32987769834843
 20
-119.9951033033347
 30
0.0
 10
78.8881999318388
 20
-119.9951033033347
 30
0.0
 10
78.5299188298682
 20
-120.3533844143561
 30
0.0
 10
78.5299188298682
 20
-120.7950269142458
 30
0.0
 10
78.5299188298682
 20
-121.2373749696906
 30
0.0
 10
78.8881999318388
 20
-121.5949858029347
 30
0.0
 10
79.32987769834843
 20
-121.5949858029347
 30
0.0
 10
79.77187498005704
 20
-121.5949858029347
 30
0.0
 10
80.1298012890518
 20
-121.2373749696906
 30
0.0
 10
80.1298012890518
 20
-120.7950269142458
 30
0.0
  0
SPLINE
  5
30D
330
1F
100
AcDbEntity
  8
_U+30EC_U+30A4_U+30E4_U+30FC 1
 62
   179
420
  2234388
370
    25
100
AcDbSpline
210
0.0
220
0.0
230
1.0
 70
     8
 71
     3
 72
    11
 73
     7
 74
     0
 42
0.0000000001
 43
0.0000000001
 12
1.0
 22
0.0
 32
0.0
 13
1.0
 23
0.0
 33
0.0
 40
0.0
 40
0.0
 40
0.0
 40
0.0
 40
1.0
 40
1.0
 40
1.0
 40
2.0
 40
2.0
 40
2.0
 40
2.0
 10
58.99760155040134
 20
-142.4068285755093
 30
0.0
 10
58.95936044026585
 20
-142.7361466309828
 30
0.0
 10
59.1953687675781
 20
-143.0338205197969
 30
0.0
 10
59.52436931474016
 20
-143.071708853121
 30
0.0
 10
59.53124998511719
 20
-143.0724144086765
 30
0.0
 10
59.53745736996181
 20
-143.0730846864539
 30
0.0
 10
59.54433653645297
 20
-143.0737902420094
 30
0.0
  0
SPLINE
  5
30E
330
1F
100
AcDbEntity
  8
_U+30EC_U+30A4_U+30E4_U+30FC 1
 62
   179
420
  2234388
370
     9
100
AcDbSpline
210
0.0
220
0.0
230
1.0
 70
    11
 71
     3
 72
    17
 73
    13
 74
     0
 42
0.0000000001
 43
0.0000000001
 12
1.0
 22
0.0
 32
0.0
 13
1.0
 23
0.0
 33
0.0
 40
0.0
 40
0.0
 40
0.0
 40
0.0
 40
1.0
 40
1.0
 40
1.0
 40
2.0
 40
2.0
 40
2.0
 40
3.0
 40
3.0
 40
3.0
 40
4.0
 40
4.0
 40
4.0
 40
4.0
 10
55.26828331951632
 20
-108.075729972981
 30
0.0
 10
55.26828331951632
 20
-108.020626084106
 30
0.0
 10
55.22351442446411
 20
-107.9758233063393
 30
0.0
 10
55.16802248143538
 20
-107.9758233063393
 30
0.0
 10
55.11256581618353
 20
-107.9758233063393
 30
0.0
 10
55.06811581731754
 20
-108.020626084106
 30
0.0
 10
55.06811581731754
 20
-108.075729972981
 30
0.0
 10
55.06811581731754
 20
-108.130869139634
 30
0.0
 10
55.11256581618353
 20
-108.1756366396229
 30
0.0
 10
55.16802248143538
 20
-108.1756366396229
 30
0.0
 10
55.22351442446411
 20
-108.1756366396229
 30
0.0
 10
55.26828331951632
 20
-108.130869139634
 30
0.0
 10
55.26828331951632
 20
-108.075729972981
 30
0.0
  0
SPLINE
  5
30F
330
1F
100
AcDbEntity
  8
_U+30EC_U+30A4_U+30E4_U+30FC 1
 62
   179
420
  2234388
370
     9
100
AcDbSpline
210
0.0
220
0.0
230
1.0
 70
    11
 71
     3
 72
    17
 73
    13
 74
     0
 42
0.0000000001
 43
0.0000000001
 12
1.0
 22
0.0
 32
0.0
 13
1.0
 23
0.0
 33
0.0
 40
0.0
 40
0.0
 40
0.0
 40
0.0
 40
1.0
 40
1.0
 40
1.0
 40
2.0
 40
2.0
 40
2.0
 40
3.0
 40
3.0
 40
3.0
 40
4.0
 40
4.0
 40
4.0
 40
4.0
 10
55.26828331951632
 20
-143.0737902420094
 30
0.0
 10
55.26828331951632
 20
-143.0186510753563
 30
0.0
 10
55.22351442446411
 20
-142.9738835753678
 30
0.0
 10
55.16802248143538
 20
-142.9738835753678
 30
0.0
 10
55.11256581618353
 20
-142.9738835753678
 30
0.0
 10
55.06811581731754
 20
-143.0186510753563
 30
0.0
 10
55.06811581731754
 20
-143.0737902420094
 30
0.0
 10
55.06811581731754
 20
-143.1288941308843
 30
0.0
 10
55.11256581618353
 20
-143.173696908651
 30
0.0
 10
55.16802248143538
 20
-143.173696908651
 30
0.0
 10
55.22351442446411
 20
-143.173696908651
 30
0.0
 10
55.26828331951632
 20
-143.1288941308843
 30
0.0
 10
55.26828331951632
 20
-143.0737902420094
 30
0.0
  0
SPLINE
  5
310
330
1F
100
AcDbEntity
  8
_U+30EC_U+30A4_U+30E4_U+30FC 1
 62
   179
420
  2234388
370
     9
100
AcDbSpline
210
0.0
220
0.0
230
1.0
 70
    11
 71
     3
 72
    17
 73
    13
 74
     0
 42
0.0000000001
 43
0.0000000001
 12
1.0
 22
0.0
 32
0.0
 13
1.0
 23
0.0
 33
0.0
 40
0.0
 40
0.0
 40
0.0
 40
0.0
 40
1.0
 40
1.0
 40
1.0
 40
2.0
 40
2.0
 40
2.0
 40
3.0
 40
3.0
 40
3.0
 40
4.0
 40
4.0
 40
4.0
 40
4.0
 10
59.09373349239326
 20
-146.9012880188301
 30
0.0
 10
59.09373349239326
 20
-146.8461488521771
 30
0.0
 10
59.04893071575849
 20
-146.8013813521885
 30
0.0
 10
58.99347405050665
 20
-146.8013813521885
 30
0.0
 10
58.9383348852467
 20
-146.8013813521885
 30
0.0
 10
58.89356738638881
 20
-146.8461488521771
 30
0.0
 10
58.89356738638881
 20
-146.9012880188301
 30
0.0
 10
58.89356738638881
 20
-146.9563919077051
 30
0.0
 10
58.9383348852467
 20
-147.0011946854718
 30
0.0
 10
58.99347405050665
 20
-147.0011946854718
 30
0.0
 10
59.04893071575849
 20
-147.0011946854718
 30
0.0
 10
59.09373349239326
 20
-146.9563919077051
 30
0.0
 10
59.09373349239326
 20
-146.9012880188301
 30
0.0
  0
SPLINE
  5
311
330
1F
100
AcDbEntity
  8
_U+30EC_U+30A4_U+30E4_U+30FC 1
 62
   179
420
  2234388
370
     9
100
AcDbSpline
210
0.0
220
0.0
230
1.0
 70
    11
 71
     3
 72
    17
 73
    13
 74
     0
 42
0.0000000001
 43
0.0000000001
 12
1.0
 22
0.0
 32
0.0
 13
1.0
 23
0.0
 33
0.0
 40
0.0
 40
0.0
 40
0.0
 40
0.0
 40
1.0
 40
1.0
 40
1.0
 40
2.0
 40
2.0
 40
2.0
 40
3.0
 40
3.0
 40
3.0
 40
4.0
 40
4.0
 40
4.0
 40
4.0
 10
94.09383898835506
 20
-146.9012880188301
 30
0.0
 10
94.09383898835506
 20
-146.8461488521771
 30
0.0
 10
94.0490362117203
 20
-146.8013813521885
 30
0.0
 10
93.99393232423724
 20
-146.8013813521885
 30
0.0
 10
93.93879315897728
 20
-146.8013813521885
 30
0.0
 10
93.8940256601194
 20
-146.8461488521771
 30
0.0
 10
93.8940256601194
 20
-146.9012880188301
 30
0.0
 10
93.8940256601194
 20
-146.9563919077051
 30
0.0
 10
93.93879315897728
 20
-147.0011946854718
 30
0.0
 10
93.99393232423724
 20
-147.0011946854718
 30
0.0
 10
94.0490362117203
 20
-147.0011946854718
 30
0.0
 10
94.09383898835506
 20
-146.9563919077051
 30
0.0
 10
94.09383898835506
 20
-146.9012880188301
 30
0.0
  0
SPLINE
  5
312
330
1F
100
AcDbEntity
  8
_U+30EC_U+30A4_U+30E4_U+30FC 1
 62
   179
420
  2234388
370
    25
100
AcDbSpline
210
0.0
220
0.0
230
1.0
 70
    11
 71
     3
 72
    17
 73
    13
 74
     0
 42
0.0000000001
 43
0.0000000001
 12
1.0
 22
0.0
 32
0.0
 13
1.0
 23
0.0
 33
0.0
 40
0.0
 40
0.0
 40
0.0
 40
0.0
 40
1.0
 40
1.0
 40
1.0
 40
2.0
 40
2.0
 40
2.0
 40
3.0
 40
3.0
 40
3.0
 40
4.0
 40
4.0
 40
4.0
 40
4.0
 10
84.94641942320773
 20
-124.8967741354424
 30
0.0
 10
84.94641942320773
 20
-119.3735794146011
 30
0.0
 10
80.46882072484713
 20
-114.8963355268316
 30
0.0
 10
74.94597892130211
 20
-114.8963355268316
 30
0.0
 10
69.4231388715331
 20
-114.8963355268316
 30
0.0
 10
64.94589334309222
 20
-119.3735794146011
 30
0.0
 10
64.94589334309222
 20
-124.8967741354424
 30
0.0
 10
64.94589334309222
 20
-130.4192633007285
 30
0.0
 10
69.4231388715331
 20
-134.896507188498
 30
0.0
 10
74.94597892130211
 20
-134.896507188498
 30
0.0
 10
80.46882072484713
 20
-134.896507188498
 30
0.0
 10
84.94641942320773
 20
-130.4192633007285
 30
0.0
 10
84.94641942320773
 20
-124.8967741354424
 30
0.0
  0
SPLINE
  5
313
330
1F
100
AcDbEntity
  8
_U+30EC_U+30A4_U+30E4_U+30FC 1
 62
   179
420
  2234388
370
    25
100
AcDbSpline
210
0.0
220
0.0
230
1.0
 70
     8
 71
     3
 72
    17
 73
    13
 74
     0
 42
0.0000000001
 43
0.0000000001
 12
1.0
 22
0.0
 32
0.0
 13
1.0
 23
0.0
 33
0.0
 40
0.0
 40
0.0
 40
0.0
 40
0.0
 40
1.0
 40
1.0
 40
1.0
 40
2.0
 40
2.0
 40
2.0
 40
3.0
 40
3.0
 40
3.0
 40
4.0
 40
4.0
 40
4.0
 40
4.0
 10
79.85248268501567
 20
-116.1827396931766
 30
0.0
 10
79.41394464064815
 20
-116.1290116376343
 30
0.0
 10
79.0146354841687
 20
-116.4404438597788
 30
0.0
 10
78.9605546522151
 20
-116.8786644152246
 30
0.0
 10
78.9061210424927
 20
-117.3168849706709
 30
0.0
 10
79.21755325676962
 20
-117.7165116372374
 30
0.0
 10
79.65612657891401
 20
-117.770945248335
 30
0.0
 10
80.09466664664299
 20
-117.8253788594325
 30
0.0
 10
80.49397377976098
 20
-117.5132410817328
 30
0.0
 10
80.54805461171459
 20
-117.0750205262869
 30
0.0
 10
80.57218461109899
 20
-116.8807105263355
 30
0.0
 10
80.52427739009897
 20
-116.6843544152732
 30
0.0
 10
80.41336405959528
 20
-116.523805248647
 30
0.0
  0
SPLINE
  5
314
330
1F
100
AcDbEntity
  8
_U+30EC_U+30A4_U+30E4_U+30FC 1
 62
   179
420
  2234388
370
    25
100
AcDbSpline
210
0.0
220
0.0
230
1.0
 70
     8
 71
     3
 72
    17
 73
    13
 74
     0
 42
0.0000000001
 43
0.0000000001
 12
1.0
 22
0.0
 32
0.0
 13
1.0
 23
0.0
 33
0.0
 40
0.0
 40
0.0
 40
0.0
 40
0.0
 40
1.0
 40
1.0
 40
1.0
 40
2.0
 40
2.0
 40
2.0
 40
3.0
 40
3.0
 40
3.0
 40
4.0
 40
4.0
 40
4.0
 40
4.0
 10
66.57301024602546
 20
-130.3641241340754
 30
0.0
 10
66.93718273673464
 20
-130.6142435784576
 30
0.0
 10
67.43534022402558
 20
-130.5219216340359
 30
0.0
 10
67.68545966208895
 20
-130.1581019119051
 30
0.0
 10
67.93589660014422
 20
-129.7943174675511
 30
0.0
 10
67.84392743582389
 20
-129.2961599676758
 30
0.0
 10
67.47979022289157
 20
-129.0453702455163
 30
0.0
 10
67.11561942766546
 20
-128.7952508011348
 30
0.0
 10
66.61746024489145
 20
-128.8875727455558
 30
0.0
 10
66.36734080682808
 20
-129.2513571899091
 30
0.0
 10
66.25642747632438
 20
-129.4126119120915
 30
0.0
 10
66.20820275533247
 20
-129.6089680231535
 30
0.0
 10
66.23229747693999
 20
-129.8032780231046
 30
0.0
  0
POLYLINE
  5
315
330
1F
100
AcDbEntity
  8
_U+30EC_U+30A4_U+30E4_U+30FC 1
 62
   179
420
  2234388
370
     9
100
AcDb2dPolyline
 66
     1
 10
0.0
 20
0.0
 30
0.0
  0
VERTEX
  5
316
330
315
100
AcDbEntity
  8
_U+30EC_U+30A4_U+30E4_U+30FC 1
 62
   179
420
  2234388
370
     9
100
AcDbVertex
100
AcDb2dVertex
 10
58.99347405050665
 20
-146.9012880188301
 30
0.0
  0
VERTEX
  5
317
330
315
100
AcDbEntity
  8
_U+30EC_U+30A4_U+30E4_U+30FC 1
 62
   179
420
  2234388
370
     9
100
AcDbVertex
100
AcDb2dVertex
 10
93.99393232423724
 20
-146.9012880188301
 30
0.0
  0
SEQEND
  5
318
330
315
100
AcDbEntity
  8
_U+30EC_U+30A4_U+30E4_U+30FC 1
 62
   179
420
  2234388
370
     9
  0
POLYLINE
  5
319
330
1F
100
AcDbEntity
  8
_U+30EC_U+30A4_U+30E4_U+30FC 1
 62
   179
420
  2234388
370
     9
100
AcDb2dPolyline
 66
     1
 10
0.0
 20
0.0
 30
0.0
  0
VERTEX
  5
31A
330
319
100
AcDbEntity
  8
_U+30EC_U+30A4_U+30E4_U+30FC 1
 62
   179
420
  2234388
370
     9
100
AcDbVertex
100
AcDb2dVertex
 10
58.99347405050665
 20
-145.0161141304124
 30
0.0
  0
VERTEX
  5
31B
330
319
100
AcDbEntity
  8
_U+30EC_U+30A4_U+30E4_U+30FC 1
 62
   179
420
  2234388
370
     9
100
AcDbVertex
100
AcDb2dVertex
 10
58.99347405050665
 20
-147.9010602408027
 30
0.0
  0
SEQEND
  5
31C
330
319
100
AcDbEntity
  8
_U+30EC_U+30A4_U+30E4_U+30FC 1
 62
   179
420
  2234388
370
     9
  0
POLYLINE
  5
31D
330
1F
100
AcDbEntity
  8
_U+30EC_U+30A4_U+30E4_U+30FC 1
 62
   179
420
  2234388
370
     9
100
AcDb2dPolyline
 66
     1
 10
0.0
 20
0.0
 30
0.0
  0
VERTEX
  5
31E
330
31D
100
AcDbEntity
  8
_U+30EC_U+30A4_U+30E4_U+30FC 1
 62
   179
420
  2234388
370
     9
100
AcDbVertex
100
AcDb2dVertex
 10
93.99393232423724
 20
-145.0416199637399
 30
0.0
  0
VERTEX
  5
31F
330
31D
100
AcDbEntity
  8
_U+30EC_U+30A4_U+30E4_U+30FC 1
 62
   179
420
  2234388
370
     9
100
AcDbVertex
100
AcDb2dVertex
 10
93.99393232423724
 20
-147.9010602408027
 30
0.0
  0
SEQEND
  5
320
330
31D
100
AcDbEntity
  8
_U+30EC_U+30A4_U+30E4_U+30FC 1
 62
   179
420
  2234388
370
     9
  0
INSERT
  5
322
330
1F
100
AcDbEntity
  8
_U+30EC_U+30A4_U+30E4_U+30FC 1
100
AcDbBlockReference
  2
block 2
 10
0.0
 20
0.0
 30
0.0
  0
INSERT
  5
32A
330
1F
100
AcDbEntity
  8
_U+30EC_U+30A4_U+30E4_U+30FC 1
100
AcDbBlockReference
  2
block 3
 10
0.0
 20
0.0
 30
0.0
  0
INSERT
  5
32F
330
1F
100
AcDbEntity
  8
_U+30EC_U+30A4_U+30E4_U+30FC 1
100
AcDbBlockReference
  2
block 4
 10
0.0
 20
0.0
 30
0.0
  0
INSERT
  5
334
330
1F
100
AcDbEntity
  8
_U+30EC_U+30A4_U+30E4_U+30FC 1
100
AcDbBlockReference
  2
block 5
 10
0.0
 20
0.0
 30
0.0
  0
POLYLINE
  5
338
330
1F
100
AcDbEntity
  8
_U+30EC_U+30A4_U+30E4_U+30FC 1
 62
   179
420
  2234388
370
     9
100
AcDb2dPolyline
 66
     1
 10
0.0
 20
0.0
 30
0.0
  0
VERTEX
  5
339
330
338
100
AcDbEntity
  8
_U+30EC_U+30A4_U+30E4_U+30FC 1
 62
   179
420
  2234388
370
     9
100
AcDbVertex
100
AcDb2dVertex
 10
55.16802248143538
 20
-108.075729972981
 30
0.0
  0
VERTEX
  5
33A
330
338
100
AcDbEntity
  8
_U+30EC_U+30A4_U+30E4_U+30FC 1
 62
   179
420
  2234388
370
     9
100
AcDbVertex
100
AcDb2dVertex
 10
55.16802248143538
 20
-143.0737902420094
 30
0.0
  0
SEQEND
  5
33B
330
338
100
AcDbEntity
  8
_U+30EC_U+30A4_U+30E4_U+30FC 1
 62
   179
420
  2234388
370
     9
  0
POLYLINE
  5
33C
330
1F
100
AcDbEntity
  8
_U+30EC_U+30A4_U+30E4_U+30FC 1
 62
   179
420
  2234388
370
     9
100
AcDb2dPolyline
 66
     1
 10
0.0
 20
0.0
 30
0.0
  0
VERTEX
  5
33D
330
33C
100
AcDbEntity
  8
_U+30EC_U+30A4_U+30E4_U+30FC 1
 62
   179
420
  2234388
370
     9
100
AcDbVertex
100
AcDb2dVertex
 10
57.02804326731563
 20
-108.075729972981
 30
0.0
  0
VERTEX
  5
33E
330
33C
100
AcDbEntity
  8
_U+30EC_U+30A4_U+30E4_U+30FC 1
 62
   179
420
  2234388
370
     9
100
AcDbVertex
100
AcDb2dVertex
 10
54.16793278472757
 20
-108.075729972981
 30
0.0
  0
SEQEND
  5
33F
330
33C
100
AcDbEntity
  8
_U+30EC_U+30A4_U+30E4_U+30FC 1
 62
   179
420
  2234388
370
     9
  0
POLYLINE
  5
340
330
1F
100
AcDbEntity
  8
_U+30EC_U+30A4_U+30E4_U+30FC 1
 62
   179
420
  2234388
370
     9
100
AcDb2dPolyline
 66
     1
 10
0.0
 20
0.0
 30
0.0
  0
VERTEX
  5
341
330
340
100
AcDbEntity
  8
_U+30EC_U+30A4_U+30E4_U+30FC 1
 62
   179
420
  2234388
370
     9
100
AcDbVertex
100
AcDb2dVertex
 10
57.00426604570001
 20
-143.0737902420094
 30
0.0
  0
VERTEX
  5
342
330
340
100
AcDbEntity
  8
_U+30EC_U+30A4_U+30E4_U+30FC 1
 62
   179
420
  2234388
370
     9
100
AcDbVertex
100
AcDb2dVertex
 10
54.16793278472757
 20
-143.0737902420094
 30
0.0
  0
SEQEND
  5
343
330
340
100
AcDbEntity
  8
_U+30EC_U+30A4_U+30E4_U+30FC 1
 62
   179
420
  2234388
370
     9
  0
INSERT
  5
345
330
1F
100
AcDbEntity
  8
_U+30EC_U+30A4_U+30E4_U+30FC 1
100
AcDbBlockReference
  2
block 6
 10
0.0
 20
0.0
 30
0.0
  0
INSERT
  5
34D
330
1F
100
AcDbEntity
  8
_U+30EC_U+30A4_U+30E4_U+30FC 1
100
AcDbBlockReference
  2
block 7
 10
0.0
 20
0.0
 30
0.0
  0
INSERT
  5
352
330
1F
100
AcDbEntity
  8
_U+30EC_U+30A4_U+30E4_U+30FC 1
100
AcDbBlockReference
  2
block 8
 10
0.0
 20
0.0
 30
0.0
  0
INSERT
  5
357
330
1F
100
AcDbEntity
  8
_U+30EC_U+30A4_U+30E4_U+30FC 1
100
AcDbBlockReference
  2
block 9
 10
0.0
 20
0.0
 30
0.0
  0
POLYLINE
  5
35B
330
1F
100
AcDbEntity
  8
_U+30EC_U+30A4_U+30E4_U+30FC 1
  6
AI-Linetype-1
 62
   154
420
    23468
370
    25
100
AcDb2dPolyline
 66
     1
 10
0.0
 20
0.0
 30
0.0
  0
VERTEX
  5
35C
330
35B
100
AcDbEntity
  8
_U+30EC_U+30A4_U+30E4_U+30FC 1
  6
AI-Linetype-1
 62
   154
420
    23468
370
    25
100
AcDbVertex
100
AcDb2dVertex
 10
84.27666868325639
 20
-141.2154980202514
 30
0.0
  0
VERTEX
  5
35D
330
35B
100
AcDbEntity
  8
_U+30EC_U+30A4_U+30E4_U+30FC 1
  6
AI-Linetype-1
 62
   154
420
    23468
370
    25
100
AcDbVertex
100
AcDb2dVertex
 10
94.27640148369751
 20
-141.2154980202514
 30
0.0
  0
SEQEND
  5
35F
330
35B
100
AcDbEntity
  8
_U+30EC_U+30A4_U+30E4_U+30FC 1
  6
AI-Linetype-1
 62
   154
420
    23468
370
    25
  0
POLYLINE
  5
360
330
1F
100
AcDbEntity
  8
_U+30EC_U+30A4_U+30E4_U+30FC 1
 62
   179
420
  2234388
370
     9
100
AcDb2dPolyline
 66
     1
 10
0.0
 20
0.0
 30
0.0
  0
VERTEX
  5
361
330
360
100
AcDbEntity
  8
_U+30EC_U+30A4_U+30E4_U+30FC 1
 62
   179
420
  2234388
370
     9
100
AcDbVertex
100
AcDb2dVertex
 10
61.42951037724707
 20
-120.063295247762
 30
0.0
  0
VERTEX
  5
362
330
360
100
AcDbEntity
  8
_U+30EC_U+30A4_U+30E4_U+30FC 1
 62
   179
420
  2234388
370
     9
100
AcDbVertex
100
AcDb2dVertex
 10
62.08338397167648
 20
-121.2997460807862
 30
0.0
  0
SEQEND
  5
363
330
360
100
AcDbEntity
  8
_U+30EC_U+30A4_U+30E4_U+30FC 1
 62
   179
420
  2234388
370
     9
  0
POLYLINE
  5
364
330
1F
100
AcDbEntity
  8
_U+30EC_U+30A4_U+30E4_U+30FC 1
 62
   179
420
  2234388
370
     9
100
AcDb2dPolyline
 66
     1
 10
0.0
 20
0.0
 30
0.0
  0
VERTEX
  5
365
330
364
100
AcDbEntity
  8
_U+30EC_U+30A4_U+30E4_U+30FC 1
 62
   179
420
  2234388
370
     9
100
AcDbVertex
100
AcDb2dVertex
 10
61.42951037724707
 20
-120.063295247762
 30
0.0
  0
VERTEX
  5
366
330
364
100
AcDbEntity
  8
_U+30EC_U+30A4_U+30E4_U+30FC 1
 62
   179
420
  2234388
370
     9
100
AcDbVertex
100
AcDb2dVertex
 10
64.55970751961131
 20
-133.6872907999113
 30
0.0
  0
SEQEND
  5
367
330
364
100
AcDbEntity
  8
_U+30EC_U+30A4_U+30E4_U+30FC 1
 62
   179
420
  2234388
370
     9
  0
POLYLINE
  5
368
330
1F
100
AcDbEntity
  8
_U+30EC_U+30A4_U+30E4_U+30FC 1
 62
   179
420
  2234388
370
     9
100
AcDb2dPolyline
 66
     1
 10
0.0
 20
0.0
 30
0.0
  0
VERTEX
  5
369
330
368
100
AcDbEntity
  8
_U+30EC_U+30A4_U+30E4_U+30FC 1
 62
   179
420
  2234388
370
     9
100
AcDbVertex
100
AcDb2dVertex
 10
61.42951037724707
 20
-120.063295247762
 30
0.0
  0
VERTEX
  5
36A
330
368
100
AcDbEntity
  8
_U+30EC_U+30A4_U+30E4_U+30FC 1
 62
   179
420
  2234388
370
     9
100
AcDbVertex
100
AcDb2dVertex
 10
61.38678898944809
 20
-121.4874944140725
 30
0.0
  0
SEQEND
  5
36B
330
368
100
AcDbEntity
  8
_U+30EC_U+30A4_U+30E4_U+30FC 1
 62
   179
420
  2234388
370
     9
  0
POLYLINE
  5
36C
330
1F
100
AcDbEntity
  8
_U+30EC_U+30A4_U+30E4_U+30FC 1
 62
   179
420
  2234388
370
     9
100
AcDb2dPolyline
 66
     1
 10
0.0
 20
0.0
 30
0.0
  0
VERTEX
  5
36D
330
36C
100
AcDbEntity
  8
_U+30EC_U+30A4_U+30E4_U+30FC 1
 62
   179
420
  2234388
370
     9
100
AcDbVertex
100
AcDb2dVertex
 10
81.89714735507415
 20
-141.2251288535829
 30
0.0
  0
VERTEX
  5
36E
330
36C
100
AcDbEntity
  8
_U+30EC_U+30A4_U+30E4_U+30FC 1
 62
   179
420
  2234388
370
     9
100
AcDbVertex
100
AcDb2dVertex
 10
80.63176877624554
 20
-141.178632742483
 30
0.0
  0
SEQEND
  5
36F
330
36C
100
AcDbEntity
  8
_U+30EC_U+30A4_U+30E4_U+30FC 1
 62
   179
420
  2234388
370
     9
  0
POLYLINE
  5
370
330
1F
100
AcDbEntity
  8
_U+30EC_U+30A4_U+30E4_U+30FC 1
 62
   179
420
  2234388
370
     9
100
AcDb2dPolyline
 66
     1
 10
0.0
 20
0.0
 30
0.0
  0
VERTEX
  5
371
330
370
100
AcDbEntity
  8
_U+30EC_U+30A4_U+30E4_U+30FC 1
 62
   179
420
  2234388
370
     9
100
AcDbVertex
100
AcDb2dVertex
 10
81.89714735507415
 20
-141.2251288535829
 30
0.0
  0
VERTEX
  5
372
330
370
100
AcDbEntity
  8
_U+30EC_U+30A4_U+30E4_U+30FC 1
 62
   179
420
  2234388
370
     9
100
AcDbVertex
100
AcDb2dVertex
 10
70.02776293566515
 20
-137.5678463544967
 30
0.0
  0
SEQEND
  5
373
330
370
100
AcDbEntity
  8
_U+30EC_U+30A4_U+30E4_U+30FC 1
 62
   179
420
  2234388
370
     9
  0
POLYLINE
  5
374
330
1F
100
AcDbEntity
  8
_U+30EC_U+30A4_U+30E4_U+30FC 1
 62
   179
420
  2234388
370
     9
100
AcDb2dPolyline
 66
     1
 10
0.0
 20
0.0
 30
0.0
  0
VERTEX
  5
375
330
374
100
AcDbEntity
  8
_U+30EC_U+30A4_U+30E4_U+30FC 1
 62
   179
420
  2234388
370
     9
100
AcDbVertex
100
AcDb2dVertex
 10
81.89714735507415
 20
-141.2251288535829
 30
0.0
  0
VERTEX
  5
376
330
374
100
AcDbEntity
  8
_U+30EC_U+30A4_U+30E4_U+30FC 1
 62
   179
420
  2234388
370
     9
100
AcDbVertex
100
AcDb2dVertex
 10
80.84399988194218
 20
-140.5567913537498
 30
0.0
  0
SEQEND
  5
377
330
374
100
AcDbEntity
  8
_U+30EC_U+30A4_U+30E4_U+30FC 1
 62
   179
420
  2234388
370
     9
  0
INSERT
  5
379
330
1F
100
AcDbEntity
  8
_U+30EC_U+30A4_U+30E4_U+30FC 1
100
AcDbBlockReference
  2
block 10
 10
0.0
 20
0.0
 30
0.0
  0
POLYLINE
  5
3A1
330
1F
100
AcDbEntity
  8
_U+30EC_U+30A4_U+30E4_U+30FC 1
 62
   179
420
  2234388
370
     9
100
AcDb2dPolyline
 66
     1
 10
0.0
 20
0.0
 30
0.0
  0
VERTEX
  5
3A2
330
3A1
100
AcDbEntity
  8
_U+30EC_U+30A4_U+30E4_U+30FC 1
 62
   179
420
  2234388
370
     9
100
AcDbVertex
100
AcDb2dVertex
 10
118.6394458621445
 20
-115.2484430267435
 30
0.0
  0
VERTEX
  5
3A3
330
3A1
100
AcDbEntity
  8
_U+30EC_U+30A4_U+30E4_U+30FC 1
 62
   179
420
  2234388
370
     9
100
AcDbVertex
100
AcDb2dVertex
 10
104.792918437621
 20
-129.2713596899045
 30
0.0
  0
VERTEX
  5
3A4
330
3A1
100
AcDbEntity
  8
_U+30EC_U+30A4_U+30E4_U+30FC 1
 62
   179
420
  2234388
370
     9
100
AcDbVertex
100
AcDb2dVertex
 10
104.8370156587182
 20
-131.9612902447875
 30
0.0
  0
VERTEX
  5
3A5
330
3A1
100
AcDbEntity
  8
_U+30EC_U+30A4_U+30E4_U+30FC 1
 62
   179
420
  2234388
370
     9
100
AcDbVertex
100
AcDb2dVertex
 10
119.8300708317691
 20
-117.365109692881
 30
0.0
  0
SEQEND
  5
3A7
330
3A1
100
AcDbEntity
  8
_U+30EC_U+30A4_U+30E4_U+30FC 1
 62
   179
420
  2234388
370
     9
  0
HATCH
  5
3A6
330
1F
100
AcDbEntity
  8
_U+30EC_U+30A4_U+30E4_U+30FC 1
 62
   161
420
  9020372
100
AcDbHatch
 10
0.0
 20
0.0
 30
0.0
210
0.0
220
0.0
230
1.0
  2
SOLID
 70
     1
 71
     0
 91
        1
 92
        1
 93
        4
 72
     1
 10
118.6394458621445
 20
-115.2484430267435
 11
104.792918437621
 21
-129.2713596899044
 72
     1
 10
104.792918437621
 20
-129.2713596899045
 11
104.8370156587182
 21
-131.9612902447875
 72
     1
 10
104.8370156587182
 20
-131.9612902447875
 11
119.8300708317691
 21
-117.365109692881
 72
     1
 10
119.8300708317691
 20
-117.365109692881
 11
118.6394458621445
 21
-115.2484430267435
 97
        0
 75
     2
 76
     1
 98
        0
  0
POLYLINE
  5
3A8
330
1F
100
AcDbEntity
  8
_U+30EC_U+30A4_U+30E4_U+30FC 1
 62
   179
420
  2234388
370
     9
100
AcDb2dPolyline
 66
     1
 10
0.0
 20
0.0
 30
0.0
  0
VERTEX
  5
3A9
330
3A8
100
AcDbEntity
  8
_U+30EC_U+30A4_U+30E4_U+30FC 1
 62
   179
420
  2234388
370
     9
100
AcDbVertex
100
AcDb2dVertex
 10
127.855765071461
 20
-128.4335124678917
 30
0.0
  0
VERTEX
  5
3AA
330
3A8
100
AcDbEntity
  8
_U+30EC_U+30A4_U+30E4_U+30FC 1
 62
   179
420
  2234388
370
     9
100
AcDbVertex
100
AcDb2dVertex
 10
114.6706959633957
 20
-142.1477485755742
 30
0.0
  0
VERTEX
  5
3AB
330
3A8
100
AcDbEntity
  8
_U+30EC_U+30A4_U+30E4_U+30FC 1
 62
   179
420
  2234388
370
     9
100
AcDbVertex
100
AcDb2dVertex
 10
117.7575014402003
 20
-142.1918457977854
 30
0.0
  0
VERTEX
  5
3AC
330
3A8
100
AcDbEntity
  8
_U+30EC_U+30A4_U+30E4_U+30FC 1
 62
   179
420
  2234388
370
     9
100
AcDbVertex
100
AcDb2dVertex
 10
130.7661816638768
 20
-128.8303874677925
 30
0.0
  0
SEQEND
  5
3AE
330
3A8
100
AcDbEntity
  8
_U+30EC_U+30A4_U+30E4_U+30FC 1
 62
   179
420
  2234388
370
     9
  0
HATCH
  5
3AD
330
1F
100
AcDbEntity
  8
_U+30EC_U+30A4_U+30E4_U+30FC 1
 62
   161
420
  9020372
100
AcDbHatch
 10
0.0
 20
0.0
 30
0.0
210
0.0
220
0.0
230
1.0
  2
SOLID
 70
     1
 71
     0
 91
        1
 92
        1
 93
        4
 72
     1
 10
127.855765071461
 20
-128.4335124678917
 11
114.6706959633957
 21
-142.1477485755742
 72
     1
 10
114.6706959633957
 20
-142.1477485755742
 11
117.7575014402003
 21
-142.1918457977854
 72
     1
 10
117.7575014402003
 20
-142.1918457977854
 11
130.7661816638768
 21
-128.8303874677925
 72
     1
 10
130.7661816638768
 20
-128.8303874677925
 11
127.855765071461
 21
-128.4335124678917
 97
        0
 75
     2
 76
     1
 98
        0
  0
SPLINE
  5
3AF
330
1F
100
AcDbEntity
  8
_U+30EC_U+30A4_U+30E4_U+30FC 1
 62
   179
420
  2234388
370
     9
100
AcDbSpline
210
0.0
220
0.0
230
1.0
 70
     8
 71
     3
 72
    20
 73
    16
 74
     0
 42
0.0000000001
 43
0.0000000001
 12
1.0
 22
0.0
 32
0.0
 13
1.0
 23
0.0
 33
0.0
 40
0.0
 40
0.0
 40
0.0
 40
0.0
 40
1.0
 40
1.0
 40
1.0
 40
2.0
 40
2.0
 40
2.0
 40
3.0
 40
3.0
 40
3.0
 40
4.0
 40
4.0
 40
4.0
 40
5.0
 40
5.0
 40
5.0
 40
5.0
 10
117.3606264503254
 20
-115.6453180266443
 30
0.0
 10
117.3606264503254
 20
-115.6453180266443
 30
0.0
 10
103.9550712367741
 20
-129.2272624676933
 30
0.0
 10
103.9550712367741
 20
-129.2272624676933
 30
0.0
 10
103.9550712367741
 20
-129.2272624676933
 30
0.0
 10
103.7786823523852
 20
-142.0595541311519
 30
0.0
 10
103.7786823523852
 20
-142.0595541311519
 30
0.0
 10
103.7786823523852
 20
-142.0595541311519
 30
0.0
 10
103.514099025802
 20
-143.2501791308542
 30
0.0
 10
105.0134045431071
 20
-143.2501791308542
 30
0.0
 10
105.0134045431071
 20
-143.2501791308542
 30
0.0
 10
117.8456958823947
 20
-142.8533041309534
 30
0.0
 10
117.8456958823947
 20
-142.8533041309534
 30
0.0
 10
117.8456958823947
 20
-142.8533041309534
 30
0.0
 10
131.2071538748488
 20
-129.4036513565381
 30
0.0
 10
131.2071538748488
 20
-129.4036513565381
 30
0.0
  0
POLYLINE
  5
3B0
330
1F
100
AcDbEntity
  8
_U+30EC_U+30A4_U+30E4_U+30FC 1
 62
   179
420
  2234388
370
     9
100
AcDb2dPolyline
 66
     1
 10
0.0
 20
0.0
 30
0.0
  0
VERTEX
  5
3B1
330
3B0
100
AcDbEntity
  8
_U+30EC_U+30A4_U+30E4_U+30FC 1
 62
   179
420
  2234388
370
     9
100
AcDbVertex
100
AcDb2dVertex
 10
117.7134042191031
 20
-115.7335124710667
 30
0.0
  0
VERTEX
  5
3B2
330
3B0
100
AcDbEntity
  8
_U+30EC_U+30A4_U+30E4_U+30FC 1
 62
   179
420
  2234388
370
     9
100
AcDbVertex
100
AcDb2dVertex
 10
104.2637517844545
 20
-129.3595541343269
 30
0.0
  0
VERTEX
  5
3B3
330
3B0
100
AcDbEntity
  8
_U+30EC_U+30A4_U+30E4_U+30FC 1
 62
   179
420
  2234388
370
     9
100
AcDbVertex
100
AcDb2dVertex
 10
104.2637517844545
 20
-142.544623575475
 30
0.0
  0
VERTEX
  5
3B4
330
3B0
100
AcDbEntity
  8
_U+30EC_U+30A4_U+30E4_U+30FC 1
 62
   179
420
  2234388
370
     9
100
AcDbVertex
100
AcDb2dVertex
 10
117.7575014402003
 20
-142.5005263532638
 30
0.0
  0
VERTEX
  5
3B5
330
3B0
100
AcDbEntity
  8
_U+30EC_U+30A4_U+30E4_U+30FC 1
 62
   179
420
  2234388
370
     9
100
AcDbVertex
100
AcDb2dVertex
 10
131.0748622115572
 20
-129.0949708010597
 30
0.0
  0
SEQEND
  5
3B6
330
3B0
100
AcDbEntity
  8
_U+30EC_U+30A4_U+30E4_U+30FC 1
 62
   179
420
  2234388
370
     9
  0
POLYLINE
  5
3B7
330
1F
100
AcDbEntity
  8
_U+30EC_U+30A4_U+30E4_U+30FC 1
 62
   179
420
  2234388
370
     9
100
AcDb2dPolyline
 66
     1
 10
0.0
 20
0.0
 30
0.0
  0
VERTEX
  5
3B8
330
3B7
100
AcDbEntity
  8
_U+30EC_U+30A4_U+30E4_U+30FC 1
 62
   179
420
  2234388
370
     9
100
AcDbVertex
100
AcDb2dVertex
 10
117.7575014402003
 20
-142.5005263532638
 30
0.0
  0
VERTEX
  5
3B9
330
3B7
100
AcDbEntity
  8
_U+30EC_U+30A4_U+30E4_U+30FC 1
 62
   179
420
  2234388
370
     9
100
AcDbVertex
100
AcDb2dVertex
 10
117.7575014402003
 20
-142.8533041309534
 30
0.0
  0
SEQEND
  5
3BA
330
3B7
100
AcDbEntity
  8
_U+30EC_U+30A4_U+30E4_U+30FC 1
 62
   179
420
  2234388
370
     9
  0
POLYLINE
  5
3BB
330
1F
100
AcDbEntity
  8
_U+30EC_U+30A4_U+30E4_U+30FC 1
 62
   179
420
  2234388
370
     9
100
AcDb2dPolyline
 66
     1
 10
0.0
 20
0.0
 30
0.0
  0
VERTEX
  5
3BC
330
3BB
100
AcDbEntity
  8
_U+30EC_U+30A4_U+30E4_U+30FC 1
 62
   179
420
  2234388
370
     9
100
AcDbVertex
100
AcDb2dVertex
 10
103.9550712367741
 20
-129.2272624676933
 30
0.0
  0
VERTEX
  5
3BD
330
3BB
100
AcDbEntity
  8
_U+30EC_U+30A4_U+30E4_U+30FC 1
 62
   179
420
  2234388
370
     9
100
AcDbVertex
100
AcDb2dVertex
 10
104.2637517844545
 20
-129.3595541343269
 30
0.0
  0
SEQEND
  5
3BE
330
3BB
100
AcDbEntity
  8
_U+30EC_U+30A4_U+30E4_U+30FC 1
 62
   179
420
  2234388
370
     9
  0
POLYLINE
  5
3BF
330
1F
100
AcDbEntity
  8
_U+30EC_U+30A4_U+30E4_U+30FC 1
 62
   179
420
  2234388
370
     9
100
AcDb2dPolyline
 66
     1
 10
0.0
 20
0.0
 30
0.0
  0
VERTEX
  5
3C0
330
3BF
100
AcDbEntity
  8
_U+30EC_U+30A4_U+30E4_U+30FC 1
 62
   179
420
  2234388
370
     9
100
AcDbVertex
100
AcDb2dVertex
 10
104.2637517844545
 20
-142.544623575475
 30
0.0
  0
VERTEX
  5
3C1
330
3BF
100
AcDbEntity
  8
_U+30EC_U+30A4_U+30E4_U+30FC 1
 62
   179
420
  2234388
370
     9
100
AcDbVertex
100
AcDb2dVertex
 10
117.7134042191031
 20
-129.0508735788485
 30
0.0
  0
SEQEND
  5
3C2
330
3BF
100
AcDbEntity
  8
_U+30EC_U+30A4_U+30E4_U+30FC 1
 62
   179
420
  2234388
370
     9
  0
SPLINE
  5
3C3
330
1F
100
AcDbEntity
  8
_U+30EC_U+30A4_U+30E4_U+30FC 1
 62
   179
420
  2234388
370
     9
100
AcDbSpline
210
0.0
220
0.0
230
1.0
 70
    11
 71
     3
 72
    17
 73
    13
 74
     0
 42
0.0000000001
 43
0.0000000001
 12
1.0
 22
0.0
 32
0.0
 13
1.0
 23
0.0
 33
0.0
 40
0.0
 40
0.0
 40
0.0
 40
0.0
 40
1.0
 40
1.0
 40
1.0
 40
2.0
 40
2.0
 40
2.0
 40
3.0
 40
3.0
 40
3.0
 40
4.0
 40
4.0
 40
4.0
 40
4.0
 10
106.3128967321765
 20
-134.7363107996495
 30
0.0
 10
105.826451466809
 20
-135.1696982995409
 30
0.0
 10
105.2600694181294
 20
-135.3278132995016
 30
0.0
 10
105.0475181533479
 20
-135.0890885773391
 30
0.0
 10
104.8349342698825
 20
-134.8503285773984
 30
0.0
 10
105.0564787086748
 20
-134.306027744201
 30
0.0
 10
105.5432414740342
 20
-133.8726049665321
 30
0.0
 10
106.0290164616411
 20
-133.43921746664
 30
0.0
 10
106.5954011694136
 20
-133.28110246668
 30
0.0
 10
106.808302552871
 20
-133.5198271888425
 30
0.0
 10
107.0208511585595
 20
-133.7582344110048
 30
0.0
 10
106.7989892197752
 20
-134.3025705219797
 30
0.0
 10
106.3128967321765
 20
-134.7363107996495
 30
0.0
  0
SPLINE
  5
3C4
330
1F
100
AcDbEntity
  8
_U+30EC_U+30A4_U+30E4_U+30FC 1
 62
   179
420
  2234388
370
     9
100
AcDbSpline
210
0.0
220
0.0
230
1.0
 70
    11
 71
     3
 72
    17
 73
    13
 74
     0
 42
0.0000000001
 43
0.0000000001
 12
1.0
 22
0.0
 32
0.0
 13
1.0
 23
0.0
 33
0.0
 40
0.0
 40
0.0
 40
0.0
 40
0.0
 40
1.0
 40
1.0
 40
1.0
 40
2.0
 40
2.0
 40
2.0
 40
3.0
 40
3.0
 40
3.0
 40
4.0
 40
4.0
 40
4.0
 40
4.0
 10
112.1778271381052
 20
-141.3949913535403
 30
0.0
 10
111.6913818727377
 20
-141.8283788534318
 30
0.0
 10
111.1249999722188
 20
-141.9864938533925
 30
0.0
 10
110.9124485592766
 20
-141.7477691312299
 30
0.0
 10
110.6998646758112
 20
-141.5090091312892
 30
0.0
 10
110.9214091146035
 20
-140.9647082980919
 30
0.0
 10
111.408171879963
 20
-140.531285520423
 30
0.0
 10
111.8939468675698
 20
-140.0978980205309
 30
0.0
 10
112.4603315753424
 20
-139.9397830205708
 30
0.0
 10
112.6732329587997
 20
-140.1785077427334
 30
0.0
 10
112.8857815644882
 20
-140.4169149648957
 30
0.0
 10
112.663919625704
 20
-140.9612510758706
 30
0.0
 10
112.1778271381052
 20
-141.3949913535403
 30
0.0
  0
SPLINE
  5
3C5
330
1F
100
AcDbEntity
  8
_U+30EC_U+30A4_U+30E4_U+30FC 1
 62
   179
420
  2234388
370
     9
100
AcDbSpline
210
0.0
220
0.0
230
1.0
 70
    11
 71
     3
 72
    17
 73
    13
 74
     0
 42
0.0000000001
 43
0.0000000001
 12
1.0
 22
0.0
 32
0.0
 13
1.0
 23
0.0
 33
0.0
 40
0.0
 40
0.0
 40
0.0
 40
0.0
 40
1.0
 40
1.0
 40
1.0
 40
2.0
 40
2.0
 40
2.0
 40
3.0
 40
3.0
 40
3.0
 40
4.0
 40
4.0
 40
4.0
 40
4.0
 10
114.3385909718684
 20
-139.1901302429805
 30
0.0
 10
113.8521457065009
 20
-139.6235177428719
 30
0.0
 10
113.2857638605675
 20
-139.7816327428326
 30
0.0
 10
113.0732123930398
 20
-139.54290802067
 30
0.0
 10
112.8606285095744
 20
-139.3041480207293
 30
0.0
 10
113.0821729483667
 20
-138.759847187532
 30
0.0
 10
113.5689357137262
 20
-138.3264244098631
 30
0.0
 10
114.054710701333
 20
-137.893036909971
 30
0.0
 10
114.6210954091056
 20
-137.7349219100109
 30
0.0
 10
114.8339967925629
 20
-137.9736466321735
 30
0.0
 10
115.0465453982514
 20
-138.2120538543357
 30
0.0
 10
114.8246834594672
 20
-138.7563899653107
 30
0.0
 10
114.3385909718684
 20
-139.1901302429805
 30
0.0
  0
SPLINE
  5
3C6
330
1F
100
AcDbEntity
  8
_U+30EC_U+30A4_U+30E4_U+30FC 1
 62
   179
420
  2234388
370
     9
100
AcDbSpline
210
0.0
220
0.0
230
1.0
 70
    11
 71
     3
 72
    17
 73
    13
 74
     0
 42
0.0000000001
 43
0.0000000001
 12
1.0
 22
0.0
 32
0.0
 13
1.0
 23
0.0
 33
0.0
 40
0.0
 40
0.0
 40
0.0
 40
0.0
 40
1.0
 40
1.0
 40
1.0
 40
2.0
 40
2.0
 40
2.0
 40
3.0
 40
3.0
 40
3.0
 40
4.0
 40
4.0
 40
4.0
 40
4.0
 10
116.7198409111177
 20
-136.852977465787
 30
0.0
 10
116.2333956457501
 20
-137.2863649656784
 30
0.0
 10
115.6670138599721
 20
-137.4444799656391
 30
0.0
 10
115.4544623322891
 20
-137.2057552434765
 30
0.0
 10
115.2418784488236
 20
-136.9669952435358
 30
0.0
 10
115.463422887616
 20
-136.4226944103385
 30
0.0
 10
115.9501856529754
 20
-135.9892716326696
 30
0.0
 10
116.4359606405823
 20
-135.5558841327775
 30
0.0
 10
117.0023453483548
 20
-135.3977691328174
 30
0.0
 10
117.2152467318121
 20
-135.63649385498
 30
0.0
 10
117.4277953375007
 20
-135.8749010771423
 30
0.0
 10
117.2059333987164
 20
-136.4192371881172
 30
0.0
 10
116.7198409111177
 20
-136.852977465787
 30
0.0
  0
SPLINE
  5
3C7
330
1F
100
AcDbEntity
  8
_U+30EC_U+30A4_U+30E4_U+30FC 1
 62
   179
420
  2234388
370
     9
100
AcDbSpline
210
0.0
220
0.0
230
1.0
 70
    11
 71
     3
 72
    17
 73
    13
 74
     0
 42
0.0000000001
 43
0.0000000001
 12
1.0
 22
0.0
 32
0.0
 13
1.0
 23
0.0
 33
0.0
 40
0.0
 40
0.0
 40
0.0
 40
0.0
 40
1.0
 40
1.0
 40
1.0
 40
2.0
 40
2.0
 40
2.0
 40
3.0
 40
3.0
 40
3.0
 40
4.0
 40
4.0
 40
4.0
 40
4.0
 10
118.9247019659781
 20
-134.6481163552271
 30
0.0
 10
118.4382567006106
 20
-135.0815038551185
 30
0.0
 10
117.871874970532
 20
-135.2396188550792
 30
0.0
 10
117.6593233871495
 20
-135.0008941329167
 30
0.0
 10
117.446739503684
 20
-134.762134132976
 30
0.0
 10
117.6682839424764
 20
-134.2178332997786
 30
0.0
 10
118.1550467078359
 20
-133.7844105221097
 30
0.0
 10
118.6408216954427
 20
-133.3510230222176
 30
0.0
 10
119.2072064032152
 20
-133.1929080222575
 30
0.0
 10
119.4201077866726
 20
-133.4316327444201
 30
0.0
 10
119.6326563923611
 20
-133.6700399665824
 30
0.0
 10
119.4107944535768
 20
-134.2143760775573
 30
0.0
 10
118.9247019659781
 20
-134.6481163552271
 30
0.0
  0
SPLINE
  5
3C8
330
1F
100
AcDbEntity
  8
_U+30EC_U+30A4_U+30E4_U+30FC 1
 62
   179
420
  2234388
370
     9
100
AcDbSpline
210
0.0
220
0.0
230
1.0
 70
    11
 71
     3
 72
    17
 73
    13
 74
     0
 42
0.0000000001
 43
0.0000000001
 12
1.0
 22
0.0
 32
0.0
 13
1.0
 23
0.0
 33
0.0
 40
0.0
 40
0.0
 40
0.0
 40
0.0
 40
1.0
 40
1.0
 40
1.0
 40
2.0
 40
2.0
 40
2.0
 40
3.0
 40
3.0
 40
3.0
 40
4.0
 40
4.0
 40
4.0
 40
4.0
 10
121.1736602419357
 20
-132.3550608002448
 30
0.0
 10
120.6872149765682
 20
-132.7884483001362
 30
0.0
 10
120.1208333033031
 20
-132.9465633000969
 30
0.0
 10
119.9082816631071
 20
-132.7078385779344
 30
0.0
 10
119.6956977796417
 20
-132.4690785779937
 30
0.0
 10
119.9172422184341
 20
-131.9247777447963
 30
0.0
 10
120.4040049837935
 20
-131.4913549671274
 30
0.0
 10
120.8897799714003
 20
-131.0579674672353
 30
0.0
 10
121.4561646791729
 20
-130.8998524672753
 30
0.0
 10
121.6690660626302
 20
-131.1385771894378
 30
0.0
 10
121.8816146683187
 20
-131.3769844116001
 30
0.0
 10
121.6597527295345
 20
-131.921320522575
 30
0.0
 10
121.1736602419357
 20
-132.3550608002448
 30
0.0
  0
SPLINE
  5
3C9
330
1F
100
AcDbEntity
  8
_U+30EC_U+30A4_U+30E4_U+30FC 1
 62
   179
420
  2234388
370
     9
100
AcDbSpline
210
0.0
220
0.0
230
1.0
 70
    11
 71
     3
 72
    17
 73
    13
 74
     0
 42
0.0000000001
 43
0.0000000001
 12
1.0
 22
0.0
 32
0.0
 13
1.0
 23
0.0
 33
0.0
 40
0.0
 40
0.0
 40
0.0
 40
0.0
 40
1.0
 40
1.0
 40
1.0
 40
2.0
 40
2.0
 40
2.0
 40
3.0
 40
3.0
 40
3.0
 40
4.0
 40
4.0
 40
4.0
 40
4.0
 10
123.3785212967961
 20
-130.2383941341073
 30
0.0
 10
122.8920760314286
 20
-130.6717816339987
 30
0.0
 10
122.325694413863
 20
-130.8298966339594
 30
0.0
 10
122.1131427179675
 20
-130.5911719117969
 30
0.0
 10
121.9005588345021
 20
-130.3524119118562
 30
0.0
 10
122.1221032732945
 20
-129.8081110786588
 30
0.0
 10
122.6088660386539
 20
-129.3746883009899
 30
0.0
 10
123.0946410262607
 20
-128.9413008010978
 30
0.0
 10
123.6610257340333
 20
-128.7831858011378
 30
0.0
 10
123.8739271174906
 20
-129.0219105233003
 30
0.0
 10
124.0864757231791
 20
-129.2603177454626
 30
0.0
 10
123.8646137843949
 20
-129.8046538564375
 30
0.0
 10
123.3785212967961
 20
-130.2383941341073
 30
0.0
  0
SPLINE
  5
3CA
330
1F
100
AcDbEntity
  8
_U+30EC_U+30A4_U+30E4_U+30FC 1
 62
   179
420
  2234388
370
     9
100
AcDbSpline
210
0.0
220
0.0
230
1.0
 70
    11
 71
     3
 72
    17
 73
    13
 74
     0
 42
0.0000000001
 43
0.0000000001
 12
1.0
 22
0.0
 32
0.0
 13
1.0
 23
0.0
 33
0.0
 40
0.0
 40
0.0
 40
0.0
 40
0.0
 40
1.0
 40
1.0
 40
1.0
 40
2.0
 40
2.0
 40
2.0
 40
3.0
 40
3.0
 40
3.0
 40
4.0
 40
4.0
 40
4.0
 40
4.0
 10
125.892062899337
 20
-130.1501996896849
 30
0.0
 10
125.4056176339695
 20
-130.5835871895763
 30
0.0
 10
124.8392360799013
 20
-130.741702189537
 30
0.0
 10
124.6266843205084
 20
-130.5029774673745
 30
0.0
 10
124.414100437043
 20
-130.2642174674338
 30
0.0
 10
124.6356448758354
 20
-129.7199166342364
 30
0.0
 10
125.1224076411948
 20
-129.2864938565675
 30
0.0
 10
125.6081826288016
 20
-128.8531063566755
 30
0.0
 10
126.1745673365742
 20
-128.694991356715
 30
0.0
 10
126.3874687200315
 20
-128.9337160788779
 30
0.0
 10
126.60001732572
 20
-129.1721233010402
 30
0.0
 10
126.3781553869358
 20
-129.7164594120151
 30
0.0
 10
125.892062899337
 20
-130.1501996896849
 30
0.0
  0
SPLINE
  5
3CB
330
1F
100
AcDbEntity
  8
_U+30EC_U+30A4_U+30E4_U+30FC 1
 62
   179
420
  2234388
370
     9
100
AcDbSpline
210
0.0
220
0.0
230
1.0
 70
    11
 71
     3
 72
    17
 73
    13
 74
     0
 42
0.0000000001
 43
0.0000000001
 12
1.0
 22
0.0
 32
0.0
 13
1.0
 23
0.0
 33
0.0
 40
0.0
 40
0.0
 40
0.0
 40
0.0
 40
1.0
 40
1.0
 40
1.0
 40
2.0
 40
2.0
 40
2.0
 40
3.0
 40
3.0
 40
3.0
 40
4.0
 40
4.0
 40
4.0
 40
4.0
 10
123.7312990655738
 20
-132.2668663558224
 30
0.0
 10
123.2448538002063
 20
-132.7002538557138
 30
0.0
 10
122.6784721915526
 20
-132.8583688556745
 30
0.0
 10
122.4659204867452
 20
-132.619644133512
 30
0.0
 10
122.2533366032798
 20
-132.3808841335713
 30
0.0
 10
122.4748810420721
 20
-131.8365833003739
 30
0.0
 10
122.9616438074316
 20
-131.403160522705
 30
0.0
 10
123.4474187950384
 20
-130.9697730228129
 30
0.0
 10
124.013803502811
 20
-130.8116580228529
 30
0.0
 10
124.2267048862683
 20
-131.0503827450154
 30
0.0
 10
124.4392534919568
 20
-131.2887899671777
 30
0.0
 10
124.2173915531725
 20
-131.8331260781526
 30
0.0
 10
123.7312990655738
 20
-132.2668663558224
 30
0.0
  0
SPLINE
  5
3CC
330
1F
100
AcDbEntity
  8
_U+30EC_U+30A4_U+30E4_U+30FC 1
 62
   179
420
  2234388
370
     9
100
AcDbSpline
210
0.0
220
0.0
230
1.0
 70
    11
 71
     3
 72
    17
 73
    13
 74
     0
 42
0.0000000001
 43
0.0000000001
 12
1.0
 22
0.0
 32
0.0
 13
1.0
 23
0.0
 33
0.0
 40
0.0
 40
0.0
 40
0.0
 40
0.0
 40
1.0
 40
1.0
 40
1.0
 40
2.0
 40
2.0
 40
2.0
 40
3.0
 40
3.0
 40
3.0
 40
4.0
 40
4.0
 40
4.0
 40
4.0
 10
121.2618546841301
 20
-134.7042785774353
 30
0.0
 10
120.7754094187626
 20
-135.1376660773267
 30
0.0
 10
120.2090277477255
 20
-135.2954282995096
 30
0.0
 10
119.9964761053015
 20
-135.0570563551249
 30
0.0
 10
119.7838922218361
 20
-134.8182963551842
 30
0.0
 10
120.0054366606285
 20
-134.2736427442097
 30
0.0
 10
120.4921994259879
 20
-133.8402199665401
 30
0.0
 10
120.9779744135947
 20
-133.4068324666481
 30
0.0
 10
121.5443591213673
 20
-133.2490702444657
 30
0.0
 10
121.7572605048246
 20
-133.4874421888505
 30
0.0
 10
121.9698091105132
 20
-133.7262021887906
 30
0.0
 10
121.7479471717289
 20
-134.2705382997655
 30
0.0
 10
121.2618546841301
 20
-134.7042785774353
 30
0.0
  0
SPLINE
  5
3CD
330
1F
100
AcDbEntity
  8
_U+30EC_U+30A4_U+30E4_U+30FC 1
 62
   179
420
  2234388
370
     9
100
AcDbSpline
210
0.0
220
0.0
230
1.0
 70
    11
 71
     3
 72
    17
 73
    13
 74
     0
 42
0.0000000001
 43
0.0000000001
 12
1.0
 22
0.0
 32
0.0
 13
1.0
 23
0.0
 33
0.0
 40
0.0
 40
0.0
 40
0.0
 40
0.0
 40
1.0
 40
1.0
 40
1.0
 40
2.0
 40
2.0
 40
2.0
 40
3.0
 40
3.0
 40
3.0
 40
4.0
 40
4.0
 40
4.0
 40
4.0
 10
119.1892852925613
 20
-136.865042465784
 30
0.0
 10
118.7028400271938
 20
-137.2984299656754
 30
0.0
 10
118.1364583037992
 20
-137.4561921878583
 30
0.0
 10
117.9239067137327
 20
-137.2178202434736
 30
0.0
 10
117.7113228302673
 20
-136.9790602435329
 30
0.0
 10
117.9328672690597
 20
-136.4344066325584
 30
0.0
 10
118.4196300344191
 20
-136.0009838548888
 30
0.0
 10
118.9054050220259
 20
-135.5675963549968
 30
0.0
 10
119.4717897297985
 20
-135.4098341328144
 30
0.0
 10
119.6846911132558
 20
-135.6482060771992
 30
0.0
 10
119.8972397189444
 20
-135.8869660771393
 30
0.0
 10
119.6753777801601
 20
-136.4313021881142
 30
0.0
 10
119.1892852925613
 20
-136.865042465784
 30
0.0
  0
SPLINE
  5
3CE
330
1F
100
AcDbEntity
  8
_U+30EC_U+30A4_U+30E4_U+30FC 1
 62
   179
420
  2234388
370
     9
100
AcDbSpline
210
0.0
220
0.0
230
1.0
 70
    11
 71
     3
 72
    17
 73
    13
 74
     0
 42
0.0000000001
 43
0.0000000001
 12
1.0
 22
0.0
 32
0.0
 13
1.0
 23
0.0
 33
0.0
 40
0.0
 40
0.0
 40
0.0
 40
0.0
 40
1.0
 40
1.0
 40
1.0
 40
2.0
 40
2.0
 40
2.0
 40
3.0
 40
3.0
 40
3.0
 40
4.0
 40
4.0
 40
4.0
 40
4.0
 10
116.8521325744093
 20
-139.1140007985551
 30
0.0
 10
116.3656873090418
 20
-139.5473882984465
 30
0.0
 10
115.7993055266057
 20
-139.7051505206294
 30
0.0
 10
115.5867539955807
 20
-139.4667785762446
 30
0.0
 10
115.3741701121153
 20
-139.228018576304
 30
0.0
 10
115.5957145509076
 20
-138.6833649653294
 30
0.0
 10
116.0824773162671
 20
-138.2499421876599
 30
0.0
 10
116.5682523038739
 20
-137.8165546877678
 30
0.0
 10
117.1346370116464
 20
-137.6587924655855
 30
0.0
 10
117.3475383951038
 20
-137.8971644099703
 30
0.0
 10
117.5600870007923
 20
-138.1359244099104
 30
0.0
 10
117.338225062008
 20
-138.6802605208853
 30
0.0
 10
116.8521325744093
 20
-139.1140007985551
 30
0.0
  0
SPLINE
  5
3CF
330
1F
100
AcDbEntity
  8
_U+30EC_U+30A4_U+30E4_U+30FC 1
 62
   179
420
  2234388
370
     9
100
AcDbSpline
210
0.0
220
0.0
230
1.0
 70
    11
 71
     3
 72
    17
 73
    13
 74
     0
 42
0.0000000001
 43
0.0000000001
 12
1.0
 22
0.0
 32
0.0
 13
1.0
 23
0.0
 33
0.0
 40
0.0
 40
0.0
 40
0.0
 40
0.0
 40
1.0
 40
1.0
 40
1.0
 40
2.0
 40
2.0
 40
2.0
 40
3.0
 40
3.0
 40
3.0
 40
4.0
 40
4.0
 40
4.0
 40
4.0
 10
114.6031742984517
 20
-141.4952507979598
 30
0.0
 10
114.1167290330841
 20
-141.9286382978511
 30
0.0
 10
113.5503471938346
 20
-142.0864005200341
 30
0.0
 10
113.337795719623
 20
-141.8480285756494
 30
0.0
 10
113.1252118361576
 20
-141.6092685757087
 30
0.0
 10
113.34675627495
 20
-141.0646149647341
 30
0.0
 10
113.8335190403094
 20
-140.6311921870646
 30
0.0
 10
114.3192940279163
 20
-140.1978046871725
 30
0.0
 10
114.8856787356888
 20
-140.0400424649902
 30
0.0
 10
115.0985801191461
 20
-140.278414409375
 30
0.0
 10
115.3111287248347
 20
-140.5171744093151
 30
0.0
 10
115.0892667860504
 20
-141.06151052029
 30
0.0
 10
114.6031742984517
 20
-141.4952507979598
 30
0.0
  0
SPLINE
  5
3D0
330
1F
100
AcDbEntity
  8
_U+30EC_U+30A4_U+30E4_U+30FC 1
 62
   179
420
  2234388
370
     9
100
AcDbSpline
210
0.0
220
0.0
230
1.0
 70
    11
 71
     3
 72
    17
 73
    13
 74
     0
 42
0.0000000001
 43
0.0000000001
 12
1.0
 22
0.0
 32
0.0
 13
1.0
 23
0.0
 33
0.0
 40
0.0
 40
0.0
 40
0.0
 40
0.0
 40
1.0
 40
1.0
 40
1.0
 40
2.0
 40
2.0
 40
2.0
 40
3.0
 40
3.0
 40
3.0
 40
4.0
 40
4.0
 40
4.0
 40
4.0
 10
108.7823411136202
 20
-132.2227691336112
 30
0.0
 10
108.2958958482526
 20
-132.6561566335026
 30
0.0
 10
107.7295138619565
 20
-132.8142716334633
 30
0.0
 10
107.5169625347915
 20
-132.5755469113008
 30
0.0
 10
107.3043786513261
 20
-132.3367869113601
 30
0.0
 10
107.5259230901185
 20
-131.7924860781627
 30
0.0
 10
108.0126858554779
 20
-131.3590633004938
 30
0.0
 10
108.4984608430848
 20
-130.9256758006017
 30
0.0
 10
109.0648455508573
 20
-130.7675608006417
 30
0.0
 10
109.2777469343146
 20
-131.0062855228042
 30
0.0
 10
109.4902955400032
 20
-131.2446927449665
 30
0.0
 10
109.2684336012189
 20
-131.7890288559414
 30
0.0
 10
108.7823411136202
 20
-132.2227691336112
 30
0.0
  0
SPLINE
  5
3D1
330
1F
100
AcDbEntity
  8
_U+30EC_U+30A4_U+30E4_U+30FC 1
 62
   179
420
  2234388
370
     9
100
AcDbSpline
210
0.0
220
0.0
230
1.0
 70
    11
 71
     3
 72
    17
 73
    13
 74
     0
 42
0.0000000001
 43
0.0000000001
 12
1.0
 22
0.0
 32
0.0
 13
1.0
 23
0.0
 33
0.0
 40
0.0
 40
0.0
 40
0.0
 40
0.0
 40
1.0
 40
1.0
 40
1.0
 40
2.0
 40
2.0
 40
2.0
 40
3.0
 40
3.0
 40
3.0
 40
4.0
 40
4.0
 40
4.0
 40
4.0
 10
111.2517854950638
 20
-129.7974219119953
 30
0.0
 10
110.7653402296963
 20
-130.2308094118867
 30
0.0
 10
110.1989583057836
 20
-130.3889244118474
 30
0.0
 10
109.9864069162352
 20
-130.1501996896849
 30
0.0
 10
109.7738230327698
 20
-129.9114396897442
 30
0.0
 10
109.9953674715622
 20
-129.3671388565468
 30
0.0
 10
110.4821302369216
 20
-128.9337160788779
 30
0.0
 10
110.9679052245284
 20
-128.5003285789862
 30
0.0
 10
111.534289932301
 20
-128.3422135790254
 30
0.0
 10
111.7471913157583
 20
-128.580938301188
 30
0.0
 10
111.9597399214469
 20
-128.8193455233506
 30
0.0
 10
111.7378779826626
 20
-129.3636816343255
 30
0.0
 10
111.2517854950638
 20
-129.7974219119953
 30
0.0
  0
SPLINE
  5
3D2
330
1F
100
AcDbEntity
  8
_U+30EC_U+30A4_U+30E4_U+30FC 1
 62
   179
420
  2234388
370
     9
100
AcDbSpline
210
0.0
220
0.0
230
1.0
 70
    11
 71
     3
 72
    17
 73
    13
 74
     0
 42
0.0000000001
 43
0.0000000001
 12
1.0
 22
0.0
 32
0.0
 13
1.0
 23
0.0
 33
0.0
 40
0.0
 40
0.0
 40
0.0
 40
0.0
 40
1.0
 40
1.0
 40
1.0
 40
2.0
 40
2.0
 40
2.0
 40
3.0
 40
3.0
 40
3.0
 40
4.0
 40
4.0
 40
4.0
 40
4.0
 10
108.8705355558146
 20
-130.1061024674737
 30
0.0
 10
108.384090290447
 20
-130.5394899673651
 30
0.0
 10
107.8177083063789
 20
-130.6976049673258
 30
0.0
 10
107.605156976986
 20
-130.4588802451633
 30
0.0
 10
107.3925730935205
 20
-130.2201202452226
 30
0.0
 10
107.6141175323129
 20
-129.6758194120252
 30
0.0
 10
108.1008802976723
 20
-129.2423966343563
 30
0.0
 10
108.5866552852792
 20
-128.8090091344642
 30
0.0
 10
109.1530399930517
 20
-128.6508941345038
 30
0.0
 10
109.3659413765091
 20
-128.8896188566667
 30
0.0
 10
109.5784899821976
 20
-129.128026078829
 30
0.0
 10
109.3566280434133
 20
-129.6723621898039
 30
0.0
 10
108.8705355558146
 20
-130.1061024674737
 30
0.0
  0
SPLINE
  5
3D3
330
1F
100
AcDbEntity
  8
_U+30EC_U+30A4_U+30E4_U+30FC 1
 62
   179
420
  2234388
370
     9
100
AcDbSpline
210
0.0
220
0.0
230
1.0
 70
    11
 71
     3
 72
    17
 73
    13
 74
     0
 42
0.0000000001
 43
0.0000000001
 12
1.0
 22
0.0
 32
0.0
 13
1.0
 23
0.0
 33
0.0
 40
0.0
 40
0.0
 40
0.0
 40
0.0
 40
1.0
 40
1.0
 40
1.0
 40
2.0
 40
2.0
 40
2.0
 40
3.0
 40
3.0
 40
3.0
 40
4.0
 40
4.0
 40
4.0
 40
4.0
 10
106.3128967321765
 20
-132.619644133512
 30
0.0
 10
105.826451466809
 20
-133.0530316334034
 30
0.0
 10
105.2600694181294
 20
-133.2111466333641
 30
0.0
 10
105.0475181533479
 20
-132.9724219112016
 30
0.0
 10
104.8349342698825
 20
-132.7336619112609
 30
0.0
 10
105.0564787086748
 20
-132.1893610780635
 30
0.0
 10
105.5432414740342
 20
-131.7559383003945
 30
0.0
 10
106.0290164616411
 20
-131.3225508005025
 30
0.0
 10
106.5954011694136
 20
-131.1644358005424
 30
0.0
 10
106.808302552871
 20
-131.403160522705
 30
0.0
 10
107.0208511585595
 20
-131.6415677448673
 30
0.0
 10
106.7989892197752
 20
-132.1859038558422
 30
0.0
 10
106.3128967321765
 20
-132.619644133512
 30
0.0
  0
SPLINE
  5
3D4
330
1F
100
AcDbEntity
  8
_U+30EC_U+30A4_U+30E4_U+30FC 1
 62
   179
420
  2234388
370
     9
100
AcDbSpline
210
0.0
220
0.0
230
1.0
 70
    11
 71
     3
 72
    17
 73
    13
 74
     0
 42
0.0000000001
 43
0.0000000001
 12
1.0
 22
0.0
 32
0.0
 13
1.0
 23
0.0
 33
0.0
 40
0.0
 40
0.0
 40
0.0
 40
0.0
 40
1.0
 40
1.0
 40
1.0
 40
2.0
 40
2.0
 40
2.0
 40
3.0
 40
3.0
 40
3.0
 40
4.0
 40
4.0
 40
4.0
 40
4.0
 10
113.5889382132159
 20
-127.2959452459537
 30
0.0
 10
113.1024929478483
 20
-127.7293327458454
 30
0.0
 10
112.5361110829771
 20
-127.8870949680284
 30
0.0
 10
112.3235596343873
 20
-127.6487230236433
 30
0.0
 10
112.1109757509218
 20
-127.4099630237029
 30
0.0
 10
112.3325201897142
 20
-126.8653094127281
 30
0.0
 10
112.8192829550736
 20
-126.4318866350588
 30
0.0
 10
113.3050579426805
 20
-125.9984991351671
 30
0.0
 10
113.871442650453
 20
-125.8407369129842
 30
0.0
 10
114.0843440339104
 20
-126.0791088573693
 30
0.0
 10
114.2968926395989
 20
-126.3178688573093
 30
0.0
 10
114.0750307008146
 20
-126.8622049682846
 30
0.0
 10
113.5889382132159
 20
-127.2959452459537
 30
0.0
  0
SPLINE
  5
3D5
330
1F
100
AcDbEntity
  8
_U+30EC_U+30A4_U+30E4_U+30FC 1
 62
   179
420
  2234388
370
     9
100
AcDbSpline
210
0.0
220
0.0
230
1.0
 70
    11
 71
     3
 72
    17
 73
    13
 74
     0
 42
0.0000000001
 43
0.0000000001
 12
1.0
 22
0.0
 32
0.0
 13
1.0
 23
0.0
 33
0.0
 40
0.0
 40
0.0
 40
0.0
 40
0.0
 40
1.0
 40
1.0
 40
1.0
 40
2.0
 40
2.0
 40
2.0
 40
3.0
 40
3.0
 40
3.0
 40
4.0
 40
4.0
 40
4.0
 40
4.0
 10
111.2076882739666
 20
-127.6487230236433
 30
0.0
 10
110.7212430085991
 20
-128.082110523535
 30
0.0
 10
110.1548610835724
 20
-128.239872745718
 30
0.0
 10
109.942309695138
 20
-128.0015008013329
 30
0.0
 10
109.7297258116726
 20
-127.7627408013925
 30
0.0
 10
109.951270250465
 20
-127.2180871904177
 30
0.0
 10
110.4380330158244
 20
-126.7846644127484
 30
0.0
 10
110.9238080034312
 20
-126.3512769128567
 30
0.0
 10
111.4901927112038
 20
-126.1935146906738
 30
0.0
 10
111.7030940946611
 20
-126.4318866350588
 30
0.0
 10
111.9156427003496
 20
-126.6706466349989
 30
0.0
 10
111.6937807615654
 20
-127.2149827459741
 30
0.0
 10
111.2076882739666
 20
-127.6487230236433
 30
0.0
  0
SPLINE
  5
3D6
330
1F
100
AcDbEntity
  8
_U+30EC_U+30A4_U+30E4_U+30FC 1
 62
   179
420
  2234388
370
     9
100
AcDbSpline
210
0.0
220
0.0
230
1.0
 70
    11
 71
     3
 72
    17
 73
    13
 74
     0
 42
0.0000000001
 43
0.0000000001
 12
1.0
 22
0.0
 32
0.0
 13
1.0
 23
0.0
 33
0.0
 40
0.0
 40
0.0
 40
0.0
 40
0.0
 40
1.0
 40
1.0
 40
1.0
 40
2.0
 40
2.0
 40
2.0
 40
3.0
 40
3.0
 40
3.0
 40
4.0
 40
4.0
 40
4.0
 40
4.0
 10
113.6771326554103
 20
-125.2233758020274
 30
0.0
 10
113.1906873900428
 20
-125.6567633019191
 30
0.0
 10
112.6243055273995
 20
-125.8145255241021
 30
0.0
 10
112.4117540765817
 20
-125.576153579717
 30
0.0
 10
112.1991701931162
 20
-125.3373935797766
 30
0.0
 10
112.4207146319086
 20
-124.7927399688018
 30
0.0
 10
112.9074773972681
 20
-124.3593171911325
 30
0.0
 10
113.3932523848749
 20
-123.9259296912408
 30
0.0
 10
113.9596370926474
 20
-123.7681674690579
 30
0.0
 10
114.1725384761048
 20
-124.006539413443
 30
0.0
 10
114.3850870817933
 20
-124.245299413383
 30
0.0
 10
114.163225143009
 20
-124.7896355243582
 30
0.0
 10
113.6771326554103
 20
-125.2233758020274
 30
0.0
  0
SPLINE
  5
3D7
330
1F
100
AcDbEntity
  8
_U+30EC_U+30A4_U+30E4_U+30FC 1
 62
   179
420
  2234388
370
     9
100
AcDbSpline
210
0.0
220
0.0
230
1.0
 70
    11
 71
     3
 72
    17
 73
    13
 74
     0
 42
0.0000000001
 43
0.0000000001
 12
1.0
 22
0.0
 32
0.0
 13
1.0
 23
0.0
 33
0.0
 40
0.0
 40
0.0
 40
0.0
 40
0.0
 40
1.0
 40
1.0
 40
1.0
 40
2.0
 40
2.0
 40
2.0
 40
3.0
 40
3.0
 40
3.0
 40
4.0
 40
4.0
 40
4.0
 40
4.0
 10
116.1906742579512
 20
-124.8705980243378
 30
0.0
 10
115.7042289925836
 20
-125.3039855242295
 30
0.0
 10
115.1378471934378
 20
-125.4617477464125
 30
0.0
 10
114.9252956791226
 20
-125.2233758020274
 30
0.0
 10
114.7127117956571
 20
-124.984615802087
 30
0.0
 10
114.9342562344495
 20
-124.4399621911122
 30
0.0
 10
115.4210189998089
 20
-124.006539413443
 30
0.0
 10
115.9067939874158
 20
-123.5731519135513
 30
0.0
 10
116.4731786951883
 20
-123.4153896913683
 30
0.0
 10
116.6860800786456
 20
-123.6537616357534
 30
0.0
 10
116.8986286843342
 20
-123.8925216356934
 30
0.0
 10
116.6767667455499
 20
-124.4368577466687
 30
0.0
 10
116.1906742579512
 20
-124.8705980243378
 30
0.0
  0
SPLINE
  5
3D8
330
1F
100
AcDbEntity
  8
_U+30EC_U+30A4_U+30E4_U+30FC 1
 62
   179
420
  2234388
370
     9
100
AcDbSpline
210
0.0
220
0.0
230
1.0
 70
    11
 71
     3
 72
    17
 73
    13
 74
     0
 42
0.0000000001
 43
0.0000000001
 12
1.0
 22
0.0
 32
0.0
 13
1.0
 23
0.0
 33
0.0
 40
0.0
 40
0.0
 40
0.0
 40
0.0
 40
1.0
 40
1.0
 40
1.0
 40
2.0
 40
2.0
 40
2.0
 40
3.0
 40
3.0
 40
3.0
 40
4.0
 40
4.0
 40
4.0
 40
4.0
 10
116.1906742579512
 20
-122.7098341359891
 30
0.0
 10
115.7042289925836
 20
-123.1432216358808
 30
0.0
 10
115.1378471934378
 20
-123.3009838580638
 30
0.0
 10
114.9252956791226
 20
-123.0626119136787
 30
0.0
 10
114.7127117956571
 20
-122.8238519137383
 30
0.0
 10
114.9342562344495
 20
-122.2791983027635
 30
0.0
 10
115.4210189998089
 20
-121.8457755250943
 30
0.0
 10
115.9067939874158
 20
-121.4123880252026
 30
0.0
 10
116.4731786951883
 20
-121.2546258030196
 30
0.0
 10
116.6860800786456
 20
-121.4929977474047
 30
0.0
 10
116.8986286843342
 20
-121.7317577473447
 30
0.0
 10
116.6767667455499
 20
-122.27609385832
 30
0.0
 10
116.1906742579512
 20
-122.7098341359891
 30
0.0
  0
SPLINE
  5
3D9
330
1F
100
AcDbEntity
  8
_U+30EC_U+30A4_U+30E4_U+30FC 1
 62
   179
420
  2234388
370
     9
100
AcDbSpline
210
0.0
220
0.0
230
1.0
 70
    11
 71
     3
 72
    17
 73
    13
 74
     0
 42
0.0000000001
 43
0.0000000001
 12
1.0
 22
0.0
 32
0.0
 13
1.0
 23
0.0
 33
0.0
 40
0.0
 40
0.0
 40
0.0
 40
0.0
 40
1.0
 40
1.0
 40
1.0
 40
2.0
 40
2.0
 40
2.0
 40
3.0
 40
3.0
 40
3.0
 40
4.0
 40
4.0
 40
4.0
 40
4.0
 10
118.6160214182976
 20
-122.3129591360883
 30
0.0
 10
118.1295761529301
 20
-122.74634663598
 30
0.0
 10
117.5631944150537
 20
-122.904108858163
 30
0.0
 10
117.350642839469
 20
-122.6657369137779
 30
0.0
 10
117.1380589560036
 20
-122.4269769138375
 30
0.0
 10
117.359603394796
 20
-121.8823233028627
 30
0.0
 10
117.8463661601554
 20
-121.4489005251935
 30
0.0
 10
118.3321411477622
 20
-121.0155130253018
 30
0.0
 10
118.8985258555348
 20
-120.8577508031188
 30
0.0
 10
119.1114272389921
 20
-121.0961227475039
 30
0.0
 10
119.3239758446806
 20
-121.334882747444
 30
0.0
 10
119.1021139058964
 20
-121.8792188584192
 30
0.0
 10
118.6160214182976
 20
-122.3129591360883
 30
0.0
  0
SPLINE
  5
3DA
330
1F
100
AcDbEntity
  8
_U+30EC_U+30A4_U+30E4_U+30FC 1
 62
   179
420
  2234388
370
     9
100
AcDbSpline
210
0.0
220
0.0
230
1.0
 70
    11
 71
     3
 72
    17
 73
    13
 74
     0
 42
0.0000000001
 43
0.0000000001
 12
1.0
 22
0.0
 32
0.0
 13
1.0
 23
0.0
 33
0.0
 40
0.0
 40
0.0
 40
0.0
 40
0.0
 40
1.0
 40
1.0
 40
1.0
 40
2.0
 40
2.0
 40
2.0
 40
3.0
 40
3.0
 40
3.0
 40
4.0
 40
4.0
 40
4.0
 40
4.0
 10
118.6601186393948
 20
-120.1962924699508
 30
0.0
 10
118.1736733740273
 20
-120.6296799698426
 30
0.0
 10
117.6072916372649
 20
-120.7874421920255
 30
0.0
 10
117.3947400605662
 20
-120.5490702476404
 30
0.0
 10
117.1821561771008
 20
-120.3103102477
 30
0.0
 10
117.4037006158932
 20
-119.7656566367252
 30
0.0
 10
117.8904633812526
 20
-119.332233859056
 30
0.0
 10
118.3762383688594
 20
-118.8988463591643
 30
0.0
 10
118.942623076632
 20
-118.7410841369813
 30
0.0
 10
119.1555244600893
 20
-118.9794560813664
 30
0.0
 10
119.3680730657779
 20
-119.2182160813065
 30
0.0
 10
119.1462111269936
 20
-119.7625521922817
 30
0.0
 10
118.6601186393948
 20
-120.1962924699508
 30
0.0
  0
POLYLINE
  5
3DB
330
1F
100
AcDbEntity
  8
_U+30EC_U+30A4_U+30E4_U+30FC 1
  6
AI-Linetype-2
 62
   154
420
    23468
370
    25
100
AcDb2dPolyline
 66
     1
 10
0.0
 20
0.0
 30
0.0
  0
VERTEX
  5
3DC
330
3DB
100
AcDbEntity
  8
_U+30EC_U+30A4_U+30E4_U+30FC 1
  6
AI-Linetype-2
 62
   154
420
    23468
370
    25
100
AcDbVertex
100
AcDb2dVertex
 10
61.24966427072422
 20
-108.0192502507728
 30
0.0
  0
VERTEX
  5
3DD
330
3DB
100
AcDbEntity
  8
_U+30EC_U+30A4_U+30E4_U+30FC 1
  6
AI-Linetype-2
 62
   154
420
    23468
370
    25
100
AcDbVertex
100
AcDb2dVertex
 10
61.24966427072422
 20
-118.0189833038287
 30
0.0
  0
SEQEND
  5
3DF
330
3DB
100
AcDbEntity
  8
_U+30EC_U+30A4_U+30E4_U+30FC 1
  6
AI-Linetype-2
 62
   154
420
    23468
370
    25
  0
ENDSEC
  0
SECTION
  2
OBJECTS
  0
DICTIONARY
  5
C
330
0
100
AcDbDictionary
281
     1
  3
ACAD_GROUP
350
D
  3
ACAD_LAYOUT
350
1A
  3
ACAD_MATERIAL
350
3B
  3
ACAD_MLEADERSTYLE
350
3E1
  3
ACAD_MLINESTYLE
350
17
  3
ACAD_PLOTSETTINGS
350
19
  3
ACAD_PLOTSTYLENAME
350
E
  3
ACAD_TABLESTYLE
350
3E0
  3
ACAD_VISUALSTYLE
350
2A
  0
SUN
  5
3F
330
29
100
AcDbSun
 90
        1
290
     0
 63
     7
421
 16777215
 40
1.0
291
     1
 91
  2455826
 92
 54000000
292
     0
 70
     2
 71
   256
280
     1
  0
DICTIONARY
  5
D
102
{ACAD_REACTORS
330
C
102
}
330
C
100
AcDbDictionary
281
     1
  0
DICTIONARY
  5
1A
102
{ACAD_REACTORS
330
C
102
}
330
C
100
AcDbDictionary
281
     1
  3
Layout1
350
1E
  3
Layout2
350
26
  3
Model
350
22
  0
DICTIONARY
  5
3B
102
{ACAD_REACTORS
330
C
102
}
330
C
100
AcDbDictionary
281
     1
  3
ByBlock
350
3D
  3
ByLayer
350
3C
  3
Global
350
3E
  0
DICTIONARY
  5
3E1
102
{ACAD_REACTORS
330
C
102
}
330
C
100
AcDbDictionary
281
     1
  0
DICTIONARY
  5
17
102
{ACAD_REACTORS
330
C
102
}
330
C
100
AcDbDictionary
281
     1
  3
Standard
350
18
  0
DICTIONARY
  5
19
102
{ACAD_REACTORS
330
C
102
}
330
C
100
AcDbDictionary
281
     1
  0
ACDBDICTIONARYWDFLT
  5
E
102
{ACAD_REACTORS
330
C
102
}
330
C
100
AcDbDictionary
281
     1
  3
Normal
350
F
100
AcDbDictionaryWithDefault
340
F
  0
DICTIONARY
  5
3E0
102
{ACAD_REACTORS
330
C
102
}
330
C
100
AcDbDictionary
281
     1
  0
DICTIONARY
  5
2A
102
{ACAD_REACTORS
330
C
102
}
330
C
100
AcDbDictionary
281
     1
  3
2dWireframe
350
2F
  3
3D Hidden
350
31
  3
3dWireframe
350
30
  3
Basic
350
32
  3
Brighten
350
36
  3
ColorChange
350
3A
  3
Conceptual
350
34
  3
Dim
350
35
  3
Facepattern
350
39
  3
Flat
350
2B
  3
FlatWithEdges
350
2C
  3
Gouraud
350
2D
  3
GouraudWithEdges
350
2E
  3
Linepattern
350
38
  3
Realistic
350
33
  3
Thicken
350
37
  0
LAYOUT
  5
1E
102
{ACAD_REACTORS
330
1A
102
}
330
1A
100
AcDbPlotSettings
  1

  2
none_device
  4

  6

 40
0.0
 41
0.0
 42
0.0
 43
0.0
 44
0.0
 45
0.0
 46
0.0
 47
0.0
 48
0.0
 49
0.0
140
0.0
141
0.0
142
1.0
143
1.0
 70
   688
 72
     0
 73
     0
 74
     5
  7

 75
    16
 76
     0
 77
     2
 78
   300
147
1.0
148
0.0
149
0.0
100
AcDbLayout
  1
Layout1
 70
     1
 71
     1
 10
0.0
 20
0.0
 11
12.0
 21
9.0
 12
0.0
 22
0.0
 32
0.0
 14
1.000000000000000E+20
 24
1.000000000000000E+20
 34
1.000000000000000E+20
 15
-1.000000000000000E+20
 25
-1.000000000000000E+20
 35
-1.000000000000000E+20
146
0.0
 13
0.0
 23
0.0
 33
0.0
 16
1.0
 26
0.0
 36
0.0
 17
0.0
 27
1.0
 37
0.0
 76
     0
330
1B
  0
LAYOUT
  5
26
102
{ACAD_REACTORS
330
1A
102
}
330
1A
100
AcDbPlotSettings
  1

  2
none_device
  4

  6

 40
0.0
 41
0.0
 42
0.0
 43
0.0
 44
0.0
 45
0.0
 46
0.0
 47
0.0
 48
0.0
 49
0.0
140
0.0
141
0.0
142
1.0
143
1.0
 70
   688
 72
     0
 73
     0
 74
     5
  7

 75
    16
 76
     0
 77
     2
 78
   300
147
1.0
148
0.0
149
0.0
100
AcDbLayout
  1
Layout2
 70
     1
 71
     2
 10
0.0
 20
0.0
 11
0.0
 21
0.0
 12
0.0
 22
0.0
 32
0.0
 14
0.0
 24
0.0
 34
0.0
 15
0.0
 25
0.0
 35
0.0
146
0.0
 13
0.0
 23
0.0
 33
0.0
 16
1.0
 26
0.0
 36
0.0
 17
0.0
 27
1.0
 37
0.0
 76
     0
330
23
  0
LAYOUT
  5
22
102
{ACAD_REACTORS
330
1A
102
}
330
1A
100
AcDbPlotSettings
  1

  2
none_device
  4

  6

 40
0.0
 41
0.0
 42
0.0
 43
0.0
 44
0.0
 45
0.0
 46
0.0
 47
0.0
 48
0.0
 49
0.0
140
0.0
141
0.0
142
1.0
143
1.0
 70
  1712
 72
     0
 73
     0
 74
     0
  7

 75
     0
 76
     0
 77
     2
 78
   300
147
1.0
148
0.0
149
0.0
100
AcDbLayout
  1
Model
 70
     1
 71
     0
 10
0.0
 20
0.0
 11
12.0
 21
9.0
 12
0.0
 22
0.0
 32
0.0
 14
1.000000000000000E+20
 24
1.000000000000000E+20
 34
1.000000000000000E+20
 15
-1.000000000000000E+20
 25
-1.000000000000000E+20
 35
-1.000000000000000E+20
146
0.0
 13
0.0
 23
0.0
 33
0.0
 16
1.0
 26
0.0
 36
0.0
 17
0.0
 27
1.0
 37
0.0
 76
     0
330
1F
331
29
  0
MATERIAL
  5
3D
102
{ACAD_REACTORS
330
3B
102
}
330
3B
100
AcDbMaterial
  1
ByBlock
 72
     1
 94
      127
  0
MATERIAL
  5
3C
102
{ACAD_REACTORS
330
3B
102
}
330
3B
100
AcDbMaterial
  1
ByLayer
 72
     1
 94
      127
  0
MATERIAL
  5
3E
102
{ACAD_REACTORS
330
3B
102
}
330
3B
100
AcDbMaterial
  1
Global
 72
     1
 94
      127
  0
MLINESTYLE
  5
18
102
{ACAD_REACTORS
330
17
102
}
330
17
100
AcDbMlineStyle
  2
Standard
 70
     0
  3

 62
   256
 51
90.0
 52
90.0
 71
     2
 49
0.5
 62
   256
  6
BYLAYER
 49
-0.5
 62
   256
  6
BYLAYER
  0
ACDBPLACEHOLDER
  5
F
102
{ACAD_REACTORS
330
E
102
}
330
E
  0
VISUALSTYLE
  5
2F
102
{ACAD_REACTORS
330
2A
102
}
330
2A
100
AcDbVisualStyle
  2
2dWireframe
 70
     4
177
     2
291
     0
 71
     0
176
     1
 72
     2
176
     1
 73
     0
176
     1
 90
        0
176
     1
 40
-0.6
176
     1
 41
-30.0
176
     1
 62
     5
 63
     7
421
 16777215
176
     1
 74
     1
176
     1
 91
        4
176
     1
 64
     7
176
     1
 65
   257
176
     1
 75
     1
176
     1
175
     1
176
     1
 42
1.0
176
     1
 92
        0
176
     1
 66
   257
176
     1
 43
1.0
176
     1
 76
     1
176
     1
 77
     6
176
     1
 78
     2
176
     1
 67
     7
176
     1
 79
     5
176
     1
170
     0
176
     1
171
     0
176
     1
290
     0
176
     1
 93
        1
176
     1
 44
0.0
176
     1
173
     0
176
     1
  0
VISUALSTYLE
  5
31
102
{ACAD_REACTORS
330
2A
102
}
330
2A
100
AcDbVisualStyle
  2
3D Hidden
 70
     6
177
     2
291
     0
 71
     1
176
     1
 72
     2
176
     1
 73
     2
176
     1
 90
        0
176
     1
 40
-0.6
176
     1
 41
-30.0
176
     1
 62
     5
 63
     7
421
 16777215
176
     1
 74
     2
176
     1
 91
        2
176
     1
 64
     7
176
     1
 65
   257
176
     1
 75
     2
176
     1
175
     1
176
     1
 42
40.0
176
     1
 92
        0
176
     1
 66
   257
176
     1
 43
1.0
176
     1
 76
     1
176
     1
 77
     6
176
     1
 78
     2
176
     1
 67
     7
176
     1
 79
     3
176
     1
170
     0
176
     1
171
     0
176
     1
290
     0
176
     1
 93
        1
176
     1
 44
0.0
176
     1
173
     0
176
     1
  0
VISUALSTYLE
  5
30
102
{ACAD_REACTORS
330
2A
102
}
330
2A
100
AcDbVisualStyle
  2
3dWireframe
 70
     5
177
     2
291
     0
 71
     0
176
     1
 72
     2
176
     1
 73
     0
176
     1
 90
        0
176
     1
 40
-0.6
176
     1
 41
-30.0
176
     1
 62
     5
 63
     7
421
 16777215
176
     1
 74
     1
176
     1
 91
        4
176
     1
 64
     7
176
     1
 65
   257
176
     1
 75
     1
176
     1
175
     1
176
     1
 42
1.0
176
     1
 92
        0
176
     1
 66
   257
176
     1
 43
1.0
176
     1
 76
     1
176
     1
 77
     6
176
     1
 78
     2
176
     1
 67
     7
176
     1
 79
     5
176
     1
170
     0
176
     1
171
     0
176
     1
290
     0
176
     1
 93
        1
176
     1
 44
0.0
176
     1
173
     0
176
     1
  0
VISUALSTYLE
  5
32
102
{ACAD_REACTORS
330
2A
102
}
330
2A
100
AcDbVisualStyle
  2
Basic
 70
     7
177
     2
291
     1
 71
     1
176
     1
 72
     0
176
     1
 73
     1
176
     1
 90
        0
176
     1
 40
-0.6
176
     1
 41
-30.0
176
     1
 62
     5
 63
     7
421
 16777215
176
     1
 74
     0
176
     1
 91
        4
176
     1
 64
     7
176
     1
 65
   257
176
     1
 75
     1
176
     1
175
     1
176
     1
 42
1.0
176
     1
 92
        8
176
     1
 66
     7
176
     1
 43
1.0
176
     1
 76
     1
176
     1
 77
     6
176
     1
 78
     2
176
     1
 67
     7
176
     1
 79
     5
176
     1
170
     0
176
     1
171
     0
176
     1
290
     0
176
     1
 93
        1
176
     1
 44
0.0
176
     1
173
     0
176
     1
  0
VISUALSTYLE
  5
36
102
{ACAD_REACTORS
330
2A
102
}
330
2A
100
AcDbVisualStyle
  2
Brighten
 70
    12
177
     2
291
     1
 71
     2
176
     1
 72
     2
176
     1
 73
     0
176
     1
 90
        0
176
     1
 40
-0.6
176
     1
 41
-30.0
176
     1
 62
     5
 63
     7
421
 16777215
176
     1
 74
     1
176
     1
 91
        4
176
     1
 64
     7
176
     1
 65
   257
176
     1
 75
     1
176
     1
175
     1
176
     1
 42
1.0
176
     1
 92
        8
176
     1
 66
     7
176
     1
 43
1.0
176
     1
 76
     1
176
     1
 77
     6
176
     1
 78
     2
176
     1
 67
     7
176
     1
 79
     5
176
     1
170
     0
176
     1
171
     0
176
     1
290
     0
176
     1
 93
        1
176
     1
 44
50.0
176
     1
173
     0
176
     1
  0
VISUALSTYLE
  5
3A
102
{ACAD_REACTORS
330
2A
102
}
330
2A
100
AcDbVisualStyle
  2
ColorChange
 70
    16
177
     2
291
     1
 71
     2
176
     1
 72
     2
176
     1
 73
     3
176
     1
 90
        0
176
     1
 40
-0.6
176
     1
 41
-30.0
176
     1
 62
     5
 63
     8
421
  8421504
176
     1
 74
     1
176
     1
 91
        4
176
     1
 64
     7
176
     1
 65
   257
176
     1
 75
     1
176
     1
175
     1
176
     1
 42
1.0
176
     1
 92
        8
176
     1
 66
     8
424
  8421504
176
     1
 43
1.0
176
     1
 76
     1
176
     1
 77
     6
176
     1
 78
     2
176
     1
 67
     7
176
     1
 79
     5
176
     1
170
     0
176
     1
171
     0
176
     1
290
     0
176
     1
 93
        1
176
     1
 44
0.0
176
     1
173
     0
176
     1
  0
VISUALSTYLE
  5
34
102
{ACAD_REACTORS
330
2A
102
}
330
2A
100
AcDbVisualStyle
  2
Conceptual
 70
     9
177
     2
291
     0
 71
     3
176
     1
 72
     2
176
     1
 73
     0
176
     1
 90
        0
176
     1
 40
-0.6
176
     1
 41
-30.0
176
     1
 62
     5
 63
     7
421
 16777215
176
     1
 74
     2
176
     1
 91
        2
176
     1
 64
     7
176
     1
 65
   257
176
     1
 75
     1
176
     1
175
     1
176
     1
 42
40.0
176
     1
 92
        8
176
     1
 66
     7
176
     1
 43
1.0
176
     1
 76
     1
176
     1
 77
     6
176
     1
 78
     2
176
     1
 67
     7
176
     1
 79
     3
176
     1
170
     0
176
     1
171
     0
176
     1
290
     0
176
     1
 93
        1
176
     1
 44
0.0
176
     1
173
     0
176
     1
  0
VISUALSTYLE
  5
35
102
{ACAD_REACTORS
330
2A
102
}
330
2A
100
AcDbVisualStyle
  2
Dim
 70
    11
177
     2
291
     1
 71
     2
176
     1
 72
     2
176
     1
 73
     0
176
     1
 90
        0
176
     1
 40
-0.6
176
     1
 41
-30.0
176
     1
 62
     5
 63
     7
421
 16777215
176
     1
 74
     1
176
     1
 91
        4
176
     1
 64
     7
176
     1
 65
   257
176
     1
 75
     1
176
     1
175
     1
176
     1
 42
1.0
176
     1
 92
        8
176
     1
 66
     7
176
     1
 43
1.0
176
     1
 76
     1
176
     1
 77
     6
176
     1
 78
     2
176
     1
 67
     7
176
     1
 79
     5
176
     1
170
     0
176
     1
171
     0
176
     1
290
     0
176
     1
 93
        1
176
     1
 44
-50.0
176
     1
173
     0
176
     1
  0
VISUALSTYLE
  5
39
102
{ACAD_REACTORS
330
2A
102
}
330
2A
100
AcDbVisualStyle
  2
Facepattern
 70
    15
177
     2
291
     1
 71
     2
176
     1
 72
     2
176
     1
 73
     0
176
     1
 90
        0
176
     1
 40
-0.6
176
     1
 41
-30.0
176
     1
 62
     5
 63
     7
421
 16777215
176
     1
 74
     1
176
     1
 91
        4
176
     1
 64
     7
176
     1
 65
   257
176
     1
 75
     1
176
     1
175
     1
176
     1
 42
1.0
176
     1
 92
        8
176
     1
 66
     7
176
     1
 43
1.0
176
     1
 76
     1
176
     1
 77
     6
176
     1
 78
     2
176
     1
 67
     7
176
     1
 79
     5
176
     1
170
     0
176
     1
171
     0
176
     1
290
     0
176
     1
 93
        1
176
     1
 44
0.0
176
     1
173
     0
176
     1
  0
VISUALSTYLE
  5
2B
102
{ACAD_REACTORS
330
2A
102
}
330
2A
100
AcDbVisualStyle
  2
Flat
 70
     0
177
     2
291
     1
 71
     2
176
     1
 72
     1
176
     1
 73
     1
176
     1
 90
        2
176
     1
 40
-0.6
176
     1
 41
30.0
176
     1
 62
     5
 63
     7
421
 16777215
176
     1
 74
     0
176
     1
 91
        4
176
     1
 64
     7
176
     1
 65
   257
176
     1
 75
     1
176
     1
175
     1
176
     1
 42
1.0
176
     1
 92
        8
176
     1
 66
     7
176
     1
 43
1.0
176
     1
 76
     1
176
     1
 77
     6
176
     1
 78
     2
176
     1
 67
     7
176
     1
 79
     5
176
     1
170
     0
176
     1
171
     0
176
     1
290
     0
176
     1
 93
       13
176
     1
 44
0.0
176
     1
173
     0
176
     1
  0
VISUALSTYLE
  5
2C
102
{ACAD_REACTORS
330
2A
102
}
330
2A
100
AcDbVisualStyle
  2
FlatWithEdges
 70
     1
177
     2
291
     1
 71
     2
176
     1
 72
     1
176
     1
 73
     1
176
     1
 90
        2
176
     1
 40
-0.6
176
     1
 41
30.0
176
     1
 62
     5
 63
     7
421
 16777215
176
     1
 74
     1
176
     1
 91
        4
176
     1
 64
     7
176
     1
 65
   257
176
     1
 75
     1
176
     1
175
     1
176
     1
 42
1.0
176
     1
 92
        0
176
     1
 66
   257
176
     1
 43
1.0
176
     1
 76
     1
176
     1
 77
     6
176
     1
 78
     2
176
     1
 67
     7
176
     1
 79
     5
176
     1
170
     0
176
     1
171
     0
176
     1
290
     0
176
     1
 93
       13
176
     1
 44
0.0
176
     1
173
     0
176
     1
  0
VISUALSTYLE
  5
2D
102
{ACAD_REACTORS
330
2A
102
}
330
2A
100
AcDbVisualStyle
  2
Gouraud
 70
     2
177
     2
291
     1
 71
     2
176
     1
 72
     2
176
     1
 73
     1
176
     1
 90
        2
176
     1
 40
-0.6
176
     1
 41
30.0
176
     1
 62
     5
 63
     7
421
 16777215
176
     1
 74
     0
176
     1
 91
        4
176
     1
 64
     7
176
     1
 65
   257
176
     1
 75
     1
176
     1
175
     1
176
     1
 42
1.0
176
     1
 92
        0
176
     1
 66
     7
176
     1
 43
1.0
176
     1
 76
     1
176
     1
 77
     6
176
     1
 78
     2
176
     1
 67
     7
176
     1
 79
     5
176
     1
170
     0
176
     1
171
     0
176
     1
290
     0
176
     1
 93
       13
176
     1
 44
0.0
176
     1
173
     0
176
     1
  0
VISUALSTYLE
  5
2E
102
{ACAD_REACTORS
330
2A
102
}
330
2A
100
AcDbVisualStyle
  2
GouraudWithEdges
 70
     3
177
     2
291
     1
 71
     2
176
     1
 72
     2
176
     1
 73
     1
176
     1
 90
        2
176
     1
 40
-0.6
176
     1
 41
30.0
176
     1
 62
     5
 63
     7
421
 16777215
176
     1
 74
     1
176
     1
 91
        4
176
     1
 64
     7
176
     1
 65
   257
176
     1
 75
     1
176
     1
175
     1
176
     1
 42
1.0
176
     1
 92
        0
176
     1
 66
   257
176
     1
 43
1.0
176
     1
 76
     1
176
     1
 77
     6
176
     1
 78
     2
176
     1
 67
     7
176
     1
 79
     5
176
     1
170
     0
176
     1
171
     0
176
     1
290
     0
176
     1
 93
       13
176
     1
 44
0.0
176
     1
173
     0
176
     1
  0
VISUALSTYLE
  5
38
102
{ACAD_REACTORS
330
2A
102
}
330
2A
100
AcDbVisualStyle
  2
Linepattern
 70
    14
177
     2
291
     1
 71
     2
176
     1
 72
     2
176
     1
 73
     0
176
     1
 90
        0
176
     1
 40
-0.6
176
     1
 41
-30.0
176
     1
 62
     5
 63
     7
421
 16777215
176
     1
 74
     1
176
     1
 91
        4
176
     1
 64
     7
176
     1
 65
   257
176
     1
 75
     7
176
     1
175
     7
176
     1
 42
1.0
176
     1
 92
        8
176
     1
 66
     7
176
     1
 43
1.0
176
     1
 76
     1
176
     1
 77
     6
176
     1
 78
     2
176
     1
 67
     7
176
     1
 79
     5
176
     1
170
     0
176
     1
171
     0
176
     1
290
     0
176
     1
 93
        1
176
     1
 44
0.0
176
     1
173
     0
176
     1
  0
VISUALSTYLE
  5
33
102
{ACAD_REACTORS
330
2A
102
}
330
2A
100
AcDbVisualStyle
  2
Realistic
 70
     8
177
     2
291
     0
 71
     2
176
     1
 72
     2
176
     1
 73
     0
176
     1
 90
        0
176
     1
 40
-0.6
176
     1
 41
-30.0
176
     1
 62
     5
 63
     7
421
 16777215
176
     1
 74
     1
176
     1
 91
        0
176
     1
 64
     7
176
     1
 65
   257
176
     1
 75
     1
176
     1
175
     1
176
     1
 42
1.0
176
     1
 92
        8
176
     1
 66
     8
424
  7895160
176
     1
 43
1.0
176
     1
 76
     1
176
     1
 77
     6
176
     1
 78
     2
176
     1
 67
     7
176
     1
 79
     5
176
     1
170
     0
176
     1
171
     0
176
     1
290
     0
176
     1
 93
       13
176
     1
 44
0.0
176
     1
173
     0
176
     1
  0
VISUALSTYLE
  5
37
102
{ACAD_REACTORS
330
2A
102
}
330
2A
100
AcDbVisualStyle
  2
Thicken
 70
    13
177
     2
291
     1
 71
     2
176
     1
 72
     2
176
     1
 73
     0
176
     1
 90
        0
176
     1
 40
-0.6
176
     1
 41
-30.0
176
     1
 62
     5
 63
     7
421
 16777215
176
     1
 74
     1
176
     1
 91
        4
176
     1
 64
     7
176
     1
 65
   257
176
     1
 75
     1
176
     1
175
     1
176
     1
 42
1.0
176
     1
 92
       12
176
     1
 66
     7
176
     1
 43
1.0
176
     1
 76
     1
176
     1
 77
     6
176
     1
 78
     2
176
     1
 67
     7
176
     1
 79
     5
176
     1
170
     0
176
     1
171
     0
176
     1
290
     0
176
     1
 93
        1
176
     1
 44
0.0
176
     1
173
     0
176
     1
  0
ENDSEC
  0
EOF
