  0
SECTION
  2
HEADER
  9
$ACADVER
  1
AC1024
  9
$ACADMAINTVER
 70
     6
  9
$DWGCODEPAGE
  3
UNDEFINED
  9
$INSBASE
 10
0.0
 20
0.0
 30
0.0
  9
$EXTMIN
 10
1.000000000000000E+20
 20
1.000000000000000E+20
 30
1.000000000000000E+20
  9
$EXTMAX
 10
-1.000000000000000E+20
 20
-1.000000000000000E+20
 30
-1.000000000000000E+20
  9
$LIMMIN
 10
0.0
 20
0.0
  9
$LIMMAX
 10
12.0
 20
9.0
  9
$ORTHOMODE
 70
     0
  9
$REGENMODE
 70
     1
  9
$FILLMODE
 70
     1
  9
$QTEXTMODE
 70
     0
  9
$MIRRTEXT
 70
     1
  9
$LTSCALE
 40
1.0
  9
$ATTMODE
 70
     1
  9
$TEXTSIZE
 40
0.2
  9
$TRACEWID
 40
0.05
  9
$TEXTSTYLE
  7
Standard
  9
$CLAYER
  8
0
  9
$CELTYPE
  6
ByLayer
  9
$CECOLOR
 62
   256
  9
$CELTSCALE
 40
1.0
  9
$DISPSILH
 70
     0
  9
$DIMSCALE
 40
1.0
  9
$DIMASZ
 40
0.18
  9
$DIMEXO
 40
0.0625
  9
$DIMDLI
 40
0.38
  9
$DIMRND
 40
0.0
  9
$DIMDLE
 40
0.0
  9
$DIMEXE
 40
0.18
  9
$DIMTP
 40
0.0
  9
$DIMTM
 40
0.0
  9
$DIMTXT
 40
0.18
  9
$DIMCEN
 40
0.09
  9
$DIMTSZ
 40
0.0
  9
$DIMTOL
 70
     0
  9
$DIMLIM
 70
     0
  9
$DIMTIH
 70
     1
  9
$DIMTOH
 70
     1
  9
$DIMSE1
 70
     0
  9
$DIMSE2
 70
     0
  9
$DIMTAD
 70
     0
  9
$DIMZIN
 70
     0
  9
$DIMBLK
  1

  9
$DIMASO
 70
     1
  9
$DIMSHO
 70
     1
  9
$DIMPOST
  1

  9
$DIMAPOST
  1

  9
$DIMALT
 70
     0
  9
$DIMALTD
 70
     2
  9
$DIMALTF
 40
25.4
  9
$DIMLFAC
 40
1.0
  9
$DIMTOFL
 70
     0
  9
$DIMTVP
 40
0.0
  9
$DIMTIX
 70
     0
  9
$DIMSOXD
 70
     0
  9
$DIMSAH
 70
     0
  9
$DIMBLK1
  1

  9
$DIMBLK2
  1

  9
$DIMSTYLE
  2
Standard
  9
$DIMCLRD
 70
     0
  9
$DIMCLRE
 70
     0
  9
$DIMCLRT
 70
     0
  9
$DIMTFAC
 40
1.0
  9
$DIMGAP
 40
0.09
  9
$DIMJUST
 70
     0
  9
$DIMSD1
 70
     0
  9
$DIMSD2
 70
     0
  9
$DIMTOLJ
 70
     1
  9
$DIMTZIN
 70
     0
  9
$DIMALTZ
 70
     0
  9
$DIMALTTZ
 70
     0
  9
$DIMUPT
 70
     0
  9
$DIMDEC
 70
     4
  9
$DIMTDEC
 70
     4
  9
$DIMALTU
 70
     2
  9
$DIMALTTD
 70
     2
  9
$DIMTXSTY
  7
Standard
  9
$DIMAUNIT
 70
     0
  9
$DIMADEC
 70
     0
  9
$DIMALTRND
 40
0.0
  9
$DIMAZIN
 70
     0
  9
$DIMDSEP
 70
    46
  9
$DIMATFIT
 70
     3
  9
$DIMFRAC
 70
     0
  9
$DIMLDRBLK
  1

  9
$DIMLUNIT
 70
     2
  9
$DIMLWD
 70
    -2
  9
$DIMLWE
 70
    -2
  9
$DIMTMOVE
 70
     0
  9
$DIMFXL
 40
1.0
  9
$DIMFXLON
 70
     0
  9
$DIMJOGANG
 40
0.7853981633974483
  9
$DIMTFILL
 70
     0
  9
$DIMTFILLCLR
 70
     0
  9
$DIMARCSYM
 70
     0
  9
$DIMLTYPE
  6

  9
$DIMLTEX1
  6

  9
$DIMLTEX2
  6

  9
$DIMTXTDIRECTION
 70
     0
  9
$LUNITS
 70
     2
  9
$LUPREC
 70
     4
  9
$SKETCHINC
 40
0.1
  9
$FILLETRAD
 40
0.5
  9
$AUNITS
 70
     0
  9
$AUPREC
 70
     0
  9
$MENU
  1
.
  9
$ELEVATION
 40
0.0
  9
$PELEVATION
 40
0.0
  9
$THICKNESS
 40
0.0
  9
$LIMCHECK
 70
     0
  9
$CHAMFERA
 40
0.5
  9
$CHAMFERB
 40
0.5
  9
$CHAMFERC
 40
1.0
  9
$CHAMFERD
 40
0.0
  9
$SKPOLY
 70
     0
  9
$TDCREATE
 40
2457917.584490729
  9
$TDUCREATE
 40
2457917.209490741
  9
$TDUPDATE
 40
2457917.584502303
  9
$TDUUPDATE
 40
2457917.209502315
  9
$TDINDWG
 40
0.0000000116
  9
$TDUSRTIMER
 40
0.0000000116
  9
$USRTIMER
 70
     1
  9
$ANGBASE
 50
0.0
  9
$ANGDIR
 70
     0
  9
$PDMODE
 70
     0
  9
$PDSIZE
 40
0.0
  9
$PLINEWID
 40
0.0
  9
$SPLFRAME
 70
     0
  9
$SPLINETYPE
 70
     6
  9
$SPLINESEGS
 70
     8
  9
$HANDSEED
  5
28C
  9
$SURFTAB1
 70
     6
  9
$SURFTAB2
 70
     6
  9
$SURFTYPE
 70
     6
  9
$SURFU
 70
     6
  9
$SURFV
 70
     6
  9
$UCSBASE
  2

  9
$UCSNAME
  2

  9
$UCSORG
 10
0.0
 20
0.0
 30
0.0
  9
$UCSXDIR
 10
1.0
 20
0.0
 30
0.0
  9
$UCSYDIR
 10
0.0
 20
1.0
 30
0.0
  9
$UCSORTHOREF
  2

  9
$UCSORTHOVIEW
 70
     0
  9
$UCSORGTOP
 10
0.0
 20
0.0
 30
0.0
  9
$UCSORGBOTTOM
 10
0.0
 20
0.0
 30
0.0
  9
$UCSORGLEFT
 10
0.0
 20
0.0
 30
0.0
  9
$UCSORGRIGHT
 10
0.0
 20
0.0
 30
0.0
  9
$UCSORGFRONT
 10
0.0
 20
0.0
 30
0.0
  9
$UCSORGBACK
 10
0.0
 20
0.0
 30
0.0
  9
$PUCSBASE
  2

  9
$PUCSNAME
  2

  9
$PUCSORG
 10
0.0
 20
0.0
 30
0.0
  9
$PUCSXDIR
 10
1.0
 20
0.0
 30
0.0
  9
$PUCSYDIR
 10
0.0
 20
1.0
 30
0.0
  9
$PUCSORTHOREF
  2

  9
$PUCSORTHOVIEW
 70
     0
  9
$PUCSORGTOP
 10
0.0
 20
0.0
 30
0.0
  9
$PUCSORGBOTTOM
 10
0.0
 20
0.0
 30
0.0
  9
$PUCSORGLEFT
 10
0.0
 20
0.0
 30
0.0
  9
$PUCSORGRIGHT
 10
0.0
 20
0.0
 30
0.0
  9
$PUCSORGFRONT
 10
0.0
 20
0.0
 30
0.0
  9
$PUCSORGBACK
 10
0.0
 20
0.0
 30
0.0
  9
$USERI1
 70
     0
  9
$USERI2
 70
     0
  9
$USERI3
 70
     0
  9
$USERI4
 70
     0
  9
$USERI5
 70
     0
  9
$USERR1
 40
0.0
  9
$USERR2
 40
0.0
  9
$USERR3
 40
0.0
  9
$USERR4
 40
0.0
  9
$USERR5
 40
0.0
  9
$WORLDVIEW
 70
     1
  9
$SHADEDGE
 70
     3
  9
$SHADEDIF
 70
    70
  9
$TILEMODE
 70
     1
  9
$MAXACTVP
 70
    64
  9
$PINSBASE
 10
0.0
 20
0.0
 30
0.0
  9
$PLIMCHECK
 70
     0
  9
$PEXTMIN
 10
1.000000000000000E+20
 20
1.000000000000000E+20
 30
1.000000000000000E+20
  9
$PEXTMAX
 10
-1.000000000000000E+20
 20
-1.000000000000000E+20
 30
-1.000000000000000E+20
  9
$PLIMMIN
 10
0.0
 20
0.0
  9
$PLIMMAX
 10
12.0
 20
9.0
  9
$UNITMODE
 70
     0
  9
$VISRETAIN
 70
     1
  9
$PLINEGEN
 70
     0
  9
$PSLTSCALE
 70
     1
  9
$TREEDEPTH
 70
  3020
  9
$CMLSTYLE
  2
Standard
  9
$CMLJUST
 70
     0
  9
$CMLSCALE
 40
1.0
  9
$PROXYGRAPHICS
 70
     1
  9
$MEASUREMENT
 70
     0
  9
$CELWEIGHT
370
    -1
  9
$ENDCAPS
280
     0
  9
$JOINSTYLE
280
     0
  9
$LWDISPLAY
290
     1
  9
$INSUNITS
 70
     1
  9
$HYPERLINKBASE
  1

  9
$STYLESHEET
  1

  9
$XEDIT
290
     1
  9
$CEPSNTYPE
380
     0
  9
$PSTYLEMODE
290
     1
  9
$FINGERPRINTGUID
  2
{66F2CEA3-466D-600D-9682-476A83AA8766}
  9
$VERSIONGUID
  2
{FAEB1C32-E019-11D5-929B-00C0DF256EC4}
  9
$EXTNAMES
290
     1
  9
$PSVPSCALE
 40
0.0
  9
$OLESTARTUP
290
     0
  9
$SORTENTS
280
   127
  9
$INDEXCTL
280
     0
  9
$HIDETEXT
280
     1
  9
$XCLIPFRAME
280
     2
  9
$HALOGAP
280
     0
  9
$OBSCOLOR
 70
   257
  9
$OBSLTYPE
280
     0
  9
$INTERSECTIONDISPLAY
280
     0
  9
$INTERSECTIONCOLOR
 70
   257
  9
$DIMASSOC
280
     2
  9
$PROJECTNAME
  1

  9
$CAMERADISPLAY
290
     0
  9
$LENSLENGTH
 40
50.0
  9
$CAMERAHEIGHT
 40
0.0
  9
$STEPSPERSEC
 40
2.0
  9
$STEPSIZE
 40
6.0
  9
$3DDWFPREC
 40
2.0
  9
$PSOLWIDTH
 40
0.25
  9
$PSOLHEIGHT
 40
4.0
  9
$LOFTANG1
 40
1.570796326794897
  9
$LOFTANG2
 40
1.570796326794897
  9
$LOFTMAG1
 40
0.0
  9
$LOFTMAG2
 40
0.0
  9
$LOFTPARAM
 70
     7
  9
$LOFTNORMALS
280
     1
  9
$LATITUDE
 40
37.795
  9
$LONGITUDE
 40
-122.394
  9
$NORTHDIRECTION
 40
0.0
  9
$TIMEZONE
 70
 -8000
  9
$LIGHTGLYPHDISPLAY
280
     1
  9
$TILEMODELIGHTSYNCH
280
     1
  9
$CMATERIAL
347
3C
  9
$SOLIDHIST
280
     1
  9
$SHOWHIST
280
     1
  9
$DWFFRAME
280
     2
  9
$DGNFRAME
280
     2
  9
$REALWORLDSCALE
290
     1
  9
$INTERFERECOLOR
 62
   256
  9
$CSHADOW
280
     0
  9
$SHADOWPLANELOCATION
 40
0.0
  0
ENDSEC
  0
SECTION
  2
CLASSES
  0
CLASS
  1
ACDBDICTIONARYWDFLT
  2
AcDbDictionaryWithDefault
  3
ObjectDBX Classes
 90
        0
 91
        4
280
     0
281
     0
  0
CLASS
  1
VISUALSTYLE
  2
AcDbVisualStyle
  3
ObjectDBX Classes
 90
     4095
 91
        4
280
     0
281
     0
  0
CLASS
  1
MATERIAL
  2
AcDbMaterial
  3
ObjectDBX Classes
 90
     1153
 91
        4
280
     0
281
     0
  0
CLASS
  1
SUN
  2
AcDbSun
  3
SCENEOE
 90
     1024
 91
        4
280
     0
281
     0
  0
ENDSEC
  0
SECTION
  2
TABLES
  0
TABLE
  2
VPORT
  5
8
330
0
100
AcDbSymbolTable
 70
     1
  0
VPORT
  5
29
330
8
100
AcDbSymbolTableRecord
100
AcDbViewportTableRecord
  2
*Active
 70
     0
 10
0.0
 20
0.0
 11
1.0
 21
1.0
 12
0.0
 22
0.0
 13
0.0
 23
0.0
 14
0.5
 24
0.5
 15
0.5
 25
0.5
 16
0.0
 26
0.0
 36
1.0
 17
63.499999984125
 27
-89.00059456108309
 37
0.0
 40
178.0011891221662
 41
0.7134783795241226
 42
50.0
 43
0.0
 44
0.0
 50
0.0
 51
0.0
 71
     0
 72
   100
 73
     1
 74
     3
 75
     0
 76
     0
 77
     0
 78
     0
281
     0
 65
     1
110
0.0
120
0.0
130
0.0
111
1.0
121
0.0
131
0.0
112
0.0
122
1.0
132
0.0
 79
     0
146
0.0
 60
     3
 61
     5
292
     1
282
     1
141
0.0
142
0.0
 63
   250
361
3F
  0
ENDTAB
  0
TABLE
  2
LTYPE
  5
5
330
0
100
AcDbSymbolTable
 70
     1
  0
LTYPE
  5
14
330
5
100
AcDbSymbolTableRecord
100
AcDbLinetypeTableRecord
  2
ByBlock
 70
     0
  3

 72
    65
 73
     0
 40
0.0
  0
LTYPE
  5
15
330
5
100
AcDbSymbolTableRecord
100
AcDbLinetypeTableRecord
  2
ByLayer
 70
     0
  3

 72
    65
 73
     0
 40
0.0
  0
LTYPE
  5
16
330
5
100
AcDbSymbolTableRecord
100
AcDbLinetypeTableRecord
  2
Continuous
 70
     0
  3
Solid line
 72
    65
 73
     0
 40
0.0
  0
ENDTAB
  0
TABLE
  2
LAYER
  5
2
330
0
100
AcDbSymbolTable
 70
     2
  0
LAYER
  5
10
330
2
100
AcDbSymbolTableRecord
100
AcDbLayerTableRecord
  2
0
 70
     0
 62
     7
  6
Continuous
370
    -3
390
F
347
3E
  0
LAYER
  5
40
330
2
100
AcDbSymbolTableRecord
100
AcDbLayerTableRecord
  2
_U+30EC_U+30A4_U+30E4_U+30FC 1
 70
     0
 62
     7
  6
Continuous
370
    -3
390
F
347
3E
  0
ENDTAB
  0
TABLE
  2
STYLE
  5
3
330
0
100
AcDbSymbolTable
 70
     1
  0
STYLE
  5
11
330
3
100
AcDbSymbolTableRecord
100
AcDbTextStyleTableRecord
  2
Standard
 70
     0
 40
0.0
 41
1.0
 50
0.0
 71
     0
 42
0.2
  3
txt
  4

  0
ENDTAB
  0
TABLE
  2
VIEW
  5
6
330
0
100
AcDbSymbolTable
 70
     0
  0
ENDTAB
  0
TABLE
  2
UCS
  5
7
330
0
100
AcDbSymbolTable
 70
     0
  0
ENDTAB
  0
TABLE
  2
APPID
  5
9
330
0
100
AcDbSymbolTable
 70
     1
  0
APPID
  5
12
330
9
100
AcDbSymbolTableRecord
100
AcDbRegAppTableRecord
  2
ACAD
 70
     0
  0
ENDTAB
  0
TABLE
  2
DIMSTYLE
  5
A
330
0
100
AcDbSymbolTable
 70
     1
100
AcDbDimStyleTable
  0
DIMSTYLE
105
27
330
A
100
AcDbSymbolTableRecord
100
AcDbDimStyleTableRecord
  2
Standard
 70
     0
178
     0
340
11
  0
ENDTAB
  0
TABLE
  2
BLOCK_RECORD
  5
1
330
0
100
AcDbSymbolTable
 70
    55
  0
BLOCK_RECORD
  5
1F
330
1
100
AcDbSymbolTableRecord
100
AcDbBlockTableRecord
  2
*Model_Space
340
22
 70
     0
280
     1
281
     0
  0
BLOCK_RECORD
  5
1B
330
1
100
AcDbSymbolTableRecord
100
AcDbBlockTableRecord
  2
*Paper_Space
340
1E
 70
     0
280
     1
281
     0
  0
BLOCK_RECORD
  5
23
330
1
100
AcDbSymbolTableRecord
100
AcDbBlockTableRecord
  2
*Paper_Space0
340
26
 70
     0
280
     1
281
     0
  0
BLOCK_RECORD
  5
C7
330
1
100
AcDbSymbolTableRecord
100
AcDbBlockTableRecord
  2
block 2
340
0
102
{BLKREFS
331
C8
102
}
 70
     0
280
     1
281
     0
  0
BLOCK_RECORD
  5
103
330
1
100
AcDbSymbolTableRecord
100
AcDbBlockTableRecord
  2
block 3
340
0
102
{BLKREFS
331
104
102
}
 70
     0
280
     1
281
     0
  0
BLOCK_RECORD
  5
113
330
1
100
AcDbSymbolTableRecord
100
AcDbBlockTableRecord
  2
block 4
340
0
102
{BLKREFS
331
114
102
}
 70
     0
280
     1
281
     0
  0
BLOCK_RECORD
  5
11B
330
1
100
AcDbSymbolTableRecord
100
AcDbBlockTableRecord
  2
block 5
340
0
102
{BLKREFS
331
11C
102
}
 70
     0
280
     1
281
     0
  0
BLOCK_RECORD
  5
120
330
1
100
AcDbSymbolTableRecord
100
AcDbBlockTableRecord
  2
block 6
340
0
102
{BLKREFS
331
121
102
}
 70
     0
280
     1
281
     0
  0
BLOCK_RECORD
  5
125
330
1
100
AcDbSymbolTableRecord
100
AcDbBlockTableRecord
  2
block 7
340
0
102
{BLKREFS
331
126
102
}
 70
     0
280
     1
281
     0
  0
BLOCK_RECORD
  5
12A
330
1
100
AcDbSymbolTableRecord
100
AcDbBlockTableRecord
  2
block 8
340
0
102
{BLKREFS
331
12B
102
}
 70
     0
280
     1
281
     0
  0
BLOCK_RECORD
  5
136
330
1
100
AcDbSymbolTableRecord
100
AcDbBlockTableRecord
  2
block 9
340
0
102
{BLKREFS
331
137
102
}
 70
     0
280
     1
281
     0
  0
BLOCK_RECORD
  5
13F
330
1
100
AcDbSymbolTableRecord
100
AcDbBlockTableRecord
  2
block 10
340
0
102
{BLKREFS
331
140
102
}
 70
     0
280
     1
281
     0
  0
BLOCK_RECORD
  5
144
330
1
100
AcDbSymbolTableRecord
100
AcDbBlockTableRecord
  2
block 11
340
0
102
{BLKREFS
331
145
102
}
 70
     0
280
     1
281
     0
  0
BLOCK_RECORD
  5
149
330
1
100
AcDbSymbolTableRecord
100
AcDbBlockTableRecord
  2
block 12
340
0
102
{BLKREFS
331
14A
102
}
 70
     0
280
     1
281
     0
  0
BLOCK_RECORD
  5
14E
330
1
100
AcDbSymbolTableRecord
100
AcDbBlockTableRecord
  2
block 13
340
0
102
{BLKREFS
331
14F
102
}
 70
     0
280
     1
281
     0
  0
BLOCK_RECORD
  5
15A
330
1
100
AcDbSymbolTableRecord
100
AcDbBlockTableRecord
  2
block 14
340
0
102
{BLKREFS
331
15B
102
}
 70
     0
280
     1
281
     0
  0
BLOCK_RECORD
  5
162
330
1
100
AcDbSymbolTableRecord
100
AcDbBlockTableRecord
  2
block 15
340
0
102
{BLKREFS
331
163
102
}
 70
     0
280
     1
281
     0
  0
BLOCK_RECORD
  5
167
330
1
100
AcDbSymbolTableRecord
100
AcDbBlockTableRecord
  2
block 16
340
0
102
{BLKREFS
331
168
102
}
 70
     0
280
     1
281
     0
  0
BLOCK_RECORD
  5
16C
330
1
100
AcDbSymbolTableRecord
100
AcDbBlockTableRecord
  2
block 17
340
0
102
{BLKREFS
331
16D
102
}
 70
     0
280
     1
281
     0
  0
BLOCK_RECORD
  5
171
330
1
100
AcDbSymbolTableRecord
100
AcDbBlockTableRecord
  2
block 18
340
0
102
{BLKREFS
331
172
102
}
 70
     0
280
     1
281
     0
  0
BLOCK_RECORD
  5
185
330
1
100
AcDbSymbolTableRecord
100
AcDbBlockTableRecord
  2
block 19
340
0
102
{BLKREFS
331
186
102
}
 70
     0
280
     1
281
     0
  0
BLOCK_RECORD
  5
195
330
1
100
AcDbSymbolTableRecord
100
AcDbBlockTableRecord
  2
block 20
340
0
102
{BLKREFS
331
196
102
}
 70
     0
280
     1
281
     0
  0
BLOCK_RECORD
  5
19A
330
1
100
AcDbSymbolTableRecord
100
AcDbBlockTableRecord
  2
block 21
340
0
102
{BLKREFS
331
19B
102
}
 70
     0
280
     1
281
     0
  0
BLOCK_RECORD
  5
19F
330
1
100
AcDbSymbolTableRecord
100
AcDbBlockTableRecord
  2
block 22
340
0
102
{BLKREFS
331
1A0
102
}
 70
     0
280
     1
281
     0
  0
BLOCK_RECORD
  5
1A4
330
1
100
AcDbSymbolTableRecord
100
AcDbBlockTableRecord
  2
block 23
340
0
102
{BLKREFS
331
1A5
102
}
 70
     0
280
     1
281
     0
  0
BLOCK_RECORD
  5
1B4
330
1
100
AcDbSymbolTableRecord
100
AcDbBlockTableRecord
  2
block 24
340
0
102
{BLKREFS
331
1B5
102
}
 70
     0
280
     1
281
     0
  0
BLOCK_RECORD
  5
1BC
330
1
100
AcDbSymbolTableRecord
100
AcDbBlockTableRecord
  2
block 25
340
0
102
{BLKREFS
331
1BD
102
}
 70
     0
280
     1
281
     0
  0
BLOCK_RECORD
  5
1C1
330
1
100
AcDbSymbolTableRecord
100
AcDbBlockTableRecord
  2
block 26
340
0
102
{BLKREFS
331
1C2
102
}
 70
     0
280
     1
281
     0
  0
BLOCK_RECORD
  5
1C6
330
1
100
AcDbSymbolTableRecord
100
AcDbBlockTableRecord
  2
block 27
340
0
102
{BLKREFS
331
1C7
102
}
 70
     0
280
     1
281
     0
  0
BLOCK_RECORD
  5
1CB
330
1
100
AcDbSymbolTableRecord
100
AcDbBlockTableRecord
  2
block 28
340
0
102
{BLKREFS
331
1CC
102
}
 70
     0
280
     1
281
     0
  0
BLOCK_RECORD
  5
1D7
330
1
100
AcDbSymbolTableRecord
100
AcDbBlockTableRecord
  2
block 29
340
0
102
{BLKREFS
331
1D8
102
}
 70
     0
280
     1
281
     0
  0
BLOCK_RECORD
  5
1DE
330
1
100
AcDbSymbolTableRecord
100
AcDbBlockTableRecord
  2
block 30
340
0
102
{BLKREFS
331
1DF
102
}
 70
     0
280
     1
281
     0
  0
BLOCK_RECORD
  5
1E3
330
1
100
AcDbSymbolTableRecord
100
AcDbBlockTableRecord
  2
block 31
340
0
102
{BLKREFS
331
1E4
102
}
 70
     0
280
     1
281
     0
  0
BLOCK_RECORD
  5
1E8
330
1
100
AcDbSymbolTableRecord
100
AcDbBlockTableRecord
  2
block 32
340
0
102
{BLKREFS
331
1E9
102
}
 70
     0
280
     1
281
     0
  0
BLOCK_RECORD
  5
1ED
330
1
100
AcDbSymbolTableRecord
100
AcDbBlockTableRecord
  2
block 33
340
0
102
{BLKREFS
331
1EE
102
}
 70
     0
280
     1
281
     0
  0
BLOCK_RECORD
  5
1F9
330
1
100
AcDbSymbolTableRecord
100
AcDbBlockTableRecord
  2
block 34
340
0
102
{BLKREFS
331
1FA
102
}
 70
     0
280
     1
281
     0
  0
BLOCK_RECORD
  5
200
330
1
100
AcDbSymbolTableRecord
100
AcDbBlockTableRecord
  2
block 35
340
0
102
{BLKREFS
331
201
102
}
 70
     0
280
     1
281
     0
  0
BLOCK_RECORD
  5
205
330
1
100
AcDbSymbolTableRecord
100
AcDbBlockTableRecord
  2
block 36
340
0
102
{BLKREFS
331
206
102
}
 70
     0
280
     1
281
     0
  0
BLOCK_RECORD
  5
20A
330
1
100
AcDbSymbolTableRecord
100
AcDbBlockTableRecord
  2
block 37
340
0
102
{BLKREFS
331
20B
102
}
 70
     0
280
     1
281
     0
  0
BLOCK_RECORD
  5
20F
330
1
100
AcDbSymbolTableRecord
100
AcDbBlockTableRecord
  2
block 38
340
0
102
{BLKREFS
331
210
102
}
 70
     0
280
     1
281
     0
  0
BLOCK_RECORD
  5
21F
330
1
100
AcDbSymbolTableRecord
100
AcDbBlockTableRecord
  2
block 39
340
0
102
{BLKREFS
331
220
102
}
 70
     0
280
     1
281
     0
  0
BLOCK_RECORD
  5
225
330
1
100
AcDbSymbolTableRecord
100
AcDbBlockTableRecord
  2
block 40
340
0
102
{BLKREFS
331
226
102
}
 70
     0
280
     1
281
     0
  0
BLOCK_RECORD
  5
22A
330
1
100
AcDbSymbolTableRecord
100
AcDbBlockTableRecord
  2
block 41
340
0
102
{BLKREFS
331
22B
102
}
 70
     0
280
     1
281
     0
  0
BLOCK_RECORD
  5
22F
330
1
100
AcDbSymbolTableRecord
100
AcDbBlockTableRecord
  2
block 42
340
0
102
{BLKREFS
331
230
102
}
 70
     0
280
     1
281
     0
  0
BLOCK_RECORD
  5
234
330
1
100
AcDbSymbolTableRecord
100
AcDbBlockTableRecord
  2
block 43
340
0
102
{BLKREFS
331
235
102
}
 70
     0
280
     1
281
     0
  0
BLOCK_RECORD
  5
244
330
1
100
AcDbSymbolTableRecord
100
AcDbBlockTableRecord
  2
block 44
340
0
102
{BLKREFS
331
245
102
}
 70
     0
280
     1
281
     0
  0
BLOCK_RECORD
  5
24A
330
1
100
AcDbSymbolTableRecord
100
AcDbBlockTableRecord
  2
block 45
340
0
102
{BLKREFS
331
24B
102
}
 70
     0
280
     1
281
     0
  0
BLOCK_RECORD
  5
24F
330
1
100
AcDbSymbolTableRecord
100
AcDbBlockTableRecord
  2
block 46
340
0
102
{BLKREFS
331
250
102
}
 70
     0
280
     1
281
     0
  0
BLOCK_RECORD
  5
254
330
1
100
AcDbSymbolTableRecord
100
AcDbBlockTableRecord
  2
block 47
340
0
102
{BLKREFS
331
255
102
}
 70
     0
280
     1
281
     0
  0
BLOCK_RECORD
  5
259
330
1
100
AcDbSymbolTableRecord
100
AcDbBlockTableRecord
  2
block 48
340
0
102
{BLKREFS
331
25A
102
}
 70
     0
280
     1
281
     0
  0
BLOCK_RECORD
  5
25D
330
1
100
AcDbSymbolTableRecord
100
AcDbBlockTableRecord
  2
block 49
340
0
102
{BLKREFS
331
25E
102
}
 70
     0
280
     1
281
     0
  0
BLOCK_RECORD
  5
262
330
1
100
AcDbSymbolTableRecord
100
AcDbBlockTableRecord
  2
block 50
340
0
102
{BLKREFS
331
263
102
}
 70
     0
280
     1
281
     0
  0
BLOCK_RECORD
  5
267
330
1
100
AcDbSymbolTableRecord
100
AcDbBlockTableRecord
  2
block 51
340
0
102
{BLKREFS
331
268
102
}
 70
     0
280
     1
281
     0
  0
BLOCK_RECORD
  5
273
330
1
100
AcDbSymbolTableRecord
100
AcDbBlockTableRecord
  2
block 52
340
0
102
{BLKREFS
331
274
102
}
 70
     0
280
     1
281
     0
  0
BLOCK_RECORD
  5
27B
330
1
100
AcDbSymbolTableRecord
100
AcDbBlockTableRecord
  2
block 53
340
0
102
{BLKREFS
331
27C
102
}
 70
     0
280
     1
281
     0
  0
BLOCK_RECORD
  5
280
330
1
100
AcDbSymbolTableRecord
100
AcDbBlockTableRecord
  2
block 54
340
0
102
{BLKREFS
331
281
102
}
 70
     0
280
     1
281
     0
  0
BLOCK_RECORD
  5
285
330
1
100
AcDbSymbolTableRecord
100
AcDbBlockTableRecord
  2
block 55
340
0
102
{BLKREFS
331
286
102
}
 70
     0
280
     1
281
     0
  0
ENDTAB
  0
ENDSEC
  0
SECTION
  2
BLOCKS
  0
BLOCK
  5
20
330
1F
100
AcDbEntity
  8
0
100
AcDbBlockBegin
  2
*Model_Space
 70
     0
 10
0.0
 20
0.0
 30
0.0
  3
*Model_Space
  1

  0
ENDBLK
  5
21
330
1F
100
AcDbEntity
  8
0
100
AcDbBlockEnd
  0
BLOCK
  5
1C
330
1B
100
AcDbEntity
 67
     1
  8
0
100
AcDbBlockBegin
  2
*Paper_Space
 70
     0
 10
0.0
 20
0.0
 30
0.0
  3
*Paper_Space
  1

  0
ENDBLK
  5
1D
330
1B
100
AcDbEntity
 67
     1
  8
0
100
AcDbBlockEnd
  0
BLOCK
  5
24
330
23
100
AcDbEntity
  8
0
100
AcDbBlockBegin
  2
*Paper_Space0
 70
     0
 10
0.0
 20
0.0
 30
0.0
  3
*Paper_Space0
  1

  0
ENDBLK
  5
25
330
23
100
AcDbEntity
  8
0
100
AcDbBlockEnd
  0
BLOCK
  5
C9
330
C7
100
AcDbEntity
  8
0
100
AcDbBlockBegin
  2
block 2
 70
     0
 10
0.0
 20
0.0
 30
0.0
  3
block 2
  1

  0
SPLINE
  5
CB
330
C7
100
AcDbEntity
  8
_U+30EC_U+30A4_U+30E4_U+30FC 1
370
     0
100
AcDbSpline
210
0.0
220
0.0
230
1.0
 70
    11
 71
     3
 72
   197
 73
   193
 74
     0
 42
0.0000000001
 43
0.0000000001
 12
1.0
 22
0.0
 32
0.0
 13
1.0
 23
0.0
 33
0.0
 40
0.0
 40
0.0
 40
0.0
 40
0.0
 40
1.0
 40
1.0
 40
1.0
 40
2.0
 40
2.0
 40
2.0
 40
3.0
 40
3.0
 40
3.0
 40
4.0
 40
4.0
 40
4.0
 40
5.0
 40
5.0
 40
5.0
 40
6.0
 40
6.0
 40
6.0
 40
7.0
 40
7.0
 40
7.0
 40
8.0
 40
8.0
 40
8.0
 40
9.0
 40
9.0
 40
9.0
 40
10.0
 40
10.0
 40
10.0
 40
11.0
 40
11.0
 40
11.0
 40
12.0
 40
12.0
 40
12.0
 40
13.0
 40
13.0
 40
13.0
 40
14.0
 40
14.0
 40
14.0
 40
15.0
 40
15.0
 40
15.0
 40
16.0
 40
16.0
 40
16.0
 40
17.0
 40
17.0
 40
17.0
 40
18.0
 40
18.0
 40
18.0
 40
19.0
 40
19.0
 40
19.0
 40
20.0
 40
20.0
 40
20.0
 40
21.0
 40
21.0
 40
21.0
 40
22.0
 40
22.0
 40
22.0
 40
23.0
 40
23.0
 40
23.0
 40
24.0
 40
24.0
 40
24.0
 40
25.0
 40
25.0
 40
25.0
 40
26.0
 40
26.0
 40
26.0
 40
27.0
 40
27.0
 40
27.0
 40
28.0
 40
28.0
 40
28.0
 40
29.0
 40
29.0
 40
29.0
 40
30.0
 40
30.0
 40
30.0
 40
31.0
 40
31.0
 40
31.0
 40
32.0
 40
32.0
 40
32.0
 40
33.0
 40
33.0
 40
33.0
 40
34.0
 40
34.0
 40
34.0
 40
35.0
 40
35.0
 40
35.0
 40
36.0
 40
36.0
 40
36.0
 40
37.0
 40
37.0
 40
37.0
 40
38.0
 40
38.0
 40
38.0
 40
39.0
 40
39.0
 40
39.0
 40
40.0
 40
40.0
 40
40.0
 40
41.0
 40
41.0
 40
41.0
 40
42.0
 40
42.0
 40
42.0
 40
43.0
 40
43.0
 40
43.0
 40
44.0
 40
44.0
 40
44.0
 40
45.0
 40
45.0
 40
45.0
 40
46.0
 40
46.0
 40
46.0
 40
47.0
 40
47.0
 40
47.0
 40
48.0
 40
48.0
 40
48.0
 40
49.0
 40
49.0
 40
49.0
 40
50.0
 40
50.0
 40
50.0
 40
51.0
 40
51.0
 40
51.0
 40
52.0
 40
52.0
 40
52.0
 40
53.0
 40
53.0
 40
53.0
 40
54.0
 40
54.0
 40
54.0
 40
55.0
 40
55.0
 40
55.0
 40
56.0
 40
56.0
 40
56.0
 40
57.0
 40
57.0
 40
57.0
 40
58.0
 40
58.0
 40
58.0
 40
59.0
 40
59.0
 40
59.0
 40
60.0
 40
60.0
 40
60.0
 40
61.0
 40
61.0
 40
61.0
 40
62.0
 40
62.0
 40
62.0
 40
63.0
 40
63.0
 40
63.0
 40
64.0
 40
64.0
 40
64.0
 40
64.0
 10
63.03422307451923
 20
-90.39723847566458
 30
0.0
 10
63.0228542594179
 20
-90.42686629683773
 30
0.0
 10
62.9980495719241
 20
-90.4733750858886
 30
0.0
 10
62.98668075682278
 20
-90.5009358497706
 30
0.0
 10
62.98668075682278
 20
-90.5009358497706
 30
0.0
 10
62.92105168782876
 20
-90.65320907021865
 30
0.0
 10
62.92105168782876
 20
-90.65320907021865
 30
0.0
 10
62.90985512750171
 20
-90.6787027768095
 30
0.0
 10
62.85783418567443
 20
-90.79066838008012
 30
0.0
 10
62.84422605850769
 20
-90.81409502937981
 30
0.0
 10
62.84198674644228
 20
-90.82029620125326
 30
0.0
 10
62.83750812231146
 20
-90.82890893996638
 30
0.0
 10
62.83526881024605
 20
-90.83511011183984
 30
0.0
 10
62.83526881024605
 20
-90.83511011183984
 30
0.0
 10
62.6113376037048
 20
-90.782055641367
 30
0.0
 10
62.6113376037048
 20
-90.782055641367
 30
0.0
 10
62.69505342399638
 20
-90.67215709538752
 30
0.0
 10
62.76051023821613
 20
-90.5367648428172
 30
0.0
 10
62.79444442874583
 20
-90.42686629683773
 30
0.0
 10
62.79444442874583
 20
-90.42686629683773
 30
0.0
 10
62.29714489545002
 20
-90.42686629683773
 30
0.0
 10
62.29714489545002
 20
-90.42686629683773
 30
0.0
 10
62.21118976309304
 20
-90.5918863705812
 30
0.0
 10
62.13884275790279
 20
-90.67009003809638
 30
0.0
 10
62.10266925530767
 20
-90.7103976552738
 30
0.0
 10
62.10266925530767
 20
-90.7103976552738
 30
0.0
 10
61.97158337209391
 20
-90.64459633150553
 30
0.0
 10
61.97158337209391
 20
-90.64459633150553
 30
0.0
 10
61.97158337209391
 20
-90.64459633150553
 30
0.0
 10
61.97158337209391
 20
-90.81616208667096
 30
0.0
 10
61.97158337209391
 20
-90.81616208667096
 30
0.0
 10
61.97158337209391
 20
-90.92399357535929
 30
0.0
 10
61.97382268415932
 20
-90.97256942170131
 30
0.0
 10
61.98519149926065
 20
-91.07833385309847
 30
0.0
 10
61.90819361516532
 20
-91.07626679580733
 30
0.0
 10
61.88562823973693
 20
-91.07626679580733
 30
0.0
 10
61.66634791210078
 20
-91.07626679580733
 30
0.0
 10
61.66634791210078
 20
-91.07626679580733
 30
0.0
 10
61.60760903407726
 20
-91.07626679580733
 30
0.0
 10
61.60760903407726
 20
-91.07626679580733
 30
0.0
 10
61.60760903407726
 20
-91.07626679580733
 30
0.0
 10
61.60760903407726
 20
-91.21165904837764
 30
0.0
 10
61.60760903407726
 20
-91.21165904837764
 30
0.0
 10
61.60760903407726
 20
-91.21165904837764
 30
0.0
 10
61.68443466339834
 20
-91.21165904837764
 30
0.0
 10
61.68443466339834
 20
-91.21165904837764
 30
0.0
 10
61.75454235652317
 20
-91.21165904837764
 30
0.0
 10
61.91043292723073
 20
-91.20752493379534
 30
0.0
 10
62.02360431392118
 20
-91.19891219508222
 30
0.0
 10
62.02360431392118
 20
-91.19891219508222
 30
0.0
 10
62.02360431392118
 20
-91.37667912212112
 30
0.0
 10
62.02360431392118
 20
-91.37667912212112
 30
0.0
 10
61.91956243026664
 20
-91.37047795024766
 30
0.0
 10
61.75006373239235
 20
-91.36599932611684
 30
0.0
 10
61.68443466339834
 20
-91.36599932611684
 30
0.0
 10
61.68443466339834
 20
-91.36599932611684
 30
0.0
 10
61.60760903407726
 20
-91.36599932611684
 30
0.0
 10
61.60760903407726
 20
-91.36599932611684
 30
0.0
 10
61.60984834614268
 20
-91.45488278963629
 30
0.0
 10
61.6143269702735
 20
-91.69397241631262
 30
0.0
 10
61.61656628233892
 20
-91.76804196924549
 30
0.0
 10
61.61656628233892
 20
-91.76804196924549
 30
0.0
 10
61.40176457883359
 20
-91.76804196924549
 30
0.0
 10
61.40176457883359
 20
-91.76804196924549
 30
0.0
 10
61.41537270600033
 20
-91.55444604916
 30
0.0
 10
61.41537270600033
 20
-91.52481822798686
 30
0.0
 10
61.41985133013115
 20
-91.36599932611684
 30
0.0
 10
61.41985133013115
 20
-91.36599932611684
 30
0.0
 10
61.34526501287549
 20
-91.36599932611684
 30
0.0
 10
61.34526501287549
 20
-91.36599932611684
 30
0.0
 10
61.28428682278657
 20
-91.36599932611684
 30
0.0
 10
61.12150606110851
 20
-91.37047795024766
 30
0.0
 10
61.00385605028723
 20
-91.37667912212112
 30
0.0
 10
61.00385605028723
 20
-91.37667912212112
 30
0.0
 10
61.00385605028723
 20
-91.19891219508222
 30
0.0
 10
61.00385605028723
 20
-91.19891219508222
 30
0.0
 10
61.11702743697769
 20
-91.20752493379534
 30
0.0
 10
61.27067869561984
 20
-91.21165904837764
 30
0.0
 10
61.34526501287549
 20
-91.21165904837764
 30
0.0
 10
61.34526501287549
 20
-91.21165904837764
 30
0.0
 10
61.42450220903624
 20
-91.21165904837764
 30
0.0
 10
61.42450220903624
 20
-91.21165904837764
 30
0.0
 10
61.42450220903624
 20
-91.21165904837764
 30
0.0
 10
61.42450220903624
 20
-91.07626679580733
 30
0.0
 10
61.42450220903624
 20
-91.07626679580733
 30
0.0
 10
61.42450220903624
 20
-91.07626679580733
 30
0.0
 10
61.37695989133979
 20
-91.07626679580733
 30
0.0
 10
61.37695989133979
 20
-91.07626679580733
 30
0.0
 10
61.29548338311363
 20
-91.07626679580733
 30
0.0
 10
61.08981118264422
 20
-91.07833385309847
 30
0.0
 10
61.05363768004909
 20
-91.07833385309847
 30
0.0
 10
61.06035561624533
 20
-91.00633135745676
 30
0.0
 10
61.06948511928124
 20
-90.92606063265043
 30
0.0
 10
61.06948511928124
 20
-90.80548229066669
 30
0.0
 10
61.06948511928124
 20
-90.80548229066669
 30
0.0
 10
61.06948511928124
 20
-90.6318494782101
 30
0.0
 10
61.06948511928124
 20
-90.6318494782101
 30
0.0
 10
61.06948511928124
 20
-90.5601914921169
 30
0.0
 10
61.06035561624533
 20
-90.43961315013316
 30
0.0
 10
61.05363768004909
 20
-90.3589979157783
 30
0.0
 10
61.13735350034067
 20
-90.36347653990913
 30
0.0
 10
61.17800562706661
 20
-90.36554359720029
 30
0.0
 10
61.31357013441119
 20
-90.36554359720029
 30
0.0
 10
61.31357013441119
 20
-90.36554359720029
 30
0.0
 10
61.42450220903624
 20
-90.36554359720029
 30
0.0
 10
61.42450220903624
 20
-90.36554359720029
 30
0.0
 10
61.42450220903624
 20
-90.36554359720029
 30
0.0
 10
61.42450220903624
 20
-90.21947154862569
 30
0.0
 10
61.42450220903624
 20
-90.21947154862569
 30
0.0
 10
61.42450220903624
 20
-90.21947154862569
 30
0.0
 10
61.34078638874467
 20
-90.21947154862569
 30
0.0
 10
61.34078638874467
 20
-90.21947154862569
 30
0.0
 10
61.28204751072116
 20
-90.21947154862569
 30
0.0
 10
61.09894068568013
 20
-90.22360566320799
 30
0.0
 10
61.00850692919232
 20
-90.23015134462996
 30
0.0
 10
61.00850692919232
 20
-90.23015134462996
 30
0.0
 10
61.00850692919232
 20
-90.05238441759107
 30
0.0
 10
61.00850692919232
 20
-90.05238441759107
 30
0.0
 10
61.09652911884045
 20
-90.05858558946453
 30
0.0
 10
61.27067869561984
 20
-90.06306421359535
 30
0.0
 10
61.34078638874467
 20
-90.06306421359535
 30
0.0
 10
61.34078638874467
 20
-90.06306421359535
 30
0.0
 10
61.42450220903624
 20
-90.06306421359535
 30
0.0
 10
61.42450220903624
 20
-90.06306421359535
 30
0.0
 10
61.42450220903624
 20
-90.02895776829138
 30
0.0
 10
61.41985133013115
 20
-89.87461749055218
 30
0.0
 10
61.41985133013115
 20
-89.84292261208789
 30
0.0
 10
61.41985133013115
 20
-89.84292261208789
 30
0.0
 10
61.63017440950566
 20
-89.85980357996561
 30
0.0
 10
61.63017440950566
 20
-89.85980357996561
 30
0.0
 10
61.64826116080322
 20
-89.86187063725676
 30
0.0
 10
61.6708265362316
 20
-89.86393769454791
 30
0.0
 10
61.6708265362316
 20
-89.88529728655645
 30
0.0
 10
61.6708265362316
 20
-89.90837942630763
 30
0.0
 10
61.64826116080322
 20
-89.91699216502076
 30
0.0
 10
61.61880559440433
 20
-89.92973901831618
 30
0.0
 10
61.61880559440433
 20
-89.95075410077621
 30
0.0
 10
61.61656628233892
 20
-90.04618324571763
 30
0.0
 10
61.61656628233892
 20
-90.06306421359535
 30
0.0
 10
61.61656628233892
 20
-90.06306421359535
 30
0.0
 10
61.67995603926752
 20
-90.06306421359535
 30
0.0
 10
61.67995603926752
 20
-90.06306421359535
 30
0.0
 10
61.75230304445776
 20
-90.06306421359535
 30
0.0
 10
61.9059543030999
 20
-90.05858558946453
 30
0.0
 10
62.0189534350161
 20
-90.05238441759107
 30
0.0
 10
62.0189534350161
 20
-90.05238441759107
 30
0.0
 10
62.0189534350161
 20
-90.23015134462996
 30
0.0
 10
62.0189534350161
 20
-90.23015134462996
 30
0.0
 10
61.91508380613582
 20
-90.22360566320799
 30
0.0
 10
61.74765216555267
 20
-90.21947154862569
 30
0.0
 10
61.67995603926752
 20
-90.21947154862569
 30
0.0
 10
61.67995603926752
 20
-90.21947154862569
 30
0.0
 10
61.60760903407726
 20
-90.21947154862569
 30
0.0
 10
61.60760903407726
 20
-90.21947154862569
 30
0.0
 10
61.60760903407726
 20
-90.21947154862569
 30
0.0
 10
61.60760903407726
 20
-90.36554359720029
 30
0.0
 10
61.60760903407726
 20
-90.36554359720029
 30
0.0
 10
61.60760903407726
 20
-90.36554359720029
 30
0.0
 10
61.68219535133293
 20
-90.36554359720029
 30
0.0
 10
61.68219535133293
 20
-90.36554359720029
 30
0.0
 10
61.84273680094557
 20
-90.36554359720029
 30
0.0
 10
61.91956243026664
 20
-90.36106497306946
 30
0.0
 10
61.98519149926065
 20
-90.3589979157783
 30
0.0
 10
61.97606199622474
 20
-90.45442706071974
 30
0.0
 10
61.97382268415932
 20
-90.5326307282349
 30
0.0
 10
61.97158337209391
 20
-90.57052677857266
 30
0.0
 10
62.13660344583738
 20
-90.3589979157783
 30
0.0
 10
62.24960257775358
 20
-90.11164005993737
 30
0.0
 10
62.26768932905114
 20
-89.84912378396133
 30
0.0
 10
62.26768932905114
 20
-89.84912378396133
 30
0.0
 10
62.49833847178861
 20
-89.90011119714303
 30
0.0
 10
62.49833847178861
 20
-89.90011119714303
 30
0.0
 10
62.51418591102076
 20
-89.90424531172533
 30
0.0
 10
62.53003335025291
 20
-89.9107909931473
 30
0.0
 10
62.53003335025291
 20
-89.92767196102503
 30
0.0
 10
62.53003335025291
 20
-89.94455292890275
 30
0.0
 10
62.52538247134783
 20
-89.94661998619391
 30
0.0
 10
62.47112221745514
 20
-89.96763506865393
 30
0.0
 10
62.45303546615758
 20
-90.04377167887795
 30
0.0
 10
62.42599146659837
 20
-90.13472219968854
 30
0.0
 10
62.3739705247711
 20
-90.26184622309427
 30
0.0
 10
62.3739705247711
 20
-90.26184622309427
 30
0.0
 10
62.73570555072233
 20
-90.26184622309427
 30
0.0
 10
62.73570555072233
 20
-90.26184622309427
 30
0.0
 10
62.77635767744827
 20
-90.26184622309427
 30
0.0
 10
62.91433375163253
 20
-90.25771210851197
 30
0.0
 10
62.96635469345981
 20
-90.25116642708998
 30
0.0
 10
62.96635469345981
 20
-90.25116642708998
 30
0.0
 10
63.06574569820926
 20
-90.32110186544057
 30
0.0
 10
63.06574569820926
 20
-90.32110186544057
 30
0.0
 10
63.05678844994761
 20
-90.34211694790059
 30
0.0
 10
63.04989825897711
 20
-90.36106497306946
 30
0.0
 10
63.03422307451923
 20
-90.39723847566458
 30
0.0
  0
POLYLINE
  5
CC
330
C7
100
AcDbEntity
  8
_U+30EC_U+30A4_U+30E4_U+30FC 1
370
     0
100
AcDb2dPolyline
 66
     1
 10
0.0
 20
0.0
 30
0.0
  0
VERTEX
  5
CD
330
CC
100
AcDbEntity
  8
_U+30EC_U+30A4_U+30E4_U+30FC 1
370
     0
100
AcDbVertex
100
AcDb2dVertex
 10
61.42450220903624
 20
-90.52195093223062
 30
0.0
  0
VERTEX
  5
CE
330
CC
100
AcDbEntity
  8
_U+30EC_U+30A4_U+30E4_U+30FC 1
370
     0
100
AcDbVertex
100
AcDb2dVertex
 10
61.25483125638768
 20
-90.52195093223062
 30
0.0
  0
VERTEX
  5
CF
330
CC
100
AcDbEntity
  8
_U+30EC_U+30A4_U+30E4_U+30FC 1
370
     0
100
AcDbVertex
100
AcDb2dVertex
 10
61.25483125638768
 20
-90.6511420129275
 30
0.0
  0
VERTEX
  5
D0
330
CC
100
AcDbEntity
  8
_U+30EC_U+30A4_U+30E4_U+30FC 1
370
     0
100
AcDbVertex
100
AcDb2dVertex
 10
61.42450220903624
 20
-90.6511420129275
 30
0.0
  0
VERTEX
  5
D1
330
CC
100
AcDbEntity
  8
_U+30EC_U+30A4_U+30E4_U+30FC 1
370
     0
100
AcDbVertex
100
AcDb2dVertex
 10
61.42450220903624
 20
-90.52195093223062
 30
0.0
  0
SEQEND
  5
D2
330
CC
100
AcDbEntity
  8
_U+30EC_U+30A4_U+30E4_U+30FC 1
370
     0
  0
POLYLINE
  5
D3
330
C7
100
AcDbEntity
  8
_U+30EC_U+30A4_U+30E4_U+30FC 1
370
     0
100
AcDb2dPolyline
 66
     1
 10
0.0
 20
0.0
 30
0.0
  0
VERTEX
  5
D4
330
D3
100
AcDbEntity
  8
_U+30EC_U+30A4_U+30E4_U+30FC 1
370
     0
100
AcDbVertex
100
AcDb2dVertex
 10
61.42450220903624
 20
-90.79480249466242
 30
0.0
  0
VERTEX
  5
D5
330
D3
100
AcDbEntity
  8
_U+30EC_U+30A4_U+30E4_U+30FC 1
370
     0
100
AcDbVertex
100
AcDb2dVertex
 10
61.25483125638768
 20
-90.79480249466242
 30
0.0
  0
VERTEX
  5
D6
330
D3
100
AcDbEntity
  8
_U+30EC_U+30A4_U+30E4_U+30FC 1
370
     0
100
AcDbVertex
100
AcDb2dVertex
 10
61.25483125638768
 20
-90.92399357535929
 30
0.0
  0
VERTEX
  5
D7
330
D3
100
AcDbEntity
  8
_U+30EC_U+30A4_U+30E4_U+30FC 1
370
     0
100
AcDbVertex
100
AcDb2dVertex
 10
61.42450220903624
 20
-90.92399357535929
 30
0.0
  0
VERTEX
  5
D8
330
D3
100
AcDbEntity
  8
_U+30EC_U+30A4_U+30E4_U+30FC 1
370
     0
100
AcDbVertex
100
AcDb2dVertex
 10
61.42450220903624
 20
-90.79480249466242
 30
0.0
  0
SEQEND
  5
D9
330
D3
100
AcDbEntity
  8
_U+30EC_U+30A4_U+30E4_U+30FC 1
370
     0
  0
POLYLINE
  5
DA
330
C7
100
AcDbEntity
  8
_U+30EC_U+30A4_U+30E4_U+30FC 1
370
     0
100
AcDb2dPolyline
 66
     1
 10
0.0
 20
0.0
 30
0.0
  0
VERTEX
  5
DB
330
DA
100
AcDbEntity
  8
_U+30EC_U+30A4_U+30E4_U+30FC 1
370
     0
100
AcDbVertex
100
AcDb2dVertex
 10
61.77934704401697
 20
-90.52195093223062
 30
0.0
  0
VERTEX
  5
DC
330
DA
100
AcDbEntity
  8
_U+30EC_U+30A4_U+30E4_U+30FC 1
370
     0
100
AcDbVertex
100
AcDb2dVertex
 10
61.60760903407726
 20
-90.52195093223062
 30
0.0
  0
VERTEX
  5
DD
330
DA
100
AcDbEntity
  8
_U+30EC_U+30A4_U+30E4_U+30FC 1
370
     0
100
AcDbVertex
100
AcDb2dVertex
 10
61.60760903407726
 20
-90.6511420129275
 30
0.0
  0
VERTEX
  5
DE
330
DA
100
AcDbEntity
  8
_U+30EC_U+30A4_U+30E4_U+30FC 1
370
     0
100
AcDbVertex
100
AcDb2dVertex
 10
61.77934704401697
 20
-90.6511420129275
 30
0.0
  0
VERTEX
  5
DF
330
DA
100
AcDbEntity
  8
_U+30EC_U+30A4_U+30E4_U+30FC 1
370
     0
100
AcDbVertex
100
AcDb2dVertex
 10
61.77934704401697
 20
-90.52195093223062
 30
0.0
  0
SEQEND
  5
E0
330
DA
100
AcDbEntity
  8
_U+30EC_U+30A4_U+30E4_U+30FC 1
370
     0
  0
POLYLINE
  5
E1
330
C7
100
AcDbEntity
  8
_U+30EC_U+30A4_U+30E4_U+30FC 1
370
     0
100
AcDb2dPolyline
 66
     1
 10
0.0
 20
0.0
 30
0.0
  0
VERTEX
  5
E2
330
E1
100
AcDbEntity
  8
_U+30EC_U+30A4_U+30E4_U+30FC 1
370
     0
100
AcDbVertex
100
AcDb2dVertex
 10
61.77934704401697
 20
-90.79480249466242
 30
0.0
  0
VERTEX
  5
E3
330
E1
100
AcDbEntity
  8
_U+30EC_U+30A4_U+30E4_U+30FC 1
370
     0
100
AcDbVertex
100
AcDb2dVertex
 10
61.60760903407726
 20
-90.79480249466242
 30
0.0
  0
VERTEX
  5
E4
330
E1
100
AcDbEntity
  8
_U+30EC_U+30A4_U+30E4_U+30FC 1
370
     0
100
AcDbVertex
100
AcDb2dVertex
 10
61.60760903407726
 20
-90.92399357535929
 30
0.0
  0
VERTEX
  5
E5
330
E1
100
AcDbEntity
  8
_U+30EC_U+30A4_U+30E4_U+30FC 1
370
     0
100
AcDbVertex
100
AcDb2dVertex
 10
61.77934704401697
 20
-90.92399357535929
 30
0.0
  0
VERTEX
  5
E6
330
E1
100
AcDbEntity
  8
_U+30EC_U+30A4_U+30E4_U+30FC 1
370
     0
100
AcDbVertex
100
AcDb2dVertex
 10
61.77934704401697
 20
-90.79480249466242
 30
0.0
  0
SEQEND
  5
E7
330
E1
100
AcDbEntity
  8
_U+30EC_U+30A4_U+30E4_U+30FC 1
370
     0
  0
SPLINE
  5
E8
330
C7
100
AcDbEntity
  8
_U+30EC_U+30A4_U+30E4_U+30FC 1
370
     0
100
AcDbSpline
210
0.0
220
0.0
230
1.0
 70
    11
 71
     3
 72
    41
 73
    37
 74
     0
 42
0.0000000001
 43
0.0000000001
 12
1.0
 22
0.0
 32
0.0
 13
1.0
 23
0.0
 33
0.0
 40
0.0
 40
0.0
 40
0.0
 40
0.0
 40
1.0
 40
1.0
 40
1.0
 40
2.0
 40
2.0
 40
2.0
 40
3.0
 40
3.0
 40
3.0
 40
4.0
 40
4.0
 40
4.0
 40
5.0
 40
5.0
 40
5.0
 40
6.0
 40
6.0
 40
6.0
 40
7.0
 40
7.0
 40
7.0
 40
8.0
 40
8.0
 40
8.0
 40
9.0
 40
9.0
 40
9.0
 40
10.0
 40
10.0
 40
10.0
 40
11.0
 40
11.0
 40
11.0
 40
12.0
 40
12.0
 40
12.0
 40
12.0
 10
62.94378931803141
 20
-91.75322805865892
 30
0.0
 10
62.68592392096047
 20
-91.6178358060886
 30
0.0
 10
62.4960991597232
 20
-91.32155759435712
 30
0.0
 10
62.45303546615758
 20
-91.19271102320877
 30
0.0
 10
62.32418889500924
 20
-91.45694984692743
 30
0.0
 10
62.15021157300411
 20
-91.63471677396633
 30
0.0
 10
61.95573593286176
 20
-91.74909394407662
 30
0.0
 10
61.95573593286176
 20
-91.74909394407662
 30
0.0
 10
61.74541285348726
 20
-91.61163463421515
 30
0.0
 10
61.74541285348726
 20
-91.61163463421515
 30
0.0
 10
61.81999917074292
 20
-91.5861409276243
 30
0.0
 10
61.97606199622474
 20
-91.52481822798686
 30
0.0
 10
62.10714787943849
 20
-91.37047795024766
 30
0.0
 10
62.24064532949193
 20
-91.2137261056688
 30
0.0
 10
62.33555771011056
 20
-90.98118216041443
 30
0.0
 10
62.33555771011056
 20
-90.72073294172954
 30
0.0
 10
62.33555771011056
 20
-90.6194471344632
 30
0.0
 10
62.32194958294382
 20
-90.54744463882147
 30
0.0
 10
62.31075302261676
 20
-90.5009358497706
 30
0.0
 10
62.31075302261676
 20
-90.5009358497706
 30
0.0
 10
62.53003335025291
 20
-90.52195093223062
 30
0.0
 10
62.53003335025291
 20
-90.52195093223062
 30
0.0
 10
62.5525987256813
 20
-90.52401798952178
 30
0.0
 10
62.57516410110969
 20
-90.52608504681292
 30
0.0
 10
62.57516410110969
 20
-90.54744463882147
 30
0.0
 10
62.57516410110969
 20
-90.56639266399036
 30
0.0
 10
62.56396754078262
 20
-90.57500540270348
 30
0.0
 10
62.5277940381875
 20
-90.59602048516349
 30
0.0
 10
62.51866453515159
 20
-90.79686955195356
 30
0.0
 10
62.57964272524051
 20
-91.04043780276074
 30
0.0
 10
62.64527179423452
 20
-91.16101614474447
 30
0.0
 10
62.74242348691856
 20
-91.33637150494368
 30
0.0
 10
62.95050725422765
 20
-91.51620548927373
 30
0.0
 10
63.09520126460815
 20
-91.57339407432887
 30
0.0
 10
63.09520126460815
 20
-91.57339407432887
 30
0.0
 10
62.94378931803141
 20
-91.75322805865892
 30
0.0
 10
62.94378931803141
 20
-91.75322805865892
 30
0.0
  0
HATCH
  5
E9
330
C7
100
AcDbEntity
  8
_U+30EC_U+30A4_U+30E4_U+30FC 1
 62
   179
420
  2234388
100
AcDbHatch
 10
0.0
 20
0.0
 30
0.0
210
0.0
220
0.0
230
1.0
  2
SOLID
 70
     1
 71
     0
 91
        6
 92
        1
 93
        1
 72
     4
 94
        3
 73
     0
 74
     1
 95
      197
 96
      193
 40
0.0
 40
0.0
 40
0.0
 40
0.0
 40
1.0
 40
1.0
 40
1.0
 40
2.0
 40
2.0
 40
2.0
 40
3.0
 40
3.0
 40
3.0
 40
4.0
 40
4.0
 40
4.0
 40
5.0
 40
5.0
 40
5.0
 40
6.0
 40
6.0
 40
6.0
 40
7.0
 40
7.0
 40
7.0
 40
8.0
 40
8.0
 40
8.0
 40
9.0
 40
9.0
 40
9.0
 40
10.0
 40
10.0
 40
10.0
 40
11.0
 40
11.0
 40
11.0
 40
12.0
 40
12.0
 40
12.0
 40
13.0
 40
13.0
 40
13.0
 40
14.0
 40
14.0
 40
14.0
 40
15.0
 40
15.0
 40
15.0
 40
16.0
 40
16.0
 40
16.0
 40
17.0
 40
17.0
 40
17.0
 40
18.0
 40
18.0
 40
18.0
 40
19.0
 40
19.0
 40
19.0
 40
20.0
 40
20.0
 40
20.0
 40
21.0
 40
21.0
 40
21.0
 40
22.0
 40
22.0
 40
22.0
 40
23.0
 40
23.0
 40
23.0
 40
24.0
 40
24.0
 40
24.0
 40
25.0
 40
25.0
 40
25.0
 40
26.0
 40
26.0
 40
26.0
 40
27.0
 40
27.0
 40
27.0
 40
28.0
 40
28.0
 40
28.0
 40
29.0
 40
29.0
 40
29.0
 40
30.0
 40
30.0
 40
30.0
 40
31.0
 40
31.0
 40
31.0
 40
32.0
 40
32.0
 40
32.0
 40
33.0
 40
33.0
 40
33.0
 40
34.0
 40
34.0
 40
34.0
 40
35.0
 40
35.0
 40
35.0
 40
36.0
 40
36.0
 40
36.0
 40
37.0
 40
37.0
 40
37.0
 40
38.0
 40
38.0
 40
38.0
 40
39.0
 40
39.0
 40
39.0
 40
40.0
 40
40.0
 40
40.0
 40
41.0
 40
41.0
 40
41.0
 40
42.0
 40
42.0
 40
42.0
 40
43.0
 40
43.0
 40
43.0
 40
44.0
 40
44.0
 40
44.0
 40
45.0
 40
45.0
 40
45.0
 40
46.0
 40
46.0
 40
46.0
 40
47.0
 40
47.0
 40
47.0
 40
48.0
 40
48.0
 40
48.0
 40
49.0
 40
49.0
 40
49.0
 40
50.0
 40
50.0
 40
50.0
 40
51.0
 40
51.0
 40
51.0
 40
52.0
 40
52.0
 40
52.0
 40
53.0
 40
53.0
 40
53.0
 40
54.0
 40
54.0
 40
54.0
 40
55.0
 40
55.0
 40
55.0
 40
56.0
 40
56.0
 40
56.0
 40
57.0
 40
57.0
 40
57.0
 40
58.0
 40
58.0
 40
58.0
 40
59.0
 40
59.0
 40
59.0
 40
60.0
 40
60.0
 40
60.0
 40
61.0
 40
61.0
 40
61.0
 40
62.0
 40
62.0
 40
62.0
 40
63.0
 40
63.0
 40
63.0
 40
64.0
 40
64.0
 40
64.0
 40
64.0
 10
63.03422307451923
 20
-90.39723847566458
 10
63.0228542594179
 20
-90.42686629683773
 10
62.9980495719241
 20
-90.4733750858886
 10
62.98668075682278
 20
-90.5009358497706
 10
62.98668075682278
 20
-90.5009358497706
 10
62.92105168782876
 20
-90.65320907021865
 10
62.92105168782876
 20
-90.65320907021865
 10
62.90985512750171
 20
-90.6787027768095
 10
62.85783418567443
 20
-90.79066838008012
 10
62.84422605850769
 20
-90.81409502937981
 10
62.84198674644228
 20
-90.82029620125326
 10
62.83750812231146
 20
-90.82890893996638
 10
62.83526881024605
 20
-90.83511011183984
 10
62.83526881024605
 20
-90.83511011183984
 10
62.6113376037048
 20
-90.782055641367
 10
62.6113376037048
 20
-90.782055641367
 10
62.69505342399638
 20
-90.67215709538752
 10
62.76051023821613
 20
-90.5367648428172
 10
62.79444442874583
 20
-90.42686629683773
 10
62.79444442874583
 20
-90.42686629683773
 10
62.29714489545002
 20
-90.42686629683773
 10
62.29714489545002
 20
-90.42686629683773
 10
62.21118976309304
 20
-90.5918863705812
 10
62.13884275790279
 20
-90.67009003809638
 10
62.10266925530767
 20
-90.7103976552738
 10
62.10266925530767
 20
-90.7103976552738
 10
61.97158337209391
 20
-90.64459633150553
 10
61.97158337209391
 20
-90.64459633150553
 10
61.97158337209391
 20
-90.64459633150553
 10
61.97158337209391
 20
-90.81616208667096
 10
61.97158337209391
 20
-90.81616208667096
 10
61.97158337209391
 20
-90.92399357535929
 10
61.97382268415932
 20
-90.97256942170131
 10
61.98519149926065
 20
-91.07833385309847
 10
61.90819361516532
 20
-91.07626679580733
 10
61.88562823973693
 20
-91.07626679580733
 10
61.66634791210078
 20
-91.07626679580733
 10
61.66634791210078
 20
-91.07626679580733
 10
61.60760903407726
 20
-91.07626679580733
 10
61.60760903407726
 20
-91.07626679580733
 10
61.60760903407726
 20
-91.07626679580733
 10
61.60760903407726
 20
-91.21165904837764
 10
61.60760903407726
 20
-91.21165904837764
 10
61.60760903407726
 20
-91.21165904837764
 10
61.68443466339834
 20
-91.21165904837764
 10
61.68443466339834
 20
-91.21165904837764
 10
61.75454235652317
 20
-91.21165904837764
 10
61.91043292723073
 20
-91.20752493379534
 10
62.02360431392118
 20
-91.19891219508222
 10
62.02360431392118
 20
-91.19891219508222
 10
62.02360431392118
 20
-91.37667912212112
 10
62.02360431392118
 20
-91.37667912212112
 10
61.91956243026664
 20
-91.37047795024766
 10
61.75006373239235
 20
-91.36599932611684
 10
61.68443466339834
 20
-91.36599932611684
 10
61.68443466339834
 20
-91.36599932611684
 10
61.60760903407726
 20
-91.36599932611684
 10
61.60760903407726
 20
-91.36599932611684
 10
61.60984834614268
 20
-91.45488278963629
 10
61.6143269702735
 20
-91.69397241631262
 10
61.61656628233892
 20
-91.76804196924549
 10
61.61656628233892
 20
-91.76804196924549
 10
61.40176457883359
 20
-91.76804196924549
 10
61.40176457883359
 20
-91.76804196924549
 10
61.41537270600033
 20
-91.55444604916
 10
61.41537270600033
 20
-91.52481822798686
 10
61.41985133013115
 20
-91.36599932611684
 10
61.41985133013115
 20
-91.36599932611684
 10
61.34526501287549
 20
-91.36599932611684
 10
61.34526501287549
 20
-91.36599932611684
 10
61.28428682278657
 20
-91.36599932611684
 10
61.12150606110851
 20
-91.37047795024766
 10
61.00385605028723
 20
-91.37667912212112
 10
61.00385605028723
 20
-91.37667912212112
 10
61.00385605028723
 20
-91.19891219508222
 10
61.00385605028723
 20
-91.19891219508222
 10
61.11702743697769
 20
-91.20752493379534
 10
61.27067869561984
 20
-91.21165904837764
 10
61.34526501287549
 20
-91.21165904837764
 10
61.34526501287549
 20
-91.21165904837764
 10
61.42450220903624
 20
-91.21165904837764
 10
61.42450220903624
 20
-91.21165904837764
 10
61.42450220903624
 20
-91.21165904837764
 10
61.42450220903624
 20
-91.07626679580733
 10
61.42450220903624
 20
-91.07626679580733
 10
61.42450220903624
 20
-91.07626679580733
 10
61.37695989133979
 20
-91.07626679580733
 10
61.37695989133979
 20
-91.07626679580733
 10
61.29548338311363
 20
-91.07626679580733
 10
61.08981118264422
 20
-91.07833385309847
 10
61.05363768004909
 20
-91.07833385309847
 10
61.06035561624533
 20
-91.00633135745676
 10
61.06948511928124
 20
-90.92606063265043
 10
61.06948511928124
 20
-90.80548229066669
 10
61.06948511928124
 20
-90.80548229066669
 10
61.06948511928124
 20
-90.6318494782101
 10
61.06948511928124
 20
-90.6318494782101
 10
61.06948511928124
 20
-90.5601914921169
 10
61.06035561624533
 20
-90.43961315013316
 10
61.05363768004909
 20
-90.3589979157783
 10
61.13735350034067
 20
-90.36347653990913
 10
61.17800562706661
 20
-90.36554359720029
 10
61.31357013441119
 20
-90.36554359720029
 10
61.31357013441119
 20
-90.36554359720029
 10
61.42450220903624
 20
-90.36554359720029
 10
61.42450220903624
 20
-90.36554359720029
 10
61.42450220903624
 20
-90.36554359720029
 10
61.42450220903624
 20
-90.21947154862569
 10
61.42450220903624
 20
-90.21947154862569
 10
61.42450220903624
 20
-90.21947154862569
 10
61.34078638874467
 20
-90.21947154862569
 10
61.34078638874467
 20
-90.21947154862569
 10
61.28204751072116
 20
-90.21947154862569
 10
61.09894068568013
 20
-90.22360566320799
 10
61.00850692919232
 20
-90.23015134462996
 10
61.00850692919232
 20
-90.23015134462996
 10
61.00850692919232
 20
-90.05238441759107
 10
61.00850692919232
 20
-90.05238441759107
 10
61.09652911884045
 20
-90.05858558946453
 10
61.27067869561984
 20
-90.06306421359535
 10
61.34078638874467
 20
-90.06306421359535
 10
61.34078638874467
 20
-90.06306421359535
 10
61.42450220903624
 20
-90.06306421359535
 10
61.42450220903624
 20
-90.06306421359535
 10
61.42450220903624
 20
-90.02895776829138
 10
61.41985133013115
 20
-89.87461749055218
 10
61.41985133013115
 20
-89.84292261208789
 10
61.41985133013115
 20
-89.84292261208789
 10
61.63017440950566
 20
-89.85980357996561
 10
61.63017440950566
 20
-89.85980357996561
 10
61.64826116080322
 20
-89.86187063725676
 10
61.6708265362316
 20
-89.86393769454791
 10
61.6708265362316
 20
-89.88529728655645
 10
61.6708265362316
 20
-89.90837942630763
 10
61.64826116080322
 20
-89.91699216502076
 10
61.61880559440433
 20
-89.92973901831618
 10
61.61880559440433
 20
-89.95075410077621
 10
61.61656628233892
 20
-90.04618324571763
 10
61.61656628233892
 20
-90.06306421359535
 10
61.61656628233892
 20
-90.06306421359535
 10
61.67995603926752
 20
-90.06306421359535
 10
61.67995603926752
 20
-90.06306421359535
 10
61.75230304445776
 20
-90.06306421359535
 10
61.9059543030999
 20
-90.05858558946453
 10
62.0189534350161
 20
-90.05238441759107
 10
62.0189534350161
 20
-90.05238441759107
 10
62.0189534350161
 20
-90.23015134462996
 10
62.0189534350161
 20
-90.23015134462996
 10
61.91508380613582
 20
-90.22360566320799
 10
61.74765216555267
 20
-90.21947154862569
 10
61.67995603926752
 20
-90.21947154862569
 10
61.67995603926752
 20
-90.21947154862569
 10
61.60760903407726
 20
-90.21947154862569
 10
61.60760903407726
 20
-90.21947154862569
 10
61.60760903407726
 20
-90.21947154862569
 10
61.60760903407726
 20
-90.36554359720029
 10
61.60760903407726
 20
-90.36554359720029
 10
61.60760903407726
 20
-90.36554359720029
 10
61.68219535133293
 20
-90.36554359720029
 10
61.68219535133293
 20
-90.36554359720029
 10
61.84273680094557
 20
-90.36554359720029
 10
61.91956243026664
 20
-90.36106497306946
 10
61.98519149926065
 20
-90.3589979157783
 10
61.97606199622474
 20
-90.45442706071974
 10
61.97382268415932
 20
-90.5326307282349
 10
61.97158337209391
 20
-90.57052677857266
 10
62.13660344583738
 20
-90.3589979157783
 10
62.24960257775358
 20
-90.11164005993737
 10
62.26768932905114
 20
-89.84912378396133
 10
62.26768932905114
 20
-89.84912378396133
 10
62.49833847178861
 20
-89.90011119714303
 10
62.49833847178861
 20
-89.90011119714303
 10
62.51418591102076
 20
-89.90424531172533
 10
62.53003335025291
 20
-89.9107909931473
 10
62.53003335025291
 20
-89.92767196102503
 10
62.53003335025291
 20
-89.94455292890275
 10
62.52538247134783
 20
-89.94661998619391
 10
62.47112221745514
 20
-89.96763506865393
 10
62.45303546615758
 20
-90.04377167887795
 10
62.42599146659837
 20
-90.13472219968854
 10
62.3739705247711
 20
-90.26184622309427
 10
62.3739705247711
 20
-90.26184622309427
 10
62.73570555072233
 20
-90.26184622309427
 10
62.73570555072233
 20
-90.26184622309427
 10
62.77635767744827
 20
-90.26184622309427
 10
62.91433375163253
 20
-90.25771210851197
 10
62.96635469345981
 20
-90.25116642708998
 10
62.96635469345981
 20
-90.25116642708998
 10
63.06574569820926
 20
-90.32110186544057
 10
63.06574569820926
 20
-90.32110186544057
 10
63.05678844994761
 20
-90.34211694790059
 10
63.04989825897711
 20
-90.36106497306946
 10
63.03422307451923
 20
-90.39723847566458
 97
        0
 97
        0
 92
        1
 93
        4
 72
     1
 10
61.42450220903624
 20
-90.52195093223062
 11
61.25483125638768
 21
-90.52195093223062
 72
     1
 10
61.25483125638768
 20
-90.52195093223062
 11
61.25483125638768
 21
-90.6511420129275
 72
     1
 10
61.25483125638768
 20
-90.6511420129275
 11
61.42450220903624
 21
-90.6511420129275
 72
     1
 10
61.42450220903624
 20
-90.6511420129275
 11
61.42450220903624
 21
-90.52195093223062
 97
        0
 92
        1
 93
        4
 72
     1
 10
61.42450220903624
 20
-90.79480249466242
 11
61.25483125638768
 21
-90.79480249466242
 72
     1
 10
61.25483125638768
 20
-90.79480249466242
 11
61.25483125638768
 21
-90.92399357535929
 72
     1
 10
61.25483125638768
 20
-90.92399357535929
 11
61.42450220903624
 21
-90.92399357535929
 72
     1
 10
61.42450220903624
 20
-90.92399357535929
 11
61.42450220903624
 21
-90.79480249466242
 97
        0
 92
        1
 93
        4
 72
     1
 10
61.77934704401697
 20
-90.52195093223062
 11
61.60760903407726
 21
-90.52195093223062
 72
     1
 10
61.60760903407726
 20
-90.52195093223062
 11
61.60760903407726
 21
-90.6511420129275
 72
     1
 10
61.60760903407726
 20
-90.6511420129275
 11
61.77934704401697
 21
-90.6511420129275
 72
     1
 10
61.77934704401697
 20
-90.6511420129275
 11
61.77934704401697
 21
-90.52195093223062
 97
        0
 92
        1
 93
        4
 72
     1
 10
61.77934704401697
 20
-90.79480249466242
 11
61.60760903407726
 21
-90.79480249466242
 72
     1
 10
61.60760903407726
 20
-90.79480249466242
 11
61.60760903407726
 21
-90.92399357535929
 72
     1
 10
61.60760903407726
 20
-90.92399357535929
 11
61.77934704401697
 21
-90.92399357535929
 72
     1
 10
61.77934704401697
 20
-90.92399357535929
 11
61.77934704401697
 21
-90.79480249466242
 97
        0
 92
        1
 93
        1
 72
     4
 94
        3
 73
     0
 74
     1
 95
       41
 96
       37
 40
0.0
 40
0.0
 40
0.0
 40
0.0
 40
1.0
 40
1.0
 40
1.0
 40
2.0
 40
2.0
 40
2.0
 40
3.0
 40
3.0
 40
3.0
 40
4.0
 40
4.0
 40
4.0
 40
5.0
 40
5.0
 40
5.0
 40
6.0
 40
6.0
 40
6.0
 40
7.0
 40
7.0
 40
7.0
 40
8.0
 40
8.0
 40
8.0
 40
9.0
 40
9.0
 40
9.0
 40
10.0
 40
10.0
 40
10.0
 40
11.0
 40
11.0
 40
11.0
 40
12.0
 40
12.0
 40
12.0
 40
12.0
 10
62.94378931803141
 20
-91.75322805865892
 10
62.68592392096047
 20
-91.6178358060886
 10
62.4960991597232
 20
-91.32155759435712
 10
62.45303546615758
 20
-91.19271102320877
 10
62.32418889500924
 20
-91.45694984692743
 10
62.15021157300411
 20
-91.63471677396633
 10
61.95573593286176
 20
-91.74909394407662
 10
61.95573593286176
 20
-91.74909394407662
 10
61.74541285348726
 20
-91.61163463421515
 10
61.74541285348726
 20
-91.61163463421515
 10
61.81999917074292
 20
-91.5861409276243
 10
61.97606199622474
 20
-91.52481822798686
 10
62.10714787943849
 20
-91.37047795024766
 10
62.24064532949193
 20
-91.2137261056688
 10
62.33555771011056
 20
-90.98118216041443
 10
62.33555771011056
 20
-90.72073294172954
 10
62.33555771011056
 20
-90.6194471344632
 10
62.32194958294382
 20
-90.54744463882147
 10
62.31075302261676
 20
-90.5009358497706
 10
62.31075302261676
 20
-90.5009358497706
 10
62.53003335025291
 20
-90.52195093223062
 10
62.53003335025291
 20
-90.52195093223062
 10
62.5525987256813
 20
-90.52401798952178
 10
62.57516410110969
 20
-90.52608504681292
 10
62.57516410110969
 20
-90.54744463882147
 10
62.57516410110969
 20
-90.56639266399036
 10
62.56396754078262
 20
-90.57500540270348
 10
62.5277940381875
 20
-90.59602048516349
 10
62.51866453515159
 20
-90.79686955195356
 10
62.57964272524051
 20
-91.04043780276074
 10
62.64527179423452
 20
-91.16101614474447
 10
62.74242348691856
 20
-91.33637150494368
 10
62.95050725422765
 20
-91.51620548927373
 10
63.09520126460815
 20
-91.57339407432887
 10
63.09520126460815
 20
-91.57339407432887
 10
62.94378931803141
 20
-91.75322805865892
 10
62.94378931803141
 20
-91.75322805865892
 97
        0
 97
        0
 75
     2
 76
     1
 98
        0
  0
SPLINE
  5
EA
330
C7
100
AcDbEntity
  8
_U+30EC_U+30A4_U+30E4_U+30FC 1
370
     0
100
AcDbSpline
210
0.0
220
0.0
230
1.0
 70
    11
 71
     3
 72
    71
 73
    67
 74
     0
 42
0.0000000001
 43
0.0000000001
 12
1.0
 22
0.0
 32
0.0
 13
1.0
 23
0.0
 33
0.0
 40
0.0
 40
0.0
 40
0.0
 40
0.0
 40
1.0
 40
1.0
 40
1.0
 40
2.0
 40
2.0
 40
2.0
 40
3.0
 40
3.0
 40
3.0
 40
4.0
 40
4.0
 40
4.0
 40
5.0
 40
5.0
 40
5.0
 40
6.0
 40
6.0
 40
6.0
 40
7.0
 40
7.0
 40
7.0
 40
8.0
 40
8.0
 40
8.0
 40
9.0
 40
9.0
 40
9.0
 40
10.0
 40
10.0
 40
10.0
 40
11.0
 40
11.0
 40
11.0
 40
12.0
 40
12.0
 40
12.0
 40
13.0
 40
13.0
 40
13.0
 40
14.0
 40
14.0
 40
14.0
 40
15.0
 40
15.0
 40
15.0
 40
16.0
 40
16.0
 40
16.0
 40
17.0
 40
17.0
 40
17.0
 40
18.0
 40
18.0
 40
18.0
 40
19.0
 40
19.0
 40
19.0
 40
20.0
 40
20.0
 40
20.0
 40
21.0
 40
21.0
 40
21.0
 40
22.0
 40
22.0
 40
22.0
 40
22.0
 10
64.22002494054222
 20
-90.02068953912678
 30
0.0
 10
64.20417750131007
 20
-90.02068953912678
 30
0.0
 10
64.19074162891759
 20
-90.01655542454448
 30
0.0
 10
64.16352537458413
 20
-90.00794268583135
 30
0.0
 10
64.01228568278165
 20
-90.05445147488223
 30
0.0
 10
63.82676729090095
 20
-90.07133244275995
 30
0.0
 10
63.67759465638963
 20
-90.07546655734225
 30
0.0
 10
63.67759465638963
 20
-90.07546655734225
 30
0.0
 10
63.67535534432422
 20
-90.16435002086169
 30
0.0
 10
63.67535534432422
 20
-90.16435002086169
 30
0.0
 10
63.67535534432422
 20
-90.16435002086169
 30
0.0
 10
63.95337454998388
 20
-90.16435002086169
 30
0.0
 10
63.95337454998388
 20
-90.16435002086169
 30
0.0
 10
64.00987411594198
 20
-90.16435002086169
 30
0.0
 10
64.20417750131007
 20
-90.15608179169709
 30
0.0
 10
64.25171981900652
 20
-90.14953611027512
 30
0.0
 10
64.25171981900652
 20
-90.14953611027512
 30
0.0
 10
64.25171981900652
 20
-90.31042206943629
 30
0.0
 10
64.25171981900652
 20
-90.31042206943629
 30
0.0
 10
64.19315319575728
 20
-90.30422089756284
 30
0.0
 10
64.05948349092958
 20
-90.30215384027169
 30
0.0
 10
64.01883136420363
 20
-90.30422089756284
 30
0.0
 10
64.01883136420363
 20
-90.30422089756284
 30
0.0
 10
64.01883136420363
 20
-90.4141194435423
 30
0.0
 10
64.01883136420363
 20
-90.4141194435423
 30
0.0
 10
64.01883136420363
 20
-90.46062823259318
 30
0.0
 10
64.0212429310433
 20
-90.52401798952178
 30
0.0
 10
64.0281331220138
 20
-90.56225854940806
 30
0.0
 10
64.0281331220138
 20
-90.56225854940806
 30
0.0
 10
63.82228866677013
 20
-90.56225854940806
 30
0.0
 10
63.82228866677013
 20
-90.56225854940806
 30
0.0
 10
63.82900660296636
 20
-90.52195093223062
 30
0.0
 10
63.83589679393686
 20
-90.43961315013316
 30
0.0
 10
63.83589679393686
 20
-90.42479923954659
 30
0.0
 10
63.83589679393686
 20
-90.42479923954659
 30
0.0
 10
63.83589679393686
 20
-90.30422089756284
 30
0.0
 10
63.83589679393686
 20
-90.30422089756284
 30
0.0
 10
63.83589679393686
 20
-90.30422089756284
 30
0.0
 10
63.65950790509207
 20
-90.30422089756284
 30
0.0
 10
63.65950790509207
 20
-90.30422089756284
 30
0.0
 10
63.61420489946104
 20
-90.52401798952178
 30
0.0
 10
63.55546602143752
 20
-90.60463322387662
 30
0.0
 10
63.44246688952133
 20
-90.70385197385181
 30
0.0
 10
63.44246688952133
 20
-90.70385197385181
 30
0.0
 10
63.26383868861112
 20
-90.58981931329005
 30
0.0
 10
63.26383868861112
 20
-90.58981931329005
 30
0.0
 10
63.33170706967055
 20
-90.5408989573995
 30
0.0
 10
63.49224851928319
 20
-90.42893335412889
 30
0.0
 10
63.49224851928319
 20
-90.07994518147308
 30
0.0
 10
63.49224851928319
 20
-89.99726288982708
 30
0.0
 10
63.48311901624728
 20
-89.95075410077621
 30
0.0
 10
63.47416176798563
 20
-89.90217825443418
 30
0.0
 10
63.63005233869318
 20
-89.91699216502076
 30
0.0
 10
63.64589977792534
 20
-89.91699216502076
 30
0.0
 10
63.68431259258587
 20
-89.91699216502076
 30
0.0
 10
63.79972329134174
 20
-89.91699216502076
 30
0.0
 10
63.95096298314421
 20
-89.90011119714303
 30
0.0
 10
64.12287324785818
 20
-89.83878849750559
 30
0.0
 10
64.12287324785818
 20
-89.83878849750559
 30
0.0
 10
64.24517413758454
 20
-89.96970212594508
 30
0.0
 10
64.24517413758454
 20
-89.96970212594508
 30
0.0
 10
64.25171981900652
 20
-89.97624780736706
 30
0.0
 10
64.25619844313734
 20
-89.98451603653166
 30
0.0
 10
64.25619844313734
 20
-89.99312877524478
 30
0.0
 10
64.25619844313734
 20
-90.01655542454448
 30
0.0
 10
64.23587237977436
 20
-90.02068953912678
 30
0.0
 10
64.22002494054222
 20
-90.02068953912678
 30
0.0
  0
SPLINE
  5
EB
330
C7
100
AcDbEntity
  8
_U+30EC_U+30A4_U+30E4_U+30FC 1
370
     0
100
AcDbSpline
210
0.0
220
0.0
230
1.0
 70
    11
 71
     3
 72
    74
 73
    70
 74
     0
 42
0.0000000001
 43
0.0000000001
 12
1.0
 22
0.0
 32
0.0
 13
1.0
 23
0.0
 33
0.0
 40
0.0
 40
0.0
 40
0.0
 40
0.0
 40
1.0
 40
1.0
 40
1.0
 40
2.0
 40
2.0
 40
2.0
 40
3.0
 40
3.0
 40
3.0
 40
4.0
 40
4.0
 40
4.0
 40
5.0
 40
5.0
 40
5.0
 40
6.0
 40
6.0
 40
6.0
 40
7.0
 40
7.0
 40
7.0
 40
8.0
 40
8.0
 40
8.0
 40
9.0
 40
9.0
 40
9.0
 40
10.0
 40
10.0
 40
10.0
 40
11.0
 40
11.0
 40
11.0
 40
12.0
 40
12.0
 40
12.0
 40
13.0
 40
13.0
 40
13.0
 40
14.0
 40
14.0
 40
14.0
 40
15.0
 40
15.0
 40
15.0
 40
16.0
 40
16.0
 40
16.0
 40
17.0
 40
17.0
 40
17.0
 40
18.0
 40
18.0
 40
18.0
 40
19.0
 40
19.0
 40
19.0
 40
20.0
 40
20.0
 40
20.0
 40
21.0
 40
21.0
 40
21.0
 40
22.0
 40
22.0
 40
22.0
 40
23.0
 40
23.0
 40
23.0
 40
23.0
 10
65.11540525715866
 20
-91.78698999441437
 30
0.0
 10
64.88699542648659
 20
-91.77665470795861
 30
0.0
 10
64.67236597775552
 20
-91.68983830173032
 30
0.0
 10
64.4846082738094
 20
-91.56925995974657
 30
0.0
 10
64.4846082738094
 20
-91.56925995974657
 30
0.0
 10
64.58865015746395
 20
-91.48244355351828
 30
0.0
 10
64.58865015746395
 20
-91.48244355351828
 30
0.0
 10
64.58865015746395
 20
-91.48244355351828
 30
0.0
 10
63.99850530084066
 20
-91.48244355351828
 30
0.0
 10
63.99850530084066
 20
-91.48244355351828
 30
0.0
 10
63.99850530084066
 20
-91.48244355351828
 30
0.0
 10
64.0846326879719
 20
-91.54583331044688
 30
0.0
 10
64.0846326879719
 20
-91.54583331044688
 30
0.0
 10
64.09117836939387
 20
-91.5503119345777
 30
0.0
 10
64.1025471844952
 20
-91.56064722103345
 30
0.0
 10
64.1025471844952
 20
-91.57546113162003
 30
0.0
 10
64.1025471844952
 20
-91.61576874879745
 30
0.0
 10
64.02330998833445
 20
-91.60922306737548
 30
0.0
 10
64.00780705865083
 20
-91.60715601008432
 30
0.0
 10
63.76113822190694
 20
-91.74702688678546
 30
0.0
 10
63.6074869632648
 20
-91.77872176524977
 30
0.0
 10
63.49672714341401
 20
-91.7956027331275
 30
0.0
 10
63.49672714341401
 20
-91.7956027331275
 30
0.0
 10
63.35875106922976
 20
-91.6178358060886
 30
0.0
 10
63.35875106922976
 20
-91.6178358060886
 30
0.0
 10
63.62333440249694
 20
-91.5861409276243
 30
0.0
 10
63.73185491028232
 20
-91.53963213857342
 30
0.0
 10
63.82676729090095
 20
-91.48657766810058
 30
0.0
 10
63.74770234951447
 20
-91.48864472539174
 30
0.0
 10
63.62557371456236
 20
-91.4910562922314
 30
0.0
 10
63.59163952403265
 20
-91.49312334952256
 30
0.0
 10
63.6074869632648
 20
-91.40423988600311
 30
0.0
 10
63.60972627533021
 20
-91.27504880530624
 30
0.0
 10
63.60972627533021
 20
-91.20097925237337
 30
0.0
 10
63.60972627533021
 20
-91.20097925237337
 30
0.0
 10
63.60972627533021
 20
-90.90056692605958
 30
0.0
 10
63.60972627533021
 20
-90.90056692605958
 30
0.0
 10
63.60972627533021
 20
-90.80134817608439
 30
0.0
 10
63.60300833913397
 20
-90.70178491656067
 30
0.0
 10
63.59163952403265
 20
-90.60463322387662
 30
0.0
 10
63.70016003181802
 20
-90.61083439575008
 30
0.0
 10
63.94648435901338
 20
-90.61703556762352
 30
0.0
 10
64.06189505776925
 20
-90.61703556762352
 30
0.0
 10
64.06189505776925
 20
-90.61703556762352
 30
0.0
 10
64.51423609498255
 20
-90.61703556762352
 30
0.0
 10
64.51423609498255
 20
-90.61703556762352
 30
0.0
 10
64.64067109929123
 20
-90.61703556762352
 30
0.0
 10
64.685801850148
 20
-90.61703556762352
 30
0.0
 10
64.7739962945704
 20
-90.61290145304122
 30
0.0
 10
64.93247068689189
 20
-90.60670028116778
 30
0.0
 10
64.95038518341518
 20
-90.60670028116778
 30
0.0
 10
64.99999455840278
 20
-90.60463322387662
 30
0.0
 10
64.99103731014114
 20
-90.68490394868294
 30
0.0
 10
64.98655868601031
 20
-90.84372285055296
 30
0.0
 10
64.98655868601031
 20
-90.92606063265043
 30
0.0
 10
64.98655868601031
 20
-90.92606063265043
 30
0.0
 10
64.98655868601031
 20
-91.21165904837764
 30
0.0
 10
64.98655868601031
 20
-91.21165904837764
 30
0.0
 10
64.98655868601031
 20
-91.28366154401937
 30
0.0
 10
64.98897025284998
 20
-91.41491968200738
 30
0.0
 10
64.99999455840278
 20
-91.49312334952256
 30
0.0
 10
64.92316892908171
 20
-91.48864472539174
 30
0.0
 10
64.79225530064221
 20
-91.48657766810058
 30
0.0
 10
64.70853948035065
 20
-91.48451061080944
 30
0.0
 10
64.82601723639766
 20
-91.55237899186885
 30
0.0
 10
64.98897025284998
 20
-91.60302189550202
 30
0.0
 10
65.21496851668238
 20
-91.60715601008432
 30
0.0
 10
65.21496851668238
 20
-91.60715601008432
 30
0.0
 10
65.11540525715866
 20
-91.78698999441437
 30
0.0
 10
65.11540525715866
 20
-91.78698999441437
 30
0.0
  0
POLYLINE
  5
EC
330
C7
100
AcDbEntity
  8
_U+30EC_U+30A4_U+30E4_U+30FC 1
370
     0
100
AcDb2dPolyline
 66
     1
 10
0.0
 20
0.0
 30
0.0
  0
VERTEX
  5
ED
330
EC
100
AcDbEntity
  8
_U+30EC_U+30A4_U+30E4_U+30FC 1
370
     0
100
AcDbVertex
100
AcDb2dVertex
 10
64.78984373380254
 20
-90.75277232974237
 30
0.0
  0
VERTEX
  5
EE
330
EC
100
AcDbEntity
  8
_U+30EC_U+30A4_U+30E4_U+30FC 1
370
     0
100
AcDbVertex
100
AcDb2dVertex
 10
63.81539847579963
 20
-90.75277232974237
 30
0.0
  0
VERTEX
  5
EF
330
EC
100
AcDbEntity
  8
_U+30EC_U+30A4_U+30E4_U+30FC 1
370
     0
100
AcDbVertex
100
AcDb2dVertex
 10
63.81539847579963
 20
-90.86473793301299
 30
0.0
  0
VERTEX
  5
F0
330
EC
100
AcDbEntity
  8
_U+30EC_U+30A4_U+30E4_U+30FC 1
370
     0
100
AcDbVertex
100
AcDb2dVertex
 10
64.78984373380254
 20
-90.86473793301299
 30
0.0
  0
VERTEX
  5
F1
330
EC
100
AcDbEntity
  8
_U+30EC_U+30A4_U+30E4_U+30FC 1
370
     0
100
AcDbVertex
100
AcDb2dVertex
 10
64.78984373380254
 20
-90.75277232974237
 30
0.0
  0
SEQEND
  5
F2
330
EC
100
AcDbEntity
  8
_U+30EC_U+30A4_U+30E4_U+30FC 1
370
     0
  0
POLYLINE
  5
F3
330
C7
100
AcDbEntity
  8
_U+30EC_U+30A4_U+30E4_U+30FC 1
370
     0
100
AcDb2dPolyline
 66
     1
 10
0.0
 20
0.0
 30
0.0
  0
VERTEX
  5
F4
330
F3
100
AcDbEntity
  8
_U+30EC_U+30A4_U+30E4_U+30FC 1
370
     0
100
AcDbVertex
100
AcDb2dVertex
 10
64.78984373380254
 20
-90.99806312829216
 30
0.0
  0
VERTEX
  5
F5
330
F3
100
AcDbEntity
  8
_U+30EC_U+30A4_U+30E4_U+30FC 1
370
     0
100
AcDbVertex
100
AcDb2dVertex
 10
63.81539847579963
 20
-90.99806312829216
 30
0.0
  0
VERTEX
  5
F6
330
F3
100
AcDbEntity
  8
_U+30EC_U+30A4_U+30E4_U+30FC 1
370
     0
100
AcDbVertex
100
AcDb2dVertex
 10
63.81539847579963
 20
-91.10796167427162
 30
0.0
  0
VERTEX
  5
F7
330
F3
100
AcDbEntity
  8
_U+30EC_U+30A4_U+30E4_U+30FC 1
370
     0
100
AcDbVertex
100
AcDb2dVertex
 10
64.78984373380254
 20
-91.10796167427162
 30
0.0
  0
VERTEX
  5
F8
330
F3
100
AcDbEntity
  8
_U+30EC_U+30A4_U+30E4_U+30FC 1
370
     0
100
AcDbVertex
100
AcDb2dVertex
 10
64.78984373380254
 20
-90.99806312829216
 30
0.0
  0
SEQEND
  5
F9
330
F3
100
AcDbEntity
  8
_U+30EC_U+30A4_U+30E4_U+30FC 1
370
     0
  0
POLYLINE
  5
FA
330
C7
100
AcDbEntity
  8
_U+30EC_U+30A4_U+30E4_U+30FC 1
370
     0
100
AcDb2dPolyline
 66
     1
 10
0.0
 20
0.0
 30
0.0
  0
VERTEX
  5
FB
330
FA
100
AcDbEntity
  8
_U+30EC_U+30A4_U+30E4_U+30FC 1
370
     0
100
AcDbVertex
100
AcDb2dVertex
 10
64.78984373380254
 20
-91.24335392684195
 30
0.0
  0
VERTEX
  5
FC
330
FA
100
AcDbEntity
  8
_U+30EC_U+30A4_U+30E4_U+30FC 1
370
     0
100
AcDbVertex
100
AcDb2dVertex
 10
63.81539847579963
 20
-91.24335392684195
 30
0.0
  0
VERTEX
  5
FD
330
FA
100
AcDbEntity
  8
_U+30EC_U+30A4_U+30E4_U+30FC 1
370
     0
100
AcDbVertex
100
AcDb2dVertex
 10
63.81539847579963
 20
-91.35118541553027
 30
0.0
  0
VERTEX
  5
FE
330
FA
100
AcDbEntity
  8
_U+30EC_U+30A4_U+30E4_U+30FC 1
370
     0
100
AcDbVertex
100
AcDb2dVertex
 10
64.78984373380254
 20
-91.35118541553027
 30
0.0
  0
VERTEX
  5
FF
330
FA
100
AcDbEntity
  8
_U+30EC_U+30A4_U+30E4_U+30FC 1
370
     0
100
AcDbVertex
100
AcDb2dVertex
 10
64.78984373380254
 20
-91.24335392684195
 30
0.0
  0
SEQEND
  5
100
330
FA
100
AcDbEntity
  8
_U+30EC_U+30A4_U+30E4_U+30FC 1
370
     0
  0
SPLINE
  5
101
330
C7
100
AcDbEntity
  8
_U+30EC_U+30A4_U+30E4_U+30FC 1
370
     0
100
AcDbSpline
210
0.0
220
0.0
230
1.0
 70
    11
 71
     3
 72
    74
 73
    70
 74
     0
 42
0.0000000001
 43
0.0000000001
 12
1.0
 22
0.0
 32
0.0
 13
1.0
 23
0.0
 33
0.0
 40
0.0
 40
0.0
 40
0.0
 40
0.0
 40
1.0
 40
1.0
 40
1.0
 40
2.0
 40
2.0
 40
2.0
 40
3.0
 40
3.0
 40
3.0
 40
4.0
 40
4.0
 40
4.0
 40
5.0
 40
5.0
 40
5.0
 40
6.0
 40
6.0
 40
6.0
 40
7.0
 40
7.0
 40
7.0
 40
8.0
 40
8.0
 40
8.0
 40
9.0
 40
9.0
 40
9.0
 40
10.0
 40
10.0
 40
10.0
 40
11.0
 40
11.0
 40
11.0
 40
12.0
 40
12.0
 40
12.0
 40
13.0
 40
13.0
 40
13.0
 40
14.0
 40
14.0
 40
14.0
 40
15.0
 40
15.0
 40
15.0
 40
16.0
 40
16.0
 40
16.0
 40
17.0
 40
17.0
 40
17.0
 40
18.0
 40
18.0
 40
18.0
 40
19.0
 40
19.0
 40
19.0
 40
20.0
 40
20.0
 40
20.0
 40
21.0
 40
21.0
 40
21.0
 40
22.0
 40
22.0
 40
22.0
 40
23.0
 40
23.0
 40
23.0
 40
23.0
 10
65.12918563909965
 20
-90.29974227343202
 30
0.0
 10
65.12918563909965
 20
-90.29974227343202
 30
0.0
 10
64.95727537438569
 20
-90.29974227343202
 30
0.0
 10
64.95727537438569
 20
-90.29974227343202
 30
0.0
 10
64.95727537438569
 20
-90.29974227343202
 30
0.0
 10
64.95727537438569
 20
-90.4141194435423
 30
0.0
 10
64.95727537438569
 20
-90.4141194435423
 30
0.0
 10
64.95727537438569
 20
-90.45442706071974
 30
0.0
 10
64.96382105580766
 20
-90.5284966136526
 30
0.0
 10
64.96864418948701
 20
-90.55364581069493
 30
0.0
 10
64.96864418948701
 20
-90.55364581069493
 30
0.0
 10
64.74230141610609
 20
-90.55364581069493
 30
0.0
 10
64.74230141610609
 20
-90.55364581069493
 30
0.0
 10
64.75367023120742
 20
-90.48818899647517
 30
0.0
 10
64.75608179804709
 20
-90.42893335412889
 30
0.0
 10
64.75608179804709
 20
-90.42686629683773
 30
0.0
 10
64.75608179804709
 20
-90.42686629683773
 30
0.0
 10
64.75608179804709
 20
-90.30422089756284
 30
0.0
 10
64.75608179804709
 20
-90.30422089756284
 30
0.0
 10
64.75608179804709
 20
-90.30422089756284
 30
0.0
 10
64.56384546997015
 20
-90.30422089756284
 30
0.0
 10
64.56384546997015
 20
-90.30422089756284
 30
0.0
 10
64.54351940660717
 20
-90.36347653990913
 30
0.0
 10
64.49356552207105
 20
-90.5092040789352
 30
0.0
 10
64.37160914189322
 20
-90.5918863705812
 30
0.0
 10
64.37160914189322
 20
-90.5918863705812
 30
0.0
 10
64.20417750131007
 20
-90.48612193918403
 30
0.0
 10
64.20417750131007
 20
-90.48612193918403
 30
0.0
 10
64.28341469747082
 20
-90.43961315013316
 30
0.0
 10
64.40778264448834
 20
-90.36554359720029
 30
0.0
 10
64.40778264448834
 20
-90.04377167887795
 30
0.0
 10
64.40778264448834
 20
-89.98899466066248
 30
0.0
 10
64.40330402035751
 20
-89.94455292890275
 30
0.0
 10
64.40089245351784
 20
-89.90631236901648
 30
0.0
 10
64.48254121651826
 20
-89.9149251077296
 30
0.0
 10
64.56143390313048
 20
-89.92112627960306
 30
0.0
 10
64.6293022841899
 20
-89.92112627960306
 30
0.0
 10
64.81912704542717
 20
-89.92112627960306
 30
0.0
 10
65.03168943686708
 20
-89.86187063725676
 30
0.0
 10
65.09749076063535
 20
-89.8322428160836
 30
0.0
 10
65.09749076063535
 20
-89.8322428160836
 30
0.0
 10
65.23288301320567
 20
-89.96763506865393
 30
0.0
 10
65.23288301320567
 20
-89.96763506865393
 30
0.0
 10
65.23770614688502
 20
-89.97211369278476
 30
0.0
 10
65.23977320417617
 20
-89.98038192194936
 30
0.0
 10
65.23977320417617
 20
-89.98692760337133
 30
0.0
 10
65.23977320417617
 20
-90.00794268583135
 30
0.0
 10
65.22392576494403
 20
-90.0141438577048
 30
0.0
 10
65.20601126842072
 20
-90.0141438577048
 30
0.0
 10
65.18327363821807
 20
-90.0141438577048
 30
0.0
 10
65.16742619898592
 20
-90.0058756285402
 30
0.0
 10
65.14710013562295
 20
-89.99519583253593
 30
0.0
 10
64.96175399851651
 20
-90.05238441759107
 30
0.0
 10
64.72886554371362
 20
-90.07787812418192
 30
0.0
 10
64.5865831001728
 20
-90.07994518147308
 30
0.0
 10
64.5865831001728
 20
-90.07994518147308
 30
0.0
 10
64.58175996649345
 20
-90.16228296357055
 30
0.0
 10
64.58175996649345
 20
-90.16228296357055
 30
0.0
 10
64.58175996649345
 20
-90.16228296357055
 30
0.0
 10
64.87355955409411
 20
-90.16228296357055
 30
0.0
 10
64.87355955409411
 20
-90.16228296357055
 30
0.0
 10
64.93453774418303
 20
-90.16228296357055
 30
0.0
 10
65.21496851668238
 20
-90.14333493840167
 30
0.0
 10
65.26251083437882
 20
-90.13713376652822
 30
0.0
 10
65.26251083437882
 20
-90.13713376652822
 30
0.0
 10
65.26251083437882
 20
-90.30628795485399
 30
0.0
 10
65.26251083437882
 20
-90.30628795485399
 30
0.0
 10
65.2263373317837
 20
-90.30215384027169
 30
0.0
 10
65.21255694984269
 20
-90.29974227343202
 30
0.0
 10
65.12918563909965
 20
-90.29974227343202
 30
0.0
  0
HATCH
  5
102
330
C7
100
AcDbEntity
  8
_U+30EC_U+30A4_U+30E4_U+30FC 1
 62
   179
420
  2234388
100
AcDbHatch
 10
0.0
 20
0.0
 30
0.0
210
0.0
220
0.0
230
1.0
  2
SOLID
 70
     1
 71
     0
 91
        6
 92
        1
 93
        1
 72
     4
 94
        3
 73
     0
 74
     1
 95
       71
 96
       67
 40
0.0
 40
0.0
 40
0.0
 40
0.0
 40
1.0
 40
1.0
 40
1.0
 40
2.0
 40
2.0
 40
2.0
 40
3.0
 40
3.0
 40
3.0
 40
4.0
 40
4.0
 40
4.0
 40
5.0
 40
5.0
 40
5.0
 40
6.0
 40
6.0
 40
6.0
 40
7.0
 40
7.0
 40
7.0
 40
8.0
 40
8.0
 40
8.0
 40
9.0
 40
9.0
 40
9.0
 40
10.0
 40
10.0
 40
10.0
 40
11.0
 40
11.0
 40
11.0
 40
12.0
 40
12.0
 40
12.0
 40
13.0
 40
13.0
 40
13.0
 40
14.0
 40
14.0
 40
14.0
 40
15.0
 40
15.0
 40
15.0
 40
16.0
 40
16.0
 40
16.0
 40
17.0
 40
17.0
 40
17.0
 40
18.0
 40
18.0
 40
18.0
 40
19.0
 40
19.0
 40
19.0
 40
20.0
 40
20.0
 40
20.0
 40
21.0
 40
21.0
 40
21.0
 40
22.0
 40
22.0
 40
22.0
 40
22.0
 10
64.22002494054222
 20
-90.02068953912678
 10
64.20417750131007
 20
-90.02068953912678
 10
64.19074162891759
 20
-90.01655542454448
 10
64.16352537458413
 20
-90.00794268583135
 10
64.01228568278165
 20
-90.05445147488223
 10
63.82676729090095
 20
-90.07133244275995
 10
63.67759465638963
 20
-90.07546655734225
 10
63.67759465638963
 20
-90.07546655734225
 10
63.67535534432422
 20
-90.16435002086169
 10
63.67535534432422
 20
-90.16435002086169
 10
63.67535534432422
 20
-90.16435002086169
 10
63.95337454998388
 20
-90.16435002086169
 10
63.95337454998388
 20
-90.16435002086169
 10
64.00987411594198
 20
-90.16435002086169
 10
64.20417750131007
 20
-90.15608179169709
 10
64.25171981900652
 20
-90.14953611027512
 10
64.25171981900652
 20
-90.14953611027512
 10
64.25171981900652
 20
-90.31042206943629
 10
64.25171981900652
 20
-90.31042206943629
 10
64.19315319575728
 20
-90.30422089756284
 10
64.05948349092958
 20
-90.30215384027169
 10
64.01883136420363
 20
-90.30422089756284
 10
64.01883136420363
 20
-90.30422089756284
 10
64.01883136420363
 20
-90.4141194435423
 10
64.01883136420363
 20
-90.4141194435423
 10
64.01883136420363
 20
-90.46062823259318
 10
64.0212429310433
 20
-90.52401798952178
 10
64.0281331220138
 20
-90.56225854940806
 10
64.0281331220138
 20
-90.56225854940806
 10
63.82228866677013
 20
-90.56225854940806
 10
63.82228866677013
 20
-90.56225854940806
 10
63.82900660296636
 20
-90.52195093223062
 10
63.83589679393686
 20
-90.43961315013316
 10
63.83589679393686
 20
-90.42479923954659
 10
63.83589679393686
 20
-90.42479923954659
 10
63.83589679393686
 20
-90.30422089756284
 10
63.83589679393686
 20
-90.30422089756284
 10
63.83589679393686
 20
-90.30422089756284
 10
63.65950790509207
 20
-90.30422089756284
 10
63.65950790509207
 20
-90.30422089756284
 10
63.61420489946104
 20
-90.52401798952178
 10
63.55546602143752
 20
-90.60463322387662
 10
63.44246688952133
 20
-90.70385197385181
 10
63.44246688952133
 20
-90.70385197385181
 10
63.26383868861112
 20
-90.58981931329005
 10
63.26383868861112
 20
-90.58981931329005
 10
63.33170706967055
 20
-90.5408989573995
 10
63.49224851928319
 20
-90.42893335412889
 10
63.49224851928319
 20
-90.07994518147308
 10
63.49224851928319
 20
-89.99726288982708
 10
63.48311901624728
 20
-89.95075410077621
 10
63.47416176798563
 20
-89.90217825443418
 10
63.63005233869318
 20
-89.91699216502076
 10
63.64589977792534
 20
-89.91699216502076
 10
63.68431259258587
 20
-89.91699216502076
 10
63.79972329134174
 20
-89.91699216502076
 10
63.95096298314421
 20
-89.90011119714303
 10
64.12287324785818
 20
-89.83878849750559
 10
64.12287324785818
 20
-89.83878849750559
 10
64.24517413758454
 20
-89.96970212594508
 10
64.24517413758454
 20
-89.96970212594508
 10
64.25171981900652
 20
-89.97624780736706
 10
64.25619844313734
 20
-89.98451603653166
 10
64.25619844313734
 20
-89.99312877524478
 10
64.25619844313734
 20
-90.01655542454448
 10
64.23587237977436
 20
-90.02068953912678
 10
64.22002494054222
 20
-90.02068953912678
 97
        0
 97
        0
 92
        1
 93
        1
 72
     4
 94
        3
 73
     0
 74
     1
 95
       74
 96
       70
 40
0.0
 40
0.0
 40
0.0
 40
0.0
 40
1.0
 40
1.0
 40
1.0
 40
2.0
 40
2.0
 40
2.0
 40
3.0
 40
3.0
 40
3.0
 40
4.0
 40
4.0
 40
4.0
 40
5.0
 40
5.0
 40
5.0
 40
6.0
 40
6.0
 40
6.0
 40
7.0
 40
7.0
 40
7.0
 40
8.0
 40
8.0
 40
8.0
 40
9.0
 40
9.0
 40
9.0
 40
10.0
 40
10.0
 40
10.0
 40
11.0
 40
11.0
 40
11.0
 40
12.0
 40
12.0
 40
12.0
 40
13.0
 40
13.0
 40
13.0
 40
14.0
 40
14.0
 40
14.0
 40
15.0
 40
15.0
 40
15.0
 40
16.0
 40
16.0
 40
16.0
 40
17.0
 40
17.0
 40
17.0
 40
18.0
 40
18.0
 40
18.0
 40
19.0
 40
19.0
 40
19.0
 40
20.0
 40
20.0
 40
20.0
 40
21.0
 40
21.0
 40
21.0
 40
22.0
 40
22.0
 40
22.0
 40
23.0
 40
23.0
 40
23.0
 40
23.0
 10
65.11540525715866
 20
-91.78698999441437
 10
64.88699542648659
 20
-91.77665470795861
 10
64.67236597775552
 20
-91.68983830173032
 10
64.4846082738094
 20
-91.56925995974657
 10
64.4846082738094
 20
-91.56925995974657
 10
64.58865015746395
 20
-91.48244355351828
 10
64.58865015746395
 20
-91.48244355351828
 10
64.58865015746395
 20
-91.48244355351828
 10
63.99850530084066
 20
-91.48244355351828
 10
63.99850530084066
 20
-91.48244355351828
 10
63.99850530084066
 20
-91.48244355351828
 10
64.0846326879719
 20
-91.54583331044688
 10
64.0846326879719
 20
-91.54583331044688
 10
64.09117836939387
 20
-91.5503119345777
 10
64.1025471844952
 20
-91.56064722103345
 10
64.1025471844952
 20
-91.57546113162003
 10
64.1025471844952
 20
-91.61576874879745
 10
64.02330998833445
 20
-91.60922306737548
 10
64.00780705865083
 20
-91.60715601008432
 10
63.76113822190694
 20
-91.74702688678546
 10
63.6074869632648
 20
-91.77872176524977
 10
63.49672714341401
 20
-91.7956027331275
 10
63.49672714341401
 20
-91.7956027331275
 10
63.35875106922976
 20
-91.6178358060886
 10
63.35875106922976
 20
-91.6178358060886
 10
63.62333440249694
 20
-91.5861409276243
 10
63.73185491028232
 20
-91.53963213857342
 10
63.82676729090095
 20
-91.48657766810058
 10
63.74770234951447
 20
-91.48864472539174
 10
63.62557371456236
 20
-91.4910562922314
 10
63.59163952403265
 20
-91.49312334952256
 10
63.6074869632648
 20
-91.40423988600311
 10
63.60972627533021
 20
-91.27504880530624
 10
63.60972627533021
 20
-91.20097925237337
 10
63.60972627533021
 20
-91.20097925237337
 10
63.60972627533021
 20
-90.90056692605958
 10
63.60972627533021
 20
-90.90056692605958
 10
63.60972627533021
 20
-90.80134817608439
 10
63.60300833913397
 20
-90.70178491656067
 10
63.59163952403265
 20
-90.60463322387662
 10
63.70016003181802
 20
-90.61083439575008
 10
63.94648435901338
 20
-90.61703556762352
 10
64.06189505776925
 20
-90.61703556762352
 10
64.06189505776925
 20
-90.61703556762352
 10
64.51423609498255
 20
-90.61703556762352
 10
64.51423609498255
 20
-90.61703556762352
 10
64.64067109929123
 20
-90.61703556762352
 10
64.685801850148
 20
-90.61703556762352
 10
64.7739962945704
 20
-90.61290145304122
 10
64.93247068689189
 20
-90.60670028116778
 10
64.95038518341518
 20
-90.60670028116778
 10
64.99999455840278
 20
-90.60463322387662
 10
64.99103731014114
 20
-90.68490394868294
 10
64.98655868601031
 20
-90.84372285055296
 10
64.98655868601031
 20
-90.92606063265043
 10
64.98655868601031
 20
-90.92606063265043
 10
64.98655868601031
 20
-91.21165904837764
 10
64.98655868601031
 20
-91.21165904837764
 10
64.98655868601031
 20
-91.28366154401937
 10
64.98897025284998
 20
-91.41491968200738
 10
64.99999455840278
 20
-91.49312334952256
 10
64.92316892908171
 20
-91.48864472539174
 10
64.79225530064221
 20
-91.48657766810058
 10
64.70853948035065
 20
-91.48451061080944
 10
64.82601723639766
 20
-91.55237899186885
 10
64.98897025284998
 20
-91.60302189550202
 10
65.21496851668238
 20
-91.60715601008432
 10
65.21496851668238
 20
-91.60715601008432
 10
65.11540525715866
 20
-91.78698999441437
 10
65.11540525715866
 20
-91.78698999441437
 97
        0
 97
        0
 92
        1
 93
        4
 72
     1
 10
64.78984373380254
 20
-90.75277232974237
 11
63.81539847579963
 21
-90.75277232974237
 72
     1
 10
63.81539847579963
 20
-90.75277232974237
 11
63.81539847579963
 21
-90.86473793301299
 72
     1
 10
63.81539847579963
 20
-90.86473793301299
 11
64.78984373380254
 21
-90.86473793301299
 72
     1
 10
64.78984373380254
 20
-90.86473793301299
 11
64.78984373380254
 21
-90.75277232974237
 97
        0
 92
        1
 93
        4
 72
     1
 10
64.78984373380254
 20
-90.99806312829216
 11
63.81539847579963
 21
-90.99806312829216
 72
     1
 10
63.81539847579963
 20
-90.99806312829216
 11
63.81539847579963
 21
-91.10796167427162
 72
     1
 10
63.81539847579963
 20
-91.10796167427162
 11
64.78984373380254
 21
-91.10796167427162
 72
     1
 10
64.78984373380254
 20
-91.10796167427162
 11
64.78984373380254
 21
-90.99806312829216
 97
        0
 92
        1
 93
        4
 72
     1
 10
64.78984373380254
 20
-91.24335392684195
 11
63.81539847579963
 21
-91.24335392684195
 72
     1
 10
63.81539847579963
 20
-91.24335392684195
 11
63.81539847579963
 21
-91.35118541553027
 72
     1
 10
63.81539847579963
 20
-91.35118541553027
 11
64.78984373380254
 21
-91.35118541553027
 72
     1
 10
64.78984373380254
 20
-91.35118541553027
 11
64.78984373380254
 21
-91.24335392684195
 97
        0
 92
        1
 93
        1
 72
     4
 94
        3
 73
     0
 74
     1
 95
       74
 96
       70
 40
0.0
 40
0.0
 40
0.0
 40
0.0
 40
1.0
 40
1.0
 40
1.0
 40
2.0
 40
2.0
 40
2.0
 40
3.0
 40
3.0
 40
3.0
 40
4.0
 40
4.0
 40
4.0
 40
5.0
 40
5.0
 40
5.0
 40
6.0
 40
6.0
 40
6.0
 40
7.0
 40
7.0
 40
7.0
 40
8.0
 40
8.0
 40
8.0
 40
9.0
 40
9.0
 40
9.0
 40
10.0
 40
10.0
 40
10.0
 40
11.0
 40
11.0
 40
11.0
 40
12.0
 40
12.0
 40
12.0
 40
13.0
 40
13.0
 40
13.0
 40
14.0
 40
14.0
 40
14.0
 40
15.0
 40
15.0
 40
15.0
 40
16.0
 40
16.0
 40
16.0
 40
17.0
 40
17.0
 40
17.0
 40
18.0
 40
18.0
 40
18.0
 40
19.0
 40
19.0
 40
19.0
 40
20.0
 40
20.0
 40
20.0
 40
21.0
 40
21.0
 40
21.0
 40
22.0
 40
22.0
 40
22.0
 40
23.0
 40
23.0
 40
23.0
 40
23.0
 10
65.12918563909965
 20
-90.29974227343202
 10
65.12918563909965
 20
-90.29974227343202
 10
64.95727537438569
 20
-90.29974227343202
 10
64.95727537438569
 20
-90.29974227343202
 10
64.95727537438569
 20
-90.29974227343202
 10
64.95727537438569
 20
-90.4141194435423
 10
64.95727537438569
 20
-90.4141194435423
 10
64.95727537438569
 20
-90.45442706071974
 10
64.96382105580766
 20
-90.5284966136526
 10
64.96864418948701
 20
-90.55364581069493
 10
64.96864418948701
 20
-90.55364581069493
 10
64.74230141610609
 20
-90.55364581069493
 10
64.74230141610609
 20
-90.55364581069493
 10
64.75367023120742
 20
-90.48818899647517
 10
64.75608179804709
 20
-90.42893335412889
 10
64.75608179804709
 20
-90.42686629683773
 10
64.75608179804709
 20
-90.42686629683773
 10
64.75608179804709
 20
-90.30422089756284
 10
64.75608179804709
 20
-90.30422089756284
 10
64.75608179804709
 20
-90.30422089756284
 10
64.56384546997015
 20
-90.30422089756284
 10
64.56384546997015
 20
-90.30422089756284
 10
64.54351940660717
 20
-90.36347653990913
 10
64.49356552207105
 20
-90.5092040789352
 10
64.37160914189322
 20
-90.5918863705812
 10
64.37160914189322
 20
-90.5918863705812
 10
64.20417750131007
 20
-90.48612193918403
 10
64.20417750131007
 20
-90.48612193918403
 10
64.28341469747082
 20
-90.43961315013316
 10
64.40778264448834
 20
-90.36554359720029
 10
64.40778264448834
 20
-90.04377167887795
 10
64.40778264448834
 20
-89.98899466066248
 10
64.40330402035751
 20
-89.94455292890275
 10
64.40089245351784
 20
-89.90631236901648
 10
64.48254121651826
 20
-89.9149251077296
 10
64.56143390313048
 20
-89.92112627960306
 10
64.6293022841899
 20
-89.92112627960306
 10
64.81912704542717
 20
-89.92112627960306
 10
65.03168943686708
 20
-89.86187063725676
 10
65.09749076063535
 20
-89.8322428160836
 10
65.09749076063535
 20
-89.8322428160836
 10
65.23288301320567
 20
-89.96763506865393
 10
65.23288301320567
 20
-89.96763506865393
 10
65.23770614688502
 20
-89.97211369278476
 10
65.23977320417617
 20
-89.98038192194936
 10
65.23977320417617
 20
-89.98692760337133
 10
65.23977320417617
 20
-90.00794268583135
 10
65.22392576494403
 20
-90.0141438577048
 10
65.20601126842072
 20
-90.0141438577048
 10
65.18327363821807
 20
-90.0141438577048
 10
65.16742619898592
 20
-90.0058756285402
 10
65.14710013562295
 20
-89.99519583253593
 10
64.96175399851651
 20
-90.05238441759107
 10
64.72886554371362
 20
-90.07787812418192
 10
64.5865831001728
 20
-90.07994518147308
 10
64.5865831001728
 20
-90.07994518147308
 10
64.58175996649345
 20
-90.16228296357055
 10
64.58175996649345
 20
-90.16228296357055
 10
64.58175996649345
 20
-90.16228296357055
 10
64.87355955409411
 20
-90.16228296357055
 10
64.87355955409411
 20
-90.16228296357055
 10
64.93453774418303
 20
-90.16228296357055
 10
65.21496851668238
 20
-90.14333493840167
 10
65.26251083437882
 20
-90.13713376652822
 10
65.26251083437882
 20
-90.13713376652822
 10
65.26251083437882
 20
-90.30628795485399
 10
65.26251083437882
 20
-90.30628795485399
 10
65.2263373317837
 20
-90.30215384027169
 10
65.21255694984269
 20
-90.29974227343202
 10
65.12918563909965
 20
-90.29974227343202
 97
        0
 97
        0
 75
     2
 76
     1
 98
        0
  0
ENDBLK
  5
CA
330
C7
100
AcDbEntity
  8
0
100
AcDbBlockEnd
  0
BLOCK
  5
105
330
103
100
AcDbEntity
  8
0
100
AcDbBlockBegin
  2
block 3
 70
     0
 10
0.0
 20
0.0
 30
0.0
  3
block 3
  1

  0
POLYLINE
  5
107
330
103
100
AcDbEntity
  8
_U+30EC_U+30A4_U+30E4_U+30FC 1
 62
   179
420
  2234388
370
     9
100
AcDb2dPolyline
 66
     1
 10
0.0
 20
0.0
 30
0.0
  0
VERTEX
  5
108
330
107
100
AcDbEntity
  8
_U+30EC_U+30A4_U+30E4_U+30FC 1
 62
   179
420
  2234388
370
     9
100
AcDbVertex
100
AcDb2dVertex
 10
55.60109247038685
 20
-75.46653970335562
 30
0.0
  0
VERTEX
  5
109
330
107
100
AcDbEntity
  8
_U+30EC_U+30A4_U+30E4_U+30FC 1
 62
   179
420
  2234388
370
     9
100
AcDbVertex
100
AcDb2dVertex
 10
33.60123665826625
 20
-75.46653970335562
 30
0.0
  0
SEQEND
  5
10A
330
107
100
AcDbEntity
  8
_U+30EC_U+30A4_U+30E4_U+30FC 1
 62
   179
420
  2234388
370
     9
  0
POLYLINE
  5
10B
330
103
100
AcDbEntity
  8
_U+30EC_U+30A4_U+30E4_U+30FC 1
 62
   179
420
  2234388
370
     9
100
AcDb2dPolyline
 66
     1
 10
0.0
 20
0.0
 30
0.0
  0
VERTEX
  5
10C
330
10B
100
AcDbEntity
  8
_U+30EC_U+30A4_U+30E4_U+30FC 1
 62
   179
420
  2234388
370
     9
100
AcDbVertex
100
AcDb2dVertex
 10
55.60109247038685
 20
-76.92658109187933
 30
0.0
  0
VERTEX
  5
10D
330
10B
100
AcDbEntity
  8
_U+30EC_U+30A4_U+30E4_U+30FC 1
 62
   179
420
  2234388
370
     9
100
AcDbVertex
100
AcDb2dVertex
 10
55.60109247038685
 20
-74.4667674813834
 30
0.0
  0
SEQEND
  5
10E
330
10B
100
AcDbEntity
  8
_U+30EC_U+30A4_U+30E4_U+30FC 1
 62
   179
420
  2234388
370
     9
  0
POLYLINE
  5
10F
330
103
100
AcDbEntity
  8
_U+30EC_U+30A4_U+30E4_U+30FC 1
 62
   179
420
  2234388
370
     9
100
AcDb2dPolyline
 66
     1
 10
0.0
 20
0.0
 30
0.0
  0
VERTEX
  5
110
330
10F
100
AcDbEntity
  8
_U+30EC_U+30A4_U+30E4_U+30FC 1
 62
   179
420
  2234388
370
     9
100
AcDbVertex
100
AcDb2dVertex
 10
33.60123665826625
 20
-76.92658109187933
 30
0.0
  0
VERTEX
  5
111
330
10F
100
AcDbEntity
  8
_U+30EC_U+30A4_U+30E4_U+30FC 1
 62
   179
420
  2234388
370
     9
100
AcDbVertex
100
AcDb2dVertex
 10
33.60123665826625
 20
-74.4667674813834
 30
0.0
  0
SEQEND
  5
112
330
10F
100
AcDbEntity
  8
_U+30EC_U+30A4_U+30E4_U+30FC 1
 62
   179
420
  2234388
370
     9
  0
INSERT
  5
114
330
103
100
AcDbEntity
  8
_U+30EC_U+30A4_U+30E4_U+30FC 1
100
AcDbBlockReference
  2
block 4
 10
0.0
 20
0.0
 30
0.0
  0
INSERT
  5
11C
330
103
100
AcDbEntity
  8
_U+30EC_U+30A4_U+30E4_U+30FC 1
100
AcDbBlockReference
  2
block 5
 10
0.0
 20
0.0
 30
0.0
  0
INSERT
  5
121
330
103
100
AcDbEntity
  8
_U+30EC_U+30A4_U+30E4_U+30FC 1
100
AcDbBlockReference
  2
block 6
 10
0.0
 20
0.0
 30
0.0
  0
INSERT
  5
126
330
103
100
AcDbEntity
  8
_U+30EC_U+30A4_U+30E4_U+30FC 1
100
AcDbBlockReference
  2
block 7
 10
0.0
 20
0.0
 30
0.0
  0
ENDBLK
  5
106
330
103
100
AcDbEntity
  8
0
100
AcDbBlockEnd
  0
BLOCK
  5
115
330
113
100
AcDbEntity
  8
0
100
AcDbBlockBegin
  2
block 4
 70
     0
 10
0.0
 20
0.0
 30
0.0
  3
block 4
  1

  0
SPLINE
  5
117
330
113
100
AcDbEntity
  8
_U+30EC_U+30A4_U+30E4_U+30FC 1
370
     0
100
AcDbSpline
210
0.0
220
0.0
230
1.0
 70
    11
 71
     3
 72
    44
 73
    40
 74
     0
 42
0.0000000001
 43
0.0000000001
 12
1.0
 22
0.0
 32
0.0
 13
1.0
 23
0.0
 33
0.0
 40
0.0
 40
0.0
 40
0.0
 40
0.0
 40
1.0
 40
1.0
 40
1.0
 40
2.0
 40
2.0
 40
2.0
 40
3.0
 40
3.0
 40
3.0
 40
4.0
 40
4.0
 40
4.0
 40
5.0
 40
5.0
 40
5.0
 40
6.0
 40
6.0
 40
6.0
 40
7.0
 40
7.0
 40
7.0
 40
8.0
 40
8.0
 40
8.0
 40
9.0
 40
9.0
 40
9.0
 40
10.0
 40
10.0
 40
10.0
 40
11.0
 40
11.0
 40
11.0
 40
12.0
 40
12.0
 40
12.0
 40
13.0
 40
13.0
 40
13.0
 40
13.0
 10
44.07069497596149
 20
-74.51224770272611
 30
0.0
 10
43.8378065211586
 20
-74.67089434982186
 30
0.0
 10
43.73841551640915
 20
-74.74496390275473
 30
0.0
 10
43.68639457458188
 20
-74.88879663926392
 30
0.0
 10
43.68639457458188
 20
-74.88879663926392
 30
0.0
 10
44.51838513426971
 20
-74.88879663926392
 30
0.0
 10
44.51838513426971
 20
-74.88879663926392
 30
0.0
 10
44.51838513426971
 20
-74.88879663926392
 30
0.0
 10
44.51838513426971
 20
-75.09395207541054
 30
0.0
 10
44.51838513426971
 20
-75.09395207541054
 30
0.0
 10
44.51838513426971
 20
-75.09395207541054
 30
0.0
 10
43.41957192924927
 20
-75.09395207541054
 30
0.0
 10
43.41957192924927
 20
-75.09395207541054
 30
0.0
 10
43.45350611977899
 20
-74.73652341881588
 30
0.0
 10
43.52361381290382
 20
-74.65814749652644
 30
0.0
 10
43.93495821384265
 20
-74.35997448227806
 30
0.0
 10
44.20867105014575
 20
-74.1610202180049
 30
0.0
 10
44.27860648849632
 20
-74.09332409171972
 30
0.0
 10
44.27860648849632
 20
-73.95586478185825
 30
0.0
 10
44.27860648849632
 20
-73.83735349716567
 30
0.0
 10
44.20178085917525
 20
-73.70626761395191
 30
0.0
 10
43.99163003457501
 20
-73.70626761395191
 30
0.0
 10
43.71343857414109
 20
-73.70626761395191
 30
0.0
 10
43.70448132587943
 20
-73.93674450191513
 30
0.0
 10
43.69983044697435
 20
-74.05318872931657
 30
0.0
 10
43.69983044697435
 20
-74.05318872931657
 30
0.0
 10
43.46022405597522
 20
-74.05318872931657
 30
0.0
 10
43.46022405597522
 20
-74.05318872931657
 30
0.0
 10
43.46935355901113
 20
-73.92623696068512
 30
0.0
 10
43.4805501193382
 20
-73.81409910264023
 30
0.0
 10
43.56650525169518
 20
-73.69558781794764
 30
0.0
 10
43.68415526251646
 20
-73.53487411356073
 30
0.0
 10
43.88310952678964
 20
-73.50093992303101
 30
0.0
 10
44.0073052190329
 20
-73.50093992303101
 30
0.0
 10
44.30358343076438
 20
-73.50093992303101
 30
0.0
 10
44.52510307046595
 20
-73.68508027671763
 30
0.0
 10
44.52510307046595
 20
-73.95793183914941
 30
0.0
 10
44.52510307046595
 20
-74.18651392459573
 30
0.0
 10
44.40073512344843
 20
-74.2859049293452
 30
0.0
 10
44.07069497596149
 20
-74.51224770272611
 30
0.0
  0
HATCH
  5
118
330
113
100
AcDbEntity
  8
_U+30EC_U+30A4_U+30E4_U+30FC 1
 62
   179
420
  2234388
100
AcDbHatch
 10
0.0
 20
0.0
 30
0.0
210
0.0
220
0.0
230
1.0
  2
SOLID
 70
     1
 71
     0
 91
        1
 92
        1
 93
        1
 72
     4
 94
        3
 73
     0
 74
     1
 95
       44
 96
       40
 40
0.0
 40
0.0
 40
0.0
 40
0.0
 40
1.0
 40
1.0
 40
1.0
 40
2.0
 40
2.0
 40
2.0
 40
3.0
 40
3.0
 40
3.0
 40
4.0
 40
4.0
 40
4.0
 40
5.0
 40
5.0
 40
5.0
 40
6.0
 40
6.0
 40
6.0
 40
7.0
 40
7.0
 40
7.0
 40
8.0
 40
8.0
 40
8.0
 40
9.0
 40
9.0
 40
9.0
 40
10.0
 40
10.0
 40
10.0
 40
11.0
 40
11.0
 40
11.0
 40
12.0
 40
12.0
 40
12.0
 40
13.0
 40
13.0
 40
13.0
 40
13.0
 10
44.07069497596149
 20
-74.51224770272611
 10
43.8378065211586
 20
-74.67089434982186
 10
43.73841551640915
 20
-74.74496390275473
 10
43.68639457458188
 20
-74.88879663926392
 10
43.68639457458188
 20
-74.88879663926392
 10
44.51838513426971
 20
-74.88879663926392
 10
44.51838513426971
 20
-74.88879663926392
 10
44.51838513426971
 20
-74.88879663926392
 10
44.51838513426971
 20
-75.09395207541054
 10
44.51838513426971
 20
-75.09395207541054
 10
44.51838513426971
 20
-75.09395207541054
 10
43.41957192924927
 20
-75.09395207541054
 10
43.41957192924927
 20
-75.09395207541054
 10
43.45350611977899
 20
-74.73652341881588
 10
43.52361381290382
 20
-74.65814749652644
 10
43.93495821384265
 20
-74.35997448227806
 10
44.20867105014575
 20
-74.1610202180049
 10
44.27860648849632
 20
-74.09332409171972
 10
44.27860648849632
 20
-73.95586478185825
 10
44.27860648849632
 20
-73.83735349716567
 10
44.20178085917525
 20
-73.70626761395191
 10
43.99163003457501
 20
-73.70626761395191
 10
43.71343857414109
 20
-73.70626761395191
 10
43.70448132587943
 20
-73.93674450191513
 10
43.69983044697435
 20
-74.05318872931657
 10
43.69983044697435
 20
-74.05318872931657
 10
43.46022405597522
 20
-74.05318872931657
 10
43.46022405597522
 20
-74.05318872931657
 10
43.46935355901113
 20
-73.92623696068512
 10
43.4805501193382
 20
-73.81409910264023
 10
43.56650525169518
 20
-73.69558781794764
 10
43.68415526251646
 20
-73.53487411356073
 10
43.88310952678964
 20
-73.50093992303101
 10
44.0073052190329
 20
-73.50093992303101
 10
44.30358343076438
 20
-73.50093992303101
 10
44.52510307046595
 20
-73.68508027671763
 10
44.52510307046595
 20
-73.95793183914941
 10
44.52510307046595
 20
-74.18651392459573
 10
44.40073512344843
 20
-74.2859049293452
 10
44.07069497596149
 20
-74.51224770272611
 97
        0
 97
        0
 75
     2
 76
     1
 98
        0
  0
SPLINE
  5
119
330
113
100
AcDbEntity
  8
_U+30EC_U+30A4_U+30E4_U+30FC 1
370
     0
100
AcDbSpline
210
0.0
220
0.0
230
1.0
 70
    11
 71
     3
 72
    44
 73
    40
 74
     0
 42
0.0000000001
 43
0.0000000001
 12
1.0
 22
0.0
 32
0.0
 13
1.0
 23
0.0
 33
0.0
 40
0.0
 40
0.0
 40
0.0
 40
0.0
 40
1.0
 40
1.0
 40
1.0
 40
2.0
 40
2.0
 40
2.0
 40
3.0
 40
3.0
 40
3.0
 40
4.0
 40
4.0
 40
4.0
 40
5.0
 40
5.0
 40
5.0
 40
6.0
 40
6.0
 40
6.0
 40
7.0
 40
7.0
 40
7.0
 40
8.0
 40
8.0
 40
8.0
 40
9.0
 40
9.0
 40
9.0
 40
10.0
 40
10.0
 40
10.0
 40
11.0
 40
11.0
 40
11.0
 40
12.0
 40
12.0
 40
12.0
 40
13.0
 40
13.0
 40
13.0
 40
13.0
 10
45.32849933762621
 20
-74.51224770272611
 30
0.0
 10
45.09561088282332
 20
-74.67089434982186
 30
0.0
 10
44.9960476232996
 20
-74.74496390275473
 30
0.0
 10
44.94402668147233
 20
-74.88879663926392
 30
0.0
 10
44.94402668147233
 20
-74.88879663926392
 30
0.0
 10
45.77601724116016
 20
-74.88879663926392
 30
0.0
 10
45.77601724116016
 20
-74.88879663926392
 30
0.0
 10
45.77601724116016
 20
-74.88879663926392
 30
0.0
 10
45.77601724116016
 20
-75.09395207541054
 30
0.0
 10
45.77601724116016
 20
-75.09395207541054
 30
0.0
 10
45.77601724116016
 20
-75.09395207541054
 30
0.0
 10
44.67737629091399
 20
-75.09395207541054
 30
0.0
 10
44.67737629091399
 20
-75.09395207541054
 30
0.0
 10
44.7113104814437
 20
-74.73652341881588
 30
0.0
 10
44.78141817456854
 20
-74.65814749652644
 30
0.0
 10
45.19276257550737
 20
-74.35997448227806
 30
0.0
 10
45.4663031570362
 20
-74.1610202180049
 30
0.0
 10
45.53641085016104
 20
-74.09332409171972
 30
0.0
 10
45.53641085016104
 20
-73.95586478185825
 30
0.0
 10
45.53641085016104
 20
-73.83735349716567
 30
0.0
 10
45.45958522083997
 20
-73.70626761395191
 30
0.0
 10
45.24926214146546
 20
-73.70626761395191
 30
0.0
 10
44.9712429358058
 20
-73.70626761395191
 30
0.0
 10
44.96228568754415
 20
-73.93674450191513
 30
0.0
 10
44.95763480863906
 20
-74.05318872931657
 30
0.0
 10
44.95763480863906
 20
-74.05318872931657
 30
0.0
 10
44.71802841763994
 20
-74.05318872931657
 30
0.0
 10
44.71802841763994
 20
-74.05318872931657
 30
0.0
 10
44.72698566590159
 20
-73.92623696068512
 30
0.0
 10
44.73835448100292
 20
-73.81409910264023
 30
0.0
 10
44.82430961335989
 20
-73.69558781794764
 30
0.0
 10
44.94178736940692
 20
-73.53487411356073
 30
0.0
 10
45.14074163368009
 20
-73.50093992303101
 30
0.0
 10
45.26510958069761
 20
-73.50093992303101
 30
0.0
 10
45.5613877924291
 20
-73.50093992303101
 30
0.0
 10
45.78290743213066
 20
-73.68508027671763
 30
0.0
 10
45.78290743213066
 20
-73.95793183914941
 30
0.0
 10
45.78290743213066
 20
-74.18651392459573
 30
0.0
 10
45.65853948511315
 20
-74.2859049293452
 30
0.0
 10
45.32849933762621
 20
-74.51224770272611
 30
0.0
  0
HATCH
  5
11A
330
113
100
AcDbEntity
  8
_U+30EC_U+30A4_U+30E4_U+30FC 1
 62
   179
420
  2234388
100
AcDbHatch
 10
0.0
 20
0.0
 30
0.0
210
0.0
220
0.0
230
1.0
  2
SOLID
 70
     1
 71
     0
 91
        1
 92
        1
 93
        1
 72
     4
 94
        3
 73
     0
 74
     1
 95
       44
 96
       40
 40
0.0
 40
0.0
 40
0.0
 40
0.0
 40
1.0
 40
1.0
 40
1.0
 40
2.0
 40
2.0
 40
2.0
 40
3.0
 40
3.0
 40
3.0
 40
4.0
 40
4.0
 40
4.0
 40
5.0
 40
5.0
 40
5.0
 40
6.0
 40
6.0
 40
6.0
 40
7.0
 40
7.0
 40
7.0
 40
8.0
 40
8.0
 40
8.0
 40
9.0
 40
9.0
 40
9.0
 40
10.0
 40
10.0
 40
10.0
 40
11.0
 40
11.0
 40
11.0
 40
12.0
 40
12.0
 40
12.0
 40
13.0
 40
13.0
 40
13.0
 40
13.0
 10
45.32849933762621
 20
-74.51224770272611
 10
45.09561088282332
 20
-74.67089434982186
 10
44.9960476232996
 20
-74.74496390275473
 10
44.94402668147233
 20
-74.88879663926392
 10
44.94402668147233
 20
-74.88879663926392
 10
45.77601724116016
 20
-74.88879663926392
 10
45.77601724116016
 20
-74.88879663926392
 10
45.77601724116016
 20
-74.88879663926392
 10
45.77601724116016
 20
-75.09395207541054
 10
45.77601724116016
 20
-75.09395207541054
 10
45.77601724116016
 20
-75.09395207541054
 10
44.67737629091399
 20
-75.09395207541054
 10
44.67737629091399
 20
-75.09395207541054
 10
44.7113104814437
 20
-74.73652341881588
 10
44.78141817456854
 20
-74.65814749652644
 10
45.19276257550737
 20
-74.35997448227806
 10
45.4663031570362
 20
-74.1610202180049
 10
45.53641085016104
 20
-74.09332409171972
 10
45.53641085016104
 20
-73.95586478185825
 10
45.53641085016104
 20
-73.83735349716567
 10
45.45958522083997
 20
-73.70626761395191
 10
45.24926214146546
 20
-73.70626761395191
 10
44.9712429358058
 20
-73.70626761395191
 10
44.96228568754415
 20
-73.93674450191513
 10
44.95763480863906
 20
-74.05318872931657
 10
44.95763480863906
 20
-74.05318872931657
 10
44.71802841763994
 20
-74.05318872931657
 10
44.71802841763994
 20
-74.05318872931657
 10
44.72698566590159
 20
-73.92623696068512
 10
44.73835448100292
 20
-73.81409910264023
 10
44.82430961335989
 20
-73.69558781794764
 10
44.94178736940692
 20
-73.53487411356073
 10
45.14074163368009
 20
-73.50093992303101
 10
45.26510958069761
 20
-73.50093992303101
 10
45.5613877924291
 20
-73.50093992303101
 10
45.78290743213066
 20
-73.68508027671763
 10
45.78290743213066
 20
-73.95793183914941
 10
45.78290743213066
 20
-74.18651392459573
 10
45.65853948511315
 20
-74.2859049293452
 10
45.32849933762621
 20
-74.51224770272611
 97
        0
 97
        0
 75
     2
 76
     1
 98
        0
  0
ENDBLK
  5
116
330
113
100
AcDbEntity
  8
0
100
AcDbBlockEnd
  0
BLOCK
  5
11D
330
11B
100
AcDbEntity
  8
0
100
AcDbBlockBegin
  2
block 5
 70
     0
 10
0.0
 20
0.0
 30
0.0
  3
block 5
  1

  0
SPLINE
  5
11F
330
11B
100
AcDbEntity
  8
_U+30EC_U+30A4_U+30E4_U+30FC 1
 62
   179
420
  2234388
370
    25
100
AcDbSpline
210
0.0
220
0.0
230
1.0
 70
    11
 71
     3
 72
    17
 73
    13
 74
     0
 42
0.0000000001
 43
0.0000000001
 12
1.0
 22
0.0
 32
0.0
 13
1.0
 23
0.0
 33
0.0
 40
0.0
 40
0.0
 40
0.0
 40
0.0
 40
1.0
 40
1.0
 40
1.0
 40
2.0
 40
2.0
 40
2.0
 40
3.0
 40
3.0
 40
3.0
 40
4.0
 40
4.0
 40
4.0
 40
4.0
 10
55.63623054164644
 20
-79.46696914679987
 30
0.0
 10
55.63623054164644
 20
-79.4862660912397
 30
0.0
 10
55.62038941433898
 20
-79.50214109123543
 30
0.0
 10
55.60109247038685
 20
-79.50214109123543
 30
0.0
 10
55.5817955264347
 20
-79.50214109123543
 30
0.0
 10
55.56595580461659
 20
-79.4862660912397
 30
0.0
 10
55.56595580461659
 20
-79.46696914679987
 30
0.0
 10
55.56595580461659
 20
-79.44700192458266
 30
0.0
 10
55.5817955264347
 20
-79.43116220236446
 30
0.0
 10
55.60109247038685
 20
-79.43116220236446
 30
0.0
 10
55.62038941433898
 20
-79.43116220236446
 30
0.0
 10
55.63623054164644
 20
-79.44700192458266
 30
0.0
 10
55.63623054164644
 20
-79.46696914679987
 30
0.0
  0
ENDBLK
  5
11E
330
11B
100
AcDbEntity
  8
0
100
AcDbBlockEnd
  0
BLOCK
  5
122
330
120
100
AcDbEntity
  8
0
100
AcDbBlockBegin
  2
block 6
 70
     0
 10
0.0
 20
0.0
 30
0.0
  3
block 6
  1

  0
SPLINE
  5
124
330
120
100
AcDbEntity
  8
_U+30EC_U+30A4_U+30E4_U+30FC 1
 62
   179
420
  2234388
370
    25
100
AcDbSpline
210
0.0
220
0.0
230
1.0
 70
    11
 71
     3
 72
    17
 73
    13
 74
     0
 42
0.0000000001
 43
0.0000000001
 12
1.0
 22
0.0
 32
0.0
 13
1.0
 23
0.0
 33
0.0
 40
0.0
 40
0.0
 40
0.0
 40
0.0
 40
1.0
 40
1.0
 40
1.0
 40
2.0
 40
2.0
 40
2.0
 40
3.0
 40
3.0
 40
3.0
 40
4.0
 40
4.0
 40
4.0
 40
4.0
 10
33.6363733249243
 20
-79.46696914679987
 30
0.0
 10
33.6363733249243
 20
-79.4862660912397
 30
0.0
 10
33.62049832492824
 20
-79.50214109123543
 30
0.0
 10
33.60123665826625
 20
-79.50214109123543
 30
0.0
 10
33.58123415827122
 20
-79.50214109123543
 30
0.0
 10
33.565394436053
 20
-79.4862660912397
 30
0.0
 10
33.565394436053
 20
-79.46696914679987
 30
0.0
 10
33.565394436053
 20
-79.44700192458266
 30
0.0
 10
33.58123415827122
 20
-79.43116220236446
 30
0.0
 10
33.60123665826625
 20
-79.43116220236446
 30
0.0
 10
33.62049832492824
 20
-79.43116220236446
 30
0.0
 10
33.6363733249243
 20
-79.44700192458266
 30
0.0
 10
33.6363733249243
 20
-79.46696914679987
 30
0.0
  0
ENDBLK
  5
123
330
120
100
AcDbEntity
  8
0
100
AcDbBlockEnd
  0
BLOCK
  5
127
330
125
100
AcDbEntity
  8
0
100
AcDbBlockBegin
  2
block 7
 70
     0
 10
0.0
 20
0.0
 30
0.0
  3
block 7
  1

  0
SPLINE
  5
129
330
125
100
AcDbEntity
  8
_U+30EC_U+30A4_U+30E4_U+30FC 1
 62
   179
420
  2234388
370
     9
100
AcDbSpline
210
0.0
220
0.0
230
1.0
 70
    11
 71
     3
 72
    17
 73
    13
 74
     0
 42
0.0000000001
 43
0.0000000001
 12
1.0
 22
0.0
 32
0.0
 13
1.0
 23
0.0
 33
0.0
 40
0.0
 40
0.0
 40
0.0
 40
0.0
 40
1.0
 40
1.0
 40
1.0
 40
2.0
 40
2.0
 40
2.0
 40
3.0
 40
3.0
 40
3.0
 40
4.0
 40
4.0
 40
4.0
 40
4.0
 10
33.6363733249243
 20
-75.46653970335562
 30
0.0
 10
33.6363733249243
 20
-75.48583664779513
 30
0.0
 10
33.62049832492824
 20
-75.50167637001334
 30
0.0
 10
33.60123665826625
 20
-75.50167637001334
 30
0.0
 10
33.58123415827122
 20
-75.50167637001334
 30
0.0
 10
33.565394436053
 20
-75.48583664779513
 30
0.0
 10
33.565394436053
 20
-75.46653970335562
 30
0.0
 10
33.565394436053
 20
-75.4472427589161
 30
0.0
 10
33.58123415827122
 20
-75.43140303669757
 30
0.0
 10
33.60123665826625
 20
-75.43140303669757
 30
0.0
 10
33.62049832492824
 20
-75.43140303669757
 30
0.0
 10
33.6363733249243
 20
-75.4472427589161
 30
0.0
 10
33.6363733249243
 20
-75.46653970335562
 30
0.0
  0
ENDBLK
  5
128
330
125
100
AcDbEntity
  8
0
100
AcDbBlockEnd
  0
BLOCK
  5
12C
330
12A
100
AcDbEntity
  8
0
100
AcDbBlockBegin
  2
block 8
 70
     0
 10
0.0
 20
0.0
 30
0.0
  3
block 8
  1

  0
POLYLINE
  5
12E
330
12A
100
AcDbEntity
  8
_U+30EC_U+30A4_U+30E4_U+30FC 1
 62
   179
420
  2234388
370
     9
100
AcDb2dPolyline
 66
     1
 10
0.0
 20
0.0
 30
0.0
  0
VERTEX
  5
12F
330
12E
100
AcDbEntity
  8
_U+30EC_U+30A4_U+30E4_U+30FC 1
 62
   179
420
  2234388
370
     9
100
AcDbVertex
100
AcDb2dVertex
 10
55.60109247038685
 20
-75.46653970335562
 30
0.0
  0
VERTEX
  5
130
330
12E
100
AcDbEntity
  8
_U+30EC_U+30A4_U+30E4_U+30FC 1
 62
   179
420
  2234388
370
     9
100
AcDbVertex
100
AcDb2dVertex
 10
65.60149720582197
 20
-75.46653970335562
 30
0.0
  0
SEQEND
  5
131
330
12E
100
AcDbEntity
  8
_U+30EC_U+30A4_U+30E4_U+30FC 1
 62
   179
420
  2234388
370
     9
  0
POLYLINE
  5
132
330
12A
100
AcDbEntity
  8
_U+30EC_U+30A4_U+30E4_U+30FC 1
 62
   179
420
  2234388
370
     9
100
AcDb2dPolyline
 66
     1
 10
0.0
 20
0.0
 30
0.0
  0
VERTEX
  5
133
330
132
100
AcDbEntity
  8
_U+30EC_U+30A4_U+30E4_U+30FC 1
 62
   179
420
  2234388
370
     9
100
AcDbVertex
100
AcDb2dVertex
 10
65.60149720582197
 20
-76.92658109187933
 30
0.0
  0
VERTEX
  5
134
330
132
100
AcDbEntity
  8
_U+30EC_U+30A4_U+30E4_U+30FC 1
 62
   179
420
  2234388
370
     9
100
AcDbVertex
100
AcDb2dVertex
 10
65.60149720582197
 20
-74.4667674813834
 30
0.0
  0
SEQEND
  5
135
330
132
100
AcDbEntity
  8
_U+30EC_U+30A4_U+30E4_U+30FC 1
 62
   179
420
  2234388
370
     9
  0
INSERT
  5
137
330
12A
100
AcDbEntity
  8
_U+30EC_U+30A4_U+30E4_U+30FC 1
100
AcDbBlockReference
  2
block 9
 10
0.0
 20
0.0
 30
0.0
  0
INSERT
  5
140
330
12A
100
AcDbEntity
  8
_U+30EC_U+30A4_U+30E4_U+30FC 1
100
AcDbBlockReference
  2
block 10
 10
0.0
 20
0.0
 30
0.0
  0
INSERT
  5
145
330
12A
100
AcDbEntity
  8
_U+30EC_U+30A4_U+30E4_U+30FC 1
100
AcDbBlockReference
  2
block 11
 10
0.0
 20
0.0
 30
0.0
  0
INSERT
  5
14A
330
12A
100
AcDbEntity
  8
_U+30EC_U+30A4_U+30E4_U+30FC 1
100
AcDbBlockReference
  2
block 12
 10
0.0
 20
0.0
 30
0.0
  0
ENDBLK
  5
12D
330
12A
100
AcDbEntity
  8
0
100
AcDbBlockEnd
  0
BLOCK
  5
138
330
136
100
AcDbEntity
  8
0
100
AcDbBlockBegin
  2
block 9
 70
     0
 10
0.0
 20
0.0
 30
0.0
  3
block 9
  1

  0
SPLINE
  5
13A
330
136
100
AcDbEntity
  8
_U+30EC_U+30A4_U+30E4_U+30FC 1
370
     0
100
AcDbSpline
210
0.0
220
0.0
230
1.0
 70
    11
 71
     3
 72
    26
 73
    22
 74
     0
 42
0.0000000001
 43
0.0000000001
 12
1.0
 22
0.0
 32
0.0
 13
1.0
 23
0.0
 33
0.0
 40
0.0
 40
0.0
 40
0.0
 40
0.0
 40
1.0
 40
1.0
 40
1.0
 40
2.0
 40
2.0
 40
2.0
 40
3.0
 40
3.0
 40
3.0
 40
4.0
 40
4.0
 40
4.0
 40
5.0
 40
5.0
 40
5.0
 40
6.0
 40
6.0
 40
6.0
 40
7.0
 40
7.0
 40
7.0
 40
7.0
 10
59.91899548198206
 20
-75.09395207541054
 30
0.0
 10
59.91899548198206
 20
-75.09395207541054
 30
0.0
 10
59.91899548198206
 20
-73.9896267176137
 30
0.0
 10
59.91899548198206
 20
-73.9896267176137
 30
0.0
 10
59.91899548198206
 20
-73.9896267176137
 30
0.0
 10
59.56621770429248
 20
-73.9896267176137
 30
0.0
 10
59.56621770429248
 20
-73.9896267176137
 30
0.0
 10
59.56621770429248
 20
-73.9896267176137
 30
0.0
 10
59.56621770429248
 20
-73.84165986652222
 30
0.0
 10
59.56621770429248
 20
-73.84165986652222
 30
0.0
 10
59.92123479404747
 20
-73.82684595593565
 30
0.0
 10
59.97084416903507
 20
-73.66389293948333
 30
0.0
 10
60.00253904749937
 20
-73.5496880241473
 30
0.0
 10
60.00253904749937
 20
-73.5496880241473
 30
0.0
 10
60.15860187298119
 20
-73.5496880241473
 30
0.0
 10
60.15860187298119
 20
-73.5496880241473
 30
0.0
 10
60.15860187298119
 20
-73.5496880241473
 30
0.0
 10
60.15860187298119
 20
-75.09395207541054
 30
0.0
 10
60.15860187298119
 20
-75.09395207541054
 30
0.0
 10
60.15860187298119
 20
-75.09395207541054
 30
0.0
 10
59.91899548198206
 20
-75.09395207541054
 30
0.0
 10
59.91899548198206
 20
-75.09395207541054
 30
0.0
  0
HATCH
  5
13B
330
136
100
AcDbEntity
  8
_U+30EC_U+30A4_U+30E4_U+30FC 1
 62
   179
420
  2234388
100
AcDbHatch
 10
0.0
 20
0.0
 30
0.0
210
0.0
220
0.0
230
1.0
  2
SOLID
 70
     1
 71
     0
 91
        1
 92
        1
 93
        1
 72
     4
 94
        3
 73
     0
 74
     1
 95
       26
 96
       22
 40
0.0
 40
0.0
 40
0.0
 40
0.0
 40
1.0
 40
1.0
 40
1.0
 40
2.0
 40
2.0
 40
2.0
 40
3.0
 40
3.0
 40
3.0
 40
4.0
 40
4.0
 40
4.0
 40
5.0
 40
5.0
 40
5.0
 40
6.0
 40
6.0
 40
6.0
 40
7.0
 40
7.0
 40
7.0
 40
7.0
 10
59.91899548198206
 20
-75.09395207541054
 10
59.91899548198206
 20
-75.09395207541054
 10
59.91899548198206
 20
-73.9896267176137
 10
59.91899548198206
 20
-73.9896267176137
 10
59.91899548198206
 20
-73.9896267176137
 10
59.56621770429248
 20
-73.9896267176137
 10
59.56621770429248
 20
-73.9896267176137
 10
59.56621770429248
 20
-73.9896267176137
 10
59.56621770429248
 20
-73.84165986652222
 10
59.56621770429248
 20
-73.84165986652222
 10
59.92123479404747
 20
-73.82684595593565
 10
59.97084416903507
 20
-73.66389293948333
 10
60.00253904749937
 20
-73.5496880241473
 10
60.00253904749937
 20
-73.5496880241473
 10
60.15860187298119
 20
-73.5496880241473
 10
60.15860187298119
 20
-73.5496880241473
 10
60.15860187298119
 20
-73.5496880241473
 10
60.15860187298119
 20
-75.09395207541054
 10
60.15860187298119
 20
-75.09395207541054
 10
60.15860187298119
 20
-75.09395207541054
 10
59.91899548198206
 20
-75.09395207541054
 10
59.91899548198206
 20
-75.09395207541054
 97
        0
 97
        0
 75
     2
 76
     1
 98
        0
  0
SPLINE
  5
13C
330
136
100
AcDbEntity
  8
_U+30EC_U+30A4_U+30E4_U+30FC 1
370
     0
100
AcDbSpline
210
0.0
220
0.0
230
1.0
 70
    11
 71
     3
 72
    29
 73
    25
 74
     0
 42
0.0000000001
 43
0.0000000001
 12
1.0
 22
0.0
 32
0.0
 13
1.0
 23
0.0
 33
0.0
 40
0.0
 40
0.0
 40
0.0
 40
0.0
 40
1.0
 40
1.0
 40
1.0
 40
2.0
 40
2.0
 40
2.0
 40
3.0
 40
3.0
 40
3.0
 40
4.0
 40
4.0
 40
4.0
 40
5.0
 40
5.0
 40
5.0
 40
6.0
 40
6.0
 40
6.0
 40
7.0
 40
7.0
 40
7.0
 40
8.0
 40
8.0
 40
8.0
 40
8.0
 10
61.65377331357961
 20
-74.91635740314591
 30
0.0
 10
61.53836261482375
 20
-75.12564695387483
 30
0.0
 10
61.3530164777173
 20
-75.14476723381797
 30
0.0
 10
61.22864853069979
 20
-75.14476723381797
 30
0.0
 10
61.05691052076008
 20
-75.14476723381797
 30
0.0
 10
60.90532631940908
 20
-75.09825844476711
 30
0.0
 10
60.80369600259422
 20
-74.91635740314591
 30
0.0
 10
60.69293618274344
 20
-74.7217095082293
 30
0.0
 10
60.67261011938046
 20
-74.4846869388441
 30
0.0
 10
60.67261011938046
 20
-74.32190617716606
 30
0.0
 10
60.67261011938046
 20
-74.17790118588262
 30
0.0
 10
60.69052461590376
 20
-73.92623696068512
 30
0.0
 10
60.80369600259422
 20
-73.72745495118619
 30
0.0
 10
60.91893444657583
 20
-73.52419431755645
 30
0.0
 10
61.09084471128979
 20
-73.50093992303101
 30
0.0
 10
61.22864853069979
 20
-73.50093992303101
 30
0.0
 10
61.39831948334834
 20
-73.50093992303101
 30
0.0
 10
61.55197074199048
 20
-73.54538165479075
 30
0.0
 10
61.65377331357961
 20
-73.72745495118619
 30
0.0
 10
61.76005450929957
 20
-73.9198635340374
 30
0.0
 10
61.78485919679337
 20
-74.14827336470947
 30
0.0
 10
61.78485919679337
 20
-74.32190617716606
 30
0.0
 10
61.78485919679337
 20
-74.49312742278298
 30
0.0
 10
61.76229382136498
 20
-74.72377656552045
 30
0.0
 10
61.65377331357961
 20
-74.91635740314591
 30
0.0
  0
SPLINE
  5
13D
330
136
100
AcDbEntity
  8
_U+30EC_U+30A4_U+30E4_U+30FC 1
370
     0
100
AcDbSpline
210
0.0
220
0.0
230
1.0
 70
    11
 71
     3
 72
    17
 73
    13
 74
     0
 42
0.0000000001
 43
0.0000000001
 12
1.0
 22
0.0
 32
0.0
 13
1.0
 23
0.0
 33
0.0
 40
0.0
 40
0.0
 40
0.0
 40
0.0
 40
1.0
 40
1.0
 40
1.0
 40
2.0
 40
2.0
 40
2.0
 40
3.0
 40
3.0
 40
3.0
 40
4.0
 40
4.0
 40
4.0
 40
4.0
 10
61.22864853069979
 20
-73.69352076065648
 30
0.0
 10
60.96199814014145
 20
-73.69352076065648
 30
0.0
 10
60.91221651037959
 20
-73.97705211909255
 30
0.0
 10
60.91221651037959
 20
-74.32190617716606
 30
0.0
 10
60.91221651037959
 20
-74.64126652864871
 30
0.0
 10
60.95062932504013
 20
-74.95011933890136
 30
0.0
 10
61.22864853069979
 20
-74.95011933890136
 30
0.0
 10
61.49323186396698
 20
-74.95011933890136
 30
0.0
 10
61.54525280579424
 20
-74.66882729253071
 30
0.0
 10
61.54525280579424
 20
-74.32190617716606
 30
0.0
 10
61.54525280579424
 20
-74.00237357090913
 30
0.0
 10
61.5046006790683
 20
-73.69352076065648
 30
0.0
 10
61.22864853069979
 20
-73.69352076065648
 30
0.0
  0
HATCH
  5
13E
330
136
100
AcDbEntity
  8
_U+30EC_U+30A4_U+30E4_U+30FC 1
 62
   179
420
  2234388
100
AcDbHatch
 10
0.0
 20
0.0
 30
0.0
210
0.0
220
0.0
230
1.0
  2
SOLID
 70
     1
 71
     0
 91
        2
 92
        1
 93
        1
 72
     4
 94
        3
 73
     0
 74
     1
 95
       29
 96
       25
 40
0.0
 40
0.0
 40
0.0
 40
0.0
 40
1.0
 40
1.0
 40
1.0
 40
2.0
 40
2.0
 40
2.0
 40
3.0
 40
3.0
 40
3.0
 40
4.0
 40
4.0
 40
4.0
 40
5.0
 40
5.0
 40
5.0
 40
6.0
 40
6.0
 40
6.0
 40
7.0
 40
7.0
 40
7.0
 40
8.0
 40
8.0
 40
8.0
 40
8.0
 10
61.65377331357961
 20
-74.91635740314591
 10
61.53836261482375
 20
-75.12564695387483
 10
61.3530164777173
 20
-75.14476723381797
 10
61.22864853069979
 20
-75.14476723381797
 10
61.05691052076008
 20
-75.14476723381797
 10
60.90532631940908
 20
-75.09825844476711
 10
60.80369600259422
 20
-74.91635740314591
 10
60.69293618274344
 20
-74.7217095082293
 10
60.67261011938046
 20
-74.4846869388441
 10
60.67261011938046
 20
-74.32190617716606
 10
60.67261011938046
 20
-74.17790118588262
 10
60.69052461590376
 20
-73.92623696068512
 10
60.80369600259422
 20
-73.72745495118619
 10
60.91893444657583
 20
-73.52419431755645
 10
61.09084471128979
 20
-73.50093992303101
 10
61.22864853069979
 20
-73.50093992303101
 10
61.39831948334834
 20
-73.50093992303101
 10
61.55197074199048
 20
-73.54538165479075
 10
61.65377331357961
 20
-73.72745495118619
 10
61.76005450929957
 20
-73.9198635340374
 10
61.78485919679337
 20
-74.14827336470947
 10
61.78485919679337
 20
-74.32190617716606
 10
61.78485919679337
 20
-74.49312742278298
 10
61.76229382136498
 20
-74.72377656552045
 10
61.65377331357961
 20
-74.91635740314591
 97
        0
 97
        0
 92
        1
 93
        1
 72
     4
 94
        3
 73
     0
 74
     1
 95
       17
 96
       13
 40
0.0
 40
0.0
 40
0.0
 40
0.0
 40
1.0
 40
1.0
 40
1.0
 40
2.0
 40
2.0
 40
2.0
 40
3.0
 40
3.0
 40
3.0
 40
4.0
 40
4.0
 40
4.0
 40
4.0
 10
61.22864853069979
 20
-73.69352076065648
 10
60.96199814014145
 20
-73.69352076065648
 10
60.91221651037959
 20
-73.97705211909255
 10
60.91221651037959
 20
-74.32190617716606
 10
60.91221651037959
 20
-74.64126652864871
 10
60.95062932504013
 20
-74.95011933890136
 10
61.22864853069979
 20
-74.95011933890136
 10
61.49323186396698
 20
-74.95011933890136
 10
61.54525280579424
 20
-74.66882729253071
 10
61.54525280579424
 20
-74.32190617716606
 10
61.54525280579424
 20
-74.00237357090913
 10
61.5046006790683
 20
-73.69352076065648
 10
61.22864853069979
 20
-73.69352076065648
 97
        0
 97
        0
 75
     2
 76
     1
 98
        0
  0
ENDBLK
  5
139
330
136
100
AcDbEntity
  8
0
100
AcDbBlockEnd
  0
BLOCK
  5
141
330
13F
100
AcDbEntity
  8
0
100
AcDbBlockBegin
  2
block 10
 70
     0
 10
0.0
 20
0.0
 30
0.0
  3
block 10
  1

  0
SPLINE
  5
143
330
13F
100
AcDbEntity
  8
_U+30EC_U+30A4_U+30E4_U+30FC 1
 62
   179
420
  2234388
370
    25
100
AcDbSpline
210
0.0
220
0.0
230
1.0
 70
    11
 71
     3
 72
    17
 73
    13
 74
     0
 42
0.0000000001
 43
0.0000000001
 12
1.0
 22
0.0
 32
0.0
 13
1.0
 23
0.0
 33
0.0
 40
0.0
 40
0.0
 40
0.0
 40
0.0
 40
1.0
 40
1.0
 40
1.0
 40
2.0
 40
2.0
 40
2.0
 40
3.0
 40
3.0
 40
3.0
 40
4.0
 40
4.0
 40
4.0
 40
4.0
 10
55.63623054164644
 20
-79.46696914679987
 30
0.0
 10
55.63623054164644
 20
-79.4862660912397
 30
0.0
 10
55.62038941433898
 20
-79.50214109123543
 30
0.0
 10
55.60109247038685
 20
-79.50214109123543
 30
0.0
 10
55.5817955264347
 20
-79.50214109123543
 30
0.0
 10
55.56595580461659
 20
-79.4862660912397
 30
0.0
 10
55.56595580461659
 20
-79.46696914679987
 30
0.0
 10
55.56595580461659
 20
-79.44700192458266
 30
0.0
 10
55.5817955264347
 20
-79.43116220236446
 30
0.0
 10
55.60109247038685
 20
-79.43116220236446
 30
0.0
 10
55.62038941433898
 20
-79.43116220236446
 30
0.0
 10
55.63623054164644
 20
-79.44700192458266
 30
0.0
 10
55.63623054164644
 20
-79.46696914679987
 30
0.0
  0
ENDBLK
  5
142
330
13F
100
AcDbEntity
  8
0
100
AcDbBlockEnd
  0
BLOCK
  5
146
330
144
100
AcDbEntity
  8
0
100
AcDbBlockBegin
  2
block 11
 70
     0
 10
0.0
 20
0.0
 30
0.0
  3
block 11
  1

  0
SPLINE
  5
148
330
144
100
AcDbEntity
  8
_U+30EC_U+30A4_U+30E4_U+30FC 1
 62
   179
420
  2234388
370
    25
100
AcDbSpline
210
0.0
220
0.0
230
1.0
 70
    11
 71
     3
 72
    17
 73
    13
 74
     0
 42
0.0000000001
 43
0.0000000001
 12
1.0
 22
0.0
 32
0.0
 13
1.0
 23
0.0
 33
0.0
 40
0.0
 40
0.0
 40
0.0
 40
0.0
 40
1.0
 40
1.0
 40
1.0
 40
2.0
 40
2.0
 40
2.0
 40
3.0
 40
3.0
 40
3.0
 40
4.0
 40
4.0
 40
4.0
 40
4.0
 10
65.6366322143589
 20
-79.46696914679987
 30
0.0
 10
65.6366322143589
 20
-79.4862660912397
 30
0.0
 10
65.62079249254077
 20
-79.50214109123543
 30
0.0
 10
65.60149720582197
 20
-79.50214109123543
 30
0.0
 10
65.58152832687583
 20
-79.50214109123543
 30
0.0
 10
65.5656886050577
 20
-79.4862660912397
 30
0.0
 10
65.5656886050577
 20
-79.46696914679987
 30
0.0
 10
65.5656886050577
 20
-79.44700192458266
 30
0.0
 10
65.58152832687583
 20
-79.43116220236446
 30
0.0
 10
65.60149720582197
 20
-79.43116220236446
 30
0.0
 10
65.62079249254077
 20
-79.43116220236446
 30
0.0
 10
65.6366322143589
 20
-79.44700192458266
 30
0.0
 10
65.6366322143589
 20
-79.46696914679987
 30
0.0
  0
ENDBLK
  5
147
330
144
100
AcDbEntity
  8
0
100
AcDbBlockEnd
  0
BLOCK
  5
14B
330
149
100
AcDbEntity
  8
0
100
AcDbBlockBegin
  2
block 12
 70
     0
 10
0.0
 20
0.0
 30
0.0
  3
block 12
  1

  0
SPLINE
  5
14D
330
149
100
AcDbEntity
  8
_U+30EC_U+30A4_U+30E4_U+30FC 1
 62
   179
420
  2234388
370
     9
100
AcDbSpline
210
0.0
220
0.0
230
1.0
 70
    11
 71
     3
 72
    17
 73
    13
 74
     0
 42
0.0000000001
 43
0.0000000001
 12
1.0
 22
0.0
 32
0.0
 13
1.0
 23
0.0
 33
0.0
 40
0.0
 40
0.0
 40
0.0
 40
0.0
 40
1.0
 40
1.0
 40
1.0
 40
2.0
 40
2.0
 40
2.0
 40
3.0
 40
3.0
 40
3.0
 40
4.0
 40
4.0
 40
4.0
 40
4.0
 10
65.6366322143589
 20
-75.46653970335562
 30
0.0
 10
65.6366322143589
 20
-75.48583664779513
 30
0.0
 10
65.62079249254077
 20
-75.50167637001334
 30
0.0
 10
65.60149720582197
 20
-75.50167637001334
 30
0.0
 10
65.58152832687583
 20
-75.50167637001334
 30
0.0
 10
65.5656886050577
 20
-75.48583664779513
 30
0.0
 10
65.5656886050577
 20
-75.46653970335562
 30
0.0
 10
65.5656886050577
 20
-75.4472427589161
 30
0.0
 10
65.58152832687583
 20
-75.43140303669757
 30
0.0
 10
65.60149720582197
 20
-75.43140303669757
 30
0.0
 10
65.62079249254077
 20
-75.43140303669757
 30
0.0
 10
65.6366322143589
 20
-75.4472427589161
 30
0.0
 10
65.6366322143589
 20
-75.46653970335562
 30
0.0
  0
ENDBLK
  5
14C
330
149
100
AcDbEntity
  8
0
100
AcDbBlockEnd
  0
BLOCK
  5
150
330
14E
100
AcDbEntity
  8
0
100
AcDbBlockBegin
  2
block 13
 70
     0
 10
0.0
 20
0.0
 30
0.0
  3
block 13
  1

  0
POLYLINE
  5
152
330
14E
100
AcDbEntity
  8
_U+30EC_U+30A4_U+30E4_U+30FC 1
 62
   179
420
  2234388
370
     9
100
AcDb2dPolyline
 66
     1
 10
0.0
 20
0.0
 30
0.0
  0
VERTEX
  5
153
330
152
100
AcDbEntity
  8
_U+30EC_U+30A4_U+30E4_U+30FC 1
 62
   179
420
  2234388
370
     9
100
AcDbVertex
100
AcDb2dVertex
 10
65.60149720582197
 20
-75.46653970335562
 30
0.0
  0
VERTEX
  5
154
330
152
100
AcDbEntity
  8
_U+30EC_U+30A4_U+30E4_U+30FC 1
 62
   179
420
  2234388
370
     9
100
AcDbVertex
100
AcDb2dVertex
 10
87.60121109844025
 20
-75.46653970335562
 30
0.0
  0
SEQEND
  5
155
330
152
100
AcDbEntity
  8
_U+30EC_U+30A4_U+30E4_U+30FC 1
 62
   179
420
  2234388
370
     9
  0
POLYLINE
  5
156
330
14E
100
AcDbEntity
  8
_U+30EC_U+30A4_U+30E4_U+30FC 1
 62
   179
420
  2234388
370
     9
100
AcDb2dPolyline
 66
     1
 10
0.0
 20
0.0
 30
0.0
  0
VERTEX
  5
157
330
156
100
AcDbEntity
  8
_U+30EC_U+30A4_U+30E4_U+30FC 1
 62
   179
420
  2234388
370
     9
100
AcDbVertex
100
AcDb2dVertex
 10
87.60121109844025
 20
-76.92658109187933
 30
0.0
  0
VERTEX
  5
158
330
156
100
AcDbEntity
  8
_U+30EC_U+30A4_U+30E4_U+30FC 1
 62
   179
420
  2234388
370
     9
100
AcDbVertex
100
AcDb2dVertex
 10
87.60121109844025
 20
-74.4667674813834
 30
0.0
  0
SEQEND
  5
159
330
156
100
AcDbEntity
  8
_U+30EC_U+30A4_U+30E4_U+30FC 1
 62
   179
420
  2234388
370
     9
  0
INSERT
  5
15B
330
14E
100
AcDbEntity
  8
_U+30EC_U+30A4_U+30E4_U+30FC 1
100
AcDbBlockReference
  2
block 14
 10
0.0
 20
0.0
 30
0.0
  0
INSERT
  5
163
330
14E
100
AcDbEntity
  8
_U+30EC_U+30A4_U+30E4_U+30FC 1
100
AcDbBlockReference
  2
block 15
 10
0.0
 20
0.0
 30
0.0
  0
INSERT
  5
168
330
14E
100
AcDbEntity
  8
_U+30EC_U+30A4_U+30E4_U+30FC 1
100
AcDbBlockReference
  2
block 16
 10
0.0
 20
0.0
 30
0.0
  0
INSERT
  5
16D
330
14E
100
AcDbEntity
  8
_U+30EC_U+30A4_U+30E4_U+30FC 1
100
AcDbBlockReference
  2
block 17
 10
0.0
 20
0.0
 30
0.0
  0
ENDBLK
  5
151
330
14E
100
AcDbEntity
  8
0
100
AcDbBlockEnd
  0
BLOCK
  5
15C
330
15A
100
AcDbEntity
  8
0
100
AcDbBlockBegin
  2
block 14
 70
     0
 10
0.0
 20
0.0
 30
0.0
  3
block 14
  1

  0
SPLINE
  5
15E
330
15A
100
AcDbEntity
  8
_U+30EC_U+30A4_U+30E4_U+30FC 1
370
     0
100
AcDbSpline
210
0.0
220
0.0
230
1.0
 70
    11
 71
     3
 72
    44
 73
    40
 74
     0
 42
0.0000000001
 43
0.0000000001
 12
1.0
 22
0.0
 32
0.0
 13
1.0
 23
0.0
 33
0.0
 40
0.0
 40
0.0
 40
0.0
 40
0.0
 40
1.0
 40
1.0
 40
1.0
 40
2.0
 40
2.0
 40
2.0
 40
3.0
 40
3.0
 40
3.0
 40
4.0
 40
4.0
 40
4.0
 40
5.0
 40
5.0
 40
5.0
 40
6.0
 40
6.0
 40
6.0
 40
7.0
 40
7.0
 40
7.0
 40
8.0
 40
8.0
 40
8.0
 40
9.0
 40
9.0
 40
9.0
 40
10.0
 40
10.0
 40
10.0
 40
11.0
 40
11.0
 40
11.0
 40
12.0
 40
12.0
 40
12.0
 40
13.0
 40
13.0
 40
13.0
 40
13.0
 10
76.07080890025314
 20
-74.51224770272611
 30
0.0
 10
75.83792044545025
 20
-74.67089434982186
 30
0.0
 10
75.73835718592653
 20
-74.74496390275473
 30
0.0
 10
75.68633624409925
 20
-74.88879663926392
 30
0.0
 10
75.68633624409925
 20
-74.88879663926392
 30
0.0
 10
76.51832680378709
 20
-74.88879663926392
 30
0.0
 10
76.51832680378709
 20
-74.88879663926392
 30
0.0
 10
76.51832680378709
 20
-74.88879663926392
 30
0.0
 10
76.51832680378709
 20
-75.09395207541054
 30
0.0
 10
76.51832680378709
 20
-75.09395207541054
 30
0.0
 10
76.51832680378709
 20
-75.09395207541054
 30
0.0
 10
75.41968585354091
 20
-75.09395207541054
 30
0.0
 10
75.41968585354091
 20
-75.09395207541054
 30
0.0
 10
75.45344778929636
 20
-74.73652341881588
 30
0.0
 10
75.52372773719546
 20
-74.65814749652644
 30
0.0
 10
75.93507213813429
 20
-74.35997448227806
 30
0.0
 10
76.20861271966312
 20
-74.1610202180049
 30
0.0
 10
76.2785481580137
 20
-74.09332409171972
 30
0.0
 10
76.2785481580137
 20
-73.95586478185825
 30
0.0
 10
76.2785481580137
 20
-73.83735349716567
 30
0.0
 10
76.20172252869263
 20
-73.70626761395191
 30
0.0
 10
75.9915717040924
 20
-73.70626761395191
 30
0.0
 10
75.71355249843273
 20
-73.70626761395191
 30
0.0
 10
75.70459525017108
 20
-73.93674450191513
 30
0.0
 10
75.69977211649173
 20
-74.05318872931657
 30
0.0
 10
75.69977211649173
 20
-74.05318872931657
 30
0.0
 10
75.46033798026686
 20
-74.05318872931657
 30
0.0
 10
75.46033798026686
 20
-74.05318872931657
 30
0.0
 10
75.46929522852851
 20
-73.92623696068512
 30
0.0
 10
75.48066404362984
 20
-73.81409910264023
 30
0.0
 10
75.56644692121256
 20
-73.69558781794764
 30
0.0
 10
75.68426918680811
 20
-73.53487411356073
 30
0.0
 10
75.88305119630702
 20
-73.50093992303101
 30
0.0
 10
76.00741914332454
 20
-73.50093992303101
 30
0.0
 10
76.30369735505603
 20
-73.50093992303101
 30
0.0
 10
76.52521699475759
 20
-73.68508027671763
 30
0.0
 10
76.52521699475759
 20
-73.95793183914941
 30
0.0
 10
76.52521699475759
 20
-74.18651392459573
 30
0.0
 10
76.40084904774007
 20
-74.2859049293452
 30
0.0
 10
76.07080890025314
 20
-74.51224770272611
 30
0.0
  0
HATCH
  5
15F
330
15A
100
AcDbEntity
  8
_U+30EC_U+30A4_U+30E4_U+30FC 1
 62
   179
420
  2234388
100
AcDbHatch
 10
0.0
 20
0.0
 30
0.0
210
0.0
220
0.0
230
1.0
  2
SOLID
 70
     1
 71
     0
 91
        1
 92
        1
 93
        1
 72
     4
 94
        3
 73
     0
 74
     1
 95
       44
 96
       40
 40
0.0
 40
0.0
 40
0.0
 40
0.0
 40
1.0
 40
1.0
 40
1.0
 40
2.0
 40
2.0
 40
2.0
 40
3.0
 40
3.0
 40
3.0
 40
4.0
 40
4.0
 40
4.0
 40
5.0
 40
5.0
 40
5.0
 40
6.0
 40
6.0
 40
6.0
 40
7.0
 40
7.0
 40
7.0
 40
8.0
 40
8.0
 40
8.0
 40
9.0
 40
9.0
 40
9.0
 40
10.0
 40
10.0
 40
10.0
 40
11.0
 40
11.0
 40
11.0
 40
12.0
 40
12.0
 40
12.0
 40
13.0
 40
13.0
 40
13.0
 40
13.0
 10
76.07080890025314
 20
-74.51224770272611
 10
75.83792044545025
 20
-74.67089434982186
 10
75.73835718592653
 20
-74.74496390275473
 10
75.68633624409925
 20
-74.88879663926392
 10
75.68633624409925
 20
-74.88879663926392
 10
76.51832680378709
 20
-74.88879663926392
 10
76.51832680378709
 20
-74.88879663926392
 10
76.51832680378709
 20
-74.88879663926392
 10
76.51832680378709
 20
-75.09395207541054
 10
76.51832680378709
 20
-75.09395207541054
 10
76.51832680378709
 20
-75.09395207541054
 10
75.41968585354091
 20
-75.09395207541054
 10
75.41968585354091
 20
-75.09395207541054
 10
75.45344778929636
 20
-74.73652341881588
 10
75.52372773719546
 20
-74.65814749652644
 10
75.93507213813429
 20
-74.35997448227806
 10
76.20861271966312
 20
-74.1610202180049
 10
76.2785481580137
 20
-74.09332409171972
 10
76.2785481580137
 20
-73.95586478185825
 10
76.2785481580137
 20
-73.83735349716567
 10
76.20172252869263
 20
-73.70626761395191
 10
75.9915717040924
 20
-73.70626761395191
 10
75.71355249843273
 20
-73.70626761395191
 10
75.70459525017108
 20
-73.93674450191513
 10
75.69977211649173
 20
-74.05318872931657
 10
75.69977211649173
 20
-74.05318872931657
 10
75.46033798026686
 20
-74.05318872931657
 10
75.46033798026686
 20
-74.05318872931657
 10
75.46929522852851
 20
-73.92623696068512
 10
75.48066404362984
 20
-73.81409910264023
 10
75.56644692121256
 20
-73.69558781794764
 10
75.68426918680811
 20
-73.53487411356073
 10
75.88305119630702
 20
-73.50093992303101
 10
76.00741914332454
 20
-73.50093992303101
 10
76.30369735505603
 20
-73.50093992303101
 10
76.52521699475759
 20
-73.68508027671763
 10
76.52521699475759
 20
-73.95793183914941
 10
76.52521699475759
 20
-74.18651392459573
 10
76.40084904774007
 20
-74.2859049293452
 10
76.07080890025314
 20
-74.51224770272611
 97
        0
 97
        0
 75
     2
 76
     1
 98
        0
  0
SPLINE
  5
160
330
15A
100
AcDbEntity
  8
_U+30EC_U+30A4_U+30E4_U+30FC 1
370
     0
100
AcDbSpline
210
0.0
220
0.0
230
1.0
 70
    11
 71
     3
 72
    44
 73
    40
 74
     0
 42
0.0000000001
 43
0.0000000001
 12
1.0
 22
0.0
 32
0.0
 13
1.0
 23
0.0
 33
0.0
 40
0.0
 40
0.0
 40
0.0
 40
0.0
 40
1.0
 40
1.0
 40
1.0
 40
2.0
 40
2.0
 40
2.0
 40
3.0
 40
3.0
 40
3.0
 40
4.0
 40
4.0
 40
4.0
 40
5.0
 40
5.0
 40
5.0
 40
6.0
 40
6.0
 40
6.0
 40
7.0
 40
7.0
 40
7.0
 40
8.0
 40
8.0
 40
8.0
 40
9.0
 40
9.0
 40
9.0
 40
10.0
 40
10.0
 40
10.0
 40
11.0
 40
11.0
 40
11.0
 40
12.0
 40
12.0
 40
12.0
 40
13.0
 40
13.0
 40
13.0
 40
13.0
 10
77.32861326191785
 20
-74.51224770272611
 30
0.0
 10
77.09572480711496
 20
-74.67089434982186
 30
0.0
 10
76.99616154759124
 20
-74.74496390275473
 30
0.0
 10
76.94414060576396
 20
-74.88879663926392
 30
0.0
 10
76.94414060576396
 20
-74.88879663926392
 30
0.0
 10
77.7761311654518
 20
-74.88879663926392
 30
0.0
 10
77.7761311654518
 20
-74.88879663926392
 30
0.0
 10
77.7761311654518
 20
-74.88879663926392
 30
0.0
 10
77.7761311654518
 20
-75.09395207541054
 30
0.0
 10
77.7761311654518
 20
-75.09395207541054
 30
0.0
 10
77.7761311654518
 20
-75.09395207541054
 30
0.0
 10
76.67749021520564
 20
-75.09395207541054
 30
0.0
 10
76.67749021520564
 20
-75.09395207541054
 30
0.0
 10
76.71125215096107
 20
-74.73652341881588
 30
0.0
 10
76.78153209886018
 20
-74.65814749652644
 30
0.0
 10
77.19287649979901
 20
-74.35997448227806
 30
0.0
 10
77.46641708132785
 20
-74.1610202180049
 30
0.0
 10
77.53635251967842
 20
-74.09332409171972
 30
0.0
 10
77.53635251967842
 20
-73.95586478185825
 30
0.0
 10
77.53635251967842
 20
-73.83735349716567
 30
0.0
 10
77.45952689035734
 20
-73.70626761395191
 30
0.0
 10
77.2493760657571
 20
-73.70626761395191
 30
0.0
 10
76.97135686009744
 20
-73.70626761395191
 30
0.0
 10
76.96205510228727
 20
-73.93674450191513
 30
0.0
 10
76.95757647815644
 20
-74.05318872931657
 30
0.0
 10
76.95757647815644
 20
-74.05318872931657
 30
0.0
 10
76.71814234193158
 20
-74.05318872931657
 30
0.0
 10
76.71814234193158
 20
-74.05318872931657
 30
0.0
 10
76.72709959019323
 20
-73.92623696068512
 30
0.0
 10
76.73846840529455
 20
-73.81409910264023
 30
0.0
 10
76.82425128287727
 20
-73.69558781794764
 30
0.0
 10
76.9417290389243
 20
-73.53487411356073
 30
0.0
 10
77.14085555797173
 20
-73.50093992303101
 30
0.0
 10
77.26522350498925
 20
-73.50093992303101
 30
0.0
 10
77.56150171672074
 20
-73.50093992303101
 30
0.0
 10
77.78302135642231
 20
-73.68508027671763
 30
0.0
 10
77.78302135642231
 20
-73.95793183914941
 30
0.0
 10
77.78302135642231
 20
-74.18651392459573
 30
0.0
 10
77.65865340940478
 20
-74.2859049293452
 30
0.0
 10
77.32861326191785
 20
-74.51224770272611
 30
0.0
  0
HATCH
  5
161
330
15A
100
AcDbEntity
  8
_U+30EC_U+30A4_U+30E4_U+30FC 1
 62
   179
420
  2234388
100
AcDbHatch
 10
0.0
 20
0.0
 30
0.0
210
0.0
220
0.0
230
1.0
  2
SOLID
 70
     1
 71
     0
 91
        1
 92
        1
 93
        1
 72
     4
 94
        3
 73
     0
 74
     1
 95
       44
 96
       40
 40
0.0
 40
0.0
 40
0.0
 40
0.0
 40
1.0
 40
1.0
 40
1.0
 40
2.0
 40
2.0
 40
2.0
 40
3.0
 40
3.0
 40
3.0
 40
4.0
 40
4.0
 40
4.0
 40
5.0
 40
5.0
 40
5.0
 40
6.0
 40
6.0
 40
6.0
 40
7.0
 40
7.0
 40
7.0
 40
8.0
 40
8.0
 40
8.0
 40
9.0
 40
9.0
 40
9.0
 40
10.0
 40
10.0
 40
10.0
 40
11.0
 40
11.0
 40
11.0
 40
12.0
 40
12.0
 40
12.0
 40
13.0
 40
13.0
 40
13.0
 40
13.0
 10
77.32861326191785
 20
-74.51224770272611
 10
77.09572480711496
 20
-74.67089434982186
 10
76.99616154759124
 20
-74.74496390275473
 10
76.94414060576396
 20
-74.88879663926392
 10
76.94414060576396
 20
-74.88879663926392
 10
77.7761311654518
 20
-74.88879663926392
 10
77.7761311654518
 20
-74.88879663926392
 10
77.7761311654518
 20
-74.88879663926392
 10
77.7761311654518
 20
-75.09395207541054
 10
77.7761311654518
 20
-75.09395207541054
 10
77.7761311654518
 20
-75.09395207541054
 10
76.67749021520564
 20
-75.09395207541054
 10
76.67749021520564
 20
-75.09395207541054
 10
76.71125215096107
 20
-74.73652341881588
 10
76.78153209886018
 20
-74.65814749652644
 10
77.19287649979901
 20
-74.35997448227806
 10
77.46641708132785
 20
-74.1610202180049
 10
77.53635251967842
 20
-74.09332409171972
 10
77.53635251967842
 20
-73.95586478185825
 10
77.53635251967842
 20
-73.83735349716567
 10
77.45952689035734
 20
-73.70626761395191
 10
77.2493760657571
 20
-73.70626761395191
 10
76.97135686009744
 20
-73.70626761395191
 10
76.96205510228727
 20
-73.93674450191513
 10
76.95757647815644
 20
-74.05318872931657
 10
76.95757647815644
 20
-74.05318872931657
 10
76.71814234193158
 20
-74.05318872931657
 10
76.71814234193158
 20
-74.05318872931657
 10
76.72709959019323
 20
-73.92623696068512
 10
76.73846840529455
 20
-73.81409910264023
 10
76.82425128287727
 20
-73.69558781794764
 10
76.9417290389243
 20
-73.53487411356073
 10
77.14085555797173
 20
-73.50093992303101
 10
77.26522350498925
 20
-73.50093992303101
 10
77.56150171672074
 20
-73.50093992303101
 10
77.78302135642231
 20
-73.68508027671763
 10
77.78302135642231
 20
-73.95793183914941
 10
77.78302135642231
 20
-74.18651392459573
 10
77.65865340940478
 20
-74.2859049293452
 10
77.32861326191785
 20
-74.51224770272611
 97
        0
 97
        0
 75
     2
 76
     1
 98
        0
  0
ENDBLK
  5
15D
330
15A
100
AcDbEntity
  8
0
100
AcDbBlockEnd
  0
BLOCK
  5
164
330
162
100
AcDbEntity
  8
0
100
AcDbBlockBegin
  2
block 15
 70
     0
 10
0.0
 20
0.0
 30
0.0
  3
block 15
  1

  0
SPLINE
  5
166
330
162
100
AcDbEntity
  8
_U+30EC_U+30A4_U+30E4_U+30FC 1
 62
   179
420
  2234388
370
    25
100
AcDbSpline
210
0.0
220
0.0
230
1.0
 70
    11
 71
     3
 72
    17
 73
    13
 74
     0
 42
0.0000000001
 43
0.0000000001
 12
1.0
 22
0.0
 32
0.0
 13
1.0
 23
0.0
 33
0.0
 40
0.0
 40
0.0
 40
0.0
 40
0.0
 40
1.0
 40
1.0
 40
1.0
 40
2.0
 40
2.0
 40
2.0
 40
3.0
 40
3.0
 40
3.0
 40
4.0
 40
4.0
 40
4.0
 40
4.0
 10
65.6366322143589
 20
-79.46696914679987
 30
0.0
 10
65.6366322143589
 20
-79.4862660912397
 30
0.0
 10
65.62079249254077
 20
-79.50214109123543
 30
0.0
 10
65.60149720582197
 20
-79.50214109123543
 30
0.0
 10
65.58152832687583
 20
-79.50214109123543
 30
0.0
 10
65.5656886050577
 20
-79.4862660912397
 30
0.0
 10
65.5656886050577
 20
-79.46696914679987
 30
0.0
 10
65.5656886050577
 20
-79.44700192458266
 30
0.0
 10
65.58152832687583
 20
-79.43116220236446
 30
0.0
 10
65.60149720582197
 20
-79.43116220236446
 30
0.0
 10
65.62079249254077
 20
-79.43116220236446
 30
0.0
 10
65.6366322143589
 20
-79.44700192458266
 30
0.0
 10
65.6366322143589
 20
-79.46696914679987
 30
0.0
  0
ENDBLK
  5
165
330
162
100
AcDbEntity
  8
0
100
AcDbBlockEnd
  0
BLOCK
  5
169
330
167
100
AcDbEntity
  8
0
100
AcDbBlockBegin
  2
block 16
 70
     0
 10
0.0
 20
0.0
 30
0.0
  3
block 16
  1

  0
SPLINE
  5
16B
330
167
100
AcDbEntity
  8
_U+30EC_U+30A4_U+30E4_U+30FC 1
 62
   179
420
  2234388
370
    25
100
AcDbSpline
210
0.0
220
0.0
230
1.0
 70
    11
 71
     3
 72
    17
 73
    13
 74
     0
 42
0.0000000001
 43
0.0000000001
 12
1.0
 22
0.0
 32
0.0
 13
1.0
 23
0.0
 33
0.0
 40
0.0
 40
0.0
 40
0.0
 40
0.0
 40
1.0
 40
1.0
 40
1.0
 40
2.0
 40
2.0
 40
2.0
 40
3.0
 40
3.0
 40
3.0
 40
4.0
 40
4.0
 40
4.0
 40
4.0
 10
87.63634997809079
 20
-79.46696914679987
 30
0.0
 10
87.63634997809079
 20
-79.4862660912397
 30
0.0
 10
87.62047497809475
 20
-79.50214109123543
 30
0.0
 10
87.60121109844025
 20
-79.50214109123543
 30
0.0
 10
87.5819141544881
 20
-79.50214109123543
 30
0.0
 10
87.56607443266999
 20
-79.4862660912397
 30
0.0
 10
87.56607443266999
 20
-79.46696914679987
 30
0.0
 10
87.56607443266999
 20
-79.44700192458266
 30
0.0
 10
87.5819141544881
 20
-79.43116220236446
 30
0.0
 10
87.60121109844025
 20
-79.43116220236446
 30
0.0
 10
87.62047497809475
 20
-79.43116220236446
 30
0.0
 10
87.63634997809079
 20
-79.44700192458266
 30
0.0
 10
87.63634997809079
 20
-79.46696914679987
 30
0.0
  0
ENDBLK
  5
16A
330
167
100
AcDbEntity
  8
0
100
AcDbBlockEnd
  0
BLOCK
  5
16E
330
16C
100
AcDbEntity
  8
0
100
AcDbBlockBegin
  2
block 17
 70
     0
 10
0.0
 20
0.0
 30
0.0
  3
block 17
  1

  0
SPLINE
  5
170
330
16C
100
AcDbEntity
  8
_U+30EC_U+30A4_U+30E4_U+30FC 1
 62
   179
420
  2234388
370
     9
100
AcDbSpline
210
0.0
220
0.0
230
1.0
 70
    11
 71
     3
 72
    17
 73
    13
 74
     0
 42
0.0000000001
 43
0.0000000001
 12
1.0
 22
0.0
 32
0.0
 13
1.0
 23
0.0
 33
0.0
 40
0.0
 40
0.0
 40
0.0
 40
0.0
 40
1.0
 40
1.0
 40
1.0
 40
2.0
 40
2.0
 40
2.0
 40
3.0
 40
3.0
 40
3.0
 40
4.0
 40
4.0
 40
4.0
 40
4.0
 10
87.63634997809079
 20
-75.46653970335562
 30
0.0
 10
87.63634997809079
 20
-75.48583664779513
 30
0.0
 10
87.62047497809475
 20
-75.50167637001334
 30
0.0
 10
87.60121109844025
 20
-75.50167637001334
 30
0.0
 10
87.5819141544881
 20
-75.50167637001334
 30
0.0
 10
87.56607443266999
 20
-75.48583664779513
 30
0.0
 10
87.56607443266999
 20
-75.46653970335562
 30
0.0
 10
87.56607443266999
 20
-75.4472427589161
 30
0.0
 10
87.5819141544881
 20
-75.43140303669757
 30
0.0
 10
87.60121109844025
 20
-75.43140303669757
 30
0.0
 10
87.62047497809475
 20
-75.43140303669757
 30
0.0
 10
87.63634997809079
 20
-75.4472427589161
 30
0.0
 10
87.63634997809079
 20
-75.46653970335562
 30
0.0
  0
ENDBLK
  5
16F
330
16C
100
AcDbEntity
  8
0
100
AcDbBlockEnd
  0
BLOCK
  5
173
330
171
100
AcDbEntity
  8
0
100
AcDbBlockBegin
  2
block 18
 70
     0
 10
0.0
 20
0.0
 30
0.0
  3
block 18
  1

  0
POLYLINE
  5
175
330
171
100
AcDbEntity
  8
_U+30EC_U+30A4_U+30E4_U+30FC 1
 62
   179
420
  2234388
370
     9
100
AcDb2dPolyline
 66
     1
 10
0.0
 20
0.0
 30
0.0
  0
VERTEX
  5
176
330
175
100
AcDbEntity
  8
_U+30EC_U+30A4_U+30E4_U+30FC 1
 62
   179
420
  2234388
370
     9
100
AcDbVertex
100
AcDb2dVertex
 10
58.85119877635861
 20
-100.4669130304387
 30
0.0
  0
VERTEX
  5
177
330
175
100
AcDbEntity
  8
_U+30EC_U+30A4_U+30E4_U+30FC 1
 62
   179
420
  2234388
370
     9
100
AcDbVertex
100
AcDb2dVertex
 10
49.18632263404125
 20
-100.4669130304387
 30
0.0
  0
SEQEND
  5
178
330
175
100
AcDbEntity
  8
_U+30EC_U+30A4_U+30E4_U+30FC 1
 62
   179
420
  2234388
370
     9
  0
POLYLINE
  5
179
330
171
100
AcDbEntity
  8
_U+30EC_U+30A4_U+30E4_U+30FC 1
 62
   179
420
  2234388
370
     9
100
AcDb2dPolyline
 66
     1
 10
0.0
 20
0.0
 30
0.0
  0
VERTEX
  5
17A
330
179
100
AcDbEntity
  8
_U+30EC_U+30A4_U+30E4_U+30FC 1
 62
   179
420
  2234388
370
     9
100
AcDbVertex
100
AcDb2dVertex
 10
58.85119877635861
 20
-100.4669130304387
 30
0.0
  0
VERTEX
  5
17B
330
179
100
AcDbEntity
  8
_U+30EC_U+30A4_U+30E4_U+30FC 1
 62
   179
420
  2234388
370
     9
100
AcDbVertex
100
AcDb2dVertex
 10
62.35138924261687
 20
-100.4669130304387
 30
0.0
  0
SEQEND
  5
17C
330
179
100
AcDbEntity
  8
_U+30EC_U+30A4_U+30E4_U+30FC 1
 62
   179
420
  2234388
370
     9
  0
POLYLINE
  5
17D
330
171
100
AcDbEntity
  8
_U+30EC_U+30A4_U+30E4_U+30FC 1
 62
   179
420
  2234388
370
     9
100
AcDb2dPolyline
 66
     1
 10
0.0
 20
0.0
 30
0.0
  0
VERTEX
  5
17E
330
17D
100
AcDbEntity
  8
_U+30EC_U+30A4_U+30E4_U+30FC 1
 62
   179
420
  2234388
370
     9
100
AcDbVertex
100
AcDb2dVertex
 10
58.85119877635861
 20
-99.00687164191504
 30
0.0
  0
VERTEX
  5
17F
330
17D
100
AcDbEntity
  8
_U+30EC_U+30A4_U+30E4_U+30FC 1
 62
   179
420
  2234388
370
     9
100
AcDbVertex
100
AcDb2dVertex
 10
58.85119877635861
 20
-101.4666852524113
 30
0.0
  0
SEQEND
  5
180
330
17D
100
AcDbEntity
  8
_U+30EC_U+30A4_U+30E4_U+30FC 1
 62
   179
420
  2234388
370
     9
  0
POLYLINE
  5
181
330
171
100
AcDbEntity
  8
_U+30EC_U+30A4_U+30E4_U+30FC 1
 62
   179
420
  2234388
370
     9
100
AcDb2dPolyline
 66
     1
 10
0.0
 20
0.0
 30
0.0
  0
VERTEX
  5
182
330
181
100
AcDbEntity
  8
_U+30EC_U+30A4_U+30E4_U+30FC 1
 62
   179
420
  2234388
370
     9
100
AcDbVertex
100
AcDb2dVertex
 10
62.35138924261687
 20
-99.00687164191504
 30
0.0
  0
VERTEX
  5
183
330
181
100
AcDbEntity
  8
_U+30EC_U+30A4_U+30E4_U+30FC 1
 62
   179
420
  2234388
370
     9
100
AcDbVertex
100
AcDb2dVertex
 10
62.35138924261687
 20
-101.4666852524113
 30
0.0
  0
SEQEND
  5
184
330
181
100
AcDbEntity
  8
_U+30EC_U+30A4_U+30E4_U+30FC 1
 62
   179
420
  2234388
370
     9
  0
INSERT
  5
186
330
171
100
AcDbEntity
  8
_U+30EC_U+30A4_U+30E4_U+30FC 1
100
AcDbBlockReference
  2
block 19
 10
0.0
 20
0.0
 30
0.0
  0
INSERT
  5
196
330
171
100
AcDbEntity
  8
_U+30EC_U+30A4_U+30E4_U+30FC 1
100
AcDbBlockReference
  2
block 20
 10
0.0
 20
0.0
 30
0.0
  0
INSERT
  5
19B
330
171
100
AcDbEntity
  8
_U+30EC_U+30A4_U+30E4_U+30FC 1
100
AcDbBlockReference
  2
block 21
 10
0.0
 20
0.0
 30
0.0
  0
INSERT
  5
1A0
330
171
100
AcDbEntity
  8
_U+30EC_U+30A4_U+30E4_U+30FC 1
100
AcDbBlockReference
  2
block 22
 10
0.0
 20
0.0
 30
0.0
  0
ENDBLK
  5
174
330
171
100
AcDbEntity
  8
0
100
AcDbBlockEnd
  0
BLOCK
  5
187
330
185
100
AcDbEntity
  8
0
100
AcDbBlockBegin
  2
block 19
 70
     0
 10
0.0
 20
0.0
 30
0.0
  3
block 19
  1

  0
SPLINE
  5
189
330
185
100
AcDbEntity
  8
_U+30EC_U+30A4_U+30E4_U+30FC 1
370
     0
100
AcDbSpline
210
0.0
220
0.0
230
1.0
 70
    11
 71
     3
 72
    62
 73
    58
 74
     0
 42
0.0000000001
 43
0.0000000001
 12
1.0
 22
0.0
 32
0.0
 13
1.0
 23
0.0
 33
0.0
 40
0.0
 40
0.0
 40
0.0
 40
0.0
 40
1.0
 40
1.0
 40
1.0
 40
2.0
 40
2.0
 40
2.0
 40
3.0
 40
3.0
 40
3.0
 40
4.0
 40
4.0
 40
4.0
 40
5.0
 40
5.0
 40
5.0
 40
6.0
 40
6.0
 40
6.0
 40
7.0
 40
7.0
 40
7.0
 40
8.0
 40
8.0
 40
8.0
 40
9.0
 40
9.0
 40
9.0
 40
10.0
 40
10.0
 40
10.0
 40
11.0
 40
11.0
 40
11.0
 40
12.0
 40
12.0
 40
12.0
 40
13.0
 40
13.0
 40
13.0
 40
14.0
 40
14.0
 40
14.0
 40
15.0
 40
15.0
 40
15.0
 40
16.0
 40
16.0
 40
16.0
 40
17.0
 40
17.0
 40
17.0
 40
18.0
 40
18.0
 40
18.0
 40
19.0
 40
19.0
 40
19.0
 40
19.0
 10
59.68455673421081
 20
-100.1447916416305
 30
0.0
 10
59.58275416262168
 20
-100.1447916416305
 30
0.0
 10
59.34986570781879
 20
-100.1237765591705
 30
0.0
 10
59.21654051253962
 20
-99.93739689341844
 30
0.0
 10
59.13747557115313
 20
-99.82543129014782
 30
0.0
 10
59.13282469224804
 20
-99.7258680306241
 30
0.0
 10
59.12834606811722
 20
-99.64111868168695
 30
0.0
 10
59.12834606811722
 20
-99.64111868168695
 30
0.0
 10
59.36347383498552
 20
-99.64111868168695
 30
0.0
 10
59.36347383498552
 20
-99.64111868168695
 30
0.0
 10
59.36571314705093
 20
-99.71518823461982
 30
0.0
 10
59.37708196215226
 20
-99.95014374671386
 30
0.0
 10
59.68007811007998
 20
-99.95014374671386
 30
0.0
 10
59.82701143252589
 20
-99.95014374671386
 30
0.0
 10
59.98979219420394
 20
-99.88020830836328
 30
0.0
 10
59.98979219420394
 20
-99.65179847769122
 30
0.0
 10
59.98979219420394
 20
-99.53535425028977
 30
0.0
 10
59.94896781270374
 20
-99.48677840394775
 30
0.0
 10
59.91520587694828
 20
-99.45508352548346
 30
0.0
 10
59.83596868078754
 20
-99.38101397255059
 30
0.0
 10
59.71160073377002
 20
-99.36826711925517
 30
0.0
 10
59.65286185574651
 20
-99.36826711925517
 30
0.0
 10
59.63253579238354
 20
-99.36826711925517
 30
0.0
 10
59.594122977723
 20
-99.37033417654631
 30
0.0
 10
59.56466741132412
 20
-99.37481280067713
 30
0.0
 10
59.56466741132412
 20
-99.37481280067713
 30
0.0
 10
59.56466741132412
 20
-99.18016490576052
 30
0.0
 10
59.56466741132412
 20
-99.18016490576052
 30
0.0
 10
59.60531953805006
 20
-99.18636607763396
 30
0.0
 10
59.6506225436811
 20
-99.18843313492512
 30
0.0
 10
59.65734047987733
 20
-99.18843313492512
 30
0.0
 10
59.72744817300217
 20
-99.18843313492512
 30
0.0
 10
59.94001056444208
 20
-99.1674180524651
 30
0.0
 10
59.94001056444208
 20
-98.9303954830799
 30
0.0
 10
59.94001056444208
 20
-98.75262855604102
 30
0.0
 10
59.79979517819241
 20
-98.69785153782554
 30
0.0
 10
59.6823174221454
 20
-98.69785153782554
 30
0.0
 10
59.39964733758065
 20
-98.69785153782554
 30
0.0
 10
59.39069008931899
 20
-98.9303954830799
 30
0.0
 10
59.38603921041391
 20
-99.00239797872163
 30
0.0
 10
59.38603921041391
 20
-99.00239797872163
 30
0.0
 10
59.16899819484317
 20
-99.00239797872163
 30
0.0
 10
59.16899819484317
 20
-99.00239797872163
 30
0.0
 10
59.17812769787908
 20
-98.87768552215559
 30
0.0
 10
59.20741100950371
 20
-98.50113658561777
 30
0.0
 10
59.69575329453787
 20
-98.50113658561777
 30
0.0
 10
59.93553194031126
 20
-98.50113658561777
 30
0.0
 10
60.19322508260795
 20
-98.62791609947497
 30
0.0
 10
60.19322508260795
 20
-98.92419431120645
 30
0.0
 10
60.19322508260795
 20
-99.11022946740995
 30
0.0
 10
60.09142251101881
 20
-99.19291175905595
 30
0.0
 10
59.98514131529885
 20
-99.25423445869339
 30
0.0
 10
60.05077038429287
 20
-99.28179522257538
 30
0.0
 10
60.24524602443522
 20
-99.36206594738171
 30
0.0
 10
60.24524602443522
 20
-99.63905162439579
 30
0.0
 10
60.24524602443522
 20
-99.97770451059586
 30
0.0
 10
59.98066269116803
 20
-100.1447916416305
 30
0.0
 10
59.68455673421081
 20
-100.1447916416305
 30
0.0
  0
HATCH
  5
18A
330
185
100
AcDbEntity
  8
_U+30EC_U+30A4_U+30E4_U+30FC 1
 62
   179
420
  2234388
100
AcDbHatch
 10
0.0
 20
0.0
 30
0.0
210
0.0
220
0.0
230
1.0
  2
SOLID
 70
     1
 71
     0
 91
        1
 92
        1
 93
        1
 72
     4
 94
        3
 73
     0
 74
     1
 95
       62
 96
       58
 40
0.0
 40
0.0
 40
0.0
 40
0.0
 40
1.0
 40
1.0
 40
1.0
 40
2.0
 40
2.0
 40
2.0
 40
3.0
 40
3.0
 40
3.0
 40
4.0
 40
4.0
 40
4.0
 40
5.0
 40
5.0
 40
5.0
 40
6.0
 40
6.0
 40
6.0
 40
7.0
 40
7.0
 40
7.0
 40
8.0
 40
8.0
 40
8.0
 40
9.0
 40
9.0
 40
9.0
 40
10.0
 40
10.0
 40
10.0
 40
11.0
 40
11.0
 40
11.0
 40
12.0
 40
12.0
 40
12.0
 40
13.0
 40
13.0
 40
13.0
 40
14.0
 40
14.0
 40
14.0
 40
15.0
 40
15.0
 40
15.0
 40
16.0
 40
16.0
 40
16.0
 40
17.0
 40
17.0
 40
17.0
 40
18.0
 40
18.0
 40
18.0
 40
19.0
 40
19.0
 40
19.0
 40
19.0
 10
59.68455673421081
 20
-100.1447916416305
 10
59.58275416262168
 20
-100.1447916416305
 10
59.34986570781879
 20
-100.1237765591705
 10
59.21654051253962
 20
-99.93739689341844
 10
59.13747557115313
 20
-99.82543129014782
 10
59.13282469224804
 20
-99.7258680306241
 10
59.12834606811722
 20
-99.64111868168695
 10
59.12834606811722
 20
-99.64111868168695
 10
59.36347383498552
 20
-99.64111868168695
 10
59.36347383498552
 20
-99.64111868168695
 10
59.36571314705093
 20
-99.71518823461982
 10
59.37708196215226
 20
-99.95014374671386
 10
59.68007811007998
 20
-99.95014374671386
 10
59.82701143252589
 20
-99.95014374671386
 10
59.98979219420394
 20
-99.88020830836328
 10
59.98979219420394
 20
-99.65179847769122
 10
59.98979219420394
 20
-99.53535425028977
 10
59.94896781270374
 20
-99.48677840394775
 10
59.91520587694828
 20
-99.45508352548346
 10
59.83596868078754
 20
-99.38101397255059
 10
59.71160073377002
 20
-99.36826711925517
 10
59.65286185574651
 20
-99.36826711925517
 10
59.63253579238354
 20
-99.36826711925517
 10
59.594122977723
 20
-99.37033417654631
 10
59.56466741132412
 20
-99.37481280067713
 10
59.56466741132412
 20
-99.37481280067713
 10
59.56466741132412
 20
-99.18016490576052
 10
59.56466741132412
 20
-99.18016490576052
 10
59.60531953805006
 20
-99.18636607763396
 10
59.6506225436811
 20
-99.18843313492512
 10
59.65734047987733
 20
-99.18843313492512
 10
59.72744817300217
 20
-99.18843313492512
 10
59.94001056444208
 20
-99.1674180524651
 10
59.94001056444208
 20
-98.9303954830799
 10
59.94001056444208
 20
-98.75262855604102
 10
59.79979517819241
 20
-98.69785153782554
 10
59.6823174221454
 20
-98.69785153782554
 10
59.39964733758065
 20
-98.69785153782554
 10
59.39069008931899
 20
-98.9303954830799
 10
59.38603921041391
 20
-99.00239797872163
 10
59.38603921041391
 20
-99.00239797872163
 10
59.16899819484317
 20
-99.00239797872163
 10
59.16899819484317
 20
-99.00239797872163
 10
59.17812769787908
 20
-98.87768552215559
 10
59.20741100950371
 20
-98.50113658561777
 10
59.69575329453787
 20
-98.50113658561777
 10
59.93553194031126
 20
-98.50113658561777
 10
60.19322508260795
 20
-98.62791609947497
 10
60.19322508260795
 20
-98.92419431120645
 10
60.19322508260795
 20
-99.11022946740995
 10
60.09142251101881
 20
-99.19291175905595
 10
59.98514131529885
 20
-99.25423445869339
 10
60.05077038429287
 20
-99.28179522257538
 10
60.24524602443522
 20
-99.36206594738171
 10
60.24524602443522
 20
-99.63905162439579
 10
60.24524602443522
 20
-99.97770451059586
 10
59.98066269116803
 20
-100.1447916416305
 10
59.68455673421081
 20
-100.1447916416305
 97
        0
 97
        0
 75
     2
 76
     1
 98
        0
  0
POLYLINE
  5
18B
330
185
100
AcDbEntity
  8
_U+30EC_U+30A4_U+30E4_U+30FC 1
370
     0
100
AcDb2dPolyline
 66
     1
 10
0.0
 20
0.0
 30
0.0
  0
VERTEX
  5
18C
330
18B
100
AcDbEntity
  8
_U+30EC_U+30A4_U+30E4_U+30FC 1
370
     0
100
AcDbVertex
100
AcDb2dVertex
 10
60.48106281040057
 20
-100.0941487379973
 30
0.0
  0
VERTEX
  5
18D
330
18B
100
AcDbEntity
  8
_U+30EC_U+30A4_U+30E4_U+30FC 1
370
     0
100
AcDbVertex
100
AcDb2dVertex
 10
60.48106281040057
 20
-99.84231225802554
 30
0.0
  0
VERTEX
  5
18E
330
18B
100
AcDbEntity
  8
_U+30EC_U+30A4_U+30E4_U+30FC 1
370
     0
100
AcDbVertex
100
AcDb2dVertex
 10
60.75012476779858
 20
-99.84231225802554
 30
0.0
  0
VERTEX
  5
18F
330
18B
100
AcDbEntity
  8
_U+30EC_U+30A4_U+30E4_U+30FC 1
370
     0
100
AcDbVertex
100
AcDb2dVertex
 10
60.75012476779858
 20
-100.0941487379973
 30
0.0
  0
VERTEX
  5
190
330
18B
100
AcDbEntity
  8
_U+30EC_U+30A4_U+30E4_U+30FC 1
370
     0
100
AcDbVertex
100
AcDb2dVertex
 10
60.48106281040057
 20
-100.0941487379973
 30
0.0
  0
SEQEND
  5
191
330
18B
100
AcDbEntity
  8
_U+30EC_U+30A4_U+30E4_U+30FC 1
370
     0
  0
HATCH
  5
192
330
185
100
AcDbEntity
  8
_U+30EC_U+30A4_U+30E4_U+30FC 1
 62
   179
420
  2234388
100
AcDbHatch
 10
0.0
 20
0.0
 30
0.0
210
0.0
220
0.0
230
1.0
  2
SOLID
 70
     1
 71
     0
 91
        1
 92
        1
 93
        4
 72
     1
 10
60.48106281040057
 20
-100.0941487379973
 11
60.48106281040057
 21
-99.84231225802554
 72
     1
 10
60.48106281040057
 20
-99.84231225802554
 11
60.75012476779858
 21
-99.84231225802554
 72
     1
 10
60.75012476779858
 20
-99.84231225802554
 11
60.75012476779858
 21
-100.0941487379973
 72
     1
 10
60.75012476779858
 20
-100.0941487379973
 11
60.48106281040057
 21
-100.0941487379973
 97
        0
 75
     2
 76
     1
 98
        0
  0
SPLINE
  5
193
330
185
100
AcDbEntity
  8
_U+30EC_U+30A4_U+30E4_U+30FC 1
370
     0
100
AcDbSpline
210
0.0
220
0.0
230
1.0
 70
    11
 71
     3
 72
    53
 73
    49
 74
     0
 42
0.0000000001
 43
0.0000000001
 12
1.0
 22
0.0
 32
0.0
 13
1.0
 23
0.0
 33
0.0
 40
0.0
 40
0.0
 40
0.0
 40
0.0
 40
1.0
 40
1.0
 40
1.0
 40
2.0
 40
2.0
 40
2.0
 40
3.0
 40
3.0
 40
3.0
 40
4.0
 40
4.0
 40
4.0
 40
5.0
 40
5.0
 40
5.0
 40
6.0
 40
6.0
 40
6.0
 40
7.0
 40
7.0
 40
7.0
 40
8.0
 40
8.0
 40
8.0
 40
9.0
 40
9.0
 40
9.0
 40
10.0
 40
10.0
 40
10.0
 40
11.0
 40
11.0
 40
11.0
 40
12.0
 40
12.0
 40
12.0
 40
13.0
 40
13.0
 40
13.0
 40
14.0
 40
14.0
 40
14.0
 40
15.0
 40
15.0
 40
15.0
 40
16.0
 40
16.0
 40
16.0
 40
16.0
 10
61.51683076804093
 20
-100.1447916416305
 30
0.0
 10
61.43328720252362
 20
-100.1447916416305
 30
0.0
 10
61.32476669473826
 20
-100.1279106737528
 30
0.0
 10
61.21624618695289
 20
-100.0645209168242
 30
0.0
 10
61.03072779507218
 20
-99.95427786129616
 30
0.0
 10
61.0081624196438
 20
-99.82336423285666
 30
0.0
 10
60.98783635628082
 20
-99.71518823461982
 30
0.0
 10
60.98783635628082
 20
-99.71518823461982
 30
0.0
 10
61.22520343521454
 20
-99.71518823461982
 30
0.0
 10
61.22520343521454
 20
-99.71518823461982
 30
0.0
 10
61.28394231323804
 20
-99.91431475366726
 30
0.0
 10
61.41967907535689
 20
-99.9439425748404
 30
0.0
 10
61.51907008010635
 20
-99.9439425748404
 30
0.0
 10
61.66841496939193
 20
-99.9439425748404
 30
0.0
 10
61.83119573106998
 20
-99.84437931531669
 30
0.0
 10
61.83119573106998
 20
-99.61183537006232
 30
0.0
 10
61.83119573106998
 20
-99.35586477550827
 30
0.0
 10
61.63895940299304
 20
-99.28592933715768
 30
0.0
 10
61.51011283184469
 20
-99.28592933715768
 30
0.0
 10
61.47617864131499
 20
-99.28592933715768
 30
0.0
 10
61.32476669473826
 20
-99.28592933715768
 30
0.0
 10
61.22968205934536
 20
-99.41477590830603
 30
0.0
 10
61.22968205934536
 20
-99.41477590830603
 30
0.0
 10
61.04209661017351
 20
-99.39582788313716
 30
0.0
 10
61.04209661017351
 20
-99.39582788313716
 30
0.0
 10
61.04209661017351
 20
-99.39582788313716
 30
0.0
 10
61.17094318132185
 20
-98.5497124319598
 30
0.0
 10
61.17094318132185
 20
-98.5497124319598
 30
0.0
 10
61.17094318132185
 20
-98.5497124319598
 30
0.0
 10
62.00293374100968
 20
-98.5497124319598
 30
0.0
 10
62.00293374100968
 20
-98.5497124319598
 30
0.0
 10
62.00293374100968
 20
-98.5497124319598
 30
0.0
 10
62.00293374100968
 20
-98.74436032687642
 30
0.0
 10
62.00293374100968
 20
-98.74436032687642
 30
0.0
 10
62.00293374100968
 20
-98.74436032687642
 30
0.0
 10
61.34509275810123
 20
-98.74436032687642
 30
0.0
 10
61.34509275810123
 20
-98.74436032687642
 30
0.0
 10
61.34509275810123
 20
-98.74436032687642
 30
0.0
 10
61.2749850649764
 20
-99.1674180524651
 30
0.0
 10
61.2749850649764
 20
-99.1674180524651
 30
0.0
 10
61.34044187919614
 20
-99.13365611670964
 30
0.0
 10
61.42863632361854
 20
-99.09334849953223
 30
0.0
 10
61.55524358270147
 20
-99.09334849953223
 30
0.0
 10
61.82654485216489
 20
-99.09334849953223
 30
0.0
 10
62.07975937033076
 20
-99.27938365573571
 30
0.0
 10
62.07975937033076
 20
-99.59254283534493
 30
0.0
 10
62.07975937033076
 20
-99.90983612953643
 30
0.0
 10
61.84015297933163
 20
-100.1447916416305
 30
0.0
 10
61.51683076804093
 20
-100.1447916416305
 30
0.0
  0
HATCH
  5
194
330
185
100
AcDbEntity
  8
_U+30EC_U+30A4_U+30E4_U+30FC 1
 62
   179
420
  2234388
100
AcDbHatch
 10
0.0
 20
0.0
 30
0.0
210
0.0
220
0.0
230
1.0
  2
SOLID
 70
     1
 71
     0
 91
        1
 92
        1
 93
        1
 72
     4
 94
        3
 73
     0
 74
     1
 95
       53
 96
       49
 40
0.0
 40
0.0
 40
0.0
 40
0.0
 40
1.0
 40
1.0
 40
1.0
 40
2.0
 40
2.0
 40
2.0
 40
3.0
 40
3.0
 40
3.0
 40
4.0
 40
4.0
 40
4.0
 40
5.0
 40
5.0
 40
5.0
 40
6.0
 40
6.0
 40
6.0
 40
7.0
 40
7.0
 40
7.0
 40
8.0
 40
8.0
 40
8.0
 40
9.0
 40
9.0
 40
9.0
 40
10.0
 40
10.0
 40
10.0
 40
11.0
 40
11.0
 40
11.0
 40
12.0
 40
12.0
 40
12.0
 40
13.0
 40
13.0
 40
13.0
 40
14.0
 40
14.0
 40
14.0
 40
15.0
 40
15.0
 40
15.0
 40
16.0
 40
16.0
 40
16.0
 40
16.0
 10
61.51683076804093
 20
-100.1447916416305
 10
61.43328720252362
 20
-100.1447916416305
 10
61.32476669473826
 20
-100.1279106737528
 10
61.21624618695289
 20
-100.0645209168242
 10
61.03072779507218
 20
-99.95427786129616
 10
61.0081624196438
 20
-99.82336423285666
 10
60.98783635628082
 20
-99.71518823461982
 10
60.98783635628082
 20
-99.71518823461982
 10
61.22520343521454
 20
-99.71518823461982
 10
61.22520343521454
 20
-99.71518823461982
 10
61.28394231323804
 20
-99.91431475366726
 10
61.41967907535689
 20
-99.9439425748404
 10
61.51907008010635
 20
-99.9439425748404
 10
61.66841496939193
 20
-99.9439425748404
 10
61.83119573106998
 20
-99.84437931531669
 10
61.83119573106998
 20
-99.61183537006232
 10
61.83119573106998
 20
-99.35586477550827
 10
61.63895940299304
 20
-99.28592933715768
 10
61.51011283184469
 20
-99.28592933715768
 10
61.47617864131499
 20
-99.28592933715768
 10
61.32476669473826
 20
-99.28592933715768
 10
61.22968205934536
 20
-99.41477590830603
 10
61.22968205934536
 20
-99.41477590830603
 10
61.04209661017351
 20
-99.39582788313716
 10
61.04209661017351
 20
-99.39582788313716
 10
61.04209661017351
 20
-99.39582788313716
 10
61.17094318132185
 20
-98.5497124319598
 10
61.17094318132185
 20
-98.5497124319598
 10
61.17094318132185
 20
-98.5497124319598
 10
62.00293374100968
 20
-98.5497124319598
 10
62.00293374100968
 20
-98.5497124319598
 10
62.00293374100968
 20
-98.5497124319598
 10
62.00293374100968
 20
-98.74436032687642
 10
62.00293374100968
 20
-98.74436032687642
 10
62.00293374100968
 20
-98.74436032687642
 10
61.34509275810123
 20
-98.74436032687642
 10
61.34509275810123
 20
-98.74436032687642
 10
61.34509275810123
 20
-98.74436032687642
 10
61.2749850649764
 20
-99.1674180524651
 10
61.2749850649764
 20
-99.1674180524651
 10
61.34044187919614
 20
-99.13365611670964
 10
61.42863632361854
 20
-99.09334849953223
 10
61.55524358270147
 20
-99.09334849953223
 10
61.82654485216489
 20
-99.09334849953223
 10
62.07975937033076
 20
-99.27938365573571
 10
62.07975937033076
 20
-99.59254283534493
 10
62.07975937033076
 20
-99.90983612953643
 10
61.84015297933163
 20
-100.1447916416305
 10
61.51683076804093
 20
-100.1447916416305
 97
        0
 97
        0
 75
     2
 76
     1
 98
        0
  0
ENDBLK
  5
188
330
185
100
AcDbEntity
  8
0
100
AcDbBlockEnd
  0
BLOCK
  5
197
330
195
100
AcDbEntity
  8
0
100
AcDbBlockBegin
  2
block 20
 70
     0
 10
0.0
 20
0.0
 30
0.0
  3
block 20
  1

  0
SPLINE
  5
199
330
195
100
AcDbEntity
  8
_U+30EC_U+30A4_U+30E4_U+30FC 1
 62
   179
420
  2234388
370
    25
100
AcDbSpline
210
0.0
220
0.0
230
1.0
 70
    11
 71
     3
 72
    17
 73
    13
 74
     0
 42
0.0000000001
 43
0.0000000001
 12
1.0
 22
0.0
 32
0.0
 13
1.0
 23
0.0
 33
0.0
 40
0.0
 40
0.0
 40
0.0
 40
0.0
 40
1.0
 40
1.0
 40
1.0
 40
2.0
 40
2.0
 40
2.0
 40
3.0
 40
3.0
 40
3.0
 40
4.0
 40
4.0
 40
4.0
 40
4.0
 10
58.88633544212887
 20
-96.46644830921699
 30
0.0
 10
58.88633544212887
 20
-96.48645080921169
 30
0.0
 10
58.87049720750474
 20
-96.50229053143023
 30
0.0
 10
58.85119877635861
 20
-96.50229053143023
 30
0.0
 10
58.83190183240647
 20
-96.50229053143023
 30
0.0
 10
58.81606211058835
 20
-96.48645080921169
 30
0.0
 10
58.81606211058835
 20
-96.46644830921699
 30
0.0
 10
58.81606211058835
 20
-96.44718664255467
 30
0.0
 10
58.83190183240647
 20
-96.43131164255861
 30
0.0
 10
58.85119877635861
 20
-96.43131164255861
 30
0.0
 10
58.87049720750474
 20
-96.43131164255861
 30
0.0
 10
58.88633544212887
 20
-96.44718664255467
 30
0.0
 10
58.88633544212887
 20
-96.46644830921699
 30
0.0
  0
ENDBLK
  5
198
330
195
100
AcDbEntity
  8
0
100
AcDbBlockEnd
  0
BLOCK
  5
19C
330
19A
100
AcDbEntity
  8
0
100
AcDbBlockBegin
  2
block 21
 70
     0
 10
0.0
 20
0.0
 30
0.0
  3
block 21
  1

  0
SPLINE
  5
19E
330
19A
100
AcDbEntity
  8
_U+30EC_U+30A4_U+30E4_U+30FC 1
 62
   179
420
  2234388
370
    25
100
AcDbSpline
210
0.0
220
0.0
230
1.0
 70
    11
 71
     3
 72
    17
 73
    13
 74
     0
 42
0.0000000001
 43
0.0000000001
 12
1.0
 22
0.0
 32
0.0
 13
1.0
 23
0.0
 33
0.0
 40
0.0
 40
0.0
 40
0.0
 40
0.0
 40
1.0
 40
1.0
 40
1.0
 40
2.0
 40
2.0
 40
2.0
 40
3.0
 40
3.0
 40
3.0
 40
4.0
 40
4.0
 40
4.0
 40
4.0
 10
62.386561186164
 20
-96.46644830921699
 30
0.0
 10
62.386561186164
 20
-96.48645080921169
 30
0.0
 10
62.37068618656901
 20
-96.50229053143023
 30
0.0
 10
62.35138924261687
 20
-96.50229053143023
 30
0.0
 10
62.33142202090406
 20
-96.50229053143023
 30
0.0
 10
62.31558229908594
 20
-96.48645080921169
 30
0.0
 10
62.31558229908594
 20
-96.46644830921699
 30
0.0
 10
62.31558229908594
 20
-96.44718664255467
 30
0.0
 10
62.33142202090406
 20
-96.43131164255861
 30
0.0
 10
62.35138924261687
 20
-96.43131164255861
 30
0.0
 10
62.37068618656901
 20
-96.43131164255861
 30
0.0
 10
62.386561186164
 20
-96.44718664255467
 30
0.0
 10
62.386561186164
 20
-96.46644830921699
 30
0.0
  0
ENDBLK
  5
19D
330
19A
100
AcDbEntity
  8
0
100
AcDbBlockEnd
  0
BLOCK
  5
1A1
330
19F
100
AcDbEntity
  8
0
100
AcDbBlockBegin
  2
block 22
 70
     0
 10
0.0
 20
0.0
 30
0.0
  3
block 22
  1

  0
SPLINE
  5
1A3
330
19F
100
AcDbEntity
  8
_U+30EC_U+30A4_U+30E4_U+30FC 1
 62
   179
420
  2234388
370
     9
100
AcDbSpline
210
0.0
220
0.0
230
1.0
 70
    11
 71
     3
 72
    17
 73
    13
 74
     0
 42
0.0000000001
 43
0.0000000001
 12
1.0
 22
0.0
 32
0.0
 13
1.0
 23
0.0
 33
0.0
 40
0.0
 40
0.0
 40
0.0
 40
0.0
 40
1.0
 40
1.0
 40
1.0
 40
2.0
 40
2.0
 40
2.0
 40
3.0
 40
3.0
 40
3.0
 40
4.0
 40
4.0
 40
4.0
 40
4.0
 10
62.386561186164
 20
-100.4669130304387
 30
0.0
 10
62.386561186164
 20
-100.4862099748786
 30
0.0
 10
62.37068618656901
 20
-100.5020496970965
 30
0.0
 10
62.35138924261687
 20
-100.5020496970965
 30
0.0
 10
62.33142202090406
 20
-100.5020496970965
 30
0.0
 10
62.31558229908594
 20
-100.4862099748786
 30
0.0
 10
62.31558229908594
 20
-100.4669130304387
 30
0.0
 10
62.31558229908594
 20
-100.446910530444
 30
0.0
 10
62.33142202090406
 20
-100.4310708082255
 30
0.0
 10
62.35138924261687
 20
-100.4310708082255
 30
0.0
 10
62.37068618656901
 20
-100.4310708082255
 30
0.0
 10
62.386561186164
 20
-100.446910530444
 30
0.0
 10
62.386561186164
 20
-100.4669130304387
 30
0.0
  0
ENDBLK
  5
1A2
330
19F
100
AcDbEntity
  8
0
100
AcDbBlockEnd
  0
BLOCK
  5
1A6
330
1A4
100
AcDbEntity
  8
0
100
AcDbBlockBegin
  2
block 23
 70
     0
 10
0.0
 20
0.0
 30
0.0
  3
block 23
  1

  0
POLYLINE
  5
1A8
330
1A4
100
AcDbEntity
  8
_U+30EC_U+30A4_U+30E4_U+30FC 1
 62
   179
420
  2234388
370
     9
100
AcDb2dPolyline
 66
     1
 10
0.0
 20
0.0
 30
0.0
  0
VERTEX
  5
1A9
330
1A8
100
AcDbEntity
  8
_U+30EC_U+30A4_U+30E4_U+30FC 1
 62
   179
420
  2234388
370
     9
100
AcDbVertex
100
AcDb2dVertex
 10
54.60132027367094
 20
-104.4666721961056
 30
0.0
  0
VERTEX
  5
1AA
330
1A8
100
AcDbEntity
  8
_U+30EC_U+30A4_U+30E4_U+30FC 1
 62
   179
420
  2234388
370
     9
100
AcDbVertex
100
AcDb2dVertex
 10
66.60126942779387
 20
-104.4666721961056
 30
0.0
  0
SEQEND
  5
1AB
330
1A8
100
AcDbEntity
  8
_U+30EC_U+30A4_U+30E4_U+30FC 1
 62
   179
420
  2234388
370
     9
  0
POLYLINE
  5
1AC
330
1A4
100
AcDbEntity
  8
_U+30EC_U+30A4_U+30E4_U+30FC 1
 62
   179
420
  2234388
370
     9
100
AcDb2dPolyline
 66
     1
 10
0.0
 20
0.0
 30
0.0
  0
VERTEX
  5
1AD
330
1AC
100
AcDbEntity
  8
_U+30EC_U+30A4_U+30E4_U+30FC 1
 62
   179
420
  2234388
370
     9
100
AcDbVertex
100
AcDb2dVertex
 10
54.60132027367094
 20
-98.00642914216513
 30
0.0
  0
VERTEX
  5
1AE
330
1AC
100
AcDbEntity
  8
_U+30EC_U+30A4_U+30E4_U+30FC 1
 62
   179
420
  2234388
370
     9
100
AcDbVertex
100
AcDb2dVertex
 10
54.60132027367094
 20
-105.4664444180775
 30
0.0
  0
SEQEND
  5
1AF
330
1AC
100
AcDbEntity
  8
_U+30EC_U+30A4_U+30E4_U+30FC 1
 62
   179
420
  2234388
370
     9
  0
POLYLINE
  5
1B0
330
1A4
100
AcDbEntity
  8
_U+30EC_U+30A4_U+30E4_U+30FC 1
 62
   179
420
  2234388
370
     9
100
AcDb2dPolyline
 66
     1
 10
0.0
 20
0.0
 30
0.0
  0
VERTEX
  5
1B1
330
1B0
100
AcDbEntity
  8
_U+30EC_U+30A4_U+30E4_U+30FC 1
 62
   179
420
  2234388
370
     9
100
AcDbVertex
100
AcDb2dVertex
 10
66.60126942779387
 20
-98.00642914216513
 30
0.0
  0
VERTEX
  5
1B2
330
1B0
100
AcDbEntity
  8
_U+30EC_U+30A4_U+30E4_U+30FC 1
 62
   179
420
  2234388
370
     9
100
AcDbVertex
100
AcDb2dVertex
 10
66.60126942779387
 20
-105.4664444180775
 30
0.0
  0
SEQEND
  5
1B3
330
1B0
100
AcDbEntity
  8
_U+30EC_U+30A4_U+30E4_U+30FC 1
 62
   179
420
  2234388
370
     9
  0
INSERT
  5
1B5
330
1A4
100
AcDbEntity
  8
_U+30EC_U+30A4_U+30E4_U+30FC 1
100
AcDbBlockReference
  2
block 24
 10
0.0
 20
0.0
 30
0.0
  0
INSERT
  5
1BD
330
1A4
100
AcDbEntity
  8
_U+30EC_U+30A4_U+30E4_U+30FC 1
100
AcDbBlockReference
  2
block 25
 10
0.0
 20
0.0
 30
0.0
  0
INSERT
  5
1C2
330
1A4
100
AcDbEntity
  8
_U+30EC_U+30A4_U+30E4_U+30FC 1
100
AcDbBlockReference
  2
block 26
 10
0.0
 20
0.0
 30
0.0
  0
INSERT
  5
1C7
330
1A4
100
AcDbEntity
  8
_U+30EC_U+30A4_U+30E4_U+30FC 1
100
AcDbBlockReference
  2
block 27
 10
0.0
 20
0.0
 30
0.0
  0
ENDBLK
  5
1A7
330
1A4
100
AcDbEntity
  8
0
100
AcDbBlockEnd
  0
BLOCK
  5
1B6
330
1B4
100
AcDbEntity
  8
0
100
AcDbBlockBegin
  2
block 24
 70
     0
 10
0.0
 20
0.0
 30
0.0
  3
block 24
  1

  0
SPLINE
  5
1B8
330
1B4
100
AcDbEntity
  8
_U+30EC_U+30A4_U+30E4_U+30FC 1
370
     0
100
AcDbSpline
210
0.0
220
0.0
230
1.0
 70
    11
 71
     3
 72
    26
 73
    22
 74
     0
 42
0.0000000001
 43
0.0000000001
 12
1.0
 22
0.0
 32
0.0
 13
1.0
 23
0.0
 33
0.0
 40
0.0
 40
0.0
 40
0.0
 40
0.0
 40
1.0
 40
1.0
 40
1.0
 40
2.0
 40
2.0
 40
2.0
 40
3.0
 40
3.0
 40
3.0
 40
4.0
 40
4.0
 40
4.0
 40
5.0
 40
5.0
 40
5.0
 40
6.0
 40
6.0
 40
6.0
 40
7.0
 40
7.0
 40
7.0
 40
7.0
 10
59.91899548198206
 20
-104.0939045963724
 30
0.0
 10
59.91899548198206
 20
-104.0939045963724
 30
0.0
 10
59.91899548198206
 20
-102.9894069838013
 30
0.0
 10
59.91899548198206
 20
-102.9894069838013
 30
0.0
 10
59.91899548198206
 20
-102.9894069838013
 30
0.0
 10
59.56621770429248
 20
-102.9894069838013
 30
0.0
 10
59.56621770429248
 20
-102.9894069838013
 30
0.0
 10
59.56621770429248
 20
-102.9894069838013
 30
0.0
 10
59.56621770429248
 20
-102.8412678779355
 30
0.0
 10
59.56621770429248
 20
-102.8412678779355
 30
0.0
 10
59.92123479404747
 20
-102.826453967349
 30
0.0
 10
59.97084416903507
 20
-102.6638454604452
 30
0.0
 10
60.00253904749937
 20
-102.5494682903349
 30
0.0
 10
60.00253904749937
 20
-102.5494682903349
 30
0.0
 10
60.15860187298119
 20
-102.5494682903349
 30
0.0
 10
60.15860187298119
 20
-102.5494682903349
 30
0.0
 10
60.15860187298119
 20
-102.5494682903349
 30
0.0
 10
60.15860187298119
 20
-104.0939045963724
 30
0.0
 10
60.15860187298119
 20
-104.0939045963724
 30
0.0
 10
60.15860187298119
 20
-104.0939045963724
 30
0.0
 10
59.91899548198206
 20
-104.0939045963724
 30
0.0
 10
59.91899548198206
 20
-104.0939045963724
 30
0.0
  0
HATCH
  5
1B9
330
1B4
100
AcDbEntity
  8
_U+30EC_U+30A4_U+30E4_U+30FC 1
 62
   179
420
  2234388
100
AcDbHatch
 10
0.0
 20
0.0
 30
0.0
210
0.0
220
0.0
230
1.0
  2
SOLID
 70
     1
 71
     0
 91
        1
 92
        1
 93
        1
 72
     4
 94
        3
 73
     0
 74
     1
 95
       26
 96
       22
 40
0.0
 40
0.0
 40
0.0
 40
0.0
 40
1.0
 40
1.0
 40
1.0
 40
2.0
 40
2.0
 40
2.0
 40
3.0
 40
3.0
 40
3.0
 40
4.0
 40
4.0
 40
4.0
 40
5.0
 40
5.0
 40
5.0
 40
6.0
 40
6.0
 40
6.0
 40
7.0
 40
7.0
 40
7.0
 40
7.0
 10
59.91899548198206
 20
-104.0939045963724
 10
59.91899548198206
 20
-104.0939045963724
 10
59.91899548198206
 20
-102.9894069838013
 10
59.91899548198206
 20
-102.9894069838013
 10
59.91899548198206
 20
-102.9894069838013
 10
59.56621770429248
 20
-102.9894069838013
 10
59.56621770429248
 20
-102.9894069838013
 10
59.56621770429248
 20
-102.9894069838013
 10
59.56621770429248
 20
-102.8412678779355
 10
59.56621770429248
 20
-102.8412678779355
 10
59.92123479404747
 20
-102.826453967349
 10
59.97084416903507
 20
-102.6638454604452
 10
60.00253904749937
 20
-102.5494682903349
 10
60.00253904749937
 20
-102.5494682903349
 10
60.15860187298119
 20
-102.5494682903349
 10
60.15860187298119
 20
-102.5494682903349
 10
60.15860187298119
 20
-102.5494682903349
 10
60.15860187298119
 20
-104.0939045963724
 10
60.15860187298119
 20
-104.0939045963724
 10
60.15860187298119
 20
-104.0939045963724
 10
59.91899548198206
 20
-104.0939045963724
 10
59.91899548198206
 20
-104.0939045963724
 97
        0
 97
        0
 75
     2
 76
     1
 98
        0
  0
SPLINE
  5
1BA
330
1B4
100
AcDbEntity
  8
_U+30EC_U+30A4_U+30E4_U+30FC 1
370
     0
100
AcDbSpline
210
0.0
220
0.0
230
1.0
 70
    11
 71
     3
 72
    44
 73
    40
 74
     0
 42
0.0000000001
 43
0.0000000001
 12
1.0
 22
0.0
 32
0.0
 13
1.0
 23
0.0
 33
0.0
 40
0.0
 40
0.0
 40
0.0
 40
0.0
 40
1.0
 40
1.0
 40
1.0
 40
2.0
 40
2.0
 40
2.0
 40
3.0
 40
3.0
 40
3.0
 40
4.0
 40
4.0
 40
4.0
 40
5.0
 40
5.0
 40
5.0
 40
6.0
 40
6.0
 40
6.0
 40
7.0
 40
7.0
 40
7.0
 40
8.0
 40
8.0
 40
8.0
 40
9.0
 40
9.0
 40
9.0
 40
10.0
 40
10.0
 40
10.0
 40
11.0
 40
11.0
 40
11.0
 40
12.0
 40
12.0
 40
12.0
 40
13.0
 40
13.0
 40
13.0
 40
13.0
 10
61.32821179022351
 20
-103.5120279689137
 30
0.0
 10
61.09532333542062
 20
-103.6705023612352
 30
0.0
 10
60.9957600758969
 20
-103.744571914168
 30
0.0
 10
60.94373913406962
 20
-103.8885769054515
 30
0.0
 10
60.94373913406962
 20
-103.8885769054515
 30
0.0
 10
61.77572969375746
 20
-103.8885769054515
 30
0.0
 10
61.77572969375746
 20
-103.8885769054515
 30
0.0
 10
61.77572969375746
 20
-103.8885769054515
 30
0.0
 10
61.77572969375746
 20
-104.0939045963724
 30
0.0
 10
61.77572969375746
 20
-104.0939045963724
 30
0.0
 10
61.77572969375746
 20
-104.0939045963724
 30
0.0
 10
60.67708874351128
 20
-104.0939045963724
 30
0.0
 10
60.67708874351128
 20
-104.0939045963724
 30
0.0
 10
60.711022934041
 20
-103.7363036850034
 30
0.0
 10
60.78113062716583
 20
-103.6581000174883
 30
0.0
 10
61.19247502810466
 20
-103.3597547484656
 30
0.0
 10
61.4660156096335
 20
-103.1609727389667
 30
0.0
 10
61.53612330275833
 20
-103.0931043579073
 30
0.0
 10
61.53612330275833
 20
-102.9556450480458
 30
0.0
 10
61.53612330275833
 20
-102.8371337633532
 30
0.0
 10
61.45929767343726
 20
-102.7058756253652
 30
0.0
 10
61.24897459406276
 20
-102.7058756253652
 30
0.0
 10
60.9709553884031
 20
-102.7058756253652
 30
0.0
 10
60.96199814014145
 20
-102.9366970228769
 30
0.0
 10
60.95734726123636
 20
-103.0527967407299
 30
0.0
 10
60.95734726123636
 20
-103.0527967407299
 30
0.0
 10
60.71774087023724
 20
-103.0527967407299
 30
0.0
 10
60.71774087023724
 20
-103.0527967407299
 30
0.0
 10
60.72669811849888
 20
-102.9260172268727
 30
0.0
 10
60.73806693360021
 20
-102.814051623602
 30
0.0
 10
60.82402206595719
 20
-102.6955403389095
 30
0.0
 10
60.94149982200421
 20
-102.5346543797483
 30
0.0
 10
61.14045408627739
 20
-102.5008924439928
 30
0.0
 10
61.26482203329491
 20
-102.5008924439928
 30
0.0
 10
61.5611002450264
 20
-102.5008924439928
 30
0.0
 10
61.78261988472796
 20
-102.6848605429052
 30
0.0
 10
61.78261988472796
 20
-102.957712105337
 30
0.0
 10
61.78261988472796
 20
-103.186121936009
 30
0.0
 10
61.65825193771044
 20
-103.2856851955327
 30
0.0
 10
61.32821179022351
 20
-103.5120279689137
 30
0.0
  0
HATCH
  5
1BB
330
1B4
100
AcDbEntity
  8
_U+30EC_U+30A4_U+30E4_U+30FC 1
 62
   179
420
  2234388
100
AcDbHatch
 10
0.0
 20
0.0
 30
0.0
210
0.0
220
0.0
230
1.0
  2
SOLID
 70
     1
 71
     0
 91
        1
 92
        1
 93
        1
 72
     4
 94
        3
 73
     0
 74
     1
 95
       44
 96
       40
 40
0.0
 40
0.0
 40
0.0
 40
0.0
 40
1.0
 40
1.0
 40
1.0
 40
2.0
 40
2.0
 40
2.0
 40
3.0
 40
3.0
 40
3.0
 40
4.0
 40
4.0
 40
4.0
 40
5.0
 40
5.0
 40
5.0
 40
6.0
 40
6.0
 40
6.0
 40
7.0
 40
7.0
 40
7.0
 40
8.0
 40
8.0
 40
8.0
 40
9.0
 40
9.0
 40
9.0
 40
10.0
 40
10.0
 40
10.0
 40
11.0
 40
11.0
 40
11.0
 40
12.0
 40
12.0
 40
12.0
 40
13.0
 40
13.0
 40
13.0
 40
13.0
 10
61.32821179022351
 20
-103.5120279689137
 10
61.09532333542062
 20
-103.6705023612352
 10
60.9957600758969
 20
-103.744571914168
 10
60.94373913406962
 20
-103.8885769054515
 10
60.94373913406962
 20
-103.8885769054515
 10
61.77572969375746
 20
-103.8885769054515
 10
61.77572969375746
 20
-103.8885769054515
 10
61.77572969375746
 20
-103.8885769054515
 10
61.77572969375746
 20
-104.0939045963724
 10
61.77572969375746
 20
-104.0939045963724
 10
61.77572969375746
 20
-104.0939045963724
 10
60.67708874351128
 20
-104.0939045963724
 10
60.67708874351128
 20
-104.0939045963724
 10
60.711022934041
 20
-103.7363036850034
 10
60.78113062716583
 20
-103.6581000174883
 10
61.19247502810466
 20
-103.3597547484656
 10
61.4660156096335
 20
-103.1609727389667
 10
61.53612330275833
 20
-103.0931043579073
 10
61.53612330275833
 20
-102.9556450480458
 10
61.53612330275833
 20
-102.8371337633532
 10
61.45929767343726
 20
-102.7058756253652
 10
61.24897459406276
 20
-102.7058756253652
 10
60.9709553884031
 20
-102.7058756253652
 10
60.96199814014145
 20
-102.9366970228769
 10
60.95734726123636
 20
-103.0527967407299
 10
60.95734726123636
 20
-103.0527967407299
 10
60.71774087023724
 20
-103.0527967407299
 10
60.71774087023724
 20
-103.0527967407299
 10
60.72669811849888
 20
-102.9260172268727
 10
60.73806693360021
 20
-102.814051623602
 10
60.82402206595719
 20
-102.6955403389095
 10
60.94149982200421
 20
-102.5346543797483
 10
61.14045408627739
 20
-102.5008924439928
 10
61.26482203329491
 20
-102.5008924439928
 10
61.5611002450264
 20
-102.5008924439928
 10
61.78261988472796
 20
-102.6848605429052
 10
61.78261988472796
 20
-102.957712105337
 10
61.78261988472796
 20
-103.186121936009
 10
61.65825193771044
 20
-103.2856851955327
 10
61.32821179022351
 20
-103.5120279689137
 97
        0
 97
        0
 75
     2
 76
     1
 98
        0
  0
ENDBLK
  5
1B7
330
1B4
100
AcDbEntity
  8
0
100
AcDbBlockEnd
  0
BLOCK
  5
1BE
330
1BC
100
AcDbEntity
  8
0
100
AcDbBlockBegin
  2
block 25
 70
     0
 10
0.0
 20
0.0
 30
0.0
  3
block 25
  1

  0
SPLINE
  5
1C0
330
1BC
100
AcDbEntity
  8
_U+30EC_U+30A4_U+30E4_U+30FC 1
 62
   179
420
  2234388
370
    25
100
AcDbSpline
210
0.0
220
0.0
230
1.0
 70
    11
 71
     3
 72
    17
 73
    13
 74
     0
 42
0.0000000001
 43
0.0000000001
 12
1.0
 22
0.0
 32
0.0
 13
1.0
 23
0.0
 33
0.0
 40
0.0
 40
0.0
 40
0.0
 40
0.0
 40
1.0
 40
1.0
 40
1.0
 40
2.0
 40
2.0
 40
2.0
 40
3.0
 40
3.0
 40
3.0
 40
4.0
 40
4.0
 40
4.0
 40
4.0
 10
54.63645831967422
 20
-95.46671136502196
 30
0.0
 10
54.63645831967422
 20
-95.48597303168427
 30
0.0
 10
54.62061721762307
 20
-95.50184803168032
 30
0.0
 10
54.60132027367094
 20
-95.50184803168032
 30
0.0
 10
54.58202332971879
 20
-95.50184803168032
 30
0.0
 10
54.56618360790068
 20
-95.48597303168427
 30
0.0
 10
54.56618360790068
 20
-95.46671136502196
 30
0.0
 10
54.56618360790068
 20
-95.44741442058277
 30
0.0
 10
54.58202332971879
 20
-95.43153942058672
 30
0.0
 10
54.60132027367094
 20
-95.43153942058672
 30
0.0
 10
54.62061721762307
 20
-95.43153942058672
 30
0.0
 10
54.63645831967422
 20
-95.44741442058277
 30
0.0
 10
54.63645831967422
 20
-95.46671136502196
 30
0.0
  0
ENDBLK
  5
1BF
330
1BC
100
AcDbEntity
  8
0
100
AcDbBlockEnd
  0
BLOCK
  5
1C3
330
1C1
100
AcDbEntity
  8
0
100
AcDbBlockBegin
  2
block 26
 70
     0
 10
0.0
 20
0.0
 30
0.0
  3
block 26
  1

  0
SPLINE
  5
1C5
330
1C1
100
AcDbEntity
  8
_U+30EC_U+30A4_U+30E4_U+30FC 1
 62
   179
420
  2234388
370
    25
100
AcDbSpline
210
0.0
220
0.0
230
1.0
 70
    11
 71
     3
 72
    17
 73
    13
 74
     0
 42
0.0000000001
 43
0.0000000001
 12
1.0
 22
0.0
 32
0.0
 13
1.0
 23
0.0
 33
0.0
 40
0.0
 40
0.0
 40
0.0
 40
0.0
 40
1.0
 40
1.0
 40
1.0
 40
2.0
 40
2.0
 40
2.0
 40
3.0
 40
3.0
 40
3.0
 40
4.0
 40
4.0
 40
4.0
 40
4.0
 10
66.6364044110748
 20
-95.46671136502196
 30
0.0
 10
66.6364044110748
 20
-95.48597303168427
 30
0.0
 10
66.62056468925668
 20
-95.50184803168032
 30
0.0
 10
66.60126942779387
 20
-95.50184803168032
 30
0.0
 10
66.58197080135241
 20
-95.50184803168032
 30
0.0
 10
66.56613107953429
 20
-95.48597303168427
 30
0.0
 10
66.56613107953429
 20
-95.46671136502196
 30
0.0
 10
66.56613107953429
 20
-95.44741442058277
 30
0.0
 10
66.58197080135241
 20
-95.43153942058672
 30
0.0
 10
66.60126942779387
 20
-95.43153942058672
 30
0.0
 10
66.62056468925668
 20
-95.43153942058672
 30
0.0
 10
66.6364044110748
 20
-95.44741442058277
 30
0.0
 10
66.6364044110748
 20
-95.46671136502196
 30
0.0
  0
ENDBLK
  5
1C4
330
1C1
100
AcDbEntity
  8
0
100
AcDbBlockEnd
  0
BLOCK
  5
1C8
330
1C6
100
AcDbEntity
  8
0
100
AcDbBlockBegin
  2
block 27
 70
     0
 10
0.0
 20
0.0
 30
0.0
  3
block 27
  1

  0
SPLINE
  5
1CA
330
1C6
100
AcDbEntity
  8
_U+30EC_U+30A4_U+30E4_U+30FC 1
 62
   179
420
  2234388
370
     9
100
AcDbSpline
210
0.0
220
0.0
230
1.0
 70
    11
 71
     3
 72
    17
 73
    13
 74
     0
 42
0.0000000001
 43
0.0000000001
 12
1.0
 22
0.0
 32
0.0
 13
1.0
 23
0.0
 33
0.0
 40
0.0
 40
0.0
 40
0.0
 40
0.0
 40
1.0
 40
1.0
 40
1.0
 40
2.0
 40
2.0
 40
2.0
 40
3.0
 40
3.0
 40
3.0
 40
4.0
 40
4.0
 40
4.0
 40
4.0
 10
66.6364044110748
 20
-104.4666721961056
 30
0.0
 10
66.6364044110748
 20
-104.4859691405455
 30
0.0
 10
66.62056468925668
 20
-104.5018088627634
 30
0.0
 10
66.60126942779387
 20
-104.5018088627634
 30
0.0
 10
66.58197080135241
 20
-104.5018088627634
 30
0.0
 10
66.56613107953429
 20
-104.4859691405455
 30
0.0
 10
66.56613107953429
 20
-104.4666721961056
 30
0.0
 10
66.56613107953429
 20
-104.4473752516658
 30
0.0
 10
66.58197080135241
 20
-104.4315355294479
 30
0.0
 10
66.60126942779387
 20
-104.4315355294479
 30
0.0
 10
66.62056468925668
 20
-104.4315355294479
 30
0.0
 10
66.6364044110748
 20
-104.4473752516658
 30
0.0
 10
66.6364044110748
 20
-104.4666721961056
 30
0.0
  0
ENDBLK
  5
1C9
330
1C6
100
AcDbEntity
  8
0
100
AcDbBlockEnd
  0
BLOCK
  5
1CD
330
1CB
100
AcDbEntity
  8
0
100
AcDbBlockBegin
  2
block 28
 70
     0
 10
0.0
 20
0.0
 30
0.0
  3
block 28
  1

  0
POLYLINE
  5
1CF
330
1CB
100
AcDbEntity
  8
_U+30EC_U+30A4_U+30E4_U+30FC 1
 62
   179
420
  2234388
370
     9
100
AcDb2dPolyline
 66
     1
 10
0.0
 20
0.0
 30
0.0
  0
VERTEX
  5
1D0
330
1CF
100
AcDbEntity
  8
_U+30EC_U+30A4_U+30E4_U+30FC 1
 62
   179
420
  2234388
370
     9
100
AcDbVertex
100
AcDb2dVertex
 10
66.60126942779387
 20
-104.4666721961056
 30
0.0
  0
VERTEX
  5
1D1
330
1CF
100
AcDbEntity
  8
_U+30EC_U+30A4_U+30E4_U+30FC 1
 62
   179
420
  2234388
370
     9
100
AcDbVertex
100
AcDb2dVertex
 10
75.60122834902975
 20
-104.4666721961056
 30
0.0
  0
SEQEND
  5
1D2
330
1CF
100
AcDbEntity
  8
_U+30EC_U+30A4_U+30E4_U+30FC 1
 62
   179
420
  2234388
370
     9
  0
POLYLINE
  5
1D3
330
1CB
100
AcDbEntity
  8
_U+30EC_U+30A4_U+30E4_U+30FC 1
 62
   179
420
  2234388
370
     9
100
AcDb2dPolyline
 66
     1
 10
0.0
 20
0.0
 30
0.0
  0
VERTEX
  5
1D4
330
1D3
100
AcDbEntity
  8
_U+30EC_U+30A4_U+30E4_U+30FC 1
 62
   179
420
  2234388
370
     9
100
AcDbVertex
100
AcDb2dVertex
 10
75.60122834902975
 20
-99.00687164191504
 30
0.0
  0
VERTEX
  5
1D5
330
1D3
100
AcDbEntity
  8
_U+30EC_U+30A4_U+30E4_U+30FC 1
 62
   179
420
  2234388
370
     9
100
AcDbVertex
100
AcDb2dVertex
 10
75.60122834902975
 20
-105.4664444180775
 30
0.0
  0
SEQEND
  5
1D6
330
1D3
100
AcDbEntity
  8
_U+30EC_U+30A4_U+30E4_U+30FC 1
 62
   179
420
  2234388
370
     9
  0
INSERT
  5
1D8
330
1CB
100
AcDbEntity
  8
_U+30EC_U+30A4_U+30E4_U+30FC 1
100
AcDbBlockReference
  2
block 29
 10
0.0
 20
0.0
 30
0.0
  0
INSERT
  5
1DF
330
1CB
100
AcDbEntity
  8
_U+30EC_U+30A4_U+30E4_U+30FC 1
100
AcDbBlockReference
  2
block 30
 10
0.0
 20
0.0
 30
0.0
  0
INSERT
  5
1E4
330
1CB
100
AcDbEntity
  8
_U+30EC_U+30A4_U+30E4_U+30FC 1
100
AcDbBlockReference
  2
block 31
 10
0.0
 20
0.0
 30
0.0
  0
INSERT
  5
1E9
330
1CB
100
AcDbEntity
  8
_U+30EC_U+30A4_U+30E4_U+30FC 1
100
AcDbBlockReference
  2
block 32
 10
0.0
 20
0.0
 30
0.0
  0
ENDBLK
  5
1CE
330
1CB
100
AcDbEntity
  8
0
100
AcDbBlockEnd
  0
BLOCK
  5
1D9
330
1D7
100
AcDbEntity
  8
0
100
AcDbBlockBegin
  2
block 29
 70
     0
 10
0.0
 20
0.0
 30
0.0
  3
block 29
  1

  0
SPLINE
  5
1DB
330
1D7
100
AcDbEntity
  8
_U+30EC_U+30A4_U+30E4_U+30FC 1
370
     0
100
AcDbSpline
210
0.0
220
0.0
230
1.0
 70
    11
 71
     3
 72
    32
 73
    28
 74
     0
 42
0.0000000001
 43
0.0000000001
 12
1.0
 22
0.0
 32
0.0
 13
1.0
 23
0.0
 33
0.0
 40
0.0
 40
0.0
 40
0.0
 40
0.0
 40
1.0
 40
1.0
 40
1.0
 40
2.0
 40
2.0
 40
2.0
 40
3.0
 40
3.0
 40
3.0
 40
4.0
 40
4.0
 40
4.0
 40
5.0
 40
5.0
 40
5.0
 40
6.0
 40
6.0
 40
6.0
 40
7.0
 40
7.0
 40
7.0
 40
8.0
 40
8.0
 40
8.0
 40
9.0
 40
9.0
 40
9.0
 40
9.0
 10
71.05474987372938
 20
-104.1445475000055
 30
0.0
 10
70.86940373662293
 20
-104.1445475000055
 30
0.0
 10
70.60723197019541
 20
-104.074612061655
 30
0.0
 10
70.56657984346947
 20
-103.7425048568769
 30
0.0
 10
70.56657984346947
 20
-103.7425048568769
 30
0.0
 10
70.794645164593
 20
-103.7425048568769
 30
0.0
 10
70.794645164593
 20
-103.7425048568769
 30
0.0
 10
70.80601397969433
 20
-103.8017604992232
 30
0.0
 10
70.8401204249983
 20
-103.9498996050889
 30
0.0
 10
71.05716144056905
 20
-103.9498996050889
 30
0.0
 10
71.36894258198416
 20
-103.9498996050889
 30
0.0
 10
71.4095947087101
 20
-103.619859457602
 30
0.0
 10
71.4233750906511
 20
-103.4145317666811
 30
0.0
 10
71.32622339796706
 20
-103.4951470010359
 30
0.0
 10
71.25387639277682
 20
-103.5523355860911
 30
0.0
 10
71.05922849786019
 20
-103.5523355860911
 30
0.0
 10
70.86699216978326
 20
-103.5523355860911
 30
0.0
 10
70.54384221326681
 20
-103.4465711546939
 30
0.0
 10
70.54384221326681
 20
-103.040394396983
 30
0.0
 10
70.54384221326681
 20
-102.7206895359518
 30
0.0
 10
70.75640460470673
 20
-102.5008924439928
 30
0.0
 10
71.09540200045532
 20
-102.5008924439928
 30
0.0
 10
71.64489473035268
 20
-102.5008924439928
 30
0.0
 10
71.656263545454
 20
-103.0552083075695
 30
0.0
 10
71.656263545454
 20
-103.268804227655
 30
0.0
 10
71.656263545454
 20
-103.4992811156182
 30
0.0
 10
71.63593748209102
 20
-104.1445475000055
 30
0.0
 10
71.05474987372938
 20
-104.1445475000055
 30
0.0
  0
SPLINE
  5
1DC
330
1D7
100
AcDbEntity
  8
_U+30EC_U+30A4_U+30E4_U+30FC 1
370
     0
100
AcDbSpline
210
0.0
220
0.0
230
1.0
 70
    11
 71
     3
 72
    17
 73
    13
 74
     0
 42
0.0000000001
 43
0.0000000001
 12
1.0
 22
0.0
 32
0.0
 13
1.0
 23
0.0
 33
0.0
 40
0.0
 40
0.0
 40
0.0
 40
0.0
 40
1.0
 40
1.0
 40
1.0
 40
2.0
 40
2.0
 40
2.0
 40
3.0
 40
3.0
 40
3.0
 40
4.0
 40
4.0
 40
4.0
 40
4.0
 10
71.09781356729499
 20
-102.6934732816183
 30
0.0
 10
70.9710340534378
 20
-102.6934732816183
 30
0.0
 10
70.78362085904021
 20
-102.7503173571249
 30
0.0
 10
70.78362085904021
 20
-103.0359157728521
 30
0.0
 10
70.78362085904021
 20
-103.2622585462331
 30
0.0
 10
70.93279349355153
 20
-103.3576876911745
 30
0.0
 10
71.07748750393202
 20
-103.3576876911745
 30
0.0
 10
71.35791827643136
 20
-103.3576876911745
 30
0.0
 10
71.39857040315731
 20
-103.1482258856713
 30
0.0
 10
71.39857040315731
 20
-103.0317816582698
 30
0.0
 10
71.39857040315731
 20
-102.8560817885221
 30
0.0
 10
71.2965955767939
 20
-102.6934732816183
 30
0.0
 10
71.09781356729499
 20
-102.6934732816183
 30
0.0
  0
HATCH
  5
1DD
330
1D7
100
AcDbEntity
  8
_U+30EC_U+30A4_U+30E4_U+30FC 1
 62
   179
420
  2234388
100
AcDbHatch
 10
0.0
 20
0.0
 30
0.0
210
0.0
220
0.0
230
1.0
  2
SOLID
 70
     1
 71
     0
 91
        2
 92
        1
 93
        1
 72
     4
 94
        3
 73
     0
 74
     1
 95
       32
 96
       28
 40
0.0
 40
0.0
 40
0.0
 40
0.0
 40
1.0
 40
1.0
 40
1.0
 40
2.0
 40
2.0
 40
2.0
 40
3.0
 40
3.0
 40
3.0
 40
4.0
 40
4.0
 40
4.0
 40
5.0
 40
5.0
 40
5.0
 40
6.0
 40
6.0
 40
6.0
 40
7.0
 40
7.0
 40
7.0
 40
8.0
 40
8.0
 40
8.0
 40
9.0
 40
9.0
 40
9.0
 40
9.0
 10
71.05474987372938
 20
-104.1445475000055
 10
70.86940373662293
 20
-104.1445475000055
 10
70.60723197019541
 20
-104.074612061655
 10
70.56657984346947
 20
-103.7425048568769
 10
70.56657984346947
 20
-103.7425048568769
 10
70.794645164593
 20
-103.7425048568769
 10
70.794645164593
 20
-103.7425048568769
 10
70.80601397969433
 20
-103.8017604992232
 10
70.8401204249983
 20
-103.9498996050889
 10
71.05716144056905
 20
-103.9498996050889
 10
71.36894258198416
 20
-103.9498996050889
 10
71.4095947087101
 20
-103.619859457602
 10
71.4233750906511
 20
-103.4145317666811
 10
71.32622339796706
 20
-103.4951470010359
 10
71.25387639277682
 20
-103.5523355860911
 10
71.05922849786019
 20
-103.5523355860911
 10
70.86699216978326
 20
-103.5523355860911
 10
70.54384221326681
 20
-103.4465711546939
 10
70.54384221326681
 20
-103.040394396983
 10
70.54384221326681
 20
-102.7206895359518
 10
70.75640460470673
 20
-102.5008924439928
 10
71.09540200045532
 20
-102.5008924439928
 10
71.64489473035268
 20
-102.5008924439928
 10
71.656263545454
 20
-103.0552083075695
 10
71.656263545454
 20
-103.268804227655
 10
71.656263545454
 20
-103.4992811156182
 10
71.63593748209102
 20
-104.1445475000055
 10
71.05474987372938
 20
-104.1445475000055
 97
        0
 97
        0
 92
        1
 93
        1
 72
     4
 94
        3
 73
     0
 74
     1
 95
       17
 96
       13
 40
0.0
 40
0.0
 40
0.0
 40
0.0
 40
1.0
 40
1.0
 40
1.0
 40
2.0
 40
2.0
 40
2.0
 40
3.0
 40
3.0
 40
3.0
 40
4.0
 40
4.0
 40
4.0
 40
4.0
 10
71.09781356729499
 20
-102.6934732816183
 10
70.9710340534378
 20
-102.6934732816183
 10
70.78362085904021
 20
-102.7503173571249
 10
70.78362085904021
 20
-103.0359157728521
 10
70.78362085904021
 20
-103.2622585462331
 10
70.93279349355153
 20
-103.3576876911745
 10
71.07748750393202
 20
-103.3576876911745
 10
71.35791827643136
 20
-103.3576876911745
 10
71.39857040315731
 20
-103.1482258856713
 10
71.39857040315731
 20
-103.0317816582698
 10
71.39857040315731
 20
-102.8560817885221
 10
71.2965955767939
 20
-102.6934732816183
 10
71.09781356729499
 20
-102.6934732816183
 97
        0
 97
        0
 75
     2
 76
     1
 98
        0
  0
ENDBLK
  5
1DA
330
1D7
100
AcDbEntity
  8
0
100
AcDbBlockEnd
  0
BLOCK
  5
1E0
330
1DE
100
AcDbEntity
  8
0
100
AcDbBlockBegin
  2
block 30
 70
     0
 10
0.0
 20
0.0
 30
0.0
  3
block 30
  1

  0
SPLINE
  5
1E2
330
1DE
100
AcDbEntity
  8
_U+30EC_U+30A4_U+30E4_U+30FC 1
 62
   179
420
  2234388
370
    25
100
AcDbSpline
210
0.0
220
0.0
230
1.0
 70
    11
 71
     3
 72
    17
 73
    13
 74
     0
 42
0.0000000001
 43
0.0000000001
 12
1.0
 22
0.0
 32
0.0
 13
1.0
 23
0.0
 33
0.0
 40
0.0
 40
0.0
 40
0.0
 40
0.0
 40
1.0
 40
1.0
 40
1.0
 40
2.0
 40
2.0
 40
2.0
 40
3.0
 40
3.0
 40
3.0
 40
4.0
 40
4.0
 40
4.0
 40
4.0
 10
66.6364044110748
 20
-95.46671136502196
 30
0.0
 10
66.6364044110748
 20
-95.48597303168427
 30
0.0
 10
66.62056468925668
 20
-95.50184803168032
 30
0.0
 10
66.60126942779387
 20
-95.50184803168032
 30
0.0
 10
66.58197080135241
 20
-95.50184803168032
 30
0.0
 10
66.56613107953429
 20
-95.48597303168427
 30
0.0
 10
66.56613107953429
 20
-95.46671136502196
 30
0.0
 10
66.56613107953429
 20
-95.44741442058277
 30
0.0
 10
66.58197080135241
 20
-95.43153942058672
 30
0.0
 10
66.60126942779387
 20
-95.43153942058672
 30
0.0
 10
66.62056468925668
 20
-95.43153942058672
 30
0.0
 10
66.6364044110748
 20
-95.44741442058277
 30
0.0
 10
66.6364044110748
 20
-95.46671136502196
 30
0.0
  0
ENDBLK
  5
1E1
330
1DE
100
AcDbEntity
  8
0
100
AcDbBlockEnd
  0
BLOCK
  5
1E5
330
1E3
100
AcDbEntity
  8
0
100
AcDbBlockBegin
  2
block 31
 70
     0
 10
0.0
 20
0.0
 30
0.0
  3
block 31
  1

  0
SPLINE
  5
1E7
330
1E3
100
AcDbEntity
  8
_U+30EC_U+30A4_U+30E4_U+30FC 1
 62
   179
420
  2234388
370
    25
100
AcDbSpline
210
0.0
220
0.0
230
1.0
 70
    11
 71
     3
 72
    17
 73
    13
 74
     0
 42
0.0000000001
 43
0.0000000001
 12
1.0
 22
0.0
 32
0.0
 13
1.0
 23
0.0
 33
0.0
 40
0.0
 40
0.0
 40
0.0
 40
0.0
 40
1.0
 40
1.0
 40
1.0
 40
2.0
 40
2.0
 40
2.0
 40
3.0
 40
3.0
 40
3.0
 40
4.0
 40
4.0
 40
4.0
 40
4.0
 10
75.6363650148
 20
-96.46644830921699
 30
0.0
 10
75.6363650148
 20
-96.48645080921169
 30
0.0
 10
75.6205252929819
 20
-96.50229053143023
 30
0.0
 10
75.60122834902975
 20
-96.50229053143023
 30
0.0
 10
75.5819333144377
 20
-96.50229053143023
 30
0.0
 10
75.5660916832595
 20
-96.48645080921169
 30
0.0
 10
75.5660916832595
 20
-96.46644830921699
 30
0.0
 10
75.5660916832595
 20
-96.44718664255467
 30
0.0
 10
75.5819333144377
 20
-96.43131164255861
 30
0.0
 10
75.60122834902975
 20
-96.43131164255861
 30
0.0
 10
75.6205252929819
 20
-96.43131164255861
 30
0.0
 10
75.6363650148
 20
-96.44718664255467
 30
0.0
 10
75.6363650148
 20
-96.46644830921699
 30
0.0
  0
ENDBLK
  5
1E6
330
1E3
100
AcDbEntity
  8
0
100
AcDbBlockEnd
  0
BLOCK
  5
1EA
330
1E8
100
AcDbEntity
  8
0
100
AcDbBlockBegin
  2
block 32
 70
     0
 10
0.0
 20
0.0
 30
0.0
  3
block 32
  1

  0
SPLINE
  5
1EC
330
1E8
100
AcDbEntity
  8
_U+30EC_U+30A4_U+30E4_U+30FC 1
 62
   179
420
  2234388
370
     9
100
AcDbSpline
210
0.0
220
0.0
230
1.0
 70
    11
 71
     3
 72
    17
 73
    13
 74
     0
 42
0.0000000001
 43
0.0000000001
 12
1.0
 22
0.0
 32
0.0
 13
1.0
 23
0.0
 33
0.0
 40
0.0
 40
0.0
 40
0.0
 40
0.0
 40
1.0
 40
1.0
 40
1.0
 40
2.0
 40
2.0
 40
2.0
 40
3.0
 40
3.0
 40
3.0
 40
4.0
 40
4.0
 40
4.0
 40
4.0
 10
75.6363650148
 20
-104.4666721961056
 30
0.0
 10
75.6363650148
 20
-104.4859691405455
 30
0.0
 10
75.6205252929819
 20
-104.5018088627634
 30
0.0
 10
75.60122834902975
 20
-104.5018088627634
 30
0.0
 10
75.5819333144377
 20
-104.5018088627634
 30
0.0
 10
75.5660916832595
 20
-104.4859691405455
 30
0.0
 10
75.5660916832595
 20
-104.4666721961056
 30
0.0
 10
75.5660916832595
 20
-104.4473752516658
 30
0.0
 10
75.5819333144377
 20
-104.4315355294479
 30
0.0
 10
75.60122834902975
 20
-104.4315355294479
 30
0.0
 10
75.6205252929819
 20
-104.4315355294479
 30
0.0
 10
75.6363650148
 20
-104.4473752516658
 30
0.0
 10
75.6363650148
 20
-104.4666721961056
 30
0.0
  0
ENDBLK
  5
1EB
330
1E8
100
AcDbEntity
  8
0
100
AcDbBlockEnd
  0
BLOCK
  5
1EF
330
1ED
100
AcDbEntity
  8
0
100
AcDbBlockBegin
  2
block 33
 70
     0
 10
0.0
 20
0.0
 30
0.0
  3
block 33
  1

  0
POLYLINE
  5
1F1
330
1ED
100
AcDbEntity
  8
_U+30EC_U+30A4_U+30E4_U+30FC 1
 62
   179
420
  2234388
370
     9
100
AcDb2dPolyline
 66
     1
 10
0.0
 20
0.0
 30
0.0
  0
VERTEX
  5
1F2
330
1F1
100
AcDbEntity
  8
_U+30EC_U+30A4_U+30E4_U+30FC 1
 62
   179
420
  2234388
370
     9
100
AcDbVertex
100
AcDb2dVertex
 10
54.60132027367094
 20
-104.4666721961056
 30
0.0
  0
VERTEX
  5
1F3
330
1F1
100
AcDbEntity
  8
_U+30EC_U+30A4_U+30E4_U+30FC 1
 62
   179
420
  2234388
370
     9
100
AcDbVertex
100
AcDb2dVertex
 10
45.60135966994572
 20
-104.4666721961056
 30
0.0
  0
SEQEND
  5
1F4
330
1F1
100
AcDbEntity
  8
_U+30EC_U+30A4_U+30E4_U+30FC 1
 62
   179
420
  2234388
370
     9
  0
POLYLINE
  5
1F5
330
1ED
100
AcDbEntity
  8
_U+30EC_U+30A4_U+30E4_U+30FC 1
 62
   179
420
  2234388
370
     9
100
AcDb2dPolyline
 66
     1
 10
0.0
 20
0.0
 30
0.0
  0
VERTEX
  5
1F6
330
1F5
100
AcDbEntity
  8
_U+30EC_U+30A4_U+30E4_U+30FC 1
 62
   179
420
  2234388
370
     9
100
AcDbVertex
100
AcDb2dVertex
 10
45.60135966994572
 20
-99.00687164191504
 30
0.0
  0
VERTEX
  5
1F7
330
1F5
100
AcDbEntity
  8
_U+30EC_U+30A4_U+30E4_U+30FC 1
 62
   179
420
  2234388
370
     9
100
AcDbVertex
100
AcDb2dVertex
 10
45.60135966994572
 20
-105.4664444180775
 30
0.0
  0
SEQEND
  5
1F8
330
1F5
100
AcDbEntity
  8
_U+30EC_U+30A4_U+30E4_U+30FC 1
 62
   179
420
  2234388
370
     9
  0
INSERT
  5
1FA
330
1ED
100
AcDbEntity
  8
_U+30EC_U+30A4_U+30E4_U+30FC 1
100
AcDbBlockReference
  2
block 34
 10
0.0
 20
0.0
 30
0.0
  0
INSERT
  5
201
330
1ED
100
AcDbEntity
  8
_U+30EC_U+30A4_U+30E4_U+30FC 1
100
AcDbBlockReference
  2
block 35
 10
0.0
 20
0.0
 30
0.0
  0
INSERT
  5
206
330
1ED
100
AcDbEntity
  8
_U+30EC_U+30A4_U+30E4_U+30FC 1
100
AcDbBlockReference
  2
block 36
 10
0.0
 20
0.0
 30
0.0
  0
INSERT
  5
20B
330
1ED
100
AcDbEntity
  8
_U+30EC_U+30A4_U+30E4_U+30FC 1
100
AcDbBlockReference
  2
block 37
 10
0.0
 20
0.0
 30
0.0
  0
ENDBLK
  5
1F0
330
1ED
100
AcDbEntity
  8
0
100
AcDbBlockEnd
  0
BLOCK
  5
1FB
330
1F9
100
AcDbEntity
  8
0
100
AcDbBlockBegin
  2
block 34
 70
     0
 10
0.0
 20
0.0
 30
0.0
  3
block 34
  1

  0
SPLINE
  5
1FD
330
1F9
100
AcDbEntity
  8
_U+30EC_U+30A4_U+30E4_U+30FC 1
370
     0
100
AcDbSpline
210
0.0
220
0.0
230
1.0
 70
    11
 71
     3
 72
    32
 73
    28
 74
     0
 42
0.0000000001
 43
0.0000000001
 12
1.0
 22
0.0
 32
0.0
 13
1.0
 23
0.0
 33
0.0
 40
0.0
 40
0.0
 40
0.0
 40
0.0
 40
1.0
 40
1.0
 40
1.0
 40
2.0
 40
2.0
 40
2.0
 40
3.0
 40
3.0
 40
3.0
 40
4.0
 40
4.0
 40
4.0
 40
5.0
 40
5.0
 40
5.0
 40
6.0
 40
6.0
 40
6.0
 40
7.0
 40
7.0
 40
7.0
 40
8.0
 40
8.0
 40
8.0
 40
9.0
 40
9.0
 40
9.0
 40
9.0
 10
50.05499808861472
 20
-104.1445475000055
 30
0.0
 10
49.86965195150828
 20
-104.1445475000055
 30
0.0
 10
49.60730793030651
 20
-104.074612061655
 30
0.0
 10
49.56665580358056
 20
-103.7425048568769
 30
0.0
 10
49.56665580358056
 20
-103.7425048568769
 30
0.0
 10
49.79489337947836
 20
-103.7425048568769
 30
0.0
 10
49.79489337947836
 20
-103.7425048568769
 30
0.0
 10
49.80626219457969
 20
-103.8017604992232
 30
0.0
 10
49.8401963851094
 20
-103.9498996050889
 30
0.0
 10
50.05723740068014
 20
-103.9498996050889
 30
0.0
 10
50.36919079686951
 20
-103.9498996050889
 30
0.0
 10
50.40984292359546
 20
-103.619859457602
 30
0.0
 10
50.4234510507622
 20
-103.4145317666811
 30
0.0
 10
50.32629935807815
 20
-103.4951470010359
 30
0.0
 10
50.2539523528879
 20
-103.5523355860911
 30
0.0
 10
50.05947671274555
 20
-103.5523355860911
 30
0.0
 10
49.86724038466861
 20
-103.5523355860911
 30
0.0
 10
49.54409042815217
 20
-103.4465711546939
 30
0.0
 10
49.54409042815217
 20
-103.040394396983
 30
0.0
 10
49.54409042815217
 20
-102.7206895359518
 30
0.0
 10
49.75648056481783
 20
-102.5008924439928
 30
0.0
 10
50.09565021534068
 20
-102.5008924439928
 30
0.0
 10
50.64497069046376
 20
-102.5008924439928
 30
0.0
 10
50.65633950556509
 20
-103.0552083075695
 30
0.0
 10
50.65633950556509
 20
-103.268804227655
 30
0.0
 10
50.65633950556509
 20
-103.4992811156182
 30
0.0
 10
50.63601344220211
 20
-104.1445475000055
 30
0.0
 10
50.05499808861472
 20
-104.1445475000055
 30
0.0
  0
SPLINE
  5
1FE
330
1F9
100
AcDbEntity
  8
_U+30EC_U+30A4_U+30E4_U+30FC 1
370
     0
100
AcDbSpline
210
0.0
220
0.0
230
1.0
 70
    11
 71
     3
 72
    17
 73
    13
 74
     0
 42
0.0000000001
 43
0.0000000001
 12
1.0
 22
0.0
 32
0.0
 13
1.0
 23
0.0
 33
0.0
 40
0.0
 40
0.0
 40
0.0
 40
0.0
 40
1.0
 40
1.0
 40
1.0
 40
2.0
 40
2.0
 40
2.0
 40
3.0
 40
3.0
 40
3.0
 40
4.0
 40
4.0
 40
4.0
 40
4.0
 10
50.09788952740609
 20
-102.6934732816183
 30
0.0
 10
49.97128226832315
 20
-102.6934732816183
 30
0.0
 10
49.7836968191513
 20
-102.7503173571249
 30
0.0
 10
49.7836968191513
 20
-103.0359157728521
 30
0.0
 10
49.7836968191513
 20
-103.2622585462331
 30
0.0
 10
49.93286945366262
 20
-103.3576876911745
 30
0.0
 10
50.07756346404311
 20
-103.3576876911745
 30
0.0
 10
50.35799423654245
 20
-103.3576876911745
 30
0.0
 10
50.3986463632684
 20
-103.1482258856713
 30
0.0
 10
50.3986463632684
 20
-103.0317816582698
 30
0.0
 10
50.3986463632684
 20
-102.8560817885221
 30
0.0
 10
50.29684379167927
 20
-102.6934732816183
 30
0.0
 10
50.09788952740609
 20
-102.6934732816183
 30
0.0
  0
HATCH
  5
1FF
330
1F9
100
AcDbEntity
  8
_U+30EC_U+30A4_U+30E4_U+30FC 1
 62
   179
420
  2234388
100
AcDbHatch
 10
0.0
 20
0.0
 30
0.0
210
0.0
220
0.0
230
1.0
  2
SOLID
 70
     1
 71
     0
 91
        2
 92
        1
 93
        1
 72
     4
 94
        3
 73
     0
 74
     1
 95
       32
 96
       28
 40
0.0
 40
0.0
 40
0.0
 40
0.0
 40
1.0
 40
1.0
 40
1.0
 40
2.0
 40
2.0
 40
2.0
 40
3.0
 40
3.0
 40
3.0
 40
4.0
 40
4.0
 40
4.0
 40
5.0
 40
5.0
 40
5.0
 40
6.0
 40
6.0
 40
6.0
 40
7.0
 40
7.0
 40
7.0
 40
8.0
 40
8.0
 40
8.0
 40
9.0
 40
9.0
 40
9.0
 40
9.0
 10
50.05499808861472
 20
-104.1445475000055
 10
49.86965195150828
 20
-104.1445475000055
 10
49.60730793030651
 20
-104.074612061655
 10
49.56665580358056
 20
-103.7425048568769
 10
49.56665580358056
 20
-103.7425048568769
 10
49.79489337947836
 20
-103.7425048568769
 10
49.79489337947836
 20
-103.7425048568769
 10
49.80626219457969
 20
-103.8017604992232
 10
49.8401963851094
 20
-103.9498996050889
 10
50.05723740068014
 20
-103.9498996050889
 10
50.36919079686951
 20
-103.9498996050889
 10
50.40984292359546
 20
-103.619859457602
 10
50.4234510507622
 20
-103.4145317666811
 10
50.32629935807815
 20
-103.4951470010359
 10
50.2539523528879
 20
-103.5523355860911
 10
50.05947671274555
 20
-103.5523355860911
 10
49.86724038466861
 20
-103.5523355860911
 10
49.54409042815217
 20
-103.4465711546939
 10
49.54409042815217
 20
-103.040394396983
 10
49.54409042815217
 20
-102.7206895359518
 10
49.75648056481783
 20
-102.5008924439928
 10
50.09565021534068
 20
-102.5008924439928
 10
50.64497069046376
 20
-102.5008924439928
 10
50.65633950556509
 20
-103.0552083075695
 10
50.65633950556509
 20
-103.268804227655
 10
50.65633950556509
 20
-103.4992811156182
 10
50.63601344220211
 20
-104.1445475000055
 10
50.05499808861472
 20
-104.1445475000055
 97
        0
 97
        0
 92
        1
 93
        1
 72
     4
 94
        3
 73
     0
 74
     1
 95
       17
 96
       13
 40
0.0
 40
0.0
 40
0.0
 40
0.0
 40
1.0
 40
1.0
 40
1.0
 40
2.0
 40
2.0
 40
2.0
 40
3.0
 40
3.0
 40
3.0
 40
4.0
 40
4.0
 40
4.0
 40
4.0
 10
50.09788952740609
 20
-102.6934732816183
 10
49.97128226832315
 20
-102.6934732816183
 10
49.7836968191513
 20
-102.7503173571249
 10
49.7836968191513
 20
-103.0359157728521
 10
49.7836968191513
 20
-103.2622585462331
 10
49.93286945366262
 20
-103.3576876911745
 10
50.07756346404311
 20
-103.3576876911745
 10
50.35799423654245
 20
-103.3576876911745
 10
50.3986463632684
 20
-103.1482258856713
 10
50.3986463632684
 20
-103.0317816582698
 10
50.3986463632684
 20
-102.8560817885221
 10
50.29684379167927
 20
-102.6934732816183
 10
50.09788952740609
 20
-102.6934732816183
 97
        0
 97
        0
 75
     2
 76
     1
 98
        0
  0
ENDBLK
  5
1FC
330
1F9
100
AcDbEntity
  8
0
100
AcDbBlockEnd
  0
BLOCK
  5
202
330
200
100
AcDbEntity
  8
0
100
AcDbBlockBegin
  2
block 35
 70
     0
 10
0.0
 20
0.0
 30
0.0
  3
block 35
  1

  0
SPLINE
  5
204
330
200
100
AcDbEntity
  8
_U+30EC_U+30A4_U+30E4_U+30FC 1
 62
   179
420
  2234388
370
    25
100
AcDbSpline
210
0.0
220
0.0
230
1.0
 70
    11
 71
     3
 72
    17
 73
    13
 74
     0
 42
0.0000000001
 43
0.0000000001
 12
1.0
 22
0.0
 32
0.0
 13
1.0
 23
0.0
 33
0.0
 40
0.0
 40
0.0
 40
0.0
 40
0.0
 40
1.0
 40
1.0
 40
1.0
 40
2.0
 40
2.0
 40
2.0
 40
3.0
 40
3.0
 40
3.0
 40
4.0
 40
4.0
 40
4.0
 40
4.0
 10
54.63645831967422
 20
-95.46671136502196
 30
0.0
 10
54.63645831967422
 20
-95.48597303168427
 30
0.0
 10
54.62061721762307
 20
-95.50184803168032
 30
0.0
 10
54.60132027367094
 20
-95.50184803168032
 30
0.0
 10
54.58202332971879
 20
-95.50184803168032
 30
0.0
 10
54.56618360790068
 20
-95.48597303168427
 30
0.0
 10
54.56618360790068
 20
-95.46671136502196
 30
0.0
 10
54.56618360790068
 20
-95.44741442058277
 30
0.0
 10
54.58202332971879
 20
-95.43153942058672
 30
0.0
 10
54.60132027367094
 20
-95.43153942058672
 30
0.0
 10
54.62061721762307
 20
-95.43153942058672
 30
0.0
 10
54.63645831967422
 20
-95.44741442058277
 30
0.0
 10
54.63645831967422
 20
-95.46671136502196
 30
0.0
  0
ENDBLK
  5
203
330
200
100
AcDbEntity
  8
0
100
AcDbBlockEnd
  0
BLOCK
  5
207
330
205
100
AcDbEntity
  8
0
100
AcDbBlockBegin
  2
block 36
 70
     0
 10
0.0
 20
0.0
 30
0.0
  3
block 36
  1

  0
SPLINE
  5
209
330
205
100
AcDbEntity
  8
_U+30EC_U+30A4_U+30E4_U+30FC 1
 62
   179
420
  2234388
370
    25
100
AcDbSpline
210
0.0
220
0.0
230
1.0
 70
    11
 71
     3
 72
    17
 73
    13
 74
     0
 42
0.0000000001
 43
0.0000000001
 12
1.0
 22
0.0
 32
0.0
 13
1.0
 23
0.0
 33
0.0
 40
0.0
 40
0.0
 40
0.0
 40
0.0
 40
1.0
 40
1.0
 40
1.0
 40
2.0
 40
2.0
 40
2.0
 40
3.0
 40
3.0
 40
3.0
 40
4.0
 40
4.0
 40
4.0
 40
4.0
 10
45.63649633571598
 20
-96.46644830921699
 30
0.0
 10
45.63649633571598
 20
-96.48645080921169
 30
0.0
 10
45.62065661389786
 20
-96.50229053143023
 30
0.0
 10
45.60135966994572
 20
-96.50229053143023
 30
0.0
 10
45.58135832193811
 20
-96.50229053143023
 30
0.0
 10
45.56622300417547
 20
-96.48645080921169
 30
0.0
 10
45.56622300417547
 20
-96.46644830921699
 30
0.0
 10
45.56622300417547
 20
-96.44718664255467
 30
0.0
 10
45.58135832193811
 20
-96.43131164255861
 30
0.0
 10
45.60135966994572
 20
-96.43131164255861
 30
0.0
 10
45.62065661389786
 20
-96.43131164255861
 30
0.0
 10
45.63649633571598
 20
-96.44718664255467
 30
0.0
 10
45.63649633571598
 20
-96.46644830921699
 30
0.0
  0
ENDBLK
  5
208
330
205
100
AcDbEntity
  8
0
100
AcDbBlockEnd
  0
BLOCK
  5
20C
330
20A
100
AcDbEntity
  8
0
100
AcDbBlockBegin
  2
block 37
 70
     0
 10
0.0
 20
0.0
 30
0.0
  3
block 37
  1

  0
SPLINE
  5
20E
330
20A
100
AcDbEntity
  8
_U+30EC_U+30A4_U+30E4_U+30FC 1
 62
   179
420
  2234388
370
     9
100
AcDbSpline
210
0.0
220
0.0
230
1.0
 70
    11
 71
     3
 72
    17
 73
    13
 74
     0
 42
0.0000000001
 43
0.0000000001
 12
1.0
 22
0.0
 32
0.0
 13
1.0
 23
0.0
 33
0.0
 40
0.0
 40
0.0
 40
0.0
 40
0.0
 40
1.0
 40
1.0
 40
1.0
 40
2.0
 40
2.0
 40
2.0
 40
3.0
 40
3.0
 40
3.0
 40
4.0
 40
4.0
 40
4.0
 40
4.0
 10
45.63649633571598
 20
-104.4666721961056
 30
0.0
 10
45.63649633571598
 20
-104.4859691405455
 30
0.0
 10
45.62065661389786
 20
-104.5018088627634
 30
0.0
 10
45.60135966994572
 20
-104.5018088627634
 30
0.0
 10
45.58135832193811
 20
-104.5018088627634
 30
0.0
 10
45.56622300417547
 20
-104.4859691405455
 30
0.0
 10
45.56622300417547
 20
-104.4666721961056
 30
0.0
 10
45.56622300417547
 20
-104.4473752516658
 30
0.0
 10
45.58135832193811
 20
-104.4315355294479
 30
0.0
 10
45.60135966994572
 20
-104.4315355294479
 30
0.0
 10
45.62065661389786
 20
-104.4315355294479
 30
0.0
 10
45.63649633571598
 20
-104.4473752516658
 30
0.0
 10
45.63649633571598
 20
-104.4666721961056
 30
0.0
  0
ENDBLK
  5
20D
330
20A
100
AcDbEntity
  8
0
100
AcDbBlockEnd
  0
BLOCK
  5
211
330
20F
100
AcDbEntity
  8
0
100
AcDbBlockBegin
  2
block 38
 70
     0
 10
0.0
 20
0.0
 30
0.0
  3
block 38
  1

  0
POLYLINE
  5
213
330
20F
100
AcDbEntity
  8
_U+30EC_U+30A4_U+30E4_U+30FC 1
 62
   179
420
  2234388
370
     9
100
AcDb2dPolyline
 66
     1
 10
0.0
 20
0.0
 30
0.0
  0
VERTEX
  5
214
330
213
100
AcDbEntity
  8
_U+30EC_U+30A4_U+30E4_U+30FC 1
 62
   179
420
  2234388
370
     9
100
AcDbVertex
100
AcDb2dVertex
 10
91.60097016306456
 20
-93.466461365522
 30
0.0
  0
VERTEX
  5
215
330
213
100
AcDbEntity
  8
_U+30EC_U+30A4_U+30E4_U+30FC 1
 62
   179
420
  2234388
370
     9
100
AcDbVertex
100
AcDb2dVertex
 10
91.60097016306456
 20
-96.46644830921699
 30
0.0
  0
SEQEND
  5
216
330
213
100
AcDbEntity
  8
_U+30EC_U+30A4_U+30E4_U+30FC 1
 62
   179
420
  2234388
370
     9
  0
POLYLINE
  5
217
330
20F
100
AcDbEntity
  8
_U+30EC_U+30A4_U+30E4_U+30FC 1
 62
   179
420
  2234388
370
     9
100
AcDb2dPolyline
 66
     1
 10
0.0
 20
0.0
 30
0.0
  0
VERTEX
  5
218
330
217
100
AcDbEntity
  8
_U+30EC_U+30A4_U+30E4_U+30FC 1
 62
   179
420
  2234388
370
     9
100
AcDbVertex
100
AcDb2dVertex
 10
78.14098331379823
 20
-93.466461365522
 30
0.0
  0
VERTEX
  5
219
330
217
100
AcDbEntity
  8
_U+30EC_U+30A4_U+30E4_U+30FC 1
 62
   179
420
  2234388
370
     9
100
AcDbVertex
100
AcDb2dVertex
 10
92.60141263754115
 20
-93.466461365522
 30
0.0
  0
SEQEND
  5
21A
330
217
100
AcDbEntity
  8
_U+30EC_U+30A4_U+30E4_U+30FC 1
 62
   179
420
  2234388
370
     9
  0
POLYLINE
  5
21B
330
20F
100
AcDbEntity
  8
_U+30EC_U+30A4_U+30E4_U+30FC 1
 62
   179
420
  2234388
370
     9
100
AcDb2dPolyline
 66
     1
 10
0.0
 20
0.0
 30
0.0
  0
VERTEX
  5
21C
330
21B
100
AcDbEntity
  8
_U+30EC_U+30A4_U+30E4_U+30FC 1
 62
   179
420
  2234388
370
     9
100
AcDbVertex
100
AcDb2dVertex
 10
78.14098331379823
 20
-96.46644830921699
 30
0.0
  0
VERTEX
  5
21D
330
21B
100
AcDbEntity
  8
_U+30EC_U+30A4_U+30E4_U+30FC 1
 62
   179
420
  2234388
370
     9
100
AcDbVertex
100
AcDb2dVertex
 10
92.60141263754115
 20
-96.46644830921699
 30
0.0
  0
SEQEND
  5
21E
330
21B
100
AcDbEntity
  8
_U+30EC_U+30A4_U+30E4_U+30FC 1
 62
   179
420
  2234388
370
     9
  0
INSERT
  5
220
330
20F
100
AcDbEntity
  8
_U+30EC_U+30A4_U+30E4_U+30FC 1
100
AcDbBlockReference
  2
block 39
 10
0.0
 20
0.0
 30
0.0
  0
INSERT
  5
226
330
20F
100
AcDbEntity
  8
_U+30EC_U+30A4_U+30E4_U+30FC 1
100
AcDbBlockReference
  2
block 40
 10
0.0
 20
0.0
 30
0.0
  0
INSERT
  5
22B
330
20F
100
AcDbEntity
  8
_U+30EC_U+30A4_U+30E4_U+30FC 1
100
AcDbBlockReference
  2
block 41
 10
0.0
 20
0.0
 30
0.0
  0
INSERT
  5
230
330
20F
100
AcDbEntity
  8
_U+30EC_U+30A4_U+30E4_U+30FC 1
100
AcDbBlockReference
  2
block 42
 10
0.0
 20
0.0
 30
0.0
  0
ENDBLK
  5
212
330
20F
100
AcDbEntity
  8
0
100
AcDbBlockEnd
  0
BLOCK
  5
221
330
21F
100
AcDbEntity
  8
0
100
AcDbBlockBegin
  2
block 39
 70
     0
 10
0.0
 20
0.0
 30
0.0
  3
block 39
  1

  0
SPLINE
  5
223
330
21F
100
AcDbEntity
  8
_U+30EC_U+30A4_U+30E4_U+30FC 1
370
     0
100
AcDbSpline
210
0.0
220
0.0
230
1.0
 70
    11
 71
     3
 72
    62
 73
    58
 74
     0
 42
0.0000000001
 43
0.0000000001
 12
1.0
 22
0.0
 32
0.0
 13
1.0
 23
0.0
 33
0.0
 40
0.0
 40
0.0
 40
0.0
 40
0.0
 40
1.0
 40
1.0
 40
1.0
 40
2.0
 40
2.0
 40
2.0
 40
3.0
 40
3.0
 40
3.0
 40
4.0
 40
4.0
 40
4.0
 40
5.0
 40
5.0
 40
5.0
 40
6.0
 40
6.0
 40
6.0
 40
7.0
 40
7.0
 40
7.0
 40
8.0
 40
8.0
 40
8.0
 40
9.0
 40
9.0
 40
9.0
 40
10.0
 40
10.0
 40
10.0
 40
11.0
 40
11.0
 40
11.0
 40
12.0
 40
12.0
 40
12.0
 40
13.0
 40
13.0
 40
13.0
 40
14.0
 40
14.0
 40
14.0
 40
15.0
 40
15.0
 40
15.0
 40
16.0
 40
16.0
 40
16.0
 40
17.0
 40
17.0
 40
17.0
 40
18.0
 40
18.0
 40
18.0
 40
19.0
 40
19.0
 40
19.0
 40
19.0
 10
91.27883841034001
 20
-94.97611488511014
 30
0.0
 10
91.27883841034001
 20
-95.07774520192501
 30
0.0
 10
91.25782332787999
 20
-95.3106336567279
 30
0.0
 10
91.07144366212798
 20
-95.44395885200707
 30
0.0
 10
90.95947805885736
 20
-95.52319604816782
 30
0.0
 10
90.85991479933364
 20
-95.52767467229864
 30
0.0
 10
90.77550995994501
 20
-95.53215329642947
 30
0.0
 10
90.77550995994501
 20
-95.53215329642947
 30
0.0
 10
90.77550995994501
 20
-95.2968532747869
 30
0.0
 10
90.77550995994501
 20
-95.2968532747869
 30
0.0
 10
90.84923500332937
 20
-95.29478621749575
 30
0.0
 10
91.0841905154234
 20
-95.28341740239443
 30
0.0
 10
91.0841905154234
 20
-94.98059350924096
 30
0.0
 10
91.0841905154234
 20
-94.8334879320208
 30
0.0
 10
91.01425507707283
 20
-94.67087942511701
 30
0.0
 10
90.78584524640077
 20
-94.67087942511701
 30
0.0
 10
90.66940101899932
 20
-94.67087942511701
 30
0.0
 10
90.62082517265729
 20
-94.71153155184295
 30
0.0
 10
90.589130294193
 20
-94.7452934875984
 30
0.0
 10
90.51506074126013
 20
-94.82453068375915
 30
0.0
 10
90.5023138879647
 20
-94.94889863077667
 30
0.0
 10
90.5023138879647
 20
-95.00746525402592
 30
0.0
 10
90.5023138879647
 20
-95.02813582693742
 30
0.0
 10
90.50472545480437
 20
-95.06637638682369
 30
0.0
 10
90.50885956938667
 20
-95.09565969844832
 30
0.0
 10
90.50885956938667
 20
-95.09565969844832
 30
0.0
 10
90.31421167447006
 20
-95.09565969844832
 30
0.0
 10
90.31421167447006
 20
-95.09565969844832
 30
0.0
 10
90.32041284634352
 20
-95.05500757172237
 30
0.0
 10
90.32247990363466
 20
-95.00987682086559
 30
0.0
 10
90.32247990363466
 20
-95.00298662989509
 30
0.0
 10
90.32247990363466
 20
-94.93305119154452
 30
0.0
 10
90.30146482117463
 20
-94.7204888001046
 30
0.0
 10
90.06444225178944
 20
-94.7204888001046
 30
0.0
 10
89.88667532475056
 20
-94.7204888001046
 30
0.0
 10
89.83189830653508
 20
-94.86070418635427
 30
0.0
 10
89.83189830653508
 20
-94.97818194240129
 30
0.0
 10
89.83189830653508
 20
-95.26067977219178
 30
0.0
 10
90.06444225178944
 20
-95.26998153000196
 30
0.0
 10
90.13644474743117
 20
-95.27446015413278
 30
0.0
 10
90.13644474743117
 20
-95.27446015413278
 30
0.0
 10
90.13644474743117
 20
-95.49150116970351
 30
0.0
 10
90.13644474743117
 20
-95.49150116970351
 30
0.0
 10
90.01173229086513
 20
-95.48254392144187
 30
0.0
 10
89.63518335432732
 20
-95.45291610026872
 30
0.0
 10
89.63518335432732
 20
-94.96474607000881
 30
0.0
 10
89.63518335432732
 20
-94.72496742423543
 30
0.0
 10
89.76196286818451
 20
-94.46727428193874
 30
0.0
 10
90.058241079916
 20
-94.46727428193874
 30
0.0
 10
90.24427623611949
 20
-94.46727428193874
 30
0.0
 10
90.32695852776548
 20
-94.5689045987536
 30
0.0
 10
90.38828122740293
 20
-94.67535804924783
 30
0.0
 10
90.41584199128494
 20
-94.60955672547956
 30
0.0
 10
90.49611271609125
 20
-94.41525334011146
 30
0.0
 10
90.77309839310534
 20
-94.41525334011146
 30
0.0
 10
91.1117512793054
 20
-94.41525334011146
 30
0.0
 10
91.27883841034001
 20
-94.67983667337866
 30
0.0
 10
91.27883841034001
 20
-94.97611488511014
 30
0.0
  0
HATCH
  5
224
330
21F
100
AcDbEntity
  8
_U+30EC_U+30A4_U+30E4_U+30FC 1
 62
   179
420
  2234388
100
AcDbHatch
 10
0.0
 20
0.0
 30
0.0
210
0.0
220
0.0
230
1.0
  2
SOLID
 70
     1
 71
     0
 91
        1
 92
        1
 93
        1
 72
     4
 94
        3
 73
     0
 74
     1
 95
       62
 96
       58
 40
0.0
 40
0.0
 40
0.0
 40
0.0
 40
1.0
 40
1.0
 40
1.0
 40
2.0
 40
2.0
 40
2.0
 40
3.0
 40
3.0
 40
3.0
 40
4.0
 40
4.0
 40
4.0
 40
5.0
 40
5.0
 40
5.0
 40
6.0
 40
6.0
 40
6.0
 40
7.0
 40
7.0
 40
7.0
 40
8.0
 40
8.0
 40
8.0
 40
9.0
 40
9.0
 40
9.0
 40
10.0
 40
10.0
 40
10.0
 40
11.0
 40
11.0
 40
11.0
 40
12.0
 40
12.0
 40
12.0
 40
13.0
 40
13.0
 40
13.0
 40
14.0
 40
14.0
 40
14.0
 40
15.0
 40
15.0
 40
15.0
 40
16.0
 40
16.0
 40
16.0
 40
17.0
 40
17.0
 40
17.0
 40
18.0
 40
18.0
 40
18.0
 40
19.0
 40
19.0
 40
19.0
 40
19.0
 10
91.27883841034001
 20
-94.97611488511014
 10
91.27883841034001
 20
-95.07774520192501
 10
91.25782332787999
 20
-95.3106336567279
 10
91.07144366212798
 20
-95.44395885200707
 10
90.95947805885736
 20
-95.52319604816782
 10
90.85991479933364
 20
-95.52767467229864
 10
90.77550995994501
 20
-95.53215329642947
 10
90.77550995994501
 20
-95.53215329642947
 10
90.77550995994501
 20
-95.2968532747869
 10
90.77550995994501
 20
-95.2968532747869
 10
90.84923500332937
 20
-95.29478621749575
 10
91.0841905154234
 20
-95.28341740239443
 10
91.0841905154234
 20
-94.98059350924096
 10
91.0841905154234
 20
-94.8334879320208
 10
91.01425507707283
 20
-94.67087942511701
 10
90.78584524640077
 20
-94.67087942511701
 10
90.66940101899932
 20
-94.67087942511701
 10
90.62082517265729
 20
-94.71153155184295
 10
90.589130294193
 20
-94.7452934875984
 10
90.51506074126013
 20
-94.82453068375915
 10
90.5023138879647
 20
-94.94889863077667
 10
90.5023138879647
 20
-95.00746525402592
 10
90.5023138879647
 20
-95.02813582693742
 10
90.50472545480437
 20
-95.06637638682369
 10
90.50885956938667
 20
-95.09565969844832
 10
90.50885956938667
 20
-95.09565969844832
 10
90.31421167447006
 20
-95.09565969844832
 10
90.31421167447006
 20
-95.09565969844832
 10
90.32041284634352
 20
-95.05500757172237
 10
90.32247990363466
 20
-95.00987682086559
 10
90.32247990363466
 20
-95.00298662989509
 10
90.32247990363466
 20
-94.93305119154452
 10
90.30146482117463
 20
-94.7204888001046
 10
90.06444225178944
 20
-94.7204888001046
 10
89.88667532475056
 20
-94.7204888001046
 10
89.83189830653508
 20
-94.86070418635427
 10
89.83189830653508
 20
-94.97818194240129
 10
89.83189830653508
 20
-95.26067977219178
 10
90.06444225178944
 20
-95.26998153000196
 10
90.13644474743117
 20
-95.27446015413278
 10
90.13644474743117
 20
-95.27446015413278
 10
90.13644474743117
 20
-95.49150116970351
 10
90.13644474743117
 20
-95.49150116970351
 10
90.01173229086513
 20
-95.48254392144187
 10
89.63518335432732
 20
-95.45291610026872
 10
89.63518335432732
 20
-94.96474607000881
 10
89.63518335432732
 20
-94.72496742423543
 10
89.76196286818451
 20
-94.46727428193874
 10
90.058241079916
 20
-94.46727428193874
 10
90.24427623611949
 20
-94.46727428193874
 10
90.32695852776548
 20
-94.5689045987536
 10
90.38828122740293
 20
-94.67535804924783
 10
90.41584199128494
 20
-94.60955672547956
 10
90.49611271609125
 20
-94.41525334011146
 10
90.77309839310534
 20
-94.41525334011146
 10
91.1117512793054
 20
-94.41525334011146
 10
91.27883841034001
 20
-94.67983667337866
 10
91.27883841034001
 20
-94.97611488511014
 97
        0
 97
        0
 75
     2
 76
     1
 98
        0
  0
ENDBLK
  5
222
330
21F
100
AcDbEntity
  8
0
100
AcDbBlockEnd
  0
BLOCK
  5
227
330
225
100
AcDbEntity
  8
0
100
AcDbBlockBegin
  2
block 40
 70
     0
 10
0.0
 20
0.0
 30
0.0
  3
block 40
  1

  0
SPLINE
  5
229
330
225
100
AcDbEntity
  8
_U+30EC_U+30A4_U+30E4_U+30FC 1
 62
   179
420
  2234388
370
    25
100
AcDbSpline
210
0.0
220
0.0
230
1.0
 70
    11
 71
     3
 72
    17
 73
    13
 74
     0
 42
0.0000000001
 43
0.0000000001
 12
1.0
 22
0.0
 32
0.0
 13
1.0
 23
0.0
 33
0.0
 40
0.0
 40
0.0
 40
0.0
 40
0.0
 40
1.0
 40
1.0
 40
1.0
 40
2.0
 40
2.0
 40
2.0
 40
3.0
 40
3.0
 40
3.0
 40
4.0
 40
4.0
 40
4.0
 40
4.0
 10
75.6363650148
 20
-93.466461365522
 30
0.0
 10
75.6363650148
 20
-93.48646386551735
 30
0.0
 10
75.6205252929819
 20
-93.50230358773524
 30
0.0
 10
75.60122834902975
 20
-93.50230358773524
 30
0.0
 10
75.5819333144377
 20
-93.50230358773524
 30
0.0
 10
75.5660916832595
 20
-93.48646386551735
 30
0.0
 10
75.5660916832595
 20
-93.466461365522
 30
0.0
 10
75.5660916832595
 20
-93.4471644210828
 30
0.0
 10
75.5819333144377
 20
-93.43132469886427
 30
0.0
 10
75.60122834902975
 20
-93.43132469886427
 30
0.0
 10
75.6205252929819
 20
-93.43132469886427
 30
0.0
 10
75.6363650148
 20
-93.4471644210828
 30
0.0
 10
75.6363650148
 20
-93.466461365522
 30
0.0
  0
ENDBLK
  5
228
330
225
100
AcDbEntity
  8
0
100
AcDbBlockEnd
  0
BLOCK
  5
22C
330
22A
100
AcDbEntity
  8
0
100
AcDbBlockBegin
  2
block 41
 70
     0
 10
0.0
 20
0.0
 30
0.0
  3
block 41
  1

  0
SPLINE
  5
22E
330
22A
100
AcDbEntity
  8
_U+30EC_U+30A4_U+30E4_U+30FC 1
 62
   179
420
  2234388
370
    25
100
AcDbSpline
210
0.0
220
0.0
230
1.0
 70
    11
 71
     3
 72
    17
 73
    13
 74
     0
 42
0.0000000001
 43
0.0000000001
 12
1.0
 22
0.0
 32
0.0
 13
1.0
 23
0.0
 33
0.0
 40
0.0
 40
0.0
 40
0.0
 40
0.0
 40
1.0
 40
1.0
 40
1.0
 40
2.0
 40
2.0
 40
2.0
 40
3.0
 40
3.0
 40
3.0
 40
4.0
 40
4.0
 40
4.0
 40
4.0
 10
75.6363650148
 20
-96.46644830921699
 30
0.0
 10
75.6363650148
 20
-96.48645080921169
 30
0.0
 10
75.6205252929819
 20
-96.50229053143023
 30
0.0
 10
75.60122834902975
 20
-96.50229053143023
 30
0.0
 10
75.5819333144377
 20
-96.50229053143023
 30
0.0
 10
75.5660916832595
 20
-96.48645080921169
 30
0.0
 10
75.5660916832595
 20
-96.46644830921699
 30
0.0
 10
75.5660916832595
 20
-96.44718664255467
 30
0.0
 10
75.5819333144377
 20
-96.43131164255861
 30
0.0
 10
75.60122834902975
 20
-96.43131164255861
 30
0.0
 10
75.6205252929819
 20
-96.43131164255861
 30
0.0
 10
75.6363650148
 20
-96.44718664255467
 30
0.0
 10
75.6363650148
 20
-96.46644830921699
 30
0.0
  0
ENDBLK
  5
22D
330
22A
100
AcDbEntity
  8
0
100
AcDbBlockEnd
  0
BLOCK
  5
231
330
22F
100
AcDbEntity
  8
0
100
AcDbBlockBegin
  2
block 42
 70
     0
 10
0.0
 20
0.0
 30
0.0
  3
block 42
  1

  0
SPLINE
  5
233
330
22F
100
AcDbEntity
  8
_U+30EC_U+30A4_U+30E4_U+30FC 1
 62
   179
420
  2234388
370
     9
100
AcDbSpline
210
0.0
220
0.0
230
1.0
 70
    11
 71
     3
 72
    17
 73
    13
 74
     0
 42
0.0000000001
 43
0.0000000001
 12
1.0
 22
0.0
 32
0.0
 13
1.0
 23
0.0
 33
0.0
 40
0.0
 40
0.0
 40
0.0
 40
0.0
 40
1.0
 40
1.0
 40
1.0
 40
2.0
 40
2.0
 40
2.0
 40
3.0
 40
3.0
 40
3.0
 40
4.0
 40
4.0
 40
4.0
 40
4.0
 10
91.63677710659549
 20
-96.46644830921699
 30
0.0
 10
91.63677710659549
 20
-96.48645080921169
 30
0.0
 10
91.62093738477738
 20
-96.50229053143023
 30
0.0
 10
91.60097016306456
 20
-96.50229053143023
 30
0.0
 10
91.58167321911242
 20
-96.50229053143023
 30
0.0
 10
91.56579821951743
 20
-96.48645080921169
 30
0.0
 10
91.56579821951743
 20
-96.46644830921699
 30
0.0
 10
91.56579821951743
 20
-96.44718664255467
 30
0.0
 10
91.58167321911242
 20
-96.43131164255861
 30
0.0
 10
91.60097016306456
 20
-96.43131164255861
 30
0.0
 10
91.62093738477738
 20
-96.43131164255861
 30
0.0
 10
91.63677710659549
 20
-96.44718664255467
 30
0.0
 10
91.63677710659549
 20
-96.46644830921699
 30
0.0
  0
ENDBLK
  5
232
330
22F
100
AcDbEntity
  8
0
100
AcDbBlockEnd
  0
BLOCK
  5
236
330
234
100
AcDbEntity
  8
0
100
AcDbBlockBegin
  2
block 43
 70
     0
 10
0.0
 20
0.0
 30
0.0
  3
block 43
  1

  0
POLYLINE
  5
238
330
234
100
AcDbEntity
  8
_U+30EC_U+30A4_U+30E4_U+30FC 1
 62
   179
420
  2234388
370
     9
100
AcDb2dPolyline
 66
     1
 10
0.0
 20
0.0
 30
0.0
  0
VERTEX
  5
239
330
238
100
AcDbEntity
  8
_U+30EC_U+30A4_U+30E4_U+30FC 1
 62
   179
420
  2234388
370
     9
100
AcDbVertex
100
AcDb2dVertex
 10
91.60097016306456
 20
-79.46696914679987
 30
0.0
  0
VERTEX
  5
23A
330
238
100
AcDbEntity
  8
_U+30EC_U+30A4_U+30E4_U+30FC 1
 62
   179
420
  2234388
370
     9
100
AcDbVertex
100
AcDb2dVertex
 10
91.60097016306456
 20
-75.69665664774244
 30
0.0
  0
SEQEND
  5
23B
330
238
100
AcDbEntity
  8
_U+30EC_U+30A4_U+30E4_U+30FC 1
 62
   179
420
  2234388
370
     9
  0
POLYLINE
  5
23C
330
234
100
AcDbEntity
  8
_U+30EC_U+30A4_U+30E4_U+30FC 1
 62
   179
420
  2234388
370
     9
100
AcDb2dPolyline
 66
     1
 10
0.0
 20
0.0
 30
0.0
  0
VERTEX
  5
23D
330
23C
100
AcDbEntity
  8
_U+30EC_U+30A4_U+30E4_U+30FC 1
 62
   179
420
  2234388
370
     9
100
AcDbVertex
100
AcDb2dVertex
 10
91.60097016306456
 20
-80.46674136877208
 30
0.0
  0
VERTEX
  5
23E
330
23C
100
AcDbEntity
  8
_U+30EC_U+30A4_U+30E4_U+30FC 1
 62
   179
420
  2234388
370
     9
100
AcDbVertex
100
AcDb2dVertex
 10
91.60097016306456
 20
-79.46696914679987
 30
0.0
  0
SEQEND
  5
23F
330
23C
100
AcDbEntity
  8
_U+30EC_U+30A4_U+30E4_U+30FC 1
 62
   179
420
  2234388
370
     9
  0
POLYLINE
  5
240
330
234
100
AcDbEntity
  8
_U+30EC_U+30A4_U+30E4_U+30FC 1
 62
   179
420
  2234388
370
     9
100
AcDb2dPolyline
 66
     1
 10
0.0
 20
0.0
 30
0.0
  0
VERTEX
  5
241
330
240
100
AcDbEntity
  8
_U+30EC_U+30A4_U+30E4_U+30FC 1
 62
   179
420
  2234388
370
     9
100
AcDbVertex
100
AcDb2dVertex
 10
90.14092881142443
 20
-79.46696914679987
 30
0.0
  0
VERTEX
  5
242
330
240
100
AcDbEntity
  8
_U+30EC_U+30A4_U+30E4_U+30FC 1
 62
   179
420
  2234388
370
     9
100
AcDbVertex
100
AcDb2dVertex
 10
92.60141263754115
 20
-79.46696914679987
 30
0.0
  0
SEQEND
  5
243
330
240
100
AcDbEntity
  8
_U+30EC_U+30A4_U+30E4_U+30FC 1
 62
   179
420
  2234388
370
     9
  0
INSERT
  5
245
330
234
100
AcDbEntity
  8
_U+30EC_U+30A4_U+30E4_U+30FC 1
100
AcDbBlockReference
  2
block 44
 10
0.0
 20
0.0
 30
0.0
  0
INSERT
  5
24B
330
234
100
AcDbEntity
  8
_U+30EC_U+30A4_U+30E4_U+30FC 1
100
AcDbBlockReference
  2
block 45
 10
0.0
 20
0.0
 30
0.0
  0
INSERT
  5
250
330
234
100
AcDbEntity
  8
_U+30EC_U+30A4_U+30E4_U+30FC 1
100
AcDbBlockReference
  2
block 46
 10
0.0
 20
0.0
 30
0.0
  0
INSERT
  5
255
330
234
100
AcDbEntity
  8
_U+30EC_U+30A4_U+30E4_U+30FC 1
100
AcDbBlockReference
  2
block 47
 10
0.0
 20
0.0
 30
0.0
  0
ENDBLK
  5
237
330
234
100
AcDbEntity
  8
0
100
AcDbBlockEnd
  0
BLOCK
  5
246
330
244
100
AcDbEntity
  8
0
100
AcDbBlockBegin
  2
block 44
 70
     0
 10
0.0
 20
0.0
 30
0.0
  3
block 44
  1

  0
SPLINE
  5
248
330
244
100
AcDbEntity
  8
_U+30EC_U+30A4_U+30E4_U+30FC 1
370
     0
100
AcDbSpline
210
0.0
220
0.0
230
1.0
 70
    11
 71
     3
 72
    26
 73
    22
 74
     0
 42
0.0000000001
 43
0.0000000001
 12
1.0
 22
0.0
 32
0.0
 13
1.0
 23
0.0
 33
0.0
 40
0.0
 40
0.0
 40
0.0
 40
0.0
 40
1.0
 40
1.0
 40
1.0
 40
2.0
 40
2.0
 40
2.0
 40
3.0
 40
3.0
 40
3.0
 40
4.0
 40
4.0
 40
4.0
 40
5.0
 40
5.0
 40
5.0
 40
6.0
 40
6.0
 40
6.0
 40
7.0
 40
7.0
 40
7.0
 40
7.0
 10
91.22750648760979
 20
-76.5191880776584
 30
0.0
 10
91.22750648760979
 20
-76.5191880776584
 30
0.0
 10
90.12300887503869
 20
-76.5191880776584
 30
0.0
 10
90.12300887503869
 20
-76.5191880776584
 30
0.0
 10
90.12300887503869
 20
-76.5191880776584
 30
0.0
 10
90.12300887503869
 20
-76.87179360057372
 30
0.0
 10
90.12300887503869
 20
-76.87179360057372
 30
0.0
 10
90.12300887503869
 20
-76.87179360057372
 30
0.0
 10
89.97486976917295
 20
-76.87179360057372
 30
0.0
 10
89.97486976917295
 20
-76.87179360057372
 30
0.0
 10
89.96005585858637
 20
-76.51677651081873
 30
0.0
 10
89.79744735168259
 20
-76.46716713583113
 30
0.0
 10
89.68307018157229
 20
-76.43547225736683
 30
0.0
 10
89.68307018157229
 20
-76.43547225736683
 30
0.0
 10
89.68307018157229
 20
-76.27940943188501
 30
0.0
 10
89.68307018157229
 20
-76.27940943188501
 30
0.0
 10
89.68307018157229
 20
-76.27940943188501
 30
0.0
 10
91.22750648760979
 20
-76.27940943188501
 30
0.0
 10
91.22750648760979
 20
-76.27940943188501
 30
0.0
 10
91.22750648760979
 20
-76.27940943188501
 30
0.0
 10
91.22750648760979
 20
-76.5191880776584
 30
0.0
 10
91.22750648760979
 20
-76.5191880776584
 30
0.0
  0
HATCH
  5
249
330
244
100
AcDbEntity
  8
_U+30EC_U+30A4_U+30E4_U+30FC 1
 62
   179
420
  2234388
100
AcDbHatch
 10
0.0
 20
0.0
 30
0.0
210
0.0
220
0.0
230
1.0
  2
SOLID
 70
     1
 71
     0
 91
        1
 92
        1
 93
        1
 72
     4
 94
        3
 73
     0
 74
     1
 95
       26
 96
       22
 40
0.0
 40
0.0
 40
0.0
 40
0.0
 40
1.0
 40
1.0
 40
1.0
 40
2.0
 40
2.0
 40
2.0
 40
3.0
 40
3.0
 40
3.0
 40
4.0
 40
4.0
 40
4.0
 40
5.0
 40
5.0
 40
5.0
 40
6.0
 40
6.0
 40
6.0
 40
7.0
 40
7.0
 40
7.0
 40
7.0
 10
91.22750648760979
 20
-76.5191880776584
 10
91.22750648760979
 20
-76.5191880776584
 10
90.12300887503869
 20
-76.5191880776584
 10
90.12300887503869
 20
-76.5191880776584
 10
90.12300887503869
 20
-76.5191880776584
 10
90.12300887503869
 20
-76.87179360057372
 10
90.12300887503869
 20
-76.87179360057372
 10
90.12300887503869
 20
-76.87179360057372
 10
89.97486976917295
 20
-76.87179360057372
 10
89.97486976917295
 20
-76.87179360057372
 10
89.96005585858637
 20
-76.51677651081873
 10
89.79744735168259
 20
-76.46716713583113
 10
89.68307018157229
 20
-76.43547225736683
 10
89.68307018157229
 20
-76.43547225736683
 10
89.68307018157229
 20
-76.27940943188501
 10
89.68307018157229
 20
-76.27940943188501
 10
89.68307018157229
 20
-76.27940943188501
 10
91.22750648760979
 20
-76.27940943188501
 10
91.22750648760979
 20
-76.27940943188501
 10
91.22750648760979
 20
-76.27940943188501
 10
91.22750648760979
 20
-76.5191880776584
 10
91.22750648760979
 20
-76.5191880776584
 97
        0
 97
        0
 75
     2
 76
     1
 98
        0
  0
ENDBLK
  5
247
330
244
100
AcDbEntity
  8
0
100
AcDbBlockEnd
  0
BLOCK
  5
24C
330
24A
100
AcDbEntity
  8
0
100
AcDbBlockBegin
  2
block 45
 70
     0
 10
0.0
 20
0.0
 30
0.0
  3
block 45
  1

  0
SPLINE
  5
24E
330
24A
100
AcDbEntity
  8
_U+30EC_U+30A4_U+30E4_U+30FC 1
 62
   179
420
  2234388
370
    25
100
AcDbSpline
210
0.0
220
0.0
230
1.0
 70
    11
 71
     3
 72
    17
 73
    13
 74
     0
 42
0.0000000001
 43
0.0000000001
 12
1.0
 22
0.0
 32
0.0
 13
1.0
 23
0.0
 33
0.0
 40
0.0
 40
0.0
 40
0.0
 40
0.0
 40
1.0
 40
1.0
 40
1.0
 40
2.0
 40
2.0
 40
2.0
 40
3.0
 40
3.0
 40
3.0
 40
4.0
 40
4.0
 40
4.0
 40
4.0
 10
87.63634997809079
 20
-80.46674136877208
 30
0.0
 10
87.63634997809079
 20
-80.4860383132119
 30
0.0
 10
87.62047497809475
 20
-80.50187803543012
 30
0.0
 10
87.60121109844025
 20
-80.50187803543012
 30
0.0
 10
87.5819141544881
 20
-80.50187803543012
 30
0.0
 10
87.56607443266999
 20
-80.4860383132119
 30
0.0
 10
87.56607443266999
 20
-80.46674136877208
 30
0.0
 10
87.56607443266999
 20
-80.44744442433257
 30
0.0
 10
87.5819141544881
 20
-80.43160470211436
 30
0.0
 10
87.60121109844025
 20
-80.43160470211436
 30
0.0
 10
87.62047497809475
 20
-80.43160470211436
 30
0.0
 10
87.63634997809079
 20
-80.44744442433257
 30
0.0
 10
87.63634997809079
 20
-80.46674136877208
 30
0.0
  0
ENDBLK
  5
24D
330
24A
100
AcDbEntity
  8
0
100
AcDbBlockEnd
  0
BLOCK
  5
251
330
24F
100
AcDbEntity
  8
0
100
AcDbBlockBegin
  2
block 46
 70
     0
 10
0.0
 20
0.0
 30
0.0
  3
block 46
  1

  0
SPLINE
  5
253
330
24F
100
AcDbEntity
  8
_U+30EC_U+30A4_U+30E4_U+30FC 1
 62
   179
420
  2234388
370
    25
100
AcDbSpline
210
0.0
220
0.0
230
1.0
 70
    11
 71
     3
 72
    17
 73
    13
 74
     0
 42
0.0000000001
 43
0.0000000001
 12
1.0
 22
0.0
 32
0.0
 13
1.0
 23
0.0
 33
0.0
 40
0.0
 40
0.0
 40
0.0
 40
0.0
 40
1.0
 40
1.0
 40
1.0
 40
2.0
 40
2.0
 40
2.0
 40
3.0
 40
3.0
 40
3.0
 40
4.0
 40
4.0
 40
4.0
 40
4.0
 10
87.63634997809079
 20
-79.46696914679987
 30
0.0
 10
87.63634997809079
 20
-79.4862660912397
 30
0.0
 10
87.62047497809475
 20
-79.50214109123543
 30
0.0
 10
87.60121109844025
 20
-79.50214109123543
 30
0.0
 10
87.5819141544881
 20
-79.50214109123543
 30
0.0
 10
87.56607443266999
 20
-79.4862660912397
 30
0.0
 10
87.56607443266999
 20
-79.46696914679987
 30
0.0
 10
87.56607443266999
 20
-79.44700192458266
 30
0.0
 10
87.5819141544881
 20
-79.43116220236446
 30
0.0
 10
87.60121109844025
 20
-79.43116220236446
 30
0.0
 10
87.62047497809475
 20
-79.43116220236446
 30
0.0
 10
87.63634997809079
 20
-79.44700192458266
 30
0.0
 10
87.63634997809079
 20
-79.46696914679987
 30
0.0
  0
ENDBLK
  5
252
330
24F
100
AcDbEntity
  8
0
100
AcDbBlockEnd
  0
BLOCK
  5
256
330
254
100
AcDbEntity
  8
0
100
AcDbBlockBegin
  2
block 47
 70
     0
 10
0.0
 20
0.0
 30
0.0
  3
block 47
  1

  0
SPLINE
  5
258
330
254
100
AcDbEntity
  8
_U+30EC_U+30A4_U+30E4_U+30FC 1
 62
   179
420
  2234388
370
     9
100
AcDbSpline
210
0.0
220
0.0
230
1.0
 70
    11
 71
     3
 72
    17
 73
    13
 74
     0
 42
0.0000000001
 43
0.0000000001
 12
1.0
 22
0.0
 32
0.0
 13
1.0
 23
0.0
 33
0.0
 40
0.0
 40
0.0
 40
0.0
 40
0.0
 40
1.0
 40
1.0
 40
1.0
 40
2.0
 40
2.0
 40
2.0
 40
3.0
 40
3.0
 40
3.0
 40
4.0
 40
4.0
 40
4.0
 40
4.0
 10
91.63677710659549
 20
-79.46696914679987
 30
0.0
 10
91.63677710659549
 20
-79.4862660912397
 30
0.0
 10
91.62093738477738
 20
-79.50214109123543
 30
0.0
 10
91.60097016306456
 20
-79.50214109123543
 30
0.0
 10
91.58167321911242
 20
-79.50214109123543
 30
0.0
 10
91.56579821951743
 20
-79.4862660912397
 30
0.0
 10
91.56579821951743
 20
-79.46696914679987
 30
0.0
 10
91.56579821951743
 20
-79.44700192458266
 30
0.0
 10
91.58167321911242
 20
-79.43116220236446
 30
0.0
 10
91.60097016306456
 20
-79.43116220236446
 30
0.0
 10
91.62093738477738
 20
-79.43116220236446
 30
0.0
 10
91.63677710659549
 20
-79.44700192458266
 30
0.0
 10
91.63677710659549
 20
-79.46696914679987
 30
0.0
  0
ENDBLK
  5
257
330
254
100
AcDbEntity
  8
0
100
AcDbBlockEnd
  0
BLOCK
  5
25B
330
259
100
AcDbEntity
  8
0
100
AcDbBlockBegin
  2
block 48
 70
     0
 10
0.0
 20
0.0
 30
0.0
  3
block 48
  1

  0
INSERT
  5
25E
330
259
100
AcDbEntity
  8
_U+30EC_U+30A4_U+30E4_U+30FC 1
100
AcDbBlockReference
  2
block 49
 10
0.0
 20
0.0
 30
0.0
  0
INSERT
  5
263
330
259
100
AcDbEntity
  8
_U+30EC_U+30A4_U+30E4_U+30FC 1
100
AcDbBlockReference
  2
block 50
 10
0.0
 20
0.0
 30
0.0
  0
ENDBLK
  5
25C
330
259
100
AcDbEntity
  8
0
100
AcDbBlockEnd
  0
BLOCK
  5
25F
330
25D
100
AcDbEntity
  8
0
100
AcDbBlockBegin
  2
block 49
 70
     0
 10
0.0
 20
0.0
 30
0.0
  3
block 49
  1

  0
SPLINE
  5
261
330
25D
100
AcDbEntity
  8
_U+30EC_U+30A4_U+30E4_U+30FC 1
 62
   179
420
  2234388
370
    25
100
AcDbSpline
210
0.0
220
0.0
230
1.0
 70
    11
 71
     3
 72
    17
 73
    13
 74
     0
 42
0.0000000001
 43
0.0000000001
 12
1.0
 22
0.0
 32
0.0
 13
1.0
 23
0.0
 33
0.0
 40
0.0
 40
0.0
 40
0.0
 40
0.0
 40
1.0
 40
1.0
 40
1.0
 40
2.0
 40
2.0
 40
2.0
 40
3.0
 40
3.0
 40
3.0
 40
4.0
 40
4.0
 40
4.0
 40
4.0
 10
75.6363650148
 20
-93.466461365522
 30
0.0
 10
75.6363650148
 20
-93.48646386551735
 30
0.0
 10
75.6205252929819
 20
-93.50230358773524
 30
0.0
 10
75.60122834902975
 20
-93.50230358773524
 30
0.0
 10
75.5819333144377
 20
-93.50230358773524
 30
0.0
 10
75.5660916832595
 20
-93.48646386551735
 30
0.0
 10
75.5660916832595
 20
-93.466461365522
 30
0.0
 10
75.5660916832595
 20
-93.4471644210828
 30
0.0
 10
75.5819333144377
 20
-93.43132469886427
 30
0.0
 10
75.60122834902975
 20
-93.43132469886427
 30
0.0
 10
75.6205252929819
 20
-93.43132469886427
 30
0.0
 10
75.6363650148
 20
-93.4471644210828
 30
0.0
 10
75.6363650148
 20
-93.466461365522
 30
0.0
  0
ENDBLK
  5
260
330
25D
100
AcDbEntity
  8
0
100
AcDbBlockEnd
  0
BLOCK
  5
264
330
262
100
AcDbEntity
  8
0
100
AcDbBlockBegin
  2
block 50
 70
     0
 10
0.0
 20
0.0
 30
0.0
  3
block 50
  1

  0
SPLINE
  5
266
330
262
100
AcDbEntity
  8
_U+30EC_U+30A4_U+30E4_U+30FC 1
 62
   179
420
  2234388
370
    25
100
AcDbSpline
210
0.0
220
0.0
230
1.0
 70
    11
 71
     3
 72
    17
 73
    13
 74
     0
 42
0.0000000001
 43
0.0000000001
 12
1.0
 22
0.0
 32
0.0
 13
1.0
 23
0.0
 33
0.0
 40
0.0
 40
0.0
 40
0.0
 40
0.0
 40
1.0
 40
1.0
 40
1.0
 40
2.0
 40
2.0
 40
2.0
 40
3.0
 40
3.0
 40
3.0
 40
4.0
 40
4.0
 40
4.0
 40
4.0
 10
71.63664122795258
 20
-93.466461365522
 30
0.0
 10
71.63664122795258
 20
-93.48646386551735
 30
0.0
 10
71.62076622835758
 20
-93.50230358773524
 30
0.0
 10
71.60146928440544
 20
-93.50230358773524
 30
0.0
 10
71.58150206269264
 20
-93.50230358773524
 30
0.0
 10
71.56566234087451
 20
-93.48646386551735
 30
0.0
 10
71.56566234087451
 20
-93.466461365522
 30
0.0
 10
71.56566234087451
 20
-93.4471644210828
 30
0.0
 10
71.58150206269264
 20
-93.43132469886427
 30
0.0
 10
71.60146928440544
 20
-93.43132469886427
 30
0.0
 10
71.62076622835758
 20
-93.43132469886427
 30
0.0
 10
71.63664122795258
 20
-93.4471644210828
 30
0.0
 10
71.63664122795258
 20
-93.466461365522
 30
0.0
  0
ENDBLK
  5
265
330
262
100
AcDbEntity
  8
0
100
AcDbBlockEnd
  0
BLOCK
  5
269
330
267
100
AcDbEntity
  8
0
100
AcDbBlockBegin
  2
block 51
 70
     0
 10
0.0
 20
0.0
 30
0.0
  3
block 51
  1

  0
POLYLINE
  5
26B
330
267
100
AcDbEntity
  8
_U+30EC_U+30A4_U+30E4_U+30FC 1
 62
   179
420
  2234388
370
     9
100
AcDb2dPolyline
 66
     1
 10
0.0
 20
0.0
 30
0.0
  0
VERTEX
  5
26C
330
26B
100
AcDbEntity
  8
_U+30EC_U+30A4_U+30E4_U+30FC 1
 62
   179
420
  2234388
370
     9
100
AcDbVertex
100
AcDb2dVertex
 10
91.60097016306456
 20
-80.46674136877208
 30
0.0
  0
VERTEX
  5
26D
330
26B
100
AcDbEntity
  8
_U+30EC_U+30A4_U+30E4_U+30FC 1
 62
   179
420
  2234388
370
     9
100
AcDbVertex
100
AcDb2dVertex
 10
91.60097016306456
 20
-93.466461365522
 30
0.0
  0
SEQEND
  5
26E
330
26B
100
AcDbEntity
  8
_U+30EC_U+30A4_U+30E4_U+30FC 1
 62
   179
420
  2234388
370
     9
  0
POLYLINE
  5
26F
330
267
100
AcDbEntity
  8
_U+30EC_U+30A4_U+30E4_U+30FC 1
 62
   179
420
  2234388
370
     9
100
AcDb2dPolyline
 66
     1
 10
0.0
 20
0.0
 30
0.0
  0
VERTEX
  5
270
330
26F
100
AcDbEntity
  8
_U+30EC_U+30A4_U+30E4_U+30FC 1
 62
   179
420
  2234388
370
     9
100
AcDbVertex
100
AcDb2dVertex
 10
90.14092881142443
 20
-80.46674136877208
 30
0.0
  0
VERTEX
  5
271
330
26F
100
AcDbEntity
  8
_U+30EC_U+30A4_U+30E4_U+30FC 1
 62
   179
420
  2234388
370
     9
100
AcDbVertex
100
AcDb2dVertex
 10
92.60141263754115
 20
-80.46674136877208
 30
0.0
  0
SEQEND
  5
272
330
26F
100
AcDbEntity
  8
_U+30EC_U+30A4_U+30E4_U+30FC 1
 62
   179
420
  2234388
370
     9
  0
INSERT
  5
274
330
267
100
AcDbEntity
  8
_U+30EC_U+30A4_U+30E4_U+30FC 1
100
AcDbBlockReference
  2
block 52
 10
0.0
 20
0.0
 30
0.0
  0
INSERT
  5
27C
330
267
100
AcDbEntity
  8
_U+30EC_U+30A4_U+30E4_U+30FC 1
100
AcDbBlockReference
  2
block 53
 10
0.0
 20
0.0
 30
0.0
  0
INSERT
  5
281
330
267
100
AcDbEntity
  8
_U+30EC_U+30A4_U+30E4_U+30FC 1
100
AcDbBlockReference
  2
block 54
 10
0.0
 20
0.0
 30
0.0
  0
INSERT
  5
286
330
267
100
AcDbEntity
  8
_U+30EC_U+30A4_U+30E4_U+30FC 1
100
AcDbBlockReference
  2
block 55
 10
0.0
 20
0.0
 30
0.0
  0
ENDBLK
  5
26A
330
267
100
AcDbEntity
  8
0
100
AcDbBlockEnd
  0
BLOCK
  5
275
330
273
100
AcDbEntity
  8
0
100
AcDbBlockBegin
  2
block 52
 70
     0
 10
0.0
 20
0.0
 30
0.0
  3
block 52
  1

  0
SPLINE
  5
277
330
273
100
AcDbEntity
  8
_U+30EC_U+30A4_U+30E4_U+30FC 1
370
     0
100
AcDbSpline
210
0.0
220
0.0
230
1.0
 70
    11
 71
     3
 72
    26
 73
    22
 74
     0
 42
0.0000000001
 43
0.0000000001
 12
1.0
 22
0.0
 32
0.0
 13
1.0
 23
0.0
 33
0.0
 40
0.0
 40
0.0
 40
0.0
 40
0.0
 40
1.0
 40
1.0
 40
1.0
 40
2.0
 40
2.0
 40
2.0
 40
3.0
 40
3.0
 40
3.0
 40
4.0
 40
4.0
 40
4.0
 40
5.0
 40
5.0
 40
5.0
 40
6.0
 40
6.0
 40
6.0
 40
7.0
 40
7.0
 40
7.0
 40
7.0
 10
91.22750648760979
 20
-87.64805227843522
 30
0.0
 10
91.22750648760979
 20
-87.64805227843522
 30
0.0
 10
90.12300887503869
 20
-87.64805227843522
 30
0.0
 10
90.12300887503869
 20
-87.64805227843522
 30
0.0
 10
90.12300887503869
 20
-87.64805227843522
 30
0.0
 10
90.12300887503869
 20
-88.00065780135053
 30
0.0
 10
90.12300887503869
 20
-88.00065780135053
 30
0.0
 10
90.12300887503869
 20
-88.00065780135053
 30
0.0
 10
89.97486976917295
 20
-88.00065780135053
 30
0.0
 10
89.97486976917295
 20
-88.00065780135053
 30
0.0
 10
89.96005585858637
 20
-87.6458129663698
 30
0.0
 10
89.79744735168259
 20
-87.59603133660794
 30
0.0
 10
89.68307018157229
 20
-87.56433645814364
 30
0.0
 10
89.68307018157229
 20
-87.56433645814364
 30
0.0
 10
89.68307018157229
 20
-87.40844588743609
 30
0.0
 10
89.68307018157229
 20
-87.40844588743609
 30
0.0
 10
89.68307018157229
 20
-87.40844588743609
 30
0.0
 10
91.22750648760979
 20
-87.40844588743609
 30
0.0
 10
91.22750648760979
 20
-87.40844588743609
 30
0.0
 10
91.22750648760979
 20
-87.40844588743609
 30
0.0
 10
91.22750648760979
 20
-87.64805227843522
 30
0.0
 10
91.22750648760979
 20
-87.64805227843522
 30
0.0
  0
HATCH
  5
278
330
273
100
AcDbEntity
  8
_U+30EC_U+30A4_U+30E4_U+30FC 1
 62
   179
420
  2234388
100
AcDbHatch
 10
0.0
 20
0.0
 30
0.0
210
0.0
220
0.0
230
1.0
  2
SOLID
 70
     1
 71
     0
 91
        1
 92
        1
 93
        1
 72
     4
 94
        3
 73
     0
 74
     1
 95
       26
 96
       22
 40
0.0
 40
0.0
 40
0.0
 40
0.0
 40
1.0
 40
1.0
 40
1.0
 40
2.0
 40
2.0
 40
2.0
 40
3.0
 40
3.0
 40
3.0
 40
4.0
 40
4.0
 40
4.0
 40
5.0
 40
5.0
 40
5.0
 40
6.0
 40
6.0
 40
6.0
 40
7.0
 40
7.0
 40
7.0
 40
7.0
 10
91.22750648760979
 20
-87.64805227843522
 10
91.22750648760979
 20
-87.64805227843522
 10
90.12300887503869
 20
-87.64805227843522
 10
90.12300887503869
 20
-87.64805227843522
 10
90.12300887503869
 20
-87.64805227843522
 10
90.12300887503869
 20
-88.00065780135053
 10
90.12300887503869
 20
-88.00065780135053
 10
90.12300887503869
 20
-88.00065780135053
 10
89.97486976917295
 20
-88.00065780135053
 10
89.97486976917295
 20
-88.00065780135053
 10
89.96005585858637
 20
-87.6458129663698
 10
89.79744735168259
 20
-87.59603133660794
 10
89.68307018157229
 20
-87.56433645814364
 10
89.68307018157229
 20
-87.56433645814364
 10
89.68307018157229
 20
-87.40844588743609
 10
89.68307018157229
 20
-87.40844588743609
 10
89.68307018157229
 20
-87.40844588743609
 10
91.22750648760979
 20
-87.40844588743609
 10
91.22750648760979
 20
-87.40844588743609
 10
91.22750648760979
 20
-87.40844588743609
 10
91.22750648760979
 20
-87.64805227843522
 10
91.22750648760979
 20
-87.64805227843522
 97
        0
 97
        0
 75
     2
 76
     1
 98
        0
  0
SPLINE
  5
279
330
273
100
AcDbEntity
  8
_U+30EC_U+30A4_U+30E4_U+30FC 1
370
     0
100
AcDbSpline
210
0.0
220
0.0
230
1.0
 70
    11
 71
     3
 72
    62
 73
    58
 74
     0
 42
0.0000000001
 43
0.0000000001
 12
1.0
 22
0.0
 32
0.0
 13
1.0
 23
0.0
 33
0.0
 40
0.0
 40
0.0
 40
0.0
 40
0.0
 40
1.0
 40
1.0
 40
1.0
 40
2.0
 40
2.0
 40
2.0
 40
3.0
 40
3.0
 40
3.0
 40
4.0
 40
4.0
 40
4.0
 40
5.0
 40
5.0
 40
5.0
 40
6.0
 40
6.0
 40
6.0
 40
7.0
 40
7.0
 40
7.0
 40
8.0
 40
8.0
 40
8.0
 40
9.0
 40
9.0
 40
9.0
 40
10.0
 40
10.0
 40
10.0
 40
11.0
 40
11.0
 40
11.0
 40
12.0
 40
12.0
 40
12.0
 40
13.0
 40
13.0
 40
13.0
 40
14.0
 40
14.0
 40
14.0
 40
15.0
 40
15.0
 40
15.0
 40
16.0
 40
16.0
 40
16.0
 40
17.0
 40
17.0
 40
17.0
 40
18.0
 40
18.0
 40
18.0
 40
19.0
 40
19.0
 40
19.0
 40
19.0
 10
91.27814939124296
 20
-86.34735647797913
 30
0.0
 10
91.27814939124296
 20
-86.44898679479401
 30
0.0
 10
91.25713430878294
 20
-86.6818752495969
 30
0.0
 10
91.07075464303092
 20
-86.81537269965033
 30
0.0
 10
90.9587890397603
 20
-86.89443764103682
 30
0.0
 10
90.85922578023659
 20
-86.89891626516764
 30
0.0
 10
90.77482094084796
 20
-86.90356714407272
 30
0.0
 10
90.77482094084796
 20
-86.90356714407272
 30
0.0
 10
90.77482094084796
 20
-86.66826712243017
 30
0.0
 10
90.77482094084796
 20
-86.66826712243017
 30
0.0
 10
90.84854598423232
 20
-86.66602781036475
 30
0.0
 10
91.08350149632635
 20
-86.65483125003769
 30
0.0
 10
91.08350149632635
 20
-86.35183510210996
 30
0.0
 10
91.08350149632635
 20
-86.20490177966406
 30
0.0
 10
91.01356605797578
 20
-86.042121017986
 30
0.0
 10
90.78515622730372
 20
-86.042121017986
 30
0.0
 10
90.66871199990227
 20
-86.042121017986
 30
0.0
 10
90.62013615356025
 20
-86.08277314471195
 30
0.0
 10
90.58844127509595
 20
-86.11670733524166
 30
0.0
 10
90.51437172216308
 20
-86.19577227662815
 30
0.0
 10
90.50162486886765
 20
-86.32014022364567
 30
0.0
 10
90.50162486886765
 20
-86.37887910166917
 30
0.0
 10
90.50162486886765
 20
-86.39937741980641
 30
0.0
 10
90.50403643570733
 20
-86.43779023446695
 30
0.0
 10
90.50817055028963
 20
-86.46707354609157
 30
0.0
 10
90.50817055028963
 20
-86.46707354609157
 30
0.0
 10
90.313522655373
 20
-86.46707354609157
 30
0.0
 10
90.313522655373
 20
-86.46707354609157
 30
0.0
 10
90.31972382724646
 20
-86.42642141936562
 30
0.0
 10
90.3217908845376
 20
-86.38129066850885
 30
0.0
 10
90.3217908845376
 20
-86.37440047753834
 30
0.0
 10
90.3217908845376
 20
-86.30429278441352
 30
0.0
 10
90.30077580207758
 20
-86.09190264774786
 30
0.0
 10
90.0637532326924
 20
-86.09190264774786
 30
0.0
 10
89.8859863056535
 20
-86.09190264774786
 30
0.0
 10
89.83120928743803
 20
-86.23194577922327
 30
0.0
 10
89.83120928743803
 20
-86.34959579004455
 30
0.0
 10
89.83120928743803
 20
-86.63209361983503
 30
0.0
 10
90.0637532326924
 20
-86.64122312287095
 30
0.0
 10
90.13575572833412
 20
-86.64570174700177
 30
0.0
 10
90.13575572833412
 20
-86.64570174700177
 30
0.0
 10
90.13575572833412
 20
-86.86274276257251
 30
0.0
 10
90.13575572833412
 20
-86.86274276257251
 30
0.0
 10
90.01104327176807
 20
-86.85378551431086
 30
0.0
 10
89.63449433523027
 20
-86.82432994791198
 30
0.0
 10
89.63449433523027
 20
-86.33598766287781
 30
0.0
 10
89.63449433523027
 20
-86.09638127187868
 30
0.0
 10
89.76127384908746
 20
-85.838688129582
 30
0.0
 10
90.05755206081895
 20
-85.838688129582
 30
0.0
 10
90.24358721702244
 20
-85.838688129582
 30
0.0
 10
90.32626950866843
 20
-85.94031844639687
 30
0.0
 10
90.38759220830589
 20
-86.04659964211683
 30
0.0
 10
90.41515297218788
 20
-85.98097057312282
 30
0.0
 10
90.49542369699421
 20
-85.78666718775473
 30
0.0
 10
90.77240937400829
 20
-85.78666718775473
 30
0.0
 10
91.11106226020836
 20
-85.78666718775473
 30
0.0
 10
91.27814939124296
 20
-86.05107826624766
 30
0.0
 10
91.27814939124296
 20
-86.34735647797913
 30
0.0
  0
HATCH
  5
27A
330
273
100
AcDbEntity
  8
_U+30EC_U+30A4_U+30E4_U+30FC 1
 62
   179
420
  2234388
100
AcDbHatch
 10
0.0
 20
0.0
 30
0.0
210
0.0
220
0.0
230
1.0
  2
SOLID
 70
     1
 71
     0
 91
        1
 92
        1
 93
        1
 72
     4
 94
        3
 73
     0
 74
     1
 95
       62
 96
       58
 40
0.0
 40
0.0
 40
0.0
 40
0.0
 40
1.0
 40
1.0
 40
1.0
 40
2.0
 40
2.0
 40
2.0
 40
3.0
 40
3.0
 40
3.0
 40
4.0
 40
4.0
 40
4.0
 40
5.0
 40
5.0
 40
5.0
 40
6.0
 40
6.0
 40
6.0
 40
7.0
 40
7.0
 40
7.0
 40
8.0
 40
8.0
 40
8.0
 40
9.0
 40
9.0
 40
9.0
 40
10.0
 40
10.0
 40
10.0
 40
11.0
 40
11.0
 40
11.0
 40
12.0
 40
12.0
 40
12.0
 40
13.0
 40
13.0
 40
13.0
 40
14.0
 40
14.0
 40
14.0
 40
15.0
 40
15.0
 40
15.0
 40
16.0
 40
16.0
 40
16.0
 40
17.0
 40
17.0
 40
17.0
 40
18.0
 40
18.0
 40
18.0
 40
19.0
 40
19.0
 40
19.0
 40
19.0
 10
91.27814939124296
 20
-86.34735647797913
 10
91.27814939124296
 20
-86.44898679479401
 10
91.25713430878294
 20
-86.6818752495969
 10
91.07075464303092
 20
-86.81537269965033
 10
90.9587890397603
 20
-86.89443764103682
 10
90.85922578023659
 20
-86.89891626516764
 10
90.77482094084796
 20
-86.90356714407272
 10
90.77482094084796
 20
-86.90356714407272
 10
90.77482094084796
 20
-86.66826712243017
 10
90.77482094084796
 20
-86.66826712243017
 10
90.84854598423232
 20
-86.66602781036475
 10
91.08350149632635
 20
-86.65483125003769
 10
91.08350149632635
 20
-86.35183510210996
 10
91.08350149632635
 20
-86.20490177966406
 10
91.01356605797578
 20
-86.042121017986
 10
90.78515622730372
 20
-86.042121017986
 10
90.66871199990227
 20
-86.042121017986
 10
90.62013615356025
 20
-86.08277314471195
 10
90.58844127509595
 20
-86.11670733524166
 10
90.51437172216308
 20
-86.19577227662815
 10
90.50162486886765
 20
-86.32014022364567
 10
90.50162486886765
 20
-86.37887910166917
 10
90.50162486886765
 20
-86.39937741980641
 10
90.50403643570733
 20
-86.43779023446695
 10
90.50817055028963
 20
-86.46707354609157
 10
90.50817055028963
 20
-86.46707354609157
 10
90.313522655373
 20
-86.46707354609157
 10
90.313522655373
 20
-86.46707354609157
 10
90.31972382724646
 20
-86.42642141936562
 10
90.3217908845376
 20
-86.38129066850885
 10
90.3217908845376
 20
-86.37440047753834
 10
90.3217908845376
 20
-86.30429278441352
 10
90.30077580207758
 20
-86.09190264774786
 10
90.0637532326924
 20
-86.09190264774786
 10
89.8859863056535
 20
-86.09190264774786
 10
89.83120928743803
 20
-86.23194577922327
 10
89.83120928743803
 20
-86.34959579004455
 10
89.83120928743803
 20
-86.63209361983503
 10
90.0637532326924
 20
-86.64122312287095
 10
90.13575572833412
 20
-86.64570174700177
 10
90.13575572833412
 20
-86.64570174700177
 10
90.13575572833412
 20
-86.86274276257251
 10
90.13575572833412
 20
-86.86274276257251
 10
90.01104327176807
 20
-86.85378551431086
 10
89.63449433523027
 20
-86.82432994791198
 10
89.63449433523027
 20
-86.33598766287781
 10
89.63449433523027
 20
-86.09638127187868
 10
89.76127384908746
 20
-85.838688129582
 10
90.05755206081895
 20
-85.838688129582
 10
90.24358721702244
 20
-85.838688129582
 10
90.32626950866843
 20
-85.94031844639687
 10
90.38759220830589
 20
-86.04659964211683
 10
90.41515297218788
 20
-85.98097057312282
 10
90.49542369699421
 20
-85.78666718775473
 10
90.77240937400829
 20
-85.78666718775473
 10
91.11106226020836
 20
-85.78666718775473
 10
91.27814939124296
 20
-86.05107826624766
 10
91.27814939124296
 20
-86.34735647797913
 97
        0
 97
        0
 75
     2
 76
     1
 98
        0
  0
ENDBLK
  5
276
330
273
100
AcDbEntity
  8
0
100
AcDbBlockEnd
  0
BLOCK
  5
27D
330
27B
100
AcDbEntity
  8
0
100
AcDbBlockBegin
  2
block 53
 70
     0
 10
0.0
 20
0.0
 30
0.0
  3
block 53
  1

  0
SPLINE
  5
27F
330
27B
100
AcDbEntity
  8
_U+30EC_U+30A4_U+30E4_U+30FC 1
 62
   179
420
  2234388
370
    25
100
AcDbSpline
210
0.0
220
0.0
230
1.0
 70
    11
 71
     3
 72
    17
 73
    13
 74
     0
 42
0.0000000001
 43
0.0000000001
 12
1.0
 22
0.0
 32
0.0
 13
1.0
 23
0.0
 33
0.0
 40
0.0
 40
0.0
 40
0.0
 40
0.0
 40
1.0
 40
1.0
 40
1.0
 40
2.0
 40
2.0
 40
2.0
 40
3.0
 40
3.0
 40
3.0
 40
4.0
 40
4.0
 40
4.0
 40
4.0
 10
87.63634997809079
 20
-80.46674136877208
 30
0.0
 10
87.63634997809079
 20
-80.4860383132119
 30
0.0
 10
87.62047497809475
 20
-80.50187803543012
 30
0.0
 10
87.60121109844025
 20
-80.50187803543012
 30
0.0
 10
87.5819141544881
 20
-80.50187803543012
 30
0.0
 10
87.56607443266999
 20
-80.4860383132119
 30
0.0
 10
87.56607443266999
 20
-80.46674136877208
 30
0.0
 10
87.56607443266999
 20
-80.44744442433257
 30
0.0
 10
87.5819141544881
 20
-80.43160470211436
 30
0.0
 10
87.60121109844025
 20
-80.43160470211436
 30
0.0
 10
87.62047497809475
 20
-80.43160470211436
 30
0.0
 10
87.63634997809079
 20
-80.44744442433257
 30
0.0
 10
87.63634997809079
 20
-80.46674136877208
 30
0.0
  0
ENDBLK
  5
27E
330
27B
100
AcDbEntity
  8
0
100
AcDbBlockEnd
  0
BLOCK
  5
282
330
280
100
AcDbEntity
  8
0
100
AcDbBlockBegin
  2
block 54
 70
     0
 10
0.0
 20
0.0
 30
0.0
  3
block 54
  1

  0
SPLINE
  5
284
330
280
100
AcDbEntity
  8
_U+30EC_U+30A4_U+30E4_U+30FC 1
 62
   179
420
  2234388
370
    25
100
AcDbSpline
210
0.0
220
0.0
230
1.0
 70
    11
 71
     3
 72
    17
 73
    13
 74
     0
 42
0.0000000001
 43
0.0000000001
 12
1.0
 22
0.0
 32
0.0
 13
1.0
 23
0.0
 33
0.0
 40
0.0
 40
0.0
 40
0.0
 40
0.0
 40
1.0
 40
1.0
 40
1.0
 40
2.0
 40
2.0
 40
2.0
 40
3.0
 40
3.0
 40
3.0
 40
4.0
 40
4.0
 40
4.0
 40
4.0
 10
75.6363650148
 20
-93.466461365522
 30
0.0
 10
75.6363650148
 20
-93.48646386551735
 30
0.0
 10
75.6205252929819
 20
-93.50230358773524
 30
0.0
 10
75.60122834902975
 20
-93.50230358773524
 30
0.0
 10
75.5819333144377
 20
-93.50230358773524
 30
0.0
 10
75.5660916832595
 20
-93.48646386551735
 30
0.0
 10
75.5660916832595
 20
-93.466461365522
 30
0.0
 10
75.5660916832595
 20
-93.4471644210828
 30
0.0
 10
75.5819333144377
 20
-93.43132469886427
 30
0.0
 10
75.60122834902975
 20
-93.43132469886427
 30
0.0
 10
75.6205252929819
 20
-93.43132469886427
 30
0.0
 10
75.6363650148
 20
-93.4471644210828
 30
0.0
 10
75.6363650148
 20
-93.466461365522
 30
0.0
  0
ENDBLK
  5
283
330
280
100
AcDbEntity
  8
0
100
AcDbBlockEnd
  0
BLOCK
  5
287
330
285
100
AcDbEntity
  8
0
100
AcDbBlockBegin
  2
block 55
 70
     0
 10
0.0
 20
0.0
 30
0.0
  3
block 55
  1

  0
SPLINE
  5
289
330
285
100
AcDbEntity
  8
_U+30EC_U+30A4_U+30E4_U+30FC 1
 62
   179
420
  2234388
370
     9
100
AcDbSpline
210
0.0
220
0.0
230
1.0
 70
    11
 71
     3
 72
    17
 73
    13
 74
     0
 42
0.0000000001
 43
0.0000000001
 12
1.0
 22
0.0
 32
0.0
 13
1.0
 23
0.0
 33
0.0
 40
0.0
 40
0.0
 40
0.0
 40
0.0
 40
1.0
 40
1.0
 40
1.0
 40
2.0
 40
2.0
 40
2.0
 40
3.0
 40
3.0
 40
3.0
 40
4.0
 40
4.0
 40
4.0
 40
4.0
 10
91.63677710659549
 20
-93.466461365522
 30
0.0
 10
91.63677710659549
 20
-93.48646386551735
 30
0.0
 10
91.62093738477738
 20
-93.50230358773524
 30
0.0
 10
91.60097016306456
 20
-93.50230358773524
 30
0.0
 10
91.58167321911242
 20
-93.50230358773524
 30
0.0
 10
91.56579821951743
 20
-93.48646386551735
 30
0.0
 10
91.56579821951743
 20
-93.466461365522
 30
0.0
 10
91.56579821951743
 20
-93.4471644210828
 30
0.0
 10
91.58167321911242
 20
-93.43132469886427
 30
0.0
 10
91.60097016306456
 20
-93.43132469886427
 30
0.0
 10
91.62093738477738
 20
-93.43132469886427
 30
0.0
 10
91.63677710659549
 20
-93.4471644210828
 30
0.0
 10
91.63677710659549
 20
-93.466461365522
 30
0.0
  0
ENDBLK
  5
288
330
285
100
AcDbEntity
  8
0
100
AcDbBlockEnd
  0
ENDSEC
  0
SECTION
  2
ENTITIES
  0
POLYLINE
  5
41
330
1F
100
AcDbEntity
  8
_U+30EC_U+30A4_U+30E4_U+30FC 1
 62
   179
420
  2234388
370
    25
100
AcDb2dPolyline
 66
     1
 10
0.0
 20
0.0
 30
0.0
  0
VERTEX
  5
42
330
41
100
AcDbEntity
  8
_U+30EC_U+30A4_U+30E4_U+30FC 1
 62
   179
420
  2234388
370
    25
100
AcDbVertex
100
AcDb2dVertex
 10
45.60135966994572
 20
-96.46644830921699
 30
0.0
  0
VERTEX
  5
43
330
41
100
AcDbEntity
  8
_U+30EC_U+30A4_U+30E4_U+30FC 1
 62
   179
420
  2234388
370
    25
100
AcDbVertex
100
AcDb2dVertex
 10
75.60122834902975
 20
-96.46644830921699
 30
0.0
  0
SEQEND
  5
44
330
41
100
AcDbEntity
  8
_U+30EC_U+30A4_U+30E4_U+30FC 1
 62
   179
420
  2234388
370
    25
  0
POLYLINE
  5
45
330
1F
100
AcDbEntity
  8
_U+30EC_U+30A4_U+30E4_U+30FC 1
 62
   179
420
  2234388
370
     9
100
AcDb2dPolyline
 66
     1
 10
0.0
 20
0.0
 30
0.0
  0
VERTEX
  5
46
330
45
100
AcDbEntity
  8
_U+30EC_U+30A4_U+30E4_U+30FC 1
 62
   179
420
  2234388
370
     9
100
AcDbVertex
100
AcDb2dVertex
 10
61.36198871230302
 20
-92.12770497696816
 30
0.0
  0
VERTEX
  5
47
330
45
100
AcDbEntity
  8
_U+30EC_U+30A4_U+30E4_U+30FC 1
 62
   179
420
  2234388
370
     9
100
AcDbVertex
100
AcDb2dVertex
 10
64.99930553930574
 20
-92.12770497696816
 30
0.0
  0
SEQEND
  5
48
330
45
100
AcDbEntity
  8
_U+30EC_U+30A4_U+30E4_U+30FC 1
 62
   179
420
  2234388
370
     9
  0
POLYLINE
  5
49
330
1F
100
AcDbEntity
  8
_U+30EC_U+30A4_U+30E4_U+30FC 1
 62
   179
420
  2234388
370
     9
100
AcDb2dPolyline
 66
     1
 10
0.0
 20
0.0
 30
0.0
  0
VERTEX
  5
4A
330
49
100
AcDbEntity
  8
_U+30EC_U+30A4_U+30E4_U+30FC 1
 62
   179
420
  2234388
370
     9
100
AcDbVertex
100
AcDb2dVertex
 10
60.60129400948774
 20
-94.96647247625825
 30
0.0
  0
VERTEX
  5
4B
330
49
100
AcDbEntity
  8
_U+30EC_U+30A4_U+30E4_U+30FC 1
 62
   179
420
  2234388
370
     9
100
AcDbVertex
100
AcDb2dVertex
 10
61.10153288561447
 20
-94.10036775425283
 30
0.0
  0
SEQEND
  5
4C
330
49
100
AcDbEntity
  8
_U+30EC_U+30A4_U+30E4_U+30FC 1
 62
   179
420
  2234388
370
     9
  0
POLYLINE
  5
4D
330
1F
100
AcDbEntity
  8
_U+30EC_U+30A4_U+30E4_U+30FC 1
 62
   179
420
  2234388
370
     9
100
AcDb2dPolyline
 66
     1
 10
0.0
 20
0.0
 30
0.0
  0
VERTEX
  5
4E
330
4D
100
AcDbEntity
  8
_U+30EC_U+30A4_U+30E4_U+30FC 1
 62
   179
420
  2234388
370
     9
100
AcDbVertex
100
AcDb2dVertex
 10
60.60129400948774
 20
-94.96647247625825
 30
0.0
  0
VERTEX
  5
4F
330
4D
100
AcDbEntity
  8
_U+30EC_U+30A4_U+30E4_U+30FC 1
 62
   179
420
  2234388
370
     9
100
AcDbVertex
100
AcDb2dVertex
 10
60.60129400948774
 20
-93.96670025428635
 30
0.0
  0
SEQEND
  5
50
330
4D
100
AcDbEntity
  8
_U+30EC_U+30A4_U+30E4_U+30FC 1
 62
   179
420
  2234388
370
     9
  0
POLYLINE
  5
51
330
1F
100
AcDbEntity
  8
_U+30EC_U+30A4_U+30E4_U+30FC 1
 62
   179
420
  2234388
370
     9
100
AcDb2dPolyline
 66
     1
 10
0.0
 20
0.0
 30
0.0
  0
VERTEX
  5
52
330
51
100
AcDbEntity
  8
_U+30EC_U+30A4_U+30E4_U+30FC 1
 62
   179
420
  2234388
370
     9
100
AcDbVertex
100
AcDb2dVertex
 10
60.60129400948774
 20
-94.96647247625825
 30
0.0
  0
VERTEX
  5
53
330
51
100
AcDbEntity
  8
_U+30EC_U+30A4_U+30E4_U+30FC 1
 62
   179
420
  2234388
370
     9
100
AcDbVertex
100
AcDb2dVertex
 10
61.36198871230302
 20
-92.12770497696816
 30
0.0
  0
SEQEND
  5
54
330
51
100
AcDbEntity
  8
_U+30EC_U+30A4_U+30E4_U+30FC 1
 62
   179
420
  2234388
370
     9
  0
POLYLINE
  5
55
330
1F
100
AcDbEntity
  8
_U+30EC_U+30A4_U+30E4_U+30FC 1
 62
   179
420
  2234388
370
    25
100
AcDb2dPolyline
 66
     1
 10
0.0
 20
0.0
 30
0.0
  0
VERTEX
  5
56
330
55
100
AcDbEntity
  8
_U+30EC_U+30A4_U+30E4_U+30FC 1
 62
   179
420
  2234388
370
    25
100
AcDbVertex
100
AcDb2dVertex
 10
55.60109247038685
 20
-79.46696914679987
 30
0.0
  0
VERTEX
  5
57
330
55
100
AcDbEntity
  8
_U+30EC_U+30A4_U+30E4_U+30FC 1
 62
   179
420
  2234388
370
    25
100
AcDbVertex
100
AcDb2dVertex
 10
55.60109247038685
 20
-95.46671136502196
 30
0.0
  0
SEQEND
  5
58
330
55
100
AcDbEntity
  8
_U+30EC_U+30A4_U+30E4_U+30FC 1
 62
   179
420
  2234388
370
    25
  0
POLYLINE
  5
59
330
1F
100
AcDbEntity
  8
_U+30EC_U+30A4_U+30E4_U+30FC 1
 62
   179
420
  2234388
370
    25
100
AcDb2dPolyline
 66
     1
 10
0.0
 20
0.0
 30
0.0
  0
VERTEX
  5
5A
330
59
100
AcDbEntity
  8
_U+30EC_U+30A4_U+30E4_U+30FC 1
 62
   179
420
  2234388
370
    25
100
AcDbVertex
100
AcDb2dVertex
 10
33.60123665826625
 20
-79.46696914679987
 30
0.0
  0
VERTEX
  5
5B
330
59
100
AcDbEntity
  8
_U+30EC_U+30A4_U+30E4_U+30FC 1
 62
   179
420
  2234388
370
    25
100
AcDbVertex
100
AcDb2dVertex
 10
33.60123665826625
 20
-80.46674136877208
 30
0.0
  0
SEQEND
  5
5C
330
59
100
AcDbEntity
  8
_U+30EC_U+30A4_U+30E4_U+30FC 1
 62
   179
420
  2234388
370
    25
  0
POLYLINE
  5
5D
330
1F
100
AcDbEntity
  8
_U+30EC_U+30A4_U+30E4_U+30FC 1
 62
   179
420
  2234388
370
    25
100
AcDb2dPolyline
 66
     1
 10
0.0
 20
0.0
 30
0.0
  0
VERTEX
  5
5E
330
5D
100
AcDbEntity
  8
_U+30EC_U+30A4_U+30E4_U+30FC 1
 62
   179
420
  2234388
370
    25
100
AcDbVertex
100
AcDb2dVertex
 10
45.60135966994572
 20
-93.466461365522
 30
0.0
  0
VERTEX
  5
5F
330
5D
100
AcDbEntity
  8
_U+30EC_U+30A4_U+30E4_U+30FC 1
 62
   179
420
  2234388
370
    25
100
AcDbVertex
100
AcDb2dVertex
 10
49.60111873457004
 20
-93.466461365522
 30
0.0
  0
SEQEND
  5
60
330
5D
100
AcDbEntity
  8
_U+30EC_U+30A4_U+30E4_U+30FC 1
 62
   179
420
  2234388
370
    25
  0
POLYLINE
  5
61
330
1F
100
AcDbEntity
  8
_U+30EC_U+30A4_U+30E4_U+30FC 1
 62
   179
420
  2234388
370
    25
100
AcDb2dPolyline
 66
     1
 10
0.0
 20
0.0
 30
0.0
  0
VERTEX
  5
62
330
61
100
AcDbEntity
  8
_U+30EC_U+30A4_U+30E4_U+30FC 1
 62
   179
420
  2234388
370
    25
100
AcDbVertex
100
AcDb2dVertex
 10
33.60123665826625
 20
-80.46674136877208
 30
0.0
  0
VERTEX
  5
63
330
61
100
AcDbEntity
  8
_U+30EC_U+30A4_U+30E4_U+30FC 1
 62
   179
420
  2234388
370
    25
100
AcDbVertex
100
AcDb2dVertex
 10
54.60132027367094
 20
-80.46674136877208
 30
0.0
  0
SEQEND
  5
64
330
61
100
AcDbEntity
  8
_U+30EC_U+30A4_U+30E4_U+30FC 1
 62
   179
420
  2234388
370
    25
  0
POLYLINE
  5
65
330
1F
100
AcDbEntity
  8
_U+30EC_U+30A4_U+30E4_U+30FC 1
 62
   179
420
  2234388
370
    25
100
AcDb2dPolyline
 66
     1
 10
0.0
 20
0.0
 30
0.0
  0
VERTEX
  5
66
330
65
100
AcDbEntity
  8
_U+30EC_U+30A4_U+30E4_U+30FC 1
 62
   179
420
  2234388
370
    25
100
AcDbVertex
100
AcDb2dVertex
 10
33.60123665826625
 20
-79.46696914679987
 30
0.0
  0
VERTEX
  5
67
330
65
100
AcDbEntity
  8
_U+30EC_U+30A4_U+30E4_U+30FC 1
 62
   179
420
  2234388
370
    25
100
AcDbVertex
100
AcDb2dVertex
 10
55.60109247038685
 20
-79.46696914679987
 30
0.0
  0
SEQEND
  5
68
330
65
100
AcDbEntity
  8
_U+30EC_U+30A4_U+30E4_U+30FC 1
 62
   179
420
  2234388
370
    25
  0
POLYLINE
  5
69
330
1F
100
AcDbEntity
  8
_U+30EC_U+30A4_U+30E4_U+30FC 1
 62
   179
420
  2234388
370
    25
100
AcDb2dPolyline
 66
     1
 10
0.0
 20
0.0
 30
0.0
  0
VERTEX
  5
6A
330
69
100
AcDbEntity
  8
_U+30EC_U+30A4_U+30E4_U+30FC 1
 62
   179
420
  2234388
370
    25
100
AcDbVertex
100
AcDb2dVertex
 10
45.60135966994572
 20
-93.466461365522
 30
0.0
  0
VERTEX
  5
6B
330
69
100
AcDbEntity
  8
_U+30EC_U+30A4_U+30E4_U+30FC 1
 62
   179
420
  2234388
370
    25
100
AcDbVertex
100
AcDb2dVertex
 10
45.60135966994572
 20
-96.46644830921699
 30
0.0
  0
SEQEND
  5
6C
330
69
100
AcDbEntity
  8
_U+30EC_U+30A4_U+30E4_U+30FC 1
 62
   179
420
  2234388
370
    25
  0
POLYLINE
  5
6D
330
1F
100
AcDbEntity
  8
_U+30EC_U+30A4_U+30E4_U+30FC 1
 62
   179
420
  2234388
370
    25
100
AcDb2dPolyline
 66
     1
 10
0.0
 20
0.0
 30
0.0
  0
VERTEX
  5
6E
330
6D
100
AcDbEntity
  8
_U+30EC_U+30A4_U+30E4_U+30FC 1
 62
   179
420
  2234388
370
    25
100
AcDbVertex
100
AcDb2dVertex
 10
54.60132027367094
 20
-80.46674136877208
 30
0.0
  0
VERTEX
  5
6F
330
6D
100
AcDbEntity
  8
_U+30EC_U+30A4_U+30E4_U+30FC 1
 62
   179
420
  2234388
370
    25
100
AcDbVertex
100
AcDb2dVertex
 10
54.60132027367094
 20
-95.46671136502196
 30
0.0
  0
SEQEND
  5
70
330
6D
100
AcDbEntity
  8
_U+30EC_U+30A4_U+30E4_U+30FC 1
 62
   179
420
  2234388
370
    25
  0
POLYLINE
  5
71
330
1F
100
AcDbEntity
  8
_U+30EC_U+30A4_U+30E4_U+30FC 1
 62
   179
420
  2234388
370
    25
100
AcDb2dPolyline
 66
     1
 10
0.0
 20
0.0
 30
0.0
  0
VERTEX
  5
72
330
71
100
AcDbEntity
  8
_U+30EC_U+30A4_U+30E4_U+30FC 1
 62
   179
420
  2234388
370
    25
100
AcDbVertex
100
AcDb2dVertex
 10
46.60113186666163
 20
-95.46671136502196
 30
0.0
  0
VERTEX
  5
73
330
71
100
AcDbEntity
  8
_U+30EC_U+30A4_U+30E4_U+30FC 1
 62
   179
420
  2234388
370
    25
100
AcDbVertex
100
AcDb2dVertex
 10
54.60132027367094
 20
-95.46671136502196
 30
0.0
  0
SEQEND
  5
74
330
71
100
AcDbEntity
  8
_U+30EC_U+30A4_U+30E4_U+30FC 1
 62
   179
420
  2234388
370
    25
  0
POLYLINE
  5
75
330
1F
100
AcDbEntity
  8
_U+30EC_U+30A4_U+30E4_U+30FC 1
 62
   179
420
  2234388
370
    25
100
AcDb2dPolyline
 66
     1
 10
0.0
 20
0.0
 30
0.0
  0
VERTEX
  5
76
330
75
100
AcDbEntity
  8
_U+30EC_U+30A4_U+30E4_U+30FC 1
 62
   179
420
  2234388
370
    25
100
AcDbVertex
100
AcDb2dVertex
 10
46.60113186666163
 20
-94.46693914305006
 30
0.0
  0
VERTEX
  5
77
330
75
100
AcDbEntity
  8
_U+30EC_U+30A4_U+30E4_U+30FC 1
 62
   179
420
  2234388
370
    25
100
AcDbVertex
100
AcDb2dVertex
 10
49.60111873457004
 20
-94.46693914305006
 30
0.0
  0
SEQEND
  5
78
330
75
100
AcDbEntity
  8
_U+30EC_U+30A4_U+30E4_U+30FC 1
 62
   179
420
  2234388
370
    25
  0
POLYLINE
  5
79
330
1F
100
AcDbEntity
  8
_U+30EC_U+30A4_U+30E4_U+30FC 1
 62
   179
420
  2234388
370
    25
100
AcDb2dPolyline
 66
     1
 10
0.0
 20
0.0
 30
0.0
  0
VERTEX
  5
7A
330
79
100
AcDbEntity
  8
_U+30EC_U+30A4_U+30E4_U+30FC 1
 62
   179
420
  2234388
370
    25
100
AcDbVertex
100
AcDb2dVertex
 10
46.60113186666163
 20
-94.46693914305006
 30
0.0
  0
VERTEX
  5
7B
330
79
100
AcDbEntity
  8
_U+30EC_U+30A4_U+30E4_U+30FC 1
 62
   179
420
  2234388
370
    25
100
AcDbVertex
100
AcDb2dVertex
 10
46.60113186666163
 20
-95.46671136502196
 30
0.0
  0
SEQEND
  5
7C
330
79
100
AcDbEntity
  8
_U+30EC_U+30A4_U+30E4_U+30FC 1
 62
   179
420
  2234388
370
    25
  0
POLYLINE
  5
7D
330
1F
100
AcDbEntity
  8
_U+30EC_U+30A4_U+30E4_U+30FC 1
 62
   179
420
  2234388
370
    25
100
AcDb2dPolyline
 66
     1
 10
0.0
 20
0.0
 30
0.0
  0
VERTEX
  5
7E
330
7D
100
AcDbEntity
  8
_U+30EC_U+30A4_U+30E4_U+30FC 1
 62
   179
420
  2234388
370
    25
100
AcDbVertex
100
AcDb2dVertex
 10
49.60111873457004
 20
-93.466461365522
 30
0.0
  0
VERTEX
  5
7F
330
7D
100
AcDbEntity
  8
_U+30EC_U+30A4_U+30E4_U+30FC 1
 62
   179
420
  2234388
370
    25
100
AcDbVertex
100
AcDb2dVertex
 10
49.60111873457004
 20
-94.46693914305006
 30
0.0
  0
SEQEND
  5
80
330
7D
100
AcDbEntity
  8
_U+30EC_U+30A4_U+30E4_U+30FC 1
 62
   179
420
  2234388
370
    25
  0
POLYLINE
  5
81
330
1F
100
AcDbEntity
  8
_U+30EC_U+30A4_U+30E4_U+30FC 1
 62
   179
420
  2234388
370
    25
100
AcDb2dPolyline
 66
     1
 10
0.0
 20
0.0
 30
0.0
  0
VERTEX
  5
82
330
81
100
AcDbEntity
  8
_U+30EC_U+30A4_U+30E4_U+30FC 1
 62
   179
420
  2234388
370
    25
100
AcDbVertex
100
AcDb2dVertex
 10
55.60109247038685
 20
-95.46671136502196
 30
0.0
  0
VERTEX
  5
83
330
81
100
AcDbEntity
  8
_U+30EC_U+30A4_U+30E4_U+30FC 1
 62
   179
420
  2234388
370
    25
100
AcDbVertex
100
AcDb2dVertex
 10
65.60149720582197
 20
-95.46671136502196
 30
0.0
  0
SEQEND
  5
84
330
81
100
AcDbEntity
  8
_U+30EC_U+30A4_U+30E4_U+30FC 1
 62
   179
420
  2234388
370
    25
  0
POLYLINE
  5
85
330
1F
100
AcDbEntity
  8
_U+30EC_U+30A4_U+30E4_U+30FC 1
 62
   179
420
  2234388
370
    25
100
AcDb2dPolyline
 66
     1
 10
0.0
 20
0.0
 30
0.0
  0
VERTEX
  5
86
330
85
100
AcDbEntity
  8
_U+30EC_U+30A4_U+30E4_U+30FC 1
 62
   179
420
  2234388
370
    25
100
AcDbVertex
100
AcDb2dVertex
 10
58.85119877635861
 20
-95.46671136502196
 30
0.0
  0
VERTEX
  5
87
330
85
100
AcDbEntity
  8
_U+30EC_U+30A4_U+30E4_U+30FC 1
 62
   179
420
  2234388
370
    25
100
AcDbVertex
100
AcDb2dVertex
 10
58.85119877635861
 20
-96.46644830921699
 30
0.0
  0
SEQEND
  5
88
330
85
100
AcDbEntity
  8
_U+30EC_U+30A4_U+30E4_U+30FC 1
 62
   179
420
  2234388
370
    25
  0
POLYLINE
  5
89
330
1F
100
AcDbEntity
  8
_U+30EC_U+30A4_U+30E4_U+30FC 1
 62
   179
420
  2234388
370
    25
100
AcDb2dPolyline
 66
     1
 10
0.0
 20
0.0
 30
0.0
  0
VERTEX
  5
8A
330
89
100
AcDbEntity
  8
_U+30EC_U+30A4_U+30E4_U+30FC 1
 62
   179
420
  2234388
370
    25
100
AcDbVertex
100
AcDb2dVertex
 10
62.35138924261687
 20
-95.46671136502196
 30
0.0
  0
VERTEX
  5
8B
330
89
100
AcDbEntity
  8
_U+30EC_U+30A4_U+30E4_U+30FC 1
 62
   179
420
  2234388
370
    25
100
AcDbVertex
100
AcDb2dVertex
 10
62.35138924261687
 20
-96.46644830921699
 30
0.0
  0
SEQEND
  5
8C
330
89
100
AcDbEntity
  8
_U+30EC_U+30A4_U+30E4_U+30FC 1
 62
   179
420
  2234388
370
    25
  0
POLYLINE
  5
8D
330
1F
100
AcDbEntity
  8
_U+30EC_U+30A4_U+30E4_U+30FC 1
 62
   179
420
  2234388
370
    25
100
AcDb2dPolyline
 66
     1
 10
0.0
 20
0.0
 30
0.0
  0
VERTEX
  5
8E
330
8D
100
AcDbEntity
  8
_U+30EC_U+30A4_U+30E4_U+30FC 1
 62
   179
420
  2234388
370
    25
100
AcDbVertex
100
AcDb2dVertex
 10
74.60149143009073
 20
-94.46693914305006
 30
0.0
  0
VERTEX
  5
8F
330
8D
100
AcDbEntity
  8
_U+30EC_U+30A4_U+30E4_U+30FC 1
 62
   179
420
  2234388
370
    25
100
AcDbVertex
100
AcDb2dVertex
 10
74.60149143009073
 20
-95.46671136502196
 30
0.0
  0
SEQEND
  5
90
330
8D
100
AcDbEntity
  8
_U+30EC_U+30A4_U+30E4_U+30FC 1
 62
   179
420
  2234388
370
    25
  0
POLYLINE
  5
91
330
1F
100
AcDbEntity
  8
_U+30EC_U+30A4_U+30E4_U+30FC 1
 62
   179
420
  2234388
370
    25
100
AcDb2dPolyline
 66
     1
 10
0.0
 20
0.0
 30
0.0
  0
VERTEX
  5
92
330
91
100
AcDbEntity
  8
_U+30EC_U+30A4_U+30E4_U+30FC 1
 62
   179
420
  2234388
370
    25
100
AcDbVertex
100
AcDb2dVertex
 10
71.60146928440544
 20
-93.466461365522
 30
0.0
  0
VERTEX
  5
93
330
91
100
AcDbEntity
  8
_U+30EC_U+30A4_U+30E4_U+30FC 1
 62
   179
420
  2234388
370
    25
100
AcDbVertex
100
AcDb2dVertex
 10
71.60146928440544
 20
-94.46693914305006
 30
0.0
  0
SEQEND
  5
94
330
91
100
AcDbEntity
  8
_U+30EC_U+30A4_U+30E4_U+30FC 1
 62
   179
420
  2234388
370
    25
  0
POLYLINE
  5
95
330
1F
100
AcDbEntity
  8
_U+30EC_U+30A4_U+30E4_U+30FC 1
 62
   179
420
  2234388
370
    25
100
AcDb2dPolyline
 66
     1
 10
0.0
 20
0.0
 30
0.0
  0
VERTEX
  5
96
330
95
100
AcDbEntity
  8
_U+30EC_U+30A4_U+30E4_U+30FC 1
 62
   179
420
  2234388
370
    25
100
AcDbVertex
100
AcDb2dVertex
 10
74.60149143009073
 20
-94.46693914305006
 30
0.0
  0
VERTEX
  5
97
330
95
100
AcDbEntity
  8
_U+30EC_U+30A4_U+30E4_U+30FC 1
 62
   179
420
  2234388
370
    25
100
AcDbVertex
100
AcDb2dVertex
 10
71.60146928440544
 20
-94.46693914305006
 30
0.0
  0
SEQEND
  5
98
330
95
100
AcDbEntity
  8
_U+30EC_U+30A4_U+30E4_U+30FC 1
 62
   179
420
  2234388
370
    25
  0
POLYLINE
  5
99
330
1F
100
AcDbEntity
  8
_U+30EC_U+30A4_U+30E4_U+30FC 1
 62
   179
420
  2234388
370
    25
100
AcDb2dPolyline
 66
     1
 10
0.0
 20
0.0
 30
0.0
  0
VERTEX
  5
9A
330
99
100
AcDbEntity
  8
_U+30EC_U+30A4_U+30E4_U+30FC 1
 62
   179
420
  2234388
370
    25
100
AcDbVertex
100
AcDb2dVertex
 10
74.60149143009073
 20
-95.46671136502196
 30
0.0
  0
VERTEX
  5
9B
330
99
100
AcDbEntity
  8
_U+30EC_U+30A4_U+30E4_U+30FC 1
 62
   179
420
  2234388
370
    25
100
AcDbVertex
100
AcDb2dVertex
 10
66.60126942779387
 20
-95.46671136502196
 30
0.0
  0
SEQEND
  5
9C
330
99
100
AcDbEntity
  8
_U+30EC_U+30A4_U+30E4_U+30FC 1
 62
   179
420
  2234388
370
    25
  0
POLYLINE
  5
9D
330
1F
100
AcDbEntity
  8
_U+30EC_U+30A4_U+30E4_U+30FC 1
 62
   179
420
  2234388
370
    25
100
AcDb2dPolyline
 66
     1
 10
0.0
 20
0.0
 30
0.0
  0
VERTEX
  5
9E
330
9D
100
AcDbEntity
  8
_U+30EC_U+30A4_U+30E4_U+30FC 1
 62
   179
420
  2234388
370
    25
100
AcDbVertex
100
AcDb2dVertex
 10
66.60126942779387
 20
-80.46674136877208
 30
0.0
  0
VERTEX
  5
9F
330
9D
100
AcDbEntity
  8
_U+30EC_U+30A4_U+30E4_U+30FC 1
 62
   179
420
  2234388
370
    25
100
AcDbVertex
100
AcDb2dVertex
 10
66.60126942779387
 20
-95.46671136502196
 30
0.0
  0
SEQEND
  5
A0
330
9D
100
AcDbEntity
  8
_U+30EC_U+30A4_U+30E4_U+30FC 1
 62
   179
420
  2234388
370
    25
  0
POLYLINE
  5
A1
330
1F
100
AcDbEntity
  8
_U+30EC_U+30A4_U+30E4_U+30FC 1
 62
   179
420
  2234388
370
    25
100
AcDb2dPolyline
 66
     1
 10
0.0
 20
0.0
 30
0.0
  0
VERTEX
  5
A2
330
A1
100
AcDbEntity
  8
_U+30EC_U+30A4_U+30E4_U+30FC 1
 62
   179
420
  2234388
370
    25
100
AcDbVertex
100
AcDb2dVertex
 10
75.60122834902975
 20
-93.466461365522
 30
0.0
  0
VERTEX
  5
A3
330
A1
100
AcDbEntity
  8
_U+30EC_U+30A4_U+30E4_U+30FC 1
 62
   179
420
  2234388
370
    25
100
AcDbVertex
100
AcDb2dVertex
 10
71.60146928440544
 20
-93.466461365522
 30
0.0
  0
SEQEND
  5
A4
330
A1
100
AcDbEntity
  8
_U+30EC_U+30A4_U+30E4_U+30FC 1
 62
   179
420
  2234388
370
    25
  0
POLYLINE
  5
A5
330
1F
100
AcDbEntity
  8
_U+30EC_U+30A4_U+30E4_U+30FC 1
 62
   179
420
  2234388
370
    25
100
AcDb2dPolyline
 66
     1
 10
0.0
 20
0.0
 30
0.0
  0
VERTEX
  5
A6
330
A5
100
AcDbEntity
  8
_U+30EC_U+30A4_U+30E4_U+30FC 1
 62
   179
420
  2234388
370
    25
100
AcDbVertex
100
AcDb2dVertex
 10
87.60121109844025
 20
-80.46674136877208
 30
0.0
  0
VERTEX
  5
A7
330
A5
100
AcDbEntity
  8
_U+30EC_U+30A4_U+30E4_U+30FC 1
 62
   179
420
  2234388
370
    25
100
AcDbVertex
100
AcDb2dVertex
 10
66.60126942779387
 20
-80.46674136877208
 30
0.0
  0
SEQEND
  5
A8
330
A5
100
AcDbEntity
  8
_U+30EC_U+30A4_U+30E4_U+30FC 1
 62
   179
420
  2234388
370
    25
  0
POLYLINE
  5
A9
330
1F
100
AcDbEntity
  8
_U+30EC_U+30A4_U+30E4_U+30FC 1
 62
   179
420
  2234388
370
    25
100
AcDb2dPolyline
 66
     1
 10
0.0
 20
0.0
 30
0.0
  0
VERTEX
  5
AA
330
A9
100
AcDbEntity
  8
_U+30EC_U+30A4_U+30E4_U+30FC 1
 62
   179
420
  2234388
370
    25
100
AcDbVertex
100
AcDb2dVertex
 10
87.60121109844025
 20
-79.46696914679987
 30
0.0
  0
VERTEX
  5
AB
330
A9
100
AcDbEntity
  8
_U+30EC_U+30A4_U+30E4_U+30FC 1
 62
   179
420
  2234388
370
    25
100
AcDbVertex
100
AcDb2dVertex
 10
65.60149720582197
 20
-79.46696914679987
 30
0.0
  0
SEQEND
  5
AC
330
A9
100
AcDbEntity
  8
_U+30EC_U+30A4_U+30E4_U+30FC 1
 62
   179
420
  2234388
370
    25
  0
POLYLINE
  5
AD
330
1F
100
AcDbEntity
  8
_U+30EC_U+30A4_U+30E4_U+30FC 1
 62
   179
420
  2234388
370
    25
100
AcDb2dPolyline
 66
     1
 10
0.0
 20
0.0
 30
0.0
  0
VERTEX
  5
AE
330
AD
100
AcDbEntity
  8
_U+30EC_U+30A4_U+30E4_U+30FC 1
 62
   179
420
  2234388
370
    25
100
AcDbVertex
100
AcDb2dVertex
 10
75.60122834902975
 20
-93.466461365522
 30
0.0
  0
VERTEX
  5
AF
330
AD
100
AcDbEntity
  8
_U+30EC_U+30A4_U+30E4_U+30FC 1
 62
   179
420
  2234388
370
    25
100
AcDbVertex
100
AcDb2dVertex
 10
75.60122834902975
 20
-96.46644830921699
 30
0.0
  0
SEQEND
  5
B0
330
AD
100
AcDbEntity
  8
_U+30EC_U+30A4_U+30E4_U+30FC 1
 62
   179
420
  2234388
370
    25
  0
POLYLINE
  5
B1
330
1F
100
AcDbEntity
  8
_U+30EC_U+30A4_U+30E4_U+30FC 1
 62
   179
420
  2234388
370
    25
100
AcDb2dPolyline
 66
     1
 10
0.0
 20
0.0
 30
0.0
  0
VERTEX
  5
B2
330
B1
100
AcDbEntity
  8
_U+30EC_U+30A4_U+30E4_U+30FC 1
 62
   179
420
  2234388
370
    25
100
AcDbVertex
100
AcDb2dVertex
 10
87.60121109844025
 20
-79.46696914679987
 30
0.0
  0
VERTEX
  5
B3
330
B1
100
AcDbEntity
  8
_U+30EC_U+30A4_U+30E4_U+30FC 1
 62
   179
420
  2234388
370
    25
100
AcDbVertex
100
AcDb2dVertex
 10
87.60121109844025
 20
-80.46674136877208
 30
0.0
  0
SEQEND
  5
B4
330
B1
100
AcDbEntity
  8
_U+30EC_U+30A4_U+30E4_U+30FC 1
 62
   179
420
  2234388
370
    25
  0
POLYLINE
  5
B5
330
1F
100
AcDbEntity
  8
_U+30EC_U+30A4_U+30E4_U+30FC 1
 62
   179
420
  2234388
370
    25
100
AcDb2dPolyline
 66
     1
 10
0.0
 20
0.0
 30
0.0
  0
VERTEX
  5
B6
330
B5
100
AcDbEntity
  8
_U+30EC_U+30A4_U+30E4_U+30FC 1
 62
   179
420
  2234388
370
    25
100
AcDbVertex
100
AcDb2dVertex
 10
65.60149720582197
 20
-79.46696914679987
 30
0.0
  0
VERTEX
  5
B7
330
B5
100
AcDbEntity
  8
_U+30EC_U+30A4_U+30E4_U+30FC 1
 62
   179
420
  2234388
370
    25
100
AcDbVertex
100
AcDb2dVertex
 10
65.60149720582197
 20
-95.46671136502196
 30
0.0
  0
SEQEND
  5
B8
330
B5
100
AcDbEntity
  8
_U+30EC_U+30A4_U+30E4_U+30FC 1
 62
   179
420
  2234388
370
    25
  0
SPLINE
  5
B9
330
1F
100
AcDbEntity
  8
_U+30EC_U+30A4_U+30E4_U+30FC 1
 62
   179
420
  2234388
370
     9
100
AcDbSpline
210
0.0
220
0.0
230
1.0
 70
    11
 71
     3
 72
    17
 73
    13
 74
     0
 42
0.0000000001
 43
0.0000000001
 12
1.0
 22
0.0
 32
0.0
 13
1.0
 23
0.0
 33
0.0
 40
0.0
 40
0.0
 40
0.0
 40
0.0
 40
1.0
 40
1.0
 40
1.0
 40
2.0
 40
2.0
 40
2.0
 40
3.0
 40
3.0
 40
3.0
 40
4.0
 40
4.0
 40
4.0
 40
4.0
 10
33.70114332490821
 20
-75.46653970335562
 30
0.0
 10
33.70114332490821
 20
-75.41140053670286
 30
0.0
 10
33.65634054714149
 20
-75.36663303671398
 30
0.0
 10
33.60123665826625
 20
-75.36663303671398
 30
0.0
 10
33.54609749161349
 20
-75.36663303671398
 30
0.0
 10
33.50132999162462
 20
-75.41140053670286
 30
0.0
 10
33.50132999162462
 20
-75.46653970335562
 30
0.0
 10
33.50132999162462
 20
-75.52164359223086
 30
0.0
 10
33.54609749161349
 20
-75.56644636999725
 30
0.0
 10
33.60123665826625
 20
-75.56644636999725
 30
0.0
 10
33.65634054714149
 20
-75.56644636999725
 30
0.0
 10
33.70114332490821
 20
-75.52164359223086
 30
0.0
 10
33.70114332490821
 20
-75.46653970335562
 30
0.0
  0
SPLINE
  5
BA
330
1F
100
AcDbEntity
  8
_U+30EC_U+30A4_U+30E4_U+30FC 1
 62
   179
420
  2234388
370
     9
100
AcDbSpline
210
0.0
220
0.0
230
1.0
 70
    11
 71
     3
 72
    17
 73
    13
 74
     0
 42
0.0000000001
 43
0.0000000001
 12
1.0
 22
0.0
 32
0.0
 13
1.0
 23
0.0
 33
0.0
 40
0.0
 40
0.0
 40
0.0
 40
0.0
 40
1.0
 40
1.0
 40
1.0
 40
2.0
 40
2.0
 40
2.0
 40
3.0
 40
3.0
 40
3.0
 40
4.0
 40
4.0
 40
4.0
 40
4.0
 10
55.70099913450468
 20
-75.46653970335562
 30
0.0
 10
55.70099913450468
 20
-75.41140053670286
 30
0.0
 10
55.65619635786992
 20
-75.36663303671398
 30
0.0
 10
55.60109247038685
 20
-75.36663303671398
 30
0.0
 10
55.54595330512689
 20
-75.36663303671398
 30
0.0
 10
55.50118580626901
 20
-75.41140053670286
 30
0.0
 10
55.50118580626901
 20
-75.46653970335562
 30
0.0
 10
55.50118580626901
 20
-75.52164359223086
 30
0.0
 10
55.54595330512689
 20
-75.56644636999725
 30
0.0
 10
55.60109247038685
 20
-75.56644636999725
 30
0.0
 10
55.65619635786992
 20
-75.56644636999725
 30
0.0
 10
55.70099913450468
 20
-75.52164359223086
 30
0.0
 10
55.70099913450468
 20
-75.46653970335562
 30
0.0
  0
SPLINE
  5
BB
330
1F
100
AcDbEntity
  8
_U+30EC_U+30A4_U+30E4_U+30FC 1
 62
   179
420
  2234388
370
     9
100
AcDbSpline
210
0.0
220
0.0
230
1.0
 70
    11
 71
     3
 72
    17
 73
    13
 74
     0
 42
0.0000000001
 43
0.0000000001
 12
1.0
 22
0.0
 32
0.0
 13
1.0
 23
0.0
 33
0.0
 40
0.0
 40
0.0
 40
0.0
 40
0.0
 40
1.0
 40
1.0
 40
1.0
 40
2.0
 40
2.0
 40
2.0
 40
3.0
 40
3.0
 40
3.0
 40
4.0
 40
4.0
 40
4.0
 40
4.0
 10
65.70140221270647
 20
-75.46653970335562
 30
0.0
 10
65.70140221270647
 20
-75.41140053670286
 30
0.0
 10
65.65663471384859
 20
-75.36663303671398
 30
0.0
 10
65.60149720582197
 20
-75.36663303671398
 30
0.0
 10
65.54568610556801
 20
-75.36663303671398
 30
0.0
 10
65.50091860671013
 20
-75.41140053670286
 30
0.0
 10
65.50091860671013
 20
-75.46653970335562
 30
0.0
 10
65.50091860671013
 20
-75.52164359223086
 30
0.0
 10
65.54568610556801
 20
-75.56644636999725
 30
0.0
 10
65.60149720582197
 20
-75.56644636999725
 30
0.0
 10
65.65663471384859
 20
-75.56644636999725
 30
0.0
 10
65.70140221270647
 20
-75.52164359223086
 30
0.0
 10
65.70140221270647
 20
-75.46653970335562
 30
0.0
  0
SPLINE
  5
BC
330
1F
100
AcDbEntity
  8
_U+30EC_U+30A4_U+30E4_U+30FC 1
 62
   179
420
  2234388
370
     9
100
AcDbSpline
210
0.0
220
0.0
230
1.0
 70
    11
 71
     3
 72
    17
 73
    13
 74
     0
 42
0.0000000001
 43
0.0000000001
 12
1.0
 22
0.0
 32
0.0
 13
1.0
 23
0.0
 33
0.0
 40
0.0
 40
0.0
 40
0.0
 40
0.0
 40
1.0
 40
1.0
 40
1.0
 40
2.0
 40
2.0
 40
2.0
 40
3.0
 40
3.0
 40
3.0
 40
4.0
 40
4.0
 40
4.0
 40
4.0
 10
87.70111776255808
 20
-75.46653970335562
 30
0.0
 10
87.70111776255808
 20
-75.41140053670286
 30
0.0
 10
87.65631498592332
 20
-75.36663303671398
 30
0.0
 10
87.60121109844025
 20
-75.36663303671398
 30
0.0
 10
87.5460719331803
 20
-75.36663303671398
 30
0.0
 10
87.5013044343224
 20
-75.41140053670286
 30
0.0
 10
87.5013044343224
 20
-75.46653970335562
 30
0.0
 10
87.5013044343224
 20
-75.52164359223086
 30
0.0
 10
87.5460719331803
 20
-75.56644636999725
 30
0.0
 10
87.60121109844025
 20
-75.56644636999725
 30
0.0
 10
87.65631498592332
 20
-75.56644636999725
 30
0.0
 10
87.70111776255808
 20
-75.52164359223086
 30
0.0
 10
87.70111776255808
 20
-75.46653970335562
 30
0.0
  0
SPLINE
  5
BD
330
1F
100
AcDbEntity
  8
_U+30EC_U+30A4_U+30E4_U+30FC 1
 62
   179
420
  2234388
370
     9
100
AcDbSpline
210
0.0
220
0.0
230
1.0
 70
    11
 71
     3
 72
    17
 73
    13
 74
     0
 42
0.0000000001
 43
0.0000000001
 12
1.0
 22
0.0
 32
0.0
 13
1.0
 23
0.0
 33
0.0
 40
0.0
 40
0.0
 40
0.0
 40
0.0
 40
1.0
 40
1.0
 40
1.0
 40
2.0
 40
2.0
 40
2.0
 40
3.0
 40
3.0
 40
3.0
 40
4.0
 40
4.0
 40
4.0
 40
4.0
 10
91.7008768271824
 20
-79.46696914679987
 30
0.0
 10
91.7008768271824
 20
-79.41115970236942
 30
0.0
 10
91.65607405054763
 20
-79.36639220238054
 30
0.0
 10
91.60097016306456
 20
-79.36639220238054
 30
0.0
 10
91.54583331044688
 20
-79.36639220238054
 30
0.0
 10
91.50103053268016
 20
-79.41115970236942
 30
0.0
 10
91.50103053268016
 20
-79.46696914679987
 30
0.0
 10
91.50103053268016
 20
-79.52210831345295
 30
0.0
 10
91.54583331044688
 20
-79.5668758134415
 30
0.0
 10
91.60097016306456
 20
-79.5668758134415
 30
0.0
 10
91.65607405054763
 20
-79.5668758134415
 30
0.0
 10
91.7008768271824
 20
-79.52210831345295
 30
0.0
 10
91.7008768271824
 20
-79.46696914679987
 30
0.0
  0
SPLINE
  5
BE
330
1F
100
AcDbEntity
  8
_U+30EC_U+30A4_U+30E4_U+30FC 1
 62
   179
420
  2234388
370
     9
100
AcDbSpline
210
0.0
220
0.0
230
1.0
 70
    11
 71
     3
 72
    17
 73
    13
 74
     0
 42
0.0000000001
 43
0.0000000001
 12
1.0
 22
0.0
 32
0.0
 13
1.0
 23
0.0
 33
0.0
 40
0.0
 40
0.0
 40
0.0
 40
0.0
 40
1.0
 40
1.0
 40
1.0
 40
2.0
 40
2.0
 40
2.0
 40
3.0
 40
3.0
 40
3.0
 40
4.0
 40
4.0
 40
4.0
 40
4.0
 10
91.7008768271824
 20
-80.46674136877208
 30
0.0
 10
91.7008768271824
 20
-80.41163747989717
 30
0.0
 10
91.65607405054763
 20
-80.36683470213045
 30
0.0
 10
91.60097016306456
 20
-80.36683470213045
 30
0.0
 10
91.54583331044688
 20
-80.36683470213045
 30
0.0
 10
91.50103053268016
 20
-80.41163747989717
 30
0.0
 10
91.50103053268016
 20
-80.46674136877208
 30
0.0
 10
91.50103053268016
 20
-80.52188053542515
 30
0.0
 10
91.54583331044688
 20
-80.56664803541405
 30
0.0
 10
91.60097016306456
 20
-80.56664803541405
 30
0.0
 10
91.65607405054763
 20
-80.56664803541405
 30
0.0
 10
91.7008768271824
 20
-80.52188053542515
 30
0.0
 10
91.7008768271824
 20
-80.46674136877208
 30
0.0
  0
SPLINE
  5
BF
330
1F
100
AcDbEntity
  8
_U+30EC_U+30A4_U+30E4_U+30FC 1
 62
   179
420
  2234388
370
     9
100
AcDbSpline
210
0.0
220
0.0
230
1.0
 70
    11
 71
     3
 72
    17
 73
    13
 74
     0
 42
0.0000000001
 43
0.0000000001
 12
1.0
 22
0.0
 32
0.0
 13
1.0
 23
0.0
 33
0.0
 40
0.0
 40
0.0
 40
0.0
 40
0.0
 40
1.0
 40
1.0
 40
1.0
 40
2.0
 40
2.0
 40
2.0
 40
3.0
 40
3.0
 40
3.0
 40
4.0
 40
4.0
 40
4.0
 40
4.0
 10
91.7008768271824
 20
-93.466461365522
 30
0.0
 10
91.7008768271824
 20
-93.41135747664708
 30
0.0
 10
91.65607405054763
 20
-93.36655469888036
 30
0.0
 10
91.60097016306456
 20
-93.36655469888036
 30
0.0
 10
91.54583331044688
 20
-93.36655469888036
 30
0.0
 10
91.50103053268016
 20
-93.41135747664708
 30
0.0
 10
91.50103053268016
 20
-93.466461365522
 30
0.0
 10
91.50103053268016
 20
-93.52160053217507
 30
0.0
 10
91.54583331044688
 20
-93.56636803216428
 30
0.0
 10
91.60097016306456
 20
-93.56636803216428
 30
0.0
 10
91.65607405054763
 20
-93.56636803216428
 30
0.0
 10
91.7008768271824
 20
-93.52160053217507
 30
0.0
 10
91.7008768271824
 20
-93.466461365522
 30
0.0
  0
SPLINE
  5
C0
330
1F
100
AcDbEntity
  8
_U+30EC_U+30A4_U+30E4_U+30FC 1
 62
   179
420
  2234388
370
     9
100
AcDbSpline
210
0.0
220
0.0
230
1.0
 70
    11
 71
     3
 72
    17
 73
    13
 74
     0
 42
0.0000000001
 43
0.0000000001
 12
1.0
 22
0.0
 32
0.0
 13
1.0
 23
0.0
 33
0.0
 40
0.0
 40
0.0
 40
0.0
 40
0.0
 40
1.0
 40
1.0
 40
1.0
 40
2.0
 40
2.0
 40
2.0
 40
3.0
 40
3.0
 40
3.0
 40
4.0
 40
4.0
 40
4.0
 40
4.0
 10
91.7008768271824
 20
-96.46644830921699
 30
0.0
 10
91.7008768271824
 20
-96.41134442034142
 30
0.0
 10
91.65607405054763
 20
-96.36654164257534
 30
0.0
 10
91.60097016306456
 20
-96.36654164257534
 30
0.0
 10
91.54583331044688
 20
-96.36654164257534
 30
0.0
 10
91.50103053268016
 20
-96.41134442034142
 30
0.0
 10
91.50103053268016
 20
-96.46644830921699
 30
0.0
 10
91.50103053268016
 20
-96.52158747586942
 30
0.0
 10
91.54583331044688
 20
-96.56635497585862
 30
0.0
 10
91.60097016306456
 20
-96.56635497585862
 30
0.0
 10
91.65607405054763
 20
-96.56635497585862
 30
0.0
 10
91.7008768271824
 20
-96.52158747586942
 30
0.0
 10
91.7008768271824
 20
-96.46644830921699
 30
0.0
  0
SPLINE
  5
C1
330
1F
100
AcDbEntity
  8
_U+30EC_U+30A4_U+30E4_U+30FC 1
 62
   179
420
  2234388
370
     9
100
AcDbSpline
210
0.0
220
0.0
230
1.0
 70
    11
 71
     3
 72
    17
 73
    13
 74
     0
 42
0.0000000001
 43
0.0000000001
 12
1.0
 22
0.0
 32
0.0
 13
1.0
 23
0.0
 33
0.0
 40
0.0
 40
0.0
 40
0.0
 40
0.0
 40
1.0
 40
1.0
 40
1.0
 40
2.0
 40
2.0
 40
2.0
 40
3.0
 40
3.0
 40
3.0
 40
4.0
 40
4.0
 40
4.0
 40
4.0
 10
75.70113501314759
 20
-104.4666721961056
 30
0.0
 10
75.70113501314759
 20
-104.4115330294526
 30
0.0
 10
75.65636942553061
 20
-104.366765529464
 30
0.0
 10
75.60122834902975
 20
-104.366765529464
 30
0.0
 10
75.54612446154668
 20
-104.366765529464
 30
0.0
 10
75.50132168491193
 20
-104.4115330294526
 30
0.0
 10
75.50132168491193
 20
-104.4666721961056
 30
0.0
 10
75.50132168491193
 20
-104.5217760849805
 30
0.0
 10
75.54612446154668
 20
-104.5665788627473
 30
0.0
 10
75.60122834902975
 20
-104.5665788627473
 30
0.0
 10
75.65636942553061
 20
-104.5665788627473
 30
0.0
 10
75.70113501314759
 20
-104.5217760849805
 30
0.0
 10
75.70113501314759
 20
-104.4666721961056
 30
0.0
  0
SPLINE
  5
C2
330
1F
100
AcDbEntity
  8
_U+30EC_U+30A4_U+30E4_U+30FC 1
 62
   179
420
  2234388
370
     9
100
AcDbSpline
210
0.0
220
0.0
230
1.0
 70
    11
 71
     3
 72
    17
 73
    13
 74
     0
 42
0.0000000001
 43
0.0000000001
 12
1.0
 22
0.0
 32
0.0
 13
1.0
 23
0.0
 33
0.0
 40
0.0
 40
0.0
 40
0.0
 40
0.0
 40
1.0
 40
1.0
 40
1.0
 40
2.0
 40
2.0
 40
2.0
 40
3.0
 40
3.0
 40
3.0
 40
4.0
 40
4.0
 40
4.0
 40
4.0
 10
66.70117440942238
 20
-104.4666721961056
 30
0.0
 10
66.70117440942238
 20
-104.4115330294526
 30
0.0
 10
66.6564069105645
 20
-104.366765529464
 30
0.0
 10
66.60126942779387
 20
-104.366765529464
 30
0.0
 10
66.54616385782147
 20
-104.366765529464
 30
0.0
 10
66.50136108118672
 20
-104.4115330294526
 30
0.0
 10
66.50136108118672
 20
-104.4666721961056
 30
0.0
 10
66.50136108118672
 20
-104.5217760849805
 30
0.0
 10
66.54616385782147
 20
-104.5665788627473
 30
0.0
 10
66.60126942779387
 20
-104.5665788627473
 30
0.0
 10
66.6564069105645
 20
-104.5665788627473
 30
0.0
 10
66.70117440942238
 20
-104.5217760849805
 30
0.0
 10
66.70117440942238
 20
-104.4666721961056
 30
0.0
  0
SPLINE
  5
C3
330
1F
100
AcDbEntity
  8
_U+30EC_U+30A4_U+30E4_U+30FC 1
 62
   179
420
  2234388
370
     9
100
AcDbSpline
210
0.0
220
0.0
230
1.0
 70
    11
 71
     3
 72
    17
 73
    13
 74
     0
 42
0.0000000001
 43
0.0000000001
 12
1.0
 22
0.0
 32
0.0
 13
1.0
 23
0.0
 33
0.0
 40
0.0
 40
0.0
 40
0.0
 40
0.0
 40
1.0
 40
1.0
 40
1.0
 40
2.0
 40
2.0
 40
2.0
 40
3.0
 40
3.0
 40
3.0
 40
4.0
 40
4.0
 40
4.0
 40
4.0
 10
54.70122693778877
 20
-104.4666721961056
 30
0.0
 10
54.70122693778877
 20
-104.4115330294526
 30
0.0
 10
54.65642416115401
 20
-104.366765529464
 30
0.0
 10
54.60132027367094
 20
-104.366765529464
 30
0.0
 10
54.54618110841098
 20
-104.366765529464
 30
0.0
 10
54.5014136095531
 20
-104.4115330294526
 30
0.0
 10
54.5014136095531
 20
-104.4666721961056
 30
0.0
 10
54.5014136095531
 20
-104.5217760849805
 30
0.0
 10
54.54618110841098
 20
-104.5665788627473
 30
0.0
 10
54.60132027367094
 20
-104.5665788627473
 30
0.0
 10
54.65642416115401
 20
-104.5665788627473
 30
0.0
 10
54.70122693778877
 20
-104.5217760849805
 30
0.0
 10
54.70122693778877
 20
-104.4666721961056
 30
0.0
  0
SPLINE
  5
C4
330
1F
100
AcDbEntity
  8
_U+30EC_U+30A4_U+30E4_U+30FC 1
 62
   179
420
  2234388
370
     9
100
AcDbSpline
210
0.0
220
0.0
230
1.0
 70
    11
 71
     3
 72
    17
 73
    13
 74
     0
 42
0.0000000001
 43
0.0000000001
 12
1.0
 22
0.0
 32
0.0
 13
1.0
 23
0.0
 33
0.0
 40
0.0
 40
0.0
 40
0.0
 40
0.0
 40
1.0
 40
1.0
 40
1.0
 40
2.0
 40
2.0
 40
2.0
 40
3.0
 40
3.0
 40
3.0
 40
4.0
 40
4.0
 40
4.0
 40
4.0
 10
45.70126633406356
 20
-104.4666721961056
 30
0.0
 10
45.70126633406356
 20
-104.4115330294526
 30
0.0
 10
45.6564635574288
 20
-104.366765529464
 30
0.0
 10
45.60135966994572
 20
-104.366765529464
 30
0.0
 10
45.54622050468578
 20
-104.366765529464
 30
0.0
 10
45.50145300582789
 20
-104.4115330294526
 30
0.0
 10
45.50145300582789
 20
-104.4666721961056
 30
0.0
 10
45.50145300582789
 20
-104.5217760849805
 30
0.0
 10
45.54622050468578
 20
-104.5665788627473
 30
0.0
 10
45.60135966994572
 20
-104.5665788627473
 30
0.0
 10
45.6564635574288
 20
-104.5665788627473
 30
0.0
 10
45.70126633406356
 20
-104.5217760849805
 30
0.0
 10
45.70126633406356
 20
-104.4666721961056
 30
0.0
  0
SPLINE
  5
C5
330
1F
100
AcDbEntity
  8
_U+30EC_U+30A4_U+30E4_U+30FC 1
 62
   179
420
  2234388
370
     9
100
AcDbSpline
210
0.0
220
0.0
230
1.0
 70
    11
 71
     3
 72
    17
 73
    13
 74
     0
 42
0.0000000001
 43
0.0000000001
 12
1.0
 22
0.0
 32
0.0
 13
1.0
 23
0.0
 33
0.0
 40
0.0
 40
0.0
 40
0.0
 40
0.0
 40
1.0
 40
1.0
 40
1.0
 40
2.0
 40
2.0
 40
2.0
 40
3.0
 40
3.0
 40
3.0
 40
4.0
 40
4.0
 40
4.0
 40
4.0
 10
58.95110544047645
 20
-100.4669130304387
 30
0.0
 10
58.95110544047645
 20
-100.4117738637857
 30
0.0
 10
58.90630266384169
 20
-100.3670063637971
 30
0.0
 10
58.85119877635861
 20
-100.3670063637971
 30
0.0
 10
58.79606109641216
 20
-100.3670063637971
 30
0.0
 10
58.75129211224078
 20
-100.4117738637857
 30
0.0
 10
58.75129211224078
 20
-100.4669130304387
 30
0.0
 10
58.75129211224078
 20
-100.5220169193137
 30
0.0
 10
58.79606109641216
 20
-100.5668196970804
 30
0.0
 10
58.85119877635861
 20
-100.5668196970804
 30
0.0
 10
58.90630266384169
 20
-100.5668196970804
 30
0.0
 10
58.95110544047645
 20
-100.5220169193137
 30
0.0
 10
58.95110544047645
 20
-100.4669130304387
 30
0.0
  0
SPLINE
  5
C6
330
1F
100
AcDbEntity
  8
_U+30EC_U+30A4_U+30E4_U+30FC 1
 62
   179
420
  2234388
370
     9
100
AcDbSpline
210
0.0
220
0.0
230
1.0
 70
    11
 71
     3
 72
    17
 73
    13
 74
     0
 42
0.0000000001
 43
0.0000000001
 12
1.0
 22
0.0
 32
0.0
 13
1.0
 23
0.0
 33
0.0
 40
0.0
 40
0.0
 40
0.0
 40
0.0
 40
1.0
 40
1.0
 40
1.0
 40
2.0
 40
2.0
 40
2.0
 40
3.0
 40
3.0
 40
3.0
 40
4.0
 40
4.0
 40
4.0
 40
4.0
 10
62.45129590673471
 20
-100.4669130304387
 30
0.0
 10
62.45129590673471
 20
-100.4117738637857
 30
0.0
 10
62.40652840787682
 20
-100.3670063637971
 30
0.0
 10
62.35138924261687
 20
-100.3670063637971
 30
0.0
 10
62.2962853551338
 20
-100.3670063637971
 30
0.0
 10
62.25148257849904
 20
-100.4117738637857
 30
0.0
 10
62.25148257849904
 20
-100.4669130304387
 30
0.0
 10
62.25148257849904
 20
-100.5220169193137
 30
0.0
 10
62.2962853551338
 20
-100.5668196970804
 30
0.0
 10
62.35138924261687
 20
-100.5668196970804
 30
0.0
 10
62.40652840787682
 20
-100.5668196970804
 30
0.0
 10
62.45129590673471
 20
-100.5220169193137
 30
0.0
 10
62.45129590673471
 20
-100.4669130304387
 30
0.0
  0
INSERT
  5
C8
330
1F
100
AcDbEntity
  8
_U+30EC_U+30A4_U+30E4_U+30FC 1
100
AcDbBlockReference
  2
block 2
 10
0.0
 20
0.0
 30
0.0
  0
INSERT
  5
104
330
1F
100
AcDbEntity
  8
_U+30EC_U+30A4_U+30E4_U+30FC 1
100
AcDbBlockReference
  2
block 3
 10
0.0
 20
0.0
 30
0.0
  0
INSERT
  5
12B
330
1F
100
AcDbEntity
  8
_U+30EC_U+30A4_U+30E4_U+30FC 1
100
AcDbBlockReference
  2
block 8
 10
0.0
 20
0.0
 30
0.0
  0
INSERT
  5
14F
330
1F
100
AcDbEntity
  8
_U+30EC_U+30A4_U+30E4_U+30FC 1
100
AcDbBlockReference
  2
block 13
 10
0.0
 20
0.0
 30
0.0
  0
INSERT
  5
172
330
1F
100
AcDbEntity
  8
_U+30EC_U+30A4_U+30E4_U+30FC 1
100
AcDbBlockReference
  2
block 18
 10
0.0
 20
0.0
 30
0.0
  0
INSERT
  5
1A5
330
1F
100
AcDbEntity
  8
_U+30EC_U+30A4_U+30E4_U+30FC 1
100
AcDbBlockReference
  2
block 23
 10
0.0
 20
0.0
 30
0.0
  0
INSERT
  5
1CC
330
1F
100
AcDbEntity
  8
_U+30EC_U+30A4_U+30E4_U+30FC 1
100
AcDbBlockReference
  2
block 28
 10
0.0
 20
0.0
 30
0.0
  0
INSERT
  5
1EE
330
1F
100
AcDbEntity
  8
_U+30EC_U+30A4_U+30E4_U+30FC 1
100
AcDbBlockReference
  2
block 33
 10
0.0
 20
0.0
 30
0.0
  0
INSERT
  5
210
330
1F
100
AcDbEntity
  8
_U+30EC_U+30A4_U+30E4_U+30FC 1
100
AcDbBlockReference
  2
block 38
 10
0.0
 20
0.0
 30
0.0
  0
INSERT
  5
235
330
1F
100
AcDbEntity
  8
_U+30EC_U+30A4_U+30E4_U+30FC 1
100
AcDbBlockReference
  2
block 43
 10
0.0
 20
0.0
 30
0.0
  0
INSERT
  5
25A
330
1F
100
AcDbEntity
  8
_U+30EC_U+30A4_U+30E4_U+30FC 1
100
AcDbBlockReference
  2
block 48
 10
0.0
 20
0.0
 30
0.0
  0
INSERT
  5
268
330
1F
100
AcDbEntity
  8
_U+30EC_U+30A4_U+30E4_U+30FC 1
100
AcDbBlockReference
  2
block 51
 10
0.0
 20
0.0
 30
0.0
  0
ENDSEC
  0
SECTION
  2
OBJECTS
  0
DICTIONARY
  5
C
330
0
100
AcDbDictionary
281
     1
  3
ACAD_GROUP
350
D
  3
ACAD_LAYOUT
350
1A
  3
ACAD_MATERIAL
350
3B
  3
ACAD_MLEADERSTYLE
350
28B
  3
ACAD_MLINESTYLE
350
17
  3
ACAD_PLOTSETTINGS
350
19
  3
ACAD_PLOTSTYLENAME
350
E
  3
ACAD_TABLESTYLE
350
28A
  3
ACAD_VISUALSTYLE
350
2A
  0
SUN
  5
3F
330
29
100
AcDbSun
 90
        1
290
     0
 63
     7
421
 16777215
 40
1.0
291
     1
 91
  2455826
 92
 54000000
292
     0
 70
     2
 71
   256
280
     1
  0
DICTIONARY
  5
D
102
{ACAD_REACTORS
330
C
102
}
330
C
100
AcDbDictionary
281
     1
  0
DICTIONARY
  5
1A
102
{ACAD_REACTORS
330
C
102
}
330
C
100
AcDbDictionary
281
     1
  3
Layout1
350
1E
  3
Layout2
350
26
  3
Model
350
22
  0
DICTIONARY
  5
3B
102
{ACAD_REACTORS
330
C
102
}
330
C
100
AcDbDictionary
281
     1
  3
ByBlock
350
3D
  3
ByLayer
350
3C
  3
Global
350
3E
  0
DICTIONARY
  5
28B
102
{ACAD_REACTORS
330
C
102
}
330
C
100
AcDbDictionary
281
     1
  0
DICTIONARY
  5
17
102
{ACAD_REACTORS
330
C
102
}
330
C
100
AcDbDictionary
281
     1
  3
Standard
350
18
  0
DICTIONARY
  5
19
102
{ACAD_REACTORS
330
C
102
}
330
C
100
AcDbDictionary
281
     1
  0
ACDBDICTIONARYWDFLT
  5
E
102
{ACAD_REACTORS
330
C
102
}
330
C
100
AcDbDictionary
281
     1
  3
Normal
350
F
100
AcDbDictionaryWithDefault
340
F
  0
DICTIONARY
  5
28A
102
{ACAD_REACTORS
330
C
102
}
330
C
100
AcDbDictionary
281
     1
  0
DICTIONARY
  5
2A
102
{ACAD_REACTORS
330
C
102
}
330
C
100
AcDbDictionary
281
     1
  3
2dWireframe
350
2F
  3
3D Hidden
350
31
  3
3dWireframe
350
30
  3
Basic
350
32
  3
Brighten
350
36
  3
ColorChange
350
3A
  3
Conceptual
350
34
  3
Dim
350
35
  3
Facepattern
350
39
  3
Flat
350
2B
  3
FlatWithEdges
350
2C
  3
Gouraud
350
2D
  3
GouraudWithEdges
350
2E
  3
Linepattern
350
38
  3
Realistic
350
33
  3
Thicken
350
37
  0
LAYOUT
  5
1E
102
{ACAD_REACTORS
330
1A
102
}
330
1A
100
AcDbPlotSettings
  1

  2
none_device
  4

  6

 40
0.0
 41
0.0
 42
0.0
 43
0.0
 44
0.0
 45
0.0
 46
0.0
 47
0.0
 48
0.0
 49
0.0
140
0.0
141
0.0
142
1.0
143
1.0
 70
   688
 72
     0
 73
     0
 74
     5
  7

 75
    16
 76
     0
 77
     2
 78
   300
147
1.0
148
0.0
149
0.0
100
AcDbLayout
  1
Layout1
 70
     1
 71
     1
 10
0.0
 20
0.0
 11
12.0
 21
9.0
 12
0.0
 22
0.0
 32
0.0
 14
1.000000000000000E+20
 24
1.000000000000000E+20
 34
1.000000000000000E+20
 15
-1.000000000000000E+20
 25
-1.000000000000000E+20
 35
-1.000000000000000E+20
146
0.0
 13
0.0
 23
0.0
 33
0.0
 16
1.0
 26
0.0
 36
0.0
 17
0.0
 27
1.0
 37
0.0
 76
     0
330
1B
  0
LAYOUT
  5
26
102
{ACAD_REACTORS
330
1A
102
}
330
1A
100
AcDbPlotSettings
  1

  2
none_device
  4

  6

 40
0.0
 41
0.0
 42
0.0
 43
0.0
 44
0.0
 45
0.0
 46
0.0
 47
0.0
 48
0.0
 49
0.0
140
0.0
141
0.0
142
1.0
143
1.0
 70
   688
 72
     0
 73
     0
 74
     5
  7

 75
    16
 76
     0
 77
     2
 78
   300
147
1.0
148
0.0
149
0.0
100
AcDbLayout
  1
Layout2
 70
     1
 71
     2
 10
0.0
 20
0.0
 11
0.0
 21
0.0
 12
0.0
 22
0.0
 32
0.0
 14
0.0
 24
0.0
 34
0.0
 15
0.0
 25
0.0
 35
0.0
146
0.0
 13
0.0
 23
0.0
 33
0.0
 16
1.0
 26
0.0
 36
0.0
 17
0.0
 27
1.0
 37
0.0
 76
     0
330
23
  0
LAYOUT
  5
22
102
{ACAD_REACTORS
330
1A
102
}
330
1A
100
AcDbPlotSettings
  1

  2
none_device
  4

  6

 40
0.0
 41
0.0
 42
0.0
 43
0.0
 44
0.0
 45
0.0
 46
0.0
 47
0.0
 48
0.0
 49
0.0
140
0.0
141
0.0
142
1.0
143
1.0
 70
  1712
 72
     0
 73
     0
 74
     0
  7

 75
     0
 76
     0
 77
     2
 78
   300
147
1.0
148
0.0
149
0.0
100
AcDbLayout
  1
Model
 70
     1
 71
     0
 10
0.0
 20
0.0
 11
12.0
 21
9.0
 12
0.0
 22
0.0
 32
0.0
 14
1.000000000000000E+20
 24
1.000000000000000E+20
 34
1.000000000000000E+20
 15
-1.000000000000000E+20
 25
-1.000000000000000E+20
 35
-1.000000000000000E+20
146
0.0
 13
0.0
 23
0.0
 33
0.0
 16
1.0
 26
0.0
 36
0.0
 17
0.0
 27
1.0
 37
0.0
 76
     0
330
1F
331
29
  0
MATERIAL
  5
3D
102
{ACAD_REACTORS
330
3B
102
}
330
3B
100
AcDbMaterial
  1
ByBlock
 72
     1
 94
      127
  0
MATERIAL
  5
3C
102
{ACAD_REACTORS
330
3B
102
}
330
3B
100
AcDbMaterial
  1
ByLayer
 72
     1
 94
      127
  0
MATERIAL
  5
3E
102
{ACAD_REACTORS
330
3B
102
}
330
3B
100
AcDbMaterial
  1
Global
 72
     1
 94
      127
  0
MLINESTYLE
  5
18
102
{ACAD_REACTORS
330
17
102
}
330
17
100
AcDbMlineStyle
  2
Standard
 70
     0
  3

 62
   256
 51
90.0
 52
90.0
 71
     2
 49
0.5
 62
   256
  6
BYLAYER
 49
-0.5
 62
   256
  6
BYLAYER
  0
ACDBPLACEHOLDER
  5
F
102
{ACAD_REACTORS
330
E
102
}
330
E
  0
VISUALSTYLE
  5
2F
102
{ACAD_REACTORS
330
2A
102
}
330
2A
100
AcDbVisualStyle
  2
2dWireframe
 70
     4
177
     2
291
     0
 71
     0
176
     1
 72
     2
176
     1
 73
     0
176
     1
 90
        0
176
     1
 40
-0.6
176
     1
 41
-30.0
176
     1
 62
     5
 63
     7
421
 16777215
176
     1
 74
     1
176
     1
 91
        4
176
     1
 64
     7
176
     1
 65
   257
176
     1
 75
     1
176
     1
175
     1
176
     1
 42
1.0
176
     1
 92
        0
176
     1
 66
   257
176
     1
 43
1.0
176
     1
 76
     1
176
     1
 77
     6
176
     1
 78
     2
176
     1
 67
     7
176
     1
 79
     5
176
     1
170
     0
176
     1
171
     0
176
     1
290
     0
176
     1
 93
        1
176
     1
 44
0.0
176
     1
173
     0
176
     1
  0
VISUALSTYLE
  5
31
102
{ACAD_REACTORS
330
2A
102
}
330
2A
100
AcDbVisualStyle
  2
3D Hidden
 70
     6
177
     2
291
     0
 71
     1
176
     1
 72
     2
176
     1
 73
     2
176
     1
 90
        0
176
     1
 40
-0.6
176
     1
 41
-30.0
176
     1
 62
     5
 63
     7
421
 16777215
176
     1
 74
     2
176
     1
 91
        2
176
     1
 64
     7
176
     1
 65
   257
176
     1
 75
     2
176
     1
175
     1
176
     1
 42
40.0
176
     1
 92
        0
176
     1
 66
   257
176
     1
 43
1.0
176
     1
 76
     1
176
     1
 77
     6
176
     1
 78
     2
176
     1
 67
     7
176
     1
 79
     3
176
     1
170
     0
176
     1
171
     0
176
     1
290
     0
176
     1
 93
        1
176
     1
 44
0.0
176
     1
173
     0
176
     1
  0
VISUALSTYLE
  5
30
102
{ACAD_REACTORS
330
2A
102
}
330
2A
100
AcDbVisualStyle
  2
3dWireframe
 70
     5
177
     2
291
     0
 71
     0
176
     1
 72
     2
176
     1
 73
     0
176
     1
 90
        0
176
     1
 40
-0.6
176
     1
 41
-30.0
176
     1
 62
     5
 63
     7
421
 16777215
176
     1
 74
     1
176
     1
 91
        4
176
     1
 64
     7
176
     1
 65
   257
176
     1
 75
     1
176
     1
175
     1
176
     1
 42
1.0
176
     1
 92
        0
176
     1
 66
   257
176
     1
 43
1.0
176
     1
 76
     1
176
     1
 77
     6
176
     1
 78
     2
176
     1
 67
     7
176
     1
 79
     5
176
     1
170
     0
176
     1
171
     0
176
     1
290
     0
176
     1
 93
        1
176
     1
 44
0.0
176
     1
173
     0
176
     1
  0
VISUALSTYLE
  5
32
102
{ACAD_REACTORS
330
2A
102
}
330
2A
100
AcDbVisualStyle
  2
Basic
 70
     7
177
     2
291
     1
 71
     1
176
     1
 72
     0
176
     1
 73
     1
176
     1
 90
        0
176
     1
 40
-0.6
176
     1
 41
-30.0
176
     1
 62
     5
 63
     7
421
 16777215
176
     1
 74
     0
176
     1
 91
        4
176
     1
 64
     7
176
     1
 65
   257
176
     1
 75
     1
176
     1
175
     1
176
     1
 42
1.0
176
     1
 92
        8
176
     1
 66
     7
176
     1
 43
1.0
176
     1
 76
     1
176
     1
 77
     6
176
     1
 78
     2
176
     1
 67
     7
176
     1
 79
     5
176
     1
170
     0
176
     1
171
     0
176
     1
290
     0
176
     1
 93
        1
176
     1
 44
0.0
176
     1
173
     0
176
     1
  0
VISUALSTYLE
  5
36
102
{ACAD_REACTORS
330
2A
102
}
330
2A
100
AcDbVisualStyle
  2
Brighten
 70
    12
177
     2
291
     1
 71
     2
176
     1
 72
     2
176
     1
 73
     0
176
     1
 90
        0
176
     1
 40
-0.6
176
     1
 41
-30.0
176
     1
 62
     5
 63
     7
421
 16777215
176
     1
 74
     1
176
     1
 91
        4
176
     1
 64
     7
176
     1
 65
   257
176
     1
 75
     1
176
     1
175
     1
176
     1
 42
1.0
176
     1
 92
        8
176
     1
 66
     7
176
     1
 43
1.0
176
     1
 76
     1
176
     1
 77
     6
176
     1
 78
     2
176
     1
 67
     7
176
     1
 79
     5
176
     1
170
     0
176
     1
171
     0
176
     1
290
     0
176
     1
 93
        1
176
     1
 44
50.0
176
     1
173
     0
176
     1
  0
VISUALSTYLE
  5
3A
102
{ACAD_REACTORS
330
2A
102
}
330
2A
100
AcDbVisualStyle
  2
ColorChange
 70
    16
177
     2
291
     1
 71
     2
176
     1
 72
     2
176
     1
 73
     3
176
     1
 90
        0
176
     1
 40
-0.6
176
     1
 41
-30.0
176
     1
 62
     5
 63
     8
421
  8421504
176
     1
 74
     1
176
     1
 91
        4
176
     1
 64
     7
176
     1
 65
   257
176
     1
 75
     1
176
     1
175
     1
176
     1
 42
1.0
176
     1
 92
        8
176
     1
 66
     8
424
  8421504
176
     1
 43
1.0
176
     1
 76
     1
176
     1
 77
     6
176
     1
 78
     2
176
     1
 67
     7
176
     1
 79
     5
176
     1
170
     0
176
     1
171
     0
176
     1
290
     0
176
     1
 93
        1
176
     1
 44
0.0
176
     1
173
     0
176
     1
  0
VISUALSTYLE
  5
34
102
{ACAD_REACTORS
330
2A
102
}
330
2A
100
AcDbVisualStyle
  2
Conceptual
 70
     9
177
     2
291
     0
 71
     3
176
     1
 72
     2
176
     1
 73
     0
176
     1
 90
        0
176
     1
 40
-0.6
176
     1
 41
-30.0
176
     1
 62
     5
 63
     7
421
 16777215
176
     1
 74
     2
176
     1
 91
        2
176
     1
 64
     7
176
     1
 65
   257
176
     1
 75
     1
176
     1
175
     1
176
     1
 42
40.0
176
     1
 92
        8
176
     1
 66
     7
176
     1
 43
1.0
176
     1
 76
     1
176
     1
 77
     6
176
     1
 78
     2
176
     1
 67
     7
176
     1
 79
     3
176
     1
170
     0
176
     1
171
     0
176
     1
290
     0
176
     1
 93
        1
176
     1
 44
0.0
176
     1
173
     0
176
     1
  0
VISUALSTYLE
  5
35
102
{ACAD_REACTORS
330
2A
102
}
330
2A
100
AcDbVisualStyle
  2
Dim
 70
    11
177
     2
291
     1
 71
     2
176
     1
 72
     2
176
     1
 73
     0
176
     1
 90
        0
176
     1
 40
-0.6
176
     1
 41
-30.0
176
     1
 62
     5
 63
     7
421
 16777215
176
     1
 74
     1
176
     1
 91
        4
176
     1
 64
     7
176
     1
 65
   257
176
     1
 75
     1
176
     1
175
     1
176
     1
 42
1.0
176
     1
 92
        8
176
     1
 66
     7
176
     1
 43
1.0
176
     1
 76
     1
176
     1
 77
     6
176
     1
 78
     2
176
     1
 67
     7
176
     1
 79
     5
176
     1
170
     0
176
     1
171
     0
176
     1
290
     0
176
     1
 93
        1
176
     1
 44
-50.0
176
     1
173
     0
176
     1
  0
VISUALSTYLE
  5
39
102
{ACAD_REACTORS
330
2A
102
}
330
2A
100
AcDbVisualStyle
  2
Facepattern
 70
    15
177
     2
291
     1
 71
     2
176
     1
 72
     2
176
     1
 73
     0
176
     1
 90
        0
176
     1
 40
-0.6
176
     1
 41
-30.0
176
     1
 62
     5
 63
     7
421
 16777215
176
     1
 74
     1
176
     1
 91
        4
176
     1
 64
     7
176
     1
 65
   257
176
     1
 75
     1
176
     1
175
     1
176
     1
 42
1.0
176
     1
 92
        8
176
     1
 66
     7
176
     1
 43
1.0
176
     1
 76
     1
176
     1
 77
     6
176
     1
 78
     2
176
     1
 67
     7
176
     1
 79
     5
176
     1
170
     0
176
     1
171
     0
176
     1
290
     0
176
     1
 93
        1
176
     1
 44
0.0
176
     1
173
     0
176
     1
  0
VISUALSTYLE
  5
2B
102
{ACAD_REACTORS
330
2A
102
}
330
2A
100
AcDbVisualStyle
  2
Flat
 70
     0
177
     2
291
     1
 71
     2
176
     1
 72
     1
176
     1
 73
     1
176
     1
 90
        2
176
     1
 40
-0.6
176
     1
 41
30.0
176
     1
 62
     5
 63
     7
421
 16777215
176
     1
 74
     0
176
     1
 91
        4
176
     1
 64
     7
176
     1
 65
   257
176
     1
 75
     1
176
     1
175
     1
176
     1
 42
1.0
176
     1
 92
        8
176
     1
 66
     7
176
     1
 43
1.0
176
     1
 76
     1
176
     1
 77
     6
176
     1
 78
     2
176
     1
 67
     7
176
     1
 79
     5
176
     1
170
     0
176
     1
171
     0
176
     1
290
     0
176
     1
 93
       13
176
     1
 44
0.0
176
     1
173
     0
176
     1
  0
VISUALSTYLE
  5
2C
102
{ACAD_REACTORS
330
2A
102
}
330
2A
100
AcDbVisualStyle
  2
FlatWithEdges
 70
     1
177
     2
291
     1
 71
     2
176
     1
 72
     1
176
     1
 73
     1
176
     1
 90
        2
176
     1
 40
-0.6
176
     1
 41
30.0
176
     1
 62
     5
 63
     7
421
 16777215
176
     1
 74
     1
176
     1
 91
        4
176
     1
 64
     7
176
     1
 65
   257
176
     1
 75
     1
176
     1
175
     1
176
     1
 42
1.0
176
     1
 92
        0
176
     1
 66
   257
176
     1
 43
1.0
176
     1
 76
     1
176
     1
 77
     6
176
     1
 78
     2
176
     1
 67
     7
176
     1
 79
     5
176
     1
170
     0
176
     1
171
     0
176
     1
290
     0
176
     1
 93
       13
176
     1
 44
0.0
176
     1
173
     0
176
     1
  0
VISUALSTYLE
  5
2D
102
{ACAD_REACTORS
330
2A
102
}
330
2A
100
AcDbVisualStyle
  2
Gouraud
 70
     2
177
     2
291
     1
 71
     2
176
     1
 72
     2
176
     1
 73
     1
176
     1
 90
        2
176
     1
 40
-0.6
176
     1
 41
30.0
176
     1
 62
     5
 63
     7
421
 16777215
176
     1
 74
     0
176
     1
 91
        4
176
     1
 64
     7
176
     1
 65
   257
176
     1
 75
     1
176
     1
175
     1
176
     1
 42
1.0
176
     1
 92
        0
176
     1
 66
     7
176
     1
 43
1.0
176
     1
 76
     1
176
     1
 77
     6
176
     1
 78
     2
176
     1
 67
     7
176
     1
 79
     5
176
     1
170
     0
176
     1
171
     0
176
     1
290
     0
176
     1
 93
       13
176
     1
 44
0.0
176
     1
173
     0
176
     1
  0
VISUALSTYLE
  5
2E
102
{ACAD_REACTORS
330
2A
102
}
330
2A
100
AcDbVisualStyle
  2
GouraudWithEdges
 70
     3
177
     2
291
     1
 71
     2
176
     1
 72
     2
176
     1
 73
     1
176
     1
 90
        2
176
     1
 40
-0.6
176
     1
 41
30.0
176
     1
 62
     5
 63
     7
421
 16777215
176
     1
 74
     1
176
     1
 91
        4
176
     1
 64
     7
176
     1
 65
   257
176
     1
 75
     1
176
     1
175
     1
176
     1
 42
1.0
176
     1
 92
        0
176
     1
 66
   257
176
     1
 43
1.0
176
     1
 76
     1
176
     1
 77
     6
176
     1
 78
     2
176
     1
 67
     7
176
     1
 79
     5
176
     1
170
     0
176
     1
171
     0
176
     1
290
     0
176
     1
 93
       13
176
     1
 44
0.0
176
     1
173
     0
176
     1
  0
VISUALSTYLE
  5
38
102
{ACAD_REACTORS
330
2A
102
}
330
2A
100
AcDbVisualStyle
  2
Linepattern
 70
    14
177
     2
291
     1
 71
     2
176
     1
 72
     2
176
     1
 73
     0
176
     1
 90
        0
176
     1
 40
-0.6
176
     1
 41
-30.0
176
     1
 62
     5
 63
     7
421
 16777215
176
     1
 74
     1
176
     1
 91
        4
176
     1
 64
     7
176
     1
 65
   257
176
     1
 75
     7
176
     1
175
     7
176
     1
 42
1.0
176
     1
 92
        8
176
     1
 66
     7
176
     1
 43
1.0
176
     1
 76
     1
176
     1
 77
     6
176
     1
 78
     2
176
     1
 67
     7
176
     1
 79
     5
176
     1
170
     0
176
     1
171
     0
176
     1
290
     0
176
     1
 93
        1
176
     1
 44
0.0
176
     1
173
     0
176
     1
  0
VISUALSTYLE
  5
33
102
{ACAD_REACTORS
330
2A
102
}
330
2A
100
AcDbVisualStyle
  2
Realistic
 70
     8
177
     2
291
     0
 71
     2
176
     1
 72
     2
176
     1
 73
     0
176
     1
 90
        0
176
     1
 40
-0.6
176
     1
 41
-30.0
176
     1
 62
     5
 63
     7
421
 16777215
176
     1
 74
     1
176
     1
 91
        0
176
     1
 64
     7
176
     1
 65
   257
176
     1
 75
     1
176
     1
175
     1
176
     1
 42
1.0
176
     1
 92
        8
176
     1
 66
     8
424
  7895160
176
     1
 43
1.0
176
     1
 76
     1
176
     1
 77
     6
176
     1
 78
     2
176
     1
 67
     7
176
     1
 79
     5
176
     1
170
     0
176
     1
171
     0
176
     1
290
     0
176
     1
 93
       13
176
     1
 44
0.0
176
     1
173
     0
176
     1
  0
VISUALSTYLE
  5
37
102
{ACAD_REACTORS
330
2A
102
}
330
2A
100
AcDbVisualStyle
  2
Thicken
 70
    13
177
     2
291
     1
 71
     2
176
     1
 72
     2
176
     1
 73
     0
176
     1
 90
        0
176
     1
 40
-0.6
176
     1
 41
-30.0
176
     1
 62
     5
 63
     7
421
 16777215
176
     1
 74
     1
176
     1
 91
        4
176
     1
 64
     7
176
     1
 65
   257
176
     1
 75
     1
176
     1
175
     1
176
     1
 42
1.0
176
     1
 92
       12
176
     1
 66
     7
176
     1
 43
1.0
176
     1
 76
     1
176
     1
 77
     6
176
     1
 78
     2
176
     1
 67
     7
176
     1
 79
     5
176
     1
170
     0
176
     1
171
     0
176
     1
290
     0
176
     1
 93
        1
176
     1
 44
0.0
176
     1
173
     0
176
     1
  0
ENDSEC
  0
EOF
