  0
SECTION
  2
HEADER
  9
$ACADVER
  1
AC1024
  9
$ACADMAINTVER
 70
     6
  9
$DWGCODEPAGE
  3
UNDEFINED
  9
$INSBASE
 10
0.0
 20
0.0
 30
0.0
  9
$EXTMIN
 10
1.000000000000000E+20
 20
1.000000000000000E+20
 30
1.000000000000000E+20
  9
$EXTMAX
 10
-1.000000000000000E+20
 20
-1.000000000000000E+20
 30
-1.000000000000000E+20
  9
$LIMMIN
 10
0.0
 20
0.0
  9
$LIMMAX
 10
12.0
 20
9.0
  9
$ORTHOMODE
 70
     0
  9
$REGENMODE
 70
     1
  9
$FILLMODE
 70
     1
  9
$QTEXTMODE
 70
     0
  9
$MIRRTEXT
 70
     1
  9
$LTSCALE
 40
1.0
  9
$ATTMODE
 70
     1
  9
$TEXTSIZE
 40
0.2
  9
$TRACEWID
 40
0.05
  9
$TEXTSTYLE
  7
Standard
  9
$CLAYER
  8
0
  9
$CELTYPE
  6
ByLayer
  9
$CECOLOR
 62
   256
  9
$CELTSCALE
 40
1.0
  9
$DISPSILH
 70
     0
  9
$DIMSCALE
 40
1.0
  9
$DIMASZ
 40
0.18
  9
$DIMEXO
 40
0.0625
  9
$DIMDLI
 40
0.38
  9
$DIMRND
 40
0.0
  9
$DIMDLE
 40
0.0
  9
$DIMEXE
 40
0.18
  9
$DIMTP
 40
0.0
  9
$DIMTM
 40
0.0
  9
$DIMTXT
 40
0.18
  9
$DIMCEN
 40
0.09
  9
$DIMTSZ
 40
0.0
  9
$DIMTOL
 70
     0
  9
$DIMLIM
 70
     0
  9
$DIMTIH
 70
     1
  9
$DIMTOH
 70
     1
  9
$DIMSE1
 70
     0
  9
$DIMSE2
 70
     0
  9
$DIMTAD
 70
     0
  9
$DIMZIN
 70
     0
  9
$DIMBLK
  1

  9
$DIMASO
 70
     1
  9
$DIMSHO
 70
     1
  9
$DIMPOST
  1

  9
$DIMAPOST
  1

  9
$DIMALT
 70
     0
  9
$DIMALTD
 70
     2
  9
$DIMALTF
 40
25.4
  9
$DIMLFAC
 40
1.0
  9
$DIMTOFL
 70
     0
  9
$DIMTVP
 40
0.0
  9
$DIMTIX
 70
     0
  9
$DIMSOXD
 70
     0
  9
$DIMSAH
 70
     0
  9
$DIMBLK1
  1

  9
$DIMBLK2
  1

  9
$DIMSTYLE
  2
Standard
  9
$DIMCLRD
 70
     0
  9
$DIMCLRE
 70
     0
  9
$DIMCLRT
 70
     0
  9
$DIMTFAC
 40
1.0
  9
$DIMGAP
 40
0.09
  9
$DIMJUST
 70
     0
  9
$DIMSD1
 70
     0
  9
$DIMSD2
 70
     0
  9
$DIMTOLJ
 70
     1
  9
$DIMTZIN
 70
     0
  9
$DIMALTZ
 70
     0
  9
$DIMALTTZ
 70
     0
  9
$DIMUPT
 70
     0
  9
$DIMDEC
 70
     4
  9
$DIMTDEC
 70
     4
  9
$DIMALTU
 70
     2
  9
$DIMALTTD
 70
     2
  9
$DIMTXSTY
  7
Standard
  9
$DIMAUNIT
 70
     0
  9
$DIMADEC
 70
     0
  9
$DIMALTRND
 40
0.0
  9
$DIMAZIN
 70
     0
  9
$DIMDSEP
 70
    46
  9
$DIMATFIT
 70
     3
  9
$DIMFRAC
 70
     0
  9
$DIMLDRBLK
  1

  9
$DIMLUNIT
 70
     2
  9
$DIMLWD
 70
    -2
  9
$DIMLWE
 70
    -2
  9
$DIMTMOVE
 70
     0
  9
$DIMFXL
 40
1.0
  9
$DIMFXLON
 70
     0
  9
$DIMJOGANG
 40
0.7853981633974483
  9
$DIMTFILL
 70
     0
  9
$DIMTFILLCLR
 70
     0
  9
$DIMARCSYM
 70
     0
  9
$DIMLTYPE
  6

  9
$DIMLTEX1
  6

  9
$DIMLTEX2
  6

  9
$DIMTXTDIRECTION
 70
     0
  9
$LUNITS
 70
     2
  9
$LUPREC
 70
     4
  9
$SKETCHINC
 40
0.1
  9
$FILLETRAD
 40
0.5
  9
$AUNITS
 70
     0
  9
$AUPREC
 70
     0
  9
$MENU
  1
.
  9
$ELEVATION
 40
0.0
  9
$PELEVATION
 40
0.0
  9
$THICKNESS
 40
0.0
  9
$LIMCHECK
 70
     0
  9
$CHAMFERA
 40
0.5
  9
$CHAMFERB
 40
0.5
  9
$CHAMFERC
 40
1.0
  9
$CHAMFERD
 40
0.0
  9
$SKPOLY
 70
     0
  9
$TDCREATE
 40
2457917.58440971
  9
$TDUCREATE
 40
2457917.209409722
  9
$TDUPDATE
 40
2457917.58440971
  9
$TDUUPDATE
 40
2457917.209409722
  9
$TDINDWG
 40
0.0000000116
  9
$TDUSRTIMER
 40
0.0000000116
  9
$USRTIMER
 70
     1
  9
$ANGBASE
 50
0.0
  9
$ANGDIR
 70
     0
  9
$PDMODE
 70
     0
  9
$PDSIZE
 40
0.0
  9
$PLINEWID
 40
0.0
  9
$SPLFRAME
 70
     0
  9
$SPLINETYPE
 70
     6
  9
$SPLINESEGS
 70
     8
  9
$HANDSEED
  5
16B
  9
$SURFTAB1
 70
     6
  9
$SURFTAB2
 70
     6
  9
$SURFTYPE
 70
     6
  9
$SURFU
 70
     6
  9
$SURFV
 70
     6
  9
$UCSBASE
  2

  9
$UCSNAME
  2

  9
$UCSORG
 10
0.0
 20
0.0
 30
0.0
  9
$UCSXDIR
 10
1.0
 20
0.0
 30
0.0
  9
$UCSYDIR
 10
0.0
 20
1.0
 30
0.0
  9
$UCSORTHOREF
  2

  9
$UCSORTHOVIEW
 70
     0
  9
$UCSORGTOP
 10
0.0
 20
0.0
 30
0.0
  9
$UCSORGBOTTOM
 10
0.0
 20
0.0
 30
0.0
  9
$UCSORGLEFT
 10
0.0
 20
0.0
 30
0.0
  9
$UCSORGRIGHT
 10
0.0
 20
0.0
 30
0.0
  9
$UCSORGFRONT
 10
0.0
 20
0.0
 30
0.0
  9
$UCSORGBACK
 10
0.0
 20
0.0
 30
0.0
  9
$PUCSBASE
  2

  9
$PUCSNAME
  2

  9
$PUCSORG
 10
0.0
 20
0.0
 30
0.0
  9
$PUCSXDIR
 10
1.0
 20
0.0
 30
0.0
  9
$PUCSYDIR
 10
0.0
 20
1.0
 30
0.0
  9
$PUCSORTHOREF
  2

  9
$PUCSORTHOVIEW
 70
     0
  9
$PUCSORGTOP
 10
0.0
 20
0.0
 30
0.0
  9
$PUCSORGBOTTOM
 10
0.0
 20
0.0
 30
0.0
  9
$PUCSORGLEFT
 10
0.0
 20
0.0
 30
0.0
  9
$PUCSORGRIGHT
 10
0.0
 20
0.0
 30
0.0
  9
$PUCSORGFRONT
 10
0.0
 20
0.0
 30
0.0
  9
$PUCSORGBACK
 10
0.0
 20
0.0
 30
0.0
  9
$USERI1
 70
     0
  9
$USERI2
 70
     0
  9
$USERI3
 70
     0
  9
$USERI4
 70
     0
  9
$USERI5
 70
     0
  9
$USERR1
 40
0.0
  9
$USERR2
 40
0.0
  9
$USERR3
 40
0.0
  9
$USERR4
 40
0.0
  9
$USERR5
 40
0.0
  9
$WORLDVIEW
 70
     1
  9
$SHADEDGE
 70
     3
  9
$SHADEDIF
 70
    70
  9
$TILEMODE
 70
     1
  9
$MAXACTVP
 70
    64
  9
$PINSBASE
 10
0.0
 20
0.0
 30
0.0
  9
$PLIMCHECK
 70
     0
  9
$PEXTMIN
 10
1.000000000000000E+20
 20
1.000000000000000E+20
 30
1.000000000000000E+20
  9
$PEXTMAX
 10
-1.000000000000000E+20
 20
-1.000000000000000E+20
 30
-1.000000000000000E+20
  9
$PLIMMIN
 10
0.0
 20
0.0
  9
$PLIMMAX
 10
12.0
 20
9.0
  9
$UNITMODE
 70
     0
  9
$VISRETAIN
 70
     1
  9
$PLINEGEN
 70
     0
  9
$PSLTSCALE
 70
     1
  9
$TREEDEPTH
 70
  3020
  9
$CMLSTYLE
  2
Standard
  9
$CMLJUST
 70
     0
  9
$CMLSCALE
 40
1.0
  9
$PROXYGRAPHICS
 70
     1
  9
$MEASUREMENT
 70
     0
  9
$CELWEIGHT
370
    -1
  9
$ENDCAPS
280
     0
  9
$JOINSTYLE
280
     0
  9
$LWDISPLAY
290
     1
  9
$INSUNITS
 70
     1
  9
$HYPERLINKBASE
  1

  9
$STYLESHEET
  1

  9
$XEDIT
290
     1
  9
$CEPSNTYPE
380
     0
  9
$PSTYLEMODE
290
     1
  9
$FINGERPRINTGUID
  2
{F77915D3-D1C8-CD88-3C63-600D878DBD42}
  9
$VERSIONGUID
  2
{FAEB1C32-E019-11D5-929B-00C0DF256EC4}
  9
$EXTNAMES
290
     1
  9
$PSVPSCALE
 40
0.0
  9
$OLESTARTUP
290
     0
  9
$SORTENTS
280
   127
  9
$INDEXCTL
280
     0
  9
$HIDETEXT
280
     1
  9
$XCLIPFRAME
280
     2
  9
$HALOGAP
280
     0
  9
$OBSCOLOR
 70
   257
  9
$OBSLTYPE
280
     0
  9
$INTERSECTIONDISPLAY
280
     0
  9
$INTERSECTIONCOLOR
 70
   257
  9
$DIMASSOC
280
     2
  9
$PROJECTNAME
  1

  9
$CAMERADISPLAY
290
     0
  9
$LENSLENGTH
 40
50.0
  9
$CAMERAHEIGHT
 40
0.0
  9
$STEPSPERSEC
 40
2.0
  9
$STEPSIZE
 40
6.0
  9
$3DDWFPREC
 40
2.0
  9
$PSOLWIDTH
 40
0.25
  9
$PSOLHEIGHT
 40
4.0
  9
$LOFTANG1
 40
1.570796326794897
  9
$LOFTANG2
 40
1.570796326794897
  9
$LOFTMAG1
 40
0.0
  9
$LOFTMAG2
 40
0.0
  9
$LOFTPARAM
 70
     7
  9
$LOFTNORMALS
280
     1
  9
$LATITUDE
 40
37.795
  9
$LONGITUDE
 40
-122.394
  9
$NORTHDIRECTION
 40
0.0
  9
$TIMEZONE
 70
 -8000
  9
$LIGHTGLYPHDISPLAY
280
     1
  9
$TILEMODELIGHTSYNCH
280
     1
  9
$CMATERIAL
347
3C
  9
$SOLIDHIST
280
     1
  9
$SHOWHIST
280
     1
  9
$DWFFRAME
280
     2
  9
$DGNFRAME
280
     2
  9
$REALWORLDSCALE
290
     1
  9
$INTERFERECOLOR
 62
   256
  9
$CSHADOW
280
     0
  9
$SHADOWPLANELOCATION
 40
0.0
  0
ENDSEC
  0
SECTION
  2
CLASSES
  0
CLASS
  1
ACDBDICTIONARYWDFLT
  2
AcDbDictionaryWithDefault
  3
ObjectDBX Classes
 90
        0
 91
        4
280
     0
281
     0
  0
CLASS
  1
VISUALSTYLE
  2
AcDbVisualStyle
  3
ObjectDBX Classes
 90
     4095
 91
        4
280
     0
281
     0
  0
CLASS
  1
MATERIAL
  2
AcDbMaterial
  3
ObjectDBX Classes
 90
     1153
 91
        4
280
     0
281
     0
  0
CLASS
  1
SUN
  2
AcDbSun
  3
SCENEOE
 90
     1024
 91
        4
280
     0
281
     0
  0
ENDSEC
  0
SECTION
  2
TABLES
  0
TABLE
  2
VPORT
  5
8
330
0
100
AcDbSymbolTable
 70
     1
  0
VPORT
  5
29
330
8
100
AcDbSymbolTableRecord
100
AcDbViewportTableRecord
  2
*Active
 70
     0
 10
0.0
 20
0.0
 11
1.0
 21
1.0
 12
0.0
 22
0.0
 13
0.0
 23
0.0
 14
0.5
 24
0.5
 15
0.5
 25
0.5
 16
0.0
 26
0.0
 36
1.0
 17
91.00082462281999
 27
-128.4993055234307
 37
0.0
 40
256.9986110468615
 41
0.7081814508812795
 42
50.0
 43
0.0
 44
0.0
 50
0.0
 51
0.0
 71
     0
 72
   100
 73
     1
 74
     3
 75
     0
 76
     0
 77
     0
 78
     0
281
     0
 65
     1
110
0.0
120
0.0
130
0.0
111
1.0
121
0.0
131
0.0
112
0.0
122
1.0
132
0.0
 79
     0
146
0.0
 60
     3
 61
     5
292
     1
282
     1
141
0.0
142
0.0
 63
   250
361
3F
  0
ENDTAB
  0
TABLE
  2
LTYPE
  5
5
330
0
100
AcDbSymbolTable
 70
     1
  0
LTYPE
  5
14
330
5
100
AcDbSymbolTableRecord
100
AcDbLinetypeTableRecord
  2
ByBlock
 70
     0
  3

 72
    65
 73
     0
 40
0.0
  0
LTYPE
  5
15
330
5
100
AcDbSymbolTableRecord
100
AcDbLinetypeTableRecord
  2
ByLayer
 70
     0
  3

 72
    65
 73
     0
 40
0.0
  0
LTYPE
  5
16
330
5
100
AcDbSymbolTableRecord
100
AcDbLinetypeTableRecord
  2
Continuous
 70
     0
  3
Solid line
 72
    65
 73
     0
 40
0.0
  0
ENDTAB
  0
TABLE
  2
LAYER
  5
2
330
0
100
AcDbSymbolTable
 70
     2
  0
LAYER
  5
10
330
2
100
AcDbSymbolTableRecord
100
AcDbLayerTableRecord
  2
0
 70
     0
 62
     7
  6
Continuous
370
    -3
390
F
347
3E
  0
LAYER
  5
40
330
2
100
AcDbSymbolTableRecord
100
AcDbLayerTableRecord
  2
_U+30EC_U+30A4_U+30E4_U+30FC 1
 70
     0
 62
     7
  6
Continuous
370
    -3
390
F
347
3E
  0
ENDTAB
  0
TABLE
  2
STYLE
  5
3
330
0
100
AcDbSymbolTable
 70
     1
  0
STYLE
  5
11
330
3
100
AcDbSymbolTableRecord
100
AcDbTextStyleTableRecord
  2
Standard
 70
     0
 40
0.0
 41
1.0
 50
0.0
 71
     0
 42
0.2
  3
txt
  4

  0
ENDTAB
  0
TABLE
  2
VIEW
  5
6
330
0
100
AcDbSymbolTable
 70
     0
  0
ENDTAB
  0
TABLE
  2
UCS
  5
7
330
0
100
AcDbSymbolTable
 70
     0
  0
ENDTAB
  0
TABLE
  2
APPID
  5
9
330
0
100
AcDbSymbolTable
 70
     1
  0
APPID
  5
12
330
9
100
AcDbSymbolTableRecord
100
AcDbRegAppTableRecord
  2
ACAD
 70
     0
  0
ENDTAB
  0
TABLE
  2
DIMSTYLE
  5
A
330
0
100
AcDbSymbolTable
 70
     1
100
AcDbDimStyleTable
  0
DIMSTYLE
105
27
330
A
100
AcDbSymbolTableRecord
100
AcDbDimStyleTableRecord
  2
Standard
 70
     0
178
     0
340
11
  0
ENDTAB
  0
TABLE
  2
BLOCK_RECORD
  5
1
330
0
100
AcDbSymbolTable
 70
     9
  0
BLOCK_RECORD
  5
1F
330
1
100
AcDbSymbolTableRecord
100
AcDbBlockTableRecord
  2
*Model_Space
340
22
 70
     0
280
     1
281
     0
  0
BLOCK_RECORD
  5
1B
330
1
100
AcDbSymbolTableRecord
100
AcDbBlockTableRecord
  2
*Paper_Space
340
1E
 70
     0
280
     1
281
     0
  0
BLOCK_RECORD
  5
23
330
1
100
AcDbSymbolTableRecord
100
AcDbBlockTableRecord
  2
*Paper_Space0
340
26
 70
     0
280
     1
281
     0
  0
BLOCK_RECORD
  5
51
330
1
100
AcDbSymbolTableRecord
100
AcDbBlockTableRecord
  2
block 2
340
0
102
{BLKREFS
331
52
102
}
 70
     0
280
     1
281
     0
  0
BLOCK_RECORD
  5
5B
330
1
100
AcDbSymbolTableRecord
100
AcDbBlockTableRecord
  2
block 3
340
0
102
{BLKREFS
331
5C
102
}
 70
     0
280
     1
281
     0
  0
BLOCK_RECORD
  5
D1
330
1
100
AcDbSymbolTableRecord
100
AcDbBlockTableRecord
  2
block 4
340
0
102
{BLKREFS
331
D2
102
}
 70
     0
280
     1
281
     0
  0
BLOCK_RECORD
  5
119
330
1
100
AcDbSymbolTableRecord
100
AcDbBlockTableRecord
  2
block 5
340
0
102
{BLKREFS
331
11A
102
}
 70
     0
280
     1
281
     0
  0
BLOCK_RECORD
  5
12D
330
1
100
AcDbSymbolTableRecord
100
AcDbBlockTableRecord
  2
block 6
340
0
102
{BLKREFS
331
12E
102
}
 70
     0
280
     1
281
     0
  0
BLOCK_RECORD
  5
13E
330
1
100
AcDbSymbolTableRecord
100
AcDbBlockTableRecord
  2
block 7
340
0
102
{BLKREFS
331
13F
102
}
 70
     0
280
     1
281
     0
  0
BLOCK_RECORD
  5
149
330
1
100
AcDbSymbolTableRecord
100
AcDbBlockTableRecord
  2
block 8
340
0
102
{BLKREFS
331
14A
102
}
 70
     0
280
     1
281
     0
  0
BLOCK_RECORD
  5
163
330
1
100
AcDbSymbolTableRecord
100
AcDbBlockTableRecord
  2
block 9
340
0
102
{BLKREFS
331
164
102
}
 70
     0
280
     1
281
     0
  0
ENDTAB
  0
ENDSEC
  0
SECTION
  2
BLOCKS
  0
BLOCK
  5
20
330
1F
100
AcDbEntity
  8
0
100
AcDbBlockBegin
  2
*Model_Space
 70
     0
 10
0.0
 20
0.0
 30
0.0
  3
*Model_Space
  1

  0
ENDBLK
  5
21
330
1F
100
AcDbEntity
  8
0
100
AcDbBlockEnd
  0
BLOCK
  5
1C
330
1B
100
AcDbEntity
 67
     1
  8
0
100
AcDbBlockBegin
  2
*Paper_Space
 70
     0
 10
0.0
 20
0.0
 30
0.0
  3
*Paper_Space
  1

  0
ENDBLK
  5
1D
330
1B
100
AcDbEntity
 67
     1
  8
0
100
AcDbBlockEnd
  0
BLOCK
  5
24
330
23
100
AcDbEntity
  8
0
100
AcDbBlockBegin
  2
*Paper_Space0
 70
     0
 10
0.0
 20
0.0
 30
0.0
  3
*Paper_Space0
  1

  0
ENDBLK
  5
25
330
23
100
AcDbEntity
  8
0
100
AcDbBlockEnd
  0
BLOCK
  5
53
330
51
100
AcDbEntity
  8
0
100
AcDbBlockBegin
  2
block 2
 70
     0
 10
0.0
 20
0.0
 30
0.0
  3
block 2
  1

  0
SPLINE
  5
55
330
51
100
AcDbEntity
  8
_U+30EC_U+30A4_U+30E4_U+30FC 1
 62
   179
420
  2234388
370
     9
100
AcDbSpline
210
0.0
220
0.0
230
1.0
 70
    11
 71
     3
 72
    17
 73
    13
 74
     0
 42
0.0000000001
 43
0.0000000001
 12
1.0
 22
0.0
 32
0.0
 13
1.0
 23
0.0
 33
0.0
 40
0.0
 40
0.0
 40
0.0
 40
0.0
 40
1.0
 40
1.0
 40
1.0
 40
2.0
 40
2.0
 40
2.0
 40
3.0
 40
3.0
 40
3.0
 40
4.0
 40
4.0
 40
4.0
 40
4.0
 10
58.36337767769285
 20
-134.2106013553364
 30
0.0
 10
58.36337767769285
 20
-134.1554621886833
 30
0.0
 10
58.31857490105809
 20
-134.1106946886948
 30
0.0
 10
58.26347101357502
 20
-134.1106946886948
 30
0.0
 10
58.20833331878125
 20
-134.1106946886948
 30
0.0
 10
58.16353054101453
 20
-134.1554621886833
 30
0.0
 10
58.16353054101453
 20
-134.2106013553364
 30
0.0
 10
58.16353054101453
 20
-134.2657052442113
 30
0.0
 10
58.20833331878125
 20
-134.310508021978
 30
0.0
 10
58.26347101357502
 20
-134.310508021978
 30
0.0
 10
58.31857490105809
 20
-134.310508021978
 30
0.0
 10
58.36337767769285
 20
-134.2657052442113
 30
0.0
 10
58.36337767769285
 20
-134.2106013553364
 30
0.0
  0
SPLINE
  5
56
330
51
100
AcDbEntity
  8
_U+30EC_U+30A4_U+30E4_U+30FC 1
 62
   179
420
  2234388
370
     9
100
AcDbSpline
210
0.0
220
0.0
230
1.0
 70
    11
 71
     3
 72
    17
 73
    13
 74
     0
 42
0.0000000001
 43
0.0000000001
 12
1.0
 22
0.0
 32
0.0
 13
1.0
 23
0.0
 33
0.0
 40
0.0
 40
0.0
 40
0.0
 40
0.0
 40
1.0
 40
1.0
 40
1.0
 40
2.0
 40
2.0
 40
2.0
 40
3.0
 40
3.0
 40
3.0
 40
4.0
 40
4.0
 40
4.0
 40
4.0
 10
58.36337767769285
 20
-124.2106919133919
 30
0.0
 10
58.36337767769285
 20
-124.1555527467389
 30
0.0
 10
58.31857490105809
 20
-124.11078524675
 30
0.0
 10
58.26347101357502
 20
-124.11078524675
 30
0.0
 10
58.20833331878125
 20
-124.11078524675
 30
0.0
 10
58.16353054101453
 20
-124.1555527467389
 30
0.0
 10
58.16353054101453
 20
-124.2106919133919
 30
0.0
 10
58.16353054101453
 20
-124.2657958022669
 30
0.0
 10
58.20833331878125
 20
-124.3105985800336
 30
0.0
 10
58.26347101357502
 20
-124.3105985800336
 30
0.0
 10
58.31857490105809
 20
-124.3105985800336
 30
0.0
 10
58.36337767769285
 20
-124.2657958022669
 30
0.0
 10
58.36337767769285
 20
-124.2106919133919
 30
0.0
  0
POLYLINE
  5
57
330
51
100
AcDbEntity
  8
_U+30EC_U+30A4_U+30E4_U+30FC 1
 62
   179
420
  2234388
370
     9
100
AcDb2dPolyline
 66
     1
 10
0.0
 20
0.0
 30
0.0
  0
VERTEX
  5
58
330
57
100
AcDbEntity
  8
_U+30EC_U+30A4_U+30E4_U+30FC 1
 62
   179
420
  2234388
370
     9
100
AcDbVertex
100
AcDb2dVertex
 10
58.26347101357502
 20
-124.2106919133919
 30
0.0
  0
VERTEX
  5
59
330
57
100
AcDbEntity
  8
_U+30EC_U+30A4_U+30E4_U+30FC 1
 62
   179
420
  2234388
370
     9
100
AcDbVertex
100
AcDb2dVertex
 10
58.26347101357502
 20
-134.2106013553364
 30
0.0
  0
SEQEND
  5
5A
330
57
100
AcDbEntity
  8
_U+30EC_U+30A4_U+30E4_U+30FC 1
 62
   179
420
  2234388
370
     9
  0
INSERT
  5
5C
330
51
100
AcDbEntity
  8
_U+30EC_U+30A4_U+30E4_U+30FC 1
100
AcDbBlockReference
  2
block 3
 10
0.0
 20
0.0
 30
0.0
  0
INSERT
  5
13F
330
51
100
AcDbEntity
  8
_U+30EC_U+30A4_U+30E4_U+30FC 1
100
AcDbBlockReference
  2
block 7
 10
0.0
 20
0.0
 30
0.0
  0
ENDBLK
  5
54
330
51
100
AcDbEntity
  8
0
100
AcDbBlockEnd
  0
BLOCK
  5
5D
330
5B
100
AcDbEntity
  8
0
100
AcDbBlockBegin
  2
block 3
 70
     0
 10
0.0
 20
0.0
 30
0.0
  3
block 3
  1

  0
POLYLINE
  5
5F
330
5B
100
AcDbEntity
  8
_U+30EC_U+30A4_U+30E4_U+30FC 1
 62
   179
420
  2234388
370
    25
100
AcDb2dPolyline
 66
     1
 10
0.0
 20
0.0
 30
0.0
  0
VERTEX
  5
60
330
5F
100
AcDbEntity
  8
_U+30EC_U+30A4_U+30E4_U+30FC 1
 62
   179
420
  2234388
370
    25
100
AcDbVertex
100
AcDb2dVertex
 10
74.26349504982484
 20
-135.2103382995308
 30
0.0
  0
VERTEX
  5
61
330
5F
100
AcDbEntity
  8
_U+30EC_U+30A4_U+30E4_U+30FC 1
 62
   179
420
  2234388
370
    25
100
AcDbVertex
100
AcDb2dVertex
 10
112.2629171359344
 20
-135.2103382995308
 30
0.0
  0
SEQEND
  5
62
330
5F
100
AcDbEntity
  8
_U+30EC_U+30A4_U+30E4_U+30FC 1
 62
   179
420
  2234388
370
    25
  0
POLYLINE
  5
63
330
5B
100
AcDbEntity
  8
_U+30EC_U+30A4_U+30E4_U+30FC 1
 62
   179
420
  2234388
370
    25
100
AcDb2dPolyline
 66
     1
 10
0.0
 20
0.0
 30
0.0
  0
VERTEX
  5
64
330
63
100
AcDbEntity
  8
_U+30EC_U+30A4_U+30E4_U+30FC 1
 62
   179
420
  2234388
370
    25
100
AcDbVertex
100
AcDb2dVertex
 10
83.26349093132693
 20
-133.7103624665727
 30
0.0
  0
VERTEX
  5
65
330
63
100
AcDbEntity
  8
_U+30EC_U+30A4_U+30E4_U+30FC 1
 62
   179
420
  2234388
370
    25
100
AcDbVertex
100
AcDb2dVertex
 10
103.2629565322092
 20
-133.7103624665727
 30
0.0
  0
SEQEND
  5
66
330
63
100
AcDbEntity
  8
_U+30EC_U+30A4_U+30E4_U+30FC 1
 62
   179
420
  2234388
370
    25
  0
POLYLINE
  5
67
330
5B
100
AcDbEntity
  8
_U+30EC_U+30A4_U+30E4_U+30FC 1
 62
   179
420
  2234388
370
    25
100
AcDb2dPolyline
 66
     1
 10
0.0
 20
0.0
 30
0.0
  0
VERTEX
  5
68
330
67
100
AcDbEntity
  8
_U+30EC_U+30A4_U+30E4_U+30FC 1
 62
   179
420
  2234388
370
    25
100
AcDbVertex
100
AcDb2dVertex
 10
83.26349093132693
 20
-123.2100377469753
 30
0.0
  0
VERTEX
  5
69
330
67
100
AcDbEntity
  8
_U+30EC_U+30A4_U+30E4_U+30FC 1
 62
   179
420
  2234388
370
    25
100
AcDbVertex
100
AcDb2dVertex
 10
83.26349093132693
 20
-133.7103624665727
 30
0.0
  0
SEQEND
  5
6A
330
67
100
AcDbEntity
  8
_U+30EC_U+30A4_U+30E4_U+30FC 1
 62
   179
420
  2234388
370
    25
  0
POLYLINE
  5
6B
330
5B
100
AcDbEntity
  8
_U+30EC_U+30A4_U+30E4_U+30FC 1
 62
   179
420
  2234388
370
    25
100
AcDb2dPolyline
 66
     1
 10
0.0
 20
0.0
 30
0.0
  0
VERTEX
  5
6C
330
6B
100
AcDbEntity
  8
_U+30EC_U+30A4_U+30E4_U+30FC 1
 62
   179
420
  2234388
370
    25
100
AcDbVertex
100
AcDb2dVertex
 10
73.26305257534825
 20
-134.2106013553364
 30
0.0
  0
VERTEX
  5
6D
330
6B
100
AcDbEntity
  8
_U+30EC_U+30A4_U+30E4_U+30FC 1
 62
   179
420
  2234388
370
    25
100
AcDbVertex
100
AcDb2dVertex
 10
82.26301317907347
 20
-134.2106013553364
 30
0.0
  0
SEQEND
  5
6E
330
6B
100
AcDbEntity
  8
_U+30EC_U+30A4_U+30E4_U+30FC 1
 62
   179
420
  2234388
370
    25
  0
POLYLINE
  5
6F
330
5B
100
AcDbEntity
  8
_U+30EC_U+30A4_U+30E4_U+30FC 1
 62
   179
420
  2234388
370
    25
100
AcDb2dPolyline
 66
     1
 10
0.0
 20
0.0
 30
0.0
  0
VERTEX
  5
70
330
6F
100
AcDbEntity
  8
_U+30EC_U+30A4_U+30E4_U+30FC 1
 62
   179
420
  2234388
370
    25
100
AcDbVertex
100
AcDb2dVertex
 10
73.26305257534825
 20
-134.2106013553364
 30
0.0
  0
VERTEX
  5
71
330
6F
100
AcDbEntity
  8
_U+30EC_U+30A4_U+30E4_U+30FC 1
 62
   179
420
  2234388
370
    25
100
AcDbVertex
100
AcDb2dVertex
 10
74.26349504982484
 20
-135.2103382995308
 30
0.0
  0
SEQEND
  5
72
330
6F
100
AcDbEntity
  8
_U+30EC_U+30A4_U+30E4_U+30FC 1
 62
   179
420
  2234388
370
    25
  0
POLYLINE
  5
73
330
5B
100
AcDbEntity
  8
_U+30EC_U+30A4_U+30E4_U+30FC 1
 62
   179
420
  2234388
370
    25
100
AcDb2dPolyline
 66
     1
 10
0.0
 20
0.0
 30
0.0
  0
VERTEX
  5
74
330
73
100
AcDbEntity
  8
_U+30EC_U+30A4_U+30E4_U+30FC 1
 62
   179
420
  2234388
370
    25
100
AcDbVertex
100
AcDb2dVertex
 10
82.26301317907347
 20
-124.2106919133919
 30
0.0
  0
VERTEX
  5
75
330
73
100
AcDbEntity
  8
_U+30EC_U+30A4_U+30E4_U+30FC 1
 62
   179
420
  2234388
370
    25
100
AcDbVertex
100
AcDb2dVertex
 10
82.26301317907347
 20
-134.2106013553364
 30
0.0
  0
SEQEND
  5
76
330
73
100
AcDbEntity
  8
_U+30EC_U+30A4_U+30E4_U+30FC 1
 62
   179
420
  2234388
370
    25
  0
POLYLINE
  5
77
330
5B
100
AcDbEntity
  8
_U+30EC_U+30A4_U+30E4_U+30FC 1
 62
   179
420
  2234388
370
    25
100
AcDb2dPolyline
 66
     1
 10
0.0
 20
0.0
 30
0.0
  0
VERTEX
  5
78
330
77
100
AcDbEntity
  8
_U+30EC_U+30A4_U+30E4_U+30FC 1
 62
   179
420
  2234388
370
    25
100
AcDbVertex
100
AcDb2dVertex
 10
61.26275232594587
 20
-124.2106919133919
 30
0.0
  0
VERTEX
  5
79
330
77
100
AcDbEntity
  8
_U+30EC_U+30A4_U+30E4_U+30FC 1
 62
   179
420
  2234388
370
    25
100
AcDbVertex
100
AcDb2dVertex
 10
82.26301317907347
 20
-124.2106919133919
 30
0.0
  0
SEQEND
  5
7A
330
77
100
AcDbEntity
  8
_U+30EC_U+30A4_U+30E4_U+30FC 1
 62
   179
420
  2234388
370
    25
  0
POLYLINE
  5
7B
330
5B
100
AcDbEntity
  8
_U+30EC_U+30A4_U+30E4_U+30FC 1
 62
   179
420
  2234388
370
    25
100
AcDb2dPolyline
 66
     1
 10
0.0
 20
0.0
 30
0.0
  0
VERTEX
  5
7C
330
7B
100
AcDbEntity
  8
_U+30EC_U+30A4_U+30E4_U+30FC 1
 62
   179
420
  2234388
370
    25
100
AcDbVertex
100
AcDb2dVertex
 10
60.26298012922996
 20
-123.2100377469753
 30
0.0
  0
VERTEX
  5
7D
330
7B
100
AcDbEntity
  8
_U+30EC_U+30A4_U+30E4_U+30FC 1
 62
   179
420
  2234388
370
    25
100
AcDbVertex
100
AcDb2dVertex
 10
83.26349093132693
 20
-123.2100377469753
 30
0.0
  0
SEQEND
  5
7E
330
7B
100
AcDbEntity
  8
_U+30EC_U+30A4_U+30E4_U+30FC 1
 62
   179
420
  2234388
370
    25
  0
POLYLINE
  5
7F
330
5B
100
AcDbEntity
  8
_U+30EC_U+30A4_U+30E4_U+30FC 1
 62
   179
420
  2234388
370
    25
100
AcDb2dPolyline
 66
     1
 10
0.0
 20
0.0
 30
0.0
  0
VERTEX
  5
80
330
7F
100
AcDbEntity
  8
_U+30EC_U+30A4_U+30E4_U+30FC 1
 62
   179
420
  2234388
370
    25
100
AcDbVertex
100
AcDb2dVertex
 10
60.26298012922996
 20
-123.2100377469753
 30
0.0
  0
VERTEX
  5
81
330
7F
100
AcDbEntity
  8
_U+30EC_U+30A4_U+30E4_U+30FC 1
 62
   179
420
  2234388
370
    25
100
AcDbVertex
100
AcDb2dVertex
 10
61.26275232594587
 20
-124.2106919133919
 30
0.0
  0
SEQEND
  5
82
330
7F
100
AcDbEntity
  8
_U+30EC_U+30A4_U+30E4_U+30FC 1
 62
   179
420
  2234388
370
    25
  0
POLYLINE
  5
83
330
5B
100
AcDbEntity
  8
_U+30EC_U+30A4_U+30E4_U+30FC 1
 62
   179
420
  2234388
370
    25
100
AcDb2dPolyline
 66
     1
 10
0.0
 20
0.0
 30
0.0
  0
VERTEX
  5
84
330
83
100
AcDbEntity
  8
_U+30EC_U+30A4_U+30E4_U+30FC 1
 62
   179
420
  2234388
370
    25
100
AcDbVertex
100
AcDb2dVertex
 10
91.26297378279868
 20
-133.7103624665727
 30
0.0
  0
VERTEX
  5
85
330
83
100
AcDbEntity
  8
_U+30EC_U+30A4_U+30E4_U+30FC 1
 62
   179
420
  2234388
370
    25
100
AcDbVertex
100
AcDb2dVertex
 10
91.26297378279868
 20
-135.2103382995308
 30
0.0
  0
SEQEND
  5
86
330
83
100
AcDbEntity
  8
_U+30EC_U+30A4_U+30E4_U+30FC 1
 62
   179
420
  2234388
370
    25
  0
POLYLINE
  5
87
330
5B
100
AcDbEntity
  8
_U+30EC_U+30A4_U+30E4_U+30FC 1
 62
   179
420
  2234388
370
    25
100
AcDb2dPolyline
 66
     1
 10
0.0
 20
0.0
 30
0.0
  0
VERTEX
  5
88
330
87
100
AcDbEntity
  8
_U+30EC_U+30A4_U+30E4_U+30FC 1
 62
   179
420
  2234388
370
    25
100
AcDbVertex
100
AcDb2dVertex
 10
95.26343840296055
 20
-133.7103624665727
 30
0.0
  0
VERTEX
  5
89
330
87
100
AcDbEntity
  8
_U+30EC_U+30A4_U+30E4_U+30FC 1
 62
   179
420
  2234388
370
    25
100
AcDbVertex
100
AcDb2dVertex
 10
95.26343840296055
 20
-135.2103382995308
 30
0.0
  0
SEQEND
  5
8A
330
87
100
AcDbEntity
  8
_U+30EC_U+30A4_U+30E4_U+30FC 1
 62
   179
420
  2234388
370
    25
  0
POLYLINE
  5
8B
330
5B
100
AcDbEntity
  8
_U+30EC_U+30A4_U+30E4_U+30FC 1
 62
   179
420
  2234388
370
    25
100
AcDb2dPolyline
 66
     1
 10
0.0
 20
0.0
 30
0.0
  0
VERTEX
  5
8C
330
8B
100
AcDbEntity
  8
_U+30EC_U+30A4_U+30E4_U+30FC 1
 62
   179
420
  2234388
370
    25
100
AcDbVertex
100
AcDb2dVertex
 10
126.2630792787605
 20
-123.2100377469753
 30
0.0
  0
VERTEX
  5
8D
330
8B
100
AcDbEntity
  8
_U+30EC_U+30A4_U+30E4_U+30FC 1
 62
   179
420
  2234388
370
    25
100
AcDbVertex
100
AcDb2dVertex
 10
125.2633070820446
 20
-124.2106919133919
 30
0.0
  0
SEQEND
  5
8E
330
8B
100
AcDbEntity
  8
_U+30EC_U+30A4_U+30E4_U+30FC 1
 62
   179
420
  2234388
370
    25
  0
POLYLINE
  5
8F
330
5B
100
AcDbEntity
  8
_U+30EC_U+30A4_U+30E4_U+30FC 1
 62
   179
420
  2234388
370
    25
100
AcDb2dPolyline
 66
     1
 10
0.0
 20
0.0
 30
0.0
  0
VERTEX
  5
90
330
8F
100
AcDbEntity
  8
_U+30EC_U+30A4_U+30E4_U+30FC 1
 62
   179
420
  2234388
370
    25
100
AcDbVertex
100
AcDb2dVertex
 10
125.2633070820446
 20
-124.2106919133919
 30
0.0
  0
VERTEX
  5
91
330
8F
100
AcDbEntity
  8
_U+30EC_U+30A4_U+30E4_U+30FC 1
 62
   179
420
  2234388
370
    25
100
AcDbVertex
100
AcDb2dVertex
 10
104.2633990066858
 20
-124.2106919133919
 30
0.0
  0
SEQEND
  5
92
330
8F
100
AcDbEntity
  8
_U+30EC_U+30A4_U+30E4_U+30FC 1
 62
   179
420
  2234388
370
    25
  0
POLYLINE
  5
93
330
5B
100
AcDbEntity
  8
_U+30EC_U+30A4_U+30E4_U+30FC 1
 62
   179
420
  2234388
370
    25
100
AcDb2dPolyline
 66
     1
 10
0.0
 20
0.0
 30
0.0
  0
VERTEX
  5
94
330
93
100
AcDbEntity
  8
_U+30EC_U+30A4_U+30E4_U+30FC 1
 62
   179
420
  2234388
370
    25
100
AcDbVertex
100
AcDb2dVertex
 10
113.263359610411
 20
-134.2106013553364
 30
0.0
  0
VERTEX
  5
95
330
93
100
AcDbEntity
  8
_U+30EC_U+30A4_U+30E4_U+30FC 1
 62
   179
420
  2234388
370
    25
100
AcDbVertex
100
AcDb2dVertex
 10
112.2629171359344
 20
-135.2103382995308
 30
0.0
  0
SEQEND
  5
96
330
93
100
AcDbEntity
  8
_U+30EC_U+30A4_U+30E4_U+30FC 1
 62
   179
420
  2234388
370
    25
  0
POLYLINE
  5
97
330
5B
100
AcDbEntity
  8
_U+30EC_U+30A4_U+30E4_U+30FC 1
 62
   179
420
  2234388
370
    25
100
AcDb2dPolyline
 66
     1
 10
0.0
 20
0.0
 30
0.0
  0
VERTEX
  5
98
330
97
100
AcDbEntity
  8
_U+30EC_U+30A4_U+30E4_U+30FC 1
 62
   179
420
  2234388
370
    25
100
AcDbVertex
100
AcDb2dVertex
 10
113.263359610411
 20
-134.2106013553364
 30
0.0
  0
VERTEX
  5
99
330
97
100
AcDbEntity
  8
_U+30EC_U+30A4_U+30E4_U+30FC 1
 62
   179
420
  2234388
370
    25
100
AcDbVertex
100
AcDb2dVertex
 10
104.2633990066858
 20
-134.2106013553364
 30
0.0
  0
SEQEND
  5
9A
330
97
100
AcDbEntity
  8
_U+30EC_U+30A4_U+30E4_U+30FC 1
 62
   179
420
  2234388
370
    25
  0
POLYLINE
  5
9B
330
5B
100
AcDbEntity
  8
_U+30EC_U+30A4_U+30E4_U+30FC 1
 62
   179
420
  2234388
370
    25
100
AcDb2dPolyline
 66
     1
 10
0.0
 20
0.0
 30
0.0
  0
VERTEX
  5
9C
330
9B
100
AcDbEntity
  8
_U+30EC_U+30A4_U+30E4_U+30FC 1
 62
   179
420
  2234388
370
    25
100
AcDbVertex
100
AcDb2dVertex
 10
104.2633990066858
 20
-124.2106919133919
 30
0.0
  0
VERTEX
  5
9D
330
9B
100
AcDbEntity
  8
_U+30EC_U+30A4_U+30E4_U+30FC 1
 62
   179
420
  2234388
370
    25
100
AcDbVertex
100
AcDb2dVertex
 10
104.2633990066858
 20
-134.2106013553364
 30
0.0
  0
SEQEND
  5
9E
330
9B
100
AcDbEntity
  8
_U+30EC_U+30A4_U+30E4_U+30FC 1
 62
   179
420
  2234388
370
    25
  0
POLYLINE
  5
9F
330
5B
100
AcDbEntity
  8
_U+30EC_U+30A4_U+30E4_U+30FC 1
 62
   179
420
  2234388
370
    25
100
AcDb2dPolyline
 66
     1
 10
0.0
 20
0.0
 30
0.0
  0
VERTEX
  5
A0
330
9F
100
AcDbEntity
  8
_U+30EC_U+30A4_U+30E4_U+30FC 1
 62
   179
420
  2234388
370
    25
100
AcDbVertex
100
AcDb2dVertex
 10
103.2629565322092
 20
-123.2100377469753
 30
0.0
  0
VERTEX
  5
A1
330
9F
100
AcDbEntity
  8
_U+30EC_U+30A4_U+30E4_U+30FC 1
 62
   179
420
  2234388
370
    25
100
AcDbVertex
100
AcDb2dVertex
 10
103.2629565322092
 20
-133.7103624665727
 30
0.0
  0
SEQEND
  5
A2
330
9F
100
AcDbEntity
  8
_U+30EC_U+30A4_U+30E4_U+30FC 1
 62
   179
420
  2234388
370
    25
  0
POLYLINE
  5
A3
330
5B
100
AcDbEntity
  8
_U+30EC_U+30A4_U+30E4_U+30FC 1
 62
   179
420
  2234388
370
    25
100
AcDb2dPolyline
 66
     1
 10
0.0
 20
0.0
 30
0.0
  0
VERTEX
  5
A4
330
A3
100
AcDbEntity
  8
_U+30EC_U+30A4_U+30E4_U+30FC 1
 62
   179
420
  2234388
370
    25
100
AcDbVertex
100
AcDb2dVertex
 10
126.2630792787605
 20
-123.2100377469753
 30
0.0
  0
VERTEX
  5
A5
330
A3
100
AcDbEntity
  8
_U+30EC_U+30A4_U+30E4_U+30FC 1
 62
   179
420
  2234388
370
    25
100
AcDbVertex
100
AcDb2dVertex
 10
103.2629565322092
 20
-123.2100377469753
 30
0.0
  0
SEQEND
  5
A6
330
A3
100
AcDbEntity
  8
_U+30EC_U+30A4_U+30E4_U+30FC 1
 62
   179
420
  2234388
370
    25
  0
POLYLINE
  5
A7
330
5B
100
AcDbEntity
  8
_U+30EC_U+30A4_U+30E4_U+30FC 1
 62
   179
420
  2234388
370
     9
100
AcDb2dPolyline
 66
     1
 10
0.0
 20
0.0
 30
0.0
  0
VERTEX
  5
A8
330
A7
100
AcDbEntity
  8
_U+30EC_U+30A4_U+30E4_U+30FC 1
 62
   179
420
  2234388
370
     9
100
AcDbVertex
100
AcDb2dVertex
 10
93.26322373176805
 20
-132.7105902446001
 30
0.0
  0
VERTEX
  5
A9
330
A7
100
AcDbEntity
  8
_U+30EC_U+30A4_U+30E4_U+30FC 1
 62
   179
420
  2234388
370
     9
100
AcDbVertex
100
AcDb2dVertex
 10
94.02388315680645
 20
-129.8718227453101
 30
0.0
  0
SEQEND
  5
AA
330
A7
100
AcDbEntity
  8
_U+30EC_U+30A4_U+30E4_U+30FC 1
 62
   179
420
  2234388
370
     9
  0
POLYLINE
  5
AB
330
5B
100
AcDbEntity
  8
_U+30EC_U+30A4_U+30E4_U+30FC 1
 62
   179
420
  2234388
370
     9
100
AcDb2dPolyline
 66
     1
 10
0.0
 20
0.0
 30
0.0
  0
VERTEX
  5
AC
330
AB
100
AcDbEntity
  8
_U+30EC_U+30A4_U+30E4_U+30FC 1
 62
   179
420
  2234388
370
     9
100
AcDbVertex
100
AcDb2dVertex
 10
94.02388315680645
 20
-129.8718227453101
 30
0.0
  0
VERTEX
  5
AD
330
AB
100
AcDbEntity
  8
_U+30EC_U+30A4_U+30E4_U+30FC 1
 62
   179
420
  2234388
370
     9
100
AcDbVertex
100
AcDb2dVertex
 10
98.22278527190576
 20
-129.8718227453101
 30
0.0
  0
SEQEND
  5
AE
330
AB
100
AcDbEntity
  8
_U+30EC_U+30A4_U+30E4_U+30FC 1
 62
   179
420
  2234388
370
     9
  0
POLYLINE
  5
AF
330
5B
100
AcDbEntity
  8
_U+30EC_U+30A4_U+30E4_U+30FC 1
 62
   179
420
  2234388
370
     9
100
AcDb2dPolyline
 66
     1
 10
0.0
 20
0.0
 30
0.0
  0
VERTEX
  5
B0
330
AF
100
AcDbEntity
  8
_U+30EC_U+30A4_U+30E4_U+30FC 1
 62
   179
420
  2234388
370
     9
100
AcDbVertex
100
AcDb2dVertex
 10
93.26322373176805
 20
-132.7105902446001
 30
0.0
  0
VERTEX
  5
B1
330
AF
100
AcDbEntity
  8
_U+30EC_U+30A4_U+30E4_U+30FC 1
 62
   179
420
  2234388
370
     9
100
AcDbVertex
100
AcDb2dVertex
 10
93.7634273301179
 20
-131.8444855225947
 30
0.0
  0
SEQEND
  5
B2
330
AF
100
AcDbEntity
  8
_U+30EC_U+30A4_U+30E4_U+30FC 1
 62
   179
420
  2234388
370
     9
  0
POLYLINE
  5
B3
330
5B
100
AcDbEntity
  8
_U+30EC_U+30A4_U+30E4_U+30FC 1
 62
   179
420
  2234388
370
     9
100
AcDb2dPolyline
 66
     1
 10
0.0
 20
0.0
 30
0.0
  0
VERTEX
  5
B4
330
B3
100
AcDbEntity
  8
_U+30EC_U+30A4_U+30E4_U+30FC 1
 62
   179
420
  2234388
370
     9
100
AcDbVertex
100
AcDb2dVertex
 10
93.26322373176805
 20
-132.7105902446001
 30
0.0
  0
VERTEX
  5
B5
330
B3
100
AcDbEntity
  8
_U+30EC_U+30A4_U+30E4_U+30FC 1
 62
   179
420
  2234388
370
     9
100
AcDbVertex
100
AcDb2dVertex
 10
93.26322373176805
 20
-131.7108180226276
 30
0.0
  0
SEQEND
  5
B6
330
B3
100
AcDbEntity
  8
_U+30EC_U+30A4_U+30E4_U+30FC 1
 62
   179
420
  2234388
370
     9
  0
POLYLINE
  5
B7
330
5B
100
AcDbEntity
  8
_U+30EC_U+30A4_U+30E4_U+30FC 1
 62
   179
420
  2234388
370
     9
100
AcDb2dPolyline
 66
     1
 10
0.0
 20
0.0
 30
0.0
  0
VERTEX
  5
B8
330
B7
100
AcDbEntity
  8
_U+30EC_U+30A4_U+30E4_U+30FC 1
 62
   179
420
  2234388
370
     9
100
AcDbVertex
100
AcDb2dVertex
 10
93.26322373176805
 20
-132.7105902446001
 30
0.0
  0
VERTEX
  5
B9
330
B7
100
AcDbEntity
  8
_U+30EC_U+30A4_U+30E4_U+30FC 1
 62
   179
420
  2234388
370
     9
100
AcDbVertex
100
AcDb2dVertex
 10
94.02388315680645
 20
-129.8718227453101
 30
0.0
  0
SEQEND
  5
BA
330
B7
100
AcDbEntity
  8
_U+30EC_U+30A4_U+30E4_U+30FC 1
 62
   179
420
  2234388
370
     9
  0
POLYLINE
  5
BB
330
5B
100
AcDbEntity
  8
_U+30EC_U+30A4_U+30E4_U+30FC 1
 62
   179
420
  2234388
370
     9
100
AcDb2dPolyline
 66
     1
 10
0.0
 20
0.0
 30
0.0
  0
VERTEX
  5
BC
330
BB
100
AcDbEntity
  8
_U+30EC_U+30A4_U+30E4_U+30FC 1
 62
   179
420
  2234388
370
     9
100
AcDbVertex
100
AcDb2dVertex
 10
120.491881925996
 20
-126.333532190639
 30
0.0
  0
VERTEX
  5
BD
330
BB
100
AcDbEntity
  8
_U+30EC_U+30A4_U+30E4_U+30FC 1
 62
   179
420
  2234388
370
     9
100
AcDbVertex
100
AcDb2dVertex
 10
119.5658402829546
 20
-126.7104399683226
 30
0.0
  0
SEQEND
  5
BE
330
BB
100
AcDbEntity
  8
_U+30EC_U+30A4_U+30E4_U+30FC 1
 62
   179
420
  2234388
370
     9
  0
POLYLINE
  5
BF
330
5B
100
AcDbEntity
  8
_U+30EC_U+30A4_U+30E4_U+30FC 1
 62
   179
420
  2234388
370
     9
100
AcDb2dPolyline
 66
     1
 10
0.0
 20
0.0
 30
0.0
  0
VERTEX
  5
C0
330
BF
100
AcDbEntity
  8
_U+30EC_U+30A4_U+30E4_U+30FC 1
 62
   179
420
  2234388
370
     9
100
AcDbVertex
100
AcDb2dVertex
 10
120.1790416366222
 20
-125.9208174685197
 30
0.0
  0
VERTEX
  5
C1
330
BF
100
AcDbEntity
  8
_U+30EC_U+30A4_U+30E4_U+30FC 1
 62
   179
420
  2234388
370
     9
100
AcDbVertex
100
AcDb2dVertex
 10
119.5658402829546
 20
-126.7104399683226
 30
0.0
  0
SEQEND
  5
C2
330
BF
100
AcDbEntity
  8
_U+30EC_U+30A4_U+30E4_U+30FC 1
 62
   179
420
  2234388
370
     9
  0
POLYLINE
  5
C3
330
5B
100
AcDbEntity
  8
_U+30EC_U+30A4_U+30E4_U+30FC 1
 62
   179
420
  2234388
370
     9
100
AcDb2dPolyline
 66
     1
 10
0.0
 20
0.0
 30
0.0
  0
VERTEX
  5
C4
330
C3
100
AcDbEntity
  8
_U+30EC_U+30A4_U+30E4_U+30FC 1
 62
   179
420
  2234388
370
     9
100
AcDbVertex
100
AcDb2dVertex
 10
120.491881925996
 20
-121.0871974697283
 30
0.0
  0
VERTEX
  5
C5
330
C3
100
AcDbEntity
  8
_U+30EC_U+30A4_U+30E4_U+30FC 1
 62
   179
420
  2234388
370
     9
100
AcDbVertex
100
AcDb2dVertex
 10
119.5658402829546
 20
-120.7102896920447
 30
0.0
  0
SEQEND
  5
C6
330
C3
100
AcDbEntity
  8
_U+30EC_U+30A4_U+30E4_U+30FC 1
 62
   179
420
  2234388
370
     9
  0
POLYLINE
  5
C7
330
5B
100
AcDbEntity
  8
_U+30EC_U+30A4_U+30E4_U+30FC 1
 62
   179
420
  2234388
370
     9
100
AcDb2dPolyline
 66
     1
 10
0.0
 20
0.0
 30
0.0
  0
VERTEX
  5
C8
330
C7
100
AcDbEntity
  8
_U+30EC_U+30A4_U+30E4_U+30FC 1
 62
   179
420
  2234388
370
     9
100
AcDbVertex
100
AcDb2dVertex
 10
120.1790416366222
 20
-121.4999121918473
 30
0.0
  0
VERTEX
  5
C9
330
C7
100
AcDbEntity
  8
_U+30EC_U+30A4_U+30E4_U+30FC 1
 62
   179
420
  2234388
370
     9
100
AcDbVertex
100
AcDb2dVertex
 10
119.5658402829546
 20
-120.7102896920447
 30
0.0
  0
SEQEND
  5
CA
330
C7
100
AcDbEntity
  8
_U+30EC_U+30A4_U+30E4_U+30FC 1
 62
   179
420
  2234388
370
     9
  0
SPLINE
  5
CB
330
5B
100
AcDbEntity
  8
_U+30EC_U+30A4_U+30E4_U+30FC 1
 62
   179
420
  2234388
370
     9
100
AcDbSpline
210
0.0
220
0.0
230
1.0
 70
     8
 71
     3
 72
     8
 73
     4
 74
     0
 42
0.0000000001
 43
0.0000000001
 12
1.0
 22
0.0
 32
0.0
 13
1.0
 23
0.0
 33
0.0
 40
0.0
 40
0.0
 40
0.0
 40
0.0
 40
1.0
 40
1.0
 40
1.0
 40
1.0
 10
119.5658402829546
 20
-126.7104399683226
 30
0.0
 10
120.3147874860696
 20
-126.2605071906571
 30
0.0
 10
120.8680841386205
 20
-125.5473669130577
 30
0.0
 10
121.1174980211463
 20
-124.7102252466001
 30
0.0
  0
SPLINE
  5
CC
330
5B
100
AcDbEntity
  8
_U+30EC_U+30A4_U+30E4_U+30FC 1
 62
   179
420
  2234388
370
     9
100
AcDbSpline
210
0.0
220
0.0
230
1.0
 70
     8
 71
     3
 72
     8
 73
     4
 74
     0
 42
0.0000000001
 43
0.0000000001
 12
1.0
 22
0.0
 32
0.0
 13
1.0
 23
0.0
 33
0.0
 40
0.0
 40
0.0
 40
0.0
 40
0.0
 40
1.0
 40
1.0
 40
1.0
 40
1.0
 10
121.1174980211463
 20
-122.7105044137668
 30
0.0
 10
120.8680841386205
 20
-121.8733627473096
 30
0.0
 10
120.3147874860696
 20
-121.1602224697098
 30
0.0
 10
119.5658402829546
 20
-120.7102896920447
 30
0.0
  0
SPLINE
  5
CD
330
5B
100
AcDbEntity
  8
_U+30EC_U+30A4_U+30E4_U+30FC 1
 62
   179
420
  2234388
370
     9
100
AcDbSpline
210
0.0
220
0.0
230
1.0
 70
    11
 71
     3
 72
    17
 73
    13
 74
     0
 42
0.0000000001
 43
0.0000000001
 12
1.0
 22
0.0
 32
0.0
 13
1.0
 23
0.0
 33
0.0
 40
0.0
 40
0.0
 40
0.0
 40
0.0
 40
1.0
 40
1.0
 40
1.0
 40
2.0
 40
2.0
 40
2.0
 40
3.0
 40
3.0
 40
3.0
 40
4.0
 40
4.0
 40
4.0
 40
4.0
 10
93.36313039588589
 20
-139.2108030207532
 30
0.0
 10
93.36313039588589
 20
-139.1549935763221
 30
0.0
 10
93.31832761925112
 20
-139.110190798556
 30
0.0
 10
93.26322373176805
 20
-139.110190798556
 30
0.0
 10
93.2080845665081
 20
-139.110190798556
 30
0.0
 10
93.1633194211533
 20
-139.1549935763221
 30
0.0
 10
93.1633194211533
 20
-139.2108030207532
 30
0.0
 10
93.1633194211533
 20
-139.2659069096281
 30
0.0
 10
93.2080845665081
 20
-139.3107096873948
 30
0.0
 10
93.26322373176805
 20
-139.3107096873948
 30
0.0
 10
93.31832761925112
 20
-139.3107096873948
 30
0.0
 10
93.36313039588589
 20
-139.2659069096281
 30
0.0
 10
93.36313039588589
 20
-139.2108030207532
 30
0.0
  0
SPLINE
  5
CE
330
5B
100
AcDbEntity
  8
_U+30EC_U+30A4_U+30E4_U+30FC 1
 62
   179
420
  2234388
370
     9
100
AcDbSpline
210
0.0
220
0.0
230
1.0
 70
    11
 71
     3
 72
    17
 73
    13
 74
     0
 42
0.0000000001
 43
0.0000000001
 12
1.0
 22
0.0
 32
0.0
 13
1.0
 23
0.0
 33
0.0
 40
0.0
 40
0.0
 40
0.0
 40
0.0
 40
1.0
 40
1.0
 40
1.0
 40
2.0
 40
2.0
 40
2.0
 40
3.0
 40
3.0
 40
3.0
 40
4.0
 40
4.0
 40
4.0
 40
4.0
 10
73.36366664832576
 20
-139.2108030207532
 30
0.0
 10
73.36366664832576
 20
-139.1549935763221
 30
0.0
 10
73.31886387055904
 20
-139.110190798556
 30
0.0
 10
73.26305257534825
 20
-139.110190798556
 30
0.0
 10
73.20794868786518
 20
-139.110190798556
 30
0.0
 10
73.16314591123042
 20
-139.1549935763221
 30
0.0
 10
73.16314591123042
 20
-139.2108030207532
 30
0.0
 10
73.16314591123042
 20
-139.2659069096281
 30
0.0
 10
73.20794868786518
 20
-139.3107096873948
 30
0.0
 10
73.26305257534825
 20
-139.3107096873948
 30
0.0
 10
73.31886387055904
 20
-139.3107096873948
 30
0.0
 10
73.36366664832576
 20
-139.2659069096281
 30
0.0
 10
73.36366664832576
 20
-139.2108030207532
 30
0.0
  0
SPLINE
  5
CF
330
5B
100
AcDbEntity
  8
_U+30EC_U+30A4_U+30E4_U+30FC 1
 62
   179
420
  2234388
370
     9
100
AcDbSpline
210
0.0
220
0.0
230
1.0
 70
    11
 71
     3
 72
    17
 73
    13
 74
     0
 42
0.0000000001
 43
0.0000000001
 12
1.0
 22
0.0
 32
0.0
 13
1.0
 23
0.0
 33
0.0
 40
0.0
 40
0.0
 40
0.0
 40
0.0
 40
1.0
 40
1.0
 40
1.0
 40
2.0
 40
2.0
 40
2.0
 40
3.0
 40
3.0
 40
3.0
 40
4.0
 40
4.0
 40
4.0
 40
4.0
 10
60.36288679334779
 20
-119.2102785813084
 30
0.0
 10
60.36288679334779
 20
-119.1551746924335
 30
0.0
 10
60.31811929448991
 20
-119.1103719146668
 30
0.0
 10
60.26298012922996
 20
-119.1103719146668
 30
0.0
 10
60.20787776272569
 20
-119.1103719146668
 30
0.0
 10
60.16307498495929
 20
-119.1551746924335
 30
0.0
 10
60.16307498495929
 20
-119.2102785813084
 30
0.0
 10
60.16307498495929
 20
-119.2654177479615
 30
0.0
 10
60.20787776272569
 20
-119.3101852479504
 30
0.0
 10
60.26298012922996
 20
-119.3101852479504
 30
0.0
 10
60.31811929448991
 20
-119.3101852479504
 30
0.0
 10
60.36288679334779
 20
-119.2654177479615
 30
0.0
 10
60.36288679334779
 20
-119.2102785813084
 30
0.0
  0
SPLINE
  5
D0
330
5B
100
AcDbEntity
  8
_U+30EC_U+30A4_U+30E4_U+30FC 1
 62
   179
420
  2234388
370
     9
100
AcDbSpline
210
0.0
220
0.0
230
1.0
 70
    11
 71
     3
 72
    17
 73
    13
 74
     0
 42
0.0000000001
 43
0.0000000001
 12
1.0
 22
0.0
 32
0.0
 13
1.0
 23
0.0
 33
0.0
 40
0.0
 40
0.0
 40
0.0
 40
0.0
 40
1.0
 40
1.0
 40
1.0
 40
2.0
 40
2.0
 40
2.0
 40
3.0
 40
3.0
 40
3.0
 40
4.0
 40
4.0
 40
4.0
 40
4.0
 10
83.36339759544477
 20
-119.2102785813084
 30
0.0
 10
83.36339759544477
 20
-119.1551746924335
 30
0.0
 10
83.31859481881
 20
-119.1103719146668
 30
0.0
 10
83.26349093132693
 20
-119.1103719146668
 30
0.0
 10
83.20835176606698
 20
-119.1103719146668
 30
0.0
 10
83.16358426720909
 20
-119.1551746924335
 30
0.0
 10
83.16358426720909
 20
-119.2102785813084
 30
0.0
 10
83.16358426720909
 20
-119.2654177479615
 30
0.0
 10
83.20835176606698
 20
-119.3101852479504
 30
0.0
 10
83.26349093132693
 20
-119.3101852479504
 30
0.0
 10
83.31859481881
 20
-119.3101852479504
 30
0.0
 10
83.36339759544477
 20
-119.2654177479615
 30
0.0
 10
83.36339759544477
 20
-119.2102785813084
 30
0.0
  0
INSERT
  5
D2
330
5B
100
AcDbEntity
  8
_U+30EC_U+30A4_U+30E4_U+30FC 1
100
AcDbBlockReference
  2
block 4
 10
0.0
 20
0.0
 30
0.0
  0
POLYLINE
  5
10D
330
5B
100
AcDbEntity
  8
_U+30EC_U+30A4_U+30E4_U+30FC 1
 62
   179
420
  2234388
370
     9
100
AcDb2dPolyline
 66
     1
 10
0.0
 20
0.0
 30
0.0
  0
VERTEX
  5
10E
330
10D
100
AcDbEntity
  8
_U+30EC_U+30A4_U+30E4_U+30FC 1
 62
   179
420
  2234388
370
     9
100
AcDbVertex
100
AcDb2dVertex
 10
60.26298012922996
 20
-119.2102785813084
 30
0.0
  0
VERTEX
  5
10F
330
10D
100
AcDbEntity
  8
_U+30EC_U+30A4_U+30E4_U+30FC 1
 62
   179
420
  2234388
370
     9
100
AcDbVertex
100
AcDb2dVertex
 10
83.26349093132693
 20
-119.2102785813084
 30
0.0
  0
SEQEND
  5
110
330
10D
100
AcDbEntity
  8
_U+30EC_U+30A4_U+30E4_U+30FC 1
 62
   179
420
  2234388
370
     9
  0
POLYLINE
  5
111
330
5B
100
AcDbEntity
  8
_U+30EC_U+30A4_U+30E4_U+30FC 1
 62
   179
420
  2234388
370
     9
100
AcDb2dPolyline
 66
     1
 10
0.0
 20
0.0
 30
0.0
  0
VERTEX
  5
112
330
111
100
AcDbEntity
  8
_U+30EC_U+30A4_U+30E4_U+30FC 1
 62
   179
420
  2234388
370
     9
100
AcDbVertex
100
AcDb2dVertex
 10
60.26298012922996
 20
-120.6703199698325
 30
0.0
  0
VERTEX
  5
113
330
111
100
AcDbEntity
  8
_U+30EC_U+30A4_U+30E4_U+30FC 1
 62
   179
420
  2234388
370
     9
100
AcDbVertex
100
AcDb2dVertex
 10
60.26298012922996
 20
-118.210541637114
 30
0.0
  0
SEQEND
  5
114
330
111
100
AcDbEntity
  8
_U+30EC_U+30A4_U+30E4_U+30FC 1
 62
   179
420
  2234388
370
     9
  0
POLYLINE
  5
115
330
5B
100
AcDbEntity
  8
_U+30EC_U+30A4_U+30E4_U+30FC 1
 62
   179
420
  2234388
370
     9
100
AcDb2dPolyline
 66
     1
 10
0.0
 20
0.0
 30
0.0
  0
VERTEX
  5
116
330
115
100
AcDbEntity
  8
_U+30EC_U+30A4_U+30E4_U+30FC 1
 62
   179
420
  2234388
370
     9
100
AcDbVertex
100
AcDb2dVertex
 10
83.26349093132693
 20
-120.6703199698325
 30
0.0
  0
VERTEX
  5
117
330
115
100
AcDbEntity
  8
_U+30EC_U+30A4_U+30E4_U+30FC 1
 62
   179
420
  2234388
370
     9
100
AcDbVertex
100
AcDb2dVertex
 10
83.26349093132693
 20
-118.210541637114
 30
0.0
  0
SEQEND
  5
118
330
115
100
AcDbEntity
  8
_U+30EC_U+30A4_U+30E4_U+30FC 1
 62
   179
420
  2234388
370
     9
  0
INSERT
  5
11A
330
5B
100
AcDbEntity
  8
_U+30EC_U+30A4_U+30E4_U+30FC 1
100
AcDbBlockReference
  2
block 5
 10
0.0
 20
0.0
 30
0.0
  0
POLYLINE
  5
121
330
5B
100
AcDbEntity
  8
_U+30EC_U+30A4_U+30E4_U+30FC 1
 62
   179
420
  2234388
370
     9
100
AcDb2dPolyline
 66
     1
 10
0.0
 20
0.0
 30
0.0
  0
VERTEX
  5
122
330
121
100
AcDbEntity
  8
_U+30EC_U+30A4_U+30E4_U+30FC 1
 62
   179
420
  2234388
370
     9
100
AcDbVertex
100
AcDb2dVertex
 10
93.26322373176805
 20
-139.2108030207532
 30
0.0
  0
VERTEX
  5
123
330
121
100
AcDbEntity
  8
_U+30EC_U+30A4_U+30E4_U+30FC 1
 62
   179
420
  2234388
370
     9
100
AcDbVertex
100
AcDb2dVertex
 10
73.26305257534825
 20
-139.2108030207532
 30
0.0
  0
SEQEND
  5
124
330
121
100
AcDbEntity
  8
_U+30EC_U+30A4_U+30E4_U+30FC 1
 62
   179
420
  2234388
370
     9
  0
POLYLINE
  5
125
330
5B
100
AcDbEntity
  8
_U+30EC_U+30A4_U+30E4_U+30FC 1
 62
   179
420
  2234388
370
     9
100
AcDb2dPolyline
 66
     1
 10
0.0
 20
0.0
 30
0.0
  0
VERTEX
  5
126
330
125
100
AcDbEntity
  8
_U+30EC_U+30A4_U+30E4_U+30FC 1
 62
   179
420
  2234388
370
     9
100
AcDbVertex
100
AcDb2dVertex
 10
93.26322373176805
 20
-137.7507616322288
 30
0.0
  0
VERTEX
  5
127
330
125
100
AcDbEntity
  8
_U+30EC_U+30A4_U+30E4_U+30FC 1
 62
   179
420
  2234388
370
     9
100
AcDbVertex
100
AcDb2dVertex
 10
93.26322373176805
 20
-140.2105752427251
 30
0.0
  0
SEQEND
  5
128
330
125
100
AcDbEntity
  8
_U+30EC_U+30A4_U+30E4_U+30FC 1
 62
   179
420
  2234388
370
     9
  0
POLYLINE
  5
129
330
5B
100
AcDbEntity
  8
_U+30EC_U+30A4_U+30E4_U+30FC 1
 62
   179
420
  2234388
370
     9
100
AcDb2dPolyline
 66
     1
 10
0.0
 20
0.0
 30
0.0
  0
VERTEX
  5
12A
330
129
100
AcDbEntity
  8
_U+30EC_U+30A4_U+30E4_U+30FC 1
 62
   179
420
  2234388
370
     9
100
AcDbVertex
100
AcDb2dVertex
 10
73.26305257534825
 20
-136.7503191324789
 30
0.0
  0
VERTEX
  5
12B
330
129
100
AcDbEntity
  8
_U+30EC_U+30A4_U+30E4_U+30FC 1
 62
   179
420
  2234388
370
     9
100
AcDbVertex
100
AcDb2dVertex
 10
73.26305257534825
 20
-140.2105752427251
 30
0.0
  0
SEQEND
  5
12C
330
129
100
AcDbEntity
  8
_U+30EC_U+30A4_U+30E4_U+30FC 1
 62
   179
420
  2234388
370
     9
  0
INSERT
  5
12E
330
5B
100
AcDbEntity
  8
_U+30EC_U+30A4_U+30E4_U+30FC 1
100
AcDbBlockReference
  2
block 6
 10
0.0
 20
0.0
 30
0.0
  0
POLYLINE
  5
136
330
5B
100
AcDbEntity
  8
_U+30EC_U+30A4_U+30E4_U+30FC 1
 62
   179
420
  2234388
370
     9
100
AcDb2dPolyline
 66
     1
 10
0.0
 20
0.0
 30
0.0
  0
VERTEX
  5
137
330
136
100
AcDbEntity
  8
_U+30EC_U+30A4_U+30E4_U+30FC 1
 62
   179
420
  2234388
370
     9
100
AcDbVertex
100
AcDb2dVertex
 10
59.72312430966949
 20
-124.2106919133919
 30
0.0
  0
VERTEX
  5
138
330
136
100
AcDbEntity
  8
_U+30EC_U+30A4_U+30E4_U+30FC 1
 62
   179
420
  2234388
370
     9
100
AcDbVertex
100
AcDb2dVertex
 10
57.26299326132155
 20
-124.2106919133919
 30
0.0
  0
SEQEND
  5
139
330
136
100
AcDbEntity
  8
_U+30EC_U+30A4_U+30E4_U+30FC 1
 62
   179
420
  2234388
370
     9
  0
POLYLINE
  5
13A
330
5B
100
AcDbEntity
  8
_U+30EC_U+30A4_U+30E4_U+30FC 1
 62
   179
420
  2234388
370
     9
100
AcDb2dPolyline
 66
     1
 10
0.0
 20
0.0
 30
0.0
  0
VERTEX
  5
13B
330
13A
100
AcDbEntity
  8
_U+30EC_U+30A4_U+30E4_U+30FC 1
 62
   179
420
  2234388
370
     9
100
AcDbVertex
100
AcDb2dVertex
 10
70.72333486236407
 20
-134.2106013553364
 30
0.0
  0
VERTEX
  5
13C
330
13A
100
AcDbEntity
  8
_U+30EC_U+30A4_U+30E4_U+30FC 1
 62
   179
420
  2234388
370
     9
100
AcDbVertex
100
AcDb2dVertex
 10
57.26299326132155
 20
-134.2106013553364
 30
0.0
  0
SEQEND
  5
13D
330
13A
100
AcDbEntity
  8
_U+30EC_U+30A4_U+30E4_U+30FC 1
 62
   179
420
  2234388
370
     9
  0
ENDBLK
  5
5E
330
5B
100
AcDbEntity
  8
0
100
AcDbBlockEnd
  0
BLOCK
  5
D3
330
D1
100
AcDbEntity
  8
0
100
AcDbBlockBegin
  2
block 4
 70
     0
 10
0.0
 20
0.0
 30
0.0
  3
block 4
  1

  0
SPLINE
  5
D5
330
D1
100
AcDbEntity
  8
_U+30EC_U+30A4_U+30E4_U+30FC 1
370
     0
100
AcDbSpline
210
0.0
220
0.0
230
1.0
 70
    11
 71
     3
 72
   197
 73
   193
 74
     0
 42
0.0000000001
 43
0.0000000001
 12
1.0
 22
0.0
 32
0.0
 13
1.0
 23
0.0
 33
0.0
 40
0.0
 40
0.0
 40
0.0
 40
0.0
 40
1.0
 40
1.0
 40
1.0
 40
2.0
 40
2.0
 40
2.0
 40
3.0
 40
3.0
 40
3.0
 40
4.0
 40
4.0
 40
4.0
 40
5.0
 40
5.0
 40
5.0
 40
6.0
 40
6.0
 40
6.0
 40
7.0
 40
7.0
 40
7.0
 40
8.0
 40
8.0
 40
8.0
 40
9.0
 40
9.0
 40
9.0
 40
10.0
 40
10.0
 40
10.0
 40
11.0
 40
11.0
 40
11.0
 40
12.0
 40
12.0
 40
12.0
 40
13.0
 40
13.0
 40
13.0
 40
14.0
 40
14.0
 40
14.0
 40
15.0
 40
15.0
 40
15.0
 40
16.0
 40
16.0
 40
16.0
 40
17.0
 40
17.0
 40
17.0
 40
18.0
 40
18.0
 40
18.0
 40
19.0
 40
19.0
 40
19.0
 40
20.0
 40
20.0
 40
20.0
 40
21.0
 40
21.0
 40
21.0
 40
22.0
 40
22.0
 40
22.0
 40
23.0
 40
23.0
 40
23.0
 40
24.0
 40
24.0
 40
24.0
 40
25.0
 40
25.0
 40
25.0
 40
26.0
 40
26.0
 40
26.0
 40
27.0
 40
27.0
 40
27.0
 40
28.0
 40
28.0
 40
28.0
 40
29.0
 40
29.0
 40
29.0
 40
30.0
 40
30.0
 40
30.0
 40
31.0
 40
31.0
 40
31.0
 40
32.0
 40
32.0
 40
32.0
 40
33.0
 40
33.0
 40
33.0
 40
34.0
 40
34.0
 40
34.0
 40
35.0
 40
35.0
 40
35.0
 40
36.0
 40
36.0
 40
36.0
 40
37.0
 40
37.0
 40
37.0
 40
38.0
 40
38.0
 40
38.0
 40
39.0
 40
39.0
 40
39.0
 40
40.0
 40
40.0
 40
40.0
 40
41.0
 40
41.0
 40
41.0
 40
42.0
 40
42.0
 40
42.0
 40
43.0
 40
43.0
 40
43.0
 40
44.0
 40
44.0
 40
44.0
 40
45.0
 40
45.0
 40
45.0
 40
46.0
 40
46.0
 40
46.0
 40
47.0
 40
47.0
 40
47.0
 40
48.0
 40
48.0
 40
48.0
 40
49.0
 40
49.0
 40
49.0
 40
50.0
 40
50.0
 40
50.0
 40
51.0
 40
51.0
 40
51.0
 40
52.0
 40
52.0
 40
52.0
 40
53.0
 40
53.0
 40
53.0
 40
54.0
 40
54.0
 40
54.0
 40
55.0
 40
55.0
 40
55.0
 40
56.0
 40
56.0
 40
56.0
 40
57.0
 40
57.0
 40
57.0
 40
58.0
 40
58.0
 40
58.0
 40
59.0
 40
59.0
 40
59.0
 40
60.0
 40
60.0
 40
60.0
 40
61.0
 40
61.0
 40
61.0
 40
62.0
 40
62.0
 40
62.0
 40
63.0
 40
63.0
 40
63.0
 40
64.0
 40
64.0
 40
64.0
 40
64.0
 10
95.93281790136402
 20
-128.0910617084286
 30
0.0
 10
95.92248261490828
 20
-128.1206895296018
 30
0.0
 10
95.90008949425415
 20
-128.1671983186527
 30
0.0
 10
95.89009871734693
 20
-128.1947590825347
 30
0.0
 10
95.89009871734693
 20
-128.1947590825347
 30
0.0
 10
95.83084307500063
 20
-128.3470323029827
 30
0.0
 10
95.83084307500063
 20
-128.3470323029827
 30
0.0
 10
95.8208522980934
 20
-128.3725260095735
 30
0.0
 10
95.773998999494
 20
-128.4844916128442
 30
0.0
 10
95.7615966557471
 20
-128.5079182621438
 30
0.0
 10
95.75987410800448
 20
-128.5141194340173
 30
0.0
 10
95.75573999342218
 20
-128.5227321727304
 30
0.0
 10
95.75367293613103
 20
-128.5289333446039
 30
0.0
 10
95.75367293613103
 20
-128.5289333446039
 30
0.0
 10
95.55213485024392
 20
-128.4762233836796
 30
0.0
 10
95.55213485024392
 20
-128.4762233836796
 30
0.0
 10
95.62758244137089
 20
-128.3663248377001
 30
0.0
 10
95.68649357416867
 20
-128.2309325851298
 30
0.0
 10
95.71715492398738
 20
-128.1206895296018
 30
0.0
 10
95.71715492398738
 20
-128.1206895296018
 30
0.0
 10
95.2692925109049
 20
-128.1206895296018
 30
0.0
 10
95.2692925109049
 20
-128.1206895296018
 30
0.0
 10
95.19212237203531
 20
-128.2857096033453
 30
0.0
 10
95.12701006736408
 20
-128.3639132708604
 30
0.0
 10
95.09428166025421
 20
-128.4042208880378
 30
0.0
 10
95.09428166025421
 20
-128.4042208880378
 30
0.0
 10
94.97645939465866
 20
-128.3387640738181
 30
0.0
 10
94.97645939465866
 20
-128.3387640738181
 30
0.0
 10
94.97645939465866
 20
-128.3387640738181
 30
0.0
 10
94.97645939465866
 20
-128.509985319435
 30
0.0
 10
94.97645939465866
 20
-128.509985319435
 30
0.0
 10
94.97645939465866
 20
-128.6178168081233
 30
0.0
 10
94.97852645194982
 20
-128.6667371640139
 30
0.0
 10
94.98851722885705
 20
-128.7725015954111
 30
0.0
 10
94.91927080960352
 20
-128.7700900285714
 30
0.0
 10
94.89894474624055
 20
-128.7700900285714
 30
0.0
 10
94.70154077493574
 20
-128.7700900285714
 30
0.0
 10
94.70154077493574
 20
-128.7700900285714
 30
0.0
 10
94.6488308140114
 20
-128.7700900285714
 30
0.0
 10
94.6488308140114
 20
-128.7700900285714
 30
0.0
 10
94.6488308140114
 20
-128.7700900285714
 30
0.0
 10
94.6488308140114
 20
-128.9054822811417
 30
0.0
 10
94.6488308140114
 20
-128.9054822811417
 30
0.0
 10
94.6488308140114
 20
-128.9054822811417
 30
0.0
 10
94.71807723326494
 20
-128.9054822811417
 30
0.0
 10
94.71807723326494
 20
-128.9054822811417
 30
0.0
 10
94.781122480645
 20
-128.9054822811417
 30
0.0
 10
94.92133786689467
 20
-128.9013481665594
 30
0.0
 10
95.02296818370954
 20
-128.8930799373948
 30
0.0
 10
95.02296818370954
 20
-128.8930799373948
 30
0.0
 10
95.02296818370954
 20
-129.0705023548851
 30
0.0
 10
95.02296818370954
 20
-129.0705023548851
 30
0.0
 10
94.92960609605927
 20
-129.0643011830117
 30
0.0
 10
94.7769883660627
 20
-129.0601670684294
 30
0.0
 10
94.71807723326494
 20
-129.0601670684294
 30
0.0
 10
94.71807723326494
 20
-129.0601670684294
 30
0.0
 10
94.6488308140114
 20
-129.0601670684294
 30
0.0
 10
94.6488308140114
 20
-129.0601670684294
 30
0.0
 10
94.65089787130256
 20
-129.1490505319489
 30
0.0
 10
94.65468747633633
 20
-129.3877956490767
 30
0.0
 10
94.65675453362748
 20
-129.4618652020095
 30
0.0
 10
94.65675453362748
 20
-129.4618652020095
 30
0.0
 10
94.46348467690497
 20
-129.4618652020095
 30
0.0
 10
94.46348467690497
 20
-129.4618652020095
 30
0.0
 10
94.47588702065187
 20
-129.2482692819241
 30
0.0
 10
94.47588702065187
 20
-129.2186414607509
 30
0.0
 10
94.48002113523417
 20
-129.0601670684294
 30
0.0
 10
94.48002113523417
 20
-129.0601670684294
 30
0.0
 10
94.4128417732718
 20
-129.0601670684294
 30
0.0
 10
94.4128417732718
 20
-129.0601670684294
 30
0.0
 10
94.35772024550779
 20
-129.0601670684294
 30
0.0
 10
94.21130368738469
 20
-129.0643011830117
 30
0.0
 10
94.10553925598751
 20
-129.0705023548851
 30
0.0
 10
94.10553925598751
 20
-129.0705023548851
 30
0.0
 10
94.10553925598751
 20
-128.8930799373948
 30
0.0
 10
94.10553925598751
 20
-128.8930799373948
 30
0.0
 10
94.20716957280239
 20
-128.9013481665594
 30
0.0
 10
94.34566241130942
 20
-128.9054822811417
 30
0.0
 10
94.4128417732718
 20
-128.9054822811417
 30
0.0
 10
94.4128417732718
 20
-128.9054822811417
 30
0.0
 10
94.48381074026794
 20
-128.9054822811417
 30
0.0
 10
94.48381074026794
 20
-128.9054822811417
 30
0.0
 10
94.48381074026794
 20
-128.9054822811417
 30
0.0
 10
94.48381074026794
 20
-128.7700900285714
 30
0.0
 10
94.48381074026794
 20
-128.7700900285714
 30
0.0
 10
94.48381074026794
 20
-128.7700900285714
 30
0.0
 10
94.44109155625084
 20
-128.7700900285714
 30
0.0
 10
94.44109155625084
 20
-128.7700900285714
 30
0.0
 10
94.36805553196355
 20
-128.7700900285714
 30
0.0
 10
94.1827093948571
 20
-128.7725015954111
 30
0.0
 10
94.15032549729575
 20
-128.7725015954111
 30
0.0
 10
94.15618215962068
 20
-128.7004990997693
 30
0.0
 10
94.16445038878528
 20
-128.6198838654145
 30
0.0
 10
94.16445038878528
 20
-128.4993055234307
 30
0.0
 10
94.16445038878528
 20
-128.4993055234307
 30
0.0
 10
94.16445038878528
 20
-128.3260172205227
 30
0.0
 10
94.16445038878528
 20
-128.3260172205227
 30
0.0
 10
94.16445038878528
 20
-128.254014724881
 30
0.0
 10
94.15618215962068
 20
-128.1334363828972
 30
0.0
 10
94.15032549729575
 20
-128.0531656580909
 30
0.0
 10
94.2254285788742
 20
-128.0572997726732
 30
0.0
 10
94.26229110056637
 20
-128.0593668299643
 30
0.0
 10
94.38424748074422
 20
-128.0593668299643
 30
0.0
 10
94.38424748074422
 20
-128.0593668299643
 30
0.0
 10
94.48381074026794
 20
-128.0593668299643
 30
0.0
 10
94.48381074026794
 20
-128.0593668299643
 30
0.0
 10
94.48381074026794
 20
-128.0593668299643
 30
0.0
 10
94.48381074026794
 20
-127.9132947813897
 30
0.0
 10
94.48381074026794
 20
-127.9132947813897
 30
0.0
 10
94.48381074026794
 20
-127.9132947813897
 30
0.0
 10
94.4087076586895
 20
-127.9132947813897
 30
0.0
 10
94.4087076586895
 20
-127.9132947813897
 30
0.0
 10
94.35565318821665
 20
-127.9132947813897
 30
0.0
 10
94.1909776240217
 20
-127.9177734055206
 30
0.0
 10
94.10967337056981
 20
-127.923974577394
 30
0.0
 10
94.10967337056981
 20
-127.923974577394
 30
0.0
 10
94.10967337056981
 20
-127.7462076503551
 30
0.0
 10
94.10967337056981
 20
-127.7462076503551
 30
0.0
 10
94.18891056673056
 20
-127.7527533317771
 30
0.0
 10
94.34566241130942
 20
-127.7568874463594
 30
0.0
 10
94.4087076586895
 20
-127.7568874463594
 30
0.0
 10
94.4087076586895
 20
-127.7568874463594
 30
0.0
 10
94.48381074026794
 20
-127.7568874463594
 30
0.0
 10
94.48381074026794
 20
-127.7568874463594
 30
0.0
 10
94.48381074026794
 20
-127.7231255106039
 30
0.0
 10
94.48002113523417
 20
-127.5687852328648
 30
0.0
 10
94.48002113523417
 20
-127.5367458448519
 30
0.0
 10
94.48002113523417
 20
-127.5367458448519
 30
0.0
 10
94.66915687737438
 20
-127.5539713222782
 30
0.0
 10
94.66915687737438
 20
-127.5539713222782
 30
0.0
 10
94.68534882615505
 20
-127.5560383795693
 30
0.0
 10
94.70567488951804
 20
-127.5581054368605
 30
0.0
 10
94.70567488951804
 20
-127.5791205193205
 30
0.0
 10
94.70567488951804
 20
-127.6025471686202
 30
0.0
 10
94.68534882615505
 20
-127.6108153977848
 30
0.0
 10
94.65882159091863
 20
-127.6235622510802
 30
0.0
 10
94.65882159091863
 20
-127.6449218430888
 30
0.0
 10
94.65675453362748
 20
-127.7400064784817
 30
0.0
 10
94.65675453362748
 20
-127.7568874463594
 30
0.0
 10
94.65675453362748
 20
-127.7568874463594
 30
0.0
 10
94.71394311868264
 20
-127.7568874463594
 30
0.0
 10
94.71394311868264
 20
-127.7568874463594
 30
0.0
 10
94.77905542335385
 20
-127.7568874463594
 30
0.0
 10
94.91720375231237
 20
-127.7527533317771
 30
0.0
 10
95.01917857867576
 20
-127.7462076503551
 30
0.0
 10
95.01917857867576
 20
-127.7462076503551
 30
0.0
 10
95.01917857867576
 20
-127.923974577394
 30
0.0
 10
95.01917857867576
 20
-127.923974577394
 30
0.0
 10
94.92547198147697
 20
-127.9177734055206
 30
0.0
 10
94.77492130877155
 20
-127.9132947813897
 30
0.0
 10
94.71394311868264
 20
-127.9132947813897
 30
0.0
 10
94.71394311868264
 20
-127.9132947813897
 30
0.0
 10
94.6488308140114
 20
-127.9132947813897
 30
0.0
 10
94.6488308140114
 20
-127.9132947813897
 30
0.0
 10
94.6488308140114
 20
-127.9132947813897
 30
0.0
 10
94.6488308140114
 20
-128.0593668299643
 30
0.0
 10
94.6488308140114
 20
-128.0593668299643
 30
0.0
 10
94.6488308140114
 20
-128.0593668299643
 30
0.0
 10
94.71601017597378
 20
-128.0593668299643
 30
0.0
 10
94.71601017597378
 20
-128.0593668299643
 30
0.0
 10
94.86035967680574
 20
-128.0593668299643
 30
0.0
 10
94.92960609605927
 20
-128.055232715382
 30
0.0
 10
94.98851722885705
 20
-128.0531656580909
 30
0.0
 10
94.98024899969244
 20
-128.1482502934838
 30
0.0
 10
94.97852645194982
 20
-128.226453960999
 30
0.0
 10
94.97645939465866
 20
-128.2646945208852
 30
0.0
 10
95.12494301007294
 20
-128.0531656580909
 30
0.0
 10
95.2265733268878
 20
-127.8054632927014
 30
0.0
 10
95.24276527566848
 20
-127.5432915262739
 30
0.0
 10
95.24276527566848
 20
-127.5432915262739
 30
0.0
 10
95.45050453342904
 20
-127.5939344299071
 30
0.0
 10
95.45050453342904
 20
-127.5939344299071
 30
0.0
 10
95.46462942491857
 20
-127.5984130540379
 30
0.0
 10
95.47909882595661
 20
-127.6046142259113
 30
0.0
 10
95.47909882595661
 20
-127.6214951937891
 30
0.0
 10
95.47909882595661
 20
-127.6383761616668
 30
0.0
 10
95.47496471137431
 20
-127.640443218958
 30
0.0
 10
95.42604435548377
 20
-127.6618028109665
 30
0.0
 10
95.4098524067031
 20
-127.7379394211905
 30
0.0
 10
95.38539222875782
 20
-127.8288899420011
 30
0.0
 10
95.33853893015842
 20
-127.9556694558583
 30
0.0
 10
95.33853893015842
 20
-127.9556694558583
 30
0.0
 10
95.66410045351454
 20
-127.9556694558583
 30
0.0
 10
95.66410045351454
 20
-127.9556694558583
 30
0.0
 10
95.70061846565818
 20
-127.9556694558583
 30
0.0
 10
95.8249864126757
 20
-127.951535341276
 30
0.0
 10
95.87149520172657
 20
-127.9453341694026
 30
0.0
 10
95.87149520172657
 20
-127.9453341694026
 30
0.0
 10
95.96106768434306
 20
-128.0149250982046
 30
0.0
 10
95.96106768434306
 20
-128.0149250982046
 30
0.0
 10
95.95314396472699
 20
-128.0362846902132
 30
0.0
 10
95.94694279285355
 20
-128.055232715382
 30
0.0
 10
95.93281790136402
 20
-128.0910617084286
 30
0.0
  0
POLYLINE
  5
D6
330
D1
100
AcDbEntity
  8
_U+30EC_U+30A4_U+30E4_U+30FC 1
370
     0
100
AcDb2dPolyline
 66
     1
 10
0.0
 20
0.0
 30
0.0
  0
VERTEX
  5
D7
330
D6
100
AcDbEntity
  8
_U+30EC_U+30A4_U+30E4_U+30FC 1
370
     0
100
AcDbVertex
100
AcDb2dVertex
 10
94.48381074026794
 20
-128.2161186745432
 30
0.0
  0
VERTEX
  5
D8
330
D6
100
AcDbEntity
  8
_U+30EC_U+30A4_U+30E4_U+30FC 1
370
     0
100
AcDbVertex
100
AcDb2dVertex
 10
94.33119301027138
 20
-128.2161186745432
 30
0.0
  0
VERTEX
  5
D9
330
D6
100
AcDbEntity
  8
_U+30EC_U+30A4_U+30E4_U+30FC 1
370
     0
100
AcDbVertex
100
AcDb2dVertex
 10
94.33119301027138
 20
-128.3449652456916
 30
0.0
  0
VERTEX
  5
DA
330
D6
100
AcDbEntity
  8
_U+30EC_U+30A4_U+30E4_U+30FC 1
370
     0
100
AcDbVertex
100
AcDb2dVertex
 10
94.48381074026794
 20
-128.3449652456916
 30
0.0
  0
VERTEX
  5
DB
330
D6
100
AcDbEntity
  8
_U+30EC_U+30A4_U+30E4_U+30FC 1
370
     0
100
AcDbVertex
100
AcDb2dVertex
 10
94.48381074026794
 20
-128.2161186745432
 30
0.0
  0
SEQEND
  5
DC
330
D6
100
AcDbEntity
  8
_U+30EC_U+30A4_U+30E4_U+30FC 1
370
     0
  0
POLYLINE
  5
DD
330
D1
100
AcDbEntity
  8
_U+30EC_U+30A4_U+30E4_U+30FC 1
370
     0
100
AcDb2dPolyline
 66
     1
 10
0.0
 20
0.0
 30
0.0
  0
VERTEX
  5
DE
330
DD
100
AcDbEntity
  8
_U+30EC_U+30A4_U+30E4_U+30FC 1
370
     0
100
AcDbVertex
100
AcDb2dVertex
 10
94.48381074026794
 20
-128.488970236975
 30
0.0
  0
VERTEX
  5
DF
330
DD
100
AcDbEntity
  8
_U+30EC_U+30A4_U+30E4_U+30FC 1
370
     0
100
AcDbVertex
100
AcDb2dVertex
 10
94.33119301027138
 20
-128.488970236975
 30
0.0
  0
VERTEX
  5
E0
330
DD
100
AcDbEntity
  8
_U+30EC_U+30A4_U+30E4_U+30FC 1
370
     0
100
AcDbVertex
100
AcDb2dVertex
 10
94.33119301027138
 20
-128.6178168081233
 30
0.0
  0
VERTEX
  5
E1
330
DD
100
AcDbEntity
  8
_U+30EC_U+30A4_U+30E4_U+30FC 1
370
     0
100
AcDbVertex
100
AcDb2dVertex
 10
94.48381074026794
 20
-128.6178168081233
 30
0.0
  0
VERTEX
  5
E2
330
DD
100
AcDbEntity
  8
_U+30EC_U+30A4_U+30E4_U+30FC 1
370
     0
100
AcDbVertex
100
AcDb2dVertex
 10
94.48381074026794
 20
-128.488970236975
 30
0.0
  0
SEQEND
  5
E3
330
DD
100
AcDbEntity
  8
_U+30EC_U+30A4_U+30E4_U+30FC 1
370
     0
  0
POLYLINE
  5
E4
330
D1
100
AcDbEntity
  8
_U+30EC_U+30A4_U+30E4_U+30FC 1
370
     0
100
AcDb2dPolyline
 66
     1
 10
0.0
 20
0.0
 30
0.0
  0
VERTEX
  5
E5
330
E4
100
AcDbEntity
  8
_U+30EC_U+30A4_U+30E4_U+30FC 1
370
     0
100
AcDbVertex
100
AcDb2dVertex
 10
94.80351560129913
 20
-128.2161186745432
 30
0.0
  0
VERTEX
  5
E6
330
E4
100
AcDbEntity
  8
_U+30EC_U+30A4_U+30E4_U+30FC 1
370
     0
100
AcDbVertex
100
AcDb2dVertex
 10
94.6488308140114
 20
-128.2161186745432
 30
0.0
  0
VERTEX
  5
E7
330
E4
100
AcDbEntity
  8
_U+30EC_U+30A4_U+30E4_U+30FC 1
370
     0
100
AcDbVertex
100
AcDb2dVertex
 10
94.6488308140114
 20
-128.3449652456916
 30
0.0
  0
VERTEX
  5
E8
330
E4
100
AcDbEntity
  8
_U+30EC_U+30A4_U+30E4_U+30FC 1
370
     0
100
AcDbVertex
100
AcDb2dVertex
 10
94.80351560129913
 20
-128.3449652456916
 30
0.0
  0
VERTEX
  5
E9
330
E4
100
AcDbEntity
  8
_U+30EC_U+30A4_U+30E4_U+30FC 1
370
     0
100
AcDbVertex
100
AcDb2dVertex
 10
94.80351560129913
 20
-128.2161186745432
 30
0.0
  0
SEQEND
  5
EA
330
E4
100
AcDbEntity
  8
_U+30EC_U+30A4_U+30E4_U+30FC 1
370
     0
  0
POLYLINE
  5
EB
330
D1
100
AcDbEntity
  8
_U+30EC_U+30A4_U+30E4_U+30FC 1
370
     0
100
AcDb2dPolyline
 66
     1
 10
0.0
 20
0.0
 30
0.0
  0
VERTEX
  5
EC
330
EB
100
AcDbEntity
  8
_U+30EC_U+30A4_U+30E4_U+30FC 1
370
     0
100
AcDbVertex
100
AcDb2dVertex
 10
94.80351560129913
 20
-128.488970236975
 30
0.0
  0
VERTEX
  5
ED
330
EB
100
AcDbEntity
  8
_U+30EC_U+30A4_U+30E4_U+30FC 1
370
     0
100
AcDbVertex
100
AcDb2dVertex
 10
94.6488308140114
 20
-128.488970236975
 30
0.0
  0
VERTEX
  5
EE
330
EB
100
AcDbEntity
  8
_U+30EC_U+30A4_U+30E4_U+30FC 1
370
     0
100
AcDbVertex
100
AcDb2dVertex
 10
94.6488308140114
 20
-128.6178168081233
 30
0.0
  0
VERTEX
  5
EF
330
EB
100
AcDbEntity
  8
_U+30EC_U+30A4_U+30E4_U+30FC 1
370
     0
100
AcDbVertex
100
AcDb2dVertex
 10
94.80351560129913
 20
-128.6178168081233
 30
0.0
  0
VERTEX
  5
F0
330
EB
100
AcDbEntity
  8
_U+30EC_U+30A4_U+30E4_U+30FC 1
370
     0
100
AcDbVertex
100
AcDb2dVertex
 10
94.80351560129913
 20
-128.488970236975
 30
0.0
  0
SEQEND
  5
F1
330
EB
100
AcDbEntity
  8
_U+30EC_U+30A4_U+30E4_U+30FC 1
370
     0
  0
SPLINE
  5
F2
330
D1
100
AcDbEntity
  8
_U+30EC_U+30A4_U+30E4_U+30FC 1
370
     0
100
AcDbSpline
210
0.0
220
0.0
230
1.0
 70
    11
 71
     3
 72
    41
 73
    37
 74
     0
 42
0.0000000001
 43
0.0000000001
 12
1.0
 22
0.0
 32
0.0
 13
1.0
 23
0.0
 33
0.0
 40
0.0
 40
0.0
 40
0.0
 40
0.0
 40
1.0
 40
1.0
 40
1.0
 40
2.0
 40
2.0
 40
2.0
 40
3.0
 40
3.0
 40
3.0
 40
4.0
 40
4.0
 40
4.0
 40
5.0
 40
5.0
 40
5.0
 40
6.0
 40
6.0
 40
6.0
 40
7.0
 40
7.0
 40
7.0
 40
8.0
 40
8.0
 40
8.0
 40
9.0
 40
9.0
 40
9.0
 40
10.0
 40
10.0
 40
10.0
 40
11.0
 40
11.0
 40
11.0
 40
12.0
 40
12.0
 40
12.0
 40
12.0
 10
95.8511691383636
 20
-129.447051291423
 30
0.0
 10
95.61931421220629
 20
-129.3116590388526
 30
0.0
 10
95.4484374761379
 20
-129.0157253366697
 30
0.0
 10
95.4098524067031
 20
-128.8865342559728
 30
0.0
 10
95.29375268885018
 20
-129.15111758924
 30
0.0
 10
95.13700084427131
 20
-129.3288845162789
 30
0.0
 10
94.96198999362062
 20
-129.4429171768407
 30
0.0
 10
94.96198999362062
 20
-129.4429171768407
 30
0.0
 10
94.7728542514804
 20
-129.3054578669792
 30
0.0
 10
94.7728542514804
 20
-129.3054578669792
 30
0.0
 10
94.84003361344277
 20
-129.2799641603883
 30
0.0
 10
94.98024899969244
 20
-129.2186414607509
 30
0.0
 10
95.09841577483651
 20
-129.0643011830117
 30
0.0
 10
95.21864960727173
 20
-128.9078938479814
 30
0.0
 10
95.30408797530593
 20
-128.6750053931785
 30
0.0
 10
95.30408797530593
 20
-128.4149006840421
 30
0.0
 10
95.30408797530593
 20
-128.3132703672272
 30
0.0
 10
95.29168563155903
 20
-128.2412678715855
 30
0.0
 10
95.2816948546518
 20
-128.1947590825347
 30
0.0
 10
95.2816948546518
 20
-128.1947590825347
 30
0.0
 10
95.47909882595661
 20
-128.2161186745432
 30
0.0
 10
95.47909882595661
 20
-128.2161186745432
 30
0.0
 10
95.4994248893196
 20
-128.2181857318344
 30
0.0
 10
95.51975095268257
 20
-128.2202527891255
 30
0.0
 10
95.51975095268257
 20
-128.2412678715855
 30
0.0
 10
95.51975095268257
 20
-128.2605604063029
 30
0.0
 10
95.50941566622681
 20
-128.2688286354675
 30
0.0
 10
95.47703176866547
 20
-128.2898437179275
 30
0.0
 10
95.46876353950087
 20
-128.4910372942661
 30
0.0
 10
95.52354055771634
 20
-128.7342610355248
 30
0.0
 10
95.58279620006265
 20
-128.8548393775085
 30
0.0
 10
95.67030162538798
 20
-129.0305392472563
 30
0.0
 10
95.85737031023704
 20
-129.2103732315863
 30
0.0
 10
95.9875949195795
 20
-129.2672173070929
 30
0.0
 10
95.9875949195795
 20
-129.2672173070929
 30
0.0
 10
95.8511691383636
 20
-129.447051291423
 30
0.0
 10
95.8511691383636
 20
-129.447051291423
 30
0.0
  0
HATCH
  5
F3
330
D1
100
AcDbEntity
  8
_U+30EC_U+30A4_U+30E4_U+30FC 1
 62
   179
420
  2234388
100
AcDbHatch
 10
0.0
 20
0.0
 30
0.0
210
0.0
220
0.0
230
1.0
  2
SOLID
 70
     1
 71
     0
 91
        6
 92
        1
 93
        1
 72
     4
 94
        3
 73
     0
 74
     1
 95
      197
 96
      193
 40
0.0
 40
0.0
 40
0.0
 40
0.0
 40
1.0
 40
1.0
 40
1.0
 40
2.0
 40
2.0
 40
2.0
 40
3.0
 40
3.0
 40
3.0
 40
4.0
 40
4.0
 40
4.0
 40
5.0
 40
5.0
 40
5.0
 40
6.0
 40
6.0
 40
6.0
 40
7.0
 40
7.0
 40
7.0
 40
8.0
 40
8.0
 40
8.0
 40
9.0
 40
9.0
 40
9.0
 40
10.0
 40
10.0
 40
10.0
 40
11.0
 40
11.0
 40
11.0
 40
12.0
 40
12.0
 40
12.0
 40
13.0
 40
13.0
 40
13.0
 40
14.0
 40
14.0
 40
14.0
 40
15.0
 40
15.0
 40
15.0
 40
16.0
 40
16.0
 40
16.0
 40
17.0
 40
17.0
 40
17.0
 40
18.0
 40
18.0
 40
18.0
 40
19.0
 40
19.0
 40
19.0
 40
20.0
 40
20.0
 40
20.0
 40
21.0
 40
21.0
 40
21.0
 40
22.0
 40
22.0
 40
22.0
 40
23.0
 40
23.0
 40
23.0
 40
24.0
 40
24.0
 40
24.0
 40
25.0
 40
25.0
 40
25.0
 40
26.0
 40
26.0
 40
26.0
 40
27.0
 40
27.0
 40
27.0
 40
28.0
 40
28.0
 40
28.0
 40
29.0
 40
29.0
 40
29.0
 40
30.0
 40
30.0
 40
30.0
 40
31.0
 40
31.0
 40
31.0
 40
32.0
 40
32.0
 40
32.0
 40
33.0
 40
33.0
 40
33.0
 40
34.0
 40
34.0
 40
34.0
 40
35.0
 40
35.0
 40
35.0
 40
36.0
 40
36.0
 40
36.0
 40
37.0
 40
37.0
 40
37.0
 40
38.0
 40
38.0
 40
38.0
 40
39.0
 40
39.0
 40
39.0
 40
40.0
 40
40.0
 40
40.0
 40
41.0
 40
41.0
 40
41.0
 40
42.0
 40
42.0
 40
42.0
 40
43.0
 40
43.0
 40
43.0
 40
44.0
 40
44.0
 40
44.0
 40
45.0
 40
45.0
 40
45.0
 40
46.0
 40
46.0
 40
46.0
 40
47.0
 40
47.0
 40
47.0
 40
48.0
 40
48.0
 40
48.0
 40
49.0
 40
49.0
 40
49.0
 40
50.0
 40
50.0
 40
50.0
 40
51.0
 40
51.0
 40
51.0
 40
52.0
 40
52.0
 40
52.0
 40
53.0
 40
53.0
 40
53.0
 40
54.0
 40
54.0
 40
54.0
 40
55.0
 40
55.0
 40
55.0
 40
56.0
 40
56.0
 40
56.0
 40
57.0
 40
57.0
 40
57.0
 40
58.0
 40
58.0
 40
58.0
 40
59.0
 40
59.0
 40
59.0
 40
60.0
 40
60.0
 40
60.0
 40
61.0
 40
61.0
 40
61.0
 40
62.0
 40
62.0
 40
62.0
 40
63.0
 40
63.0
 40
63.0
 40
64.0
 40
64.0
 40
64.0
 40
64.0
 10
95.93281790136402
 20
-128.0910617084286
 10
95.92248261490828
 20
-128.1206895296018
 10
95.90008949425415
 20
-128.1671983186527
 10
95.89009871734693
 20
-128.1947590825347
 10
95.89009871734693
 20
-128.1947590825347
 10
95.83084307500063
 20
-128.3470323029827
 10
95.83084307500063
 20
-128.3470323029827
 10
95.8208522980934
 20
-128.3725260095735
 10
95.773998999494
 20
-128.4844916128442
 10
95.7615966557471
 20
-128.5079182621438
 10
95.75987410800448
 20
-128.5141194340173
 10
95.75573999342218
 20
-128.5227321727304
 10
95.75367293613103
 20
-128.5289333446039
 10
95.75367293613103
 20
-128.5289333446039
 10
95.55213485024392
 20
-128.4762233836796
 10
95.55213485024392
 20
-128.4762233836796
 10
95.62758244137089
 20
-128.3663248377001
 10
95.68649357416867
 20
-128.2309325851298
 10
95.71715492398738
 20
-128.1206895296018
 10
95.71715492398738
 20
-128.1206895296018
 10
95.2692925109049
 20
-128.1206895296018
 10
95.2692925109049
 20
-128.1206895296018
 10
95.19212237203531
 20
-128.2857096033453
 10
95.12701006736408
 20
-128.3639132708604
 10
95.09428166025421
 20
-128.4042208880378
 10
95.09428166025421
 20
-128.4042208880378
 10
94.97645939465866
 20
-128.3387640738181
 10
94.97645939465866
 20
-128.3387640738181
 10
94.97645939465866
 20
-128.3387640738181
 10
94.97645939465866
 20
-128.509985319435
 10
94.97645939465866
 20
-128.509985319435
 10
94.97645939465866
 20
-128.6178168081233
 10
94.97852645194982
 20
-128.6667371640139
 10
94.98851722885705
 20
-128.7725015954111
 10
94.91927080960352
 20
-128.7700900285714
 10
94.89894474624055
 20
-128.7700900285714
 10
94.70154077493574
 20
-128.7700900285714
 10
94.70154077493574
 20
-128.7700900285714
 10
94.6488308140114
 20
-128.7700900285714
 10
94.6488308140114
 20
-128.7700900285714
 10
94.6488308140114
 20
-128.7700900285714
 10
94.6488308140114
 20
-128.9054822811417
 10
94.6488308140114
 20
-128.9054822811417
 10
94.6488308140114
 20
-128.9054822811417
 10
94.71807723326494
 20
-128.9054822811417
 10
94.71807723326494
 20
-128.9054822811417
 10
94.781122480645
 20
-128.9054822811417
 10
94.92133786689467
 20
-128.9013481665594
 10
95.02296818370954
 20
-128.8930799373948
 10
95.02296818370954
 20
-128.8930799373948
 10
95.02296818370954
 20
-129.0705023548851
 10
95.02296818370954
 20
-129.0705023548851
 10
94.92960609605927
 20
-129.0643011830117
 10
94.7769883660627
 20
-129.0601670684294
 10
94.71807723326494
 20
-129.0601670684294
 10
94.71807723326494
 20
-129.0601670684294
 10
94.6488308140114
 20
-129.0601670684294
 10
94.6488308140114
 20
-129.0601670684294
 10
94.65089787130256
 20
-129.1490505319489
 10
94.65468747633633
 20
-129.3877956490767
 10
94.65675453362748
 20
-129.4618652020095
 10
94.65675453362748
 20
-129.4618652020095
 10
94.46348467690497
 20
-129.4618652020095
 10
94.46348467690497
 20
-129.4618652020095
 10
94.47588702065187
 20
-129.2482692819241
 10
94.47588702065187
 20
-129.2186414607509
 10
94.48002113523417
 20
-129.0601670684294
 10
94.48002113523417
 20
-129.0601670684294
 10
94.4128417732718
 20
-129.0601670684294
 10
94.4128417732718
 20
-129.0601670684294
 10
94.35772024550779
 20
-129.0601670684294
 10
94.21130368738469
 20
-129.0643011830117
 10
94.10553925598751
 20
-129.0705023548851
 10
94.10553925598751
 20
-129.0705023548851
 10
94.10553925598751
 20
-128.8930799373948
 10
94.10553925598751
 20
-128.8930799373948
 10
94.20716957280239
 20
-128.9013481665594
 10
94.34566241130942
 20
-128.9054822811417
 10
94.4128417732718
 20
-128.9054822811417
 10
94.4128417732718
 20
-128.9054822811417
 10
94.48381074026794
 20
-128.9054822811417
 10
94.48381074026794
 20
-128.9054822811417
 10
94.48381074026794
 20
-128.9054822811417
 10
94.48381074026794
 20
-128.7700900285714
 10
94.48381074026794
 20
-128.7700900285714
 10
94.48381074026794
 20
-128.7700900285714
 10
94.44109155625084
 20
-128.7700900285714
 10
94.44109155625084
 20
-128.7700900285714
 10
94.36805553196355
 20
-128.7700900285714
 10
94.1827093948571
 20
-128.7725015954111
 10
94.15032549729575
 20
-128.7725015954111
 10
94.15618215962068
 20
-128.7004990997693
 10
94.16445038878528
 20
-128.6198838654145
 10
94.16445038878528
 20
-128.4993055234307
 10
94.16445038878528
 20
-128.4993055234307
 10
94.16445038878528
 20
-128.3260172205227
 10
94.16445038878528
 20
-128.3260172205227
 10
94.16445038878528
 20
-128.254014724881
 10
94.15618215962068
 20
-128.1334363828972
 10
94.15032549729575
 20
-128.0531656580909
 10
94.2254285788742
 20
-128.0572997726732
 10
94.26229110056637
 20
-128.0593668299643
 10
94.38424748074422
 20
-128.0593668299643
 10
94.38424748074422
 20
-128.0593668299643
 10
94.48381074026794
 20
-128.0593668299643
 10
94.48381074026794
 20
-128.0593668299643
 10
94.48381074026794
 20
-128.0593668299643
 10
94.48381074026794
 20
-127.9132947813897
 10
94.48381074026794
 20
-127.9132947813897
 10
94.48381074026794
 20
-127.9132947813897
 10
94.4087076586895
 20
-127.9132947813897
 10
94.4087076586895
 20
-127.9132947813897
 10
94.35565318821665
 20
-127.9132947813897
 10
94.1909776240217
 20
-127.9177734055206
 10
94.10967337056981
 20
-127.923974577394
 10
94.10967337056981
 20
-127.923974577394
 10
94.10967337056981
 20
-127.7462076503551
 10
94.10967337056981
 20
-127.7462076503551
 10
94.18891056673056
 20
-127.7527533317771
 10
94.34566241130942
 20
-127.7568874463594
 10
94.4087076586895
 20
-127.7568874463594
 10
94.4087076586895
 20
-127.7568874463594
 10
94.48381074026794
 20
-127.7568874463594
 10
94.48381074026794
 20
-127.7568874463594
 10
94.48381074026794
 20
-127.7231255106039
 10
94.48002113523417
 20
-127.5687852328648
 10
94.48002113523417
 20
-127.5367458448519
 10
94.48002113523417
 20
-127.5367458448519
 10
94.66915687737438
 20
-127.5539713222782
 10
94.66915687737438
 20
-127.5539713222782
 10
94.68534882615505
 20
-127.5560383795693
 10
94.70567488951804
 20
-127.5581054368605
 10
94.70567488951804
 20
-127.5791205193205
 10
94.70567488951804
 20
-127.6025471686202
 10
94.68534882615505
 20
-127.6108153977848
 10
94.65882159091863
 20
-127.6235622510802
 10
94.65882159091863
 20
-127.6449218430888
 10
94.65675453362748
 20
-127.7400064784817
 10
94.65675453362748
 20
-127.7568874463594
 10
94.65675453362748
 20
-127.7568874463594
 10
94.71394311868264
 20
-127.7568874463594
 10
94.71394311868264
 20
-127.7568874463594
 10
94.77905542335385
 20
-127.7568874463594
 10
94.91720375231237
 20
-127.7527533317771
 10
95.01917857867576
 20
-127.7462076503551
 10
95.01917857867576
 20
-127.7462076503551
 10
95.01917857867576
 20
-127.923974577394
 10
95.01917857867576
 20
-127.923974577394
 10
94.92547198147697
 20
-127.9177734055206
 10
94.77492130877155
 20
-127.9132947813897
 10
94.71394311868264
 20
-127.9132947813897
 10
94.71394311868264
 20
-127.9132947813897
 10
94.6488308140114
 20
-127.9132947813897
 10
94.6488308140114
 20
-127.9132947813897
 10
94.6488308140114
 20
-127.9132947813897
 10
94.6488308140114
 20
-128.0593668299643
 10
94.6488308140114
 20
-128.0593668299643
 10
94.6488308140114
 20
-128.0593668299643
 10
94.71601017597378
 20
-128.0593668299643
 10
94.71601017597378
 20
-128.0593668299643
 10
94.86035967680574
 20
-128.0593668299643
 10
94.92960609605927
 20
-128.055232715382
 10
94.98851722885705
 20
-128.0531656580909
 10
94.98024899969244
 20
-128.1482502934838
 10
94.97852645194982
 20
-128.226453960999
 10
94.97645939465866
 20
-128.2646945208852
 10
95.12494301007294
 20
-128.0531656580909
 10
95.2265733268878
 20
-127.8054632927014
 10
95.24276527566848
 20
-127.5432915262739
 10
95.24276527566848
 20
-127.5432915262739
 10
95.45050453342904
 20
-127.5939344299071
 10
95.45050453342904
 20
-127.5939344299071
 10
95.46462942491857
 20
-127.5984130540379
 10
95.47909882595661
 20
-127.6046142259113
 10
95.47909882595661
 20
-127.6214951937891
 10
95.47909882595661
 20
-127.6383761616668
 10
95.47496471137431
 20
-127.640443218958
 10
95.42604435548377
 20
-127.6618028109665
 10
95.4098524067031
 20
-127.7379394211905
 10
95.38539222875782
 20
-127.8288899420011
 10
95.33853893015842
 20
-127.9556694558583
 10
95.33853893015842
 20
-127.9556694558583
 10
95.66410045351454
 20
-127.9556694558583
 10
95.66410045351454
 20
-127.9556694558583
 10
95.70061846565818
 20
-127.9556694558583
 10
95.8249864126757
 20
-127.951535341276
 10
95.87149520172657
 20
-127.9453341694026
 10
95.87149520172657
 20
-127.9453341694026
 10
95.96106768434306
 20
-128.0149250982046
 10
95.96106768434306
 20
-128.0149250982046
 10
95.95314396472699
 20
-128.0362846902132
 10
95.94694279285355
 20
-128.055232715382
 10
95.93281790136402
 20
-128.0910617084286
 97
        0
 97
        0
 92
        1
 93
        4
 72
     1
 10
94.48381074026794
 20
-128.2161186745432
 11
94.33119301027138
 21
-128.2161186745432
 72
     1
 10
94.33119301027138
 20
-128.2161186745432
 11
94.33119301027138
 21
-128.3449652456916
 72
     1
 10
94.33119301027138
 20
-128.3449652456916
 11
94.48381074026794
 21
-128.3449652456916
 72
     1
 10
94.48381074026794
 20
-128.3449652456916
 11
94.48381074026794
 21
-128.2161186745432
 97
        0
 92
        1
 93
        4
 72
     1
 10
94.48381074026794
 20
-128.488970236975
 11
94.33119301027138
 21
-128.488970236975
 72
     1
 10
94.33119301027138
 20
-128.488970236975
 11
94.33119301027138
 21
-128.6178168081233
 72
     1
 10
94.33119301027138
 20
-128.6178168081233
 11
94.48381074026794
 21
-128.6178168081233
 72
     1
 10
94.48381074026794
 20
-128.6178168081233
 11
94.48381074026794
 21
-128.488970236975
 97
        0
 92
        1
 93
        4
 72
     1
 10
94.80351560129913
 20
-128.2161186745432
 11
94.6488308140114
 21
-128.2161186745432
 72
     1
 10
94.6488308140114
 20
-128.2161186745432
 11
94.6488308140114
 21
-128.3449652456916
 72
     1
 10
94.6488308140114
 20
-128.3449652456916
 11
94.80351560129913
 21
-128.3449652456916
 72
     1
 10
94.80351560129913
 20
-128.3449652456916
 11
94.80351560129913
 21
-128.2161186745432
 97
        0
 92
        1
 93
        4
 72
     1
 10
94.80351560129913
 20
-128.488970236975
 11
94.6488308140114
 21
-128.488970236975
 72
     1
 10
94.6488308140114
 20
-128.488970236975
 11
94.6488308140114
 21
-128.6178168081233
 72
     1
 10
94.6488308140114
 20
-128.6178168081233
 11
94.80351560129913
 21
-128.6178168081233
 72
     1
 10
94.80351560129913
 20
-128.6178168081233
 11
94.80351560129913
 21
-128.488970236975
 97
        0
 92
        1
 93
        1
 72
     4
 94
        3
 73
     0
 74
     1
 95
       41
 96
       37
 40
0.0
 40
0.0
 40
0.0
 40
0.0
 40
1.0
 40
1.0
 40
1.0
 40
2.0
 40
2.0
 40
2.0
 40
3.0
 40
3.0
 40
3.0
 40
4.0
 40
4.0
 40
4.0
 40
5.0
 40
5.0
 40
5.0
 40
6.0
 40
6.0
 40
6.0
 40
7.0
 40
7.0
 40
7.0
 40
8.0
 40
8.0
 40
8.0
 40
9.0
 40
9.0
 40
9.0
 40
10.0
 40
10.0
 40
10.0
 40
11.0
 40
11.0
 40
11.0
 40
12.0
 40
12.0
 40
12.0
 40
12.0
 10
95.8511691383636
 20
-129.447051291423
 10
95.61931421220629
 20
-129.3116590388526
 10
95.4484374761379
 20
-129.0157253366697
 10
95.4098524067031
 20
-128.8865342559728
 10
95.29375268885018
 20
-129.15111758924
 10
95.13700084427131
 20
-129.3288845162789
 10
94.96198999362062
 20
-129.4429171768407
 10
94.96198999362062
 20
-129.4429171768407
 10
94.7728542514804
 20
-129.3054578669792
 10
94.7728542514804
 20
-129.3054578669792
 10
94.84003361344277
 20
-129.2799641603883
 10
94.98024899969244
 20
-129.2186414607509
 10
95.09841577483651
 20
-129.0643011830117
 10
95.21864960727173
 20
-128.9078938479814
 10
95.30408797530593
 20
-128.6750053931785
 10
95.30408797530593
 20
-128.4149006840421
 10
95.30408797530593
 20
-128.3132703672272
 10
95.29168563155903
 20
-128.2412678715855
 10
95.2816948546518
 20
-128.1947590825347
 10
95.2816948546518
 20
-128.1947590825347
 10
95.47909882595661
 20
-128.2161186745432
 10
95.47909882595661
 20
-128.2161186745432
 10
95.4994248893196
 20
-128.2181857318344
 10
95.51975095268257
 20
-128.2202527891255
 10
95.51975095268257
 20
-128.2412678715855
 10
95.51975095268257
 20
-128.2605604063029
 10
95.50941566622681
 20
-128.2688286354675
 10
95.47703176866547
 20
-128.2898437179275
 10
95.46876353950087
 20
-128.4910372942661
 10
95.52354055771634
 20
-128.7342610355248
 10
95.58279620006265
 20
-128.8548393775085
 10
95.67030162538798
 20
-129.0305392472563
 10
95.85737031023704
 20
-129.2103732315863
 10
95.9875949195795
 20
-129.2672173070929
 10
95.9875949195795
 20
-129.2672173070929
 10
95.8511691383636
 20
-129.447051291423
 10
95.8511691383636
 20
-129.447051291423
 97
        0
 97
        0
 75
     2
 76
     1
 98
        0
  0
SPLINE
  5
F4
330
D1
100
AcDbEntity
  8
_U+30EC_U+30A4_U+30E4_U+30FC 1
370
     0
100
AcDbSpline
210
0.0
220
0.0
230
1.0
 70
    11
 71
     3
 72
    71
 73
    67
 74
     0
 42
0.0000000001
 43
0.0000000001
 12
1.0
 22
0.0
 32
0.0
 13
1.0
 23
0.0
 33
0.0
 40
0.0
 40
0.0
 40
0.0
 40
0.0
 40
1.0
 40
1.0
 40
1.0
 40
2.0
 40
2.0
 40
2.0
 40
3.0
 40
3.0
 40
3.0
 40
4.0
 40
4.0
 40
4.0
 40
5.0
 40
5.0
 40
5.0
 40
6.0
 40
6.0
 40
6.0
 40
7.0
 40
7.0
 40
7.0
 40
8.0
 40
8.0
 40
8.0
 40
9.0
 40
9.0
 40
9.0
 40
10.0
 40
10.0
 40
10.0
 40
11.0
 40
11.0
 40
11.0
 40
12.0
 40
12.0
 40
12.0
 40
13.0
 40
13.0
 40
13.0
 40
14.0
 40
14.0
 40
14.0
 40
15.0
 40
15.0
 40
15.0
 40
16.0
 40
16.0
 40
16.0
 40
17.0
 40
17.0
 40
17.0
 40
18.0
 40
18.0
 40
18.0
 40
19.0
 40
19.0
 40
19.0
 40
20.0
 40
20.0
 40
20.0
 40
21.0
 40
21.0
 40
21.0
 40
22.0
 40
22.0
 40
22.0
 40
22.0
 10
96.9983859349518
 20
-127.7145127718908
 30
0.0
 10
96.98426104346227
 20
-127.7145127718908
 30
0.0
 10
96.97185869971537
 20
-127.7103786573085
 30
0.0
 10
96.94774303131862
 20
-127.7017659185954
 30
0.0
 10
96.81131725010273
 20
-127.7482747076463
 30
0.0
 10
96.64457462861664
 20
-127.7655001850725
 30
0.0
 10
96.51021590469189
 20
-127.7696342996548
 30
0.0
 10
96.51021590469189
 20
-127.7696342996548
 30
0.0
 10
96.50814884740075
 20
-127.8585177631743
 30
0.0
 10
96.50814884740075
 20
-127.8585177631743
 30
0.0
 10
96.50814884740075
 20
-127.8585177631743
 30
0.0
 10
96.75826277962989
 20
-127.8585177631743
 30
0.0
 10
96.75826277962989
 20
-127.8585177631743
 30
0.0
 10
96.80925019281158
 20
-127.8585177631743
 30
0.0
 10
96.98426104346227
 20
-127.8499050244611
 30
0.0
 10
97.02698022747937
 20
-127.8437038525877
 30
0.0
 10
97.02698022747937
 20
-127.8437038525877
 30
0.0
 10
97.02698022747937
 20
-128.0045898117489
 30
0.0
 10
97.02698022747937
 20
-128.0045898117489
 30
0.0
 10
96.97392575700653
 20
-127.9980441303269
 30
0.0
 10
96.85403643411983
 20
-127.9959770730357
 30
0.0
 10
96.81751842197617
 20
-127.9980441303269
 30
0.0
 10
96.81751842197617
 20
-127.9980441303269
 30
0.0
 10
96.81751842197617
 20
-128.1079426763064
 30
0.0
 10
96.81751842197617
 20
-128.1079426763064
 30
0.0
 10
96.81751842197617
 20
-128.1547959749057
 30
0.0
 10
96.8192409697188
 20
-128.2181857318344
 30
0.0
 10
96.82544214159225
 20
-128.2560817821721
 30
0.0
 10
96.82544214159225
 20
-128.2560817821721
 30
0.0
 10
96.64044051403434
 20
-128.2560817821721
 30
0.0
 10
96.64044051403434
 20
-128.2560817821721
 30
0.0
 10
96.64629717635927
 20
-128.2161186745432
 30
0.0
 10
96.65249834823271
 20
-128.1334363828972
 30
0.0
 10
96.65249834823271
 20
-128.1186224723106
 30
0.0
 10
96.65249834823271
 20
-128.1186224723106
 30
0.0
 10
96.65249834823271
 20
-127.9980441303269
 30
0.0
 10
96.65249834823271
 20
-127.9980441303269
 30
0.0
 10
96.65249834823271
 20
-127.9980441303269
 30
0.0
 10
96.49367944636269
 20
-127.9980441303269
 30
0.0
 10
96.49367944636269
 20
-127.9980441303269
 30
0.0
 10
96.45302731963675
 20
-128.2181857318344
 30
0.0
 10
96.40031735871243
 20
-128.2984564566407
 30
0.0
 10
96.29834253234903
 20
-128.3980197161644
 30
0.0
 10
96.29834253234903
 20
-128.3980197161644
 30
0.0
 10
96.13780108273639
 20
-128.2836425460541
 30
0.0
 10
96.13780108273639
 20
-128.2836425460541
 30
0.0
 10
96.1987792728253
 20
-128.2350666997121
 30
0.0
 10
96.34312877365728
 20
-128.1227565868929
 30
0.0
 10
96.34312877365728
 20
-127.7737684142371
 30
0.0
 10
96.34312877365728
 20
-127.6914306321396
 30
0.0
 10
96.3352050540412
 20
-127.6449218430888
 30
0.0
 10
96.3269368248766
 20
-127.5960014871982
 30
0.0
 10
96.4674967206748
 20
-127.6108153977848
 30
0.0
 10
96.48162161216432
 20
-127.6108153977848
 30
0.0
 10
96.51607256701682
 20
-127.6108153977848
 30
0.0
 10
96.62011445067137
 20
-127.6108153977848
 30
0.0
 10
96.75619572233873
 20
-127.5939344299071
 30
0.0
 10
96.91088050962645
 20
-127.5326117302696
 30
0.0
 10
96.91088050962645
 20
-127.5326117302696
 30
0.0
 10
97.02077905560591
 20
-127.6638698682576
 30
0.0
 10
97.02077905560591
 20
-127.6638698682576
 30
0.0
 10
97.02698022747937
 20
-127.6700710401311
 30
0.0
 10
97.03111434206167
 20
-127.6786837788442
 30
0.0
 10
97.03111434206167
 20
-127.6869520080088
 30
0.0
 10
97.03111434206167
 20
-127.7103786573085
 30
0.0
 10
97.01285533598984
 20
-127.7145127718908
 30
0.0
 10
96.9983859349518
 20
-127.7145127718908
 30
0.0
  0
SPLINE
  5
F5
330
D1
100
AcDbEntity
  8
_U+30EC_U+30A4_U+30E4_U+30FC 1
370
     0
100
AcDbSpline
210
0.0
220
0.0
230
1.0
 70
    11
 71
     3
 72
    74
 73
    70
 74
     0
 42
0.0000000001
 43
0.0000000001
 12
1.0
 22
0.0
 32
0.0
 13
1.0
 23
0.0
 33
0.0
 40
0.0
 40
0.0
 40
0.0
 40
0.0
 40
1.0
 40
1.0
 40
1.0
 40
2.0
 40
2.0
 40
2.0
 40
3.0
 40
3.0
 40
3.0
 40
4.0
 40
4.0
 40
4.0
 40
5.0
 40
5.0
 40
5.0
 40
6.0
 40
6.0
 40
6.0
 40
7.0
 40
7.0
 40
7.0
 40
8.0
 40
8.0
 40
8.0
 40
9.0
 40
9.0
 40
9.0
 40
10.0
 40
10.0
 40
10.0
 40
11.0
 40
11.0
 40
11.0
 40
12.0
 40
12.0
 40
12.0
 40
13.0
 40
13.0
 40
13.0
 40
14.0
 40
14.0
 40
14.0
 40
15.0
 40
15.0
 40
15.0
 40
16.0
 40
16.0
 40
16.0
 40
17.0
 40
17.0
 40
17.0
 40
18.0
 40
18.0
 40
18.0
 40
19.0
 40
19.0
 40
19.0
 40
20.0
 40
20.0
 40
20.0
 40
21.0
 40
21.0
 40
21.0
 40
22.0
 40
22.0
 40
22.0
 40
23.0
 40
23.0
 40
23.0
 40
23.0
 10
97.80419376895173
 20
-129.4811577367269
 30
0.0
 10
97.59886607803084
 20
-129.4704779407227
 30
0.0
 10
97.4052517117598
 20
-129.3836615344944
 30
0.0
 10
97.23644203298257
 20
-129.2630831925106
 30
0.0
 10
97.23644203298257
 20
-129.2630831925106
 30
0.0
 10
97.33014863018136
 20
-129.1762667862823
 30
0.0
 10
97.33014863018136
 20
-129.1762667862823
 30
0.0
 10
97.33014863018136
 20
-129.1762667862823
 30
0.0
 10
96.79891490635583
 20
-129.1762667862823
 30
0.0
 10
96.79891490635583
 20
-129.1762667862823
 30
0.0
 10
96.79891490635583
 20
-129.1762667862823
 30
0.0
 10
96.87642955477395
 20
-129.2400010527595
 30
0.0
 10
96.87642955477395
 20
-129.2400010527595
 30
0.0
 10
96.8826307266474
 20
-129.2441351673417
 30
0.0
 10
96.89262150355462
 20
-129.254814963346
 30
0.0
 10
96.89262150355462
 20
-129.2696288739326
 30
0.0
 10
96.89262150355462
 20
-129.3095919815615
 30
0.0
 10
96.82130802700995
 20
-129.303390809688
 30
0.0
 10
96.80718313552043
 20
-129.3013237523969
 30
0.0
 10
96.58531898627034
 20
-129.4408501195495
 30
0.0
 10
96.44717065731183
 20
-129.4725449980138
 30
0.0
 10
96.34726288823958
 20
-129.4894259658915
 30
0.0
 10
96.34726288823958
 20
-129.4894259658915
 30
0.0
 10
96.22323945077058
 20
-129.3116590388526
 30
0.0
 10
96.22323945077058
 20
-129.3116590388526
 30
0.0
 10
96.46129554880135
 20
-129.2799641603883
 30
0.0
 10
96.55879175103392
 20
-129.2334553713375
 30
0.0
 10
96.64457462861664
 20
-129.1807454104132
 30
0.0
 10
96.57326115207196
 20
-129.1828124677043
 30
0.0
 10
96.4633626060925
 20
-129.1848795249955
 30
0.0
 10
96.43270125627377
 20
-129.1869465822866
 30
0.0
 10
96.44717065731183
 20
-129.0980631187672
 30
0.0
 10
96.44923771460297
 20
-128.9692165476188
 30
0.0
 10
96.44923771460297
 20
-128.8951469946859
 30
0.0
 10
96.44923771460297
 20
-128.8951469946859
 30
0.0
 10
96.44923771460297
 20
-128.5947346683722
 30
0.0
 10
96.44923771460297
 20
-128.5947346683722
 30
0.0
 10
96.44923771460297
 20
-128.4951714088484
 30
0.0
 10
96.44303654272953
 20
-128.3959526588732
 30
0.0
 10
96.43270125627377
 20
-128.2984564566407
 30
0.0
 10
96.53054196805486
 20
-128.3046576285141
 30
0.0
 10
96.75240611730496
 20
-128.3112033099361
 30
0.0
 10
96.85610349141098
 20
-128.3112033099361
 30
0.0
 10
96.85610349141098
 20
-128.3112033099361
 30
0.0
 10
97.26296926821898
 20
-128.3112033099361
 30
0.0
 10
97.26296926821898
 20
-128.3112033099361
 30
0.0
 10
97.37700192878076
 20
-128.3112033099361
 30
0.0
 10
97.4176540555067
 20
-128.3112033099361
 30
0.0
 10
97.49689125166745
 20
-128.3070691953538
 30
0.0
 10
97.6395182047568
 20
-128.3005235139318
 30
0.0
 10
97.65571015353747
 20
-128.3005235139318
 30
0.0
 10
97.70049639484571
 20
-128.2984564566407
 30
0.0
 10
97.69222816568112
 20
-128.378727181447
 30
0.0
 10
97.68809405109882
 20
-128.537546083317
 30
0.0
 10
97.68809405109882
 20
-128.6198838654145
 30
0.0
 10
97.68809405109882
 20
-128.6198838654145
 30
0.0
 10
97.68809405109882
 20
-128.9054822811417
 30
0.0
 10
97.68809405109882
 20
-128.9054822811417
 30
0.0
 10
97.68809405109882
 20
-128.9774847767834
 30
0.0
 10
97.69016110838996
 20
-129.1087429147714
 30
0.0
 10
97.70049639484571
 20
-129.1869465822866
 30
0.0
 10
97.6312499755922
 20
-129.1828124677043
 30
0.0
 10
97.51308320044812
 20
-129.1807454104132
 30
0.0
 10
97.43798011886967
 20
-129.178678353122
 30
0.0
 10
97.54374455026685
 20
-129.2462022246329
 30
0.0
 10
97.69016110838996
 20
-129.2968451282661
 30
0.0
 10
97.89376625156822
 20
-129.3013237523969
 30
0.0
 10
97.89376625156822
 20
-129.3013237523969
 30
0.0
 10
97.80419376895173
 20
-129.4811577367269
 30
0.0
 10
97.80419376895173
 20
-129.4811577367269
 30
0.0
  0
POLYLINE
  5
F6
330
D1
100
AcDbEntity
  8
_U+30EC_U+30A4_U+30E4_U+30FC 1
370
     0
100
AcDb2dPolyline
 66
     1
 10
0.0
 20
0.0
 30
0.0
  0
VERTEX
  5
F7
330
F6
100
AcDbEntity
  8
_U+30EC_U+30A4_U+30E4_U+30FC 1
370
     0
100
AcDbVertex
100
AcDb2dVertex
 10
97.51136065270549
 20
-128.4465955625064
 30
0.0
  0
VERTEX
  5
F8
330
F6
100
AcDbEntity
  8
_U+30EC_U+30A4_U+30E4_U+30FC 1
370
     0
100
AcDbVertex
100
AcDb2dVertex
 10
96.6342393421609
 20
-128.4465955625064
 30
0.0
  0
VERTEX
  5
F9
330
F6
100
AcDbEntity
  8
_U+30EC_U+30A4_U+30E4_U+30FC 1
370
     0
100
AcDbVertex
100
AcDb2dVertex
 10
96.6342393421609
 20
-128.558561165777
 30
0.0
  0
VERTEX
  5
FA
330
F6
100
AcDbEntity
  8
_U+30EC_U+30A4_U+30E4_U+30FC 1
370
     0
100
AcDbVertex
100
AcDb2dVertex
 10
97.51136065270549
 20
-128.558561165777
 30
0.0
  0
VERTEX
  5
FB
330
F6
100
AcDbEntity
  8
_U+30EC_U+30A4_U+30E4_U+30FC 1
370
     0
100
AcDbVertex
100
AcDb2dVertex
 10
97.51136065270549
 20
-128.4465955625064
 30
0.0
  0
SEQEND
  5
FC
330
F6
100
AcDbEntity
  8
_U+30EC_U+30A4_U+30E4_U+30FC 1
370
     0
  0
POLYLINE
  5
FD
330
D1
100
AcDbEntity
  8
_U+30EC_U+30A4_U+30E4_U+30FC 1
370
     0
100
AcDb2dPolyline
 66
     1
 10
0.0
 20
0.0
 30
0.0
  0
VERTEX
  5
FE
330
FD
100
AcDbEntity
  8
_U+30EC_U+30A4_U+30E4_U+30FC 1
370
     0
100
AcDbVertex
100
AcDb2dVertex
 10
97.51136065270549
 20
-128.6918863610562
 30
0.0
  0
VERTEX
  5
FF
330
FD
100
AcDbEntity
  8
_U+30EC_U+30A4_U+30E4_U+30FC 1
370
     0
100
AcDbVertex
100
AcDb2dVertex
 10
96.6342393421609
 20
-128.6918863610562
 30
0.0
  0
VERTEX
  5
100
330
FD
100
AcDbEntity
  8
_U+30EC_U+30A4_U+30E4_U+30FC 1
370
     0
100
AcDbVertex
100
AcDb2dVertex
 10
96.6342393421609
 20
-128.8021294165842
 30
0.0
  0
VERTEX
  5
101
330
FD
100
AcDbEntity
  8
_U+30EC_U+30A4_U+30E4_U+30FC 1
370
     0
100
AcDbVertex
100
AcDb2dVertex
 10
97.51136065270549
 20
-128.8021294165842
 30
0.0
  0
VERTEX
  5
102
330
FD
100
AcDbEntity
  8
_U+30EC_U+30A4_U+30E4_U+30FC 1
370
     0
100
AcDbVertex
100
AcDb2dVertex
 10
97.51136065270549
 20
-128.6918863610562
 30
0.0
  0
SEQEND
  5
103
330
FD
100
AcDbEntity
  8
_U+30EC_U+30A4_U+30E4_U+30FC 1
370
     0
  0
POLYLINE
  5
104
330
D1
100
AcDbEntity
  8
_U+30EC_U+30A4_U+30E4_U+30FC 1
370
     0
100
AcDb2dPolyline
 66
     1
 10
0.0
 20
0.0
 30
0.0
  0
VERTEX
  5
105
330
104
100
AcDbEntity
  8
_U+30EC_U+30A4_U+30E4_U+30FC 1
370
     0
100
AcDbVertex
100
AcDb2dVertex
 10
97.51136065270549
 20
-128.9375216691545
 30
0.0
  0
VERTEX
  5
106
330
104
100
AcDbEntity
  8
_U+30EC_U+30A4_U+30E4_U+30FC 1
370
     0
100
AcDbVertex
100
AcDb2dVertex
 10
96.6342393421609
 20
-128.9375216691545
 30
0.0
  0
VERTEX
  5
107
330
104
100
AcDbEntity
  8
_U+30EC_U+30A4_U+30E4_U+30FC 1
370
     0
100
AcDbVertex
100
AcDb2dVertex
 10
96.6342393421609
 20
-129.0453531578428
 30
0.0
  0
VERTEX
  5
108
330
104
100
AcDbEntity
  8
_U+30EC_U+30A4_U+30E4_U+30FC 1
370
     0
100
AcDbVertex
100
AcDb2dVertex
 10
97.51136065270549
 20
-129.0453531578428
 30
0.0
  0
VERTEX
  5
109
330
104
100
AcDbEntity
  8
_U+30EC_U+30A4_U+30E4_U+30FC 1
370
     0
100
AcDbVertex
100
AcDb2dVertex
 10
97.51136065270549
 20
-128.9375216691545
 30
0.0
  0
SEQEND
  5
10A
330
104
100
AcDbEntity
  8
_U+30EC_U+30A4_U+30E4_U+30FC 1
370
     0
  0
SPLINE
  5
10B
330
D1
100
AcDbEntity
  8
_U+30EC_U+30A4_U+30E4_U+30FC 1
370
     0
100
AcDbSpline
210
0.0
220
0.0
230
1.0
 70
    11
 71
     3
 72
    74
 73
    70
 74
     0
 42
0.0000000001
 43
0.0000000001
 12
1.0
 22
0.0
 32
0.0
 13
1.0
 23
0.0
 33
0.0
 40
0.0
 40
0.0
 40
0.0
 40
0.0
 40
1.0
 40
1.0
 40
1.0
 40
2.0
 40
2.0
 40
2.0
 40
3.0
 40
3.0
 40
3.0
 40
4.0
 40
4.0
 40
4.0
 40
5.0
 40
5.0
 40
5.0
 40
6.0
 40
6.0
 40
6.0
 40
7.0
 40
7.0
 40
7.0
 40
8.0
 40
8.0
 40
8.0
 40
9.0
 40
9.0
 40
9.0
 40
10.0
 40
10.0
 40
10.0
 40
11.0
 40
11.0
 40
11.0
 40
12.0
 40
12.0
 40
12.0
 40
13.0
 40
13.0
 40
13.0
 40
14.0
 40
14.0
 40
14.0
 40
15.0
 40
15.0
 40
15.0
 40
16.0
 40
16.0
 40
16.0
 40
17.0
 40
17.0
 40
17.0
 40
18.0
 40
18.0
 40
18.0
 40
19.0
 40
19.0
 40
19.0
 40
20.0
 40
20.0
 40
20.0
 40
21.0
 40
21.0
 40
21.0
 40
22.0
 40
22.0
 40
22.0
 40
23.0
 40
23.0
 40
23.0
 40
23.0
 10
97.81659611269863
 20
-127.9939100157446
 30
0.0
 10
97.81659611269863
 20
-127.9939100157446
 30
0.0
 10
97.66191132541091
 20
-127.9939100157446
 30
0.0
 10
97.66191132541091
 20
-127.9939100157446
 30
0.0
 10
97.66191132541091
 20
-127.9939100157446
 30
0.0
 10
97.66191132541091
 20
-128.1079426763064
 30
0.0
 10
97.66191132541091
 20
-128.1079426763064
 30
0.0
 10
97.66191132541091
 20
-128.1482502934838
 30
0.0
 10
97.66776798773584
 20
-128.2223198464166
 30
0.0
 10
97.67190210231814
 20
-128.2478135530075
 30
0.0
 10
97.67190210231814
 20
-128.2478135530075
 30
0.0
 10
97.4686414686884
 20
-128.2478135530075
 30
0.0
 10
97.4686414686884
 20
-128.2478135530075
 30
0.0
 10
97.47863224559562
 20
-128.1820122292392
 30
0.0
 10
97.48069930288678
 20
-128.1227565868929
 30
0.0
 10
97.48069930288678
 20
-128.1206895296018
 30
0.0
 10
97.48069930288678
 20
-128.1206895296018
 30
0.0
 10
97.48069930288678
 20
-127.9980441303269
 30
0.0
 10
97.48069930288678
 20
-127.9980441303269
 30
0.0
 10
97.48069930288678
 20
-127.9980441303269
 30
0.0
 10
97.30775550952723
 20
-127.9980441303269
 30
0.0
 10
97.30775550952723
 20
-127.9980441303269
 30
0.0
 10
97.28949650345541
 20
-128.0572997726732
 30
0.0
 10
97.24471026214717
 20
-128.2033718212478
 30
0.0
 10
97.13481171616769
 20
-128.2857096033453
 30
0.0
 10
97.13481171616769
 20
-128.2857096033453
 30
0.0
 10
96.98426104346227
 20
-128.1799451719481
 30
0.0
 10
96.98426104346227
 20
-128.1799451719481
 30
0.0
 10
97.05557452000694
 20
-128.1334363828972
 30
0.0
 10
97.16719561372904
 20
-128.0593668299643
 30
0.0
 10
97.16719561372904
 20
-127.7379394211905
 30
0.0
 10
97.16719561372904
 20
-127.6828178934265
 30
0.0
 10
97.16340600869526
 20
-127.6383761616668
 30
0.0
 10
97.16133895140412
 20
-127.600480111329
 30
0.0
 10
97.23437497569141
 20
-127.6087483404936
 30
0.0
 10
97.30568845223608
 20
-127.6152940219156
 30
0.0
 10
97.366666642325
 20
-127.6152940219156
 30
0.0
 10
97.5375433783934
 20
-127.6152940219156
 30
0.0
 10
97.72909068737329
 20
-127.5560383795693
 30
0.0
 10
97.78800182017106
 20
-127.5264105583962
 30
0.0
 10
97.78800182017106
 20
-127.5264105583962
 30
0.0
 10
97.90995820034891
 20
-127.6618028109665
 30
0.0
 10
97.90995820034891
 20
-127.6618028109665
 30
0.0
 10
97.91409231493121
 20
-127.6659369255488
 30
0.0
 10
97.91615937222235
 20
-127.6745496642619
 30
0.0
 10
97.91615937222235
 20
-127.6807508361354
 30
0.0
 10
97.91615937222235
 20
-127.7017659185954
 30
0.0
 10
97.90203448073282
 20
-127.7083116000174
 30
0.0
 10
97.88549802240362
 20
-127.7083116000174
 30
0.0
 10
97.86517195904065
 20
-127.7083116000174
 30
0.0
 10
97.85104706755114
 20
-127.6996988613042
 30
0.0
 10
97.8327880614793
 20
-127.6893635748485
 30
0.0
 10
97.66570093044469
 20
-127.7462076503551
 30
0.0
 10
97.4562391249415
 20
-127.771701356946
 30
0.0
 10
97.32808157289021
 20
-127.7737684142371
 30
0.0
 10
97.32808157289021
 20
-127.7737684142371
 30
0.0
 10
97.32394745830791
 20
-127.8564507058831
 30
0.0
 10
97.32394745830791
 20
-127.8564507058831
 30
0.0
 10
97.32394745830791
 20
-127.8564507058831
 30
0.0
 10
97.58646373428394
 20
-127.8564507058831
 30
0.0
 10
97.58646373428394
 20
-127.8564507058831
 30
0.0
 10
97.64158526204794
 20
-127.8564507058831
 30
0.0
 10
97.89376625156822
 20
-127.8371581711657
 30
0.0
 10
97.93648543558533
 20
-127.8309569992923
 30
0.0
 10
97.93648543558533
 20
-127.8309569992923
 30
0.0
 10
97.93648543558533
 20
-128.000111187618
 30
0.0
 10
97.93648543558533
 20
-128.000111187618
 30
0.0
 10
97.90375702847545
 20
-127.9959770730357
 30
0.0
 10
97.89169919427708
 20
-127.9939100157446
 30
0.0
 10
97.81659611269863
 20
-127.9939100157446
 30
0.0
  0
HATCH
  5
10C
330
D1
100
AcDbEntity
  8
_U+30EC_U+30A4_U+30E4_U+30FC 1
 62
   179
420
  2234388
100
AcDbHatch
 10
0.0
 20
0.0
 30
0.0
210
0.0
220
0.0
230
1.0
  2
SOLID
 70
     1
 71
     0
 91
        6
 92
        1
 93
        1
 72
     4
 94
        3
 73
     0
 74
     1
 95
       71
 96
       67
 40
0.0
 40
0.0
 40
0.0
 40
0.0
 40
1.0
 40
1.0
 40
1.0
 40
2.0
 40
2.0
 40
2.0
 40
3.0
 40
3.0
 40
3.0
 40
4.0
 40
4.0
 40
4.0
 40
5.0
 40
5.0
 40
5.0
 40
6.0
 40
6.0
 40
6.0
 40
7.0
 40
7.0
 40
7.0
 40
8.0
 40
8.0
 40
8.0
 40
9.0
 40
9.0
 40
9.0
 40
10.0
 40
10.0
 40
10.0
 40
11.0
 40
11.0
 40
11.0
 40
12.0
 40
12.0
 40
12.0
 40
13.0
 40
13.0
 40
13.0
 40
14.0
 40
14.0
 40
14.0
 40
15.0
 40
15.0
 40
15.0
 40
16.0
 40
16.0
 40
16.0
 40
17.0
 40
17.0
 40
17.0
 40
18.0
 40
18.0
 40
18.0
 40
19.0
 40
19.0
 40
19.0
 40
20.0
 40
20.0
 40
20.0
 40
21.0
 40
21.0
 40
21.0
 40
22.0
 40
22.0
 40
22.0
 40
22.0
 10
96.9983859349518
 20
-127.7145127718908
 10
96.98426104346227
 20
-127.7145127718908
 10
96.97185869971537
 20
-127.7103786573085
 10
96.94774303131862
 20
-127.7017659185954
 10
96.81131725010273
 20
-127.7482747076463
 10
96.64457462861664
 20
-127.7655001850725
 10
96.51021590469189
 20
-127.7696342996548
 10
96.51021590469189
 20
-127.7696342996548
 10
96.50814884740075
 20
-127.8585177631743
 10
96.50814884740075
 20
-127.8585177631743
 10
96.50814884740075
 20
-127.8585177631743
 10
96.75826277962989
 20
-127.8585177631743
 10
96.75826277962989
 20
-127.8585177631743
 10
96.80925019281158
 20
-127.8585177631743
 10
96.98426104346227
 20
-127.8499050244611
 10
97.02698022747937
 20
-127.8437038525877
 10
97.02698022747937
 20
-127.8437038525877
 10
97.02698022747937
 20
-128.0045898117489
 10
97.02698022747937
 20
-128.0045898117489
 10
96.97392575700653
 20
-127.9980441303269
 10
96.85403643411983
 20
-127.9959770730357
 10
96.81751842197617
 20
-127.9980441303269
 10
96.81751842197617
 20
-127.9980441303269
 10
96.81751842197617
 20
-128.1079426763064
 10
96.81751842197617
 20
-128.1079426763064
 10
96.81751842197617
 20
-128.1547959749057
 10
96.8192409697188
 20
-128.2181857318344
 10
96.82544214159225
 20
-128.2560817821721
 10
96.82544214159225
 20
-128.2560817821721
 10
96.64044051403434
 20
-128.2560817821721
 10
96.64044051403434
 20
-128.2560817821721
 10
96.64629717635927
 20
-128.2161186745432
 10
96.65249834823271
 20
-128.1334363828972
 10
96.65249834823271
 20
-128.1186224723106
 10
96.65249834823271
 20
-128.1186224723106
 10
96.65249834823271
 20
-127.9980441303269
 10
96.65249834823271
 20
-127.9980441303269
 10
96.65249834823271
 20
-127.9980441303269
 10
96.49367944636269
 20
-127.9980441303269
 10
96.49367944636269
 20
-127.9980441303269
 10
96.45302731963675
 20
-128.2181857318344
 10
96.40031735871243
 20
-128.2984564566407
 10
96.29834253234903
 20
-128.3980197161644
 10
96.29834253234903
 20
-128.3980197161644
 10
96.13780108273639
 20
-128.2836425460541
 10
96.13780108273639
 20
-128.2836425460541
 10
96.1987792728253
 20
-128.2350666997121
 10
96.34312877365728
 20
-128.1227565868929
 10
96.34312877365728
 20
-127.7737684142371
 10
96.34312877365728
 20
-127.6914306321396
 10
96.3352050540412
 20
-127.6449218430888
 10
96.3269368248766
 20
-127.5960014871982
 10
96.4674967206748
 20
-127.6108153977848
 10
96.48162161216432
 20
-127.6108153977848
 10
96.51607256701682
 20
-127.6108153977848
 10
96.62011445067137
 20
-127.6108153977848
 10
96.75619572233873
 20
-127.5939344299071
 10
96.91088050962645
 20
-127.5326117302696
 10
96.91088050962645
 20
-127.5326117302696
 10
97.02077905560591
 20
-127.6638698682576
 10
97.02077905560591
 20
-127.6638698682576
 10
97.02698022747937
 20
-127.6700710401311
 10
97.03111434206167
 20
-127.6786837788442
 10
97.03111434206167
 20
-127.6869520080088
 10
97.03111434206167
 20
-127.7103786573085
 10
97.01285533598984
 20
-127.7145127718908
 10
96.9983859349518
 20
-127.7145127718908
 97
        0
 97
        0
 92
        1
 93
        1
 72
     4
 94
        3
 73
     0
 74
     1
 95
       74
 96
       70
 40
0.0
 40
0.0
 40
0.0
 40
0.0
 40
1.0
 40
1.0
 40
1.0
 40
2.0
 40
2.0
 40
2.0
 40
3.0
 40
3.0
 40
3.0
 40
4.0
 40
4.0
 40
4.0
 40
5.0
 40
5.0
 40
5.0
 40
6.0
 40
6.0
 40
6.0
 40
7.0
 40
7.0
 40
7.0
 40
8.0
 40
8.0
 40
8.0
 40
9.0
 40
9.0
 40
9.0
 40
10.0
 40
10.0
 40
10.0
 40
11.0
 40
11.0
 40
11.0
 40
12.0
 40
12.0
 40
12.0
 40
13.0
 40
13.0
 40
13.0
 40
14.0
 40
14.0
 40
14.0
 40
15.0
 40
15.0
 40
15.0
 40
16.0
 40
16.0
 40
16.0
 40
17.0
 40
17.0
 40
17.0
 40
18.0
 40
18.0
 40
18.0
 40
19.0
 40
19.0
 40
19.0
 40
20.0
 40
20.0
 40
20.0
 40
21.0
 40
21.0
 40
21.0
 40
22.0
 40
22.0
 40
22.0
 40
23.0
 40
23.0
 40
23.0
 40
23.0
 10
97.80419376895173
 20
-129.4811577367269
 10
97.59886607803084
 20
-129.4704779407227
 10
97.4052517117598
 20
-129.3836615344944
 10
97.23644203298257
 20
-129.2630831925106
 10
97.23644203298257
 20
-129.2630831925106
 10
97.33014863018136
 20
-129.1762667862823
 10
97.33014863018136
 20
-129.1762667862823
 10
97.33014863018136
 20
-129.1762667862823
 10
96.79891490635583
 20
-129.1762667862823
 10
96.79891490635583
 20
-129.1762667862823
 10
96.79891490635583
 20
-129.1762667862823
 10
96.87642955477395
 20
-129.2400010527595
 10
96.87642955477395
 20
-129.2400010527595
 10
96.8826307266474
 20
-129.2441351673417
 10
96.89262150355462
 20
-129.254814963346
 10
96.89262150355462
 20
-129.2696288739326
 10
96.89262150355462
 20
-129.3095919815615
 10
96.82130802700995
 20
-129.303390809688
 10
96.80718313552043
 20
-129.3013237523969
 10
96.58531898627034
 20
-129.4408501195495
 10
96.44717065731183
 20
-129.4725449980138
 10
96.34726288823958
 20
-129.4894259658915
 10
96.34726288823958
 20
-129.4894259658915
 10
96.22323945077058
 20
-129.3116590388526
 10
96.22323945077058
 20
-129.3116590388526
 10
96.46129554880135
 20
-129.2799641603883
 10
96.55879175103392
 20
-129.2334553713375
 10
96.64457462861664
 20
-129.1807454104132
 10
96.57326115207196
 20
-129.1828124677043
 10
96.4633626060925
 20
-129.1848795249955
 10
96.43270125627377
 20
-129.1869465822866
 10
96.44717065731183
 20
-129.0980631187672
 10
96.44923771460297
 20
-128.9692165476188
 10
96.44923771460297
 20
-128.8951469946859
 10
96.44923771460297
 20
-128.8951469946859
 10
96.44923771460297
 20
-128.5947346683722
 10
96.44923771460297
 20
-128.5947346683722
 10
96.44923771460297
 20
-128.4951714088484
 10
96.44303654272953
 20
-128.3959526588732
 10
96.43270125627377
 20
-128.2984564566407
 10
96.53054196805486
 20
-128.3046576285141
 10
96.75240611730496
 20
-128.3112033099361
 10
96.85610349141098
 20
-128.3112033099361
 10
96.85610349141098
 20
-128.3112033099361
 10
97.26296926821898
 20
-128.3112033099361
 10
97.26296926821898
 20
-128.3112033099361
 10
97.37700192878076
 20
-128.3112033099361
 10
97.4176540555067
 20
-128.3112033099361
 10
97.49689125166745
 20
-128.3070691953538
 10
97.6395182047568
 20
-128.3005235139318
 10
97.65571015353747
 20
-128.3005235139318
 10
97.70049639484571
 20
-128.2984564566407
 10
97.69222816568112
 20
-128.378727181447
 10
97.68809405109882
 20
-128.537546083317
 10
97.68809405109882
 20
-128.6198838654145
 10
97.68809405109882
 20
-128.6198838654145
 10
97.68809405109882
 20
-128.9054822811417
 10
97.68809405109882
 20
-128.9054822811417
 10
97.68809405109882
 20
-128.9774847767834
 10
97.69016110838996
 20
-129.1087429147714
 10
97.70049639484571
 20
-129.1869465822866
 10
97.6312499755922
 20
-129.1828124677043
 10
97.51308320044812
 20
-129.1807454104132
 10
97.43798011886967
 20
-129.178678353122
 10
97.54374455026685
 20
-129.2462022246329
 10
97.69016110838996
 20
-129.2968451282661
 10
97.89376625156822
 20
-129.3013237523969
 10
97.89376625156822
 20
-129.3013237523969
 10
97.80419376895173
 20
-129.4811577367269
 10
97.80419376895173
 20
-129.4811577367269
 97
        0
 97
        0
 92
        1
 93
        4
 72
     1
 10
97.51136065270549
 20
-128.4465955625064
 11
96.6342393421609
 21
-128.4465955625064
 72
     1
 10
96.6342393421609
 20
-128.4465955625064
 11
96.6342393421609
 21
-128.558561165777
 72
     1
 10
96.6342393421609
 20
-128.558561165777
 11
97.51136065270549
 21
-128.558561165777
 72
     1
 10
97.51136065270549
 20
-128.558561165777
 11
97.51136065270549
 21
-128.4465955625064
 97
        0
 92
        1
 93
        4
 72
     1
 10
97.51136065270549
 20
-128.6918863610562
 11
96.6342393421609
 21
-128.6918863610562
 72
     1
 10
96.6342393421609
 20
-128.6918863610562
 11
96.6342393421609
 21
-128.8021294165842
 72
     1
 10
96.6342393421609
 20
-128.8021294165842
 11
97.51136065270549
 21
-128.8021294165842
 72
     1
 10
97.51136065270549
 20
-128.8021294165842
 11
97.51136065270549
 21
-128.6918863610562
 97
        0
 92
        1
 93
        4
 72
     1
 10
97.51136065270549
 20
-128.9375216691545
 11
96.6342393421609
 21
-128.9375216691545
 72
     1
 10
96.6342393421609
 20
-128.9375216691545
 11
96.6342393421609
 21
-129.0453531578428
 72
     1
 10
96.6342393421609
 20
-129.0453531578428
 11
97.51136065270549
 21
-129.0453531578428
 72
     1
 10
97.51136065270549
 20
-129.0453531578428
 11
97.51136065270549
 21
-128.9375216691545
 97
        0
 92
        1
 93
        1
 72
     4
 94
        3
 73
     0
 74
     1
 95
       74
 96
       70
 40
0.0
 40
0.0
 40
0.0
 40
0.0
 40
1.0
 40
1.0
 40
1.0
 40
2.0
 40
2.0
 40
2.0
 40
3.0
 40
3.0
 40
3.0
 40
4.0
 40
4.0
 40
4.0
 40
5.0
 40
5.0
 40
5.0
 40
6.0
 40
6.0
 40
6.0
 40
7.0
 40
7.0
 40
7.0
 40
8.0
 40
8.0
 40
8.0
 40
9.0
 40
9.0
 40
9.0
 40
10.0
 40
10.0
 40
10.0
 40
11.0
 40
11.0
 40
11.0
 40
12.0
 40
12.0
 40
12.0
 40
13.0
 40
13.0
 40
13.0
 40
14.0
 40
14.0
 40
14.0
 40
15.0
 40
15.0
 40
15.0
 40
16.0
 40
16.0
 40
16.0
 40
17.0
 40
17.0
 40
17.0
 40
18.0
 40
18.0
 40
18.0
 40
19.0
 40
19.0
 40
19.0
 40
20.0
 40
20.0
 40
20.0
 40
21.0
 40
21.0
 40
21.0
 40
22.0
 40
22.0
 40
22.0
 40
23.0
 40
23.0
 40
23.0
 40
23.0
 10
97.81659611269863
 20
-127.9939100157446
 10
97.81659611269863
 20
-127.9939100157446
 10
97.66191132541091
 20
-127.9939100157446
 10
97.66191132541091
 20
-127.9939100157446
 10
97.66191132541091
 20
-127.9939100157446
 10
97.66191132541091
 20
-128.1079426763064
 10
97.66191132541091
 20
-128.1079426763064
 10
97.66191132541091
 20
-128.1482502934838
 10
97.66776798773584
 20
-128.2223198464166
 10
97.67190210231814
 20
-128.2478135530075
 10
97.67190210231814
 20
-128.2478135530075
 10
97.4686414686884
 20
-128.2478135530075
 10
97.4686414686884
 20
-128.2478135530075
 10
97.47863224559562
 20
-128.1820122292392
 10
97.48069930288678
 20
-128.1227565868929
 10
97.48069930288678
 20
-128.1206895296018
 10
97.48069930288678
 20
-128.1206895296018
 10
97.48069930288678
 20
-127.9980441303269
 10
97.48069930288678
 20
-127.9980441303269
 10
97.48069930288678
 20
-127.9980441303269
 10
97.30775550952723
 20
-127.9980441303269
 10
97.30775550952723
 20
-127.9980441303269
 10
97.28949650345541
 20
-128.0572997726732
 10
97.24471026214717
 20
-128.2033718212478
 10
97.13481171616769
 20
-128.2857096033453
 10
97.13481171616769
 20
-128.2857096033453
 10
96.98426104346227
 20
-128.1799451719481
 10
96.98426104346227
 20
-128.1799451719481
 10
97.05557452000694
 20
-128.1334363828972
 10
97.16719561372904
 20
-128.0593668299643
 10
97.16719561372904
 20
-127.7379394211905
 10
97.16719561372904
 20
-127.6828178934265
 10
97.16340600869526
 20
-127.6383761616668
 10
97.16133895140412
 20
-127.600480111329
 10
97.23437497569141
 20
-127.6087483404936
 10
97.30568845223608
 20
-127.6152940219156
 10
97.366666642325
 20
-127.6152940219156
 10
97.5375433783934
 20
-127.6152940219156
 10
97.72909068737329
 20
-127.5560383795693
 10
97.78800182017106
 20
-127.5264105583962
 10
97.78800182017106
 20
-127.5264105583962
 10
97.90995820034891
 20
-127.6618028109665
 10
97.90995820034891
 20
-127.6618028109665
 10
97.91409231493121
 20
-127.6659369255488
 10
97.91615937222235
 20
-127.6745496642619
 10
97.91615937222235
 20
-127.6807508361354
 10
97.91615937222235
 20
-127.7017659185954
 10
97.90203448073282
 20
-127.7083116000174
 10
97.88549802240362
 20
-127.7083116000174
 10
97.86517195904065
 20
-127.7083116000174
 10
97.85104706755114
 20
-127.6996988613042
 10
97.8327880614793
 20
-127.6893635748485
 10
97.66570093044469
 20
-127.7462076503551
 10
97.4562391249415
 20
-127.771701356946
 10
97.32808157289021
 20
-127.7737684142371
 10
97.32808157289021
 20
-127.7737684142371
 10
97.32394745830791
 20
-127.8564507058831
 10
97.32394745830791
 20
-127.8564507058831
 10
97.32394745830791
 20
-127.8564507058831
 10
97.58646373428394
 20
-127.8564507058831
 10
97.58646373428394
 20
-127.8564507058831
 10
97.64158526204794
 20
-127.8564507058831
 10
97.89376625156822
 20
-127.8371581711657
 10
97.93648543558533
 20
-127.8309569992923
 10
97.93648543558533
 20
-127.8309569992923
 10
97.93648543558533
 20
-128.000111187618
 10
97.93648543558533
 20
-128.000111187618
 10
97.90375702847545
 20
-127.9959770730357
 10
97.89169919427708
 20
-127.9939100157446
 10
97.81659611269863
 20
-127.9939100157446
 97
        0
 97
        0
 75
     2
 76
     1
 98
        0
  0
ENDBLK
  5
D4
330
D1
100
AcDbEntity
  8
0
100
AcDbBlockEnd
  0
BLOCK
  5
11B
330
119
100
AcDbEntity
  8
0
100
AcDbBlockBegin
  2
block 5
 70
     0
 10
0.0
 20
0.0
 30
0.0
  3
block 5
  1

  0
SPLINE
  5
11D
330
119
100
AcDbEntity
  8
_U+30EC_U+30A4_U+30E4_U+30FC 1
370
     0
100
AcDbSpline
210
0.0
220
0.0
230
1.0
 70
    11
 71
     3
 72
    44
 73
    40
 74
     0
 42
0.0000000001
 43
0.0000000001
 12
1.0
 22
0.0
 32
0.0
 13
1.0
 23
0.0
 33
0.0
 40
0.0
 40
0.0
 40
0.0
 40
0.0
 40
1.0
 40
1.0
 40
1.0
 40
2.0
 40
2.0
 40
2.0
 40
3.0
 40
3.0
 40
3.0
 40
4.0
 40
4.0
 40
4.0
 40
5.0
 40
5.0
 40
5.0
 40
6.0
 40
6.0
 40
6.0
 40
7.0
 40
7.0
 40
7.0
 40
8.0
 40
8.0
 40
8.0
 40
9.0
 40
9.0
 40
9.0
 40
10.0
 40
10.0
 40
10.0
 40
11.0
 40
11.0
 40
11.0
 40
12.0
 40
12.0
 40
12.0
 40
13.0
 40
13.0
 40
13.0
 40
13.0
 10
71.1661987126772
 20
-118.0325886749189
 30
0.0
 10
70.95656465239975
 20
-118.1912353220147
 30
0.0
 10
70.86699216978326
 20
-118.2653048749476
 30
0.0
 10
70.82031112595811
 20
-118.4091376114567
 30
0.0
 10
70.82031112595811
 20
-118.4091376114567
 30
0.0
 10
71.5689303749029
 20
-118.4091376114567
 30
0.0
 10
71.5689303749029
 20
-118.4091376114567
 30
0.0
 10
71.5689303749029
 20
-118.4091376114567
 30
0.0
 10
71.5689303749029
 20
-118.6142930476034
 30
0.0
 10
71.5689303749029
 20
-118.6142930476034
 30
0.0
 10
71.5689303749029
 20
-118.6142930476034
 30
0.0
 10
70.5801879706362
 20
-118.6142930476034
 30
0.0
 10
70.5801879706362
 20
-118.6142930476034
 30
0.0
 10
70.61067706568066
 20
-118.2566921362344
 30
0.0
 10
70.67372231306074
 20
-118.1784884687193
 30
0.0
 10
71.0440700777251
 20
-117.8801431996966
 30
0.0
 10
71.29022215014619
 20
-117.6813611901977
 30
0.0
 10
71.35326739752627
 20
-117.6136650639126
 30
0.0
 10
71.35326739752627
 20
-117.4762057540511
 30
0.0
 10
71.35326739752627
 20
-117.3576944693585
 30
0.0
 10
71.284193233047
 20
-117.2266085861447
 30
0.0
 10
71.09488523613253
 20
-117.2266085861447
 30
0.0
 10
70.84459904912913
 20
-117.2266085861447
 30
0.0
 10
70.8365030747388
 20
-117.457085474108
 30
0.0
 10
70.8323689601565
 20
-117.5735297015094
 30
0.0
 10
70.8323689601565
 20
-117.5735297015094
 30
0.0
 10
70.61670598277985
 20
-117.5735297015094
 30
0.0
 10
70.61670598277985
 20
-117.5735297015094
 30
0.0
 10
70.62497421194445
 20
-117.4465779328779
 30
0.0
 10
70.63513724362595
 20
-117.3344400748331
 30
0.0
 10
70.71230738249554
 20
-117.2159287901405
 30
0.0
 10
70.81824406866697
 20
-117.0552150857536
 30
0.0
 10
70.9972167791257
 20
-117.0212808952239
 30
0.0
 10
71.10918238239631
 20
-117.0212808952239
 30
0.0
 10
71.3756605181804
 20
-117.0212808952239
 30
0.0
 10
71.57513154677636
 20
-117.2054212489105
 30
0.0
 10
71.57513154677636
 20
-117.4782728113422
 30
0.0
 10
71.57513154677636
 20
-117.7066826420143
 30
0.0
 10
71.46316594350574
 20
-117.806245901538
 30
0.0
 10
71.1661987126772
 20
-118.0325886749189
 30
0.0
  0
HATCH
  5
11E
330
119
100
AcDbEntity
  8
_U+30EC_U+30A4_U+30E4_U+30FC 1
 62
   179
420
  2234388
100
AcDbHatch
 10
0.0
 20
0.0
 30
0.0
210
0.0
220
0.0
230
1.0
  2
SOLID
 70
     1
 71
     0
 91
        1
 92
        1
 93
        1
 72
     4
 94
        3
 73
     0
 74
     1
 95
       44
 96
       40
 40
0.0
 40
0.0
 40
0.0
 40
0.0
 40
1.0
 40
1.0
 40
1.0
 40
2.0
 40
2.0
 40
2.0
 40
3.0
 40
3.0
 40
3.0
 40
4.0
 40
4.0
 40
4.0
 40
5.0
 40
5.0
 40
5.0
 40
6.0
 40
6.0
 40
6.0
 40
7.0
 40
7.0
 40
7.0
 40
8.0
 40
8.0
 40
8.0
 40
9.0
 40
9.0
 40
9.0
 40
10.0
 40
10.0
 40
10.0
 40
11.0
 40
11.0
 40
11.0
 40
12.0
 40
12.0
 40
12.0
 40
13.0
 40
13.0
 40
13.0
 40
13.0
 10
71.1661987126772
 20
-118.0325886749189
 10
70.95656465239975
 20
-118.1912353220147
 10
70.86699216978326
 20
-118.2653048749476
 10
70.82031112595811
 20
-118.4091376114567
 10
70.82031112595811
 20
-118.4091376114567
 10
71.5689303749029
 20
-118.4091376114567
 10
71.5689303749029
 20
-118.4091376114567
 10
71.5689303749029
 20
-118.4091376114567
 10
71.5689303749029
 20
-118.6142930476034
 10
71.5689303749029
 20
-118.6142930476034
 10
71.5689303749029
 20
-118.6142930476034
 10
70.5801879706362
 20
-118.6142930476034
 10
70.5801879706362
 20
-118.6142930476034
 10
70.61067706568066
 20
-118.2566921362344
 10
70.67372231306074
 20
-118.1784884687193
 10
71.0440700777251
 20
-117.8801431996966
 10
71.29022215014619
 20
-117.6813611901977
 10
71.35326739752627
 20
-117.6136650639126
 10
71.35326739752627
 20
-117.4762057540511
 10
71.35326739752627
 20
-117.3576944693585
 10
71.284193233047
 20
-117.2266085861447
 10
71.09488523613253
 20
-117.2266085861447
 10
70.84459904912913
 20
-117.2266085861447
 10
70.8365030747388
 20
-117.457085474108
 10
70.8323689601565
 20
-117.5735297015094
 10
70.8323689601565
 20
-117.5735297015094
 10
70.61670598277985
 20
-117.5735297015094
 10
70.61670598277985
 20
-117.5735297015094
 10
70.62497421194445
 20
-117.4465779328779
 10
70.63513724362595
 20
-117.3344400748331
 10
70.71230738249554
 20
-117.2159287901405
 10
70.81824406866697
 20
-117.0552150857536
 10
70.9972167791257
 20
-117.0212808952239
 10
71.10918238239631
 20
-117.0212808952239
 10
71.3756605181804
 20
-117.0212808952239
 10
71.57513154677636
 20
-117.2054212489105
 10
71.57513154677636
 20
-117.4782728113422
 10
71.57513154677636
 20
-117.7066826420143
 10
71.46316594350574
 20
-117.806245901538
 10
71.1661987126772
 20
-118.0325886749189
 97
        0
 97
        0
 75
     2
 76
     1
 98
        0
  0
SPLINE
  5
11F
330
119
100
AcDbEntity
  8
_U+30EC_U+30A4_U+30E4_U+30FC 1
370
     0
100
AcDbSpline
210
0.0
220
0.0
230
1.0
 70
    11
 71
     3
 72
    62
 73
    58
 74
     0
 42
0.0000000001
 43
0.0000000001
 12
1.0
 22
0.0
 32
0.0
 13
1.0
 23
0.0
 33
0.0
 40
0.0
 40
0.0
 40
0.0
 40
0.0
 40
1.0
 40
1.0
 40
1.0
 40
2.0
 40
2.0
 40
2.0
 40
3.0
 40
3.0
 40
3.0
 40
4.0
 40
4.0
 40
4.0
 40
5.0
 40
5.0
 40
5.0
 40
6.0
 40
6.0
 40
6.0
 40
7.0
 40
7.0
 40
7.0
 40
8.0
 40
8.0
 40
8.0
 40
9.0
 40
9.0
 40
9.0
 40
10.0
 40
10.0
 40
10.0
 40
11.0
 40
11.0
 40
11.0
 40
12.0
 40
12.0
 40
12.0
 40
13.0
 40
13.0
 40
13.0
 40
14.0
 40
14.0
 40
14.0
 40
15.0
 40
15.0
 40
15.0
 40
16.0
 40
16.0
 40
16.0
 40
17.0
 40
17.0
 40
17.0
 40
18.0
 40
18.0
 40
18.0
 40
19.0
 40
19.0
 40
19.0
 40
19.0
 10
72.19972735825216
 20
-118.6651082060108
 30
0.0
 10
72.10808781834452
 20
-118.6651082060108
 30
0.0
 10
71.89845375806706
 20
-118.6439208687765
 30
0.0
 10
71.7783921804061
 20
-118.4577134577988
 30
0.0
 10
71.7072509586357
 20
-118.3455755997539
 30
0.0
 10
71.7031168440534
 20
-118.2461845950044
 30
0.0
 10
71.69915498424535
 20
-118.1616075008416
 30
0.0
 10
71.69915498424535
 20
-118.1616075008416
 30
0.0
 10
71.91068384703969
 20
-118.1616075008416
 30
0.0
 10
71.91068384703969
 20
-118.1616075008416
 30
0.0
 10
71.91275090433085
 20
-118.2356770537744
 30
0.0
 10
71.92291393601234
 20
-118.4704603110942
 30
0.0
 10
72.19559324366986
 20
-118.4704603110942
 30
0.0
 10
72.32788491030345
 20
-118.4704603110942
 30
0.0
 10
72.47430146842656
 20
-118.4006971275179
 30
0.0
 10
72.47430146842656
 20
-118.1721150420716
 30
0.0
 10
72.47430146842656
 20
-118.0558430694444
 30
0.0
 10
72.43778345628292
 20
-118.0070949683281
 30
0.0
 10
72.4071221064642
 20
-117.9754000898638
 30
0.0
 10
72.33598088469378
 20
-117.9013305369309
 30
0.0
 10
72.22401528142316
 20
-117.8887559384098
 30
0.0
 10
72.17113306572458
 20
-117.8887559384098
 30
0.0
 10
72.15287405965276
 20
-117.8887559384098
 30
0.0
 10
72.118250850026
 20
-117.8908229957009
 30
0.0
 10
72.09189586956383
 20
-117.8949571102832
 30
0.0
 10
72.09189586956383
 20
-117.8949571102832
 30
0.0
 10
72.09189586956383
 20
-117.7003092153666
 30
0.0
 10
72.09189586956383
 20
-117.7003092153666
 30
0.0
 10
72.12841388170749
 20
-117.7066826420143
 30
0.0
 10
72.16906600843343
 20
-117.7089219540797
 30
0.0
 10
72.17526718030688
 20
-117.7089219540797
 30
0.0
 10
72.23831242768695
 20
-117.7089219540797
 30
0.0
 10
72.42951522711832
 20
-117.6877346168454
 30
0.0
 10
72.42951522711832
 20
-117.4507120474602
 30
0.0
 10
72.42951522711832
 20
-117.2731173751956
 30
0.0
 10
72.30342473235818
 20
-117.2179958474316
 30
0.0
 10
72.197660300961
 20
-117.2179958474316
 30
0.0
 10
71.94323999937531
 20
-117.2179958474316
 30
0.0
 10
71.93514402498496
 20
-117.4507120474602
 30
0.0
 10
71.93100991040266
 20
-117.522714543102
 30
0.0
 10
71.93100991040266
 20
-117.522714543102
 30
0.0
 10
71.735672996389
 20
-117.522714543102
 30
0.0
 10
71.735672996389
 20
-117.522714543102
 30
0.0
 10
71.7439412255536
 20
-117.3978298317617
 30
0.0
 10
71.77029620601576
 20
-117.0212808952239
 30
0.0
 10
72.20989038993365
 20
-117.0212808952239
 30
0.0
 10
72.42555336731029
 20
-117.0212808952239
 30
0.0
 10
72.6574082934676
 20
-117.1482326638553
 30
0.0
 10
72.6574082934676
 20
-117.4443386208125
 30
0.0
 10
72.6574082934676
 20
-117.6305460317903
 30
0.0
 10
72.5659410083342
 20
-117.713056068662
 30
0.0
 10
72.47033960861853
 20
-117.7743787682995
 30
0.0
 10
72.5292507414163
 20
-117.8019395321815
 30
0.0
 10
72.704261592067
 20
-117.882382511762
 30
0.0
 10
72.704261592067
 20
-118.1595404435504
 30
0.0
 10
72.704261592067
 20
-118.4980210749762
 30
0.0
 10
72.46620549403623
 20
-118.6651082060108
 30
0.0
 10
72.19972735825216
 20
-118.6651082060108
 30
0.0
  0
HATCH
  5
120
330
119
100
AcDbEntity
  8
_U+30EC_U+30A4_U+30E4_U+30FC 1
 62
   179
420
  2234388
100
AcDbHatch
 10
0.0
 20
0.0
 30
0.0
210
0.0
220
0.0
230
1.0
  2
SOLID
 70
     1
 71
     0
 91
        1
 92
        1
 93
        1
 72
     4
 94
        3
 73
     0
 74
     1
 95
       62
 96
       58
 40
0.0
 40
0.0
 40
0.0
 40
0.0
 40
1.0
 40
1.0
 40
1.0
 40
2.0
 40
2.0
 40
2.0
 40
3.0
 40
3.0
 40
3.0
 40
4.0
 40
4.0
 40
4.0
 40
5.0
 40
5.0
 40
5.0
 40
6.0
 40
6.0
 40
6.0
 40
7.0
 40
7.0
 40
7.0
 40
8.0
 40
8.0
 40
8.0
 40
9.0
 40
9.0
 40
9.0
 40
10.0
 40
10.0
 40
10.0
 40
11.0
 40
11.0
 40
11.0
 40
12.0
 40
12.0
 40
12.0
 40
13.0
 40
13.0
 40
13.0
 40
14.0
 40
14.0
 40
14.0
 40
15.0
 40
15.0
 40
15.0
 40
16.0
 40
16.0
 40
16.0
 40
17.0
 40
17.0
 40
17.0
 40
18.0
 40
18.0
 40
18.0
 40
19.0
 40
19.0
 40
19.0
 40
19.0
 10
72.19972735825216
 20
-118.6651082060108
 10
72.10808781834452
 20
-118.6651082060108
 10
71.89845375806706
 20
-118.6439208687765
 10
71.7783921804061
 20
-118.4577134577988
 10
71.7072509586357
 20
-118.3455755997539
 10
71.7031168440534
 20
-118.2461845950044
 10
71.69915498424535
 20
-118.1616075008416
 10
71.69915498424535
 20
-118.1616075008416
 10
71.91068384703969
 20
-118.1616075008416
 10
71.91068384703969
 20
-118.1616075008416
 10
71.91275090433085
 20
-118.2356770537744
 10
71.92291393601234
 20
-118.4704603110942
 10
72.19559324366986
 20
-118.4704603110942
 10
72.32788491030345
 20
-118.4704603110942
 10
72.47430146842656
 20
-118.4006971275179
 10
72.47430146842656
 20
-118.1721150420716
 10
72.47430146842656
 20
-118.0558430694444
 10
72.43778345628292
 20
-118.0070949683281
 10
72.4071221064642
 20
-117.9754000898638
 10
72.33598088469378
 20
-117.9013305369309
 10
72.22401528142316
 20
-117.8887559384098
 10
72.17113306572458
 20
-117.8887559384098
 10
72.15287405965276
 20
-117.8887559384098
 10
72.118250850026
 20
-117.8908229957009
 10
72.09189586956383
 20
-117.8949571102832
 10
72.09189586956383
 20
-117.8949571102832
 10
72.09189586956383
 20
-117.7003092153666
 10
72.09189586956383
 20
-117.7003092153666
 10
72.12841388170749
 20
-117.7066826420143
 10
72.16906600843343
 20
-117.7089219540797
 10
72.17526718030688
 20
-117.7089219540797
 10
72.23831242768695
 20
-117.7089219540797
 10
72.42951522711832
 20
-117.6877346168454
 10
72.42951522711832
 20
-117.4507120474602
 10
72.42951522711832
 20
-117.2731173751956
 10
72.30342473235818
 20
-117.2179958474316
 10
72.197660300961
 20
-117.2179958474316
 10
71.94323999937531
 20
-117.2179958474316
 10
71.93514402498496
 20
-117.4507120474602
 10
71.93100991040266
 20
-117.522714543102
 10
71.93100991040266
 20
-117.522714543102
 10
71.735672996389
 20
-117.522714543102
 10
71.735672996389
 20
-117.522714543102
 10
71.7439412255536
 20
-117.3978298317617
 10
71.77029620601576
 20
-117.0212808952239
 10
72.20989038993365
 20
-117.0212808952239
 10
72.42555336731029
 20
-117.0212808952239
 10
72.6574082934676
 20
-117.1482326638553
 10
72.6574082934676
 20
-117.4443386208125
 10
72.6574082934676
 20
-117.6305460317903
 10
72.5659410083342
 20
-117.713056068662
 10
72.47033960861853
 20
-117.7743787682995
 10
72.5292507414163
 20
-117.8019395321815
 10
72.704261592067
 20
-117.882382511762
 10
72.704261592067
 20
-118.1595404435504
 10
72.704261592067
 20
-118.4980210749762
 10
72.46620549403623
 20
-118.6651082060108
 10
72.19972735825216
 20
-118.6651082060108
 97
        0
 97
        0
 75
     2
 76
     1
 98
        0
  0
ENDBLK
  5
11C
330
119
100
AcDbEntity
  8
0
100
AcDbBlockEnd
  0
BLOCK
  5
12F
330
12D
100
AcDbEntity
  8
0
100
AcDbBlockBegin
  2
block 6
 70
     0
 10
0.0
 20
0.0
 30
0.0
  3
block 6
  1

  0
SPLINE
  5
131
330
12D
100
AcDbEntity
  8
_U+30EC_U+30A4_U+30E4_U+30FC 1
370
     0
100
AcDbSpline
210
0.0
220
0.0
230
1.0
 70
    11
 71
     3
 72
    44
 73
    40
 74
     0
 42
0.0000000001
 43
0.0000000001
 12
1.0
 22
0.0
 32
0.0
 13
1.0
 23
0.0
 33
0.0
 40
0.0
 40
0.0
 40
0.0
 40
0.0
 40
1.0
 40
1.0
 40
1.0
 40
2.0
 40
2.0
 40
2.0
 40
3.0
 40
3.0
 40
3.0
 40
4.0
 40
4.0
 40
4.0
 40
5.0
 40
5.0
 40
5.0
 40
6.0
 40
6.0
 40
6.0
 40
7.0
 40
7.0
 40
7.0
 40
8.0
 40
8.0
 40
8.0
 40
9.0
 40
9.0
 40
9.0
 40
10.0
 40
10.0
 40
10.0
 40
11.0
 40
11.0
 40
11.0
 40
12.0
 40
12.0
 40
12.0
 40
13.0
 40
13.0
 40
13.0
 40
13.0
 10
82.66627195198969
 20
-138.031884731117
 30
0.0
 10
82.45646563693798
 20
-138.1907036329871
 30
0.0
 10
82.36723766387
 20
-138.2647731859199
 30
0.0
 10
82.3203843652706
 20
-138.4084336676548
 30
0.0
 10
82.3203843652706
 20
-138.4084336676548
 30
0.0
 10
83.06900361421539
 20
-138.4084336676548
 30
0.0
 10
83.06900361421539
 20
-138.4084336676548
 30
0.0
 10
83.06900361421539
 20
-138.4084336676548
 30
0.0
 10
83.06900361421539
 20
-138.6137613585757
 30
0.0
 10
83.06900361421539
 20
-138.6137613585757
 30
0.0
 10
83.06900361421539
 20
-138.6137613585757
 30
0.0
 10
82.08026120994869
 20
-138.6137613585757
 30
0.0
 10
82.08026120994869
 20
-138.6137613585757
 30
0.0
 10
82.11057805021889
 20
-138.2561604472068
 30
0.0
 10
82.17362329759897
 20
-138.1779567796916
 30
0.0
 10
82.54397106226331
 20
-137.879611510669
 30
0.0
 10
82.79029538945868
 20
-137.6808295011701
 30
0.0
 10
82.85334063683875
 20
-137.6129611201107
 30
0.0
 10
82.85334063683875
 20
-137.4755018102492
 30
0.0
 10
82.85334063683875
 20
-137.3569905255566
 30
0.0
 10
82.78409421758523
 20
-137.2260768971171
 30
0.0
 10
82.59495847544501
 20
-137.2260768971171
 30
0.0
 10
82.34484454321587
 20
-137.2260768971171
 30
0.0
 10
82.33657631405127
 20
-137.4565537850803
 30
0.0
 10
82.33244219946897
 20
-137.5729980124817
 30
0.0
 10
82.33244219946897
 20
-137.5729980124817
 30
0.0
 10
82.11677922209233
 20
-137.5729980124817
 30
0.0
 10
82.11677922209233
 20
-137.5729980124817
 30
0.0
 10
82.12504745125693
 20
-137.445873989076
 30
0.0
 10
82.13503822816416
 20
-137.3339083858054
 30
0.0
 10
82.21255287658228
 20
-137.2153971011128
 30
0.0
 10
82.31831730797946
 20
-137.0545111419517
 30
0.0
 10
82.49746227321245
 20
-137.0207492061962
 30
0.0
 10
82.60908336693454
 20
-137.0207492061962
 30
0.0
 10
82.87573375749288
 20
-137.0207492061962
 30
0.0
 10
83.07520478608885
 20
-137.2047173051085
 30
0.0
 10
83.07520478608885
 20
-137.4775688675403
 30
0.0
 10
83.07520478608885
 20
-137.7063232077609
 30
0.0
 10
82.96323918281823
 20
-137.8055419577361
 30
0.0
 10
82.66627195198969
 20
-138.031884731117
 30
0.0
  0
HATCH
  5
132
330
12D
100
AcDbEntity
  8
_U+30EC_U+30A4_U+30E4_U+30FC 1
 62
   179
420
  2234388
100
AcDbHatch
 10
0.0
 20
0.0
 30
0.0
210
0.0
220
0.0
230
1.0
  2
SOLID
 70
     1
 71
     0
 91
        1
 92
        1
 93
        1
 72
     4
 94
        3
 73
     0
 74
     1
 95
       44
 96
       40
 40
0.0
 40
0.0
 40
0.0
 40
0.0
 40
1.0
 40
1.0
 40
1.0
 40
2.0
 40
2.0
 40
2.0
 40
3.0
 40
3.0
 40
3.0
 40
4.0
 40
4.0
 40
4.0
 40
5.0
 40
5.0
 40
5.0
 40
6.0
 40
6.0
 40
6.0
 40
7.0
 40
7.0
 40
7.0
 40
8.0
 40
8.0
 40
8.0
 40
9.0
 40
9.0
 40
9.0
 40
10.0
 40
10.0
 40
10.0
 40
11.0
 40
11.0
 40
11.0
 40
12.0
 40
12.0
 40
12.0
 40
13.0
 40
13.0
 40
13.0
 40
13.0
 10
82.66627195198969
 20
-138.031884731117
 10
82.45646563693798
 20
-138.1907036329871
 10
82.36723766387
 20
-138.2647731859199
 10
82.3203843652706
 20
-138.4084336676548
 10
82.3203843652706
 20
-138.4084336676548
 10
83.06900361421539
 20
-138.4084336676548
 10
83.06900361421539
 20
-138.4084336676548
 10
83.06900361421539
 20
-138.4084336676548
 10
83.06900361421539
 20
-138.6137613585757
 10
83.06900361421539
 20
-138.6137613585757
 10
83.06900361421539
 20
-138.6137613585757
 10
82.08026120994869
 20
-138.6137613585757
 10
82.08026120994869
 20
-138.6137613585757
 10
82.11057805021889
 20
-138.2561604472068
 10
82.17362329759897
 20
-138.1779567796916
 10
82.54397106226331
 20
-137.879611510669
 10
82.79029538945868
 20
-137.6808295011701
 10
82.85334063683875
 20
-137.6129611201107
 10
82.85334063683875
 20
-137.4755018102492
 10
82.85334063683875
 20
-137.3569905255566
 10
82.78409421758523
 20
-137.2260768971171
 10
82.59495847544501
 20
-137.2260768971171
 10
82.34484454321587
 20
-137.2260768971171
 10
82.33657631405127
 20
-137.4565537850803
 10
82.33244219946897
 20
-137.5729980124817
 10
82.33244219946897
 20
-137.5729980124817
 10
82.11677922209233
 20
-137.5729980124817
 10
82.11677922209233
 20
-137.5729980124817
 10
82.12504745125693
 20
-137.445873989076
 10
82.13503822816416
 20
-137.3339083858054
 10
82.21255287658228
 20
-137.2153971011128
 10
82.31831730797946
 20
-137.0545111419517
 10
82.49746227321245
 20
-137.0207492061962
 10
82.60908336693454
 20
-137.0207492061962
 10
82.87573375749288
 20
-137.0207492061962
 10
83.07520478608885
 20
-137.2047173051085
 10
83.07520478608885
 20
-137.4775688675403
 10
83.07520478608885
 20
-137.7063232077609
 10
82.96323918281823
 20
-137.8055419577361
 10
82.66627195198969
 20
-138.031884731117
 97
        0
 97
        0
 75
     2
 76
     1
 98
        0
  0
SPLINE
  5
133
330
12D
100
AcDbEntity
  8
_U+30EC_U+30A4_U+30E4_U+30FC 1
370
     0
100
AcDbSpline
210
0.0
220
0.0
230
1.0
 70
    11
 71
     3
 72
    29
 73
    25
 74
     0
 42
0.0000000001
 43
0.0000000001
 12
1.0
 22
0.0
 32
0.0
 13
1.0
 23
0.0
 33
0.0
 40
0.0
 40
0.0
 40
0.0
 40
0.0
 40
1.0
 40
1.0
 40
1.0
 40
2.0
 40
2.0
 40
2.0
 40
3.0
 40
3.0
 40
3.0
 40
4.0
 40
4.0
 40
4.0
 40
5.0
 40
5.0
 40
5.0
 40
6.0
 40
6.0
 40
6.0
 40
7.0
 40
7.0
 40
7.0
 40
8.0
 40
8.0
 40
8.0
 40
8.0
 10
84.09012991604344
 20
-138.4359944315368
 30
0.0
 10
83.98643254193742
 20
-138.64545623704
 30
0.0
 10
83.81968992045132
 20
-138.6644042622089
 30
0.0
 10
83.7077243171807
 20
-138.6644042622089
 30
0.0
 10
83.553039529893
 20
-138.6644042622089
 30
0.0
 10
83.4166137486771
 20
-138.617895473158
 30
0.0
 10
83.32531871831797
 20
-138.4359944315368
 30
0.0
 10
83.22541094924573
 20
-138.2413465366202
 30
0.0
 10
83.20715194317391
 20
-138.004323967235
 30
0.0
 10
83.20715194317391
 20
-137.8417154603312
 30
0.0
 10
83.20715194317391
 20
-137.6977104690478
 30
0.0
 10
83.22334389195458
 20
-137.445873989076
 30
0.0
 10
83.32531871831797
 20
-137.2470919795771
 30
0.0
 10
83.42901609242399
 20
-137.0441758554959
 30
0.0
 10
83.58370087971171
 20
-137.0207492061962
 30
0.0
 10
83.7077243171807
 20
-137.0207492061962
 30
0.0
 10
83.86034204717728
 20
-137.0207492061962
 30
0.0
 10
83.99883488568432
 20
-137.0651909379559
 30
0.0
 10
84.09012991604344
 20
-137.2470919795771
 30
0.0
 10
84.18590357053338
 20
-137.4396728172026
 30
0.0
 10
84.20829669118751
 20
-137.6680826478747
 30
0.0
 10
84.20829669118751
 20
-137.8417154603312
 30
0.0
 10
84.20829669118751
 20
-138.0129367059482
 30
0.0
 10
84.18797062782454
 20
-138.2434135939114
 30
0.0
 10
84.09012991604344
 20
-138.4359944315368
 30
0.0
  0
SPLINE
  5
134
330
12D
100
AcDbEntity
  8
_U+30EC_U+30A4_U+30E4_U+30FC 1
370
     0
100
AcDbSpline
210
0.0
220
0.0
230
1.0
 70
    11
 71
     3
 72
    17
 73
    13
 74
     0
 42
0.0000000001
 43
0.0000000001
 12
1.0
 22
0.0
 32
0.0
 13
1.0
 23
0.0
 33
0.0
 40
0.0
 40
0.0
 40
0.0
 40
0.0
 40
1.0
 40
1.0
 40
1.0
 40
2.0
 40
2.0
 40
2.0
 40
3.0
 40
3.0
 40
3.0
 40
4.0
 40
4.0
 40
4.0
 40
4.0
 10
83.7077243171807
 20
-137.2133300438217
 30
0.0
 10
83.4676011618588
 20
-137.2133300438217
 30
0.0
 10
83.42281492055055
 20
-137.4968614022577
 30
0.0
 10
83.42281492055055
 20
-137.8417154603312
 30
0.0
 10
83.42281492055055
 20
-138.1610758118139
 30
0.0
 10
83.45726587540305
 20
-138.4697563672923
 30
0.0
 10
83.7077243171807
 20
-138.4697563672923
 30
0.0
 10
83.94578041521147
 20
-138.4697563672923
 30
0.0
 10
83.99263371381087
 20
-138.1886365756959
 30
0.0
 10
83.99263371381087
 20
-137.8417154603312
 30
0.0
 10
83.99263371381087
 20
-137.5220105993
 30
0.0
 10
83.95611570166723
 20
-137.2133300438217
 30
0.0
 10
83.7077243171807
 20
-137.2133300438217
 30
0.0
  0
HATCH
  5
135
330
12D
100
AcDbEntity
  8
_U+30EC_U+30A4_U+30E4_U+30FC 1
 62
   179
420
  2234388
100
AcDbHatch
 10
0.0
 20
0.0
 30
0.0
210
0.0
220
0.0
230
1.0
  2
SOLID
 70
     1
 71
     0
 91
        2
 92
        1
 93
        1
 72
     4
 94
        3
 73
     0
 74
     1
 95
       29
 96
       25
 40
0.0
 40
0.0
 40
0.0
 40
0.0
 40
1.0
 40
1.0
 40
1.0
 40
2.0
 40
2.0
 40
2.0
 40
3.0
 40
3.0
 40
3.0
 40
4.0
 40
4.0
 40
4.0
 40
5.0
 40
5.0
 40
5.0
 40
6.0
 40
6.0
 40
6.0
 40
7.0
 40
7.0
 40
7.0
 40
8.0
 40
8.0
 40
8.0
 40
8.0
 10
84.09012991604344
 20
-138.4359944315368
 10
83.98643254193742
 20
-138.64545623704
 10
83.81968992045132
 20
-138.6644042622089
 10
83.7077243171807
 20
-138.6644042622089
 10
83.553039529893
 20
-138.6644042622089
 10
83.4166137486771
 20
-138.617895473158
 10
83.32531871831797
 20
-138.4359944315368
 10
83.22541094924573
 20
-138.2413465366202
 10
83.20715194317391
 20
-138.004323967235
 10
83.20715194317391
 20
-137.8417154603312
 10
83.20715194317391
 20
-137.6977104690478
 10
83.22334389195458
 20
-137.445873989076
 10
83.32531871831797
 20
-137.2470919795771
 10
83.42901609242399
 20
-137.0441758554959
 10
83.58370087971171
 20
-137.0207492061962
 10
83.7077243171807
 20
-137.0207492061962
 10
83.86034204717728
 20
-137.0207492061962
 10
83.99883488568432
 20
-137.0651909379559
 10
84.09012991604344
 20
-137.2470919795771
 10
84.18590357053338
 20
-137.4396728172026
 10
84.20829669118751
 20
-137.6680826478747
 10
84.20829669118751
 20
-137.8417154603312
 10
84.20829669118751
 20
-138.0129367059482
 10
84.18797062782454
 20
-138.2434135939114
 10
84.09012991604344
 20
-138.4359944315368
 97
        0
 97
        0
 92
        1
 93
        1
 72
     4
 94
        3
 73
     0
 74
     1
 95
       17
 96
       13
 40
0.0
 40
0.0
 40
0.0
 40
0.0
 40
1.0
 40
1.0
 40
1.0
 40
2.0
 40
2.0
 40
2.0
 40
3.0
 40
3.0
 40
3.0
 40
4.0
 40
4.0
 40
4.0
 40
4.0
 10
83.7077243171807
 20
-137.2133300438217
 10
83.4676011618588
 20
-137.2133300438217
 10
83.42281492055055
 20
-137.4968614022577
 10
83.42281492055055
 20
-137.8417154603312
 10
83.42281492055055
 20
-138.1610758118139
 10
83.45726587540305
 20
-138.4697563672923
 10
83.7077243171807
 20
-138.4697563672923
 10
83.94578041521147
 20
-138.4697563672923
 10
83.99263371381087
 20
-138.1886365756959
 10
83.99263371381087
 20
-137.8417154603312
 10
83.99263371381087
 20
-137.5220105993
 10
83.95611570166723
 20
-137.2133300438217
 10
83.7077243171807
 20
-137.2133300438217
 97
        0
 97
        0
 75
     2
 76
     1
 98
        0
  0
ENDBLK
  5
130
330
12D
100
AcDbEntity
  8
0
100
AcDbBlockEnd
  0
BLOCK
  5
140
330
13E
100
AcDbEntity
  8
0
100
AcDbBlockBegin
  2
block 7
 70
     0
 10
0.0
 20
0.0
 30
0.0
  3
block 7
  1

  0
SPLINE
  5
142
330
13E
100
AcDbEntity
  8
_U+30EC_U+30A4_U+30E4_U+30FC 1
370
     0
100
AcDbSpline
210
0.0
220
0.0
230
1.0
 70
    11
 71
     3
 72
    26
 73
    22
 74
     0
 42
0.0000000001
 43
0.0000000001
 12
1.0
 22
0.0
 32
0.0
 13
1.0
 23
0.0
 33
0.0
 40
0.0
 40
0.0
 40
0.0
 40
0.0
 40
1.0
 40
1.0
 40
1.0
 40
2.0
 40
2.0
 40
2.0
 40
3.0
 40
3.0
 40
3.0
 40
4.0
 40
4.0
 40
4.0
 40
5.0
 40
5.0
 40
5.0
 40
6.0
 40
6.0
 40
6.0
 40
7.0
 40
7.0
 40
7.0
 40
7.0
 10
57.66693656327424
 20
-129.9434895508475
 30
0.0
 10
57.66693656327424
 20
-129.9434895508475
 30
0.0
 10
56.5626112054774
 20
-129.9434895508475
 30
0.0
 10
56.5626112054774
 20
-129.9434895508475
 30
0.0
 10
56.5626112054774
 20
-129.9434895508475
 30
0.0
 10
56.5626112054774
 20
-130.260782845039
 30
0.0
 10
56.5626112054774
 20
-130.260782845039
 30
0.0
 10
56.5626112054774
 20
-130.260782845039
 30
0.0
 10
56.41447209961166
 20
-130.260782845039
 30
0.0
 10
56.41447209961166
 20
-130.260782845039
 30
0.0
 10
56.39983044379935
 20
-129.9414224935563
 30
0.0
 10
56.23687742734703
 20
-129.8966362522481
 30
0.0
 10
56.122672512011
 20
-129.8680419597205
 30
0.0
 10
56.122672512011
 20
-129.8680419597205
 30
0.0
 10
56.122672512011
 20
-129.7278265734708
 30
0.0
 10
56.122672512011
 20
-129.7278265734708
 30
0.0
 10
56.122672512011
 20
-129.7278265734708
 30
0.0
 10
57.66693656327424
 20
-129.7278265734708
 30
0.0
 10
57.66693656327424
 20
-129.7278265734708
 30
0.0
 10
57.66693656327424
 20
-129.7278265734708
 30
0.0
 10
57.66693656327424
 20
-129.9434895508475
 30
0.0
 10
57.66693656327424
 20
-129.9434895508475
 30
0.0
  0
HATCH
  5
143
330
13E
100
AcDbEntity
  8
_U+30EC_U+30A4_U+30E4_U+30FC 1
 62
   179
420
  2234388
100
AcDbHatch
 10
0.0
 20
0.0
 30
0.0
210
0.0
220
0.0
230
1.0
  2
SOLID
 70
     1
 71
     0
 91
        1
 92
        1
 93
        1
 72
     4
 94
        3
 73
     0
 74
     1
 95
       26
 96
       22
 40
0.0
 40
0.0
 40
0.0
 40
0.0
 40
1.0
 40
1.0
 40
1.0
 40
2.0
 40
2.0
 40
2.0
 40
3.0
 40
3.0
 40
3.0
 40
4.0
 40
4.0
 40
4.0
 40
5.0
 40
5.0
 40
5.0
 40
6.0
 40
6.0
 40
6.0
 40
7.0
 40
7.0
 40
7.0
 40
7.0
 10
57.66693656327424
 20
-129.9434895508475
 10
57.66693656327424
 20
-129.9434895508475
 10
56.5626112054774
 20
-129.9434895508475
 10
56.5626112054774
 20
-129.9434895508475
 10
56.5626112054774
 20
-129.9434895508475
 10
56.5626112054774
 20
-130.260782845039
 10
56.5626112054774
 20
-130.260782845039
 10
56.5626112054774
 20
-130.260782845039
 10
56.41447209961166
 20
-130.260782845039
 10
56.41447209961166
 20
-130.260782845039
 10
56.39983044379935
 20
-129.9414224935563
 10
56.23687742734703
 20
-129.8966362522481
 10
56.122672512011
 20
-129.8680419597205
 10
56.122672512011
 20
-129.8680419597205
 10
56.122672512011
 20
-129.7278265734708
 10
56.122672512011
 20
-129.7278265734708
 10
56.122672512011
 20
-129.7278265734708
 10
57.66693656327424
 20
-129.7278265734708
 10
57.66693656327424
 20
-129.7278265734708
 10
57.66693656327424
 20
-129.7278265734708
 10
57.66693656327424
 20
-129.9434895508475
 10
57.66693656327424
 20
-129.9434895508475
 97
        0
 97
        0
 75
     2
 76
     1
 98
        0
  0
SPLINE
  5
144
330
13E
100
AcDbEntity
  8
_U+30EC_U+30A4_U+30E4_U+30FC 1
370
     0
100
AcDbSpline
210
0.0
220
0.0
230
1.0
 70
    11
 71
     3
 72
    29
 73
    25
 74
     0
 42
0.0000000001
 43
0.0000000001
 12
1.0
 22
0.0
 32
0.0
 13
1.0
 23
0.0
 33
0.0
 40
0.0
 40
0.0
 40
0.0
 40
0.0
 40
1.0
 40
1.0
 40
1.0
 40
2.0
 40
2.0
 40
2.0
 40
3.0
 40
3.0
 40
3.0
 40
4.0
 40
4.0
 40
4.0
 40
5.0
 40
5.0
 40
5.0
 40
6.0
 40
6.0
 40
6.0
 40
7.0
 40
7.0
 40
7.0
 40
8.0
 40
8.0
 40
8.0
 40
8.0
 10
57.48916963623535
 20
-128.3832058055778
 30
0.0
 10
57.69863144173854
 20
-128.4869031796838
 30
0.0
 10
57.71775172168167
 20
-128.6536458011699
 30
0.0
 10
57.71775172168167
 20
-128.7656114044405
 30
0.0
 10
57.71775172168167
 20
-128.9202961917283
 30
0.0
 10
57.6712429326308
 20
-129.0567219729442
 30
0.0
 10
57.48916963623535
 20
-129.1480170033033
 30
0.0
 10
57.294693996093
 20
-129.2479247723755
 30
0.0
 10
57.05767142670781
 20
-129.2661837784474
 30
0.0
 10
56.89471841025549
 20
-129.2661837784474
 30
0.0
 10
56.75088567374631
 20
-129.2661837784474
 30
0.0
 10
56.49922144854881
 20
-129.2499918296667
 30
0.0
 10
56.30026718427563
 20
-129.1480170033033
 30
0.0
 10
56.09717880542015
 20
-129.0443196291972
 30
0.0
 10
56.07392441089472
 20
-128.8896348419096
 30
0.0
 10
56.07392441089472
 20
-128.7656114044405
 30
0.0
 10
56.07392441089472
 20
-128.612993674444
 30
0.0
 10
56.11836614265444
 20
-128.4745008359369
 30
0.0
 10
56.30026718427563
 20
-128.3832058055778
 30
0.0
 10
56.4928480219011
 20
-128.2874321510879
 30
0.0
 10
56.72125785257316
 20
-128.2650390304337
 30
0.0
 10
56.89471841025549
 20
-128.2650390304337
 30
0.0
 10
57.06611191064667
 20
-128.2650390304337
 30
0.0
 10
57.29676105338415
 20
-128.2853650937967
 30
0.0
 10
57.48916963623535
 20
-128.3832058055778
 30
0.0
  0
SPLINE
  5
145
330
13E
100
AcDbEntity
  8
_U+30EC_U+30A4_U+30E4_U+30FC 1
370
     0
100
AcDbSpline
210
0.0
220
0.0
230
1.0
 70
    11
 71
     3
 72
    17
 73
    13
 74
     0
 42
0.0000000001
 43
0.0000000001
 12
1.0
 22
0.0
 32
0.0
 13
1.0
 23
0.0
 33
0.0
 40
0.0
 40
0.0
 40
0.0
 40
0.0
 40
1.0
 40
1.0
 40
1.0
 40
2.0
 40
2.0
 40
2.0
 40
3.0
 40
3.0
 40
3.0
 40
4.0
 40
4.0
 40
4.0
 40
4.0
 10
56.26650524852018
 20
-128.7656114044405
 30
0.0
 10
56.26650524852018
 20
-129.0057345597625
 30
0.0
 10
56.54986435218198
 20
-129.0505208010707
 30
0.0
 10
56.89471841025549
 20
-129.0505208010707
 30
0.0
 10
57.21425101651241
 20
-129.0505208010707
 30
0.0
 10
57.52310382676506
 20
-129.0160698462182
 30
0.0
 10
57.52310382676506
 20
-128.7656114044405
 30
0.0
 10
57.52310382676506
 20
-128.5275553064098
 30
0.0
 10
57.24163952562015
 20
-128.4807020078104
 30
0.0
 10
56.89471841025549
 20
-128.4807020078104
 30
0.0
 10
56.57535805877283
 20
-128.4807020078104
 30
0.0
 10
56.26650524852018
 20
-128.517220019954
 30
0.0
 10
56.26650524852018
 20
-128.7656114044405
 30
0.0
  0
HATCH
  5
146
330
13E
100
AcDbEntity
  8
_U+30EC_U+30A4_U+30E4_U+30FC 1
 62
   179
420
  2234388
100
AcDbHatch
 10
0.0
 20
0.0
 30
0.0
210
0.0
220
0.0
230
1.0
  2
SOLID
 70
     1
 71
     0
 91
        2
 92
        1
 93
        1
 72
     4
 94
        3
 73
     0
 74
     1
 95
       29
 96
       25
 40
0.0
 40
0.0
 40
0.0
 40
0.0
 40
1.0
 40
1.0
 40
1.0
 40
2.0
 40
2.0
 40
2.0
 40
3.0
 40
3.0
 40
3.0
 40
4.0
 40
4.0
 40
4.0
 40
5.0
 40
5.0
 40
5.0
 40
6.0
 40
6.0
 40
6.0
 40
7.0
 40
7.0
 40
7.0
 40
8.0
 40
8.0
 40
8.0
 40
8.0
 10
57.48916963623535
 20
-128.3832058055778
 10
57.69863144173854
 20
-128.4869031796838
 10
57.71775172168167
 20
-128.6536458011699
 10
57.71775172168167
 20
-128.7656114044405
 10
57.71775172168167
 20
-128.9202961917283
 10
57.6712429326308
 20
-129.0567219729442
 10
57.48916963623535
 20
-129.1480170033033
 10
57.294693996093
 20
-129.2479247723755
 10
57.05767142670781
 20
-129.2661837784474
 10
56.89471841025549
 20
-129.2661837784474
 10
56.75088567374631
 20
-129.2661837784474
 10
56.49922144854881
 20
-129.2499918296667
 10
56.30026718427563
 20
-129.1480170033033
 10
56.09717880542015
 20
-129.0443196291972
 10
56.07392441089472
 20
-128.8896348419096
 10
56.07392441089472
 20
-128.7656114044405
 10
56.07392441089472
 20
-128.612993674444
 10
56.11836614265444
 20
-128.4745008359369
 10
56.30026718427563
 20
-128.3832058055778
 10
56.4928480219011
 20
-128.2874321510879
 10
56.72125785257316
 20
-128.2650390304337
 10
56.89471841025549
 20
-128.2650390304337
 10
57.06611191064667
 20
-128.2650390304337
 10
57.29676105338415
 20
-128.2853650937967
 10
57.48916963623535
 20
-128.3832058055778
 97
        0
 97
        0
 92
        1
 93
        1
 72
     4
 94
        3
 73
     0
 74
     1
 95
       17
 96
       13
 40
0.0
 40
0.0
 40
0.0
 40
0.0
 40
1.0
 40
1.0
 40
1.0
 40
2.0
 40
2.0
 40
2.0
 40
3.0
 40
3.0
 40
3.0
 40
4.0
 40
4.0
 40
4.0
 40
4.0
 10
56.26650524852018
 20
-128.7656114044405
 10
56.26650524852018
 20
-129.0057345597625
 10
56.54986435218198
 20
-129.0505208010707
 10
56.89471841025549
 20
-129.0505208010707
 10
57.21425101651241
 20
-129.0505208010707
 10
57.52310382676506
 20
-129.0160698462182
 10
57.52310382676506
 20
-128.7656114044405
 10
57.52310382676506
 20
-128.5275553064098
 10
57.24163952562015
 20
-128.4807020078104
 10
56.89471841025549
 20
-128.4807020078104
 10
56.57535805877283
 20
-128.4807020078104
 10
56.26650524852018
 20
-128.517220019954
 10
56.26650524852018
 20
-128.7656114044405
 97
        0
 97
        0
 75
     2
 76
     1
 98
        0
  0
ENDBLK
  5
141
330
13E
100
AcDbEntity
  8
0
100
AcDbBlockEnd
  0
BLOCK
  5
14B
330
149
100
AcDbEntity
  8
0
100
AcDbBlockBegin
  2
block 8
 70
     0
 10
0.0
 20
0.0
 30
0.0
  3
block 8
  1

  0
SPLINE
  5
14D
330
149
100
AcDbEntity
  8
_U+30EC_U+30A4_U+30E4_U+30FC 1
370
     0
100
AcDbSpline
210
0.0
220
0.0
230
1.0
 70
    11
 71
     3
 72
    62
 73
    58
 74
     0
 42
0.0000000001
 43
0.0000000001
 12
1.0
 22
0.0
 32
0.0
 13
1.0
 23
0.0
 33
0.0
 40
0.0
 40
0.0
 40
0.0
 40
0.0
 40
1.0
 40
1.0
 40
1.0
 40
2.0
 40
2.0
 40
2.0
 40
3.0
 40
3.0
 40
3.0
 40
4.0
 40
4.0
 40
4.0
 40
5.0
 40
5.0
 40
5.0
 40
6.0
 40
6.0
 40
6.0
 40
7.0
 40
7.0
 40
7.0
 40
8.0
 40
8.0
 40
8.0
 40
9.0
 40
9.0
 40
9.0
 40
10.0
 40
10.0
 40
10.0
 40
11.0
 40
11.0
 40
11.0
 40
12.0
 40
12.0
 40
12.0
 40
13.0
 40
13.0
 40
13.0
 40
14.0
 40
14.0
 40
14.0
 40
15.0
 40
15.0
 40
15.0
 40
16.0
 40
16.0
 40
16.0
 40
17.0
 40
17.0
 40
17.0
 40
18.0
 40
18.0
 40
18.0
 40
19.0
 40
19.0
 40
19.0
 40
19.0
 10
97.81521807450453
 20
-133.233555739261
 30
0.0
 10
97.72357853459688
 20
-133.233555739261
 30
0.0
 10
97.5141167290937
 20
-133.212540656801
 30
0.0
 10
97.39422740620701
 20
-133.0265055005976
 30
0.0
 10
97.32291392966233
 20
-132.9141953877784
 30
0.0
 10
97.31877981508003
 20
-132.8149766378032
 30
0.0
 10
97.31499021004626
 20
-132.730227288866
 30
0.0
 10
97.31499021004626
 20
-132.730227288866
 30
0.0
 10
97.5265190728406
 20
-132.730227288866
 30
0.0
 10
97.5265190728406
 20
-132.730227288866
 30
0.0
 10
97.52858613013174
 20
-132.8042968417989
 30
0.0
 10
97.53857690703897
 20
-133.0389078443444
 30
0.0
 10
97.81108395992223
 20
-133.0389078443444
 30
0.0
 10
97.94337562655582
 20
-133.0389078443444
 30
0.0
 10
98.09013669422747
 20
-132.9693169155424
 30
0.0
 10
98.09013669422747
 20
-132.7409070848703
 30
0.0
 10
98.09013669422747
 20
-132.6244628574689
 30
0.0
 10
98.05361868208382
 20
-132.5758870111269
 30
0.0
 10
98.0229573322651
 20
-132.5441921326626
 30
0.0
 10
97.95164385572043
 20
-132.4701225797297
 30
0.0
 10
97.8396782524498
 20
-132.4573757264343
 30
0.0
 10
97.78696829152548
 20
-132.4573757264343
 30
0.0
 10
97.76836477590514
 20
-132.4573757264343
 30
0.0
 10
97.73391382105264
 20
-132.4594427837254
 30
0.0
 10
97.70773109536474
 20
-132.4635768983077
 30
0.0
 10
97.70773109536474
 20
-132.4635768983077
 30
0.0
 10
97.70773109536474
 20
-132.2689290033911
 30
0.0
 10
97.70773109536474
 20
-132.2689290033911
 30
0.0
 10
97.74424910750838
 20
-132.2754746848131
 30
0.0
 10
97.78490123423434
 20
-132.2775417421042
 30
0.0
 10
97.79110240610778
 20
-132.2775417421042
 30
0.0
 10
97.85380314393933
 20
-132.2775417421042
 30
0.0
 10
98.04535045291922
 20
-132.2565266596442
 30
0.0
 10
98.04535045291922
 20
-132.019504090259
 30
0.0
 10
98.04535045291922
 20
-131.8417371632201
 30
0.0
 10
97.91925995815907
 20
-131.7866156354561
 30
0.0
 10
97.81315101721339
 20
-131.7866156354561
 30
0.0
 10
97.55890297040195
 20
-131.7866156354561
 30
0.0
 10
97.55063474123735
 20
-132.019504090259
 30
0.0
 10
97.54650062665505
 20
-132.0915065859007
 30
0.0
 10
97.54650062665505
 20
-132.0915065859007
 30
0.0
 10
97.3515082221899
 20
-132.0915065859007
 30
0.0
 10
97.3515082221899
 20
-132.0915065859007
 30
0.0
 10
97.3597764513545
 20
-131.9664496197862
 30
0.0
 10
97.38595917704241
 20
-131.5899006832484
 30
0.0
 10
97.82555336096028
 20
-131.5899006832484
 30
0.0
 10
98.04121633833692
 20
-131.5899006832484
 30
0.0
 10
98.27307126449423
 20
-131.7170247066541
 30
0.0
 10
98.27307126449423
 20
-132.0129584088371
 30
0.0
 10
98.27307126449423
 20
-132.1993380745891
 30
0.0
 10
98.18177623413511
 20
-132.2816758566865
 30
0.0
 10
98.08600257964517
 20
-132.342998556324
 30
0.0
 10
98.14491371244294
 20
-132.370559320206
 30
0.0
 10
98.31992456309364
 20
-132.4511745545608
 30
0.0
 10
98.31992456309364
 20
-132.7281602315749
 30
0.0
 10
98.31992456309364
 20
-133.0664686082264
 30
0.0
 10
98.08186846506287
 20
-133.233555739261
 30
0.0
 10
97.81521807450453
 20
-133.233555739261
 30
0.0
  0
HATCH
  5
14E
330
149
100
AcDbEntity
  8
_U+30EC_U+30A4_U+30E4_U+30FC 1
 62
   179
420
  2234388
100
AcDbHatch
 10
0.0
 20
0.0
 30
0.0
210
0.0
220
0.0
230
1.0
  2
SOLID
 70
     1
 71
     0
 91
        1
 92
        1
 93
        1
 72
     4
 94
        3
 73
     0
 74
     1
 95
       62
 96
       58
 40
0.0
 40
0.0
 40
0.0
 40
0.0
 40
1.0
 40
1.0
 40
1.0
 40
2.0
 40
2.0
 40
2.0
 40
3.0
 40
3.0
 40
3.0
 40
4.0
 40
4.0
 40
4.0
 40
5.0
 40
5.0
 40
5.0
 40
6.0
 40
6.0
 40
6.0
 40
7.0
 40
7.0
 40
7.0
 40
8.0
 40
8.0
 40
8.0
 40
9.0
 40
9.0
 40
9.0
 40
10.0
 40
10.0
 40
10.0
 40
11.0
 40
11.0
 40
11.0
 40
12.0
 40
12.0
 40
12.0
 40
13.0
 40
13.0
 40
13.0
 40
14.0
 40
14.0
 40
14.0
 40
15.0
 40
15.0
 40
15.0
 40
16.0
 40
16.0
 40
16.0
 40
17.0
 40
17.0
 40
17.0
 40
18.0
 40
18.0
 40
18.0
 40
19.0
 40
19.0
 40
19.0
 40
19.0
 10
97.81521807450453
 20
-133.233555739261
 10
97.72357853459688
 20
-133.233555739261
 10
97.5141167290937
 20
-133.212540656801
 10
97.39422740620701
 20
-133.0265055005976
 10
97.32291392966233
 20
-132.9141953877784
 10
97.31877981508003
 20
-132.8149766378032
 10
97.31499021004626
 20
-132.730227288866
 10
97.31499021004626
 20
-132.730227288866
 10
97.5265190728406
 20
-132.730227288866
 10
97.5265190728406
 20
-132.730227288866
 10
97.52858613013174
 20
-132.8042968417989
 10
97.53857690703897
 20
-133.0389078443444
 10
97.81108395992223
 20
-133.0389078443444
 10
97.94337562655582
 20
-133.0389078443444
 10
98.09013669422747
 20
-132.9693169155424
 10
98.09013669422747
 20
-132.7409070848703
 10
98.09013669422747
 20
-132.6244628574689
 10
98.05361868208382
 20
-132.5758870111269
 10
98.0229573322651
 20
-132.5441921326626
 10
97.95164385572043
 20
-132.4701225797297
 10
97.8396782524498
 20
-132.4573757264343
 10
97.78696829152548
 20
-132.4573757264343
 10
97.76836477590514
 20
-132.4573757264343
 10
97.73391382105264
 20
-132.4594427837254
 10
97.70773109536474
 20
-132.4635768983077
 10
97.70773109536474
 20
-132.4635768983077
 10
97.70773109536474
 20
-132.2689290033911
 10
97.70773109536474
 20
-132.2689290033911
 10
97.74424910750838
 20
-132.2754746848131
 10
97.78490123423434
 20
-132.2775417421042
 10
97.79110240610778
 20
-132.2775417421042
 10
97.85380314393933
 20
-132.2775417421042
 10
98.04535045291922
 20
-132.2565266596442
 10
98.04535045291922
 20
-132.019504090259
 10
98.04535045291922
 20
-131.8417371632201
 10
97.91925995815907
 20
-131.7866156354561
 10
97.81315101721339
 20
-131.7866156354561
 10
97.55890297040195
 20
-131.7866156354561
 10
97.55063474123735
 20
-132.019504090259
 10
97.54650062665505
 20
-132.0915065859007
 10
97.54650062665505
 20
-132.0915065859007
 10
97.3515082221899
 20
-132.0915065859007
 10
97.3515082221899
 20
-132.0915065859007
 10
97.3597764513545
 20
-131.9664496197862
 10
97.38595917704241
 20
-131.5899006832484
 10
97.82555336096028
 20
-131.5899006832484
 10
98.04121633833692
 20
-131.5899006832484
 10
98.27307126449423
 20
-131.7170247066541
 10
98.27307126449423
 20
-132.0129584088371
 10
98.27307126449423
 20
-132.1993380745891
 10
98.18177623413511
 20
-132.2816758566865
 10
98.08600257964517
 20
-132.342998556324
 10
98.14491371244294
 20
-132.370559320206
 10
98.31992456309364
 20
-132.4511745545608
 10
98.31992456309364
 20
-132.7281602315749
 10
98.31992456309364
 20
-133.0664686082264
 10
98.08186846506287
 20
-133.233555739261
 10
97.81521807450453
 20
-133.233555739261
 97
        0
 97
        0
 75
     2
 76
     1
 98
        0
  0
POLYLINE
  5
14F
330
149
100
AcDbEntity
  8
_U+30EC_U+30A4_U+30E4_U+30FC 1
370
     0
100
AcDb2dPolyline
 66
     1
 10
0.0
 20
0.0
 30
0.0
  0
VERTEX
  5
150
330
14F
100
AcDbEntity
  8
_U+30EC_U+30A4_U+30E4_U+30FC 1
370
     0
100
AcDbVertex
100
AcDb2dVertex
 10
98.53145342588797
 20
-133.1829128356279
 30
0.0
  0
VERTEX
  5
151
330
14F
100
AcDbEntity
  8
_U+30EC_U+30A4_U+30E4_U+30FC 1
370
     0
100
AcDbVertex
100
AcDb2dVertex
 10
98.53145342588797
 20
-132.9314208652046
 30
0.0
  0
VERTEX
  5
152
330
14F
100
AcDbEntity
  8
_U+30EC_U+30A4_U+30E4_U+30FC 1
370
     0
100
AcDbVertex
100
AcDb2dVertex
 10
98.77364363850104
 20
-132.9314208652046
 30
0.0
  0
VERTEX
  5
153
330
14F
100
AcDbEntity
  8
_U+30EC_U+30A4_U+30E4_U+30FC 1
370
     0
100
AcDbVertex
100
AcDb2dVertex
 10
98.77364363850104
 20
-133.1829128356279
 30
0.0
  0
VERTEX
  5
154
330
14F
100
AcDbEntity
  8
_U+30EC_U+30A4_U+30E4_U+30FC 1
370
     0
100
AcDbVertex
100
AcDb2dVertex
 10
98.53145342588797
 20
-133.1829128356279
 30
0.0
  0
SEQEND
  5
155
330
14F
100
AcDbEntity
  8
_U+30EC_U+30A4_U+30E4_U+30FC 1
370
     0
  0
HATCH
  5
156
330
149
100
AcDbEntity
  8
_U+30EC_U+30A4_U+30E4_U+30FC 1
 62
   179
420
  2234388
100
AcDbHatch
 10
0.0
 20
0.0
 30
0.0
210
0.0
220
0.0
230
1.0
  2
SOLID
 70
     1
 71
     0
 91
        1
 92
        1
 93
        4
 72
     1
 10
98.53145342588797
 20
-133.1829128356279
 11
98.53145342588797
 21
-132.9314208652046
 72
     1
 10
98.53145342588797
 20
-132.9314208652046
 11
98.77364363850104
 21
-132.9314208652046
 72
     1
 10
98.77364363850104
 20
-132.9314208652046
 11
98.77364363850104
 21
-133.1829128356279
 72
     1
 10
98.77364363850104
 20
-133.1829128356279
 11
98.53145342588797
 21
-133.1829128356279
 97
        0
 75
     2
 76
     1
 98
        0
  0
SPLINE
  5
157
330
149
100
AcDbEntity
  8
_U+30EC_U+30A4_U+30E4_U+30FC 1
370
     0
100
AcDbSpline
210
0.0
220
0.0
230
1.0
 70
    11
 71
     3
 72
    53
 73
    49
 74
     0
 42
0.0000000001
 43
0.0000000001
 12
1.0
 22
0.0
 32
0.0
 13
1.0
 23
0.0
 33
0.0
 40
0.0
 40
0.0
 40
0.0
 40
0.0
 40
1.0
 40
1.0
 40
1.0
 40
2.0
 40
2.0
 40
2.0
 40
3.0
 40
3.0
 40
3.0
 40
4.0
 40
4.0
 40
4.0
 40
5.0
 40
5.0
 40
5.0
 40
6.0
 40
6.0
 40
6.0
 40
7.0
 40
7.0
 40
7.0
 40
8.0
 40
8.0
 40
8.0
 40
9.0
 40
9.0
 40
9.0
 40
10.0
 40
10.0
 40
10.0
 40
11.0
 40
11.0
 40
11.0
 40
12.0
 40
12.0
 40
12.0
 40
13.0
 40
13.0
 40
13.0
 40
14.0
 40
14.0
 40
14.0
 40
15.0
 40
15.0
 40
15.0
 40
16.0
 40
16.0
 40
16.0
 40
16.0
 10
99.46335175464806
 20
-133.233555739261
 30
0.0
 10
99.38790416352109
 20
-133.233555739261
 30
0.0
 10
99.29006345173998
 20
-133.2166747713833
 30
0.0
 10
99.19256724950742
 20
-133.1532850144548
 30
0.0
 10
99.02582462802133
 20
-133.0433864684753
 30
0.0
 10
99.00515405510983
 20
-132.9121283304873
 30
0.0
 10
98.986895049038
 20
-132.8042968417989
 30
0.0
 10
98.986895049038
 20
-132.8042968417989
 30
0.0
 10
99.20083547867202
 20
-132.8042968417989
 30
0.0
 10
99.20083547867202
 20
-132.8042968417989
 30
0.0
 10
99.25354543959634
 20
-133.0030788512979
 30
0.0
 10
99.37584632932271
 20
-133.032706672471
 30
0.0
 10
99.46507430239068
 20
-133.032706672471
 30
0.0
 10
99.59943302631542
 20
-133.032706672471
 30
0.0
 10
99.74584958443855
 20
-132.9334879224958
 30
0.0
 10
99.74584958443855
 20
-132.7005994676929
 30
0.0
 10
99.74584958443855
 20
-132.4446288731388
 30
0.0
 10
99.572905791079
 20
-132.3750379443368
 30
0.0
 10
99.4571505827746
 20
-132.3750379443368
 30
0.0
 10
99.42648923295589
 20
-132.3750379443368
 30
0.0
 10
99.29006345173998
 20
-132.3750379443368
 30
0.0
 10
99.20462508370579
 20
-132.5038845154851
 30
0.0
 10
99.20462508370579
 20
-132.5038845154851
 30
0.0
 10
99.03581540492856
 20
-132.4849364903163
 30
0.0
 10
99.03581540492856
 20
-132.4849364903163
 30
0.0
 10
99.03581540492856
 20
-132.4849364903163
 30
0.0
 10
99.15191512278147
 20
-131.6388210391389
 30
0.0
 10
99.15191512278147
 20
-131.6388210391389
 30
0.0
 10
99.15191512278147
 20
-131.6388210391389
 30
0.0
 10
99.90053437172627
 20
-131.6388210391389
 30
0.0
 10
99.90053437172627
 20
-131.6388210391389
 30
0.0
 10
99.90053437172627
 20
-131.6388210391389
 30
0.0
 10
99.90053437172627
 20
-131.8334689340555
 30
0.0
 10
99.90053437172627
 20
-131.8334689340555
 30
0.0
 10
99.90053437172627
 20
-131.8334689340555
 30
0.0
 10
99.30832245781181
 20
-131.8334689340555
 30
0.0
 10
99.30832245781181
 20
-131.8334689340555
 30
0.0
 10
99.30832245781181
 20
-131.8334689340555
 30
0.0
 10
99.24562171998026
 20
-132.2565266596442
 30
0.0
 10
99.24562171998026
 20
-132.2565266596442
 30
0.0
 10
99.30418834322951
 20
-132.2224202143402
 30
0.0
 10
99.38377004893879
 20
-132.1824571067113
 30
0.0
 10
99.49780270950055
 20
-132.1824571067113
 30
0.0
 10
99.74171546985625
 20
-132.1824571067113
 30
0.0
 10
99.96978079097978
 20
-132.3684922629148
 30
0.0
 10
99.96978079097978
 20
-132.681651442524
 30
0.0
 10
99.96978079097978
 20
-132.9989447367155
 30
0.0
 10
99.75411781360314
 20
-133.233555739261
 30
0.0
 10
99.46335175464806
 20
-133.233555739261
 30
0.0
  0
HATCH
  5
158
330
149
100
AcDbEntity
  8
_U+30EC_U+30A4_U+30E4_U+30FC 1
 62
   179
420
  2234388
100
AcDbHatch
 10
0.0
 20
0.0
 30
0.0
210
0.0
220
0.0
230
1.0
  2
SOLID
 70
     1
 71
     0
 91
        1
 92
        1
 93
        1
 72
     4
 94
        3
 73
     0
 74
     1
 95
       53
 96
       49
 40
0.0
 40
0.0
 40
0.0
 40
0.0
 40
1.0
 40
1.0
 40
1.0
 40
2.0
 40
2.0
 40
2.0
 40
3.0
 40
3.0
 40
3.0
 40
4.0
 40
4.0
 40
4.0
 40
5.0
 40
5.0
 40
5.0
 40
6.0
 40
6.0
 40
6.0
 40
7.0
 40
7.0
 40
7.0
 40
8.0
 40
8.0
 40
8.0
 40
9.0
 40
9.0
 40
9.0
 40
10.0
 40
10.0
 40
10.0
 40
11.0
 40
11.0
 40
11.0
 40
12.0
 40
12.0
 40
12.0
 40
13.0
 40
13.0
 40
13.0
 40
14.0
 40
14.0
 40
14.0
 40
15.0
 40
15.0
 40
15.0
 40
16.0
 40
16.0
 40
16.0
 40
16.0
 10
99.46335175464806
 20
-133.233555739261
 10
99.38790416352109
 20
-133.233555739261
 10
99.29006345173998
 20
-133.2166747713833
 10
99.19256724950742
 20
-133.1532850144548
 10
99.02582462802133
 20
-133.0433864684753
 10
99.00515405510983
 20
-132.9121283304873
 10
98.986895049038
 20
-132.8042968417989
 10
98.986895049038
 20
-132.8042968417989
 10
99.20083547867202
 20
-132.8042968417989
 10
99.20083547867202
 20
-132.8042968417989
 10
99.25354543959634
 20
-133.0030788512979
 10
99.37584632932271
 20
-133.032706672471
 10
99.46507430239068
 20
-133.032706672471
 10
99.59943302631542
 20
-133.032706672471
 10
99.74584958443855
 20
-132.9334879224958
 10
99.74584958443855
 20
-132.7005994676929
 10
99.74584958443855
 20
-132.4446288731388
 10
99.572905791079
 20
-132.3750379443368
 10
99.4571505827746
 20
-132.3750379443368
 10
99.42648923295589
 20
-132.3750379443368
 10
99.29006345173998
 20
-132.3750379443368
 10
99.20462508370579
 20
-132.5038845154851
 10
99.20462508370579
 20
-132.5038845154851
 10
99.03581540492856
 20
-132.4849364903163
 10
99.03581540492856
 20
-132.4849364903163
 10
99.03581540492856
 20
-132.4849364903163
 10
99.15191512278147
 20
-131.6388210391389
 10
99.15191512278147
 20
-131.6388210391389
 10
99.15191512278147
 20
-131.6388210391389
 10
99.90053437172627
 20
-131.6388210391389
 10
99.90053437172627
 20
-131.6388210391389
 10
99.90053437172627
 20
-131.6388210391389
 10
99.90053437172627
 20
-131.8334689340555
 10
99.90053437172627
 20
-131.8334689340555
 10
99.90053437172627
 20
-131.8334689340555
 10
99.30832245781181
 20
-131.8334689340555
 10
99.30832245781181
 20
-131.8334689340555
 10
99.30832245781181
 20
-131.8334689340555
 10
99.24562171998026
 20
-132.2565266596442
 10
99.24562171998026
 20
-132.2565266596442
 10
99.30418834322951
 20
-132.2224202143402
 10
99.38377004893879
 20
-132.1824571067113
 10
99.49780270950055
 20
-132.1824571067113
 10
99.74171546985625
 20
-132.1824571067113
 10
99.96978079097978
 20
-132.3684922629148
 10
99.96978079097978
 20
-132.681651442524
 10
99.96978079097978
 20
-132.9989447367155
 10
99.75411781360314
 20
-133.233555739261
 10
99.46335175464806
 20
-133.233555739261
 97
        0
 97
        0
 75
     2
 76
     1
 98
        0
  0
ENDBLK
  5
14C
330
149
100
AcDbEntity
  8
0
100
AcDbBlockEnd
  0
BLOCK
  5
165
330
163
100
AcDbEntity
  8
0
100
AcDbBlockBegin
  2
block 9
 70
     0
 10
0.0
 20
0.0
 30
0.0
  3
block 9
  1

  0
SPLINE
  5
167
330
163
100
AcDbEntity
  8
_U+30EC_U+30A4_U+30E4_U+30FC 1
370
     0
100
AcDbSpline
210
0.0
220
0.0
230
1.0
 70
    11
 71
     3
 72
    26
 73
    22
 74
     0
 42
0.0000000001
 43
0.0000000001
 12
1.0
 22
0.0
 32
0.0
 13
1.0
 23
0.0
 33
0.0
 40
0.0
 40
0.0
 40
0.0
 40
0.0
 40
1.0
 40
1.0
 40
1.0
 40
2.0
 40
2.0
 40
2.0
 40
3.0
 40
3.0
 40
3.0
 40
4.0
 40
4.0
 40
4.0
 40
5.0
 40
5.0
 40
5.0
 40
6.0
 40
6.0
 40
6.0
 40
7.0
 40
7.0
 40
7.0
 40
7.0
 10
84.86475963590188
 20
-128.2033718212478
 30
0.0
 10
84.86475963590188
 20
-128.2033718212478
 30
0.0
 10
84.86475963590188
 20
-127.0990464634509
 30
0.0
 10
84.86475963590188
 20
-127.0990464634509
 30
0.0
 10
84.86475963590188
 20
-127.0990464634509
 30
0.0
 10
84.53471948841494
 20
-127.0990464634509
 30
0.0
 10
84.53471948841494
 20
-127.0990464634509
 30
0.0
 10
84.53471948841494
 20
-127.0990464634509
 30
0.0
 10
84.53471948841494
 20
-126.9510796123595
 30
0.0
 10
84.53471948841494
 20
-126.9510796123595
 30
0.0
 10
84.86682669319302
 20
-126.9362657017729
 30
0.0
 10
84.9133354822439
 20
-126.7733126853206
 30
0.0
 10
84.94296330341705
 20
-126.6591077699845
 30
0.0
 10
84.94296330341705
 20
-126.6591077699845
 30
0.0
 10
85.08903535199164
 20
-126.6591077699845
 30
0.0
 10
85.08903535199164
 20
-126.6591077699845
 30
0.0
 10
85.08903535199164
 20
-126.6591077699845
 30
0.0
 10
85.08903535199164
 20
-128.2033718212478
 30
0.0
 10
85.08903535199164
 20
-128.2033718212478
 30
0.0
 10
85.08903535199164
 20
-128.2033718212478
 30
0.0
 10
84.86475963590188
 20
-128.2033718212478
 30
0.0
 10
84.86475963590188
 20
-128.2033718212478
 30
0.0
  0
HATCH
  5
168
330
163
100
AcDbEntity
  8
_U+30EC_U+30A4_U+30E4_U+30FC 1
 62
   179
420
  2234388
100
AcDbHatch
 10
0.0
 20
0.0
 30
0.0
210
0.0
220
0.0
230
1.0
  2
SOLID
 70
     1
 71
     0
 91
        1
 92
        1
 93
        1
 72
     4
 94
        3
 73
     0
 74
     1
 95
       26
 96
       22
 40
0.0
 40
0.0
 40
0.0
 40
0.0
 40
1.0
 40
1.0
 40
1.0
 40
2.0
 40
2.0
 40
2.0
 40
3.0
 40
3.0
 40
3.0
 40
4.0
 40
4.0
 40
4.0
 40
5.0
 40
5.0
 40
5.0
 40
6.0
 40
6.0
 40
6.0
 40
7.0
 40
7.0
 40
7.0
 40
7.0
 10
84.86475963590188
 20
-128.2033718212478
 10
84.86475963590188
 20
-128.2033718212478
 10
84.86475963590188
 20
-127.0990464634509
 10
84.86475963590188
 20
-127.0990464634509
 10
84.86475963590188
 20
-127.0990464634509
 10
84.53471948841494
 20
-127.0990464634509
 10
84.53471948841494
 20
-127.0990464634509
 10
84.53471948841494
 20
-127.0990464634509
 10
84.53471948841494
 20
-126.9510796123595
 10
84.53471948841494
 20
-126.9510796123595
 10
84.86682669319302
 20
-126.9362657017729
 10
84.9133354822439
 20
-126.7733126853206
 10
84.94296330341705
 20
-126.6591077699845
 10
84.94296330341705
 20
-126.6591077699845
 10
85.08903535199164
 20
-126.6591077699845
 10
85.08903535199164
 20
-126.6591077699845
 10
85.08903535199164
 20
-126.6591077699845
 10
85.08903535199164
 20
-128.2033718212478
 10
85.08903535199164
 20
-128.2033718212478
 10
85.08903535199164
 20
-128.2033718212478
 10
84.86475963590188
 20
-128.2033718212478
 10
84.86475963590188
 20
-128.2033718212478
 97
        0
 97
        0
 75
     2
 76
     1
 98
        0
  0
ENDBLK
  5
166
330
163
100
AcDbEntity
  8
0
100
AcDbBlockEnd
  0
ENDSEC
  0
SECTION
  2
ENTITIES
  0
POLYLINE
  5
41
330
1F
100
AcDbEntity
  8
_U+30EC_U+30A4_U+30E4_U+30FC 1
 62
   179
420
  2234388
370
     9
100
AcDb2dPolyline
 66
     1
 10
0.0
 20
0.0
 30
0.0
  0
VERTEX
  5
42
330
41
100
AcDbEntity
  8
_U+30EC_U+30A4_U+30E4_U+30FC 1
 62
   179
420
  2234388
370
     9
100
AcDbVertex
100
AcDb2dVertex
 10
91.25680017184507
 20
-132.1421594114087
 30
0.0
  0
VERTEX
  5
43
330
41
100
AcDbEntity
  8
_U+30EC_U+30A4_U+30E4_U+30FC 1
 62
   179
420
  2234388
370
     9
100
AcDbVertex
100
AcDb2dVertex
 10
89.93388353892881
 20
-132.1421594114087
 30
0.0
  0
SEQEND
  5
44
330
41
100
AcDbEntity
  8
_U+30EC_U+30A4_U+30E4_U+30FC 1
 62
   179
420
  2234388
370
     9
  0
POLYLINE
  5
45
330
1F
100
AcDbEntity
  8
_U+30EC_U+30A4_U+30E4_U+30FC 1
 62
   179
420
  2234388
370
     9
100
AcDb2dPolyline
 66
     1
 10
0.0
 20
0.0
 30
0.0
  0
VERTEX
  5
46
330
45
100
AcDbEntity
  8
_U+30EC_U+30A4_U+30E4_U+30FC 1
 62
   179
420
  2234388
370
     9
100
AcDbVertex
100
AcDb2dVertex
 10
96.54846670351007
 20
-132.1421594114087
 30
0.0
  0
VERTEX
  5
47
330
45
100
AcDbEntity
  8
_U+30EC_U+30A4_U+30E4_U+30FC 1
 62
   179
420
  2234388
370
     9
100
AcDbVertex
100
AcDb2dVertex
 10
95.22555007059383
 20
-132.1421594114087
 30
0.0
  0
SEQEND
  5
48
330
45
100
AcDbEntity
  8
_U+30EC_U+30A4_U+30E4_U+30FC 1
 62
   179
420
  2234388
370
     9
  0
POLYLINE
  5
49
330
1F
100
AcDbEntity
  8
_U+30EC_U+30A4_U+30E4_U+30FC 1
 62
   179
420
  2234388
370
     9
100
AcDb2dPolyline
 66
     1
 10
0.0
 20
0.0
 30
0.0
  0
VERTEX
  5
4A
330
49
100
AcDbEntity
  8
_U+30EC_U+30A4_U+30E4_U+30FC 1
 62
   179
420
  2234388
370
     9
100
AcDbVertex
100
AcDb2dVertex
 10
91.16860572965065
 20
-131.524798300452
 30
0.0
  0
VERTEX
  5
4B
330
49
100
AcDbEntity
  8
_U+30EC_U+30A4_U+30E4_U+30FC 1
 62
   179
420
  2234388
370
     9
100
AcDbVertex
100
AcDb2dVertex
 10
91.16860572965065
 20
-132.9359094112103
 30
0.0
  0
SEQEND
  5
4C
330
49
100
AcDbEntity
  8
_U+30EC_U+30A4_U+30E4_U+30FC 1
 62
   179
420
  2234388
370
     9
  0
POLYLINE
  5
4D
330
1F
100
AcDbEntity
  8
_U+30EC_U+30A4_U+30E4_U+30FC 1
 62
   179
420
  2234388
370
     9
100
AcDb2dPolyline
 66
     1
 10
0.0
 20
0.0
 30
0.0
  0
VERTEX
  5
4E
330
4D
100
AcDbEntity
  8
_U+30EC_U+30A4_U+30E4_U+30FC 1
 62
   179
420
  2234388
370
     9
100
AcDbVertex
100
AcDb2dVertex
 10
95.22555007059383
 20
-131.524798300452
 30
0.0
  0
VERTEX
  5
4F
330
4D
100
AcDbEntity
  8
_U+30EC_U+30A4_U+30E4_U+30FC 1
 62
   179
420
  2234388
370
     9
100
AcDbVertex
100
AcDb2dVertex
 10
95.22555007059383
 20
-132.9359094112103
 30
0.0
  0
SEQEND
  5
50
330
4D
100
AcDbEntity
  8
_U+30EC_U+30A4_U+30E4_U+30FC 1
 62
   179
420
  2234388
370
     9
  0
INSERT
  5
52
330
1F
100
AcDbEntity
  8
_U+30EC_U+30A4_U+30E4_U+30FC 1
100
AcDbBlockReference
  2
block 2
 10
0.0
 20
0.0
 30
0.0
  0
SPLINE
  5
147
330
1F
100
AcDbEntity
  8
_U+30EC_U+30A4_U+30E4_U+30FC 1
 62
   179
420
  2234388
370
     9
100
AcDbSpline
210
0.0
220
0.0
230
1.0
 70
    11
 71
     3
 72
    17
 73
    13
 74
     0
 42
0.0000000001
 43
0.0000000001
 12
1.0
 22
0.0
 32
0.0
 13
1.0
 23
0.0
 33
0.0
 40
0.0
 40
0.0
 40
0.0
 40
0.0
 40
1.0
 40
1.0
 40
1.0
 40
2.0
 40
2.0
 40
2.0
 40
3.0
 40
3.0
 40
3.0
 40
4.0
 40
4.0
 40
4.0
 40
4.0
 10
95.31374451278823
 20
-132.1421594114087
 30
0.0
 10
95.31374451278823
 20
-132.0863499669783
 30
0.0
 10
95.26894173615348
 20
-132.0415471892116
 30
0.0
 10
95.21383784867041
 20
-132.0415471892116
 30
0.0
 10
95.15869868341045
 20
-132.0415471892116
 30
0.0
 10
95.11393118455257
 20
-132.0863499669783
 30
0.0
 10
95.11393118455257
 20
-132.1421594114087
 30
0.0
 10
95.11393118455257
 20
-132.1972633002843
 30
0.0
 10
95.15869868341045
 20
-132.2420660780504
 30
0.0
 10
95.21383784867041
 20
-132.2420660780504
 30
0.0
 10
95.26894173615348
 20
-132.2420660780504
 30
0.0
 10
95.31374451278823
 20
-132.1972633002843
 30
0.0
 10
95.31374451278823
 20
-132.1421594114087
 30
0.0
  0
SPLINE
  5
148
330
1F
100
AcDbEntity
  8
_U+30EC_U+30A4_U+30E4_U+30FC 1
 62
   179
420
  2234388
370
     9
100
AcDbSpline
210
0.0
220
0.0
230
1.0
 70
    11
 71
     3
 72
    17
 73
    13
 74
     0
 42
0.0000000001
 43
0.0000000001
 12
1.0
 22
0.0
 32
0.0
 13
1.0
 23
0.0
 33
0.0
 40
0.0
 40
0.0
 40
0.0
 40
0.0
 40
1.0
 40
1.0
 40
1.0
 40
2.0
 40
2.0
 40
2.0
 40
3.0
 40
3.0
 40
3.0
 40
4.0
 40
4.0
 40
4.0
 40
4.0
 10
91.25680017184507
 20
-132.1421594114087
 30
0.0
 10
91.25680017184507
 20
-132.0863499669783
 30
0.0
 10
91.2119973952103
 20
-132.0415471892116
 30
0.0
 10
91.15689350772723
 20
-132.0415471892116
 30
0.0
 10
91.10175434246729
 20
-132.0415471892116
 30
0.0
 10
91.0569868436094
 20
-132.0863499669783
 30
0.0
 10
91.0569868436094
 20
-132.1421594114087
 30
0.0
 10
91.0569868436094
 20
-132.1972633002843
 30
0.0
 10
91.10175434246729
 20
-132.2420660780504
 30
0.0
 10
91.15689350772723
 20
-132.2420660780504
 30
0.0
 10
91.2119973952103
 20
-132.2420660780504
 30
0.0
 10
91.25680017184507
 20
-132.1972633002843
 30
0.0
 10
91.25680017184507
 20
-132.1421594114087
 30
0.0
  0
INSERT
  5
14A
330
1F
100
AcDbEntity
  8
_U+30EC_U+30A4_U+30E4_U+30FC 1
100
AcDbBlockReference
  2
block 8
 10
0.0
 20
0.0
 30
0.0
  0
SPLINE
  5
159
330
1F
100
AcDbEntity
  8
_U+30EC_U+30A4_U+30E4_U+30FC 1
 62
   179
420
  2234388
370
     9
100
AcDbSpline
210
0.0
220
0.0
230
1.0
 70
    11
 71
     3
 72
    17
 73
    13
 74
     0
 42
0.0000000001
 43
0.0000000001
 12
1.0
 22
0.0
 32
0.0
 13
1.0
 23
0.0
 33
0.0
 40
0.0
 40
0.0
 40
0.0
 40
0.0
 40
1.0
 40
1.0
 40
1.0
 40
2.0
 40
2.0
 40
2.0
 40
3.0
 40
3.0
 40
3.0
 40
4.0
 40
4.0
 40
4.0
 40
4.0
 10
82.36567150978777
 20
-128.8444985788997
 30
0.0
 10
82.36567150978777
 20
-128.7893946900248
 30
0.0
 10
82.32090401092988
 20
-128.7444155233695
 30
0.0
 10
82.26509456790926
 20
-128.7444155233695
 30
0.0
 10
82.2099554026493
 20
-128.7444155233695
 30
0.0
 10
82.16518790379142
 20
-128.7893946900248
 30
0.0
 10
82.16518790379142
 20
-128.8444985788997
 30
0.0
 10
82.16518790379142
 20
-128.8996377455528
 30
0.0
 10
82.2099554026493
 20
-128.9444052455414
 30
0.0
 10
82.26509456790926
 20
-128.9444052455414
 30
0.0
 10
82.32090401092988
 20
-128.9444052455414
 30
0.0
 10
82.36567150978777
 20
-128.8996377455528
 30
0.0
 10
82.36567150978777
 20
-128.8444985788997
 30
0.0
  0
SPLINE
  5
15A
330
1F
100
AcDbEntity
  8
_U+30EC_U+30A4_U+30E4_U+30FC 1
 62
   179
420
  2234388
370
     9
100
AcDbSpline
210
0.0
220
0.0
230
1.0
 70
    11
 71
     3
 72
    17
 73
    13
 74
     0
 42
0.0000000001
 43
0.0000000001
 12
1.0
 22
0.0
 32
0.0
 13
1.0
 23
0.0
 33
0.0
 40
0.0
 40
0.0
 40
0.0
 40
0.0
 40
1.0
 40
1.0
 40
1.0
 40
2.0
 40
2.0
 40
2.0
 40
3.0
 40
3.0
 40
3.0
 40
4.0
 40
4.0
 40
4.0
 40
4.0
 10
83.36406787320544
 20
-128.8444985788997
 30
0.0
 10
83.36406787320544
 20
-128.7893946900248
 30
0.0
 10
83.31930037434756
 20
-128.7444155233695
 30
0.0
 10
83.2641612090876
 20
-128.7444155233695
 30
0.0
 10
83.20905732160453
 20
-128.7444155233695
 30
0.0
 10
83.16425454496978
 20
-128.7893946900248
 30
0.0
 10
83.16425454496978
 20
-128.8444985788997
 30
0.0
 10
83.16425454496978
 20
-128.8996377455528
 30
0.0
 10
83.20905732160453
 20
-128.9444052455414
 30
0.0
 10
83.2641612090876
 20
-128.9444052455414
 30
0.0
 10
83.31930037434756
 20
-128.9444052455414
 30
0.0
 10
83.36406787320544
 20
-128.8996377455528
 30
0.0
 10
83.36406787320544
 20
-128.8444985788997
 30
0.0
  0
POLYLINE
  5
15B
330
1F
100
AcDbEntity
  8
_U+30EC_U+30A4_U+30E4_U+30FC 1
 62
   179
420
  2234388
370
     9
100
AcDb2dPolyline
 66
     1
 10
0.0
 20
0.0
 30
0.0
  0
VERTEX
  5
15C
330
15B
100
AcDbEntity
  8
_U+30EC_U+30A4_U+30E4_U+30FC 1
 62
   179
420
  2234388
370
     9
100
AcDbVertex
100
AcDb2dVertex
 10
86.14565002446359
 20
-128.8444985788997
 30
0.0
  0
VERTEX
  5
15D
330
15B
100
AcDbEntity
  8
_U+30EC_U+30A4_U+30E4_U+30FC 1
 62
   179
420
  2234388
370
     9
100
AcDbVertex
100
AcDb2dVertex
 10
82.38017067608453
 20
-128.8444985788997
 30
0.0
  0
SEQEND
  5
15E
330
15B
100
AcDbEntity
  8
_U+30EC_U+30A4_U+30E4_U+30FC 1
 62
   179
420
  2234388
370
     9
  0
POLYLINE
  5
15F
330
1F
100
AcDbEntity
  8
_U+30EC_U+30A4_U+30E4_U+30FC 1
 62
   179
420
  2234388
370
     9
100
AcDb2dPolyline
 66
     1
 10
0.0
 20
0.0
 30
0.0
  0
VERTEX
  5
160
330
15F
100
AcDbEntity
  8
_U+30EC_U+30A4_U+30E4_U+30FC 1
 62
   179
420
  2234388
370
     9
100
AcDbVertex
100
AcDb2dVertex
 10
81.55953903035392
 20
-128.8444985788997
 30
0.0
  0
VERTEX
  5
161
330
15F
100
AcDbEntity
  8
_U+30EC_U+30A4_U+30E4_U+30FC 1
 62
   179
420
  2234388
370
     9
100
AcDbVertex
100
AcDb2dVertex
 10
83.55767231271062
 20
-128.8444985788997
 30
0.0
  0
SEQEND
  5
162
330
15F
100
AcDbEntity
  8
_U+30EC_U+30A4_U+30E4_U+30FC 1
 62
   179
420
  2234388
370
     9
  0
INSERT
  5
164
330
1F
100
AcDbEntity
  8
_U+30EC_U+30A4_U+30E4_U+30FC 1
100
AcDbBlockReference
  2
block 9
 10
0.0
 20
0.0
 30
0.0
  0
ENDSEC
  0
SECTION
  2
OBJECTS
  0
DICTIONARY
  5
C
330
0
100
AcDbDictionary
281
     1
  3
ACAD_GROUP
350
D
  3
ACAD_LAYOUT
350
1A
  3
ACAD_MATERIAL
350
3B
  3
ACAD_MLEADERSTYLE
350
16A
  3
ACAD_MLINESTYLE
350
17
  3
ACAD_PLOTSETTINGS
350
19
  3
ACAD_PLOTSTYLENAME
350
E
  3
ACAD_TABLESTYLE
350
169
  3
ACAD_VISUALSTYLE
350
2A
  0
SUN
  5
3F
330
29
100
AcDbSun
 90
        1
290
     0
 63
     7
421
 16777215
 40
1.0
291
     1
 91
  2455826
 92
 54000000
292
     0
 70
     2
 71
   256
280
     1
  0
DICTIONARY
  5
D
102
{ACAD_REACTORS
330
C
102
}
330
C
100
AcDbDictionary
281
     1
  0
DICTIONARY
  5
1A
102
{ACAD_REACTORS
330
C
102
}
330
C
100
AcDbDictionary
281
     1
  3
Layout1
350
1E
  3
Layout2
350
26
  3
Model
350
22
  0
DICTIONARY
  5
3B
102
{ACAD_REACTORS
330
C
102
}
330
C
100
AcDbDictionary
281
     1
  3
ByBlock
350
3D
  3
ByLayer
350
3C
  3
Global
350
3E
  0
DICTIONARY
  5
16A
102
{ACAD_REACTORS
330
C
102
}
330
C
100
AcDbDictionary
281
     1
  0
DICTIONARY
  5
17
102
{ACAD_REACTORS
330
C
102
}
330
C
100
AcDbDictionary
281
     1
  3
Standard
350
18
  0
DICTIONARY
  5
19
102
{ACAD_REACTORS
330
C
102
}
330
C
100
AcDbDictionary
281
     1
  0
ACDBDICTIONARYWDFLT
  5
E
102
{ACAD_REACTORS
330
C
102
}
330
C
100
AcDbDictionary
281
     1
  3
Normal
350
F
100
AcDbDictionaryWithDefault
340
F
  0
DICTIONARY
  5
169
102
{ACAD_REACTORS
330
C
102
}
330
C
100
AcDbDictionary
281
     1
  0
DICTIONARY
  5
2A
102
{ACAD_REACTORS
330
C
102
}
330
C
100
AcDbDictionary
281
     1
  3
2dWireframe
350
2F
  3
3D Hidden
350
31
  3
3dWireframe
350
30
  3
Basic
350
32
  3
Brighten
350
36
  3
ColorChange
350
3A
  3
Conceptual
350
34
  3
Dim
350
35
  3
Facepattern
350
39
  3
Flat
350
2B
  3
FlatWithEdges
350
2C
  3
Gouraud
350
2D
  3
GouraudWithEdges
350
2E
  3
Linepattern
350
38
  3
Realistic
350
33
  3
Thicken
350
37
  0
LAYOUT
  5
1E
102
{ACAD_REACTORS
330
1A
102
}
330
1A
100
AcDbPlotSettings
  1

  2
none_device
  4

  6

 40
0.0
 41
0.0
 42
0.0
 43
0.0
 44
0.0
 45
0.0
 46
0.0
 47
0.0
 48
0.0
 49
0.0
140
0.0
141
0.0
142
1.0
143
1.0
 70
   688
 72
     0
 73
     0
 74
     5
  7

 75
    16
 76
     0
 77
     2
 78
   300
147
1.0
148
0.0
149
0.0
100
AcDbLayout
  1
Layout1
 70
     1
 71
     1
 10
0.0
 20
0.0
 11
12.0
 21
9.0
 12
0.0
 22
0.0
 32
0.0
 14
1.000000000000000E+20
 24
1.000000000000000E+20
 34
1.000000000000000E+20
 15
-1.000000000000000E+20
 25
-1.000000000000000E+20
 35
-1.000000000000000E+20
146
0.0
 13
0.0
 23
0.0
 33
0.0
 16
1.0
 26
0.0
 36
0.0
 17
0.0
 27
1.0
 37
0.0
 76
     0
330
1B
  0
LAYOUT
  5
26
102
{ACAD_REACTORS
330
1A
102
}
330
1A
100
AcDbPlotSettings
  1

  2
none_device
  4

  6

 40
0.0
 41
0.0
 42
0.0
 43
0.0
 44
0.0
 45
0.0
 46
0.0
 47
0.0
 48
0.0
 49
0.0
140
0.0
141
0.0
142
1.0
143
1.0
 70
   688
 72
     0
 73
     0
 74
     5
  7

 75
    16
 76
     0
 77
     2
 78
   300
147
1.0
148
0.0
149
0.0
100
AcDbLayout
  1
Layout2
 70
     1
 71
     2
 10
0.0
 20
0.0
 11
0.0
 21
0.0
 12
0.0
 22
0.0
 32
0.0
 14
0.0
 24
0.0
 34
0.0
 15
0.0
 25
0.0
 35
0.0
146
0.0
 13
0.0
 23
0.0
 33
0.0
 16
1.0
 26
0.0
 36
0.0
 17
0.0
 27
1.0
 37
0.0
 76
     0
330
23
  0
LAYOUT
  5
22
102
{ACAD_REACTORS
330
1A
102
}
330
1A
100
AcDbPlotSettings
  1

  2
none_device
  4

  6

 40
0.0
 41
0.0
 42
0.0
 43
0.0
 44
0.0
 45
0.0
 46
0.0
 47
0.0
 48
0.0
 49
0.0
140
0.0
141
0.0
142
1.0
143
1.0
 70
  1712
 72
     0
 73
     0
 74
     0
  7

 75
     0
 76
     0
 77
     2
 78
   300
147
1.0
148
0.0
149
0.0
100
AcDbLayout
  1
Model
 70
     1
 71
     0
 10
0.0
 20
0.0
 11
12.0
 21
9.0
 12
0.0
 22
0.0
 32
0.0
 14
1.000000000000000E+20
 24
1.000000000000000E+20
 34
1.000000000000000E+20
 15
-1.000000000000000E+20
 25
-1.000000000000000E+20
 35
-1.000000000000000E+20
146
0.0
 13
0.0
 23
0.0
 33
0.0
 16
1.0
 26
0.0
 36
0.0
 17
0.0
 27
1.0
 37
0.0
 76
     0
330
1F
331
29
  0
MATERIAL
  5
3D
102
{ACAD_REACTORS
330
3B
102
}
330
3B
100
AcDbMaterial
  1
ByBlock
 72
     1
 94
      127
  0
MATERIAL
  5
3C
102
{ACAD_REACTORS
330
3B
102
}
330
3B
100
AcDbMaterial
  1
ByLayer
 72
     1
 94
      127
  0
MATERIAL
  5
3E
102
{ACAD_REACTORS
330
3B
102
}
330
3B
100
AcDbMaterial
  1
Global
 72
     1
 94
      127
  0
MLINESTYLE
  5
18
102
{ACAD_REACTORS
330
17
102
}
330
17
100
AcDbMlineStyle
  2
Standard
 70
     0
  3

 62
   256
 51
90.0
 52
90.0
 71
     2
 49
0.5
 62
   256
  6
BYLAYER
 49
-0.5
 62
   256
  6
BYLAYER
  0
ACDBPLACEHOLDER
  5
F
102
{ACAD_REACTORS
330
E
102
}
330
E
  0
VISUALSTYLE
  5
2F
102
{ACAD_REACTORS
330
2A
102
}
330
2A
100
AcDbVisualStyle
  2
2dWireframe
 70
     4
177
     2
291
     0
 71
     0
176
     1
 72
     2
176
     1
 73
     0
176
     1
 90
        0
176
     1
 40
-0.6
176
     1
 41
-30.0
176
     1
 62
     5
 63
     7
421
 16777215
176
     1
 74
     1
176
     1
 91
        4
176
     1
 64
     7
176
     1
 65
   257
176
     1
 75
     1
176
     1
175
     1
176
     1
 42
1.0
176
     1
 92
        0
176
     1
 66
   257
176
     1
 43
1.0
176
     1
 76
     1
176
     1
 77
     6
176
     1
 78
     2
176
     1
 67
     7
176
     1
 79
     5
176
     1
170
     0
176
     1
171
     0
176
     1
290
     0
176
     1
 93
        1
176
     1
 44
0.0
176
     1
173
     0
176
     1
  0
VISUALSTYLE
  5
31
102
{ACAD_REACTORS
330
2A
102
}
330
2A
100
AcDbVisualStyle
  2
3D Hidden
 70
     6
177
     2
291
     0
 71
     1
176
     1
 72
     2
176
     1
 73
     2
176
     1
 90
        0
176
     1
 40
-0.6
176
     1
 41
-30.0
176
     1
 62
     5
 63
     7
421
 16777215
176
     1
 74
     2
176
     1
 91
        2
176
     1
 64
     7
176
     1
 65
   257
176
     1
 75
     2
176
     1
175
     1
176
     1
 42
40.0
176
     1
 92
        0
176
     1
 66
   257
176
     1
 43
1.0
176
     1
 76
     1
176
     1
 77
     6
176
     1
 78
     2
176
     1
 67
     7
176
     1
 79
     3
176
     1
170
     0
176
     1
171
     0
176
     1
290
     0
176
     1
 93
        1
176
     1
 44
0.0
176
     1
173
     0
176
     1
  0
VISUALSTYLE
  5
30
102
{ACAD_REACTORS
330
2A
102
}
330
2A
100
AcDbVisualStyle
  2
3dWireframe
 70
     5
177
     2
291
     0
 71
     0
176
     1
 72
     2
176
     1
 73
     0
176
     1
 90
        0
176
     1
 40
-0.6
176
     1
 41
-30.0
176
     1
 62
     5
 63
     7
421
 16777215
176
     1
 74
     1
176
     1
 91
        4
176
     1
 64
     7
176
     1
 65
   257
176
     1
 75
     1
176
     1
175
     1
176
     1
 42
1.0
176
     1
 92
        0
176
     1
 66
   257
176
     1
 43
1.0
176
     1
 76
     1
176
     1
 77
     6
176
     1
 78
     2
176
     1
 67
     7
176
     1
 79
     5
176
     1
170
     0
176
     1
171
     0
176
     1
290
     0
176
     1
 93
        1
176
     1
 44
0.0
176
     1
173
     0
176
     1
  0
VISUALSTYLE
  5
32
102
{ACAD_REACTORS
330
2A
102
}
330
2A
100
AcDbVisualStyle
  2
Basic
 70
     7
177
     2
291
     1
 71
     1
176
     1
 72
     0
176
     1
 73
     1
176
     1
 90
        0
176
     1
 40
-0.6
176
     1
 41
-30.0
176
     1
 62
     5
 63
     7
421
 16777215
176
     1
 74
     0
176
     1
 91
        4
176
     1
 64
     7
176
     1
 65
   257
176
     1
 75
     1
176
     1
175
     1
176
     1
 42
1.0
176
     1
 92
        8
176
     1
 66
     7
176
     1
 43
1.0
176
     1
 76
     1
176
     1
 77
     6
176
     1
 78
     2
176
     1
 67
     7
176
     1
 79
     5
176
     1
170
     0
176
     1
171
     0
176
     1
290
     0
176
     1
 93
        1
176
     1
 44
0.0
176
     1
173
     0
176
     1
  0
VISUALSTYLE
  5
36
102
{ACAD_REACTORS
330
2A
102
}
330
2A
100
AcDbVisualStyle
  2
Brighten
 70
    12
177
     2
291
     1
 71
     2
176
     1
 72
     2
176
     1
 73
     0
176
     1
 90
        0
176
     1
 40
-0.6
176
     1
 41
-30.0
176
     1
 62
     5
 63
     7
421
 16777215
176
     1
 74
     1
176
     1
 91
        4
176
     1
 64
     7
176
     1
 65
   257
176
     1
 75
     1
176
     1
175
     1
176
     1
 42
1.0
176
     1
 92
        8
176
     1
 66
     7
176
     1
 43
1.0
176
     1
 76
     1
176
     1
 77
     6
176
     1
 78
     2
176
     1
 67
     7
176
     1
 79
     5
176
     1
170
     0
176
     1
171
     0
176
     1
290
     0
176
     1
 93
        1
176
     1
 44
50.0
176
     1
173
     0
176
     1
  0
VISUALSTYLE
  5
3A
102
{ACAD_REACTORS
330
2A
102
}
330
2A
100
AcDbVisualStyle
  2
ColorChange
 70
    16
177
     2
291
     1
 71
     2
176
     1
 72
     2
176
     1
 73
     3
176
     1
 90
        0
176
     1
 40
-0.6
176
     1
 41
-30.0
176
     1
 62
     5
 63
     8
421
  8421504
176
     1
 74
     1
176
     1
 91
        4
176
     1
 64
     7
176
     1
 65
   257
176
     1
 75
     1
176
     1
175
     1
176
     1
 42
1.0
176
     1
 92
        8
176
     1
 66
     8
424
  8421504
176
     1
 43
1.0
176
     1
 76
     1
176
     1
 77
     6
176
     1
 78
     2
176
     1
 67
     7
176
     1
 79
     5
176
     1
170
     0
176
     1
171
     0
176
     1
290
     0
176
     1
 93
        1
176
     1
 44
0.0
176
     1
173
     0
176
     1
  0
VISUALSTYLE
  5
34
102
{ACAD_REACTORS
330
2A
102
}
330
2A
100
AcDbVisualStyle
  2
Conceptual
 70
     9
177
     2
291
     0
 71
     3
176
     1
 72
     2
176
     1
 73
     0
176
     1
 90
        0
176
     1
 40
-0.6
176
     1
 41
-30.0
176
     1
 62
     5
 63
     7
421
 16777215
176
     1
 74
     2
176
     1
 91
        2
176
     1
 64
     7
176
     1
 65
   257
176
     1
 75
     1
176
     1
175
     1
176
     1
 42
40.0
176
     1
 92
        8
176
     1
 66
     7
176
     1
 43
1.0
176
     1
 76
     1
176
     1
 77
     6
176
     1
 78
     2
176
     1
 67
     7
176
     1
 79
     3
176
     1
170
     0
176
     1
171
     0
176
     1
290
     0
176
     1
 93
        1
176
     1
 44
0.0
176
     1
173
     0
176
     1
  0
VISUALSTYLE
  5
35
102
{ACAD_REACTORS
330
2A
102
}
330
2A
100
AcDbVisualStyle
  2
Dim
 70
    11
177
     2
291
     1
 71
     2
176
     1
 72
     2
176
     1
 73
     0
176
     1
 90
        0
176
     1
 40
-0.6
176
     1
 41
-30.0
176
     1
 62
     5
 63
     7
421
 16777215
176
     1
 74
     1
176
     1
 91
        4
176
     1
 64
     7
176
     1
 65
   257
176
     1
 75
     1
176
     1
175
     1
176
     1
 42
1.0
176
     1
 92
        8
176
     1
 66
     7
176
     1
 43
1.0
176
     1
 76
     1
176
     1
 77
     6
176
     1
 78
     2
176
     1
 67
     7
176
     1
 79
     5
176
     1
170
     0
176
     1
171
     0
176
     1
290
     0
176
     1
 93
        1
176
     1
 44
-50.0
176
     1
173
     0
176
     1
  0
VISUALSTYLE
  5
39
102
{ACAD_REACTORS
330
2A
102
}
330
2A
100
AcDbVisualStyle
  2
Facepattern
 70
    15
177
     2
291
     1
 71
     2
176
     1
 72
     2
176
     1
 73
     0
176
     1
 90
        0
176
     1
 40
-0.6
176
     1
 41
-30.0
176
     1
 62
     5
 63
     7
421
 16777215
176
     1
 74
     1
176
     1
 91
        4
176
     1
 64
     7
176
     1
 65
   257
176
     1
 75
     1
176
     1
175
     1
176
     1
 42
1.0
176
     1
 92
        8
176
     1
 66
     7
176
     1
 43
1.0
176
     1
 76
     1
176
     1
 77
     6
176
     1
 78
     2
176
     1
 67
     7
176
     1
 79
     5
176
     1
170
     0
176
     1
171
     0
176
     1
290
     0
176
     1
 93
        1
176
     1
 44
0.0
176
     1
173
     0
176
     1
  0
VISUALSTYLE
  5
2B
102
{ACAD_REACTORS
330
2A
102
}
330
2A
100
AcDbVisualStyle
  2
Flat
 70
     0
177
     2
291
     1
 71
     2
176
     1
 72
     1
176
     1
 73
     1
176
     1
 90
        2
176
     1
 40
-0.6
176
     1
 41
30.0
176
     1
 62
     5
 63
     7
421
 16777215
176
     1
 74
     0
176
     1
 91
        4
176
     1
 64
     7
176
     1
 65
   257
176
     1
 75
     1
176
     1
175
     1
176
     1
 42
1.0
176
     1
 92
        8
176
     1
 66
     7
176
     1
 43
1.0
176
     1
 76
     1
176
     1
 77
     6
176
     1
 78
     2
176
     1
 67
     7
176
     1
 79
     5
176
     1
170
     0
176
     1
171
     0
176
     1
290
     0
176
     1
 93
       13
176
     1
 44
0.0
176
     1
173
     0
176
     1
  0
VISUALSTYLE
  5
2C
102
{ACAD_REACTORS
330
2A
102
}
330
2A
100
AcDbVisualStyle
  2
FlatWithEdges
 70
     1
177
     2
291
     1
 71
     2
176
     1
 72
     1
176
     1
 73
     1
176
     1
 90
        2
176
     1
 40
-0.6
176
     1
 41
30.0
176
     1
 62
     5
 63
     7
421
 16777215
176
     1
 74
     1
176
     1
 91
        4
176
     1
 64
     7
176
     1
 65
   257
176
     1
 75
     1
176
     1
175
     1
176
     1
 42
1.0
176
     1
 92
        0
176
     1
 66
   257
176
     1
 43
1.0
176
     1
 76
     1
176
     1
 77
     6
176
     1
 78
     2
176
     1
 67
     7
176
     1
 79
     5
176
     1
170
     0
176
     1
171
     0
176
     1
290
     0
176
     1
 93
       13
176
     1
 44
0.0
176
     1
173
     0
176
     1
  0
VISUALSTYLE
  5
2D
102
{ACAD_REACTORS
330
2A
102
}
330
2A
100
AcDbVisualStyle
  2
Gouraud
 70
     2
177
     2
291
     1
 71
     2
176
     1
 72
     2
176
     1
 73
     1
176
     1
 90
        2
176
     1
 40
-0.6
176
     1
 41
30.0
176
     1
 62
     5
 63
     7
421
 16777215
176
     1
 74
     0
176
     1
 91
        4
176
     1
 64
     7
176
     1
 65
   257
176
     1
 75
     1
176
     1
175
     1
176
     1
 42
1.0
176
     1
 92
        0
176
     1
 66
     7
176
     1
 43
1.0
176
     1
 76
     1
176
     1
 77
     6
176
     1
 78
     2
176
     1
 67
     7
176
     1
 79
     5
176
     1
170
     0
176
     1
171
     0
176
     1
290
     0
176
     1
 93
       13
176
     1
 44
0.0
176
     1
173
     0
176
     1
  0
VISUALSTYLE
  5
2E
102
{ACAD_REACTORS
330
2A
102
}
330
2A
100
AcDbVisualStyle
  2
GouraudWithEdges
 70
     3
177
     2
291
     1
 71
     2
176
     1
 72
     2
176
     1
 73
     1
176
     1
 90
        2
176
     1
 40
-0.6
176
     1
 41
30.0
176
     1
 62
     5
 63
     7
421
 16777215
176
     1
 74
     1
176
     1
 91
        4
176
     1
 64
     7
176
     1
 65
   257
176
     1
 75
     1
176
     1
175
     1
176
     1
 42
1.0
176
     1
 92
        0
176
     1
 66
   257
176
     1
 43
1.0
176
     1
 76
     1
176
     1
 77
     6
176
     1
 78
     2
176
     1
 67
     7
176
     1
 79
     5
176
     1
170
     0
176
     1
171
     0
176
     1
290
     0
176
     1
 93
       13
176
     1
 44
0.0
176
     1
173
     0
176
     1
  0
VISUALSTYLE
  5
38
102
{ACAD_REACTORS
330
2A
102
}
330
2A
100
AcDbVisualStyle
  2
Linepattern
 70
    14
177
     2
291
     1
 71
     2
176
     1
 72
     2
176
     1
 73
     0
176
     1
 90
        0
176
     1
 40
-0.6
176
     1
 41
-30.0
176
     1
 62
     5
 63
     7
421
 16777215
176
     1
 74
     1
176
     1
 91
        4
176
     1
 64
     7
176
     1
 65
   257
176
     1
 75
     7
176
     1
175
     7
176
     1
 42
1.0
176
     1
 92
        8
176
     1
 66
     7
176
     1
 43
1.0
176
     1
 76
     1
176
     1
 77
     6
176
     1
 78
     2
176
     1
 67
     7
176
     1
 79
     5
176
     1
170
     0
176
     1
171
     0
176
     1
290
     0
176
     1
 93
        1
176
     1
 44
0.0
176
     1
173
     0
176
     1
  0
VISUALSTYLE
  5
33
102
{ACAD_REACTORS
330
2A
102
}
330
2A
100
AcDbVisualStyle
  2
Realistic
 70
     8
177
     2
291
     0
 71
     2
176
     1
 72
     2
176
     1
 73
     0
176
     1
 90
        0
176
     1
 40
-0.6
176
     1
 41
-30.0
176
     1
 62
     5
 63
     7
421
 16777215
176
     1
 74
     1
176
     1
 91
        0
176
     1
 64
     7
176
     1
 65
   257
176
     1
 75
     1
176
     1
175
     1
176
     1
 42
1.0
176
     1
 92
        8
176
     1
 66
     8
424
  7895160
176
     1
 43
1.0
176
     1
 76
     1
176
     1
 77
     6
176
     1
 78
     2
176
     1
 67
     7
176
     1
 79
     5
176
     1
170
     0
176
     1
171
     0
176
     1
290
     0
176
     1
 93
       13
176
     1
 44
0.0
176
     1
173
     0
176
     1
  0
VISUALSTYLE
  5
37
102
{ACAD_REACTORS
330
2A
102
}
330
2A
100
AcDbVisualStyle
  2
Thicken
 70
    13
177
     2
291
     1
 71
     2
176
     1
 72
     2
176
     1
 73
     0
176
     1
 90
        0
176
     1
 40
-0.6
176
     1
 41
-30.0
176
     1
 62
     5
 63
     7
421
 16777215
176
     1
 74
     1
176
     1
 91
        4
176
     1
 64
     7
176
     1
 65
   257
176
     1
 75
     1
176
     1
175
     1
176
     1
 42
1.0
176
     1
 92
       12
176
     1
 66
     7
176
     1
 43
1.0
176
     1
 76
     1
176
     1
 77
     6
176
     1
 78
     2
176
     1
 67
     7
176
     1
 79
     5
176
     1
170
     0
176
     1
171
     0
176
     1
290
     0
176
     1
 93
        1
176
     1
 44
0.0
176
     1
173
     0
176
     1
  0
ENDSEC
  0
EOF
