  0
SECTION
  2
HEADER
  9
$ACADVER
  1
AC1024
  9
$ACADMAINTVER
 70
     6
  9
$DWGCODEPAGE
  3
UNDEFINED
  9
$INSBASE
 10
0.0
 20
0.0
 30
0.0
  9
$EXTMIN
 10
1.000000000000000E+20
 20
1.000000000000000E+20
 30
1.000000000000000E+20
  9
$EXTMAX
 10
-1.000000000000000E+20
 20
-1.000000000000000E+20
 30
-1.000000000000000E+20
  9
$LIMMIN
 10
0.0
 20
0.0
  9
$LIMMAX
 10
12.0
 20
9.0
  9
$ORTHOMODE
 70
     0
  9
$REGENMODE
 70
     1
  9
$FILLMODE
 70
     1
  9
$QTEXTMODE
 70
     0
  9
$MIRRTEXT
 70
     1
  9
$LTSCALE
 40
1.0
  9
$ATTMODE
 70
     1
  9
$TEXTSIZE
 40
0.2
  9
$TRACEWID
 40
0.05
  9
$TEXTSTYLE
  7
Standard
  9
$CLAYER
  8
0
  9
$CELTYPE
  6
ByLayer
  9
$CECOLOR
 62
   256
  9
$CELTSCALE
 40
1.0
  9
$DISPSILH
 70
     0
  9
$DIMSCALE
 40
1.0
  9
$DIMASZ
 40
0.18
  9
$DIMEXO
 40
0.0625
  9
$DIMDLI
 40
0.38
  9
$DIMRND
 40
0.0
  9
$DIMDLE
 40
0.0
  9
$DIMEXE
 40
0.18
  9
$DIMTP
 40
0.0
  9
$DIMTM
 40
0.0
  9
$DIMTXT
 40
0.18
  9
$DIMCEN
 40
0.09
  9
$DIMTSZ
 40
0.0
  9
$DIMTOL
 70
     0
  9
$DIMLIM
 70
     0
  9
$DIMTIH
 70
     1
  9
$DIMTOH
 70
     1
  9
$DIMSE1
 70
     0
  9
$DIMSE2
 70
     0
  9
$DIMTAD
 70
     0
  9
$DIMZIN
 70
     0
  9
$DIMBLK
  1

  9
$DIMASO
 70
     1
  9
$DIMSHO
 70
     1
  9
$DIMPOST
  1

  9
$DIMAPOST
  1

  9
$DIMALT
 70
     0
  9
$DIMALTD
 70
     2
  9
$DIMALTF
 40
25.4
  9
$DIMLFAC
 40
1.0
  9
$DIMTOFL
 70
     0
  9
$DIMTVP
 40
0.0
  9
$DIMTIX
 70
     0
  9
$DIMSOXD
 70
     0
  9
$DIMSAH
 70
     0
  9
$DIMBLK1
  1

  9
$DIMBLK2
  1

  9
$DIMSTYLE
  2
Standard
  9
$DIMCLRD
 70
     0
  9
$DIMCLRE
 70
     0
  9
$DIMCLRT
 70
     0
  9
$DIMTFAC
 40
1.0
  9
$DIMGAP
 40
0.09
  9
$DIMJUST
 70
     0
  9
$DIMSD1
 70
     0
  9
$DIMSD2
 70
     0
  9
$DIMTOLJ
 70
     1
  9
$DIMTZIN
 70
     0
  9
$DIMALTZ
 70
     0
  9
$DIMALTTZ
 70
     0
  9
$DIMUPT
 70
     0
  9
$DIMDEC
 70
     4
  9
$DIMTDEC
 70
     4
  9
$DIMALTU
 70
     2
  9
$DIMALTTD
 70
     2
  9
$DIMTXSTY
  7
Standard
  9
$DIMAUNIT
 70
     0
  9
$DIMADEC
 70
     0
  9
$DIMALTRND
 40
0.0
  9
$DIMAZIN
 70
     0
  9
$DIMDSEP
 70
    46
  9
$DIMATFIT
 70
     3
  9
$DIMFRAC
 70
     0
  9
$DIMLDRBLK
  1

  9
$DIMLUNIT
 70
     2
  9
$DIMLWD
 70
    -2
  9
$DIMLWE
 70
    -2
  9
$DIMTMOVE
 70
     0
  9
$DIMFXL
 40
1.0
  9
$DIMFXLON
 70
     0
  9
$DIMJOGANG
 40
0.7853981633974483
  9
$DIMTFILL
 70
     0
  9
$DIMTFILLCLR
 70
     0
  9
$DIMARCSYM
 70
     0
  9
$DIMLTYPE
  6

  9
$DIMLTEX1
  6

  9
$DIMLTEX2
  6

  9
$DIMTXTDIRECTION
 70
     0
  9
$LUNITS
 70
     2
  9
$LUPREC
 70
     4
  9
$SKETCHINC
 40
0.1
  9
$FILLETRAD
 40
0.5
  9
$AUNITS
 70
     0
  9
$AUPREC
 70
     0
  9
$MENU
  1
.
  9
$ELEVATION
 40
0.0
  9
$PELEVATION
 40
0.0
  9
$THICKNESS
 40
0.0
  9
$LIMCHECK
 70
     0
  9
$CHAMFERA
 40
0.5
  9
$CHAMFERB
 40
0.5
  9
$CHAMFERC
 40
1.0
  9
$CHAMFERD
 40
0.0
  9
$SKPOLY
 70
     0
  9
$TDCREATE
 40
2457917.585497685
  9
$TDUCREATE
 40
2457917.210497685
  9
$TDUPDATE
 40
2457917.585497685
  9
$TDUUPDATE
 40
2457917.210497685
  9
$TDINDWG
 40
0.0000000116
  9
$TDUSRTIMER
 40
0.0000000116
  9
$USRTIMER
 70
     1
  9
$ANGBASE
 50
0.0
  9
$ANGDIR
 70
     0
  9
$PDMODE
 70
     0
  9
$PDSIZE
 40
0.0
  9
$PLINEWID
 40
0.0
  9
$SPLFRAME
 70
     0
  9
$SPLINETYPE
 70
     6
  9
$SPLINESEGS
 70
     8
  9
$HANDSEED
  5
126
  9
$SURFTAB1
 70
     6
  9
$SURFTAB2
 70
     6
  9
$SURFTYPE
 70
     6
  9
$SURFU
 70
     6
  9
$SURFV
 70
     6
  9
$UCSBASE
  2

  9
$UCSNAME
  2

  9
$UCSORG
 10
0.0
 20
0.0
 30
0.0
  9
$UCSXDIR
 10
1.0
 20
0.0
 30
0.0
  9
$UCSYDIR
 10
0.0
 20
1.0
 30
0.0
  9
$UCSORTHOREF
  2

  9
$UCSORTHOVIEW
 70
     0
  9
$UCSORGTOP
 10
0.0
 20
0.0
 30
0.0
  9
$UCSORGBOTTOM
 10
0.0
 20
0.0
 30
0.0
  9
$UCSORGLEFT
 10
0.0
 20
0.0
 30
0.0
  9
$UCSORGRIGHT
 10
0.0
 20
0.0
 30
0.0
  9
$UCSORGFRONT
 10
0.0
 20
0.0
 30
0.0
  9
$UCSORGBACK
 10
0.0
 20
0.0
 30
0.0
  9
$PUCSBASE
  2

  9
$PUCSNAME
  2

  9
$PUCSORG
 10
0.0
 20
0.0
 30
0.0
  9
$PUCSXDIR
 10
1.0
 20
0.0
 30
0.0
  9
$PUCSYDIR
 10
0.0
 20
1.0
 30
0.0
  9
$PUCSORTHOREF
  2

  9
$PUCSORTHOVIEW
 70
     0
  9
$PUCSORGTOP
 10
0.0
 20
0.0
 30
0.0
  9
$PUCSORGBOTTOM
 10
0.0
 20
0.0
 30
0.0
  9
$PUCSORGLEFT
 10
0.0
 20
0.0
 30
0.0
  9
$PUCSORGRIGHT
 10
0.0
 20
0.0
 30
0.0
  9
$PUCSORGFRONT
 10
0.0
 20
0.0
 30
0.0
  9
$PUCSORGBACK
 10
0.0
 20
0.0
 30
0.0
  9
$USERI1
 70
     0
  9
$USERI2
 70
     0
  9
$USERI3
 70
     0
  9
$USERI4
 70
     0
  9
$USERI5
 70
     0
  9
$USERR1
 40
0.0
  9
$USERR2
 40
0.0
  9
$USERR3
 40
0.0
  9
$USERR4
 40
0.0
  9
$USERR5
 40
0.0
  9
$WORLDVIEW
 70
     1
  9
$SHADEDGE
 70
     3
  9
$SHADEDIF
 70
    70
  9
$TILEMODE
 70
     1
  9
$MAXACTVP
 70
    64
  9
$PINSBASE
 10
0.0
 20
0.0
 30
0.0
  9
$PLIMCHECK
 70
     0
  9
$PEXTMIN
 10
1.000000000000000E+20
 20
1.000000000000000E+20
 30
1.000000000000000E+20
  9
$PEXTMAX
 10
-1.000000000000000E+20
 20
-1.000000000000000E+20
 30
-1.000000000000000E+20
  9
$PLIMMIN
 10
0.0
 20
0.0
  9
$PLIMMAX
 10
12.0
 20
9.0
  9
$UNITMODE
 70
     0
  9
$VISRETAIN
 70
     1
  9
$PLINEGEN
 70
     0
  9
$PSLTSCALE
 70
     1
  9
$TREEDEPTH
 70
  3020
  9
$CMLSTYLE
  2
Standard
  9
$CMLJUST
 70
     0
  9
$CMLSCALE
 40
1.0
  9
$PROXYGRAPHICS
 70
     1
  9
$MEASUREMENT
 70
     0
  9
$CELWEIGHT
370
    -1
  9
$ENDCAPS
280
     0
  9
$JOINSTYLE
280
     0
  9
$LWDISPLAY
290
     1
  9
$INSUNITS
 70
     1
  9
$HYPERLINKBASE
  1

  9
$STYLESHEET
  1

  9
$XEDIT
290
     1
  9
$CEPSNTYPE
380
     0
  9
$PSTYLEMODE
290
     1
  9
$FINGERPRINTGUID
  2
{B7036D67-E860-672D-6368-38392119B92B}
  9
$VERSIONGUID
  2
{FAEB1C32-E019-11D5-929B-00C0DF256EC4}
  9
$EXTNAMES
290
     1
  9
$PSVPSCALE
 40
0.0
  9
$OLESTARTUP
290
     0
  9
$SORTENTS
280
   127
  9
$INDEXCTL
280
     0
  9
$HIDETEXT
280
     1
  9
$XCLIPFRAME
280
     2
  9
$HALOGAP
280
     0
  9
$OBSCOLOR
 70
   257
  9
$OBSLTYPE
280
     0
  9
$INTERSECTIONDISPLAY
280
     0
  9
$INTERSECTIONCOLOR
 70
   257
  9
$DIMASSOC
280
     2
  9
$PROJECTNAME
  1

  9
$CAMERADISPLAY
290
     0
  9
$LENSLENGTH
 40
50.0
  9
$CAMERAHEIGHT
 40
0.0
  9
$STEPSPERSEC
 40
2.0
  9
$STEPSIZE
 40
6.0
  9
$3DDWFPREC
 40
2.0
  9
$PSOLWIDTH
 40
0.25
  9
$PSOLHEIGHT
 40
4.0
  9
$LOFTANG1
 40
1.570796326794897
  9
$LOFTANG2
 40
1.570796326794897
  9
$LOFTMAG1
 40
0.0
  9
$LOFTMAG2
 40
0.0
  9
$LOFTPARAM
 70
     7
  9
$LOFTNORMALS
280
     1
  9
$LATITUDE
 40
37.795
  9
$LONGITUDE
 40
-122.394
  9
$NORTHDIRECTION
 40
0.0
  9
$TIMEZONE
 70
 -8000
  9
$LIGHTGLYPHDISPLAY
280
     1
  9
$TILEMODELIGHTSYNCH
280
     1
  9
$CMATERIAL
347
3C
  9
$SOLIDHIST
280
     1
  9
$SHOWHIST
280
     1
  9
$DWFFRAME
280
     2
  9
$DGNFRAME
280
     2
  9
$REALWORLDSCALE
290
     1
  9
$INTERFERECOLOR
 62
   256
  9
$CSHADOW
280
     0
  9
$SHADOWPLANELOCATION
 40
0.0
  0
ENDSEC
  0
SECTION
  2
CLASSES
  0
CLASS
  1
ACDBDICTIONARYWDFLT
  2
AcDbDictionaryWithDefault
  3
ObjectDBX Classes
 90
        0
 91
        4
280
     0
281
     0
  0
CLASS
  1
VISUALSTYLE
  2
AcDbVisualStyle
  3
ObjectDBX Classes
 90
     4095
 91
        4
280
     0
281
     0
  0
CLASS
  1
MATERIAL
  2
AcDbMaterial
  3
ObjectDBX Classes
 90
     1153
 91
        4
280
     0
281
     0
  0
CLASS
  1
SUN
  2
AcDbSun
  3
SCENEOE
 90
     1024
 91
        4
280
     0
281
     0
  0
ENDSEC
  0
SECTION
  2
TABLES
  0
TABLE
  2
VPORT
  5
8
330
0
100
AcDbSymbolTable
 70
     1
  0
VPORT
  5
29
330
8
100
AcDbSymbolTableRecord
100
AcDbViewportTableRecord
  2
*Active
 70
     0
 10
0.0
 20
0.0
 11
1.0
 21
1.0
 12
0.0
 22
0.0
 13
0.0
 23
0.0
 14
0.5
 24
0.5
 15
0.5
 25
0.5
 16
0.0
 26
0.0
 36
1.0
 17
91.00082462281999
 27
-128.4993055234307
 37
0.0
 40
256.9986110468615
 41
0.7081814508812795
 42
50.0
 43
0.0
 44
0.0
 50
0.0
 51
0.0
 71
     0
 72
   100
 73
     1
 74
     3
 75
     0
 76
     0
 77
     0
 78
     0
281
     0
 65
     1
110
0.0
120
0.0
130
0.0
111
1.0
121
0.0
131
0.0
112
0.0
122
1.0
132
0.0
 79
     0
146
0.0
 60
     3
 61
     5
292
     1
282
     1
141
0.0
142
0.0
 63
   250
361
3F
  0
ENDTAB
  0
TABLE
  2
LTYPE
  5
5
330
0
100
AcDbSymbolTable
 70
     2
  0
LTYPE
  5
14
330
5
100
AcDbSymbolTableRecord
100
AcDbLinetypeTableRecord
  2
ByBlock
 70
     0
  3

 72
    65
 73
     0
 40
0.0
  0
LTYPE
  5
15
330
5
100
AcDbSymbolTableRecord
100
AcDbLinetypeTableRecord
  2
ByLayer
 70
     0
  3

 72
    65
 73
     0
 40
0.0
  0
LTYPE
  5
16
330
5
100
AcDbSymbolTableRecord
100
AcDbLinetypeTableRecord
  2
Continuous
 70
     0
  3
Solid line
 72
    65
 73
     0
 40
0.0
  0
LTYPE
  5
ED
330
5
100
AcDbSymbolTableRecord
100
AcDbLinetypeTableRecord
  2
AI-Linetype-1
 70
     0
  3
Adobe Illustrator Linetype No. 1
 72
    65
 73
     2
 40
1.411111110758333
 49
0.7055555553791667
 74
     0
 49
-0.7055555553791667
 74
     0
  0
ENDTAB
  0
TABLE
  2
LAYER
  5
2
330
0
100
AcDbSymbolTable
 70
     2
  0
LAYER
  5
10
330
2
100
AcDbSymbolTableRecord
100
AcDbLayerTableRecord
  2
0
 70
     0
 62
     7
  6
Continuous
370
    -3
390
F
347
3E
  0
LAYER
  5
40
330
2
100
AcDbSymbolTableRecord
100
AcDbLayerTableRecord
  2
_U+30EC_U+30A4_U+30E4_U+30FC 1
 70
     0
 62
     7
  6
Continuous
370
    -3
390
F
347
3E
  0
ENDTAB
  0
TABLE
  2
STYLE
  5
3
330
0
100
AcDbSymbolTable
 70
     1
  0
STYLE
  5
11
330
3
100
AcDbSymbolTableRecord
100
AcDbTextStyleTableRecord
  2
Standard
 70
     0
 40
0.0
 41
1.0
 50
0.0
 71
     0
 42
0.2
  3
txt
  4

  0
ENDTAB
  0
TABLE
  2
VIEW
  5
6
330
0
100
AcDbSymbolTable
 70
     0
  0
ENDTAB
  0
TABLE
  2
UCS
  5
7
330
0
100
AcDbSymbolTable
 70
     0
  0
ENDTAB
  0
TABLE
  2
APPID
  5
9
330
0
100
AcDbSymbolTable
 70
     1
  0
APPID
  5
12
330
9
100
AcDbSymbolTableRecord
100
AcDbRegAppTableRecord
  2
ACAD
 70
     0
  0
ENDTAB
  0
TABLE
  2
DIMSTYLE
  5
A
330
0
100
AcDbSymbolTable
 70
     1
100
AcDbDimStyleTable
  0
DIMSTYLE
105
27
330
A
100
AcDbSymbolTableRecord
100
AcDbDimStyleTableRecord
  2
Standard
 70
     0
178
     0
340
11
  0
ENDTAB
  0
TABLE
  2
BLOCK_RECORD
  5
1
330
0
100
AcDbSymbolTable
 70
    16
  0
BLOCK_RECORD
  5
1F
330
1
100
AcDbSymbolTableRecord
100
AcDbBlockTableRecord
  2
*Model_Space
340
22
 70
     0
280
     1
281
     0
  0
BLOCK_RECORD
  5
1B
330
1
100
AcDbSymbolTableRecord
100
AcDbBlockTableRecord
  2
*Paper_Space
340
1E
 70
     0
280
     1
281
     0
  0
BLOCK_RECORD
  5
23
330
1
100
AcDbSymbolTableRecord
100
AcDbBlockTableRecord
  2
*Paper_Space0
340
26
 70
     0
280
     1
281
     0
  0
BLOCK_RECORD
  5
41
330
1
100
AcDbSymbolTableRecord
100
AcDbBlockTableRecord
  2
block 2
340
0
102
{BLKREFS
331
42
102
}
 70
     0
280
     1
281
     0
  0
BLOCK_RECORD
  5
54
330
1
100
AcDbSymbolTableRecord
100
AcDbBlockTableRecord
  2
block 3
340
0
102
{BLKREFS
331
55
102
}
 70
     0
280
     1
281
     0
  0
BLOCK_RECORD
  5
5A
330
1
100
AcDbSymbolTableRecord
100
AcDbBlockTableRecord
  2
block 4
340
0
102
{BLKREFS
331
5B
102
}
 70
     0
280
     1
281
     0
  0
BLOCK_RECORD
  5
60
330
1
100
AcDbSymbolTableRecord
100
AcDbBlockTableRecord
  2
block 5
340
0
102
{BLKREFS
331
61
102
}
 70
     0
280
     1
281
     0
  0
BLOCK_RECORD
  5
66
330
1
100
AcDbSymbolTableRecord
100
AcDbBlockTableRecord
  2
block 6
340
0
102
{BLKREFS
331
67
102
}
 70
     0
280
     1
281
     0
  0
BLOCK_RECORD
  5
6C
330
1
100
AcDbSymbolTableRecord
100
AcDbBlockTableRecord
  2
block 7
340
0
102
{BLKREFS
331
6D
102
}
 70
     0
280
     1
281
     0
  0
BLOCK_RECORD
  5
72
330
1
100
AcDbSymbolTableRecord
100
AcDbBlockTableRecord
  2
block 8
340
0
102
{BLKREFS
331
73
102
}
 70
     0
280
     1
281
     0
  0
BLOCK_RECORD
  5
78
330
1
100
AcDbSymbolTableRecord
100
AcDbBlockTableRecord
  2
block 9
340
0
102
{BLKREFS
331
79
102
}
 70
     0
280
     1
281
     0
  0
BLOCK_RECORD
  5
7E
330
1
100
AcDbSymbolTableRecord
100
AcDbBlockTableRecord
  2
block 10
340
0
102
{BLKREFS
331
7F
102
}
 70
     0
280
     1
281
     0
  0
BLOCK_RECORD
  5
84
330
1
100
AcDbSymbolTableRecord
100
AcDbBlockTableRecord
  2
block 11
340
0
102
{BLKREFS
331
85
102
}
 70
     0
280
     1
281
     0
  0
BLOCK_RECORD
  5
8A
330
1
100
AcDbSymbolTableRecord
100
AcDbBlockTableRecord
  2
block 12
340
0
102
{BLKREFS
331
8B
102
}
 70
     0
280
     1
281
     0
  0
BLOCK_RECORD
  5
90
330
1
100
AcDbSymbolTableRecord
100
AcDbBlockTableRecord
  2
block 13
340
0
102
{BLKREFS
331
91
102
}
 70
     0
280
     1
281
     0
  0
BLOCK_RECORD
  5
CE
330
1
100
AcDbSymbolTableRecord
100
AcDbBlockTableRecord
  2
block 14
340
0
102
{BLKREFS
331
CF
102
}
 70
     0
280
     1
281
     0
  0
BLOCK_RECORD
  5
E2
330
1
100
AcDbSymbolTableRecord
100
AcDbBlockTableRecord
  2
block 15
340
0
102
{BLKREFS
331
E3
102
}
 70
     0
280
     1
281
     0
  0
BLOCK_RECORD
  5
FB
330
1
100
AcDbSymbolTableRecord
100
AcDbBlockTableRecord
  2
block 16
340
0
102
{BLKREFS
331
FC
102
}
 70
     0
280
     1
281
     0
  0
ENDTAB
  0
ENDSEC
  0
SECTION
  2
BLOCKS
  0
BLOCK
  5
20
330
1F
100
AcDbEntity
  8
0
100
AcDbBlockBegin
  2
*Model_Space
 70
     0
 10
0.0
 20
0.0
 30
0.0
  3
*Model_Space
  1

  0
ENDBLK
  5
21
330
1F
100
AcDbEntity
  8
0
100
AcDbBlockEnd
  0
BLOCK
  5
1C
330
1B
100
AcDbEntity
 67
     1
  8
0
100
AcDbBlockBegin
  2
*Paper_Space
 70
     0
 10
0.0
 20
0.0
 30
0.0
  3
*Paper_Space
  1

  0
ENDBLK
  5
1D
330
1B
100
AcDbEntity
 67
     1
  8
0
100
AcDbBlockEnd
  0
BLOCK
  5
24
330
23
100
AcDbEntity
  8
0
100
AcDbBlockBegin
  2
*Paper_Space0
 70
     0
 10
0.0
 20
0.0
 30
0.0
  3
*Paper_Space0
  1

  0
ENDBLK
  5
25
330
23
100
AcDbEntity
  8
0
100
AcDbBlockEnd
  0
BLOCK
  5
43
330
41
100
AcDbEntity
  8
0
100
AcDbBlockBegin
  2
block 2
 70
     0
 10
0.0
 20
0.0
 30
0.0
  3
block 2
  1

  0
POLYLINE
  5
45
330
41
100
AcDbEntity
  8
_U+30EC_U+30A4_U+30E4_U+30FC 1
 62
     7
420
 16777215
370
     9
100
AcDb2dPolyline
 66
     1
 10
0.0
 20
0.0
 30
0.0
  0
VERTEX
  5
46
330
45
100
AcDbEntity
  8
_U+30EC_U+30A4_U+30E4_U+30FC 1
 62
     7
420
 16777215
370
     9
100
AcDbVertex
100
AcDb2dVertex
 10
119.2519739020731
 20
-130.7096699673228
 30
0.0
  0
VERTEX
  5
123
330
45
100
AcDbEntity
  8
0
100
AcDbVertex
100
AcDb2dVertex
 10
119.2519739020731
 20
-130.7096699673228
 30
0.0
  0
SEQEND
  5
47
330
45
100
AcDbEntity
  8
_U+30EC_U+30A4_U+30E4_U+30FC 1
 62
     7
420
 16777215
370
     9
  0
POLYLINE
  5
48
330
41
100
AcDbEntity
  8
_U+30EC_U+30A4_U+30E4_U+30FC 1
 62
     7
420
 16777215
370
     9
100
AcDb2dPolyline
 66
     1
 10
0.0
 20
0.0
 30
0.0
  0
VERTEX
  5
49
330
48
100
AcDbEntity
  8
_U+30EC_U+30A4_U+30E4_U+30FC 1
 62
     7
420
 16777215
370
     9
100
AcDbVertex
100
AcDb2dVertex
 10
118.9656947427101
 20
-130.9198196894924
 30
0.0
  0
VERTEX
  5
4A
330
48
100
AcDbEntity
  8
_U+30EC_U+30A4_U+30E4_U+30FC 1
 62
     7
420
 16777215
370
     9
100
AcDbVertex
100
AcDb2dVertex
 10
109.98330247187
 20
-134.7149324663212
 30
0.0
  0
VERTEX
  5
4B
330
48
100
AcDbEntity
  8
_U+30EC_U+30A4_U+30E4_U+30FC 1
 62
     7
420
 16777215
370
     9
100
AcDbVertex
100
AcDb2dVertex
 10
109.9757177498413
 20
-134.4748319108258
 30
0.0
  0
VERTEX
  5
4C
330
48
100
AcDbEntity
  8
_U+30EC_U+30A4_U+30E4_U+30FC 1
 62
     7
420
 16777215
370
     9
100
AcDbVertex
100
AcDb2dVertex
 10
118.97292668697
 20
-130.7096699673228
 30
0.0
  0
SEQEND
  5
4D
330
48
100
AcDbEntity
  8
_U+30EC_U+30A4_U+30E4_U+30FC 1
 62
     7
420
 16777215
370
     9
  0
POLYLINE
  5
4E
330
41
100
AcDbEntity
  8
_U+30EC_U+30A4_U+30E4_U+30FC 1
 62
     7
420
 16777215
370
     9
100
AcDb2dPolyline
 66
     1
 10
0.0
 20
0.0
 30
0.0
  0
VERTEX
  5
4F
330
4E
100
AcDbEntity
  8
_U+30EC_U+30A4_U+30E4_U+30FC 1
 62
     7
420
 16777215
370
     9
100
AcDbVertex
100
AcDb2dVertex
 10
113.650956544967
 20
-125.4848546908511
 30
0.0
  0
VERTEX
  5
50
330
4E
100
AcDbEntity
  8
_U+30EC_U+30A4_U+30E4_U+30FC 1
 62
     7
420
 16777215
370
     9
100
AcDbVertex
100
AcDb2dVertex
 10
104.1886453974818
 20
-129.4539574676363
 30
0.0
  0
VERTEX
  5
51
330
4E
100
AcDbEntity
  8
_U+30EC_U+30A4_U+30E4_U+30FC 1
 62
     7
420
 16777215
370
     9
100
AcDbVertex
100
AcDb2dVertex
 10
104.1796848421548
 20
-132.002635800333
 30
0.0
  0
VERTEX
  5
52
330
4E
100
AcDbEntity
  8
_U+30EC_U+30A4_U+30E4_U+30FC 1
 62
     7
420
 16777215
370
     9
100
AcDbVertex
100
AcDb2dVertex
 10
113.9930451473507
 20
-127.8664574680335
 30
0.0
  0
SEQEND
  5
53
330
4E
100
AcDbEntity
  8
_U+30EC_U+30A4_U+30E4_U+30FC 1
 62
     7
420
 16777215
370
     9
  0
INSERT
  5
55
330
41
100
AcDbEntity
  8
_U+30EC_U+30A4_U+30E4_U+30FC 1
100
AcDbBlockReference
  2
block 3
 10
0.0
 20
0.0
 30
0.0
  0
INSERT
  5
5B
330
41
100
AcDbEntity
  8
_U+30EC_U+30A4_U+30E4_U+30FC 1
100
AcDbBlockReference
  2
block 4
 10
0.0
 20
0.0
 30
0.0
  0
INSERT
  5
61
330
41
100
AcDbEntity
  8
_U+30EC_U+30A4_U+30E4_U+30FC 1
100
AcDbBlockReference
  2
block 5
 10
0.0
 20
0.0
 30
0.0
  0
INSERT
  5
67
330
41
100
AcDbEntity
  8
_U+30EC_U+30A4_U+30E4_U+30FC 1
100
AcDbBlockReference
  2
block 6
 10
0.0
 20
0.0
 30
0.0
  0
INSERT
  5
6D
330
41
100
AcDbEntity
  8
_U+30EC_U+30A4_U+30E4_U+30FC 1
100
AcDbBlockReference
  2
block 7
 10
0.0
 20
0.0
 30
0.0
  0
INSERT
  5
73
330
41
100
AcDbEntity
  8
_U+30EC_U+30A4_U+30E4_U+30FC 1
100
AcDbBlockReference
  2
block 8
 10
0.0
 20
0.0
 30
0.0
  0
INSERT
  5
79
330
41
100
AcDbEntity
  8
_U+30EC_U+30A4_U+30E4_U+30FC 1
100
AcDbBlockReference
  2
block 9
 10
0.0
 20
0.0
 30
0.0
  0
INSERT
  5
7F
330
41
100
AcDbEntity
  8
_U+30EC_U+30A4_U+30E4_U+30FC 1
100
AcDbBlockReference
  2
block 10
 10
0.0
 20
0.0
 30
0.0
  0
INSERT
  5
85
330
41
100
AcDbEntity
  8
_U+30EC_U+30A4_U+30E4_U+30FC 1
100
AcDbBlockReference
  2
block 11
 10
0.0
 20
0.0
 30
0.0
  0
INSERT
  5
8B
330
41
100
AcDbEntity
  8
_U+30EC_U+30A4_U+30E4_U+30FC 1
100
AcDbBlockReference
  2
block 12
 10
0.0
 20
0.0
 30
0.0
  0
INSERT
  5
91
330
41
100
AcDbEntity
  8
_U+30EC_U+30A4_U+30E4_U+30FC 1
100
AcDbBlockReference
  2
block 13
 10
0.0
 20
0.0
 30
0.0
  0
POLYLINE
  5
96
330
41
100
AcDbEntity
  8
_U+30EC_U+30A4_U+30E4_U+30FC 1
 62
     7
420
 16777215
370
     9
100
AcDb2dPolyline
 66
     1
 10
0.0
 20
0.0
 30
0.0
  0
VERTEX
  5
97
330
96
100
AcDbEntity
  8
_U+30EC_U+30A4_U+30E4_U+30FC 1
 62
     7
420
 16777215
370
     9
100
AcDbVertex
100
AcDb2dVertex
 10
118.9656947427101
 20
-130.9198196894924
 30
0.0
  0
VERTEX
  5
98
330
96
100
AcDbEntity
  8
_U+30EC_U+30A4_U+30E4_U+30FC 1
 62
     7
420
 16777215
370
     9
100
AcDbVertex
100
AcDb2dVertex
 10
118.97292668697
 20
-130.7096699673228
 30
0.0
  0
SEQEND
  5
99
330
96
100
AcDbEntity
  8
_U+30EC_U+30A4_U+30E4_U+30FC 1
 62
     7
420
 16777215
370
     9
  0
POLYLINE
  5
9A
330
41
100
AcDbEntity
  8
_U+30EC_U+30A4_U+30E4_U+30FC 1
 62
     7
420
 16777215
370
     9
100
AcDb2dPolyline
 66
     1
 10
0.0
 20
0.0
 30
0.0
  0
VERTEX
  5
9B
330
9A
100
AcDbEntity
  8
_U+30EC_U+30A4_U+30E4_U+30FC 1
 62
     7
420
 16777215
370
     9
100
AcDbVertex
100
AcDb2dVertex
 10
109.9757177498413
 20
-134.4748319108258
 30
0.0
  0
VERTEX
  5
9C
330
9A
100
AcDbEntity
  8
_U+30EC_U+30A4_U+30E4_U+30FC 1
 62
     7
420
 16777215
370
     9
100
AcDbVertex
100
AcDb2dVertex
 10
104.1796848421548
 20
-132.002635800333
 30
0.0
  0
VERTEX
  5
9D
330
9A
100
AcDbEntity
  8
_U+30EC_U+30A4_U+30E4_U+30FC 1
 62
     7
420
 16777215
370
     9
100
AcDbVertex
100
AcDb2dVertex
 10
103.8524129060598
 20
-132.5207605224255
 30
0.0
  0
VERTEX
  5
9E
330
9A
100
AcDbEntity
  8
_U+30EC_U+30A4_U+30E4_U+30FC 1
 62
     7
420
 16777215
370
     9
100
AcDbVertex
100
AcDb2dVertex
 10
109.98330247187
 20
-134.7149324663212
 30
0.0
  0
SEQEND
  5
9F
330
9A
100
AcDbEntity
  8
_U+30EC_U+30A4_U+30E4_U+30FC 1
 62
     7
420
 16777215
370
     9
  0
POLYLINE
  5
A0
330
41
100
AcDbEntity
  8
_U+30EC_U+30A4_U+30E4_U+30FC 1
 62
     7
420
 16777215
370
     9
100
AcDb2dPolyline
 66
     1
 10
0.0
 20
0.0
 30
0.0
  0
VERTEX
  5
A1
330
A0
100
AcDbEntity
  8
_U+30EC_U+30A4_U+30E4_U+30FC 1
 62
     7
420
 16777215
370
     9
100
AcDbVertex
100
AcDb2dVertex
 10
104.1886453974818
 20
-129.4539574676363
 30
0.0
  0
VERTEX
  5
A2
330
A0
100
AcDbEntity
  8
_U+30EC_U+30A4_U+30E4_U+30FC 1
 62
     7
420
 16777215
370
     9
100
AcDbVertex
100
AcDb2dVertex
 10
104.0418898456703
 20
-129.5421519120587
 30
0.0
  0
VERTEX
  5
A3
330
A0
100
AcDbEntity
  8
_U+30EC_U+30A4_U+30E4_U+30FC 1
 62
     7
420
 16777215
370
     9
100
AcDbVertex
100
AcDb2dVertex
 10
103.8524129060598
 20
-132.5207605224255
 30
0.0
  0
SEQEND
  5
A4
330
A0
100
AcDbEntity
  8
_U+30EC_U+30A4_U+30E4_U+30FC 1
 62
     7
420
 16777215
370
     9
  0
ENDBLK
  5
44
330
41
100
AcDbEntity
  8
0
100
AcDbBlockEnd
  0
BLOCK
  5
56
330
54
100
AcDbEntity
  8
0
100
AcDbBlockBegin
  2
block 3
 70
     0
 10
0.0
 20
0.0
 30
0.0
  3
block 3
  1

  0
SPLINE
  5
58
330
54
100
AcDbEntity
  8
_U+30EC_U+30A4_U+30E4_U+30FC 1
 62
     7
420
 16777215
370
     9
100
AcDbSpline
210
0.0
220
0.0
230
1.0
 70
    11
 71
     3
 72
    17
 73
    13
 74
     0
 42
0.0000000001
 43
0.0000000001
 12
1.0
 22
0.0
 32
0.0
 13
1.0
 23
0.0
 33
0.0
 40
0.0
 40
0.0
 40
0.0
 40
0.0
 40
1.0
 40
1.0
 40
1.0
 40
2.0
 40
2.0
 40
2.0
 40
3.0
 40
3.0
 40
3.0
 40
4.0
 40
4.0
 40
4.0
 40
4.0
 10
108.1215530749227
 20
-132.338162744693
 30
0.0
 10
108.1215530749227
 20
-132.5455608001968
 30
0.0
 10
107.8307936378962
 20
-132.7143649668217
 30
0.0
 10
107.4725125359256
 20
-132.7143649668217
 30
0.0
 10
107.1128583065553
 20
-132.7143649668217
 30
0.0
 10
106.8227664413909
 20
-132.5455608001968
 30
0.0
 10
106.8227664413909
 20
-132.338162744693
 30
0.0
 10
106.8227664413909
 20
-132.1293888558569
 30
0.0
 10
107.1128583065553
 20
-131.960584689232
 30
0.0
 10
107.4725125359256
 20
-131.960584689232
 30
0.0
 10
107.8307936378962
 20
-131.960584689232
 30
0.0
 10
108.1215530749227
 20
-132.1293888558569
 30
0.0
 10
108.1215530749227
 20
-132.338162744693
 30
0.0
  0
SPLINE
  5
59
330
54
100
AcDbEntity
  8
_U+30EC_U+30A4_U+30E4_U+30FC 1
 62
     7
420
 16777215
370
     9
100
AcDbSpline
210
0.0
220
0.0
230
1.0
 70
     8
 71
     3
 72
    11
 73
     7
 74
     0
 42
0.0000000001
 43
0.0000000001
 12
1.0
 22
0.0
 32
0.0
 13
1.0
 23
0.0
 33
0.0
 40
0.0
 40
0.0
 40
0.0
 40
0.0
 40
1.0
 40
1.0
 40
1.0
 40
2.0
 40
2.0
 40
2.0
 40
2.0
 10
106.9350583065994
 20
-132.544184966864
 30
0.0
 10
106.9350583065994
 20
-132.544184966864
 30
0.0
 10
106.9164642167782
 20
-132.0928763558656
 30
0.0
 10
107.6502772536126
 20
-132.1300944114117
 30
0.0
 10
107.6502772536126
 20
-132.1300944114117
 30
0.0
 10
108.0843702980935
 20
-132.1865741336202
 30
0.0
 10
108.0085610841087
 20
-132.5255935779796
 30
0.0
  0
ENDBLK
  5
57
330
54
100
AcDbEntity
  8
0
100
AcDbBlockEnd
  0
BLOCK
  5
5C
330
5A
100
AcDbEntity
  8
0
100
AcDbBlockBegin
  2
block 4
 70
     0
 10
0.0
 20
0.0
 30
0.0
  3
block 4
  1

  0
SPLINE
  5
5E
330
5A
100
AcDbEntity
  8
_U+30EC_U+30A4_U+30E4_U+30FC 1
 62
     7
420
 16777215
370
     9
100
AcDbSpline
210
0.0
220
0.0
230
1.0
 70
    11
 71
     3
 72
    17
 73
    13
 74
     0
 42
0.0000000001
 43
0.0000000001
 12
1.0
 22
0.0
 32
0.0
 13
1.0
 23
0.0
 33
0.0
 40
0.0
 40
0.0
 40
0.0
 40
0.0
 40
1.0
 40
1.0
 40
1.0
 40
2.0
 40
2.0
 40
2.0
 40
3.0
 40
3.0
 40
3.0
 40
4.0
 40
4.0
 40
4.0
 40
4.0
 10
113.0721540597335
 20
-132.338162744693
 30
0.0
 10
113.0721540597335
 20
-132.5455608001968
 30
0.0
 10
112.7813946227069
 20
-132.7143649668217
 30
0.0
 10
112.4224079651988
 20
-132.7143649668217
 30
0.0
 10
112.0644796409969
 20
-132.7143649668217
 30
0.0
 10
111.7730146484328
 20
-132.5455608001968
 30
0.0
 10
111.7730146484328
 20
-132.338162744693
 30
0.0
 10
111.7730146484328
 20
-132.1293888558569
 30
0.0
 10
112.0644796409969
 20
-131.960584689232
 30
0.0
 10
112.4224079651988
 20
-131.960584689232
 30
0.0
 10
112.7813946227069
 20
-131.960584689232
 30
0.0
 10
113.0721540597335
 20
-132.1293888558569
 30
0.0
 10
113.0721540597335
 20
-132.338162744693
 30
0.0
  0
SPLINE
  5
5F
330
5A
100
AcDbEntity
  8
_U+30EC_U+30A4_U+30E4_U+30FC 1
 62
     7
420
 16777215
370
     9
100
AcDbSpline
210
0.0
220
0.0
230
1.0
 70
     8
 71
     3
 72
    11
 73
     7
 74
     0
 42
0.0000000001
 43
0.0000000001
 12
1.0
 22
0.0
 32
0.0
 13
1.0
 23
0.0
 33
0.0
 40
0.0
 40
0.0
 40
0.0
 40
0.0
 40
1.0
 40
1.0
 40
1.0
 40
2.0
 40
2.0
 40
2.0
 40
2.0
 10
111.8860093677723
 20
-132.544184966864
 30
0.0
 10
111.8860093677723
 20
-132.544184966864
 30
0.0
 10
111.8674179793577
 20
-132.0928763558656
 30
0.0
 10
112.6008782384234
 20
-132.1300944114117
 30
0.0
 10
112.6008782384234
 20
-132.1300944114117
 30
0.0
 10
113.0349712829043
 20
-132.1865741336202
 30
0.0
 10
112.959159340394
 20
-132.5255935779796
 30
0.0
  0
ENDBLK
  5
5D
330
5A
100
AcDbEntity
  8
0
100
AcDbBlockEnd
  0
BLOCK
  5
62
330
60
100
AcDbEntity
  8
0
100
AcDbBlockBegin
  2
block 5
 70
     0
 10
0.0
 20
0.0
 30
0.0
  3
block 5
  1

  0
SPLINE
  5
64
330
60
100
AcDbEntity
  8
_U+30EC_U+30A4_U+30E4_U+30FC 1
 62
     7
420
 16777215
370
     9
100
AcDbSpline
210
0.0
220
0.0
230
1.0
 70
    11
 71
     3
 72
    17
 73
    13
 74
     0
 42
0.0000000001
 43
0.0000000001
 12
1.0
 22
0.0
 32
0.0
 13
1.0
 23
0.0
 33
0.0
 40
0.0
 40
0.0
 40
0.0
 40
0.0
 40
1.0
 40
1.0
 40
1.0
 40
2.0
 40
2.0
 40
2.0
 40
3.0
 40
3.0
 40
3.0
 40
4.0
 40
4.0
 40
4.0
 40
4.0
 10
110.4490777501658
 20
-133.4977785777369
 30
0.0
 10
110.4490777501658
 20
-133.7058821887956
 30
0.0
 10
110.1583155229606
 20
-133.8740160776425
 30
0.0
 10
109.7993288654524
 20
-133.8740160776425
 30
0.0
 10
109.4403422079443
 20
-133.8740160776425
 30
0.0
 10
109.1495827709177
 20
-133.7058821887956
 30
0.0
 10
109.1495827709177
 20
-133.4977785777369
 30
0.0
 10
109.1495827709177
 20
-133.2890046889001
 30
0.0
 10
109.4403422079443
 20
-133.1209060778308
 30
0.0
 10
109.7993288654524
 20
-133.1209060778308
 30
0.0
 10
110.1583155229606
 20
-133.1209060778308
 30
0.0
 10
110.4490777501658
 20
-133.2890046889001
 30
0.0
 10
110.4490777501658
 20
-133.4977785777369
 30
0.0
  0
SPLINE
  5
65
330
60
100
AcDbEntity
  8
_U+30EC_U+30A4_U+30E4_U+30FC 1
 62
     7
420
 16777215
370
     9
100
AcDbSpline
210
0.0
220
0.0
230
1.0
 70
     8
 71
     3
 72
    11
 73
     7
 74
     0
 42
0.0000000001
 43
0.0000000001
 12
1.0
 22
0.0
 32
0.0
 13
1.0
 23
0.0
 33
0.0
 40
0.0
 40
0.0
 40
0.0
 40
0.0
 40
1.0
 40
1.0
 40
1.0
 40
2.0
 40
2.0
 40
2.0
 40
2.0
 10
109.2625774902572
 20
-133.7045063554627
 30
0.0
 10
109.2625774902572
 20
-133.7045063554627
 30
0.0
 10
109.2432833060222
 20
-133.2531977444644
 30
0.0
 10
109.9784721947276
 20
-133.2900630222328
 30
0.0
 10
109.9784721947276
 20
-133.2900630222328
 30
0.0
 10
110.4111866276204
 20
-133.346225244441
 30
0.0
 10
110.3360802406476
 20
-133.6858796888009
 30
0.0
  0
ENDBLK
  5
63
330
60
100
AcDbEntity
  8
0
100
AcDbBlockEnd
  0
BLOCK
  5
68
330
66
100
AcDbEntity
  8
0
100
AcDbBlockBegin
  2
block 6
 70
     0
 10
0.0
 20
0.0
 30
0.0
  3
block 6
  1

  0
SPLINE
  5
6A
330
66
100
AcDbEntity
  8
_U+30EC_U+30A4_U+30E4_U+30FC 1
 62
     7
420
 16777215
370
     9
100
AcDbSpline
210
0.0
220
0.0
230
1.0
 70
    11
 71
     3
 72
    17
 73
    13
 74
     0
 42
0.0000000001
 43
0.0000000001
 12
1.0
 22
0.0
 32
0.0
 13
1.0
 23
0.0
 33
0.0
 40
0.0
 40
0.0
 40
0.0
 40
0.0
 40
1.0
 40
1.0
 40
1.0
 40
2.0
 40
2.0
 40
2.0
 40
3.0
 40
3.0
 40
3.0
 40
4.0
 40
4.0
 40
4.0
 40
4.0
 10
110.4490777501658
 20
-132.4635752446621
 30
0.0
 10
110.4490777501658
 20
-132.6706205223876
 30
0.0
 10
110.1583155229606
 20
-132.8397774667902
 30
0.0
 10
109.7993288654524
 20
-132.8397774667902
 30
0.0
 10
109.4403422079443
 20
-132.8397774667902
 30
0.0
 10
109.1495827709177
 20
-132.6706205223876
 30
0.0
 10
109.1495827709177
 20
-132.4635752446621
 30
0.0
 10
109.1495827709177
 20
-132.2548013558254
 30
0.0
 10
109.4403422079443
 20
-132.0863499669783
 30
0.0
 10
109.7993288654524
 20
-132.0863499669783
 30
0.0
 10
110.1583155229606
 20
-132.0863499669783
 30
0.0
 10
110.4490777501658
 20
-132.2548013558254
 30
0.0
 10
110.4490777501658
 20
-132.4635752446621
 30
0.0
  0
SPLINE
  5
6B
330
66
100
AcDbEntity
  8
_U+30EC_U+30A4_U+30E4_U+30FC 1
 62
     7
420
 16777215
370
     9
100
AcDbSpline
210
0.0
220
0.0
230
1.0
 70
     8
 71
     3
 72
    11
 73
     7
 74
     0
 42
0.0000000001
 43
0.0000000001
 12
1.0
 22
0.0
 32
0.0
 13
1.0
 23
0.0
 33
0.0
 40
0.0
 40
0.0
 40
0.0
 40
0.0
 40
1.0
 40
1.0
 40
1.0
 40
2.0
 40
2.0
 40
2.0
 40
2.0
 10
109.2625774902572
 20
-132.6699502446102
 30
0.0
 10
109.2625774902572
 20
-132.6699502446102
 30
0.0
 10
109.2432833060222
 20
-132.2179360780564
 30
0.0
 10
109.9784721947276
 20
-132.2558244113805
 30
0.0
 10
109.9784721947276
 20
-132.2558244113805
 30
0.0
 10
110.4111866276204
 20
-132.311633855811
 30
0.0
 10
110.3360802406476
 20
-132.6510060779482
 30
0.0
  0
ENDBLK
  5
69
330
66
100
AcDbEntity
  8
0
100
AcDbBlockEnd
  0
BLOCK
  5
6E
330
6C
100
AcDbEntity
  8
0
100
AcDbBlockBegin
  2
block 7
 70
     0
 10
0.0
 20
0.0
 30
0.0
  3
block 7
  1

  0
SPLINE
  5
70
330
6C
100
AcDbEntity
  8
_U+30EC_U+30A4_U+30E4_U+30FC 1
 62
     7
420
 16777215
370
     9
100
AcDbSpline
210
0.0
220
0.0
230
1.0
 70
    11
 71
     3
 72
    17
 73
    13
 74
     0
 42
0.0000000001
 43
0.0000000001
 12
1.0
 22
0.0
 32
0.0
 13
1.0
 23
0.0
 33
0.0
 40
0.0
 40
0.0
 40
0.0
 40
0.0
 40
1.0
 40
1.0
 40
1.0
 40
2.0
 40
2.0
 40
2.0
 40
3.0
 40
3.0
 40
3.0
 40
4.0
 40
4.0
 40
4.0
 40
4.0
 10
110.4490777501658
 20
-131.2963746893983
 30
0.0
 10
110.4490777501658
 20
-131.5041255226793
 30
0.0
 10
110.1583155229606
 20
-131.6725769115263
 30
0.0
 10
109.7993288654524
 20
-131.6725769115263
 30
0.0
 10
109.4403422079443
 20
-131.6725769115263
 30
0.0
 10
109.1495827709177
 20
-131.5041255226793
 30
0.0
 10
109.1495827709177
 20
-131.2963746893983
 30
0.0
 10
109.1495827709177
 20
-131.0879535783393
 30
0.0
 10
109.4403422079443
 20
-130.9191494117144
 30
0.0
 10
109.7993288654524
 20
-130.9191494117144
 30
0.0
 10
110.1583155229606
 20
-130.9191494117144
 30
0.0
 10
110.4490777501658
 20
-131.0879535783393
 30
0.0
 10
110.4490777501658
 20
-131.2963746893983
 30
0.0
  0
SPLINE
  5
71
330
6C
100
AcDbEntity
  8
_U+30EC_U+30A4_U+30E4_U+30FC 1
 62
     7
420
 16777215
370
     9
100
AcDbSpline
210
0.0
220
0.0
230
1.0
 70
     8
 71
     3
 72
    11
 73
     7
 74
     0
 42
0.0000000001
 43
0.0000000001
 12
1.0
 22
0.0
 32
0.0
 13
1.0
 23
0.0
 33
0.0
 40
0.0
 40
0.0
 40
0.0
 40
0.0
 40
1.0
 40
1.0
 40
1.0
 40
2.0
 40
2.0
 40
2.0
 40
2.0
 10
109.2625774902572
 20
-131.5030671893466
 30
0.0
 10
109.2625774902572
 20
-131.5030671893466
 30
0.0
 10
109.2432833060222
 20
-131.0510883005703
 30
0.0
 10
109.9784721947276
 20
-131.0886238561166
 30
0.0
 10
109.9784721947276
 20
-131.0886238561166
 30
0.0
 10
110.4111866276204
 20
-131.1451388561026
 30
0.0
 10
110.3360802406476
 20
-131.4841230226845
 30
0.0
  0
ENDBLK
  5
6F
330
6C
100
AcDbEntity
  8
0
100
AcDbBlockEnd
  0
BLOCK
  5
74
330
72
100
AcDbEntity
  8
0
100
AcDbBlockBegin
  2
block 8
 70
     0
 10
0.0
 20
0.0
 30
0.0
  3
block 8
  1

  0
SPLINE
  5
76
330
72
100
AcDbEntity
  8
_U+30EC_U+30A4_U+30E4_U+30FC 1
 62
     7
420
 16777215
370
     9
100
AcDbSpline
210
0.0
220
0.0
230
1.0
 70
    11
 71
     3
 72
    17
 73
    13
 74
     0
 42
0.0000000001
 43
0.0000000001
 12
1.0
 22
0.0
 32
0.0
 13
1.0
 23
0.0
 33
0.0
 40
0.0
 40
0.0
 40
0.0
 40
0.0
 40
1.0
 40
1.0
 40
1.0
 40
2.0
 40
2.0
 40
2.0
 40
3.0
 40
3.0
 40
3.0
 40
4.0
 40
4.0
 40
4.0
 40
4.0
 10
117.2242072871391
 20
-130.7720410784181
 30
0.0
 10
117.2242072871391
 20
-130.9794391339219
 30
0.0
 10
116.9341181278732
 20
-131.1482433005461
 30
0.0
 10
116.5751314703651
 20
-131.1482433005461
 30
0.0
 10
116.2161448128569
 20
-131.1482433005461
 30
0.0
 10
115.9247150980697
 20
-130.9794391339219
 30
0.0
 10
115.9247150980697
 20
-130.7720410784181
 30
0.0
 10
115.9247150980697
 20
-130.5632671895813
 30
0.0
 10
116.2161448128569
 20
-130.3944630229571
 30
0.0
 10
116.5751314703651
 20
-130.3944630229571
 30
0.0
 10
116.9341181278732
 20
-130.3944630229571
 30
0.0
 10
117.2242072871391
 20
-130.5632671895813
 30
0.0
 10
117.2242072871391
 20
-130.7720410784181
 30
0.0
  0
SPLINE
  5
77
330
72
100
AcDbEntity
  8
_U+30EC_U+30A4_U+30E4_U+30FC 1
 62
     7
420
 16777215
370
     9
100
AcDbSpline
210
0.0
220
0.0
230
1.0
 70
     8
 71
     3
 72
    11
 73
     7
 74
     0
 42
0.0000000001
 43
0.0000000001
 12
1.0
 22
0.0
 32
0.0
 13
1.0
 23
0.0
 33
0.0
 40
0.0
 40
0.0
 40
0.0
 40
0.0
 40
1.0
 40
1.0
 40
1.0
 40
2.0
 40
2.0
 40
2.0
 40
2.0
 10
116.0377098174092
 20
-130.978063300589
 30
0.0
 10
116.0377098174092
 20
-130.978063300589
 30
0.0
 10
116.0197916376617
 20
-130.5267546895907
 30
0.0
 10
116.7536017435897
 20
-130.5639374673593
 30
0.0
 10
116.7536017435897
 20
-130.5639374673593
 30
0.0
 10
117.1869892325331
 20
-130.6204524673446
 30
0.0
 10
117.1112125677996
 20
-130.9594366339266
 30
0.0
  0
ENDBLK
  5
75
330
72
100
AcDbEntity
  8
0
100
AcDbBlockEnd
  0
BLOCK
  5
7A
330
78
100
AcDbEntity
  8
0
100
AcDbBlockBegin
  2
block 9
 70
     0
 10
0.0
 20
0.0
 30
0.0
  3
block 9
  1

  0
SPLINE
  5
7C
330
78
100
AcDbEntity
  8
_U+30EC_U+30A4_U+30E4_U+30FC 1
 62
     7
420
 16777215
370
     9
100
AcDbSpline
210
0.0
220
0.0
230
1.0
 70
    11
 71
     3
 72
    17
 73
    13
 74
     0
 42
0.0000000001
 43
0.0000000001
 12
1.0
 22
0.0
 32
0.0
 13
1.0
 23
0.0
 33
0.0
 40
0.0
 40
0.0
 40
0.0
 40
0.0
 40
1.0
 40
1.0
 40
1.0
 40
2.0
 40
2.0
 40
2.0
 40
3.0
 40
3.0
 40
3.0
 40
4.0
 40
4.0
 40
4.0
 40
4.0
 10
112.7317940684168
 20
-130.4464624673885
 30
0.0
 10
112.7317940684168
 20
-130.6552363562253
 30
0.0
 10
112.4417049091509
 20
-130.8230174672943
 30
0.0
 10
112.0827182516427
 20
-130.8230174672943
 30
0.0
 10
111.7237668719115
 20
-130.8230174672943
 30
0.0
 10
111.4333277499194
 20
-130.6552363562253
 30
0.0
 10
111.4333277499194
 20
-130.4464624673885
 30
0.0
 10
111.4333277499194
 20
-130.238746911885
 30
0.0
 10
111.7237668719115
 20
-130.0699074674827
 30
0.0
 10
112.0827182516427
 20
-130.0699074674827
 30
0.0
 10
112.4417049091509
 20
-130.0699074674827
 30
0.0
 10
112.7317940684168
 20
-130.238746911885
 30
0.0
 10
112.7317940684168
 20
-130.4464624673885
 30
0.0
  0
SPLINE
  5
7D
330
78
100
AcDbEntity
  8
_U+30EC_U+30A4_U+30E4_U+30FC 1
 62
     7
420
 16777215
370
     9
100
AcDbSpline
210
0.0
220
0.0
230
1.0
 70
     8
 71
     3
 72
    11
 73
     7
 74
     0
 42
0.0000000001
 43
0.0000000001
 12
1.0
 22
0.0
 32
0.0
 13
1.0
 23
0.0
 33
0.0
 40
0.0
 40
0.0
 40
0.0
 40
0.0
 40
1.0
 40
1.0
 40
1.0
 40
2.0
 40
2.0
 40
2.0
 40
2.0
 10
111.5456493764556
 20
-130.6535077451146
 30
0.0
 10
111.5456493764556
 20
-130.6535077451146
 30
0.0
 10
111.5277282658017
 20
-130.2021991341163
 30
0.0
 10
112.2611885248674
 20
-130.2394171896624
 30
0.0
 10
112.2611885248674
 20
-130.2394171896624
 30
0.0
 10
112.6952815693483
 20
-130.2955794118706
 30
0.0
 10
112.6187993490773
 20
-130.6352691340081
 30
0.0
  0
ENDBLK
  5
7B
330
78
100
AcDbEntity
  8
0
100
AcDbBlockEnd
  0
BLOCK
  5
80
330
7E
100
AcDbEntity
  8
0
100
AcDbBlockBegin
  2
block 10
 70
     0
 10
0.0
 20
0.0
 30
0.0
  3
block 10
  1

  0
SPLINE
  5
82
330
7E
100
AcDbEntity
  8
_U+30EC_U+30A4_U+30E4_U+30FC 1
 62
     7
420
 16777215
370
     9
100
AcDbSpline
210
0.0
220
0.0
230
1.0
 70
    11
 71
     3
 72
    17
 73
    13
 74
     0
 42
0.0000000001
 43
0.0000000001
 12
1.0
 22
0.0
 32
0.0
 13
1.0
 23
0.0
 33
0.0
 40
0.0
 40
0.0
 40
0.0
 40
0.0
 40
1.0
 40
1.0
 40
1.0
 40
2.0
 40
2.0
 40
2.0
 40
3.0
 40
3.0
 40
3.0
 40
4.0
 40
4.0
 40
4.0
 40
4.0
 10
114.889100680046
 20
-131.7473305226189
 30
0.0
 10
114.889100680046
 20
-131.9547285781227
 30
0.0
 10
114.5976709652587
 20
-132.1235327447469
 30
0.0
 10
114.2393545855113
 20
-132.1235327447469
 30
0.0
 10
113.8803679280031
 20
-132.1235327447469
 30
0.0
 10
113.5896084909765
 20
-131.9547285781227
 30
0.0
 10
113.5896084909765
 20
-131.7473305226189
 30
0.0
 10
113.5896084909765
 20
-131.5385566337821
 30
0.0
 10
113.8803679280031
 20
-131.370105244935
 30
0.0
 10
114.2393545855113
 20
-131.370105244935
 30
0.0
 10
114.5976709652587
 20
-131.370105244935
 30
0.0
 10
114.889100680046
 20
-131.5385566337821
 30
0.0
 10
114.889100680046
 20
-131.7473305226189
 30
0.0
  0
SPLINE
  5
83
330
7E
100
AcDbEntity
  8
_U+30EC_U+30A4_U+30E4_U+30FC 1
 62
     7
420
 16777215
370
     9
100
AcDbSpline
210
0.0
220
0.0
230
1.0
 70
     8
 71
     3
 72
    11
 73
     7
 74
     0
 42
0.0000000001
 43
0.0000000001
 12
1.0
 22
0.0
 32
0.0
 13
1.0
 23
0.0
 33
0.0
 40
0.0
 40
0.0
 40
0.0
 40
0.0
 40
1.0
 40
1.0
 40
1.0
 40
2.0
 40
2.0
 40
2.0
 40
2.0
 10
113.7019329325554
 20
-131.9533527447892
 30
0.0
 10
113.7019329325554
 20
-131.9533527447892
 30
0.0
 10
113.6840118219014
 20
-131.5020441337909
 30
0.0
 10
114.4178277491736
 20
-131.5392621893376
 30
0.0
 10
114.4178277491736
 20
-131.5392621893376
 30
0.0
 10
114.8512123476792
 20
-131.5957419115454
 30
0.0
 10
114.7754356829458
 20
-131.9347613559055
 30
0.0
  0
ENDBLK
  5
81
330
7E
100
AcDbEntity
  8
0
100
AcDbBlockEnd
  0
BLOCK
  5
86
330
84
100
AcDbEntity
  8
0
100
AcDbBlockBegin
  2
block 11
 70
     0
 10
0.0
 20
0.0
 30
0.0
  3
block 11
  1

  0
SPLINE
  5
88
330
84
100
AcDbEntity
  8
_U+30EC_U+30A4_U+30E4_U+30FC 1
 62
     7
420
 16777215
370
     9
100
AcDbSpline
210
0.0
220
0.0
230
1.0
 70
    11
 71
     3
 72
    17
 73
    13
 74
     0
 42
0.0000000001
 43
0.0000000001
 12
1.0
 22
0.0
 32
0.0
 13
1.0
 23
0.0
 33
0.0
 40
0.0
 40
0.0
 40
0.0
 40
0.0
 40
1.0
 40
1.0
 40
1.0
 40
2.0
 40
2.0
 40
2.0
 40
3.0
 40
3.0
 40
3.0
 40
4.0
 40
4.0
 40
4.0
 40
4.0
 10
114.889100680046
 20
-130.7131271895441
 30
0.0
 10
114.889100680046
 20
-130.9215483006031
 30
0.0
 10
114.5976709652587
 20
-131.0896821894499
 30
0.0
 10
114.2393545855113
 20
-131.0896821894499
 30
0.0
 10
113.8803679280031
 20
-131.0896821894499
 30
0.0
 10
113.5896084909765
 20
-130.9215483006031
 30
0.0
 10
113.5896084909765
 20
-130.7131271895441
 30
0.0
 10
113.5896084909765
 20
-130.5047060784851
 30
0.0
 10
113.8803679280031
 20
-130.3359019118603
 30
0.0
 10
114.2393545855113
 20
-130.3359019118603
 30
0.0
 10
114.5976709652587
 20
-130.3359019118603
 30
0.0
 10
114.889100680046
 20
-130.5047060784851
 30
0.0
 10
114.889100680046
 20
-130.7131271895441
 30
0.0
  0
SPLINE
  5
89
330
84
100
AcDbEntity
  8
_U+30EC_U+30A4_U+30E4_U+30FC 1
 62
     7
420
 16777215
370
     9
100
AcDbSpline
210
0.0
220
0.0
230
1.0
 70
     8
 71
     3
 72
    11
 73
     7
 74
     0
 42
0.0000000001
 43
0.0000000001
 12
1.0
 22
0.0
 32
0.0
 13
1.0
 23
0.0
 33
0.0
 40
0.0
 40
0.0
 40
0.0
 40
0.0
 40
1.0
 40
1.0
 40
1.0
 40
2.0
 40
2.0
 40
2.0
 40
2.0
 10
113.7019329325554
 20
-130.9198196894924
 30
0.0
 10
113.7019329325554
 20
-130.9198196894924
 30
0.0
 10
113.6840118219014
 20
-130.4681935784939
 30
0.0
 10
114.4178277491736
 20
-130.5053763562625
 30
0.0
 10
114.4178277491736
 20
-130.5053763562625
 30
0.0
 10
114.8512123476792
 20
-130.5618913562485
 30
0.0
 10
114.7754356829458
 20
-130.9015810783859
 30
0.0
  0
ENDBLK
  5
87
330
84
100
AcDbEntity
  8
0
100
AcDbBlockEnd
  0
BLOCK
  5
8C
330
8A
100
AcDbEntity
  8
0
100
AcDbBlockBegin
  2
block 12
 70
     0
 10
0.0
 20
0.0
 30
0.0
  3
block 12
  1

  0
SPLINE
  5
8E
330
8A
100
AcDbEntity
  8
_U+30EC_U+30A4_U+30E4_U+30FC 1
 62
     7
420
 16777215
370
     9
100
AcDbSpline
210
0.0
220
0.0
230
1.0
 70
    11
 71
     3
 72
    17
 73
    13
 74
     0
 42
0.0000000001
 43
0.0000000001
 12
1.0
 22
0.0
 32
0.0
 13
1.0
 23
0.0
 33
0.0
 40
0.0
 40
0.0
 40
0.0
 40
0.0
 40
1.0
 40
1.0
 40
1.0
 40
2.0
 40
2.0
 40
2.0
 40
3.0
 40
3.0
 40
3.0
 40
4.0
 40
4.0
 40
4.0
 40
4.0
 10
112.8440860828999
 20
-131.394905522707
 30
0.0
 10
112.8440860828999
 20
-131.6030091337658
 30
0.0
 10
112.5526535174315
 20
-131.7711077448351
 30
0.0
 10
112.1943724154609
 20
-131.7711077448351
 30
0.0
 10
111.8364088134822
 20
-131.7711077448351
 30
0.0
 10
111.5449438209181
 20
-131.6030091337658
 30
0.0
 10
111.5449438209181
 20
-131.394905522707
 30
0.0
 10
111.5449438209181
 20
-131.1864844116481
 30
0.0
 10
111.8364088134822
 20
-131.0179977450234
 30
0.0
 10
112.1943724154609
 20
-131.0179977450234
 30
0.0
 10
112.5526535174315
 20
-131.0179977450234
 30
0.0
 10
112.8440860828999
 20
-131.1864844116481
 30
0.0
 10
112.8440860828999
 20
-131.394905522707
 30
0.0
  0
SPLINE
  5
8F
330
8A
100
AcDbEntity
  8
_U+30EC_U+30A4_U+30E4_U+30FC 1
 62
     7
420
 16777215
370
     9
100
AcDbSpline
210
0.0
220
0.0
230
1.0
 70
     8
 71
     3
 72
    11
 73
     7
 74
     0
 42
0.0000000001
 43
0.0000000001
 12
1.0
 22
0.0
 32
0.0
 13
1.0
 23
0.0
 33
0.0
 40
0.0
 40
0.0
 40
0.0
 40
0.0
 40
1.0
 40
1.0
 40
1.0
 40
2.0
 40
2.0
 40
2.0
 40
2.0
 10
111.6579385402576
 20
-131.6015980226554
 30
0.0
 10
111.6579385402576
 20
-131.6015980226554
 30
0.0
 10
111.6393499720904
 20
-131.149619133879
 30
0.0
 10
112.3728074109086
 20
-131.1871546894254
 30
0.0
 10
112.3728074109086
 20
-131.1871546894254
 30
0.0
 10
112.8075707331502
 20
-131.2433169116336
 30
0.0
 10
112.7310885128792
 20
-131.583006633771
 30
0.0
  0
ENDBLK
  5
8D
330
8A
100
AcDbEntity
  8
0
100
AcDbBlockEnd
  0
BLOCK
  5
92
330
90
100
AcDbEntity
  8
0
100
AcDbBlockBegin
  2
block 13
 70
     0
 10
0.0
 20
0.0
 30
0.0
  3
block 13
  1

  0
SPLINE
  5
94
330
90
100
AcDbEntity
  8
_U+30EC_U+30A4_U+30E4_U+30FC 1
 62
     7
420
 16777215
370
     9
100
AcDbSpline
210
0.0
220
0.0
230
1.0
 70
    11
 71
     3
 72
    17
 73
    13
 74
     0
 42
0.0000000001
 43
0.0000000001
 12
1.0
 22
0.0
 32
0.0
 13
1.0
 23
0.0
 33
0.0
 40
0.0
 40
0.0
 40
0.0
 40
0.0
 40
1.0
 40
1.0
 40
1.0
 40
2.0
 40
2.0
 40
2.0
 40
3.0
 40
3.0
 40
3.0
 40
4.0
 40
4.0
 40
4.0
 40
4.0
 10
114.889100680046
 20
-129.5459266342802
 30
0.0
 10
114.889100680046
 20
-129.7539949675615
 30
0.0
 10
114.5976709652587
 20
-129.9217760786306
 30
0.0
 10
114.2393545855113
 20
-129.9217760786306
 30
0.0
 10
113.8803679280031
 20
-129.9217760786306
 30
0.0
 10
113.5896084909765
 20
-129.7539949675615
 30
0.0
 10
113.5896084909765
 20
-129.5459266342802
 30
0.0
 10
113.5896084909765
 20
-129.3375055232213
 30
0.0
 10
113.8803679280031
 20
-129.1693716343744
 30
0.0
 10
114.2393545855113
 20
-129.1693716343744
 30
0.0
 10
114.5976709652587
 20
-129.1693716343744
 30
0.0
 10
114.889100680046
 20
-129.3375055232213
 30
0.0
 10
114.889100680046
 20
-129.5459266342802
 30
0.0
  0
SPLINE
  5
95
330
90
100
AcDbEntity
  8
_U+30EC_U+30A4_U+30E4_U+30FC 1
 62
     7
420
 16777215
370
     9
100
AcDbSpline
210
0.0
220
0.0
230
1.0
 70
     8
 71
     3
 72
    11
 73
     7
 74
     0
 42
0.0000000001
 43
0.0000000001
 12
1.0
 22
0.0
 32
0.0
 13
1.0
 23
0.0
 33
0.0
 40
0.0
 40
0.0
 40
0.0
 40
0.0
 40
1.0
 40
1.0
 40
1.0
 40
2.0
 40
2.0
 40
2.0
 40
2.0
 10
113.7019329325554
 20
-129.7523016342283
 30
0.0
 10
113.7019329325554
 20
-129.7523016342283
 30
0.0
 10
113.6840118219014
 20
-129.30099302323
 30
0.0
 10
114.4178277491736
 20
-129.3381758009986
 30
0.0
 10
114.4178277491736
 20
-129.3381758009986
 30
0.0
 10
114.8512123476792
 20
-129.3946908009846
 30
0.0
 10
114.7754356829458
 20
-129.7336749675665
 30
0.0
  0
ENDBLK
  5
93
330
90
100
AcDbEntity
  8
0
100
AcDbBlockEnd
  0
BLOCK
  5
D0
330
CE
100
AcDbEntity
  8
0
100
AcDbBlockBegin
  2
block 14
 70
     0
 10
0.0
 20
0.0
 30
0.0
  3
block 14
  1

  0
SPLINE
  5
D2
330
CE
100
AcDbEntity
  8
_U+30EC_U+30A4_U+30E4_U+30FC 1
370
     0
100
AcDbSpline
210
0.0
220
0.0
230
1.0
 70
    11
 71
     3
 72
    44
 73
    40
 74
     0
 42
0.0000000001
 43
0.0000000001
 12
1.0
 22
0.0
 32
0.0
 13
1.0
 23
0.0
 33
0.0
 40
0.0
 40
0.0
 40
0.0
 40
0.0
 40
1.0
 40
1.0
 40
1.0
 40
2.0
 40
2.0
 40
2.0
 40
3.0
 40
3.0
 40
3.0
 40
4.0
 40
4.0
 40
4.0
 40
5.0
 40
5.0
 40
5.0
 40
6.0
 40
6.0
 40
6.0
 40
7.0
 40
7.0
 40
7.0
 40
8.0
 40
8.0
 40
8.0
 40
9.0
 40
9.0
 40
9.0
 40
10.0
 40
10.0
 40
10.0
 40
11.0
 40
11.0
 40
11.0
 40
12.0
 40
12.0
 40
12.0
 40
13.0
 40
13.0
 40
13.0
 40
13.0
 10
81.59829235156224
 20
-136.3317301091462
 30
0.0
 10
81.36540389675935
 20
-136.4905490110163
 30
0.0
 10
81.26584063723563
 20
-136.5646185639491
 30
0.0
 10
81.21416420495687
 20
-136.708279045684
 30
0.0
 10
81.21416420495687
 20
-136.708279045684
 30
0.0
 10
82.04581025509619
 20
-136.708279045684
 30
0.0
 10
82.04581025509619
 20
-136.708279045684
 30
0.0
 10
82.04581025509619
 20
-136.708279045684
 30
0.0
 10
82.04581025509619
 20
-136.9136067366049
 30
0.0
 10
82.04581025509619
 20
-136.9136067366049
 30
0.0
 10
82.04581025509619
 20
-136.9136067366049
 30
0.0
 10
80.94716930485002
 20
-136.9136067366049
 30
0.0
 10
80.94716930485002
 20
-136.9136067366049
 30
0.0
 10
80.98127575015398
 20
-136.556005825236
 30
0.0
 10
81.05121118850457
 20
-136.4778021577208
 30
0.0
 10
81.4625555894434
 20
-136.1794568886982
 30
0.0
 10
81.73609617097223
 20
-135.9806748791993
 30
0.0
 10
81.80637611887133
 20
-135.9128064981399
 30
0.0
 10
81.80637611887133
 20
-135.7753471882784
 30
0.0
 10
81.80637611887133
 20
-135.6568359035858
 30
0.0
 10
81.72955048955025
 20
-135.5259222751463
 30
0.0
 10
81.51905515540149
 20
-135.5259222751463
 30
0.0
 10
81.24103594974183
 20
-135.5259222751463
 30
0.0
 10
81.23207870148018
 20
-135.7563991631095
 30
0.0
 10
81.22760007734935
 20
-135.872843390511
 30
0.0
 10
81.22760007734935
 20
-135.872843390511
 30
0.0
 10
80.98782143157597
 20
-135.872843390511
 30
0.0
 10
80.98782143157597
 20
-135.872843390511
 30
0.0
 10
80.99712318938614
 20
-135.7457193671052
 30
0.0
 10
81.00814749493894
 20
-135.6337537638346
 30
0.0
 10
81.09427488207018
 20
-135.515242479142
 30
0.0
 10
81.2117526381172
 20
-135.3543565199809
 30
0.0
 10
81.41053464761612
 20
-135.3205945842254
 30
0.0
 10
81.53490259463364
 20
-135.3205945842254
 30
0.0
 10
81.83118080636513
 20
-135.3205945842254
 30
0.0
 10
82.0527004460667
 20
-135.5045626831377
 30
0.0
 10
82.0527004460667
 20
-135.7774142455695
 30
0.0
 10
82.0527004460667
 20
-136.0061685857901
 30
0.0
 10
81.92833249904918
 20
-136.1053873357653
 30
0.0
 10
81.59829235156224
 20
-136.3317301091462
 30
0.0
  0
HATCH
  5
D3
330
CE
100
AcDbEntity
  8
_U+30EC_U+30A4_U+30E4_U+30FC 1
 62
   179
420
  2234388
100
AcDbHatch
 10
0.0
 20
0.0
 30
0.0
210
0.0
220
0.0
230
1.0
  2
SOLID
 70
     1
 71
     0
 91
        1
 92
        1
 93
        1
 72
     4
 94
        3
 73
     0
 74
     1
 95
       44
 96
       40
 40
0.0
 40
0.0
 40
0.0
 40
0.0
 40
1.0
 40
1.0
 40
1.0
 40
2.0
 40
2.0
 40
2.0
 40
3.0
 40
3.0
 40
3.0
 40
4.0
 40
4.0
 40
4.0
 40
5.0
 40
5.0
 40
5.0
 40
6.0
 40
6.0
 40
6.0
 40
7.0
 40
7.0
 40
7.0
 40
8.0
 40
8.0
 40
8.0
 40
9.0
 40
9.0
 40
9.0
 40
10.0
 40
10.0
 40
10.0
 40
11.0
 40
11.0
 40
11.0
 40
12.0
 40
12.0
 40
12.0
 40
13.0
 40
13.0
 40
13.0
 40
13.0
 10
81.59829235156224
 20
-136.3317301091462
 10
81.36540389675935
 20
-136.4905490110163
 10
81.26584063723563
 20
-136.5646185639491
 10
81.21416420495687
 20
-136.708279045684
 10
81.21416420495687
 20
-136.708279045684
 10
82.04581025509619
 20
-136.708279045684
 10
82.04581025509619
 20
-136.708279045684
 10
82.04581025509619
 20
-136.708279045684
 10
82.04581025509619
 20
-136.9136067366049
 10
82.04581025509619
 20
-136.9136067366049
 10
82.04581025509619
 20
-136.9136067366049
 10
80.94716930485002
 20
-136.9136067366049
 10
80.94716930485002
 20
-136.9136067366049
 10
80.98127575015398
 20
-136.556005825236
 10
81.05121118850457
 20
-136.4778021577208
 10
81.4625555894434
 20
-136.1794568886982
 10
81.73609617097223
 20
-135.9806748791993
 10
81.80637611887133
 20
-135.9128064981399
 10
81.80637611887133
 20
-135.7753471882784
 10
81.80637611887133
 20
-135.6568359035858
 10
81.72955048955025
 20
-135.5259222751463
 10
81.51905515540149
 20
-135.5259222751463
 10
81.24103594974183
 20
-135.5259222751463
 10
81.23207870148018
 20
-135.7563991631095
 10
81.22760007734935
 20
-135.872843390511
 10
81.22760007734935
 20
-135.872843390511
 10
80.98782143157597
 20
-135.872843390511
 10
80.98782143157597
 20
-135.872843390511
 10
80.99712318938614
 20
-135.7457193671052
 10
81.00814749493894
 20
-135.6337537638346
 10
81.09427488207018
 20
-135.515242479142
 10
81.2117526381172
 20
-135.3543565199809
 10
81.41053464761612
 20
-135.3205945842254
 10
81.53490259463364
 20
-135.3205945842254
 10
81.83118080636513
 20
-135.3205945842254
 10
82.0527004460667
 20
-135.5045626831377
 10
82.0527004460667
 20
-135.7774142455695
 10
82.0527004460667
 20
-136.0061685857901
 10
81.92833249904918
 20
-136.1053873357653
 10
81.59829235156224
 20
-136.3317301091462
 97
        0
 97
        0
 75
     2
 76
     1
 98
        0
  0
SPLINE
  5
D4
330
CE
100
AcDbEntity
  8
_U+30EC_U+30A4_U+30E4_U+30FC 1
370
     0
100
AcDbSpline
210
0.0
220
0.0
230
1.0
 70
    11
 71
     3
 72
    53
 73
    49
 74
     0
 42
0.0000000001
 43
0.0000000001
 12
1.0
 22
0.0
 32
0.0
 13
1.0
 23
0.0
 33
0.0
 40
0.0
 40
0.0
 40
0.0
 40
0.0
 40
1.0
 40
1.0
 40
1.0
 40
2.0
 40
2.0
 40
2.0
 40
3.0
 40
3.0
 40
3.0
 40
4.0
 40
4.0
 40
4.0
 40
5.0
 40
5.0
 40
5.0
 40
6.0
 40
6.0
 40
6.0
 40
7.0
 40
7.0
 40
7.0
 40
8.0
 40
8.0
 40
8.0
 40
9.0
 40
9.0
 40
9.0
 40
10.0
 40
10.0
 40
10.0
 40
11.0
 40
11.0
 40
11.0
 40
12.0
 40
12.0
 40
12.0
 40
13.0
 40
13.0
 40
13.0
 40
14.0
 40
14.0
 40
14.0
 40
15.0
 40
15.0
 40
15.0
 40
16.0
 40
16.0
 40
16.0
 40
16.0
 10
82.73620739034025
 20
-136.9642496402381
 30
0.0
 10
82.65283607959721
 20
-136.9642496402381
 30
0.0
 10
82.54397106226331
 20
-136.9473686723604
 30
0.0
 10
82.43579506402646
 20
-136.8839789154318
 30
0.0
 10
82.2501044173715
 20
-136.7740803694523
 30
0.0
 10
82.22771129671739
 20
-136.6428222314643
 30
0.0
 10
82.2073852333544
 20
-136.534990742776
 30
0.0
 10
82.2073852333544
 20
-136.534990742776
 30
0.0
 10
82.44475231228812
 20
-136.534990742776
 30
0.0
 10
82.44475231228812
 20
-136.534990742776
 30
0.0
 10
82.50331893553737
 20
-136.7337727522749
 30
0.0
 10
82.63905569765622
 20
-136.7634005734481
 30
0.0
 10
82.73861895717994
 20
-136.7634005734481
 30
0.0
 10
82.88779159169125
 20
-136.7634005734481
 30
0.0
 10
83.05040009859505
 20
-136.6638373139243
 30
0.0
 10
83.05040009859505
 20
-136.43129336867
 30
0.0
 10
83.05040009859505
 20
-136.1753227741159
 30
0.0
 10
82.85850828006663
 20
-136.1053873357653
 30
0.0
 10
82.72966170891829
 20
-136.1053873357653
 30
0.0
 10
82.69555526361431
 20
-136.1053873357653
 30
0.0
 10
82.54397106226331
 20
-136.1053873357653
 30
0.0
 10
82.44923093641894
 20
-136.2345784164622
 30
0.0
 10
82.44923093641894
 20
-136.2345784164622
 30
0.0
 10
82.26147323247282
 20
-136.2156303912933
 30
0.0
 10
82.26147323247282
 20
-136.2156303912933
 30
0.0
 10
82.26147323247282
 20
-136.2156303912933
 30
0.0
 10
82.39031980362117
 20
-135.3691704305674
 30
0.0
 10
82.39031980362117
 20
-135.3691704305674
 30
0.0
 10
82.39031980362117
 20
-135.3691704305674
 30
0.0
 10
83.222310363309
 20
-135.3691704305674
 30
0.0
 10
83.222310363309
 20
-135.3691704305674
 30
0.0
 10
83.222310363309
 20
-135.3691704305674
 30
0.0
 10
83.222310363309
 20
-135.563818325484
 30
0.0
 10
83.222310363309
 20
-135.563818325484
 30
0.0
 10
83.222310363309
 20
-135.563818325484
 30
0.0
 10
82.56464163517481
 20
-135.563818325484
 30
0.0
 10
82.56464163517481
 20
-135.563818325484
 30
0.0
 10
82.56464163517481
 20
-135.563818325484
 30
0.0
 10
82.49436168727571
 20
-135.9868760510727
 30
0.0
 10
82.49436168727571
 20
-135.9868760510727
 30
0.0
 10
82.55981850149547
 20
-135.9531141153173
 30
0.0
 10
82.64801294591786
 20
-135.9128064981399
 30
0.0
 10
82.77479245977506
 20
-135.9128064981399
 30
0.0
 10
83.04592147446422
 20
-135.9128064981399
 30
0.0
 10
83.29913599263008
 20
-136.0991861638919
 30
0.0
 10
83.29913599263008
 20
-136.4123453435011
 30
0.0
 10
83.29913599263008
 20
-136.7296386376926
 30
0.0
 10
83.05970185640521
 20
-136.9642496402381
 30
0.0
 10
82.73620739034025
 20
-136.9642496402381
 30
0.0
  0
HATCH
  5
D5
330
CE
100
AcDbEntity
  8
_U+30EC_U+30A4_U+30E4_U+30FC 1
 62
   179
420
  2234388
100
AcDbHatch
 10
0.0
 20
0.0
 30
0.0
210
0.0
220
0.0
230
1.0
  2
SOLID
 70
     1
 71
     0
 91
        1
 92
        1
 93
        1
 72
     4
 94
        3
 73
     0
 74
     1
 95
       53
 96
       49
 40
0.0
 40
0.0
 40
0.0
 40
0.0
 40
1.0
 40
1.0
 40
1.0
 40
2.0
 40
2.0
 40
2.0
 40
3.0
 40
3.0
 40
3.0
 40
4.0
 40
4.0
 40
4.0
 40
5.0
 40
5.0
 40
5.0
 40
6.0
 40
6.0
 40
6.0
 40
7.0
 40
7.0
 40
7.0
 40
8.0
 40
8.0
 40
8.0
 40
9.0
 40
9.0
 40
9.0
 40
10.0
 40
10.0
 40
10.0
 40
11.0
 40
11.0
 40
11.0
 40
12.0
 40
12.0
 40
12.0
 40
13.0
 40
13.0
 40
13.0
 40
14.0
 40
14.0
 40
14.0
 40
15.0
 40
15.0
 40
15.0
 40
16.0
 40
16.0
 40
16.0
 40
16.0
 10
82.73620739034025
 20
-136.9642496402381
 10
82.65283607959721
 20
-136.9642496402381
 10
82.54397106226331
 20
-136.9473686723604
 10
82.43579506402646
 20
-136.8839789154318
 10
82.2501044173715
 20
-136.7740803694523
 10
82.22771129671739
 20
-136.6428222314643
 10
82.2073852333544
 20
-136.534990742776
 10
82.2073852333544
 20
-136.534990742776
 10
82.44475231228812
 20
-136.534990742776
 10
82.44475231228812
 20
-136.534990742776
 10
82.50331893553737
 20
-136.7337727522749
 10
82.63905569765622
 20
-136.7634005734481
 10
82.73861895717994
 20
-136.7634005734481
 10
82.88779159169125
 20
-136.7634005734481
 10
83.05040009859505
 20
-136.6638373139243
 10
83.05040009859505
 20
-136.43129336867
 10
83.05040009859505
 20
-136.1753227741159
 10
82.85850828006663
 20
-136.1053873357653
 10
82.72966170891829
 20
-136.1053873357653
 10
82.69555526361431
 20
-136.1053873357653
 10
82.54397106226331
 20
-136.1053873357653
 10
82.44923093641894
 20
-136.2345784164622
 10
82.44923093641894
 20
-136.2345784164622
 10
82.26147323247282
 20
-136.2156303912933
 10
82.26147323247282
 20
-136.2156303912933
 10
82.26147323247282
 20
-136.2156303912933
 10
82.39031980362117
 20
-135.3691704305674
 10
82.39031980362117
 20
-135.3691704305674
 10
82.39031980362117
 20
-135.3691704305674
 10
83.222310363309
 20
-135.3691704305674
 10
83.222310363309
 20
-135.3691704305674
 10
83.222310363309
 20
-135.3691704305674
 10
83.222310363309
 20
-135.563818325484
 10
83.222310363309
 20
-135.563818325484
 10
83.222310363309
 20
-135.563818325484
 10
82.56464163517481
 20
-135.563818325484
 10
82.56464163517481
 20
-135.563818325484
 10
82.56464163517481
 20
-135.563818325484
 10
82.49436168727571
 20
-135.9868760510727
 10
82.49436168727571
 20
-135.9868760510727
 10
82.55981850149547
 20
-135.9531141153173
 10
82.64801294591786
 20
-135.9128064981399
 10
82.77479245977506
 20
-135.9128064981399
 10
83.04592147446422
 20
-135.9128064981399
 10
83.29913599263008
 20
-136.0991861638919
 10
83.29913599263008
 20
-136.4123453435011
 10
83.29913599263008
 20
-136.7296386376926
 10
83.05970185640521
 20
-136.9642496402381
 10
82.73620739034025
 20
-136.9642496402381
 97
        0
 97
        0
 75
     2
 76
     1
 98
        0
  0
ENDBLK
  5
D1
330
CE
100
AcDbEntity
  8
0
100
AcDbBlockEnd
  0
BLOCK
  5
E4
330
E2
100
AcDbEntity
  8
0
100
AcDbBlockBegin
  2
block 15
 70
     0
 10
0.0
 20
0.0
 30
0.0
  3
block 15
  1

  0
SPLINE
  5
E6
330
E2
100
AcDbEntity
  8
_U+30EC_U+30A4_U+30E4_U+30FC 1
370
     0
100
AcDbSpline
210
0.0
220
0.0
230
1.0
 70
    11
 71
     3
 72
    26
 73
    22
 74
     0
 42
0.0000000001
 43
0.0000000001
 12
1.0
 22
0.0
 32
0.0
 13
1.0
 23
0.0
 33
0.0
 40
0.0
 40
0.0
 40
0.0
 40
0.0
 40
1.0
 40
1.0
 40
1.0
 40
2.0
 40
2.0
 40
2.0
 40
3.0
 40
3.0
 40
3.0
 40
4.0
 40
4.0
 40
4.0
 40
5.0
 40
5.0
 40
5.0
 40
6.0
 40
6.0
 40
6.0
 40
7.0
 40
7.0
 40
7.0
 40
7.0
 10
64.9099053114635
 20
-126.5335340395472
 30
0.0
 10
64.9099053114635
 20
-126.5335340395472
 30
0.0
 10
63.80557995366667
 20
-126.5335340395472
 30
0.0
 10
63.80557995366667
 20
-126.5335340395472
 30
0.0
 10
63.80557995366667
 20
-126.5335340395472
 30
0.0
 10
63.80557995366667
 20
-126.8859673076882
 30
0.0
 10
63.80557995366667
 20
-126.8859673076882
 30
0.0
 10
63.80557995366667
 20
-126.8859673076882
 30
0.0
 10
63.65761310257518
 20
-126.8859673076882
 30
0.0
 10
63.65761310257518
 20
-126.8859673076882
 30
0.0
 10
63.64279919198861
 20
-126.5311224727075
 30
0.0
 10
63.47984617553629
 20
-126.4815130977199
 30
0.0
 10
63.36564126020026
 20
-126.4498182192556
 30
0.0
 10
63.36564126020026
 20
-126.4498182192556
 30
0.0
 10
63.36564126020026
 20
-126.2937553937738
 30
0.0
 10
63.36564126020026
 20
-126.2937553937738
 30
0.0
 10
63.36564126020026
 20
-126.2937553937738
 30
0.0
 10
64.9099053114635
 20
-126.2937553937738
 30
0.0
 10
64.9099053114635
 20
-126.2937553937738
 30
0.0
 10
64.9099053114635
 20
-126.2937553937738
 30
0.0
 10
64.9099053114635
 20
-126.5335340395472
 30
0.0
 10
64.9099053114635
 20
-126.5335340395472
 30
0.0
  0
HATCH
  5
E7
330
E2
100
AcDbEntity
  8
_U+30EC_U+30A4_U+30E4_U+30FC 1
 62
   179
420
  2234388
100
AcDbHatch
 10
0.0
 20
0.0
 30
0.0
210
0.0
220
0.0
230
1.0
  2
SOLID
 70
     1
 71
     0
 91
        1
 92
        1
 93
        1
 72
     4
 94
        3
 73
     0
 74
     1
 95
       26
 96
       22
 40
0.0
 40
0.0
 40
0.0
 40
0.0
 40
1.0
 40
1.0
 40
1.0
 40
2.0
 40
2.0
 40
2.0
 40
3.0
 40
3.0
 40
3.0
 40
4.0
 40
4.0
 40
4.0
 40
5.0
 40
5.0
 40
5.0
 40
6.0
 40
6.0
 40
6.0
 40
7.0
 40
7.0
 40
7.0
 40
7.0
 10
64.9099053114635
 20
-126.5335340395472
 10
64.9099053114635
 20
-126.5335340395472
 10
63.80557995366667
 20
-126.5335340395472
 10
63.80557995366667
 20
-126.5335340395472
 10
63.80557995366667
 20
-126.5335340395472
 10
63.80557995366667
 20
-126.8859673076882
 10
63.80557995366667
 20
-126.8859673076882
 10
63.80557995366667
 20
-126.8859673076882
 10
63.65761310257518
 20
-126.8859673076882
 10
63.65761310257518
 20
-126.8859673076882
 10
63.64279919198861
 20
-126.5311224727075
 10
63.47984617553629
 20
-126.4815130977199
 10
63.36564126020026
 20
-126.4498182192556
 10
63.36564126020026
 20
-126.4498182192556
 10
63.36564126020026
 20
-126.2937553937738
 10
63.36564126020026
 20
-126.2937553937738
 10
63.36564126020026
 20
-126.2937553937738
 10
64.9099053114635
 20
-126.2937553937738
 10
64.9099053114635
 20
-126.2937553937738
 10
64.9099053114635
 20
-126.2937553937738
 10
64.9099053114635
 20
-126.5335340395472
 10
64.9099053114635
 20
-126.5335340395472
 97
        0
 97
        0
 75
     2
 76
     1
 98
        0
  0
SPLINE
  5
E8
330
E2
100
AcDbEntity
  8
_U+30EC_U+30A4_U+30E4_U+30FC 1
370
     0
100
AcDbSpline
210
0.0
220
0.0
230
1.0
 70
    11
 71
     3
 72
    53
 73
    49
 74
     0
 42
0.0000000001
 43
0.0000000001
 12
1.0
 22
0.0
 32
0.0
 13
1.0
 23
0.0
 33
0.0
 40
0.0
 40
0.0
 40
0.0
 40
0.0
 40
1.0
 40
1.0
 40
1.0
 40
2.0
 40
2.0
 40
2.0
 40
3.0
 40
3.0
 40
3.0
 40
4.0
 40
4.0
 40
4.0
 40
5.0
 40
5.0
 40
5.0
 40
6.0
 40
6.0
 40
6.0
 40
7.0
 40
7.0
 40
7.0
 40
8.0
 40
8.0
 40
8.0
 40
9.0
 40
9.0
 40
9.0
 40
10.0
 40
10.0
 40
10.0
 40
11.0
 40
11.0
 40
11.0
 40
12.0
 40
12.0
 40
12.0
 40
13.0
 40
13.0
 40
13.0
 40
14.0
 40
14.0
 40
14.0
 40
15.0
 40
15.0
 40
15.0
 40
16.0
 40
16.0
 40
16.0
 40
16.0
 10
64.96072046987094
 20
-125.2440347994182
 30
0.0
 10
64.96072046987094
 20
-125.3274061101612
 30
0.0
 10
64.94366724721895
 20
-125.4362711274951
 30
0.0
 10
64.88027749029035
 20
-125.5444471257319
 30
0.0
 10
64.77020668953662
 20
-125.7301377723869
 30
0.0
 10
64.63912080632286
 20
-125.752530893041
 30
0.0
 10
64.53128931763455
 20
-125.772856956404
 30
0.0
 10
64.53128931763455
 20
-125.772856956404
 30
0.0
 10
64.53128931763455
 20
-125.5354898774703
 30
0.0
 10
64.53128931763455
 20
-125.5354898774703
 30
0.0
 10
64.73007132713346
 20
-125.476923254221
 30
0.0
 10
64.75969914830661
 20
-125.3411864921022
 30
0.0
 10
64.75969914830661
 20
-125.2416232325785
 30
0.0
 10
64.75969914830661
 20
-125.0924505980672
 30
0.0
 10
64.66030814355715
 20
-124.9298420911634
 30
0.0
 10
64.42759194352853
 20
-124.9298420911634
 30
0.0
 10
64.17162134897445
 20
-124.9298420911634
 30
0.0
 10
64.10185816539816
 20
-125.1217339096918
 30
0.0
 10
64.10185816539816
 20
-125.2505804808401
 30
0.0
 10
64.10185816539816
 20
-125.2846869261441
 30
0.0
 10
64.10185816539816
 20
-125.4362711274951
 30
0.0
 10
64.23087699132076
 20
-125.5310112533395
 30
0.0
 10
64.23087699132076
 20
-125.5310112533395
 30
0.0
 10
64.21175671137762
 20
-125.7187689572856
 30
0.0
 10
64.21175671137762
 20
-125.7187689572856
 30
0.0
 10
64.21175671137762
 20
-125.7187689572856
 30
0.0
 10
63.36564126020026
 20
-125.5899223861372
 30
0.0
 10
63.36564126020026
 20
-125.5899223861372
 30
0.0
 10
63.36564126020026
 20
-125.5899223861372
 30
0.0
 10
63.36564126020026
 20
-124.7579318264494
 30
0.0
 10
63.36564126020026
 20
-124.7579318264494
 30
0.0
 10
63.36564126020026
 20
-124.7579318264494
 30
0.0
 10
63.56028915511688
 20
-124.7579318264494
 30
0.0
 10
63.56028915511688
 20
-124.7579318264494
 30
0.0
 10
63.56028915511688
 20
-124.7579318264494
 30
0.0
 10
63.56028915511688
 20
-125.4156005545836
 30
0.0
 10
63.56028915511688
 20
-125.4156005545836
 30
0.0
 10
63.56028915511688
 20
-125.4156005545836
 30
0.0
 10
63.98334688070555
 20
-125.4858805024827
 30
0.0
 10
63.98334688070555
 20
-125.4858805024827
 30
0.0
 10
63.94941269017585
 20
-125.420423688263
 30
0.0
 10
63.90927732777268
 20
-125.3322292438406
 30
0.0
 10
63.90927732777268
 20
-125.2054497299834
 30
0.0
 10
63.90927732777268
 20
-124.9343207152942
 30
0.0
 10
64.09548473875044
 20
-124.6811061971283
 30
0.0
 10
64.40847166358539
 20
-124.6811061971283
 30
0.0
 10
64.72593721255116
 20
-124.6811061971283
 30
0.0
 10
64.96072046987094
 20
-124.9205403333532
 30
0.0
 10
64.96072046987094
 20
-125.2440347994182
 30
0.0
  0
HATCH
  5
E9
330
E2
100
AcDbEntity
  8
_U+30EC_U+30A4_U+30E4_U+30FC 1
 62
   179
420
  2234388
100
AcDbHatch
 10
0.0
 20
0.0
 30
0.0
210
0.0
220
0.0
230
1.0
  2
SOLID
 70
     1
 71
     0
 91
        1
 92
        1
 93
        1
 72
     4
 94
        3
 73
     0
 74
     1
 95
       53
 96
       49
 40
0.0
 40
0.0
 40
0.0
 40
0.0
 40
1.0
 40
1.0
 40
1.0
 40
2.0
 40
2.0
 40
2.0
 40
3.0
 40
3.0
 40
3.0
 40
4.0
 40
4.0
 40
4.0
 40
5.0
 40
5.0
 40
5.0
 40
6.0
 40
6.0
 40
6.0
 40
7.0
 40
7.0
 40
7.0
 40
8.0
 40
8.0
 40
8.0
 40
9.0
 40
9.0
 40
9.0
 40
10.0
 40
10.0
 40
10.0
 40
11.0
 40
11.0
 40
11.0
 40
12.0
 40
12.0
 40
12.0
 40
13.0
 40
13.0
 40
13.0
 40
14.0
 40
14.0
 40
14.0
 40
15.0
 40
15.0
 40
15.0
 40
16.0
 40
16.0
 40
16.0
 40
16.0
 10
64.96072046987094
 20
-125.2440347994182
 10
64.96072046987094
 20
-125.3274061101612
 10
64.94366724721895
 20
-125.4362711274951
 10
64.88027749029035
 20
-125.5444471257319
 10
64.77020668953662
 20
-125.7301377723869
 10
64.63912080632286
 20
-125.752530893041
 10
64.53128931763455
 20
-125.772856956404
 10
64.53128931763455
 20
-125.772856956404
 10
64.53128931763455
 20
-125.5354898774703
 10
64.53128931763455
 20
-125.5354898774703
 10
64.73007132713346
 20
-125.476923254221
 10
64.75969914830661
 20
-125.3411864921022
 10
64.75969914830661
 20
-125.2416232325785
 10
64.75969914830661
 20
-125.0924505980672
 10
64.66030814355715
 20
-124.9298420911634
 10
64.42759194352853
 20
-124.9298420911634
 10
64.17162134897445
 20
-124.9298420911634
 10
64.10185816539816
 20
-125.1217339096918
 10
64.10185816539816
 20
-125.2505804808401
 10
64.10185816539816
 20
-125.2846869261441
 10
64.10185816539816
 20
-125.4362711274951
 10
64.23087699132076
 20
-125.5310112533395
 10
64.23087699132076
 20
-125.5310112533395
 10
64.21175671137762
 20
-125.7187689572856
 10
64.21175671137762
 20
-125.7187689572856
 10
64.21175671137762
 20
-125.7187689572856
 10
63.36564126020026
 20
-125.5899223861372
 10
63.36564126020026
 20
-125.5899223861372
 10
63.36564126020026
 20
-125.5899223861372
 10
63.36564126020026
 20
-124.7579318264494
 10
63.36564126020026
 20
-124.7579318264494
 10
63.36564126020026
 20
-124.7579318264494
 10
63.56028915511688
 20
-124.7579318264494
 10
63.56028915511688
 20
-124.7579318264494
 10
63.56028915511688
 20
-124.7579318264494
 10
63.56028915511688
 20
-125.4156005545836
 10
63.56028915511688
 20
-125.4156005545836
 10
63.56028915511688
 20
-125.4156005545836
 10
63.98334688070555
 20
-125.4858805024827
 10
63.98334688070555
 20
-125.4858805024827
 10
63.94941269017585
 20
-125.420423688263
 10
63.90927732777268
 20
-125.3322292438406
 10
63.90927732777268
 20
-125.2054497299834
 10
63.90927732777268
 20
-124.9343207152942
 10
64.09548473875044
 20
-124.6811061971283
 10
64.40847166358539
 20
-124.6811061971283
 10
64.72593721255116
 20
-124.6811061971283
 10
64.96072046987094
 20
-124.9205403333532
 10
64.96072046987094
 20
-125.2440347994182
 97
        0
 97
        0
 75
     2
 76
     1
 98
        0
  0
ENDBLK
  5
E5
330
E2
100
AcDbEntity
  8
0
100
AcDbBlockEnd
  0
BLOCK
  5
FD
330
FB
100
AcDbEntity
  8
0
100
AcDbBlockBegin
  2
block 16
 70
     0
 10
0.0
 20
0.0
 30
0.0
  3
block 16
  1

  0
SPLINE
  5
FF
330
FB
100
AcDbEntity
  8
_U+30EC_U+30A4_U+30E4_U+30FC 1
370
     0
100
AcDbSpline
210
0.0
220
0.0
230
1.0
 70
    11
 71
     3
 72
   242
 73
   238
 74
     0
 42
0.0000000001
 43
0.0000000001
 12
1.0
 22
0.0
 32
0.0
 13
1.0
 23
0.0
 33
0.0
 40
0.0
 40
0.0
 40
0.0
 40
0.0
 40
1.0
 40
1.0
 40
1.0
 40
2.0
 40
2.0
 40
2.0
 40
3.0
 40
3.0
 40
3.0
 40
4.0
 40
4.0
 40
4.0
 40
5.0
 40
5.0
 40
5.0
 40
6.0
 40
6.0
 40
6.0
 40
7.0
 40
7.0
 40
7.0
 40
8.0
 40
8.0
 40
8.0
 40
9.0
 40
9.0
 40
9.0
 40
10.0
 40
10.0
 40
10.0
 40
11.0
 40
11.0
 40
11.0
 40
12.0
 40
12.0
 40
12.0
 40
13.0
 40
13.0
 40
13.0
 40
14.0
 40
14.0
 40
14.0
 40
15.0
 40
15.0
 40
15.0
 40
16.0
 40
16.0
 40
16.0
 40
17.0
 40
17.0
 40
17.0
 40
18.0
 40
18.0
 40
18.0
 40
19.0
 40
19.0
 40
19.0
 40
20.0
 40
20.0
 40
20.0
 40
21.0
 40
21.0
 40
21.0
 40
22.0
 40
22.0
 40
22.0
 40
23.0
 40
23.0
 40
23.0
 40
24.0
 40
24.0
 40
24.0
 40
25.0
 40
25.0
 40
25.0
 40
26.0
 40
26.0
 40
26.0
 40
27.0
 40
27.0
 40
27.0
 40
28.0
 40
28.0
 40
28.0
 40
29.0
 40
29.0
 40
29.0
 40
30.0
 40
30.0
 40
30.0
 40
31.0
 40
31.0
 40
31.0
 40
32.0
 40
32.0
 40
32.0
 40
33.0
 40
33.0
 40
33.0
 40
34.0
 40
34.0
 40
34.0
 40
35.0
 40
35.0
 40
35.0
 40
36.0
 40
36.0
 40
36.0
 40
37.0
 40
37.0
 40
37.0
 40
38.0
 40
38.0
 40
38.0
 40
39.0
 40
39.0
 40
39.0
 40
40.0
 40
40.0
 40
40.0
 40
41.0
 40
41.0
 40
41.0
 40
42.0
 40
42.0
 40
42.0
 40
43.0
 40
43.0
 40
43.0
 40
44.0
 40
44.0
 40
44.0
 40
45.0
 40
45.0
 40
45.0
 40
46.0
 40
46.0
 40
46.0
 40
47.0
 40
47.0
 40
47.0
 40
48.0
 40
48.0
 40
48.0
 40
49.0
 40
49.0
 40
49.0
 40
50.0
 40
50.0
 40
50.0
 40
51.0
 40
51.0
 40
51.0
 40
52.0
 40
52.0
 40
52.0
 40
53.0
 40
53.0
 40
53.0
 40
54.0
 40
54.0
 40
54.0
 40
55.0
 40
55.0
 40
55.0
 40
56.0
 40
56.0
 40
56.0
 40
57.0
 40
57.0
 40
57.0
 40
58.0
 40
58.0
 40
58.0
 40
59.0
 40
59.0
 40
59.0
 40
60.0
 40
60.0
 40
60.0
 40
61.0
 40
61.0
 40
61.0
 40
62.0
 40
62.0
 40
62.0
 40
63.0
 40
63.0
 40
63.0
 40
64.0
 40
64.0
 40
64.0
 40
65.0
 40
65.0
 40
65.0
 40
66.0
 40
66.0
 40
66.0
 40
67.0
 40
67.0
 40
67.0
 40
68.0
 40
68.0
 40
68.0
 40
69.0
 40
69.0
 40
69.0
 40
70.0
 40
70.0
 40
70.0
 40
71.0
 40
71.0
 40
71.0
 40
72.0
 40
72.0
 40
72.0
 40
73.0
 40
73.0
 40
73.0
 40
74.0
 40
74.0
 40
74.0
 40
75.0
 40
75.0
 40
75.0
 40
76.0
 40
76.0
 40
76.0
 40
77.0
 40
77.0
 40
77.0
 40
78.0
 40
78.0
 40
78.0
 40
79.0
 40
79.0
 40
79.0
 40
79.0
 10
85.39771590747002
 20
-120.019030731714
 30
0.0
 10
85.39771590747002
 20
-120.019030731714
 30
0.0
 10
85.17585175821993
 20
-120.019030731714
 30
0.0
 10
85.17585175821993
 20
-120.019030731714
 30
0.0
 10
85.17585175821993
 20
-120.019030731714
 30
0.0
 10
84.93297252650981
 20
-120.019030731714
 30
0.0
 10
84.93297252650981
 20
-120.019030731714
 30
0.0
 10
84.93297252650981
 20
-120.019030731714
 30
0.0
 10
85.04424911068338
 20
-120.0614054061826
 30
0.0
 10
85.04424911068338
 20
-120.0614054061826
 30
0.0
 10
85.05355086849356
 20
-120.0657117755391
 30
0.0
 10
85.06457517404635
 20
-120.0719129474126
 30
0.0
 10
85.06457517404635
 20
-120.084659800708
 30
0.0
 10
85.06457517404635
 20
-120.1058471379423
 30
0.0
 10
85.03666990061583
 20
-120.11222056459
 30
0.0
 10
85.01841089454402
 20
-120.1163546791723
 30
0.0
 10
85.00910913673384
 20
-120.1396090736977
 30
0.0
 10
84.98292641104594
 20
-120.2052381426918
 30
0.0
 10
84.96638995271674
 20
-120.2496798744515
 30
0.0
 10
84.96638995271674
 20
-120.2496798744515
 30
0.0
 10
85.20341252210193
 20
-120.2496798744515
 30
0.0
 10
85.20341252210193
 20
-120.2496798744515
 30
0.0
 10
85.2829942278112
 20
-120.2496798744515
 30
0.0
 10
85.45524900207369
 20
-120.2453735050949
 30
0.0
 10
85.57927243954269
 20
-120.236933021156
 30
0.0
 10
85.57927243954269
 20
-120.236933021156
 30
0.0
 10
85.57927243954269
 20
-120.4146999481949
 30
0.0
 10
85.57927243954269
 20
-120.4146999481949
 30
0.0
 10
85.50726994390097
 20
-120.4103935788384
 30
0.0
 10
85.48866642828061
 20
-120.4103935788384
 30
0.0
 10
85.3312255646047
 20
-120.4062594642561
 30
0.0
 10
85.30332029117417
 20
-120.5605997419953
 30
0.0
 10
85.26473522173937
 20
-120.6410427215759
 30
0.0
 10
85.22580564275606
 20
-120.7108059051522
 30
0.0
 10
85.3312255646047
 20
-120.7700615474985
 30
0.0
 10
85.42389863315792
 20
-120.8377576737836
 30
0.0
 10
85.51450464441999
 20
-120.9202677106554
 30
0.0
 10
85.51450464441999
 20
-120.9202677106554
 30
0.0
 10
85.41080727031397
 20
-121.08735484169
 30
0.0
 10
85.41080727031397
 20
-121.08735484169
 30
0.0
 10
85.390481206951
 20
-121.0684068165211
 30
0.0
 10
85.3794569013982
 20
-121.0599663325822
 30
0.0
 10
85.28127168006857
 20
-120.9752169836451
 30
0.0
 10
85.23855249605148
 20
-120.9371486785331
 30
0.0
 10
85.18687606377273
 20
-120.9013196854865
 30
0.0
 10
85.11659611587363
 20
-120.8568779537268
 30
0.0
 10
84.9312499787672
 20
-121.0430853647045
 30
0.0
 10
84.75176050398568
 20
-121.0663397592299
 30
0.0
 10
84.49785696672276
 20
-121.0959675804031
 30
0.0
 10
84.49785696672276
 20
-121.0959675804031
 30
0.0
 10
84.4072509554607
 20
-120.9161335960731
 30
0.0
 10
84.4072509554607
 20
-120.9161335960731
 30
0.0
 10
84.68492565157183
 20
-120.9118272267165
 30
0.0
 10
84.83857691021397
 20
-120.8865057748999
 30
0.0
 10
84.97190210549314
 20
-120.7764349741462
 30
0.0
 10
84.86820473138712
 20
-120.7256198157387
 30
0.0
 10
84.790690082969
 20
-120.698231306631
 30
0.0
 10
84.7589952045047
 20
-120.6854844533356
 30
0.0
 10
84.7424587461755
 20
-120.7130452172176
 30
0.0
 10
84.72936738333155
 20
-120.7319932423865
 30
0.0
 10
84.7052517149348
 20
-120.7659274329162
 30
0.0
 10
84.7052517149348
 20
-120.7659274329162
 30
0.0
 10
84.5329969406723
 20
-120.6834173960444
 30
0.0
 10
84.5329969406723
 20
-120.6834173960444
 30
0.0
 10
84.60534394586256
 20
-120.6029744164639
 30
0.0
 10
84.65908743543245
 20
-120.5077175262967
 30
0.0
 10
84.70904131996858
 20
-120.4062594642561
 30
0.0
 10
84.54229869848248
 20
-120.4103935788384
 30
0.0
 10
84.52403969241067
 20
-120.4103935788384
 30
0.0
 10
84.45169268722042
 20
-120.4146999481949
 30
0.0
 10
84.45169268722042
 20
-120.4146999481949
 30
0.0
 10
84.45169268722042
 20
-120.236933021156
 30
0.0
 10
84.45169268722042
 20
-120.236933021156
 30
0.0
 10
84.57399357694678
 20
-120.2433064478038
 30
0.0
 10
84.75727265676207
 20
-120.2476128171603
 30
0.0
 10
84.77932126786767
 20
-120.2476128171603
 30
0.0
 10
84.79413517845425
 20
-120.2136786266306
 30
0.0
 10
84.84236651524775
 20
-120.0931002846469
 30
0.0
 10
84.85890297357695
 20
-120.019030731714
 30
0.0
 10
84.84236651524775
 20
-120.019030731714
 30
0.0
 10
84.68664819931445
 20
-120.0254041583617
 30
0.0
 10
84.5164604823431
 20
-120.0381510116571
 30
0.0
 10
84.5164604823431
 20
-120.0381510116571
 30
0.0
 10
84.5164604823431
 20
-120.1714762069363
 30
0.0
 10
84.5164604823431
 20
-120.1714762069363
 30
0.0
 10
84.47374129832602
 20
-120.1967976587529
 30
0.0
 10
84.42206486604726
 20
-120.2284925372172
 30
0.0
 10
84.3052761290973
 20
-120.2941216062112
 30
0.0
 10
84.3052761290973
 20
-120.2941216062112
 30
0.0
 10
84.3052761290973
 20
-120.4400214000115
 30
0.0
 10
84.3052761290973
 20
-120.4400214000115
 30
0.0
 10
84.3052761290973
 20
-120.4400214000115
 30
0.0
 10
84.3052761290973
 20
-120.9076931121342
 30
0.0
 10
84.3052761290973
 20
-120.9076931121342
 30
0.0
 10
84.3052761290973
 20
-121.0344726259914
 30
0.0
 10
84.27392576018153
 20
-121.0937282683377
 30
0.0
 10
84.02587888524353
 20
-121.0852877843988
 30
0.0
 10
84.02587888524353
 20
-121.0852877843988
 30
0.0
 10
83.93492836443293
 20
-120.878065290961
 30
0.0
 10
83.93492836443293
 20
-120.878065290961
 30
0.0
 10
83.99073891129399
 20
-120.8906398894822
 30
0.0
 10
84.03311358576256
 20
-120.8949462588388
 30
0.0
 10
84.0682535597121
 20
-120.8949462588388
 30
0.0
 10
84.13508841212595
 20
-120.8949462588388
 30
0.0
 10
84.14439016993613
 20
-120.8716918643133
 30
0.0
 10
84.14439016993613
 20
-120.8060627953193
 30
0.0
 10
84.14439016993613
 20
-120.8060627953193
 30
0.0
 10
84.14439016993613
 20
-120.3766316430829
 30
0.0
 10
84.14439016993613
 20
-120.3766316430829
 30
0.0
 10
84.05895180190193
 20
-120.4167670054861
 30
0.0
 10
84.04413789131536
 20
-120.4231404321338
 30
0.0
 10
84.00348576458941
 20
-120.4422607120769
 30
0.0
 10
83.99969615955564
 20
-120.463275794537
 30
0.0
 10
83.99625106407039
 20
-120.4929036157101
 30
0.0
 10
83.97937009619267
 20
-120.4929036157101
 30
0.0
 10
83.97213539567363
 20
-120.4929036157101
 30
0.0
 10
83.96283363786347
 20
-120.4887695011278
 30
0.0
 10
83.95732148508706
 20
-120.4655151066024
 30
0.0
 10
83.95732148508706
 20
-120.4655151066024
 30
0.0
 10
83.91081269603619
 20
-120.2729342689769
 30
0.0
 10
83.91081269603619
 20
-120.2729342689769
 30
0.0
 10
84.03862573853895
 20
-120.226425479926
 30
0.0
 10
84.09615883314262
 20
-120.2031710854006
 30
0.0
 10
84.14439016993613
 20
-120.1819837481663
 30
0.0
 10
84.14439016993613
 20
-120.1819837481663
 30
0.0
 10
84.14439016993613
 20
-119.7694335638077
 30
0.0
 10
84.14439016993613
 20
-119.7694335638077
 30
0.0
 10
84.14439016993613
 20
-119.7694335638077
 30
0.0
 10
84.09788138088525
 20
-119.7694335638077
 30
0.0
 10
84.09788138088525
 20
-119.7694335638077
 30
0.0
 10
84.09788138088525
 20
-119.7694335638077
 30
0.0
 10
84.02932398072879
 20
-119.7694335638077
 30
0.0
 10
84.02932398072879
 20
-119.7694335638077
 30
0.0
 10
83.97006833838249
 20
-119.7694335638077
 30
0.0
 10
83.96283363786347
 20
-119.7694335638077
 30
0.0
 10
83.93148326894769
 20
-119.7758069904554
 30
0.0
 10
83.93148326894769
 20
-119.7758069904554
 30
0.0
 10
83.93148326894769
 20
-119.5811590955387
 30
0.0
 10
83.93148326894769
 20
-119.5811590955387
 30
0.0
 10
83.95525442779591
 20
-119.5875325221865
 30
0.0
 10
83.96283363786347
 20
-119.5875325221865
 30
0.0
 10
84.02381182795239
 20
-119.5875325221865
 30
0.0
 10
84.02381182795239
 20
-119.5875325221865
 30
0.0
 10
84.14060056490236
 20
-119.5875325221865
 30
0.0
 10
84.14060056490236
 20
-119.5875325221865
 30
0.0
 10
84.14060056490236
 20
-119.5177693386102
 30
0.0
 10
84.14060056490236
 20
-119.4352593017384
 30
0.0
 10
84.13887801715973
 20
-119.4309529323819
 30
0.0
 10
84.13129880709218
 20
-119.2511189480518
 30
0.0
 10
84.13129880709218
 20
-119.2321709228829
 30
0.0
 10
84.12957625934955
 20
-119.1856621338321
 30
0.0
 10
84.12957625934955
 20
-119.1856621338321
 30
0.0
 10
84.31836749194125
 20
-119.1941026177709
 30
0.0
 10
84.31836749194125
 20
-119.1941026177709
 30
0.0
 10
84.32766924975142
 20
-119.1941026177709
 30
0.0
 10
84.34627276537176
 20
-119.1961696750621
 30
0.0
 10
84.34627276537176
 20
-119.2130506429398
 30
0.0
 10
84.34627276537176
 20
-119.2321709228829
 30
0.0
 10
84.33318140252781
 20
-119.2426784641129
 30
0.0
 10
84.3107882818737
 20
-119.2617987440561
 30
0.0
 10
84.3107882818737
 20
-119.3124416476893
 30
0.0
 10
84.3052761290973
 20
-119.5410237331356
 30
0.0
 10
84.30734318638845
 20
-119.5875325221865
 30
0.0
 10
84.41999780875612
 20
-119.5875325221865
 30
0.0
 10
84.43136662385744
 20
-119.5875325221865
 30
0.0
 10
84.5164604823431
 20
-119.5790920382476
 30
0.0
 10
84.5164604823431
 20
-119.5790920382476
 30
0.0
 10
84.5164604823431
 20
-119.7737399331642
 30
0.0
 10
84.5164604823431
 20
-119.7737399331642
 30
0.0
 10
84.48304305613618
 20
-119.7715006210988
 30
0.0
 10
84.4237874137899
 20
-119.7673665065165
 30
0.0
 10
84.3052761290973
 20
-119.7694335638077
 30
0.0
 10
84.3052761290973
 20
-119.7694335638077
 30
0.0
 10
84.3052761290973
 20
-120.1079141952334
 30
0.0
 10
84.3052761290973
 20
-120.1079141952334
 30
0.0
 10
84.3535074658908
 20
-120.084659800708
 30
0.0
 10
84.41104056049447
 20
-120.057099036826
 30
0.0
 10
84.45341523496305
 20
-120.0338446423006
 30
0.0
 10
84.45341523496305
 20
-120.0338446423006
 30
0.0
 10
84.45341523496305
 20
-119.8562499700359
 30
0.0
 10
84.45341523496305
 20
-119.8562499700359
 30
0.0
 10
84.5536675135838
 20
-119.8688245685571
 30
0.0
 10
84.65702037814131
 20
-119.8688245685571
 30
0.0
 10
84.7589952045047
 20
-119.8688245685571
 30
0.0
 10
84.73866914114173
 20
-119.7737399331642
 30
0.0
 10
84.71455347274498
 20
-119.6912298962925
 30
0.0
 10
84.65908743543245
 20
-119.5579047010133
 30
0.0
 10
84.62015785644913
 20
-119.5599717583045
 30
0.0
 10
84.54781085125889
 20
-119.564278127661
 30
0.0
 10
84.51473793460049
 20
-119.5663451849522
 30
0.0
 10
84.51473793460049
 20
-119.5663451849522
 30
0.0
 10
84.51473793460049
 20
-119.3865112006221
 30
0.0
 10
84.51473793460049
 20
-119.3865112006221
 30
0.0
 10
84.6239474614829
 20
-119.394951684561
 30
0.0
 10
84.7755316628339
 20
-119.3992580539175
 30
0.0
 10
84.84787866802415
 20
-119.3992580539175
 30
0.0
 10
84.84787866802415
 20
-119.3992580539175
 30
0.0
 10
84.92022567321439
 20
-119.3992580539175
 30
0.0
 10
84.92022567321439
 20
-119.3992580539175
 30
0.0
 10
84.92022567321439
 20
-119.2363050374652
 30
0.0
 10
84.92022567321439
 20
-119.2257974962352
 30
0.0
 10
84.91815861592325
 20
-119.1708482232455
 30
0.0
 10
84.91815861592325
 20
-119.1708482232455
 30
0.0
 10
85.11452905858248
 20
-119.1961696750621
 30
0.0
 10
85.11452905858248
 20
-119.1961696750621
 30
0.0
 10
85.11831866361626
 20
-119.1961696750621
 30
0.0
 10
85.1369221792366
 20
-119.1982367323532
 30
0.0
 10
85.1369221792366
 20
-119.2151177002309
 30
0.0
 10
85.1369221792366
 20
-119.2299316108175
 30
0.0
 10
85.12762042142643
 20
-119.2385443495306
 30
0.0
 10
85.10350475302968
 20
-119.2533582601172
 30
0.0
 10
85.09799260025328
 20
-119.318815074337
 30
0.0
 10
85.09592554296214
 20
-119.3400024115712
 30
0.0
 10
85.09592554296214
 20
-119.3992580539175
 30
0.0
 10
85.09592554296214
 20
-119.3992580539175
 30
0.0
 10
85.17929685370518
 20
-119.3992580539175
 30
0.0
 10
85.17929685370518
 20
-119.3992580539175
 30
0.0
 10
85.25164385889542
 20
-119.3992580539175
 30
0.0
 10
85.40357256979495
 20
-119.394951684561
 30
0.0
 10
85.51278209667737
 20
-119.3865112006221
 30
0.0
 10
85.51278209667737
 20
-119.3865112006221
 30
0.0
 10
85.51278209667737
 20
-119.5663451849522
 30
0.0
 10
85.51278209667737
 20
-119.5663451849522
 30
0.0
 10
85.48659937098947
 20
-119.564278127661
 30
0.0
 10
85.38324650643197
 20
-119.5599717583045
 30
0.0
 10
85.34776202293389
 20
-119.5579047010133
 30
0.0
 10
85.33501516963847
 20
-119.6087198594207
 30
0.0
 10
85.30538734846532
 20
-119.7208577174656
 30
0.0
 10
85.24785425386165
 20
-119.8603840846182
 30
0.0
 10
85.28506128510234
 20
-119.8603840846182
 30
0.0
 10
85.52759600726394
 20
-119.8414360594494
 30
0.0
 10
85.58133949683383
 20
-119.839196747384
 30
0.0
 10
85.58133949683383
 20
-119.839196747384
 30
0.0
 10
85.58133949683383
 20
-120.0233371010706
 30
0.0
 10
85.58133949683383
 20
-120.0233371010706
 30
0.0
 10
85.55515677114593
 20
-120.0233371010706
 30
0.0
 10
85.54034286055936
 20
-120.019030731714
 30
0.0
 10
85.39771590747002
 20
-120.019030731714
 30
0.0
  0
SPLINE
  5
100
330
FB
100
AcDbEntity
  8
_U+30EC_U+30A4_U+30E4_U+30FC 1
370
     0
100
AcDbSpline
210
0.0
220
0.0
230
1.0
 70
    11
 71
     3
 72
    20
 73
    16
 74
     0
 42
0.0000000001
 43
0.0000000001
 12
1.0
 22
0.0
 32
0.0
 13
1.0
 23
0.0
 33
0.0
 40
0.0
 40
0.0
 40
0.0
 40
0.0
 40
1.0
 40
1.0
 40
1.0
 40
2.0
 40
2.0
 40
2.0
 40
3.0
 40
3.0
 40
3.0
 40
4.0
 40
4.0
 40
4.0
 40
5.0
 40
5.0
 40
5.0
 40
5.0
 10
84.84787866802415
 20
-119.553770586431
 30
0.0
 10
84.84787866802415
 20
-119.553770586431
 30
0.0
 10
84.82031790414214
 20
-119.553770586431
 30
0.0
 10
84.82031790414214
 20
-119.553770586431
 30
0.0
 10
84.86097003086809
 20
-119.6531615911805
 30
0.0
 10
84.8885307947501
 20
-119.7334323159868
 30
0.0
 10
84.91815861592325
 20
-119.8603840846182
 30
0.0
 10
84.91815861592325
 20
-119.8603840846182
 30
0.0
 10
85.09971514799591
 20
-119.8603840846182
 30
0.0
 10
85.09971514799591
 20
-119.8603840846182
 30
0.0
 10
85.12762042142643
 20
-119.7673665065165
 30
0.0
 10
85.1479464847894
 20
-119.6827894123536
 30
0.0
 10
85.16827254815237
 20
-119.553770586431
 30
0.0
 10
85.16827254815237
 20
-119.553770586431
 30
0.0
 10
84.84787866802415
 20
-119.553770586431
 30
0.0
 10
84.84787866802415
 20
-119.553770586431
 30
0.0
  0
SPLINE
  5
101
330
FB
100
AcDbEntity
  8
_U+30EC_U+30A4_U+30E4_U+30FC 1
370
     0
100
AcDbSpline
210
0.0
220
0.0
230
1.0
 70
    11
 71
     3
 72
    17
 73
    13
 74
     0
 42
0.0000000001
 43
0.0000000001
 12
1.0
 22
0.0
 32
0.0
 13
1.0
 23
0.0
 33
0.0
 40
0.0
 40
0.0
 40
0.0
 40
0.0
 40
1.0
 40
1.0
 40
1.0
 40
2.0
 40
2.0
 40
2.0
 40
3.0
 40
3.0
 40
3.0
 40
4.0
 40
4.0
 40
4.0
 40
4.0
 10
84.90334470533666
 20
-120.4041924069649
 30
0.0
 10
84.8885307947501
 20
-120.4336479733638
 30
0.0
 10
84.84408906299036
 20
-120.5268378062398
 30
0.0
 10
84.8347873051802
 20
-120.5457858314087
 30
0.0
 10
85.0015299266663
 20
-120.605041473755
 30
0.0
 10
85.02013344228664
 20
-120.6114149004027
 30
0.0
 10
85.08317868966671
 20
-120.6389756642847
 30
0.0
 10
85.13106551691168
 20
-120.5521592580564
 30
0.0
 10
85.15173608982317
 20
-120.4780897051235
 30
0.0
 10
85.1644829431186
 20
-120.4041924069649
 30
0.0
 10
85.1644829431186
 20
-120.4041924069649
 30
0.0
 10
84.90334470533666
 20
-120.4041924069649
 30
0.0
 10
84.90334470533666
 20
-120.4041924069649
 30
0.0
  0
HATCH
  5
102
330
FB
100
AcDbEntity
  8
_U+30EC_U+30A4_U+30E4_U+30FC 1
 62
   179
420
  2234388
100
AcDbHatch
 10
0.0
 20
0.0
 30
0.0
210
0.0
220
0.0
230
1.0
  2
SOLID
 70
     1
 71
     0
 91
        3
 92
        1
 93
        1
 72
     4
 94
        3
 73
     0
 74
     1
 95
      242
 96
      238
 40
0.0
 40
0.0
 40
0.0
 40
0.0
 40
1.0
 40
1.0
 40
1.0
 40
2.0
 40
2.0
 40
2.0
 40
3.0
 40
3.0
 40
3.0
 40
4.0
 40
4.0
 40
4.0
 40
5.0
 40
5.0
 40
5.0
 40
6.0
 40
6.0
 40
6.0
 40
7.0
 40
7.0
 40
7.0
 40
8.0
 40
8.0
 40
8.0
 40
9.0
 40
9.0
 40
9.0
 40
10.0
 40
10.0
 40
10.0
 40
11.0
 40
11.0
 40
11.0
 40
12.0
 40
12.0
 40
12.0
 40
13.0
 40
13.0
 40
13.0
 40
14.0
 40
14.0
 40
14.0
 40
15.0
 40
15.0
 40
15.0
 40
16.0
 40
16.0
 40
16.0
 40
17.0
 40
17.0
 40
17.0
 40
18.0
 40
18.0
 40
18.0
 40
19.0
 40
19.0
 40
19.0
 40
20.0
 40
20.0
 40
20.0
 40
21.0
 40
21.0
 40
21.0
 40
22.0
 40
22.0
 40
22.0
 40
23.0
 40
23.0
 40
23.0
 40
24.0
 40
24.0
 40
24.0
 40
25.0
 40
25.0
 40
25.0
 40
26.0
 40
26.0
 40
26.0
 40
27.0
 40
27.0
 40
27.0
 40
28.0
 40
28.0
 40
28.0
 40
29.0
 40
29.0
 40
29.0
 40
30.0
 40
30.0
 40
30.0
 40
31.0
 40
31.0
 40
31.0
 40
32.0
 40
32.0
 40
32.0
 40
33.0
 40
33.0
 40
33.0
 40
34.0
 40
34.0
 40
34.0
 40
35.0
 40
35.0
 40
35.0
 40
36.0
 40
36.0
 40
36.0
 40
37.0
 40
37.0
 40
37.0
 40
38.0
 40
38.0
 40
38.0
 40
39.0
 40
39.0
 40
39.0
 40
40.0
 40
40.0
 40
40.0
 40
41.0
 40
41.0
 40
41.0
 40
42.0
 40
42.0
 40
42.0
 40
43.0
 40
43.0
 40
43.0
 40
44.0
 40
44.0
 40
44.0
 40
45.0
 40
45.0
 40
45.0
 40
46.0
 40
46.0
 40
46.0
 40
47.0
 40
47.0
 40
47.0
 40
48.0
 40
48.0
 40
48.0
 40
49.0
 40
49.0
 40
49.0
 40
50.0
 40
50.0
 40
50.0
 40
51.0
 40
51.0
 40
51.0
 40
52.0
 40
52.0
 40
52.0
 40
53.0
 40
53.0
 40
53.0
 40
54.0
 40
54.0
 40
54.0
 40
55.0
 40
55.0
 40
55.0
 40
56.0
 40
56.0
 40
56.0
 40
57.0
 40
57.0
 40
57.0
 40
58.0
 40
58.0
 40
58.0
 40
59.0
 40
59.0
 40
59.0
 40
60.0
 40
60.0
 40
60.0
 40
61.0
 40
61.0
 40
61.0
 40
62.0
 40
62.0
 40
62.0
 40
63.0
 40
63.0
 40
63.0
 40
64.0
 40
64.0
 40
64.0
 40
65.0
 40
65.0
 40
65.0
 40
66.0
 40
66.0
 40
66.0
 40
67.0
 40
67.0
 40
67.0
 40
68.0
 40
68.0
 40
68.0
 40
69.0
 40
69.0
 40
69.0
 40
70.0
 40
70.0
 40
70.0
 40
71.0
 40
71.0
 40
71.0
 40
72.0
 40
72.0
 40
72.0
 40
73.0
 40
73.0
 40
73.0
 40
74.0
 40
74.0
 40
74.0
 40
75.0
 40
75.0
 40
75.0
 40
76.0
 40
76.0
 40
76.0
 40
77.0
 40
77.0
 40
77.0
 40
78.0
 40
78.0
 40
78.0
 40
79.0
 40
79.0
 40
79.0
 40
79.0
 10
85.39771590747002
 20
-120.019030731714
 10
85.39771590747002
 20
-120.019030731714
 10
85.17585175821993
 20
-120.019030731714
 10
85.17585175821993
 20
-120.019030731714
 10
85.17585175821993
 20
-120.019030731714
 10
84.93297252650981
 20
-120.019030731714
 10
84.93297252650981
 20
-120.019030731714
 10
84.93297252650981
 20
-120.019030731714
 10
85.04424911068338
 20
-120.0614054061826
 10
85.04424911068338
 20
-120.0614054061826
 10
85.05355086849356
 20
-120.0657117755391
 10
85.06457517404635
 20
-120.0719129474126
 10
85.06457517404635
 20
-120.084659800708
 10
85.06457517404635
 20
-120.1058471379423
 10
85.03666990061583
 20
-120.11222056459
 10
85.01841089454402
 20
-120.1163546791723
 10
85.00910913673384
 20
-120.1396090736977
 10
84.98292641104594
 20
-120.2052381426918
 10
84.96638995271674
 20
-120.2496798744515
 10
84.96638995271674
 20
-120.2496798744515
 10
85.20341252210193
 20
-120.2496798744515
 10
85.20341252210193
 20
-120.2496798744515
 10
85.2829942278112
 20
-120.2496798744515
 10
85.45524900207369
 20
-120.2453735050949
 10
85.57927243954269
 20
-120.236933021156
 10
85.57927243954269
 20
-120.236933021156
 10
85.57927243954269
 20
-120.4146999481949
 10
85.57927243954269
 20
-120.4146999481949
 10
85.50726994390097
 20
-120.4103935788384
 10
85.48866642828061
 20
-120.4103935788384
 10
85.3312255646047
 20
-120.4062594642561
 10
85.30332029117417
 20
-120.5605997419953
 10
85.26473522173937
 20
-120.6410427215759
 10
85.22580564275606
 20
-120.7108059051522
 10
85.3312255646047
 20
-120.7700615474985
 10
85.42389863315792
 20
-120.8377576737836
 10
85.51450464441999
 20
-120.9202677106554
 10
85.51450464441999
 20
-120.9202677106554
 10
85.41080727031397
 20
-121.08735484169
 10
85.41080727031397
 20
-121.08735484169
 10
85.390481206951
 20
-121.0684068165211
 10
85.3794569013982
 20
-121.0599663325822
 10
85.28127168006857
 20
-120.9752169836451
 10
85.23855249605148
 20
-120.9371486785331
 10
85.18687606377273
 20
-120.9013196854865
 10
85.11659611587363
 20
-120.8568779537268
 10
84.9312499787672
 20
-121.0430853647045
 10
84.75176050398568
 20
-121.0663397592299
 10
84.49785696672276
 20
-121.0959675804031
 10
84.49785696672276
 20
-121.0959675804031
 10
84.4072509554607
 20
-120.9161335960731
 10
84.4072509554607
 20
-120.9161335960731
 10
84.68492565157183
 20
-120.9118272267165
 10
84.83857691021397
 20
-120.8865057748999
 10
84.97190210549314
 20
-120.7764349741462
 10
84.86820473138712
 20
-120.7256198157387
 10
84.790690082969
 20
-120.698231306631
 10
84.7589952045047
 20
-120.6854844533356
 10
84.7424587461755
 20
-120.7130452172176
 10
84.72936738333155
 20
-120.7319932423865
 10
84.7052517149348
 20
-120.7659274329162
 10
84.7052517149348
 20
-120.7659274329162
 10
84.5329969406723
 20
-120.6834173960444
 10
84.5329969406723
 20
-120.6834173960444
 10
84.60534394586256
 20
-120.6029744164639
 10
84.65908743543245
 20
-120.5077175262967
 10
84.70904131996858
 20
-120.4062594642561
 10
84.54229869848248
 20
-120.4103935788384
 10
84.52403969241067
 20
-120.4103935788384
 10
84.45169268722042
 20
-120.4146999481949
 10
84.45169268722042
 20
-120.4146999481949
 10
84.45169268722042
 20
-120.236933021156
 10
84.45169268722042
 20
-120.236933021156
 10
84.57399357694678
 20
-120.2433064478038
 10
84.75727265676207
 20
-120.2476128171603
 10
84.77932126786767
 20
-120.2476128171603
 10
84.79413517845425
 20
-120.2136786266306
 10
84.84236651524775
 20
-120.0931002846469
 10
84.85890297357695
 20
-120.019030731714
 10
84.84236651524775
 20
-120.019030731714
 10
84.68664819931445
 20
-120.0254041583617
 10
84.5164604823431
 20
-120.0381510116571
 10
84.5164604823431
 20
-120.0381510116571
 10
84.5164604823431
 20
-120.1714762069363
 10
84.5164604823431
 20
-120.1714762069363
 10
84.47374129832602
 20
-120.1967976587529
 10
84.42206486604726
 20
-120.2284925372172
 10
84.3052761290973
 20
-120.2941216062112
 10
84.3052761290973
 20
-120.2941216062112
 10
84.3052761290973
 20
-120.4400214000115
 10
84.3052761290973
 20
-120.4400214000115
 10
84.3052761290973
 20
-120.4400214000115
 10
84.3052761290973
 20
-120.9076931121342
 10
84.3052761290973
 20
-120.9076931121342
 10
84.3052761290973
 20
-121.0344726259914
 10
84.27392576018153
 20
-121.0937282683377
 10
84.02587888524353
 20
-121.0852877843988
 10
84.02587888524353
 20
-121.0852877843988
 10
83.93492836443293
 20
-120.878065290961
 10
83.93492836443293
 20
-120.878065290961
 10
83.99073891129399
 20
-120.8906398894822
 10
84.03311358576256
 20
-120.8949462588388
 10
84.0682535597121
 20
-120.8949462588388
 10
84.13508841212595
 20
-120.8949462588388
 10
84.14439016993613
 20
-120.8716918643133
 10
84.14439016993613
 20
-120.8060627953193
 10
84.14439016993613
 20
-120.8060627953193
 10
84.14439016993613
 20
-120.3766316430829
 10
84.14439016993613
 20
-120.3766316430829
 10
84.05895180190193
 20
-120.4167670054861
 10
84.04413789131536
 20
-120.4231404321338
 10
84.00348576458941
 20
-120.4422607120769
 10
83.99969615955564
 20
-120.463275794537
 10
83.99625106407039
 20
-120.4929036157101
 10
83.97937009619267
 20
-120.4929036157101
 10
83.97213539567363
 20
-120.4929036157101
 10
83.96283363786347
 20
-120.4887695011278
 10
83.95732148508706
 20
-120.4655151066024
 10
83.95732148508706
 20
-120.4655151066024
 10
83.91081269603619
 20
-120.2729342689769
 10
83.91081269603619
 20
-120.2729342689769
 10
84.03862573853895
 20
-120.226425479926
 10
84.09615883314262
 20
-120.2031710854006
 10
84.14439016993613
 20
-120.1819837481663
 10
84.14439016993613
 20
-120.1819837481663
 10
84.14439016993613
 20
-119.7694335638077
 10
84.14439016993613
 20
-119.7694335638077
 10
84.14439016993613
 20
-119.7694335638077
 10
84.09788138088525
 20
-119.7694335638077
 10
84.09788138088525
 20
-119.7694335638077
 10
84.09788138088525
 20
-119.7694335638077
 10
84.02932398072879
 20
-119.7694335638077
 10
84.02932398072879
 20
-119.7694335638077
 10
83.97006833838249
 20
-119.7694335638077
 10
83.96283363786347
 20
-119.7694335638077
 10
83.93148326894769
 20
-119.7758069904554
 10
83.93148326894769
 20
-119.7758069904554
 10
83.93148326894769
 20
-119.5811590955387
 10
83.93148326894769
 20
-119.5811590955387
 10
83.95525442779591
 20
-119.5875325221865
 10
83.96283363786347
 20
-119.5875325221865
 10
84.02381182795239
 20
-119.5875325221865
 10
84.02381182795239
 20
-119.5875325221865
 10
84.14060056490236
 20
-119.5875325221865
 10
84.14060056490236
 20
-119.5875325221865
 10
84.14060056490236
 20
-119.5177693386102
 10
84.14060056490236
 20
-119.4352593017384
 10
84.13887801715973
 20
-119.4309529323819
 10
84.13129880709218
 20
-119.2511189480518
 10
84.13129880709218
 20
-119.2321709228829
 10
84.12957625934955
 20
-119.1856621338321
 10
84.12957625934955
 20
-119.1856621338321
 10
84.31836749194125
 20
-119.1941026177709
 10
84.31836749194125
 20
-119.1941026177709
 10
84.32766924975142
 20
-119.1941026177709
 10
84.34627276537176
 20
-119.1961696750621
 10
84.34627276537176
 20
-119.2130506429398
 10
84.34627276537176
 20
-119.2321709228829
 10
84.33318140252781
 20
-119.2426784641129
 10
84.3107882818737
 20
-119.2617987440561
 10
84.3107882818737
 20
-119.3124416476893
 10
84.3052761290973
 20
-119.5410237331356
 10
84.30734318638845
 20
-119.5875325221865
 10
84.41999780875612
 20
-119.5875325221865
 10
84.43136662385744
 20
-119.5875325221865
 10
84.5164604823431
 20
-119.5790920382476
 10
84.5164604823431
 20
-119.5790920382476
 10
84.5164604823431
 20
-119.7737399331642
 10
84.5164604823431
 20
-119.7737399331642
 10
84.48304305613618
 20
-119.7715006210988
 10
84.4237874137899
 20
-119.7673665065165
 10
84.3052761290973
 20
-119.7694335638077
 10
84.3052761290973
 20
-119.7694335638077
 10
84.3052761290973
 20
-120.1079141952334
 10
84.3052761290973
 20
-120.1079141952334
 10
84.3535074658908
 20
-120.084659800708
 10
84.41104056049447
 20
-120.057099036826
 10
84.45341523496305
 20
-120.0338446423006
 10
84.45341523496305
 20
-120.0338446423006
 10
84.45341523496305
 20
-119.8562499700359
 10
84.45341523496305
 20
-119.8562499700359
 10
84.5536675135838
 20
-119.8688245685571
 10
84.65702037814131
 20
-119.8688245685571
 10
84.7589952045047
 20
-119.8688245685571
 10
84.73866914114173
 20
-119.7737399331642
 10
84.71455347274498
 20
-119.6912298962925
 10
84.65908743543245
 20
-119.5579047010133
 10
84.62015785644913
 20
-119.5599717583045
 10
84.54781085125889
 20
-119.564278127661
 10
84.51473793460049
 20
-119.5663451849522
 10
84.51473793460049
 20
-119.5663451849522
 10
84.51473793460049
 20
-119.3865112006221
 10
84.51473793460049
 20
-119.3865112006221
 10
84.6239474614829
 20
-119.394951684561
 10
84.7755316628339
 20
-119.3992580539175
 10
84.84787866802415
 20
-119.3992580539175
 10
84.84787866802415
 20
-119.3992580539175
 10
84.92022567321439
 20
-119.3992580539175
 10
84.92022567321439
 20
-119.3992580539175
 10
84.92022567321439
 20
-119.2363050374652
 10
84.92022567321439
 20
-119.2257974962352
 10
84.91815861592325
 20
-119.1708482232455
 10
84.91815861592325
 20
-119.1708482232455
 10
85.11452905858248
 20
-119.1961696750621
 10
85.11452905858248
 20
-119.1961696750621
 10
85.11831866361626
 20
-119.1961696750621
 10
85.1369221792366
 20
-119.1982367323532
 10
85.1369221792366
 20
-119.2151177002309
 10
85.1369221792366
 20
-119.2299316108175
 10
85.12762042142643
 20
-119.2385443495306
 10
85.10350475302968
 20
-119.2533582601172
 10
85.09799260025328
 20
-119.318815074337
 10
85.09592554296214
 20
-119.3400024115712
 10
85.09592554296214
 20
-119.3992580539175
 10
85.09592554296214
 20
-119.3992580539175
 10
85.17929685370518
 20
-119.3992580539175
 10
85.17929685370518
 20
-119.3992580539175
 10
85.25164385889542
 20
-119.3992580539175
 10
85.40357256979495
 20
-119.394951684561
 10
85.51278209667737
 20
-119.3865112006221
 10
85.51278209667737
 20
-119.3865112006221
 10
85.51278209667737
 20
-119.5663451849522
 10
85.51278209667737
 20
-119.5663451849522
 10
85.48659937098947
 20
-119.564278127661
 10
85.38324650643197
 20
-119.5599717583045
 10
85.34776202293389
 20
-119.5579047010133
 10
85.33501516963847
 20
-119.6087198594207
 10
85.30538734846532
 20
-119.7208577174656
 10
85.24785425386165
 20
-119.8603840846182
 10
85.28506128510234
 20
-119.8603840846182
 10
85.52759600726394
 20
-119.8414360594494
 10
85.58133949683383
 20
-119.839196747384
 10
85.58133949683383
 20
-119.839196747384
 10
85.58133949683383
 20
-120.0233371010706
 10
85.58133949683383
 20
-120.0233371010706
 10
85.55515677114593
 20
-120.0233371010706
 10
85.54034286055936
 20
-120.019030731714
 10
85.39771590747002
 20
-120.019030731714
 97
        0
 97
        0
 92
        1
 93
        1
 72
     4
 94
        3
 73
     0
 74
     1
 95
       20
 96
       16
 40
0.0
 40
0.0
 40
0.0
 40
0.0
 40
1.0
 40
1.0
 40
1.0
 40
2.0
 40
2.0
 40
2.0
 40
3.0
 40
3.0
 40
3.0
 40
4.0
 40
4.0
 40
4.0
 40
5.0
 40
5.0
 40
5.0
 40
5.0
 10
84.84787866802415
 20
-119.553770586431
 10
84.84787866802415
 20
-119.553770586431
 10
84.82031790414214
 20
-119.553770586431
 10
84.82031790414214
 20
-119.553770586431
 10
84.86097003086809
 20
-119.6531615911805
 10
84.8885307947501
 20
-119.7334323159868
 10
84.91815861592325
 20
-119.8603840846182
 10
84.91815861592325
 20
-119.8603840846182
 10
85.09971514799591
 20
-119.8603840846182
 10
85.09971514799591
 20
-119.8603840846182
 10
85.12762042142643
 20
-119.7673665065165
 10
85.1479464847894
 20
-119.6827894123536
 10
85.16827254815237
 20
-119.553770586431
 10
85.16827254815237
 20
-119.553770586431
 10
84.84787866802415
 20
-119.553770586431
 10
84.84787866802415
 20
-119.553770586431
 97
        0
 97
        0
 92
        1
 93
        1
 72
     4
 94
        3
 73
     0
 74
     1
 95
       17
 96
       13
 40
0.0
 40
0.0
 40
0.0
 40
0.0
 40
1.0
 40
1.0
 40
1.0
 40
2.0
 40
2.0
 40
2.0
 40
3.0
 40
3.0
 40
3.0
 40
4.0
 40
4.0
 40
4.0
 40
4.0
 10
84.90334470533666
 20
-120.4041924069649
 10
84.8885307947501
 20
-120.4336479733638
 10
84.84408906299036
 20
-120.5268378062398
 10
84.8347873051802
 20
-120.5457858314087
 10
85.0015299266663
 20
-120.605041473755
 10
85.02013344228664
 20
-120.6114149004027
 10
85.08317868966671
 20
-120.6389756642847
 10
85.13106551691168
 20
-120.5521592580564
 10
85.15173608982317
 20
-120.4780897051235
 10
85.1644829431186
 20
-120.4041924069649
 10
85.1644829431186
 20
-120.4041924069649
 10
84.90334470533666
 20
-120.4041924069649
 10
84.90334470533666
 20
-120.4041924069649
 97
        0
 97
        0
 75
     2
 76
     1
 98
        0
  0
SPLINE
  5
103
330
FB
100
AcDbEntity
  8
_U+30EC_U+30A4_U+30E4_U+30FC 1
370
     0
100
AcDbSpline
210
0.0
220
0.0
230
1.0
 70
    11
 71
     3
 72
   203
 73
   199
 74
     0
 42
0.0000000001
 43
0.0000000001
 12
1.0
 22
0.0
 32
0.0
 13
1.0
 23
0.0
 33
0.0
 40
0.0
 40
0.0
 40
0.0
 40
0.0
 40
1.0
 40
1.0
 40
1.0
 40
2.0
 40
2.0
 40
2.0
 40
3.0
 40
3.0
 40
3.0
 40
4.0
 40
4.0
 40
4.0
 40
5.0
 40
5.0
 40
5.0
 40
6.0
 40
6.0
 40
6.0
 40
7.0
 40
7.0
 40
7.0
 40
8.0
 40
8.0
 40
8.0
 40
9.0
 40
9.0
 40
9.0
 40
10.0
 40
10.0
 40
10.0
 40
11.0
 40
11.0
 40
11.0
 40
12.0
 40
12.0
 40
12.0
 40
13.0
 40
13.0
 40
13.0
 40
14.0
 40
14.0
 40
14.0
 40
15.0
 40
15.0
 40
15.0
 40
16.0
 40
16.0
 40
16.0
 40
17.0
 40
17.0
 40
17.0
 40
18.0
 40
18.0
 40
18.0
 40
19.0
 40
19.0
 40
19.0
 40
20.0
 40
20.0
 40
20.0
 40
21.0
 40
21.0
 40
21.0
 40
22.0
 40
22.0
 40
22.0
 40
23.0
 40
23.0
 40
23.0
 40
24.0
 40
24.0
 40
24.0
 40
25.0
 40
25.0
 40
25.0
 40
26.0
 40
26.0
 40
26.0
 40
27.0
 40
27.0
 40
27.0
 40
28.0
 40
28.0
 40
28.0
 40
29.0
 40
29.0
 40
29.0
 40
30.0
 40
30.0
 40
30.0
 40
31.0
 40
31.0
 40
31.0
 40
32.0
 40
32.0
 40
32.0
 40
33.0
 40
33.0
 40
33.0
 40
34.0
 40
34.0
 40
34.0
 40
35.0
 40
35.0
 40
35.0
 40
36.0
 40
36.0
 40
36.0
 40
37.0
 40
37.0
 40
37.0
 40
38.0
 40
38.0
 40
38.0
 40
39.0
 40
39.0
 40
39.0
 40
40.0
 40
40.0
 40
40.0
 40
41.0
 40
41.0
 40
41.0
 40
42.0
 40
42.0
 40
42.0
 40
43.0
 40
43.0
 40
43.0
 40
44.0
 40
44.0
 40
44.0
 40
45.0
 40
45.0
 40
45.0
 40
46.0
 40
46.0
 40
46.0
 40
47.0
 40
47.0
 40
47.0
 40
48.0
 40
48.0
 40
48.0
 40
49.0
 40
49.0
 40
49.0
 40
50.0
 40
50.0
 40
50.0
 40
51.0
 40
51.0
 40
51.0
 40
52.0
 40
52.0
 40
52.0
 40
53.0
 40
53.0
 40
53.0
 40
54.0
 40
54.0
 40
54.0
 40
55.0
 40
55.0
 40
55.0
 40
56.0
 40
56.0
 40
56.0
 40
57.0
 40
57.0
 40
57.0
 40
58.0
 40
58.0
 40
58.0
 40
59.0
 40
59.0
 40
59.0
 40
60.0
 40
60.0
 40
60.0
 40
61.0
 40
61.0
 40
61.0
 40
62.0
 40
62.0
 40
62.0
 40
63.0
 40
63.0
 40
63.0
 40
64.0
 40
64.0
 40
64.0
 40
65.0
 40
65.0
 40
65.0
 40
66.0
 40
66.0
 40
66.0
 40
66.0
 10
86.8797959852245
 20
-120.0867268579992
 30
0.0
 10
86.8797959852245
 20
-120.0867268579992
 30
0.0
 10
86.39093693586754
 20
-120.0867268579992
 30
0.0
 10
86.39093693586754
 20
-120.0867268579992
 30
0.0
 10
86.38163517805738
 20
-120.1311685897589
 30
0.0
 10
86.37440047753834
 20
-120.1628634682232
 30
0.0
 10
86.36303166243702
 20
-120.2011040281095
 30
0.0
 10
86.38542478309115
 20
-120.2011040281095
 30
0.0
 10
86.39851614593509
 20
-120.2031710854006
 30
0.0
 10
86.4040282987115
 20
-120.2031710854006
 30
0.0
 10
86.4040282987115
 20
-120.2031710854006
 30
0.0
 10
86.56870386290645
 20
-120.2031710854006
 30
0.0
 10
86.56870386290645
 20
-120.2031710854006
 30
0.0
 10
86.56870386290645
 20
-120.2031710854006
 30
0.0
 10
86.8963324435537
 20
-120.2031710854006
 30
0.0
 10
86.8963324435537
 20
-120.2031710854006
 30
0.0
 10
86.94111868486195
 20
-120.2031710854006
 30
0.0
 10
87.18916555979993
 20
-120.1904242321052
 30
0.0
 10
87.21672632368194
 20
-120.1904242321052
 30
0.0
 10
87.21500377593931
 20
-120.2179849959872
 30
0.0
 10
87.21328122819668
 20
-120.236933021156
 30
0.0
 10
87.21328122819668
 20
-120.2665608423292
 30
0.0
 10
87.21121417090554
 20
-120.2982557207935
 30
0.0
 10
87.21121417090554
 20
-120.4336479733638
 30
0.0
 10
87.21121417090554
 20
-120.4612087372458
 30
0.0
 10
87.21121417090554
 20
-120.4612087372458
 30
0.0
 10
87.21121417090554
 20
-120.7066717905699
 30
0.0
 10
87.21121417090554
 20
-120.7066717905699
 30
0.0
 10
87.21121417090554
 20
-120.7511135223296
 30
0.0
 10
87.21500377593931
 20
-120.9478284745374
 30
0.0
 10
87.21879338097308
 20
-121.1001016949854
 30
0.0
 10
87.21879338097308
 20
-121.1001016949854
 30
0.0
 10
87.02070039057122
 20
-121.1001016949854
 30
0.0
 10
87.02070039057122
 20
-121.1001016949854
 30
0.0
 10
87.02070039057122
 20
-121.1001016949854
 30
0.0
 10
87.02242293831384
 20
-121.0663397592299
 30
0.0
 10
87.02242293831384
 20
-121.0663397592299
 30
0.0
 10
87.02242293831384
 20
-121.0663397592299
 30
0.0
 10
86.40781790374527
 20
-121.0663397592299
 30
0.0
 10
86.40781790374527
 20
-121.0663397592299
 30
0.0
 10
86.40781790374527
 20
-121.0663397592299
 30
0.0
 10
86.4095404514879
 20
-121.1001016949854
 30
0.0
 10
86.4095404514879
 20
-121.1001016949854
 30
0.0
 10
86.4095404514879
 20
-121.1001016949854
 30
0.0
 10
86.21868216160506
 20
-121.1001016949854
 30
0.0
 10
86.21868216160506
 20
-121.1001016949854
 30
0.0
 10
86.22247176663883
 20
-121.0451524219957
 30
0.0
 10
86.22247176663883
 20
-121.0324055687002
 30
0.0
 10
86.22798391941522
 20
-120.9182006533642
 30
0.0
 10
86.23005097670638
 20
-120.8906398894822
 30
0.0
 10
86.23177352444901
 20
-120.7574869489773
 30
0.0
 10
86.23177352444901
 20
-120.7383666690342
 30
0.0
 10
86.23177352444901
 20
-120.7383666690342
 30
0.0
 10
86.23177352444901
 20
-120.5352782901787
 30
0.0
 10
86.23177352444901
 20
-120.5352782901787
 30
0.0
 10
86.10947263472264
 20
-120.784875458085
 30
0.0
 10
85.9613335288569
 20
-120.9161335960731
 30
0.0
 10
85.86866046030367
 20
-120.9815904102928
 30
0.0
 10
85.86866046030367
 20
-120.9815904102928
 30
0.0
 10
85.71707625895267
 20
-120.8420640431402
 30
0.0
 10
85.71707625895267
 20
-120.8420640431402
 30
0.0
 10
85.7945909073708
 20
-120.7912488847328
 30
0.0
 10
85.92068140213094
 20
-120.7044324785045
 30
0.0
 10
86.04091523456617
 20
-120.5099568383621
 30
0.0
 10
86.12049694027543
 20
-120.3830050697306
 30
0.0
 10
86.17803003487911
 20
-120.2391723332215
 30
0.0
 10
86.20765785605225
 20
-120.0867268579992
 30
0.0
 10
86.00749780835925
 20
-120.0889661700646
 30
0.0
 10
85.85040145423184
 20
-120.0953395967123
 30
0.0
 10
85.7670301434888
 20
-120.0974066540034
 30
0.0
 10
85.7670301434888
 20
-120.0974066540034
 30
0.0
 10
85.7670301434888
 20
-119.9196397269645
 30
0.0
 10
85.7670301434888
 20
-119.9196397269645
 30
0.0
 10
85.9392849177513
 20
-119.9260131536122
 30
0.0
 10
86.18733179268928
 20
-119.9303195229688
 30
0.0
 10
86.31893444022583
 20
-119.9303195229688
 30
0.0
 10
86.31893444022583
 20
-119.9303195229688
 30
0.0
 10
86.50565861552637
 20
-119.9303195229688
 30
0.0
 10
86.50565861552637
 20
-119.9303195229688
 30
0.0
 10
86.50565861552637
 20
-119.9303195229688
 30
0.0
 10
86.50565861552637
 20
-119.8223157795062
 30
0.0
 10
86.50565861552637
 20
-119.8223157795062
 30
0.0
 10
86.50565861552637
 20
-119.8223157795062
 30
0.0
 10
86.37819008257212
 20
-119.8223157795062
 30
0.0
 10
86.37819008257212
 20
-119.8223157795062
 30
0.0
 10
86.23005097670638
 20
-119.8223157795062
 30
0.0
 10
86.08191187084064
 20
-119.8266221488628
 30
0.0
 10
85.93549531271752
 20
-119.8329955755105
 30
0.0
 10
85.93549531271752
 20
-119.8329955755105
 30
0.0
 10
85.93549531271752
 20
-119.6616020751193
 30
0.0
 10
85.93549531271752
 20
-119.6616020751193
 30
0.0
 10
86.07054305573931
 20
-119.6721096163493
 30
0.0
 10
86.23349607219163
 20
-119.6721096163493
 30
0.0
 10
86.37819008257212
 20
-119.6721096163493
 30
0.0
 10
86.37819008257212
 20
-119.6721096163493
 30
0.0
 10
86.50565861552637
 20
-119.6721096163493
 30
0.0
 10
86.50565861552637
 20
-119.6721096163493
 30
0.0
 10
86.50565861552637
 20
-119.6721096163493
 30
0.0
 10
86.50565861552637
 20
-119.553770586431
 30
0.0
 10
86.50565861552637
 20
-119.553770586431
 30
0.0
 10
86.50565861552637
 20
-119.553770586431
 30
0.0
 10
86.39093693586754
 20
-119.553770586431
 30
0.0
 10
86.39093693586754
 20
-119.553770586431
 30
0.0
 10
86.3502848091416
 20
-119.553770586431
 30
0.0
 10
86.17251788210271
 20
-119.5622110703699
 30
0.0
 10
86.13531085086201
 20
-119.5622110703699
 30
0.0
 10
85.95754392382312
 20
-119.5663451849522
 30
0.0
 10
85.8910535809578
 20
-119.5684122422433
 30
0.0
 10
85.82249618080132
 20
-119.5706515543087
 30
0.0
 10
85.82249618080132
 20
-119.5706515543087
 30
0.0
 10
85.82249618080132
 20
-119.3865112006221
 30
0.0
 10
85.82249618080132
 20
-119.3865112006221
 30
0.0
 10
85.92240394987357
 20
-119.394951684561
 30
0.0
 10
85.9613335288569
 20
-119.394951684561
 30
0.0
 10
86.2965413195717
 20
-119.4035644232741
 30
0.0
 10
86.24107528225917
 20
-119.308307533107
 30
0.0
 10
86.21695961386243
 20
-119.280746769225
 30
0.0
 10
86.18526473539814
 20
-119.2447455214041
 30
0.0
 10
86.18526473539814
 20
-119.2447455214041
 30
0.0
 10
86.3392605035888
 20
-119.1622354845324
 30
0.0
 10
86.3392605035888
 20
-119.1622354845324
 30
0.0
 10
86.37440047753834
 20
-119.1982367323532
 30
0.0
 10
86.41333005652167
 20
-119.2406114068218
 30
0.0
 10
86.47809785164436
 20
-119.3505099528013
 30
0.0
 10
86.47809785164436
 20
-119.3505099528013
 30
0.0
 10
86.37819008257212
 20
-119.4056314805653
 30
0.0
 10
86.37819008257212
 20
-119.4056314805653
 30
0.0
 10
86.37819008257212
 20
-119.4056314805653
 30
0.0
 10
86.38714733083377
 20
-119.4056314805653
 30
0.0
 10
86.38714733083377
 20
-119.4056314805653
 30
0.0
 10
86.38714733083377
 20
-119.4056314805653
 30
0.0
 10
86.84465601127495
 20
-119.4056314805653
 30
0.0
 10
86.84465601127495
 20
-119.4056314805653
 30
0.0
 10
86.84465601127495
 20
-119.4056314805653
 30
0.0
 10
86.7612847005319
 20
-119.3611897488055
 30
0.0
 10
86.7612847005319
 20
-119.3611897488055
 30
0.0
 10
86.78540036892865
 20
-119.3231214436935
 30
0.0
 10
86.83535425346477
 20
-119.2426784641129
 30
0.0
 10
86.84844561630872
 20
-119.1686089111801
 30
0.0
 10
86.84844561630872
 20
-119.1686089111801
 30
0.0
 10
87.03551430115779
 20
-119.2321709228829
 30
0.0
 10
87.03551430115779
 20
-119.2321709228829
 30
0.0
 10
87.04274900167681
 20
-119.2342379801741
 30
0.0
 10
87.06135251729717
 20
-119.2447455214041
 30
0.0
 10
87.06135251729717
 20
-119.2659328586384
 30
0.0
 10
87.06135251729717
 20
-119.3040011637504
 30
0.0
 10
87.0038194226935
 20
-119.3040011637504
 30
0.0
 10
86.9872829643643
 20
-119.3040011637504
 30
0.0
 10
86.97798120655412
 20
-119.3231214436935
 30
0.0
 10
86.95765514319115
 20
-119.3632568060967
 30
0.0
 10
86.93181692705177
 20
-119.4035644232741
 30
0.0
 10
87.28149411880463
 20
-119.3971909966264
 30
0.0
 10
87.30767684449253
 20
-119.394951684561
 30
0.0
 10
87.37416718735786
 20
-119.3887505126875
 30
0.0
 10
87.37416718735786
 20
-119.3887505126875
 30
0.0
 10
87.37416718735786
 20
-119.5706515543087
 30
0.0
 10
87.37416718735786
 20
-119.5706515543087
 30
0.0
 10
87.35763072902866
 20
-119.5706515543087
 30
0.0
 10
87.33523760837453
 20
-119.5684122422433
 30
0.0
 10
87.14265677074906
 20
-119.5599717583045
 30
0.0
 10
87.09821503898934
 20
-119.5579047010133
 30
0.0
 10
86.90563420136387
 20
-119.553770586431
 30
0.0
 10
86.86670462238055
 20
-119.553770586431
 30
0.0
 10
86.86670462238055
 20
-119.553770586431
 30
0.0
 10
86.67791338978886
 20
-119.553770586431
 30
0.0
 10
86.67791338978886
 20
-119.553770586431
 30
0.0
 10
86.67791338978886
 20
-119.553770586431
 30
0.0
 10
86.67791338978886
 20
-119.6721096163493
 30
0.0
 10
86.67791338978886
 20
-119.6721096163493
 30
0.0
 10
86.67791338978886
 20
-119.6721096163493
 30
0.0
 10
86.82984210068838
 20
-119.6721096163493
 30
0.0
 10
86.82984210068838
 20
-119.6721096163493
 30
0.0
 10
86.97246905377771
 20
-119.6721096163493
 30
0.0
 10
87.13921167526381
 20
-119.6721096163493
 30
0.0
 10
87.27598196602823
 20
-119.6616020751193
 30
0.0
 10
87.27598196602823
 20
-119.6616020751193
 30
0.0
 10
87.27598196602823
 20
-119.8329955755105
 30
0.0
 10
87.27598196602823
 20
-119.8329955755105
 30
0.0
 10
87.09270288621293
 20
-119.8245550915716
 30
0.0
 10
86.92044811195045
 20
-119.8223157795062
 30
0.0
 10
86.82984210068838
 20
-119.8223157795062
 30
0.0
 10
86.82984210068838
 20
-119.8223157795062
 30
0.0
 10
86.67791338978886
 20
-119.8223157795062
 30
0.0
 10
86.67791338978886
 20
-119.8223157795062
 30
0.0
 10
86.67791338978886
 20
-119.8223157795062
 30
0.0
 10
86.67791338978886
 20
-119.9303195229688
 30
0.0
 10
86.67791338978886
 20
-119.9303195229688
 30
0.0
 10
86.67791338978886
 20
-119.9303195229688
 30
0.0
 10
86.8797959852245
 20
-119.9303195229688
 30
0.0
 10
86.8797959852245
 20
-119.9303195229688
 30
0.0
 10
86.99658472217448
 20
-119.9303195229688
 30
0.0
 10
87.24842120214623
 20
-119.9260131536122
 30
0.0
 10
87.43170028196153
 20
-119.9196397269645
 30
0.0
 10
87.43170028196153
 20
-119.9196397269645
 30
0.0
 10
87.43170028196153
 20
-120.0974066540034
 30
0.0
 10
87.43170028196153
 20
-120.0974066540034
 30
0.0
 10
87.2632351127328
 20
-120.0910332273557
 30
0.0
 10
86.98900551210691
 20
-120.0867268579992
 30
0.0
 10
86.8797959852245
 20
-120.0867268579992
 30
0.0
  0
POLYLINE
  5
104
330
FB
100
AcDbEntity
  8
_U+30EC_U+30A4_U+30E4_U+30FC 1
370
     0
100
AcDb2dPolyline
 66
     1
 10
0.0
 20
0.0
 30
0.0
  0
VERTEX
  5
105
330
104
100
AcDbEntity
  8
_U+30EC_U+30A4_U+30E4_U+30FC 1
370
     0
100
AcDbVertex
100
AcDb2dVertex
 10
87.02414548605647
 20
-120.3426974525532
 30
0.0
  0
VERTEX
  5
106
330
104
100
AcDbEntity
  8
_U+30EC_U+30A4_U+30E4_U+30FC 1
370
     0
100
AcDbVertex
100
AcDb2dVertex
 10
86.40575084645413
 20
-120.3426974525532
 30
0.0
  0
VERTEX
  5
107
330
104
100
AcDbEntity
  8
_U+30EC_U+30A4_U+30E4_U+30FC 1
370
     0
100
AcDbVertex
100
AcDb2dVertex
 10
86.40575084645413
 20
-120.4507011960158
 30
0.0
  0
VERTEX
  5
108
330
104
100
AcDbEntity
  8
_U+30EC_U+30A4_U+30E4_U+30FC 1
370
     0
100
AcDbVertex
100
AcDb2dVertex
 10
87.02414548605647
 20
-120.4507011960158
 30
0.0
  0
VERTEX
  5
109
330
104
100
AcDbEntity
  8
_U+30EC_U+30A4_U+30E4_U+30FC 1
370
     0
100
AcDbVertex
100
AcDb2dVertex
 10
87.02414548605647
 20
-120.3426974525532
 30
0.0
  0
SEQEND
  5
10A
330
104
100
AcDbEntity
  8
_U+30EC_U+30A4_U+30E4_U+30FC 1
370
     0
  0
POLYLINE
  5
10B
330
FB
100
AcDbEntity
  8
_U+30EC_U+30A4_U+30E4_U+30FC 1
370
     0
100
AcDb2dPolyline
 66
     1
 10
0.0
 20
0.0
 30
0.0
  0
VERTEX
  5
10C
330
10B
100
AcDbEntity
  8
_U+30EC_U+30A4_U+30E4_U+30FC 1
370
     0
100
AcDbVertex
100
AcDb2dVertex
 10
87.02414548605647
 20
-120.5754136525818
 30
0.0
  0
VERTEX
  5
10D
330
10B
100
AcDbEntity
  8
_U+30EC_U+30A4_U+30E4_U+30FC 1
370
     0
100
AcDbVertex
100
AcDb2dVertex
 10
86.40575084645413
 20
-120.5754136525818
 30
0.0
  0
VERTEX
  5
10E
330
10B
100
AcDbEntity
  8
_U+30EC_U+30A4_U+30E4_U+30FC 1
370
     0
100
AcDbVertex
100
AcDb2dVertex
 10
86.40575084645413
 20
-120.6897908226921
 30
0.0
  0
VERTEX
  5
10F
330
10B
100
AcDbEntity
  8
_U+30EC_U+30A4_U+30E4_U+30FC 1
370
     0
100
AcDbVertex
100
AcDb2dVertex
 10
87.02414548605647
 20
-120.6897908226921
 30
0.0
  0
VERTEX
  5
110
330
10B
100
AcDbEntity
  8
_U+30EC_U+30A4_U+30E4_U+30FC 1
370
     0
100
AcDbVertex
100
AcDb2dVertex
 10
87.02414548605647
 20
-120.5754136525818
 30
0.0
  0
SEQEND
  5
111
330
10B
100
AcDbEntity
  8
_U+30EC_U+30A4_U+30E4_U+30FC 1
370
     0
  0
POLYLINE
  5
112
330
FB
100
AcDbEntity
  8
_U+30EC_U+30A4_U+30E4_U+30FC 1
370
     0
100
AcDb2dPolyline
 66
     1
 10
0.0
 20
0.0
 30
0.0
  0
VERTEX
  5
113
330
112
100
AcDbEntity
  8
_U+30EC_U+30A4_U+30E4_U+30FC 1
370
     0
100
AcDbVertex
100
AcDb2dVertex
 10
87.02414548605647
 20
-120.8188096486147
 30
0.0
  0
VERTEX
  5
114
330
112
100
AcDbEntity
  8
_U+30EC_U+30A4_U+30E4_U+30FC 1
370
     0
100
AcDbVertex
100
AcDb2dVertex
 10
86.40575084645413
 20
-120.8188096486147
 30
0.0
  0
VERTEX
  5
115
330
112
100
AcDbEntity
  8
_U+30EC_U+30A4_U+30E4_U+30FC 1
370
     0
100
AcDbVertex
100
AcDb2dVertex
 10
86.40575084645413
 20
-120.9330145639508
 30
0.0
  0
VERTEX
  5
116
330
112
100
AcDbEntity
  8
_U+30EC_U+30A4_U+30E4_U+30FC 1
370
     0
100
AcDbVertex
100
AcDb2dVertex
 10
87.02414548605647
 20
-120.9330145639508
 30
0.0
  0
VERTEX
  5
117
330
112
100
AcDbEntity
  8
_U+30EC_U+30A4_U+30E4_U+30FC 1
370
     0
100
AcDbVertex
100
AcDb2dVertex
 10
87.02414548605647
 20
-120.8188096486147
 30
0.0
  0
SEQEND
  5
118
330
112
100
AcDbEntity
  8
_U+30EC_U+30A4_U+30E4_U+30FC 1
370
     0
  0
HATCH
  5
119
330
FB
100
AcDbEntity
  8
_U+30EC_U+30A4_U+30E4_U+30FC 1
 62
   179
420
  2234388
100
AcDbHatch
 10
0.0
 20
0.0
 30
0.0
210
0.0
220
0.0
230
1.0
  2
SOLID
 70
     1
 71
     0
 91
        4
 92
        1
 93
        1
 72
     4
 94
        3
 73
     0
 74
     1
 95
      203
 96
      199
 40
0.0
 40
0.0
 40
0.0
 40
0.0
 40
1.0
 40
1.0
 40
1.0
 40
2.0
 40
2.0
 40
2.0
 40
3.0
 40
3.0
 40
3.0
 40
4.0
 40
4.0
 40
4.0
 40
5.0
 40
5.0
 40
5.0
 40
6.0
 40
6.0
 40
6.0
 40
7.0
 40
7.0
 40
7.0
 40
8.0
 40
8.0
 40
8.0
 40
9.0
 40
9.0
 40
9.0
 40
10.0
 40
10.0
 40
10.0
 40
11.0
 40
11.0
 40
11.0
 40
12.0
 40
12.0
 40
12.0
 40
13.0
 40
13.0
 40
13.0
 40
14.0
 40
14.0
 40
14.0
 40
15.0
 40
15.0
 40
15.0
 40
16.0
 40
16.0
 40
16.0
 40
17.0
 40
17.0
 40
17.0
 40
18.0
 40
18.0
 40
18.0
 40
19.0
 40
19.0
 40
19.0
 40
20.0
 40
20.0
 40
20.0
 40
21.0
 40
21.0
 40
21.0
 40
22.0
 40
22.0
 40
22.0
 40
23.0
 40
23.0
 40
23.0
 40
24.0
 40
24.0
 40
24.0
 40
25.0
 40
25.0
 40
25.0
 40
26.0
 40
26.0
 40
26.0
 40
27.0
 40
27.0
 40
27.0
 40
28.0
 40
28.0
 40
28.0
 40
29.0
 40
29.0
 40
29.0
 40
30.0
 40
30.0
 40
30.0
 40
31.0
 40
31.0
 40
31.0
 40
32.0
 40
32.0
 40
32.0
 40
33.0
 40
33.0
 40
33.0
 40
34.0
 40
34.0
 40
34.0
 40
35.0
 40
35.0
 40
35.0
 40
36.0
 40
36.0
 40
36.0
 40
37.0
 40
37.0
 40
37.0
 40
38.0
 40
38.0
 40
38.0
 40
39.0
 40
39.0
 40
39.0
 40
40.0
 40
40.0
 40
40.0
 40
41.0
 40
41.0
 40
41.0
 40
42.0
 40
42.0
 40
42.0
 40
43.0
 40
43.0
 40
43.0
 40
44.0
 40
44.0
 40
44.0
 40
45.0
 40
45.0
 40
45.0
 40
46.0
 40
46.0
 40
46.0
 40
47.0
 40
47.0
 40
47.0
 40
48.0
 40
48.0
 40
48.0
 40
49.0
 40
49.0
 40
49.0
 40
50.0
 40
50.0
 40
50.0
 40
51.0
 40
51.0
 40
51.0
 40
52.0
 40
52.0
 40
52.0
 40
53.0
 40
53.0
 40
53.0
 40
54.0
 40
54.0
 40
54.0
 40
55.0
 40
55.0
 40
55.0
 40
56.0
 40
56.0
 40
56.0
 40
57.0
 40
57.0
 40
57.0
 40
58.0
 40
58.0
 40
58.0
 40
59.0
 40
59.0
 40
59.0
 40
60.0
 40
60.0
 40
60.0
 40
61.0
 40
61.0
 40
61.0
 40
62.0
 40
62.0
 40
62.0
 40
63.0
 40
63.0
 40
63.0
 40
64.0
 40
64.0
 40
64.0
 40
65.0
 40
65.0
 40
65.0
 40
66.0
 40
66.0
 40
66.0
 40
66.0
 10
86.8797959852245
 20
-120.0867268579992
 10
86.8797959852245
 20
-120.0867268579992
 10
86.39093693586754
 20
-120.0867268579992
 10
86.39093693586754
 20
-120.0867268579992
 10
86.38163517805738
 20
-120.1311685897589
 10
86.37440047753834
 20
-120.1628634682232
 10
86.36303166243702
 20
-120.2011040281095
 10
86.38542478309115
 20
-120.2011040281095
 10
86.39851614593509
 20
-120.2031710854006
 10
86.4040282987115
 20
-120.2031710854006
 10
86.4040282987115
 20
-120.2031710854006
 10
86.56870386290645
 20
-120.2031710854006
 10
86.56870386290645
 20
-120.2031710854006
 10
86.56870386290645
 20
-120.2031710854006
 10
86.8963324435537
 20
-120.2031710854006
 10
86.8963324435537
 20
-120.2031710854006
 10
86.94111868486195
 20
-120.2031710854006
 10
87.18916555979993
 20
-120.1904242321052
 10
87.21672632368194
 20
-120.1904242321052
 10
87.21500377593931
 20
-120.2179849959872
 10
87.21328122819668
 20
-120.236933021156
 10
87.21328122819668
 20
-120.2665608423292
 10
87.21121417090554
 20
-120.2982557207935
 10
87.21121417090554
 20
-120.4336479733638
 10
87.21121417090554
 20
-120.4612087372458
 10
87.21121417090554
 20
-120.4612087372458
 10
87.21121417090554
 20
-120.7066717905699
 10
87.21121417090554
 20
-120.7066717905699
 10
87.21121417090554
 20
-120.7511135223296
 10
87.21500377593931
 20
-120.9478284745374
 10
87.21879338097308
 20
-121.1001016949854
 10
87.21879338097308
 20
-121.1001016949854
 10
87.02070039057122
 20
-121.1001016949854
 10
87.02070039057122
 20
-121.1001016949854
 10
87.02070039057122
 20
-121.1001016949854
 10
87.02242293831384
 20
-121.0663397592299
 10
87.02242293831384
 20
-121.0663397592299
 10
87.02242293831384
 20
-121.0663397592299
 10
86.40781790374527
 20
-121.0663397592299
 10
86.40781790374527
 20
-121.0663397592299
 10
86.40781790374527
 20
-121.0663397592299
 10
86.4095404514879
 20
-121.1001016949854
 10
86.4095404514879
 20
-121.1001016949854
 10
86.4095404514879
 20
-121.1001016949854
 10
86.21868216160506
 20
-121.1001016949854
 10
86.21868216160506
 20
-121.1001016949854
 10
86.22247176663883
 20
-121.0451524219957
 10
86.22247176663883
 20
-121.0324055687002
 10
86.22798391941522
 20
-120.9182006533642
 10
86.23005097670638
 20
-120.8906398894822
 10
86.23177352444901
 20
-120.7574869489773
 10
86.23177352444901
 20
-120.7383666690342
 10
86.23177352444901
 20
-120.7383666690342
 10
86.23177352444901
 20
-120.5352782901787
 10
86.23177352444901
 20
-120.5352782901787
 10
86.10947263472264
 20
-120.784875458085
 10
85.9613335288569
 20
-120.9161335960731
 10
85.86866046030367
 20
-120.9815904102928
 10
85.86866046030367
 20
-120.9815904102928
 10
85.71707625895267
 20
-120.8420640431402
 10
85.71707625895267
 20
-120.8420640431402
 10
85.7945909073708
 20
-120.7912488847328
 10
85.92068140213094
 20
-120.7044324785045
 10
86.04091523456617
 20
-120.5099568383621
 10
86.12049694027543
 20
-120.3830050697306
 10
86.17803003487911
 20
-120.2391723332215
 10
86.20765785605225
 20
-120.0867268579992
 10
86.00749780835925
 20
-120.0889661700646
 10
85.85040145423184
 20
-120.0953395967123
 10
85.7670301434888
 20
-120.0974066540034
 10
85.7670301434888
 20
-120.0974066540034
 10
85.7670301434888
 20
-119.9196397269645
 10
85.7670301434888
 20
-119.9196397269645
 10
85.9392849177513
 20
-119.9260131536122
 10
86.18733179268928
 20
-119.9303195229688
 10
86.31893444022583
 20
-119.9303195229688
 10
86.31893444022583
 20
-119.9303195229688
 10
86.50565861552637
 20
-119.9303195229688
 10
86.50565861552637
 20
-119.9303195229688
 10
86.50565861552637
 20
-119.9303195229688
 10
86.50565861552637
 20
-119.8223157795062
 10
86.50565861552637
 20
-119.8223157795062
 10
86.50565861552637
 20
-119.8223157795062
 10
86.37819008257212
 20
-119.8223157795062
 10
86.37819008257212
 20
-119.8223157795062
 10
86.23005097670638
 20
-119.8223157795062
 10
86.08191187084064
 20
-119.8266221488628
 10
85.93549531271752
 20
-119.8329955755105
 10
85.93549531271752
 20
-119.8329955755105
 10
85.93549531271752
 20
-119.6616020751193
 10
85.93549531271752
 20
-119.6616020751193
 10
86.07054305573931
 20
-119.6721096163493
 10
86.23349607219163
 20
-119.6721096163493
 10
86.37819008257212
 20
-119.6721096163493
 10
86.37819008257212
 20
-119.6721096163493
 10
86.50565861552637
 20
-119.6721096163493
 10
86.50565861552637
 20
-119.6721096163493
 10
86.50565861552637
 20
-119.6721096163493
 10
86.50565861552637
 20
-119.553770586431
 10
86.50565861552637
 20
-119.553770586431
 10
86.50565861552637
 20
-119.553770586431
 10
86.39093693586754
 20
-119.553770586431
 10
86.39093693586754
 20
-119.553770586431
 10
86.3502848091416
 20
-119.553770586431
 10
86.17251788210271
 20
-119.5622110703699
 10
86.13531085086201
 20
-119.5622110703699
 10
85.95754392382312
 20
-119.5663451849522
 10
85.8910535809578
 20
-119.5684122422433
 10
85.82249618080132
 20
-119.5706515543087
 10
85.82249618080132
 20
-119.5706515543087
 10
85.82249618080132
 20
-119.3865112006221
 10
85.82249618080132
 20
-119.3865112006221
 10
85.92240394987357
 20
-119.394951684561
 10
85.9613335288569
 20
-119.394951684561
 10
86.2965413195717
 20
-119.4035644232741
 10
86.24107528225917
 20
-119.308307533107
 10
86.21695961386243
 20
-119.280746769225
 10
86.18526473539814
 20
-119.2447455214041
 10
86.18526473539814
 20
-119.2447455214041
 10
86.3392605035888
 20
-119.1622354845324
 10
86.3392605035888
 20
-119.1622354845324
 10
86.37440047753834
 20
-119.1982367323532
 10
86.41333005652167
 20
-119.2406114068218
 10
86.47809785164436
 20
-119.3505099528013
 10
86.47809785164436
 20
-119.3505099528013
 10
86.37819008257212
 20
-119.4056314805653
 10
86.37819008257212
 20
-119.4056314805653
 10
86.37819008257212
 20
-119.4056314805653
 10
86.38714733083377
 20
-119.4056314805653
 10
86.38714733083377
 20
-119.4056314805653
 10
86.38714733083377
 20
-119.4056314805653
 10
86.84465601127495
 20
-119.4056314805653
 10
86.84465601127495
 20
-119.4056314805653
 10
86.84465601127495
 20
-119.4056314805653
 10
86.7612847005319
 20
-119.3611897488055
 10
86.7612847005319
 20
-119.3611897488055
 10
86.78540036892865
 20
-119.3231214436935
 10
86.83535425346477
 20
-119.2426784641129
 10
86.84844561630872
 20
-119.1686089111801
 10
86.84844561630872
 20
-119.1686089111801
 10
87.03551430115779
 20
-119.2321709228829
 10
87.03551430115779
 20
-119.2321709228829
 10
87.04274900167681
 20
-119.2342379801741
 10
87.06135251729717
 20
-119.2447455214041
 10
87.06135251729717
 20
-119.2659328586384
 10
87.06135251729717
 20
-119.3040011637504
 10
87.0038194226935
 20
-119.3040011637504
 10
86.9872829643643
 20
-119.3040011637504
 10
86.97798120655412
 20
-119.3231214436935
 10
86.95765514319115
 20
-119.3632568060967
 10
86.93181692705177
 20
-119.4035644232741
 10
87.28149411880463
 20
-119.3971909966264
 10
87.30767684449253
 20
-119.394951684561
 10
87.37416718735786
 20
-119.3887505126875
 10
87.37416718735786
 20
-119.3887505126875
 10
87.37416718735786
 20
-119.5706515543087
 10
87.37416718735786
 20
-119.5706515543087
 10
87.35763072902866
 20
-119.5706515543087
 10
87.33523760837453
 20
-119.5684122422433
 10
87.14265677074906
 20
-119.5599717583045
 10
87.09821503898934
 20
-119.5579047010133
 10
86.90563420136387
 20
-119.553770586431
 10
86.86670462238055
 20
-119.553770586431
 10
86.86670462238055
 20
-119.553770586431
 10
86.67791338978886
 20
-119.553770586431
 10
86.67791338978886
 20
-119.553770586431
 10
86.67791338978886
 20
-119.553770586431
 10
86.67791338978886
 20
-119.6721096163493
 10
86.67791338978886
 20
-119.6721096163493
 10
86.67791338978886
 20
-119.6721096163493
 10
86.82984210068838
 20
-119.6721096163493
 10
86.82984210068838
 20
-119.6721096163493
 10
86.97246905377771
 20
-119.6721096163493
 10
87.13921167526381
 20
-119.6721096163493
 10
87.27598196602823
 20
-119.6616020751193
 10
87.27598196602823
 20
-119.6616020751193
 10
87.27598196602823
 20
-119.8329955755105
 10
87.27598196602823
 20
-119.8329955755105
 10
87.09270288621293
 20
-119.8245550915716
 10
86.92044811195045
 20
-119.8223157795062
 10
86.82984210068838
 20
-119.8223157795062
 10
86.82984210068838
 20
-119.8223157795062
 10
86.67791338978886
 20
-119.8223157795062
 10
86.67791338978886
 20
-119.8223157795062
 10
86.67791338978886
 20
-119.8223157795062
 10
86.67791338978886
 20
-119.9303195229688
 10
86.67791338978886
 20
-119.9303195229688
 10
86.67791338978886
 20
-119.9303195229688
 10
86.8797959852245
 20
-119.9303195229688
 10
86.8797959852245
 20
-119.9303195229688
 10
86.99658472217448
 20
-119.9303195229688
 10
87.24842120214623
 20
-119.9260131536122
 10
87.43170028196153
 20
-119.9196397269645
 10
87.43170028196153
 20
-119.9196397269645
 10
87.43170028196153
 20
-120.0974066540034
 10
87.43170028196153
 20
-120.0974066540034
 10
87.2632351127328
 20
-120.0910332273557
 10
86.98900551210691
 20
-120.0867268579992
 10
86.8797959852245
 20
-120.0867268579992
 97
        0
 97
        0
 92
        1
 93
        4
 72
     1
 10
87.02414548605647
 20
-120.3426974525532
 11
86.40575084645413
 21
-120.3426974525532
 72
     1
 10
86.40575084645413
 20
-120.3426974525532
 11
86.40575084645413
 21
-120.4507011960158
 72
     1
 10
86.40575084645413
 20
-120.4507011960158
 11
87.02414548605647
 21
-120.4507011960158
 72
     1
 10
87.02414548605647
 20
-120.4507011960158
 11
87.02414548605647
 21
-120.3426974525532
 97
        0
 92
        1
 93
        4
 72
     1
 10
87.02414548605647
 20
-120.5754136525818
 11
86.40575084645413
 21
-120.5754136525818
 72
     1
 10
86.40575084645413
 20
-120.5754136525818
 11
86.40575084645413
 21
-120.6897908226921
 72
     1
 10
86.40575084645413
 20
-120.6897908226921
 11
87.02414548605647
 21
-120.6897908226921
 72
     1
 10
87.02414548605647
 20
-120.6897908226921
 11
87.02414548605647
 21
-120.5754136525818
 97
        0
 92
        1
 93
        4
 72
     1
 10
87.02414548605647
 20
-120.8188096486147
 11
86.40575084645413
 21
-120.8188096486147
 72
     1
 10
86.40575084645413
 20
-120.8188096486147
 11
86.40575084645413
 21
-120.9330145639508
 72
     1
 10
86.40575084645413
 20
-120.9330145639508
 11
87.02414548605647
 21
-120.9330145639508
 72
     1
 10
87.02414548605647
 20
-120.9330145639508
 11
87.02414548605647
 21
-120.8188096486147
 97
        0
 75
     2
 76
     1
 98
        0
  0
SPLINE
  5
11A
330
FB
100
AcDbEntity
  8
_U+30EC_U+30A4_U+30E4_U+30FC 1
370
     0
100
AcDbSpline
210
0.0
220
0.0
230
1.0
 70
    11
 71
     3
 72
    47
 73
    43
 74
     0
 42
0.0000000001
 43
0.0000000001
 12
1.0
 22
0.0
 32
0.0
 13
1.0
 23
0.0
 33
0.0
 40
0.0
 40
0.0
 40
0.0
 40
0.0
 40
1.0
 40
1.0
 40
1.0
 40
2.0
 40
2.0
 40
2.0
 40
3.0
 40
3.0
 40
3.0
 40
4.0
 40
4.0
 40
4.0
 40
5.0
 40
5.0
 40
5.0
 40
6.0
 40
6.0
 40
6.0
 40
7.0
 40
7.0
 40
7.0
 40
8.0
 40
8.0
 40
8.0
 40
9.0
 40
9.0
 40
9.0
 40
10.0
 40
10.0
 40
10.0
 40
11.0
 40
11.0
 40
11.0
 40
12.0
 40
12.0
 40
12.0
 40
13.0
 40
13.0
 40
13.0
 40
14.0
 40
14.0
 40
14.0
 40
14.0
 10
88.6116454856596
 20
-120.0634724634737
 30
0.0
 10
88.6116454856596
 20
-120.0634724634737
 30
0.0
 10
88.52276202214014
 20
-120.0634724634737
 30
0.0
 10
88.52276202214014
 20
-120.0634724634737
 30
0.0
 10
88.52276202214014
 20
-120.150288869702
 30
0.0
 10
88.5041585065198
 20
-120.5395846595353
 30
0.0
 10
88.3319037322573
 20
-120.7595540062684
 30
0.0
 10
88.19857853697813
 20
-120.9287081945942
 30
0.0
 10
88.01702200490547
 20
-120.9986436329448
 30
0.0
 10
87.9429524519726
 20
-121.0260321420525
 30
0.0
 10
87.9429524519726
 20
-121.0260321420525
 30
0.0
 10
87.77276473500126
 20
-120.8589450110179
 30
0.0
 10
87.77276473500126
 20
-120.8589450110179
 30
0.0
 10
87.85785859348692
 20
-120.8461981577225
 30
0.0
 10
88.01150985212907
 20
-120.822943763197
 30
0.0
 10
88.17652992587254
 20
-120.6346692949281
 30
0.0
 10
88.24129772099523
 20
-120.5628390540607
 30
0.0
 10
88.3319037322573
 20
-120.4231404321338
 30
0.0
 10
88.3319037322573
 20
-120.0634724634737
 30
0.0
 10
88.3319037322573
 20
-120.0634724634737
 30
0.0
 10
88.13002113682167
 20
-120.0634724634737
 30
0.0
 10
88.13002113682167
 20
-120.0634724634737
 30
0.0
 10
87.96706812036935
 20
-120.0634724634737
 30
0.0
 10
87.80411510391703
 20
-120.0677788328303
 30
0.0
 10
87.6411620874647
 20
-120.0825927434169
 30
0.0
 10
87.6411620874647
 20
-120.0825927434169
 30
0.0
 10
87.6411620874647
 20
-119.8626233966837
 30
0.0
 10
87.6411620874647
 20
-119.8626233966837
 30
0.0
 10
87.80583765165966
 20
-119.8774373072702
 30
0.0
 10
88.0559515838888
 20
-119.8815714218525
 30
0.0
 10
88.13002113682167
 20
-119.8815714218525
 30
0.0
 10
88.13002113682167
 20
-119.8815714218525
 30
0.0
 10
88.6116454856596
 20
-119.8815714218525
 30
0.0
 10
88.6116454856596
 20
-119.8815714218525
 30
0.0
 10
88.62818194398879
 20
-119.8815714218525
 30
0.0
 10
88.90585664009993
 20
-119.8815714218525
 30
0.0
 10
89.10601668779294
 20
-119.8626233966837
 30
0.0
 10
89.10601668779294
 20
-119.8626233966837
 30
0.0
 10
89.10601668779294
 20
-120.0825927434169
 30
0.0
 10
89.10601668779294
 20
-120.0825927434169
 30
0.0
 10
88.94099661404948
 20
-120.0677788328303
 30
0.0
 10
88.77632104985453
 20
-120.0634724634737
 30
0.0
 10
88.6116454856596
 20
-120.0634724634737
 30
0.0
  0
SPLINE
  5
11B
330
FB
100
AcDbEntity
  8
_U+30EC_U+30A4_U+30E4_U+30FC 1
370
     0
100
AcDbSpline
210
0.0
220
0.0
230
1.0
 70
    11
 71
     3
 72
    29
 73
    25
 74
     0
 42
0.0000000001
 43
0.0000000001
 12
1.0
 22
0.0
 32
0.0
 13
1.0
 23
0.0
 33
0.0
 40
0.0
 40
0.0
 40
0.0
 40
0.0
 40
1.0
 40
1.0
 40
1.0
 40
2.0
 40
2.0
 40
2.0
 40
3.0
 40
3.0
 40
3.0
 40
4.0
 40
4.0
 40
4.0
 40
5.0
 40
5.0
 40
5.0
 40
6.0
 40
6.0
 40
6.0
 40
7.0
 40
7.0
 40
7.0
 40
8.0
 40
8.0
 40
8.0
 40
8.0
 10
88.52276202214014
 20
-119.5346503064879
 30
0.0
 10
88.52276202214014
 20
-119.5346503064879
 30
0.0
 10
88.21339244756471
 20
-119.5346503064879
 30
0.0
 10
88.21339244756471
 20
-119.5346503064879
 30
0.0
 10
88.11520722623509
 20
-119.5346503064879
 30
0.0
 10
87.99290633650872
 20
-119.5410237331356
 30
0.0
 10
87.89851072021288
 20
-119.553770586431
 30
0.0
 10
87.89851072021288
 20
-119.553770586431
 30
0.0
 10
87.89851072021288
 20
-119.318815074337
 30
0.0
 10
87.89851072021288
 20
-119.318815074337
 30
0.0
 10
88.0022080943189
 20
-119.3336289849235
 30
0.0
 10
88.16343856302859
 20
-119.3379353542801
 30
0.0
 10
88.21339244756471
 20
-119.3379353542801
 30
0.0
 10
88.21339244756471
 20
-119.3379353542801
 30
0.0
 10
88.52276202214014
 20
-119.3379353542801
 30
0.0
 10
88.52276202214014
 20
-119.3379353542801
 30
0.0
 10
88.53929848046934
 20
-119.3379353542801
 30
0.0
 10
88.71706540750824
 20
-119.3379353542801
 30
0.0
 10
88.84108884497724
 20
-119.318815074337
 30
0.0
 10
88.84108884497724
 20
-119.318815074337
 30
0.0
 10
88.84108884497724
 20
-119.553770586431
 30
0.0
 10
88.84108884497724
 20
-119.553770586431
 30
0.0
 10
88.70397404466429
 20
-119.5346503064879
 30
0.0
 10
88.53757593272672
 20
-119.5346503064879
 30
0.0
 10
88.52276202214014
 20
-119.5346503064879
 30
0.0
  0
HATCH
  5
11C
330
FB
100
AcDbEntity
  8
_U+30EC_U+30A4_U+30E4_U+30FC 1
 62
   179
420
  2234388
100
AcDbHatch
 10
0.0
 20
0.0
 30
0.0
210
0.0
220
0.0
230
1.0
  2
SOLID
 70
     1
 71
     0
 91
        2
 92
        1
 93
        1
 72
     4
 94
        3
 73
     0
 74
     1
 95
       47
 96
       43
 40
0.0
 40
0.0
 40
0.0
 40
0.0
 40
1.0
 40
1.0
 40
1.0
 40
2.0
 40
2.0
 40
2.0
 40
3.0
 40
3.0
 40
3.0
 40
4.0
 40
4.0
 40
4.0
 40
5.0
 40
5.0
 40
5.0
 40
6.0
 40
6.0
 40
6.0
 40
7.0
 40
7.0
 40
7.0
 40
8.0
 40
8.0
 40
8.0
 40
9.0
 40
9.0
 40
9.0
 40
10.0
 40
10.0
 40
10.0
 40
11.0
 40
11.0
 40
11.0
 40
12.0
 40
12.0
 40
12.0
 40
13.0
 40
13.0
 40
13.0
 40
14.0
 40
14.0
 40
14.0
 40
14.0
 10
88.6116454856596
 20
-120.0634724634737
 10
88.6116454856596
 20
-120.0634724634737
 10
88.52276202214014
 20
-120.0634724634737
 10
88.52276202214014
 20
-120.0634724634737
 10
88.52276202214014
 20
-120.150288869702
 10
88.5041585065198
 20
-120.5395846595353
 10
88.3319037322573
 20
-120.7595540062684
 10
88.19857853697813
 20
-120.9287081945942
 10
88.01702200490547
 20
-120.9986436329448
 10
87.9429524519726
 20
-121.0260321420525
 10
87.9429524519726
 20
-121.0260321420525
 10
87.77276473500126
 20
-120.8589450110179
 10
87.77276473500126
 20
-120.8589450110179
 10
87.85785859348692
 20
-120.8461981577225
 10
88.01150985212907
 20
-120.822943763197
 10
88.17652992587254
 20
-120.6346692949281
 10
88.24129772099523
 20
-120.5628390540607
 10
88.3319037322573
 20
-120.4231404321338
 10
88.3319037322573
 20
-120.0634724634737
 10
88.3319037322573
 20
-120.0634724634737
 10
88.13002113682167
 20
-120.0634724634737
 10
88.13002113682167
 20
-120.0634724634737
 10
87.96706812036935
 20
-120.0634724634737
 10
87.80411510391703
 20
-120.0677788328303
 10
87.6411620874647
 20
-120.0825927434169
 10
87.6411620874647
 20
-120.0825927434169
 10
87.6411620874647
 20
-119.8626233966837
 10
87.6411620874647
 20
-119.8626233966837
 10
87.80583765165966
 20
-119.8774373072702
 10
88.0559515838888
 20
-119.8815714218525
 10
88.13002113682167
 20
-119.8815714218525
 10
88.13002113682167
 20
-119.8815714218525
 10
88.6116454856596
 20
-119.8815714218525
 10
88.6116454856596
 20
-119.8815714218525
 10
88.62818194398879
 20
-119.8815714218525
 10
88.90585664009993
 20
-119.8815714218525
 10
89.10601668779294
 20
-119.8626233966837
 10
89.10601668779294
 20
-119.8626233966837
 10
89.10601668779294
 20
-120.0825927434169
 10
89.10601668779294
 20
-120.0825927434169
 10
88.94099661404948
 20
-120.0677788328303
 10
88.77632104985453
 20
-120.0634724634737
 10
88.6116454856596
 20
-120.0634724634737
 97
        0
 97
        0
 92
        1
 93
        1
 72
     4
 94
        3
 73
     0
 74
     1
 95
       29
 96
       25
 40
0.0
 40
0.0
 40
0.0
 40
0.0
 40
1.0
 40
1.0
 40
1.0
 40
2.0
 40
2.0
 40
2.0
 40
3.0
 40
3.0
 40
3.0
 40
4.0
 40
4.0
 40
4.0
 40
5.0
 40
5.0
 40
5.0
 40
6.0
 40
6.0
 40
6.0
 40
7.0
 40
7.0
 40
7.0
 40
8.0
 40
8.0
 40
8.0
 40
8.0
 10
88.52276202214014
 20
-119.5346503064879
 10
88.52276202214014
 20
-119.5346503064879
 10
88.21339244756471
 20
-119.5346503064879
 10
88.21339244756471
 20
-119.5346503064879
 10
88.11520722623509
 20
-119.5346503064879
 10
87.99290633650872
 20
-119.5410237331356
 10
87.89851072021288
 20
-119.553770586431
 10
87.89851072021288
 20
-119.553770586431
 10
87.89851072021288
 20
-119.318815074337
 10
87.89851072021288
 20
-119.318815074337
 10
88.0022080943189
 20
-119.3336289849235
 10
88.16343856302859
 20
-119.3379353542801
 10
88.21339244756471
 20
-119.3379353542801
 10
88.21339244756471
 20
-119.3379353542801
 10
88.52276202214014
 20
-119.3379353542801
 10
88.52276202214014
 20
-119.3379353542801
 10
88.53929848046934
 20
-119.3379353542801
 10
88.71706540750824
 20
-119.3379353542801
 10
88.84108884497724
 20
-119.318815074337
 10
88.84108884497724
 20
-119.318815074337
 10
88.84108884497724
 20
-119.553770586431
 10
88.84108884497724
 20
-119.553770586431
 10
88.70397404466429
 20
-119.5346503064879
 10
88.53757593272672
 20
-119.5346503064879
 10
88.52276202214014
 20
-119.5346503064879
 97
        0
 97
        0
 75
     2
 76
     1
 98
        0
  0
SPLINE
  5
11D
330
FB
100
AcDbEntity
  8
_U+30EC_U+30A4_U+30E4_U+30FC 1
370
     0
100
AcDbSpline
210
0.0
220
0.0
230
1.0
 70
    11
 71
     3
 72
    29
 73
    25
 74
     0
 42
0.0000000001
 43
0.0000000001
 12
1.0
 22
0.0
 32
0.0
 13
1.0
 23
0.0
 33
0.0
 40
0.0
 40
0.0
 40
0.0
 40
0.0
 40
1.0
 40
1.0
 40
1.0
 40
2.0
 40
2.0
 40
2.0
 40
3.0
 40
3.0
 40
3.0
 40
4.0
 40
4.0
 40
4.0
 40
5.0
 40
5.0
 40
5.0
 40
6.0
 40
6.0
 40
6.0
 40
7.0
 40
7.0
 40
7.0
 40
8.0
 40
8.0
 40
8.0
 40
8.0
 10
90.22842879688734
 20
-120.226425479926
 30
0.0
 10
90.22842879688734
 20
-120.226425479926
 30
0.0
 10
89.80433754265309
 20
-120.226425479926
 30
0.0
 10
89.80433754265309
 20
-120.226425479926
 30
0.0
 10
89.78022187425634
 20
-120.226425479926
 30
0.0
 10
89.50220266859668
 20
-120.226425479926
 30
0.0
 10
89.31720104103876
 20
-120.2517469317426
 30
0.0
 10
89.31720104103876
 20
-120.2517469317426
 30
0.0
 10
89.31720104103876
 20
-120.0212700437794
 30
0.0
 10
89.31720104103876
 20
-120.0212700437794
 30
0.0
 10
89.45603838909433
 20
-120.0445244383048
 30
0.0
 10
89.62278101058043
 20
-120.046591495596
 30
0.0
 10
89.80433754265309
 20
-120.046591495596
 30
0.0
 10
89.80433754265309
 20
-120.046591495596
 30
0.0
 10
90.22842879688734
 20
-120.046591495596
 30
0.0
 10
90.22842879688734
 20
-120.046591495596
 30
0.0
 10
90.39103730379114
 20
-120.046591495596
 30
0.0
 10
90.55433482979197
 20
-120.0445244383048
 30
0.0
 10
90.71522078895315
 20
-120.0212700437794
 30
0.0
 10
90.71522078895315
 20
-120.0212700437794
 30
0.0
 10
90.71522078895315
 20
-120.2517469317426
 30
0.0
 10
90.71522078895315
 20
-120.2517469317426
 30
0.0
 10
90.55433482979197
 20
-120.2284925372172
 30
0.0
 10
90.33763832376977
 20
-120.226425479926
 30
0.0
 10
90.22842879688734
 20
-120.226425479926
 30
0.0
  0
HATCH
  5
11E
330
FB
100
AcDbEntity
  8
_U+30EC_U+30A4_U+30E4_U+30FC 1
 62
   179
420
  2234388
100
AcDbHatch
 10
0.0
 20
0.0
 30
0.0
210
0.0
220
0.0
230
1.0
  2
SOLID
 70
     1
 71
     0
 91
        1
 92
        1
 93
        1
 72
     4
 94
        3
 73
     0
 74
     1
 95
       29
 96
       25
 40
0.0
 40
0.0
 40
0.0
 40
0.0
 40
1.0
 40
1.0
 40
1.0
 40
2.0
 40
2.0
 40
2.0
 40
3.0
 40
3.0
 40
3.0
 40
4.0
 40
4.0
 40
4.0
 40
5.0
 40
5.0
 40
5.0
 40
6.0
 40
6.0
 40
6.0
 40
7.0
 40
7.0
 40
7.0
 40
8.0
 40
8.0
 40
8.0
 40
8.0
 10
90.22842879688734
 20
-120.226425479926
 10
90.22842879688734
 20
-120.226425479926
 10
89.80433754265309
 20
-120.226425479926
 10
89.80433754265309
 20
-120.226425479926
 10
89.78022187425634
 20
-120.226425479926
 10
89.50220266859668
 20
-120.226425479926
 10
89.31720104103876
 20
-120.2517469317426
 10
89.31720104103876
 20
-120.2517469317426
 10
89.31720104103876
 20
-120.0212700437794
 10
89.31720104103876
 20
-120.0212700437794
 10
89.45603838909433
 20
-120.0445244383048
 10
89.62278101058043
 20
-120.046591495596
 10
89.80433754265309
 20
-120.046591495596
 10
89.80433754265309
 20
-120.046591495596
 10
90.22842879688734
 20
-120.046591495596
 10
90.22842879688734
 20
-120.046591495596
 10
90.39103730379114
 20
-120.046591495596
 10
90.55433482979197
 20
-120.0445244383048
 10
90.71522078895315
 20
-120.0212700437794
 10
90.71522078895315
 20
-120.0212700437794
 10
90.71522078895315
 20
-120.2517469317426
 10
90.71522078895315
 20
-120.2517469317426
 10
90.55433482979197
 20
-120.2284925372172
 10
90.33763832376977
 20
-120.226425479926
 10
90.22842879688734
 20
-120.226425479926
 97
        0
 97
        0
 75
     2
 76
     1
 98
        0
  0
SPLINE
  5
11F
330
FB
100
AcDbEntity
  8
_U+30EC_U+30A4_U+30E4_U+30FC 1
370
     0
100
AcDbSpline
210
0.0
220
0.0
230
1.0
 70
    11
 71
     3
 72
    44
 73
    40
 74
     0
 42
0.0000000001
 43
0.0000000001
 12
1.0
 22
0.0
 32
0.0
 13
1.0
 23
0.0
 33
0.0
 40
0.0
 40
0.0
 40
0.0
 40
0.0
 40
1.0
 40
1.0
 40
1.0
 40
2.0
 40
2.0
 40
2.0
 40
3.0
 40
3.0
 40
3.0
 40
4.0
 40
4.0
 40
4.0
 40
5.0
 40
5.0
 40
5.0
 40
6.0
 40
6.0
 40
6.0
 40
7.0
 40
7.0
 40
7.0
 40
8.0
 40
8.0
 40
8.0
 40
9.0
 40
9.0
 40
9.0
 40
10.0
 40
10.0
 40
10.0
 40
11.0
 40
11.0
 40
11.0
 40
12.0
 40
12.0
 40
12.0
 40
13.0
 40
13.0
 40
13.0
 40
13.0
 10
92.1652614786948
 20
-119.7885538437508
 30
0.0
 10
92.06707625736517
 20
-120.1566622963497
 30
0.0
 10
92.02263452560545
 20
-120.3153089434455
 30
0.0
 10
91.85037975134297
 20
-120.5649061113518
 30
0.0
 10
91.68949379218179
 20
-120.7955552540893
 30
0.0
 10
91.48209904396975
 20
-120.9815904102928
 30
0.0
 10
91.23749726451702
 20
-121.0747802431688
 30
0.0
 10
91.23749726451702
 20
-121.0747802431688
 30
0.0
 10
91.0690320952883
 20
-120.8949462588388
 30
0.0
 10
91.0690320952883
 20
-120.8949462588388
 30
0.0
 10
91.6302381498355
 20
-120.7426730383907
 30
0.0
 10
91.91893715149943
 20
-120.1862901175229
 30
0.0
 10
91.97440318881196
 20
-119.7461791692822
 30
0.0
 10
91.97440318881196
 20
-119.7461791692822
 30
0.0
 10
91.30433211693087
 20
-119.7461791692822
 30
0.0
 10
91.30433211693087
 20
-119.7461791692822
 30
0.0
 10
91.22268335393045
 20
-119.7461791692822
 30
0.0
 10
91.06179739476927
 20
-119.7504855386388
 30
0.0
 10
90.92468259445633
 20
-119.7694335638077
 30
0.0
 10
90.92468259445633
 20
-119.7694335638077
 30
0.0
 10
90.92468259445633
 20
-119.5494642170744
 30
0.0
 10
90.92468259445633
 20
-119.5494642170744
 30
0.0
 10
91.00047469513183
 20
-119.5706515543087
 30
0.0
 10
91.22096080618782
 20
-119.5706515543087
 30
0.0
 10
91.30812172196464
 20
-119.5706515543087
 30
0.0
 10
91.30812172196464
 20
-119.5706515543087
 30
0.0
 10
91.68570418714802
 20
-119.5706515543087
 30
0.0
 10
91.68570418714802
 20
-119.5706515543087
 30
0.0
 10
91.72291121838872
 20
-119.5706515543087
 30
0.0
 10
91.92823890930961
 20
-119.5684122422433
 30
0.0
 10
91.96165633551654
 20
-119.5622110703699
 30
0.0
 10
91.99851885720871
 20
-119.5558376437222
 30
0.0
 10
92.00058591449985
 20
-119.553770586431
 30
0.0
 10
92.05432940406976
 20
-119.5134629692536
 30
0.0
 10
92.05432940406976
 20
-119.5134629692536
 30
0.0
 10
92.2190049682647
 20
-119.667975501767
 30
0.0
 10
92.2190049682647
 20
-119.667975501767
 30
0.0
 10
92.19316675212532
 20
-119.6976033229402
 30
0.0
 10
92.18007538928137
 20
-119.7292982014045
 30
0.0
 10
92.1652614786948
 20
-119.7885538437508
 30
0.0
  0
SPLINE
  5
120
330
FB
100
AcDbEntity
  8
_U+30EC_U+30A4_U+30E4_U+30FC 1
370
     0
100
AcDbSpline
210
0.0
220
0.0
230
1.0
 70
    11
 71
     3
 72
    17
 73
    13
 74
     0
 42
0.0000000001
 43
0.0000000001
 12
1.0
 22
0.0
 32
0.0
 13
1.0
 23
0.0
 33
0.0
 40
0.0
 40
0.0
 40
0.0
 40
0.0
 40
1.0
 40
1.0
 40
1.0
 40
2.0
 40
2.0
 40
2.0
 40
3.0
 40
3.0
 40
3.0
 40
4.0
 40
4.0
 40
4.0
 40
4.0
 10
92.3485405585101
 20
-119.5895995794776
 30
0.0
 10
92.23760848388504
 20
-119.5895995794776
 30
0.0
 10
92.1487250203656
 20
-119.488141517437
 30
0.0
 10
92.1487250203656
 20
-119.3611897488055
 30
0.0
 10
92.1487250203656
 20
-119.2342379801741
 30
0.0
 10
92.23760848388504
 20
-119.1305406060681
 30
0.0
 10
92.3485405585101
 20
-119.1305406060681
 30
0.0
 10
92.45981714268366
 20
-119.1305406060681
 30
0.0
 10
92.55042315394573
 20
-119.2342379801741
 30
0.0
 10
92.55042315394573
 20
-119.3611897488055
 30
0.0
 10
92.55042315394573
 20
-119.488141517437
 30
0.0
 10
92.45981714268366
 20
-119.5895995794776
 30
0.0
 10
92.3485405585101
 20
-119.5895995794776
 30
0.0
  0
SPLINE
  5
121
330
FB
100
AcDbEntity
  8
_U+30EC_U+30A4_U+30E4_U+30FC 1
370
     0
100
AcDbSpline
210
0.0
220
0.0
230
1.0
 70
    11
 71
     3
 72
    17
 73
    13
 74
     0
 42
0.0000000001
 43
0.0000000001
 12
1.0
 22
0.0
 32
0.0
 13
1.0
 23
0.0
 33
0.0
 40
0.0
 40
0.0
 40
0.0
 40
0.0
 40
1.0
 40
1.0
 40
1.0
 40
2.0
 40
2.0
 40
2.0
 40
3.0
 40
3.0
 40
3.0
 40
4.0
 40
4.0
 40
4.0
 40
4.0
 10
92.34681801076746
 20
-119.2595594319907
 30
0.0
 10
92.29858667397397
 20
-119.2595594319907
 30
0.0
 10
92.25965709499064
 20
-119.3040011637504
 30
0.0
 10
92.25965709499064
 20
-119.3591226915144
 30
0.0
 10
92.25965709499064
 20
-119.4161390217953
 30
0.0
 10
92.29858667397397
 20
-119.4648871229116
 30
0.0
 10
92.35060761580124
 20
-119.4648871229116
 30
0.0
 10
92.40228404807999
 20
-119.4648871229116
 30
0.0
 10
92.43742402202953
 20
-119.4140719645041
 30
0.0
 10
92.43742402202953
 20
-119.3611897488055
 30
0.0
 10
92.43742402202953
 20
-119.3040011637504
 30
0.0
 10
92.39677189530359
 20
-119.2595594319907
 30
0.0
 10
92.34681801076746
 20
-119.2595594319907
 30
0.0
  0
HATCH
  5
122
330
FB
100
AcDbEntity
  8
_U+30EC_U+30A4_U+30E4_U+30FC 1
 62
   179
420
  2234388
100
AcDbHatch
 10
0.0
 20
0.0
 30
0.0
210
0.0
220
0.0
230
1.0
  2
SOLID
 70
     1
 71
     0
 91
        3
 92
        1
 93
        1
 72
     4
 94
        3
 73
     0
 74
     1
 95
       44
 96
       40
 40
0.0
 40
0.0
 40
0.0
 40
0.0
 40
1.0
 40
1.0
 40
1.0
 40
2.0
 40
2.0
 40
2.0
 40
3.0
 40
3.0
 40
3.0
 40
4.0
 40
4.0
 40
4.0
 40
5.0
 40
5.0
 40
5.0
 40
6.0
 40
6.0
 40
6.0
 40
7.0
 40
7.0
 40
7.0
 40
8.0
 40
8.0
 40
8.0
 40
9.0
 40
9.0
 40
9.0
 40
10.0
 40
10.0
 40
10.0
 40
11.0
 40
11.0
 40
11.0
 40
12.0
 40
12.0
 40
12.0
 40
13.0
 40
13.0
 40
13.0
 40
13.0
 10
92.1652614786948
 20
-119.7885538437508
 10
92.06707625736517
 20
-120.1566622963497
 10
92.02263452560545
 20
-120.3153089434455
 10
91.85037975134297
 20
-120.5649061113518
 10
91.68949379218179
 20
-120.7955552540893
 10
91.48209904396975
 20
-120.9815904102928
 10
91.23749726451702
 20
-121.0747802431688
 10
91.23749726451702
 20
-121.0747802431688
 10
91.0690320952883
 20
-120.8949462588388
 10
91.0690320952883
 20
-120.8949462588388
 10
91.6302381498355
 20
-120.7426730383907
 10
91.91893715149943
 20
-120.1862901175229
 10
91.97440318881196
 20
-119.7461791692822
 10
91.97440318881196
 20
-119.7461791692822
 10
91.30433211693087
 20
-119.7461791692822
 10
91.30433211693087
 20
-119.7461791692822
 10
91.22268335393045
 20
-119.7461791692822
 10
91.06179739476927
 20
-119.7504855386388
 10
90.92468259445633
 20
-119.7694335638077
 10
90.92468259445633
 20
-119.7694335638077
 10
90.92468259445633
 20
-119.5494642170744
 10
90.92468259445633
 20
-119.5494642170744
 10
91.00047469513183
 20
-119.5706515543087
 10
91.22096080618782
 20
-119.5706515543087
 10
91.30812172196464
 20
-119.5706515543087
 10
91.30812172196464
 20
-119.5706515543087
 10
91.68570418714802
 20
-119.5706515543087
 10
91.68570418714802
 20
-119.5706515543087
 10
91.72291121838872
 20
-119.5706515543087
 10
91.92823890930961
 20
-119.5684122422433
 10
91.96165633551654
 20
-119.5622110703699
 10
91.99851885720871
 20
-119.5558376437222
 10
92.00058591449985
 20
-119.553770586431
 10
92.05432940406976
 20
-119.5134629692536
 10
92.05432940406976
 20
-119.5134629692536
 10
92.2190049682647
 20
-119.667975501767
 10
92.2190049682647
 20
-119.667975501767
 10
92.19316675212532
 20
-119.6976033229402
 10
92.18007538928137
 20
-119.7292982014045
 10
92.1652614786948
 20
-119.7885538437508
 97
        0
 97
        0
 92
        1
 93
        1
 72
     4
 94
        3
 73
     0
 74
     1
 95
       17
 96
       13
 40
0.0
 40
0.0
 40
0.0
 40
0.0
 40
1.0
 40
1.0
 40
1.0
 40
2.0
 40
2.0
 40
2.0
 40
3.0
 40
3.0
 40
3.0
 40
4.0
 40
4.0
 40
4.0
 40
4.0
 10
92.3485405585101
 20
-119.5895995794776
 10
92.23760848388504
 20
-119.5895995794776
 10
92.1487250203656
 20
-119.488141517437
 10
92.1487250203656
 20
-119.3611897488055
 10
92.1487250203656
 20
-119.2342379801741
 10
92.23760848388504
 20
-119.1305406060681
 10
92.3485405585101
 20
-119.1305406060681
 10
92.45981714268366
 20
-119.1305406060681
 10
92.55042315394573
 20
-119.2342379801741
 10
92.55042315394573
 20
-119.3611897488055
 10
92.55042315394573
 20
-119.488141517437
 10
92.45981714268366
 20
-119.5895995794776
 10
92.3485405585101
 20
-119.5895995794776
 97
        0
 97
        0
 92
        1
 93
        1
 72
     4
 94
        3
 73
     0
 74
     1
 95
       17
 96
       13
 40
0.0
 40
0.0
 40
0.0
 40
0.0
 40
1.0
 40
1.0
 40
1.0
 40
2.0
 40
2.0
 40
2.0
 40
3.0
 40
3.0
 40
3.0
 40
4.0
 40
4.0
 40
4.0
 40
4.0
 10
92.34681801076746
 20
-119.2595594319907
 10
92.29858667397397
 20
-119.2595594319907
 10
92.25965709499064
 20
-119.3040011637504
 10
92.25965709499064
 20
-119.3591226915144
 10
92.25965709499064
 20
-119.4161390217953
 10
92.29858667397397
 20
-119.4648871229116
 10
92.35060761580124
 20
-119.4648871229116
 10
92.40228404807999
 20
-119.4648871229116
 10
92.43742402202953
 20
-119.4140719645041
 10
92.43742402202953
 20
-119.3611897488055
 10
92.43742402202953
 20
-119.3040011637504
 10
92.39677189530359
 20
-119.2595594319907
 10
92.34681801076746
 20
-119.2595594319907
 97
        0
 97
        0
 75
     2
 76
     1
 98
        0
  0
ENDBLK
  5
FE
330
FB
100
AcDbEntity
  8
0
100
AcDbBlockEnd
  0
ENDSEC
  0
SECTION
  2
ENTITIES
  0
INSERT
  5
42
330
1F
100
AcDbEntity
  8
_U+30EC_U+30A4_U+30E4_U+30FC 1
100
AcDbBlockReference
  2
block 2
 10
0.0
 20
0.0
 30
0.0
  0
POLYLINE
  5
A5
330
1F
100
AcDbEntity
  8
_U+30EC_U+30A4_U+30E4_U+30FC 1
 62
   179
420
  2234388
370
    25
100
AcDb2dPolyline
 66
     1
 10
0.0
 20
0.0
 30
0.0
  0
VERTEX
  5
A6
330
A5
100
AcDbEntity
  8
_U+30EC_U+30A4_U+30E4_U+30FC 1
 62
   179
420
  2234388
370
    25
100
AcDbVertex
100
AcDb2dVertex
 10
94.62300564152157
 20
-132.6265233001764
 30
0.0
  0
VERTEX
  5
A7
330
A5
100
AcDbEntity
  8
_U+30EC_U+30A4_U+30E4_U+30FC 1
 62
   179
420
  2234388
370
    25
100
AcDbVertex
100
AcDb2dVertex
 10
94.62300564152157
 20
-133.1267621889407
 30
0.0
  0
SEQEND
  5
A8
330
A5
100
AcDbEntity
  8
_U+30EC_U+30A4_U+30E4_U+30FC 1
 62
   179
420
  2234388
370
    25
  0
POLYLINE
  5
A9
330
1F
100
AcDbEntity
  8
_U+30EC_U+30A4_U+30E4_U+30FC 1
 62
   179
420
  2234388
370
    25
100
AcDb2dPolyline
 66
     1
 10
0.0
 20
0.0
 30
0.0
  0
VERTEX
  5
AA
330
A9
100
AcDbEntity
  8
_U+30EC_U+30A4_U+30E4_U+30FC 1
 62
   179
420
  2234388
370
    25
100
AcDbVertex
100
AcDb2dVertex
 10
70.62325180936185
 20
-132.6265233001764
 30
0.0
  0
VERTEX
  5
AB
330
A9
100
AcDbEntity
  8
_U+30EC_U+30A4_U+30E4_U+30FC 1
 62
   179
420
  2234388
370
    25
100
AcDbVertex
100
AcDb2dVertex
 10
94.62300564152157
 20
-132.6265233001764
 30
0.0
  0
SEQEND
  5
AC
330
A9
100
AcDbEntity
  8
_U+30EC_U+30A4_U+30E4_U+30FC 1
 62
   179
420
  2234388
370
    25
  0
POLYLINE
  5
AD
330
1F
100
AcDbEntity
  8
_U+30EC_U+30A4_U+30E4_U+30FC 1
 62
   179
420
  2234388
370
    25
100
AcDb2dPolyline
 66
     1
 10
0.0
 20
0.0
 30
0.0
  0
VERTEX
  5
AE
330
AD
100
AcDbEntity
  8
_U+30EC_U+30A4_U+30E4_U+30FC 1
 62
   179
420
  2234388
370
    25
100
AcDbVertex
100
AcDb2dVertex
 10
94.62300564152157
 20
-133.1267621889407
 30
0.0
  0
VERTEX
  5
AF
330
AD
100
AcDbEntity
  8
_U+30EC_U+30A4_U+30E4_U+30FC 1
 62
   179
420
  2234388
370
    25
100
AcDbVertex
100
AcDb2dVertex
 10
70.43963098071308
 20
-133.6262955221489
 30
0.0
  0
SEQEND
  5
B0
330
AD
100
AcDbEntity
  8
_U+30EC_U+30A4_U+30E4_U+30FC 1
 62
   179
420
  2234388
370
    25
  0
POLYLINE
  5
B1
330
1F
100
AcDbEntity
  8
_U+30EC_U+30A4_U+30E4_U+30FC 1
 62
   179
420
  2234388
370
    25
100
AcDb2dPolyline
 66
     1
 10
0.0
 20
0.0
 30
0.0
  0
VERTEX
  5
B2
330
B1
100
AcDbEntity
  8
_U+30EC_U+30A4_U+30E4_U+30FC 1
 62
   179
420
  2234388
370
    25
100
AcDbVertex
100
AcDb2dVertex
 10
70.62325180936185
 20
-118.6266783036768
 30
0.0
  0
VERTEX
  5
B3
330
B1
100
AcDbEntity
  8
_U+30EC_U+30A4_U+30E4_U+30FC 1
 62
   179
420
  2234388
370
    25
100
AcDbVertex
100
AcDb2dVertex
 10
70.62325180936185
 20
-132.6265233001764
 30
0.0
  0
SEQEND
  5
B4
330
B1
100
AcDbEntity
  8
_U+30EC_U+30A4_U+30E4_U+30FC 1
 62
   179
420
  2234388
370
    25
  0
POLYLINE
  5
B5
330
1F
100
AcDbEntity
  8
_U+30EC_U+30A4_U+30E4_U+30FC 1
 62
   179
420
  2234388
370
    25
100
AcDb2dPolyline
 66
     1
 10
0.0
 20
0.0
 30
0.0
  0
VERTEX
  5
B6
330
B5
100
AcDbEntity
  8
_U+30EC_U+30A4_U+30E4_U+30FC 1
 62
   179
420
  2234388
370
    25
100
AcDbVertex
100
AcDb2dVertex
 10
70.12784598866737
 20
-118.5712216370238
 30
0.0
  0
VERTEX
  5
B7
330
B5
100
AcDbEntity
  8
_U+30EC_U+30A4_U+30E4_U+30FC 1
 62
   179
420
  2234388
370
    25
100
AcDbVertex
100
AcDb2dVertex
 10
70.62773208702532
 20
-118.5712216370238
 30
0.0
  0
SEQEND
  5
B8
330
B5
100
AcDbEntity
  8
_U+30EC_U+30A4_U+30E4_U+30FC 1
 62
   179
420
  2234388
370
    25
  0
POLYLINE
  5
B9
330
1F
100
AcDbEntity
  8
_U+30EC_U+30A4_U+30E4_U+30FC 1
 62
   179
420
  2234388
370
    25
100
AcDb2dPolyline
 66
     1
 10
0.0
 20
0.0
 30
0.0
  0
VERTEX
  5
BA
330
B9
100
AcDbEntity
  8
_U+30EC_U+30A4_U+30E4_U+30FC 1
 62
   179
420
  2234388
370
    25
100
AcDbVertex
100
AcDb2dVertex
 10
70.1233657110039
 20
-118.6266783036768
 30
0.0
  0
VERTEX
  5
BB
330
B9
100
AcDbEntity
  8
_U+30EC_U+30A4_U+30E4_U+30FC 1
 62
   179
420
  2234388
370
    25
100
AcDbVertex
100
AcDb2dVertex
 10
69.62383239041472
 20
-132.7908471890248
 30
0.0
  0
SEQEND
  5
BC
330
B9
100
AcDbEntity
  8
_U+30EC_U+30A4_U+30E4_U+30FC 1
 62
   179
420
  2234388
370
    25
  0
SPLINE
  5
BD
330
1F
100
AcDbEntity
  8
_U+30EC_U+30A4_U+30E4_U+30FC 1
 62
   179
420
  2234388
370
    25
100
AcDbSpline
210
0.0
220
0.0
230
1.0
 70
     8
 71
     3
 72
    11
 73
     7
 74
     0
 42
0.0000000001
 43
0.0000000001
 12
1.0
 22
0.0
 32
0.0
 13
1.0
 23
0.0
 33
0.0
 40
0.0
 40
0.0
 40
0.0
 40
0.0
 40
1.0
 40
1.0
 40
1.0
 40
2.0
 40
2.0
 40
2.0
 40
2.0
 10
69.62383239041472
 20
-132.7908471890248
 30
0.0
 10
69.60418266869381
 20
-133.2321721889139
 30
0.0
 10
69.9462712710775
 20
-133.6063282999317
 30
0.0
 10
70.3872434820496
 20
-133.6256252443716
 30
0.0
 10
70.4048470927116
 20
-133.6266482999267
 30
0.0
 10
70.42241542559672
 20
-133.6270010777044
 30
0.0
 10
70.43963098071308
 20
-133.6262955221489
 30
0.0
  0
SPLINE
  5
BE
330
1F
100
AcDbEntity
  8
_U+30EC_U+30A4_U+30E4_U+30FC 1
 62
   179
420
  2234388
370
     9
100
AcDbSpline
210
0.0
220
0.0
230
1.0
 70
    11
 71
     3
 72
    17
 73
    13
 74
     0
 42
0.0000000001
 43
0.0000000001
 12
1.0
 22
0.0
 32
0.0
 13
1.0
 23
0.0
 33
0.0
 40
0.0
 40
0.0
 40
0.0
 40
0.0
 40
1.0
 40
1.0
 40
1.0
 40
2.0
 40
2.0
 40
2.0
 40
3.0
 40
3.0
 40
3.0
 40
4.0
 40
4.0
 40
4.0
 40
4.0
 10
94.7229123056394
 20
-137.6267249655932
 30
0.0
 10
94.7229123056394
 20
-137.5712682989405
 30
0.0
 10
94.67810952900464
 20
-137.526500798952
 30
0.0
 10
94.62300564152157
 20
-137.526500798952
 30
0.0
 10
94.56786647626161
 20
-137.526500798952
 30
0.0
 10
94.52309897740373
 20
-137.5712682989405
 30
0.0
 10
94.52309897740373
 20
-137.6267249655932
 30
0.0
 10
94.52309897740373
 20
-137.6818641322463
 30
0.0
 10
94.56786647626161
 20
-137.726666910013
 30
0.0
 10
94.62300564152157
 20
-137.726666910013
 30
0.0
 10
94.67810952900464
 20
-137.726666910013
 30
0.0
 10
94.7229123056394
 20
-137.6818641322463
 30
0.0
 10
94.7229123056394
 20
-137.6267249655932
 30
0.0
  0
SPLINE
  5
BF
330
1F
100
AcDbEntity
  8
_U+30EC_U+30A4_U+30E4_U+30FC 1
 62
   179
420
  2234388
370
     9
100
AcDbSpline
210
0.0
220
0.0
230
1.0
 70
    11
 71
     3
 72
    17
 73
    13
 74
     0
 42
0.0000000001
 43
0.0000000001
 12
1.0
 22
0.0
 32
0.0
 13
1.0
 23
0.0
 33
0.0
 40
0.0
 40
0.0
 40
0.0
 40
0.0
 40
1.0
 40
1.0
 40
1.0
 40
2.0
 40
2.0
 40
2.0
 40
3.0
 40
3.0
 40
3.0
 40
4.0
 40
4.0
 40
4.0
 40
4.0
 10
65.7232744343707
 20
-133.6266482999267
 30
0.0
 10
65.7232744343707
 20
-133.571191633274
 30
0.0
 10
65.6785069355128
 20
-133.5267416332851
 30
0.0
 10
65.62336942803869
 20
-133.5267416332851
 30
0.0
 10
65.567911105001
 20
-133.5267416332851
 30
0.0
 10
65.52314360614312
 20
-133.571191633274
 30
0.0
 10
65.52314360614312
 20
-133.6266482999267
 30
0.0
 10
65.52314360614312
 20
-133.6817521888016
 30
0.0
 10
65.567911105001
 20
-133.7265549665683
 30
0.0
 10
65.62336942803869
 20
-133.7265549665683
 30
0.0
 10
65.6785069355128
 20
-133.7265549665683
 30
0.0
 10
65.7232744343707
 20
-133.6817521888016
 30
0.0
 10
65.7232744343707
 20
-133.6266482999267
 30
0.0
  0
SPLINE
  5
C0
330
1F
100
AcDbEntity
  8
_U+30EC_U+30A4_U+30E4_U+30FC 1
 62
   179
420
  2234388
370
     9
100
AcDbSpline
210
0.0
220
0.0
230
1.0
 70
    11
 71
     3
 72
    17
 73
    13
 74
     0
 42
0.0000000001
 43
0.0000000001
 12
1.0
 22
0.0
 32
0.0
 13
1.0
 23
0.0
 33
0.0
 40
0.0
 40
0.0
 40
0.0
 40
0.0
 40
1.0
 40
1.0
 40
1.0
 40
2.0
 40
2.0
 40
2.0
 40
3.0
 40
3.0
 40
3.0
 40
4.0
 40
4.0
 40
4.0
 40
4.0
 10
69.72303349899501
 20
-137.6267249655932
 30
0.0
 10
69.72303349899501
 20
-137.5712682989405
 30
0.0
 10
69.67826600013711
 20
-137.526500798952
 30
0.0
 10
69.62312683487717
 20
-137.526500798952
 30
0.0
 10
69.5680229473941
 20
-137.526500798952
 30
0.0
 10
69.52322017075933
 20
-137.5712682989405
 30
0.0
 10
69.52322017075933
 20
-137.6267249655932
 30
0.0
 10
69.52322017075933
 20
-137.6818641322463
 30
0.0
 10
69.5680229473941
 20
-137.726666910013
 30
0.0
 10
69.62312683487717
 20
-137.726666910013
 30
0.0
 10
69.67826600013711
 20
-137.726666910013
 30
0.0
 10
69.72303349899501
 20
-137.6818641322463
 30
0.0
 10
69.72303349899501
 20
-137.6267249655932
 30
0.0
  0
SPLINE
  5
C1
330
1F
100
AcDbEntity
  8
_U+30EC_U+30A4_U+30E4_U+30FC 1
 62
   179
420
  2234388
370
     9
100
AcDbSpline
210
0.0
220
0.0
230
1.0
 70
    11
 71
     3
 72
    17
 73
    13
 74
     0
 42
0.0000000001
 43
0.0000000001
 12
1.0
 22
0.0
 32
0.0
 13
1.0
 23
0.0
 33
0.0
 40
0.0
 40
0.0
 40
0.0
 40
0.0
 40
1.0
 40
1.0
 40
1.0
 40
2.0
 40
2.0
 40
2.0
 40
3.0
 40
3.0
 40
3.0
 40
4.0
 40
4.0
 40
4.0
 40
4.0
 10
65.7232744343707
 20
-118.6197991370118
 30
0.0
 10
65.7232744343707
 20
-118.5643424703591
 30
0.0
 10
65.6785069355128
 20
-118.5195396925924
 30
0.0
 10
65.62336942803869
 20
-118.5195396925924
 30
0.0
 10
65.567911105001
 20
-118.5195396925924
 30
0.0
 10
65.52314360614312
 20
-118.5643424703591
 30
0.0
 10
65.52314360614312
 20
-118.6197991370118
 30
0.0
 10
65.52314360614312
 20
-118.6749383036645
 30
0.0
 10
65.567911105001
 20
-118.7197058036534
 30
0.0
 10
65.62336942803869
 20
-118.7197058036534
 30
0.0
 10
65.6785069355128
 20
-118.7197058036534
 30
0.0
 10
65.7232744343707
 20
-118.6749383036645
 30
0.0
 10
65.7232744343707
 20
-118.6197991370118
 30
0.0
  0
POLYLINE
  5
C2
330
1F
100
AcDbEntity
  8
_U+30EC_U+30A4_U+30E4_U+30FC 1
 62
   179
420
  2234388
370
     9
100
AcDb2dPolyline
 66
     1
 10
0.0
 20
0.0
 30
0.0
  0
VERTEX
  5
C3
330
C2
100
AcDbEntity
  8
_U+30EC_U+30A4_U+30E4_U+30FC 1
 62
   179
420
  2234388
370
     9
100
AcDbVertex
100
AcDb2dVertex
 10
69.62312683487717
 20
-137.6267249655932
 30
0.0
  0
VERTEX
  5
C4
330
C2
100
AcDbEntity
  8
_U+30EC_U+30A4_U+30E4_U+30FC 1
 62
   179
420
  2234388
370
     9
100
AcDbVertex
100
AcDb2dVertex
 10
94.62300564152157
 20
-137.6267249655932
 30
0.0
  0
SEQEND
  5
C5
330
C2
100
AcDbEntity
  8
_U+30EC_U+30A4_U+30E4_U+30FC 1
 62
   179
420
  2234388
370
     9
  0
POLYLINE
  5
C6
330
1F
100
AcDbEntity
  8
_U+30EC_U+30A4_U+30E4_U+30FC 1
 62
   179
420
  2234388
370
     9
100
AcDb2dPolyline
 66
     1
 10
0.0
 20
0.0
 30
0.0
  0
VERTEX
  5
C7
330
C6
100
AcDbEntity
  8
_U+30EC_U+30A4_U+30E4_U+30FC 1
 62
   179
420
  2234388
370
     9
100
AcDbVertex
100
AcDb2dVertex
 10
69.62312683487717
 20
-135.3667599661584
 30
0.0
  0
VERTEX
  5
C8
330
C6
100
AcDbEntity
  8
_U+30EC_U+30A4_U+30E4_U+30FC 1
 62
   179
420
  2234388
370
     9
100
AcDbVertex
100
AcDb2dVertex
 10
69.62312683487717
 20
-138.6264971875657
 30
0.0
  0
SEQEND
  5
C9
330
C6
100
AcDbEntity
  8
_U+30EC_U+30A4_U+30E4_U+30FC 1
 62
   179
420
  2234388
370
     9
  0
POLYLINE
  5
CA
330
1F
100
AcDbEntity
  8
_U+30EC_U+30A4_U+30E4_U+30FC 1
 62
   179
420
  2234388
370
     9
100
AcDb2dPolyline
 66
     1
 10
0.0
 20
0.0
 30
0.0
  0
VERTEX
  5
CB
330
CA
100
AcDbEntity
  8
_U+30EC_U+30A4_U+30E4_U+30FC 1
 62
   179
420
  2234388
370
     9
100
AcDbVertex
100
AcDb2dVertex
 10
94.62300564152157
 20
-135.6664799660833
 30
0.0
  0
VERTEX
  5
CC
330
CA
100
AcDbEntity
  8
_U+30EC_U+30A4_U+30E4_U+30FC 1
 62
   179
420
  2234388
370
     9
100
AcDbVertex
100
AcDb2dVertex
 10
94.62300564152157
 20
-138.6264971875657
 30
0.0
  0
SEQEND
  5
CD
330
CA
100
AcDbEntity
  8
_U+30EC_U+30A4_U+30E4_U+30FC 1
 62
   179
420
  2234388
370
     9
  0
INSERT
  5
CF
330
1F
100
AcDbEntity
  8
_U+30EC_U+30A4_U+30E4_U+30FC 1
100
AcDbBlockReference
  2
block 14
 10
0.0
 20
0.0
 30
0.0
  0
POLYLINE
  5
D6
330
1F
100
AcDbEntity
  8
_U+30EC_U+30A4_U+30E4_U+30FC 1
 62
   179
420
  2234388
370
     9
100
AcDb2dPolyline
 66
     1
 10
0.0
 20
0.0
 30
0.0
  0
VERTEX
  5
D7
330
D6
100
AcDbEntity
  8
_U+30EC_U+30A4_U+30E4_U+30FC 1
 62
   179
420
  2234388
370
     9
100
AcDbVertex
100
AcDb2dVertex
 10
65.62336942803869
 20
-118.6266783036768
 30
0.0
  0
VERTEX
  5
D8
330
D6
100
AcDbEntity
  8
_U+30EC_U+30A4_U+30E4_U+30FC 1
 62
   179
420
  2234388
370
     9
100
AcDbVertex
100
AcDb2dVertex
 10
65.62336942803869
 20
-133.6266482999267
 30
0.0
  0
SEQEND
  5
D9
330
D6
100
AcDbEntity
  8
_U+30EC_U+30A4_U+30E4_U+30FC 1
 62
   179
420
  2234388
370
     9
  0
POLYLINE
  5
DA
330
1F
100
AcDbEntity
  8
_U+30EC_U+30A4_U+30E4_U+30FC 1
 62
   179
420
  2234388
370
     9
100
AcDb2dPolyline
 66
     1
 10
0.0
 20
0.0
 30
0.0
  0
VERTEX
  5
DB
330
DA
100
AcDbEntity
  8
_U+30EC_U+30A4_U+30E4_U+30FC 1
 62
   179
420
  2234388
370
     9
100
AcDbVertex
100
AcDb2dVertex
 10
67.58742272014564
 20
-118.5881196925753
 30
0.0
  0
VERTEX
  5
DC
330
DA
100
AcDbEntity
  8
_U+30EC_U+30A4_U+30E4_U+30FC 1
 62
   179
420
  2234388
370
     9
100
AcDbVertex
100
AcDb2dVertex
 10
64.62775835120853
 20
-118.5881196925753
 30
0.0
  0
SEQEND
  5
DD
330
DA
100
AcDbEntity
  8
_U+30EC_U+30A4_U+30E4_U+30FC 1
 62
   179
420
  2234388
370
     9
  0
POLYLINE
  5
DE
330
1F
100
AcDbEntity
  8
_U+30EC_U+30A4_U+30E4_U+30FC 1
 62
   179
420
  2234388
370
     9
100
AcDb2dPolyline
 66
     1
 10
0.0
 20
0.0
 30
0.0
  0
VERTEX
  5
DF
330
DE
100
AcDbEntity
  8
_U+30EC_U+30A4_U+30E4_U+30FC 1
 62
   179
420
  2234388
370
     9
100
AcDbVertex
100
AcDb2dVertex
 10
67.88336799037322
 20
-133.6266482999267
 30
0.0
  0
VERTEX
  5
E0
330
DE
100
AcDbEntity
  8
_U+30EC_U+30A4_U+30E4_U+30FC 1
 62
   179
420
  2234388
370
     9
100
AcDbVertex
100
AcDb2dVertex
 10
64.62327807354505
 20
-133.6266482999267
 30
0.0
  0
SEQEND
  5
E1
330
DE
100
AcDbEntity
  8
_U+30EC_U+30A4_U+30E4_U+30FC 1
 62
   179
420
  2234388
370
     9
  0
INSERT
  5
E3
330
1F
100
AcDbEntity
  8
_U+30EC_U+30A4_U+30E4_U+30FC 1
100
AcDbBlockReference
  2
block 15
 10
0.0
 20
0.0
 30
0.0
  0
POLYLINE
  5
EA
330
1F
100
AcDbEntity
  8
_U+30EC_U+30A4_U+30E4_U+30FC 1
  6
AI-Linetype-1
 62
   154
420
    23468
370
    25
100
AcDb2dPolyline
 66
     1
 10
0.0
 20
0.0
 30
0.0
  0
VERTEX
  5
EB
330
EA
100
AcDbEntity
  8
_U+30EC_U+30A4_U+30E4_U+30FC 1
  6
AI-Linetype-1
 62
   154
420
    23468
370
    25
100
AcDbVertex
100
AcDb2dVertex
 10
84.55712700943464
 20
-131.8958146892481
 30
0.0
  0
VERTEX
  5
EC
330
EA
100
AcDbEntity
  8
_U+30EC_U+30A4_U+30E4_U+30FC 1
  6
AI-Linetype-1
 62
   154
420
    23468
370
    25
100
AcDbVertex
100
AcDb2dVertex
 10
94.55685980987576
 20
-131.8958146892481
 30
0.0
  0
SEQEND
  5
EE
330
EA
100
AcDbEntity
  8
_U+30EC_U+30A4_U+30E4_U+30FC 1
  6
AI-Linetype-1
 62
   154
420
    23468
370
    25
  0
POLYLINE
  5
EF
330
1F
100
AcDbEntity
  8
_U+30EC_U+30A4_U+30E4_U+30FC 1
 62
   179
420
  2234388
370
     9
100
AcDb2dPolyline
 66
     1
 10
0.0
 20
0.0
 30
0.0
  0
VERTEX
  5
F0
330
EF
100
AcDbEntity
  8
_U+30EC_U+30A4_U+30E4_U+30FC 1
 62
   179
420
  2234388
370
     9
100
AcDbVertex
100
AcDb2dVertex
 10
86.60143890172434
 20
-131.3956110782619
 30
0.0
  0
VERTEX
  5
F1
330
EF
100
AcDbEntity
  8
_U+30EC_U+30A4_U+30E4_U+30FC 1
 62
   179
420
  2234388
370
     9
100
AcDbVertex
100
AcDb2dVertex
 10
86.8598133395771
 20
-130.4295996896149
 30
0.0
  0
SEQEND
  5
F2
330
EF
100
AcDbEntity
  8
_U+30EC_U+30A4_U+30E4_U+30FC 1
 62
   179
420
  2234388
370
     9
  0
POLYLINE
  5
F3
330
1F
100
AcDbEntity
  8
_U+30EC_U+30A4_U+30E4_U+30FC 1
 62
   179
420
  2234388
370
     9
100
AcDb2dPolyline
 66
     1
 10
0.0
 20
0.0
 30
0.0
  0
VERTEX
  5
F4
330
F3
100
AcDbEntity
  8
_U+30EC_U+30A4_U+30E4_U+30FC 1
 62
   179
420
  2234388
370
     9
100
AcDbVertex
100
AcDb2dVertex
 10
86.60143890172434
 20
-131.3956110782619
 30
0.0
  0
VERTEX
  5
F5
330
F3
100
AcDbEntity
  8
_U+30EC_U+30A4_U+30E4_U+30FC 1
 62
   179
420
  2234388
370
     9
100
AcDbVertex
100
AcDb2dVertex
 10
86.60143890172434
 20
-122.0201183028282
 30
0.0
  0
SEQEND
  5
F6
330
F3
100
AcDbEntity
  8
_U+30EC_U+30A4_U+30E4_U+30FC 1
 62
   179
420
  2234388
370
     9
  0
POLYLINE
  5
F7
330
1F
100
AcDbEntity
  8
_U+30EC_U+30A4_U+30E4_U+30FC 1
 62
   179
420
  2234388
370
     9
100
AcDb2dPolyline
 66
     1
 10
0.0
 20
0.0
 30
0.0
  0
VERTEX
  5
F8
330
F7
100
AcDbEntity
  8
_U+30EC_U+30A4_U+30E4_U+30FC 1
 62
   179
420
  2234388
370
     9
100
AcDbVertex
100
AcDb2dVertex
 10
86.60143890172434
 20
-131.3956110782619
 30
0.0
  0
VERTEX
  5
F9
330
F7
100
AcDbEntity
  8
_U+30EC_U+30A4_U+30E4_U+30FC 1
 62
   179
420
  2234388
370
     9
100
AcDbVertex
100
AcDb2dVertex
 10
86.34236108952553
 20
-130.4295996896149
 30
0.0
  0
SEQEND
  5
FA
330
F7
100
AcDbEntity
  8
_U+30EC_U+30A4_U+30E4_U+30FC 1
 62
   179
420
  2234388
370
     9
  0
INSERT
  5
FC
330
1F
100
AcDbEntity
  8
_U+30EC_U+30A4_U+30E4_U+30FC 1
100
AcDbBlockReference
  2
block 16
 10
0.0
 20
0.0
 30
0.0
  0
ENDSEC
  0
SECTION
  2
OBJECTS
  0
DICTIONARY
  5
C
330
0
100
AcDbDictionary
281
     1
  3
ACAD_GROUP
350
D
  3
ACAD_LAYOUT
350
1A
  3
ACAD_MATERIAL
350
3B
  3
ACAD_MLEADERSTYLE
350
125
  3
ACAD_MLINESTYLE
350
17
  3
ACAD_PLOTSETTINGS
350
19
  3
ACAD_PLOTSTYLENAME
350
E
  3
ACAD_TABLESTYLE
350
124
  3
ACAD_VISUALSTYLE
350
2A
  0
SUN
  5
3F
330
29
100
AcDbSun
 90
        1
290
     0
 63
     7
421
 16777215
 40
1.0
291
     1
 91
  2455826
 92
 54000000
292
     0
 70
     2
 71
   256
280
     1
  0
DICTIONARY
  5
D
102
{ACAD_REACTORS
330
C
102
}
330
C
100
AcDbDictionary
281
     1
  0
DICTIONARY
  5
1A
102
{ACAD_REACTORS
330
C
102
}
330
C
100
AcDbDictionary
281
     1
  3
Layout1
350
1E
  3
Layout2
350
26
  3
Model
350
22
  0
DICTIONARY
  5
3B
102
{ACAD_REACTORS
330
C
102
}
330
C
100
AcDbDictionary
281
     1
  3
ByBlock
350
3D
  3
ByLayer
350
3C
  3
Global
350
3E
  0
DICTIONARY
  5
125
102
{ACAD_REACTORS
330
C
102
}
330
C
100
AcDbDictionary
281
     1
  0
DICTIONARY
  5
17
102
{ACAD_REACTORS
330
C
102
}
330
C
100
AcDbDictionary
281
     1
  3
Standard
350
18
  0
DICTIONARY
  5
19
102
{ACAD_REACTORS
330
C
102
}
330
C
100
AcDbDictionary
281
     1
  0
ACDBDICTIONARYWDFLT
  5
E
102
{ACAD_REACTORS
330
C
102
}
330
C
100
AcDbDictionary
281
     1
  3
Normal
350
F
100
AcDbDictionaryWithDefault
340
F
  0
DICTIONARY
  5
124
102
{ACAD_REACTORS
330
C
102
}
330
C
100
AcDbDictionary
281
     1
  0
DICTIONARY
  5
2A
102
{ACAD_REACTORS
330
C
102
}
330
C
100
AcDbDictionary
281
     1
  3
2dWireframe
350
2F
  3
3D Hidden
350
31
  3
3dWireframe
350
30
  3
Basic
350
32
  3
Brighten
350
36
  3
ColorChange
350
3A
  3
Conceptual
350
34
  3
Dim
350
35
  3
Facepattern
350
39
  3
Flat
350
2B
  3
FlatWithEdges
350
2C
  3
Gouraud
350
2D
  3
GouraudWithEdges
350
2E
  3
Linepattern
350
38
  3
Realistic
350
33
  3
Thicken
350
37
  0
LAYOUT
  5
1E
102
{ACAD_REACTORS
330
1A
102
}
330
1A
100
AcDbPlotSettings
  1

  2
none_device
  4

  6

 40
0.0
 41
0.0
 42
0.0
 43
0.0
 44
0.0
 45
0.0
 46
0.0
 47
0.0
 48
0.0
 49
0.0
140
0.0
141
0.0
142
1.0
143
1.0
 70
   688
 72
     0
 73
     0
 74
     5
  7

 75
    16
 76
     0
 77
     2
 78
   300
147
1.0
148
0.0
149
0.0
100
AcDbLayout
  1
Layout1
 70
     1
 71
     1
 10
0.0
 20
0.0
 11
12.0
 21
9.0
 12
0.0
 22
0.0
 32
0.0
 14
1.000000000000000E+20
 24
1.000000000000000E+20
 34
1.000000000000000E+20
 15
-1.000000000000000E+20
 25
-1.000000000000000E+20
 35
-1.000000000000000E+20
146
0.0
 13
0.0
 23
0.0
 33
0.0
 16
1.0
 26
0.0
 36
0.0
 17
0.0
 27
1.0
 37
0.0
 76
     0
330
1B
  0
LAYOUT
  5
26
102
{ACAD_REACTORS
330
1A
102
}
330
1A
100
AcDbPlotSettings
  1

  2
none_device
  4

  6

 40
0.0
 41
0.0
 42
0.0
 43
0.0
 44
0.0
 45
0.0
 46
0.0
 47
0.0
 48
0.0
 49
0.0
140
0.0
141
0.0
142
1.0
143
1.0
 70
   688
 72
     0
 73
     0
 74
     5
  7

 75
    16
 76
     0
 77
     2
 78
   300
147
1.0
148
0.0
149
0.0
100
AcDbLayout
  1
Layout2
 70
     1
 71
     2
 10
0.0
 20
0.0
 11
0.0
 21
0.0
 12
0.0
 22
0.0
 32
0.0
 14
0.0
 24
0.0
 34
0.0
 15
0.0
 25
0.0
 35
0.0
146
0.0
 13
0.0
 23
0.0
 33
0.0
 16
1.0
 26
0.0
 36
0.0
 17
0.0
 27
1.0
 37
0.0
 76
     0
330
23
  0
LAYOUT
  5
22
102
{ACAD_REACTORS
330
1A
102
}
330
1A
100
AcDbPlotSettings
  1

  2
none_device
  4

  6

 40
0.0
 41
0.0
 42
0.0
 43
0.0
 44
0.0
 45
0.0
 46
0.0
 47
0.0
 48
0.0
 49
0.0
140
0.0
141
0.0
142
1.0
143
1.0
 70
  1712
 72
     0
 73
     0
 74
     0
  7

 75
     0
 76
     0
 77
     2
 78
   300
147
1.0
148
0.0
149
0.0
100
AcDbLayout
  1
Model
 70
     1
 71
     0
 10
0.0
 20
0.0
 11
12.0
 21
9.0
 12
0.0
 22
0.0
 32
0.0
 14
1.000000000000000E+20
 24
1.000000000000000E+20
 34
1.000000000000000E+20
 15
-1.000000000000000E+20
 25
-1.000000000000000E+20
 35
-1.000000000000000E+20
146
0.0
 13
0.0
 23
0.0
 33
0.0
 16
1.0
 26
0.0
 36
0.0
 17
0.0
 27
1.0
 37
0.0
 76
     0
330
1F
331
29
  0
MATERIAL
  5
3D
102
{ACAD_REACTORS
330
3B
102
}
330
3B
100
AcDbMaterial
  1
ByBlock
 72
     1
 94
      127
  0
MATERIAL
  5
3C
102
{ACAD_REACTORS
330
3B
102
}
330
3B
100
AcDbMaterial
  1
ByLayer
 72
     1
 94
      127
  0
MATERIAL
  5
3E
102
{ACAD_REACTORS
330
3B
102
}
330
3B
100
AcDbMaterial
  1
Global
 72
     1
 94
      127
  0
MLINESTYLE
  5
18
102
{ACAD_REACTORS
330
17
102
}
330
17
100
AcDbMlineStyle
  2
Standard
 70
     0
  3

 62
   256
 51
90.0
 52
90.0
 71
     2
 49
0.5
 62
   256
  6
BYLAYER
 49
-0.5
 62
   256
  6
BYLAYER
  0
ACDBPLACEHOLDER
  5
F
102
{ACAD_REACTORS
330
E
102
}
330
E
  0
VISUALSTYLE
  5
2F
102
{ACAD_REACTORS
330
2A
102
}
330
2A
100
AcDbVisualStyle
  2
2dWireframe
 70
     4
177
     2
291
     0
 71
     0
176
     1
 72
     2
176
     1
 73
     0
176
     1
 90
        0
176
     1
 40
-0.6
176
     1
 41
-30.0
176
     1
 62
     5
 63
     7
421
 16777215
176
     1
 74
     1
176
     1
 91
        4
176
     1
 64
     7
176
     1
 65
   257
176
     1
 75
     1
176
     1
175
     1
176
     1
 42
1.0
176
     1
 92
        0
176
     1
 66
   257
176
     1
 43
1.0
176
     1
 76
     1
176
     1
 77
     6
176
     1
 78
     2
176
     1
 67
     7
176
     1
 79
     5
176
     1
170
     0
176
     1
171
     0
176
     1
290
     0
176
     1
 93
        1
176
     1
 44
0.0
176
     1
173
     0
176
     1
  0
VISUALSTYLE
  5
31
102
{ACAD_REACTORS
330
2A
102
}
330
2A
100
AcDbVisualStyle
  2
3D Hidden
 70
     6
177
     2
291
     0
 71
     1
176
     1
 72
     2
176
     1
 73
     2
176
     1
 90
        0
176
     1
 40
-0.6
176
     1
 41
-30.0
176
     1
 62
     5
 63
     7
421
 16777215
176
     1
 74
     2
176
     1
 91
        2
176
     1
 64
     7
176
     1
 65
   257
176
     1
 75
     2
176
     1
175
     1
176
     1
 42
40.0
176
     1
 92
        0
176
     1
 66
   257
176
     1
 43
1.0
176
     1
 76
     1
176
     1
 77
     6
176
     1
 78
     2
176
     1
 67
     7
176
     1
 79
     3
176
     1
170
     0
176
     1
171
     0
176
     1
290
     0
176
     1
 93
        1
176
     1
 44
0.0
176
     1
173
     0
176
     1
  0
VISUALSTYLE
  5
30
102
{ACAD_REACTORS
330
2A
102
}
330
2A
100
AcDbVisualStyle
  2
3dWireframe
 70
     5
177
     2
291
     0
 71
     0
176
     1
 72
     2
176
     1
 73
     0
176
     1
 90
        0
176
     1
 40
-0.6
176
     1
 41
-30.0
176
     1
 62
     5
 63
     7
421
 16777215
176
     1
 74
     1
176
     1
 91
        4
176
     1
 64
     7
176
     1
 65
   257
176
     1
 75
     1
176
     1
175
     1
176
     1
 42
1.0
176
     1
 92
        0
176
     1
 66
   257
176
     1
 43
1.0
176
     1
 76
     1
176
     1
 77
     6
176
     1
 78
     2
176
     1
 67
     7
176
     1
 79
     5
176
     1
170
     0
176
     1
171
     0
176
     1
290
     0
176
     1
 93
        1
176
     1
 44
0.0
176
     1
173
     0
176
     1
  0
VISUALSTYLE
  5
32
102
{ACAD_REACTORS
330
2A
102
}
330
2A
100
AcDbVisualStyle
  2
Basic
 70
     7
177
     2
291
     1
 71
     1
176
     1
 72
     0
176
     1
 73
     1
176
     1
 90
        0
176
     1
 40
-0.6
176
     1
 41
-30.0
176
     1
 62
     5
 63
     7
421
 16777215
176
     1
 74
     0
176
     1
 91
        4
176
     1
 64
     7
176
     1
 65
   257
176
     1
 75
     1
176
     1
175
     1
176
     1
 42
1.0
176
     1
 92
        8
176
     1
 66
     7
176
     1
 43
1.0
176
     1
 76
     1
176
     1
 77
     6
176
     1
 78
     2
176
     1
 67
     7
176
     1
 79
     5
176
     1
170
     0
176
     1
171
     0
176
     1
290
     0
176
     1
 93
        1
176
     1
 44
0.0
176
     1
173
     0
176
     1
  0
VISUALSTYLE
  5
36
102
{ACAD_REACTORS
330
2A
102
}
330
2A
100
AcDbVisualStyle
  2
Brighten
 70
    12
177
     2
291
     1
 71
     2
176
     1
 72
     2
176
     1
 73
     0
176
     1
 90
        0
176
     1
 40
-0.6
176
     1
 41
-30.0
176
     1
 62
     5
 63
     7
421
 16777215
176
     1
 74
     1
176
     1
 91
        4
176
     1
 64
     7
176
     1
 65
   257
176
     1
 75
     1
176
     1
175
     1
176
     1
 42
1.0
176
     1
 92
        8
176
     1
 66
     7
176
     1
 43
1.0
176
     1
 76
     1
176
     1
 77
     6
176
     1
 78
     2
176
     1
 67
     7
176
     1
 79
     5
176
     1
170
     0
176
     1
171
     0
176
     1
290
     0
176
     1
 93
        1
176
     1
 44
50.0
176
     1
173
     0
176
     1
  0
VISUALSTYLE
  5
3A
102
{ACAD_REACTORS
330
2A
102
}
330
2A
100
AcDbVisualStyle
  2
ColorChange
 70
    16
177
     2
291
     1
 71
     2
176
     1
 72
     2
176
     1
 73
     3
176
     1
 90
        0
176
     1
 40
-0.6
176
     1
 41
-30.0
176
     1
 62
     5
 63
     8
421
  8421504
176
     1
 74
     1
176
     1
 91
        4
176
     1
 64
     7
176
     1
 65
   257
176
     1
 75
     1
176
     1
175
     1
176
     1
 42
1.0
176
     1
 92
        8
176
     1
 66
     8
424
  8421504
176
     1
 43
1.0
176
     1
 76
     1
176
     1
 77
     6
176
     1
 78
     2
176
     1
 67
     7
176
     1
 79
     5
176
     1
170
     0
176
     1
171
     0
176
     1
290
     0
176
     1
 93
        1
176
     1
 44
0.0
176
     1
173
     0
176
     1
  0
VISUALSTYLE
  5
34
102
{ACAD_REACTORS
330
2A
102
}
330
2A
100
AcDbVisualStyle
  2
Conceptual
 70
     9
177
     2
291
     0
 71
     3
176
     1
 72
     2
176
     1
 73
     0
176
     1
 90
        0
176
     1
 40
-0.6
176
     1
 41
-30.0
176
     1
 62
     5
 63
     7
421
 16777215
176
     1
 74
     2
176
     1
 91
        2
176
     1
 64
     7
176
     1
 65
   257
176
     1
 75
     1
176
     1
175
     1
176
     1
 42
40.0
176
     1
 92
        8
176
     1
 66
     7
176
     1
 43
1.0
176
     1
 76
     1
176
     1
 77
     6
176
     1
 78
     2
176
     1
 67
     7
176
     1
 79
     3
176
     1
170
     0
176
     1
171
     0
176
     1
290
     0
176
     1
 93
        1
176
     1
 44
0.0
176
     1
173
     0
176
     1
  0
VISUALSTYLE
  5
35
102
{ACAD_REACTORS
330
2A
102
}
330
2A
100
AcDbVisualStyle
  2
Dim
 70
    11
177
     2
291
     1
 71
     2
176
     1
 72
     2
176
     1
 73
     0
176
     1
 90
        0
176
     1
 40
-0.6
176
     1
 41
-30.0
176
     1
 62
     5
 63
     7
421
 16777215
176
     1
 74
     1
176
     1
 91
        4
176
     1
 64
     7
176
     1
 65
   257
176
     1
 75
     1
176
     1
175
     1
176
     1
 42
1.0
176
     1
 92
        8
176
     1
 66
     7
176
     1
 43
1.0
176
     1
 76
     1
176
     1
 77
     6
176
     1
 78
     2
176
     1
 67
     7
176
     1
 79
     5
176
     1
170
     0
176
     1
171
     0
176
     1
290
     0
176
     1
 93
        1
176
     1
 44
-50.0
176
     1
173
     0
176
     1
  0
VISUALSTYLE
  5
39
102
{ACAD_REACTORS
330
2A
102
}
330
2A
100
AcDbVisualStyle
  2
Facepattern
 70
    15
177
     2
291
     1
 71
     2
176
     1
 72
     2
176
     1
 73
     0
176
     1
 90
        0
176
     1
 40
-0.6
176
     1
 41
-30.0
176
     1
 62
     5
 63
     7
421
 16777215
176
     1
 74
     1
176
     1
 91
        4
176
     1
 64
     7
176
     1
 65
   257
176
     1
 75
     1
176
     1
175
     1
176
     1
 42
1.0
176
     1
 92
        8
176
     1
 66
     7
176
     1
 43
1.0
176
     1
 76
     1
176
     1
 77
     6
176
     1
 78
     2
176
     1
 67
     7
176
     1
 79
     5
176
     1
170
     0
176
     1
171
     0
176
     1
290
     0
176
     1
 93
        1
176
     1
 44
0.0
176
     1
173
     0
176
     1
  0
VISUALSTYLE
  5
2B
102
{ACAD_REACTORS
330
2A
102
}
330
2A
100
AcDbVisualStyle
  2
Flat
 70
     0
177
     2
291
     1
 71
     2
176
     1
 72
     1
176
     1
 73
     1
176
     1
 90
        2
176
     1
 40
-0.6
176
     1
 41
30.0
176
     1
 62
     5
 63
     7
421
 16777215
176
     1
 74
     0
176
     1
 91
        4
176
     1
 64
     7
176
     1
 65
   257
176
     1
 75
     1
176
     1
175
     1
176
     1
 42
1.0
176
     1
 92
        8
176
     1
 66
     7
176
     1
 43
1.0
176
     1
 76
     1
176
     1
 77
     6
176
     1
 78
     2
176
     1
 67
     7
176
     1
 79
     5
176
     1
170
     0
176
     1
171
     0
176
     1
290
     0
176
     1
 93
       13
176
     1
 44
0.0
176
     1
173
     0
176
     1
  0
VISUALSTYLE
  5
2C
102
{ACAD_REACTORS
330
2A
102
}
330
2A
100
AcDbVisualStyle
  2
FlatWithEdges
 70
     1
177
     2
291
     1
 71
     2
176
     1
 72
     1
176
     1
 73
     1
176
     1
 90
        2
176
     1
 40
-0.6
176
     1
 41
30.0
176
     1
 62
     5
 63
     7
421
 16777215
176
     1
 74
     1
176
     1
 91
        4
176
     1
 64
     7
176
     1
 65
   257
176
     1
 75
     1
176
     1
175
     1
176
     1
 42
1.0
176
     1
 92
        0
176
     1
 66
   257
176
     1
 43
1.0
176
     1
 76
     1
176
     1
 77
     6
176
     1
 78
     2
176
     1
 67
     7
176
     1
 79
     5
176
     1
170
     0
176
     1
171
     0
176
     1
290
     0
176
     1
 93
       13
176
     1
 44
0.0
176
     1
173
     0
176
     1
  0
VISUALSTYLE
  5
2D
102
{ACAD_REACTORS
330
2A
102
}
330
2A
100
AcDbVisualStyle
  2
Gouraud
 70
     2
177
     2
291
     1
 71
     2
176
     1
 72
     2
176
     1
 73
     1
176
     1
 90
        2
176
     1
 40
-0.6
176
     1
 41
30.0
176
     1
 62
     5
 63
     7
421
 16777215
176
     1
 74
     0
176
     1
 91
        4
176
     1
 64
     7
176
     1
 65
   257
176
     1
 75
     1
176
     1
175
     1
176
     1
 42
1.0
176
     1
 92
        0
176
     1
 66
     7
176
     1
 43
1.0
176
     1
 76
     1
176
     1
 77
     6
176
     1
 78
     2
176
     1
 67
     7
176
     1
 79
     5
176
     1
170
     0
176
     1
171
     0
176
     1
290
     0
176
     1
 93
       13
176
     1
 44
0.0
176
     1
173
     0
176
     1
  0
VISUALSTYLE
  5
2E
102
{ACAD_REACTORS
330
2A
102
}
330
2A
100
AcDbVisualStyle
  2
GouraudWithEdges
 70
     3
177
     2
291
     1
 71
     2
176
     1
 72
     2
176
     1
 73
     1
176
     1
 90
        2
176
     1
 40
-0.6
176
     1
 41
30.0
176
     1
 62
     5
 63
     7
421
 16777215
176
     1
 74
     1
176
     1
 91
        4
176
     1
 64
     7
176
     1
 65
   257
176
     1
 75
     1
176
     1
175
     1
176
     1
 42
1.0
176
     1
 92
        0
176
     1
 66
   257
176
     1
 43
1.0
176
     1
 76
     1
176
     1
 77
     6
176
     1
 78
     2
176
     1
 67
     7
176
     1
 79
     5
176
     1
170
     0
176
     1
171
     0
176
     1
290
     0
176
     1
 93
       13
176
     1
 44
0.0
176
     1
173
     0
176
     1
  0
VISUALSTYLE
  5
38
102
{ACAD_REACTORS
330
2A
102
}
330
2A
100
AcDbVisualStyle
  2
Linepattern
 70
    14
177
     2
291
     1
 71
     2
176
     1
 72
     2
176
     1
 73
     0
176
     1
 90
        0
176
     1
 40
-0.6
176
     1
 41
-30.0
176
     1
 62
     5
 63
     7
421
 16777215
176
     1
 74
     1
176
     1
 91
        4
176
     1
 64
     7
176
     1
 65
   257
176
     1
 75
     7
176
     1
175
     7
176
     1
 42
1.0
176
     1
 92
        8
176
     1
 66
     7
176
     1
 43
1.0
176
     1
 76
     1
176
     1
 77
     6
176
     1
 78
     2
176
     1
 67
     7
176
     1
 79
     5
176
     1
170
     0
176
     1
171
     0
176
     1
290
     0
176
     1
 93
        1
176
     1
 44
0.0
176
     1
173
     0
176
     1
  0
VISUALSTYLE
  5
33
102
{ACAD_REACTORS
330
2A
102
}
330
2A
100
AcDbVisualStyle
  2
Realistic
 70
     8
177
     2
291
     0
 71
     2
176
     1
 72
     2
176
     1
 73
     0
176
     1
 90
        0
176
     1
 40
-0.6
176
     1
 41
-30.0
176
     1
 62
     5
 63
     7
421
 16777215
176
     1
 74
     1
176
     1
 91
        0
176
     1
 64
     7
176
     1
 65
   257
176
     1
 75
     1
176
     1
175
     1
176
     1
 42
1.0
176
     1
 92
        8
176
     1
 66
     8
424
  7895160
176
     1
 43
1.0
176
     1
 76
     1
176
     1
 77
     6
176
     1
 78
     2
176
     1
 67
     7
176
     1
 79
     5
176
     1
170
     0
176
     1
171
     0
176
     1
290
     0
176
     1
 93
       13
176
     1
 44
0.0
176
     1
173
     0
176
     1
  0
VISUALSTYLE
  5
37
102
{ACAD_REACTORS
330
2A
102
}
330
2A
100
AcDbVisualStyle
  2
Thicken
 70
    13
177
     2
291
     1
 71
     2
176
     1
 72
     2
176
     1
 73
     0
176
     1
 90
        0
176
     1
 40
-0.6
176
     1
 41
-30.0
176
     1
 62
     5
 63
     7
421
 16777215
176
     1
 74
     1
176
     1
 91
        4
176
     1
 64
     7
176
     1
 65
   257
176
     1
 75
     1
176
     1
175
     1
176
     1
 42
1.0
176
     1
 92
       12
176
     1
 66
     7
176
     1
 43
1.0
176
     1
 76
     1
176
     1
 77
     6
176
     1
 78
     2
176
     1
 67
     7
176
     1
 79
     5
176
     1
170
     0
176
     1
171
     0
176
     1
290
     0
176
     1
 93
        1
176
     1
 44
0.0
176
     1
173
     0
176
     1
  0
ENDSEC
  0
EOF
