  0
SECTION
  2
HEADER
  9
$ACADVER
  1
AC1024
  9
$ACADMAINTVER
 70
     6
  9
$DWGCODEPAGE
  3
UNDEFINED
  9
$INSBASE
 10
0.0
 20
0.0
 30
0.0
  9
$EXTMIN
 10
1.000000000000000E+20
 20
1.000000000000000E+20
 30
1.000000000000000E+20
  9
$EXTMAX
 10
-1.000000000000000E+20
 20
-1.000000000000000E+20
 30
-1.000000000000000E+20
  9
$LIMMIN
 10
0.0
 20
0.0
  9
$LIMMAX
 10
12.0
 20
9.0
  9
$ORTHOMODE
 70
     0
  9
$REGENMODE
 70
     1
  9
$FILLMODE
 70
     1
  9
$QTEXTMODE
 70
     0
  9
$MIRRTEXT
 70
     1
  9
$LTSCALE
 40
1.0
  9
$ATTMODE
 70
     1
  9
$TEXTSIZE
 40
0.2
  9
$TRACEWID
 40
0.05
  9
$TEXTSTYLE
  7
Standard
  9
$CLAYER
  8
0
  9
$CELTYPE
  6
ByLayer
  9
$CECOLOR
 62
   256
  9
$CELTSCALE
 40
1.0
  9
$DISPSILH
 70
     0
  9
$DIMSCALE
 40
1.0
  9
$DIMASZ
 40
0.18
  9
$DIMEXO
 40
0.0625
  9
$DIMDLI
 40
0.38
  9
$DIMRND
 40
0.0
  9
$DIMDLE
 40
0.0
  9
$DIMEXE
 40
0.18
  9
$DIMTP
 40
0.0
  9
$DIMTM
 40
0.0
  9
$DIMTXT
 40
0.18
  9
$DIMCEN
 40
0.09
  9
$DIMTSZ
 40
0.0
  9
$DIMTOL
 70
     0
  9
$DIMLIM
 70
     0
  9
$DIMTIH
 70
     1
  9
$DIMTOH
 70
     1
  9
$DIMSE1
 70
     0
  9
$DIMSE2
 70
     0
  9
$DIMTAD
 70
     0
  9
$DIMZIN
 70
     0
  9
$DIMBLK
  1

  9
$DIMASO
 70
     1
  9
$DIMSHO
 70
     1
  9
$DIMPOST
  1

  9
$DIMAPOST
  1

  9
$DIMALT
 70
     0
  9
$DIMALTD
 70
     2
  9
$DIMALTF
 40
25.4
  9
$DIMLFAC
 40
1.0
  9
$DIMTOFL
 70
     0
  9
$DIMTVP
 40
0.0
  9
$DIMTIX
 70
     0
  9
$DIMSOXD
 70
     0
  9
$DIMSAH
 70
     0
  9
$DIMBLK1
  1

  9
$DIMBLK2
  1

  9
$DIMSTYLE
  2
Standard
  9
$DIMCLRD
 70
     0
  9
$DIMCLRE
 70
     0
  9
$DIMCLRT
 70
     0
  9
$DIMTFAC
 40
1.0
  9
$DIMGAP
 40
0.09
  9
$DIMJUST
 70
     0
  9
$DIMSD1
 70
     0
  9
$DIMSD2
 70
     0
  9
$DIMTOLJ
 70
     1
  9
$DIMTZIN
 70
     0
  9
$DIMALTZ
 70
     0
  9
$DIMALTTZ
 70
     0
  9
$DIMUPT
 70
     0
  9
$DIMDEC
 70
     4
  9
$DIMTDEC
 70
     4
  9
$DIMALTU
 70
     2
  9
$DIMALTTD
 70
     2
  9
$DIMTXSTY
  7
Standard
  9
$DIMAUNIT
 70
     0
  9
$DIMADEC
 70
     0
  9
$DIMALTRND
 40
0.0
  9
$DIMAZIN
 70
     0
  9
$DIMDSEP
 70
    46
  9
$DIMATFIT
 70
     3
  9
$DIMFRAC
 70
     0
  9
$DIMLDRBLK
  1

  9
$DIMLUNIT
 70
     2
  9
$DIMLWD
 70
    -2
  9
$DIMLWE
 70
    -2
  9
$DIMTMOVE
 70
     0
  9
$DIMFXL
 40
1.0
  9
$DIMFXLON
 70
     0
  9
$DIMJOGANG
 40
0.7853981633974483
  9
$DIMTFILL
 70
     0
  9
$DIMTFILLCLR
 70
     0
  9
$DIMARCSYM
 70
     0
  9
$DIMLTYPE
  6

  9
$DIMLTEX1
  6

  9
$DIMLTEX2
  6

  9
$DIMTXTDIRECTION
 70
     0
  9
$LUNITS
 70
     2
  9
$LUPREC
 70
     4
  9
$SKETCHINC
 40
0.1
  9
$FILLETRAD
 40
0.5
  9
$AUNITS
 70
     0
  9
$AUPREC
 70
     0
  9
$MENU
  1
.
  9
$ELEVATION
 40
0.0
  9
$PELEVATION
 40
0.0
  9
$THICKNESS
 40
0.0
  9
$LIMCHECK
 70
     0
  9
$CHAMFERA
 40
0.5
  9
$CHAMFERB
 40
0.5
  9
$CHAMFERC
 40
1.0
  9
$CHAMFERD
 40
0.0
  9
$SKPOLY
 70
     0
  9
$TDCREATE
 40
2457917.585451377
  9
$TDUCREATE
 40
2457917.210451389
  9
$TDUPDATE
 40
2457917.585451377
  9
$TDUUPDATE
 40
2457917.210451389
  9
$TDINDWG
 40
0.0000000116
  9
$TDUSRTIMER
 40
0.0000000116
  9
$USRTIMER
 70
     1
  9
$ANGBASE
 50
0.0
  9
$ANGDIR
 70
     0
  9
$PDMODE
 70
     0
  9
$PDSIZE
 40
0.0
  9
$PLINEWID
 40
0.0
  9
$SPLFRAME
 70
     0
  9
$SPLINETYPE
 70
     6
  9
$SPLINESEGS
 70
     8
  9
$HANDSEED
  5
D0
  9
$SURFTAB1
 70
     6
  9
$SURFTAB2
 70
     6
  9
$SURFTYPE
 70
     6
  9
$SURFU
 70
     6
  9
$SURFV
 70
     6
  9
$UCSBASE
  2

  9
$UCSNAME
  2

  9
$UCSORG
 10
0.0
 20
0.0
 30
0.0
  9
$UCSXDIR
 10
1.0
 20
0.0
 30
0.0
  9
$UCSYDIR
 10
0.0
 20
1.0
 30
0.0
  9
$UCSORTHOREF
  2

  9
$UCSORTHOVIEW
 70
     0
  9
$UCSORGTOP
 10
0.0
 20
0.0
 30
0.0
  9
$UCSORGBOTTOM
 10
0.0
 20
0.0
 30
0.0
  9
$UCSORGLEFT
 10
0.0
 20
0.0
 30
0.0
  9
$UCSORGRIGHT
 10
0.0
 20
0.0
 30
0.0
  9
$UCSORGFRONT
 10
0.0
 20
0.0
 30
0.0
  9
$UCSORGBACK
 10
0.0
 20
0.0
 30
0.0
  9
$PUCSBASE
  2

  9
$PUCSNAME
  2

  9
$PUCSORG
 10
0.0
 20
0.0
 30
0.0
  9
$PUCSXDIR
 10
1.0
 20
0.0
 30
0.0
  9
$PUCSYDIR
 10
0.0
 20
1.0
 30
0.0
  9
$PUCSORTHOREF
  2

  9
$PUCSORTHOVIEW
 70
     0
  9
$PUCSORGTOP
 10
0.0
 20
0.0
 30
0.0
  9
$PUCSORGBOTTOM
 10
0.0
 20
0.0
 30
0.0
  9
$PUCSORGLEFT
 10
0.0
 20
0.0
 30
0.0
  9
$PUCSORGRIGHT
 10
0.0
 20
0.0
 30
0.0
  9
$PUCSORGFRONT
 10
0.0
 20
0.0
 30
0.0
  9
$PUCSORGBACK
 10
0.0
 20
0.0
 30
0.0
  9
$USERI1
 70
     0
  9
$USERI2
 70
     0
  9
$USERI3
 70
     0
  9
$USERI4
 70
     0
  9
$USERI5
 70
     0
  9
$USERR1
 40
0.0
  9
$USERR2
 40
0.0
  9
$USERR3
 40
0.0
  9
$USERR4
 40
0.0
  9
$USERR5
 40
0.0
  9
$WORLDVIEW
 70
     1
  9
$SHADEDGE
 70
     3
  9
$SHADEDIF
 70
    70
  9
$TILEMODE
 70
     1
  9
$MAXACTVP
 70
    64
  9
$PINSBASE
 10
0.0
 20
0.0
 30
0.0
  9
$PLIMCHECK
 70
     0
  9
$PEXTMIN
 10
1.000000000000000E+20
 20
1.000000000000000E+20
 30
1.000000000000000E+20
  9
$PEXTMAX
 10
-1.000000000000000E+20
 20
-1.000000000000000E+20
 30
-1.000000000000000E+20
  9
$PLIMMIN
 10
0.0
 20
0.0
  9
$PLIMMAX
 10
12.0
 20
9.0
  9
$UNITMODE
 70
     0
  9
$VISRETAIN
 70
     1
  9
$PLINEGEN
 70
     0
  9
$PSLTSCALE
 70
     1
  9
$TREEDEPTH
 70
  3020
  9
$CMLSTYLE
  2
Standard
  9
$CMLJUST
 70
     0
  9
$CMLSCALE
 40
1.0
  9
$PROXYGRAPHICS
 70
     1
  9
$MEASUREMENT
 70
     0
  9
$CELWEIGHT
370
    -1
  9
$ENDCAPS
280
     0
  9
$JOINSTYLE
280
     0
  9
$LWDISPLAY
290
     1
  9
$INSUNITS
 70
     1
  9
$HYPERLINKBASE
  1

  9
$STYLESHEET
  1

  9
$XEDIT
290
     1
  9
$CEPSNTYPE
380
     0
  9
$PSTYLEMODE
290
     1
  9
$FINGERPRINTGUID
  2
{64D73DE0-4D03-70FA-7372-3167CF709393}
  9
$VERSIONGUID
  2
{FAEB1C32-E019-11D5-929B-00C0DF256EC4}
  9
$EXTNAMES
290
     1
  9
$PSVPSCALE
 40
0.0
  9
$OLESTARTUP
290
     0
  9
$SORTENTS
280
   127
  9
$INDEXCTL
280
     0
  9
$HIDETEXT
280
     1
  9
$XCLIPFRAME
280
     2
  9
$HALOGAP
280
     0
  9
$OBSCOLOR
 70
   257
  9
$OBSLTYPE
280
     0
  9
$INTERSECTIONDISPLAY
280
     0
  9
$INTERSECTIONCOLOR
 70
   257
  9
$DIMASSOC
280
     2
  9
$PROJECTNAME
  1

  9
$CAMERADISPLAY
290
     0
  9
$LENSLENGTH
 40
50.0
  9
$CAMERAHEIGHT
 40
0.0
  9
$STEPSPERSEC
 40
2.0
  9
$STEPSIZE
 40
6.0
  9
$3DDWFPREC
 40
2.0
  9
$PSOLWIDTH
 40
0.25
  9
$PSOLHEIGHT
 40
4.0
  9
$LOFTANG1
 40
1.570796326794897
  9
$LOFTANG2
 40
1.570796326794897
  9
$LOFTMAG1
 40
0.0
  9
$LOFTMAG2
 40
0.0
  9
$LOFTPARAM
 70
     7
  9
$LOFTNORMALS
280
     1
  9
$LATITUDE
 40
37.795
  9
$LONGITUDE
 40
-122.394
  9
$NORTHDIRECTION
 40
0.0
  9
$TIMEZONE
 70
 -8000
  9
$LIGHTGLYPHDISPLAY
280
     1
  9
$TILEMODELIGHTSYNCH
280
     1
  9
$CMATERIAL
347
3C
  9
$SOLIDHIST
280
     1
  9
$SHOWHIST
280
     1
  9
$DWFFRAME
280
     2
  9
$DGNFRAME
280
     2
  9
$REALWORLDSCALE
290
     1
  9
$INTERFERECOLOR
 62
   256
  9
$CSHADOW
280
     0
  9
$SHADOWPLANELOCATION
 40
0.0
  0
ENDSEC
  0
SECTION
  2
CLASSES
  0
CLASS
  1
ACDBDICTIONARYWDFLT
  2
AcDbDictionaryWithDefault
  3
ObjectDBX Classes
 90
        0
 91
        4
280
     0
281
     0
  0
CLASS
  1
VISUALSTYLE
  2
AcDbVisualStyle
  3
ObjectDBX Classes
 90
     4095
 91
        4
280
     0
281
     0
  0
CLASS
  1
MATERIAL
  2
AcDbMaterial
  3
ObjectDBX Classes
 90
     1153
 91
        4
280
     0
281
     0
  0
CLASS
  1
SUN
  2
AcDbSun
  3
SCENEOE
 90
     1024
 91
        4
280
     0
281
     0
  0
ENDSEC
  0
SECTION
  2
TABLES
  0
TABLE
  2
VPORT
  5
8
330
0
100
AcDbSymbolTable
 70
     1
  0
VPORT
  5
29
330
8
100
AcDbSymbolTableRecord
100
AcDbViewportTableRecord
  2
*Active
 70
     0
 10
0.0
 20
0.0
 11
1.0
 21
1.0
 12
0.0
 22
0.0
 13
0.0
 23
0.0
 14
0.5
 24
0.5
 15
0.5
 25
0.5
 16
0.0
 26
0.0
 36
1.0
 17
91.00082462281999
 27
-128.4993055234307
 37
0.0
 40
256.9986110468615
 41
0.7081814508812795
 42
50.0
 43
0.0
 44
0.0
 50
0.0
 51
0.0
 71
     0
 72
   100
 73
     1
 74
     3
 75
     0
 76
     0
 77
     0
 78
     0
281
     0
 65
     1
110
0.0
120
0.0
130
0.0
111
1.0
121
0.0
131
0.0
112
0.0
122
1.0
132
0.0
 79
     0
146
0.0
 60
     3
 61
     5
292
     1
282
     1
141
0.0
142
0.0
 63
   250
361
3F
  0
ENDTAB
  0
TABLE
  2
LTYPE
  5
5
330
0
100
AcDbSymbolTable
 70
     2
  0
LTYPE
  5
14
330
5
100
AcDbSymbolTableRecord
100
AcDbLinetypeTableRecord
  2
ByBlock
 70
     0
  3

 72
    65
 73
     0
 40
0.0
  0
LTYPE
  5
15
330
5
100
AcDbSymbolTableRecord
100
AcDbLinetypeTableRecord
  2
ByLayer
 70
     0
  3

 72
    65
 73
     0
 40
0.0
  0
LTYPE
  5
16
330
5
100
AcDbSymbolTableRecord
100
AcDbLinetypeTableRecord
  2
Continuous
 70
     0
  3
Solid line
 72
    65
 73
     0
 40
0.0
  0
LTYPE
  5
CC
330
5
100
AcDbSymbolTableRecord
100
AcDbLinetypeTableRecord
  2
AI-Linetype-1
 70
     0
  3
Adobe Illustrator Linetype No. 1
 72
    65
 73
     2
 40
1.411111110758333
 49
0.7055555553791667
 74
     0
 49
-0.7055555553791667
 74
     0
  0
ENDTAB
  0
TABLE
  2
LAYER
  5
2
330
0
100
AcDbSymbolTable
 70
     2
  0
LAYER
  5
10
330
2
100
AcDbSymbolTableRecord
100
AcDbLayerTableRecord
  2
0
 70
     0
 62
     7
  6
Continuous
370
    -3
390
F
347
3E
  0
LAYER
  5
40
330
2
100
AcDbSymbolTableRecord
100
AcDbLayerTableRecord
  2
_U+30EC_U+30A4_U+30E4_U+30FC 1
 70
     0
 62
     7
  6
Continuous
370
    -3
390
F
347
3E
  0
ENDTAB
  0
TABLE
  2
STYLE
  5
3
330
0
100
AcDbSymbolTable
 70
     1
  0
STYLE
  5
11
330
3
100
AcDbSymbolTableRecord
100
AcDbTextStyleTableRecord
  2
Standard
 70
     0
 40
0.0
 41
1.0
 50
0.0
 71
     0
 42
0.2
  3
txt
  4

  0
ENDTAB
  0
TABLE
  2
VIEW
  5
6
330
0
100
AcDbSymbolTable
 70
     0
  0
ENDTAB
  0
TABLE
  2
UCS
  5
7
330
0
100
AcDbSymbolTable
 70
     0
  0
ENDTAB
  0
TABLE
  2
APPID
  5
9
330
0
100
AcDbSymbolTable
 70
     1
  0
APPID
  5
12
330
9
100
AcDbSymbolTableRecord
100
AcDbRegAppTableRecord
  2
ACAD
 70
     0
  0
ENDTAB
  0
TABLE
  2
DIMSTYLE
  5
A
330
0
100
AcDbSymbolTable
 70
     1
100
AcDbDimStyleTable
  0
DIMSTYLE
105
27
330
A
100
AcDbSymbolTableRecord
100
AcDbDimStyleTableRecord
  2
Standard
 70
     0
178
     0
340
11
  0
ENDTAB
  0
TABLE
  2
BLOCK_RECORD
  5
1
330
0
100
AcDbSymbolTable
 70
     4
  0
BLOCK_RECORD
  5
1F
330
1
100
AcDbSymbolTableRecord
100
AcDbBlockTableRecord
  2
*Model_Space
340
22
 70
     0
280
     1
281
     0
  0
BLOCK_RECORD
  5
1B
330
1
100
AcDbSymbolTableRecord
100
AcDbBlockTableRecord
  2
*Paper_Space
340
1E
 70
     0
280
     1
281
     0
  0
BLOCK_RECORD
  5
23
330
1
100
AcDbSymbolTableRecord
100
AcDbBlockTableRecord
  2
*Paper_Space0
340
26
 70
     0
280
     1
281
     0
  0
BLOCK_RECORD
  5
6A
330
1
100
AcDbSymbolTableRecord
100
AcDbBlockTableRecord
  2
block 2
340
0
102
{BLKREFS
331
6B
102
}
 70
     0
280
     1
281
     0
  0
BLOCK_RECORD
  5
7E
330
1
100
AcDbSymbolTableRecord
100
AcDbBlockTableRecord
  2
block 3
340
0
102
{BLKREFS
331
7F
102
}
 70
     0
280
     1
281
     0
  0
BLOCK_RECORD
  5
8A
330
1
100
AcDbSymbolTableRecord
100
AcDbBlockTableRecord
  2
block 4
340
0
102
{BLKREFS
331
8B
102
}
 70
     0
280
     1
281
     0
  0
ENDTAB
  0
ENDSEC
  0
SECTION
  2
BLOCKS
  0
BLOCK
  5
20
330
1F
100
AcDbEntity
  8
0
100
AcDbBlockBegin
  2
*Model_Space
 70
     0
 10
0.0
 20
0.0
 30
0.0
  3
*Model_Space
  1

  0
ENDBLK
  5
21
330
1F
100
AcDbEntity
  8
0
100
AcDbBlockEnd
  0
BLOCK
  5
1C
330
1B
100
AcDbEntity
 67
     1
  8
0
100
AcDbBlockBegin
  2
*Paper_Space
 70
     0
 10
0.0
 20
0.0
 30
0.0
  3
*Paper_Space
  1

  0
ENDBLK
  5
1D
330
1B
100
AcDbEntity
 67
     1
  8
0
100
AcDbBlockEnd
  0
BLOCK
  5
24
330
23
100
AcDbEntity
  8
0
100
AcDbBlockBegin
  2
*Paper_Space0
 70
     0
 10
0.0
 20
0.0
 30
0.0
  3
*Paper_Space0
  1

  0
ENDBLK
  5
25
330
23
100
AcDbEntity
  8
0
100
AcDbBlockEnd
  0
BLOCK
  5
6C
330
6A
100
AcDbEntity
  8
0
100
AcDbBlockBegin
  2
block 2
 70
     0
 10
0.0
 20
0.0
 30
0.0
  3
block 2
  1

  0
SPLINE
  5
6E
330
6A
100
AcDbEntity
  8
_U+30EC_U+30A4_U+30E4_U+30FC 1
370
     0
100
AcDbSpline
210
0.0
220
0.0
230
1.0
 70
    11
 71
     3
 72
    44
 73
    40
 74
     0
 42
0.0000000001
 43
0.0000000001
 12
1.0
 22
0.0
 32
0.0
 13
1.0
 23
0.0
 33
0.0
 40
0.0
 40
0.0
 40
0.0
 40
0.0
 40
1.0
 40
1.0
 40
1.0
 40
2.0
 40
2.0
 40
2.0
 40
3.0
 40
3.0
 40
3.0
 40
4.0
 40
4.0
 40
4.0
 40
5.0
 40
5.0
 40
5.0
 40
6.0
 40
6.0
 40
6.0
 40
7.0
 40
7.0
 40
7.0
 40
8.0
 40
8.0
 40
8.0
 40
9.0
 40
9.0
 40
9.0
 40
10.0
 40
10.0
 40
10.0
 40
11.0
 40
11.0
 40
11.0
 40
12.0
 40
12.0
 40
12.0
 40
13.0
 40
13.0
 40
13.0
 40
13.0
 10
87.14696314010563
 20
-133.0657795891294
 30
0.0
 10
86.92923310543783
 20
-133.2245984909994
 30
0.0
 10
86.8362155273361
 20
-133.2986680439323
 30
0.0
 10
86.78729517144554
 20
-133.4423285256672
 30
0.0
 10
86.78729517144554
 20
-133.4423285256672
 30
0.0
 10
87.565886751112
 20
-133.4423285256672
 30
0.0
 10
87.565886751112
 20
-133.4423285256672
 30
0.0
 10
87.565886751112
 20
-133.4423285256672
 30
0.0
 10
87.565886751112
 20
-133.6476562165881
 30
0.0
 10
87.565886751112
 20
-133.6476562165881
 30
0.0
 10
87.565886751112
 20
-133.6476562165881
 30
0.0
 10
86.53787025831345
 20
-133.6476562165881
 30
0.0
 10
86.53787025831345
 20
-133.6476562165881
 30
0.0
 10
86.56956513677775
 20
-133.2900553052192
 30
0.0
 10
86.6350219509975
 20
-133.211851637704
 30
0.0
 10
87.02018362624842
 20
-132.9135063686813
 30
0.0
 10
87.2761542208025
 20
-132.7147243591824
 30
0.0
 10
87.34161103502224
 20
-132.646855978123
 30
0.0
 10
87.34161103502224
 20
-132.5093966682616
 30
0.0
 10
87.34161103502224
 20
-132.390885383569
 30
0.0
 10
87.26960853938051
 20
-132.2599717551295
 30
0.0
 10
87.07289358717276
 20
-132.2599717551295
 30
0.0
 10
86.81278887803639
 20
-132.2599717551295
 30
0.0
 10
86.80417613932326
 20
-132.4904486430927
 30
0.0
 10
86.80004202474096
 20
-132.6068928704941
 30
0.0
 10
86.80004202474096
 20
-132.6068928704941
 30
0.0
 10
86.5757663086512
 20
-132.6068928704941
 30
0.0
 10
86.5757663086512
 20
-132.6068928704941
 30
0.0
 10
86.58437904736432
 20
-132.4797688470884
 30
0.0
 10
86.5950588433686
 20
-132.3678032438178
 30
0.0
 10
86.67532956817492
 20
-132.2492919591252
 30
0.0
 10
86.78522811415439
 20
-132.088405999964
 30
0.0
 10
86.9716077799064
 20
-132.0546440642086
 30
0.0
 10
87.08770749775933
 20
-132.0546440642086
 30
0.0
 10
87.36503768432193
 20
-132.0546440642086
 30
0.0
 10
87.57243243253397
 20
-132.2386121631209
 30
0.0
 10
87.57243243253397
 20
-132.5114637255527
 30
0.0
 10
87.57243243253397
 20
-132.7402180657733
 30
0.0
 10
87.45598820513254
 20
-132.8394368157485
 30
0.0
 10
87.14696314010563
 20
-133.0657795891294
 30
0.0
  0
HATCH
  5
6F
330
6A
100
AcDbEntity
  8
_U+30EC_U+30A4_U+30E4_U+30FC 1
 62
     7
420
 16777215
100
AcDbHatch
 10
0.0
 20
0.0
 30
0.0
210
0.0
220
0.0
230
1.0
  2
SOLID
 70
     1
 71
     0
 91
        1
 92
        1
 93
        1
 72
     4
 94
        3
 73
     0
 74
     1
 95
       44
 96
       40
 40
0.0
 40
0.0
 40
0.0
 40
0.0
 40
1.0
 40
1.0
 40
1.0
 40
2.0
 40
2.0
 40
2.0
 40
3.0
 40
3.0
 40
3.0
 40
4.0
 40
4.0
 40
4.0
 40
5.0
 40
5.0
 40
5.0
 40
6.0
 40
6.0
 40
6.0
 40
7.0
 40
7.0
 40
7.0
 40
8.0
 40
8.0
 40
8.0
 40
9.0
 40
9.0
 40
9.0
 40
10.0
 40
10.0
 40
10.0
 40
11.0
 40
11.0
 40
11.0
 40
12.0
 40
12.0
 40
12.0
 40
13.0
 40
13.0
 40
13.0
 40
13.0
 10
87.14696314010563
 20
-133.0657795891294
 10
86.92923310543783
 20
-133.2245984909994
 10
86.8362155273361
 20
-133.2986680439323
 10
86.78729517144554
 20
-133.4423285256672
 10
86.78729517144554
 20
-133.4423285256672
 10
87.565886751112
 20
-133.4423285256672
 10
87.565886751112
 20
-133.4423285256672
 10
87.565886751112
 20
-133.4423285256672
 10
87.565886751112
 20
-133.6476562165881
 10
87.565886751112
 20
-133.6476562165881
 10
87.565886751112
 20
-133.6476562165881
 10
86.53787025831345
 20
-133.6476562165881
 10
86.53787025831345
 20
-133.6476562165881
 10
86.56956513677775
 20
-133.2900553052192
 10
86.6350219509975
 20
-133.211851637704
 10
87.02018362624842
 20
-132.9135063686813
 10
87.2761542208025
 20
-132.7147243591824
 10
87.34161103502224
 20
-132.646855978123
 10
87.34161103502224
 20
-132.5093966682616
 10
87.34161103502224
 20
-132.390885383569
 10
87.26960853938051
 20
-132.2599717551295
 10
87.07289358717276
 20
-132.2599717551295
 10
86.81278887803639
 20
-132.2599717551295
 10
86.80417613932326
 20
-132.4904486430927
 10
86.80004202474096
 20
-132.6068928704941
 10
86.80004202474096
 20
-132.6068928704941
 10
86.5757663086512
 20
-132.6068928704941
 10
86.5757663086512
 20
-132.6068928704941
 10
86.58437904736432
 20
-132.4797688470884
 10
86.5950588433686
 20
-132.3678032438178
 10
86.67532956817492
 20
-132.2492919591252
 10
86.78522811415439
 20
-132.088405999964
 10
86.9716077799064
 20
-132.0546440642086
 10
87.08770749775933
 20
-132.0546440642086
 10
87.36503768432193
 20
-132.0546440642086
 10
87.57243243253397
 20
-132.2386121631209
 10
87.57243243253397
 20
-132.5114637255527
 10
87.57243243253397
 20
-132.7402180657733
 10
87.45598820513254
 20
-132.8394368157485
 10
87.14696314010563
 20
-133.0657795891294
 97
        0
 97
        0
 75
     2
 76
     1
 98
        0
  0
SPLINE
  5
70
330
6A
100
AcDbEntity
  8
_U+30EC_U+30A4_U+30E4_U+30FC 1
370
     0
100
AcDbSpline
210
0.0
220
0.0
230
1.0
 70
    11
 71
     3
 72
    53
 73
    49
 74
     0
 42
0.0000000001
 43
0.0000000001
 12
1.0
 22
0.0
 32
0.0
 13
1.0
 23
0.0
 33
0.0
 40
0.0
 40
0.0
 40
0.0
 40
0.0
 40
1.0
 40
1.0
 40
1.0
 40
2.0
 40
2.0
 40
2.0
 40
3.0
 40
3.0
 40
3.0
 40
4.0
 40
4.0
 40
4.0
 40
5.0
 40
5.0
 40
5.0
 40
6.0
 40
6.0
 40
6.0
 40
7.0
 40
7.0
 40
7.0
 40
8.0
 40
8.0
 40
8.0
 40
9.0
 40
9.0
 40
9.0
 40
10.0
 40
10.0
 40
10.0
 40
11.0
 40
11.0
 40
11.0
 40
12.0
 40
12.0
 40
12.0
 40
13.0
 40
13.0
 40
13.0
 40
14.0
 40
14.0
 40
14.0
 40
15.0
 40
15.0
 40
15.0
 40
16.0
 40
16.0
 40
16.0
 40
16.0
 10
88.21184215459635
 20
-133.6982991202213
 30
0.0
 10
88.13363848708117
 20
-133.6982991202213
 30
0.0
 10
88.03200817026631
 20
-133.6814181523436
 30
0.0
 10
87.93037785345143
 20
-133.6180283954149
 30
0.0
 10
87.75708955054337
 20
-133.5081298494355
 30
0.0
 10
87.73572995853482
 20
-133.3768717114474
 30
0.0
 10
87.71678193336595
 20
-133.2690402227591
 30
0.0
 10
87.71678193336595
 20
-133.2690402227591
 30
0.0
 10
87.93899059216456
 20
-133.2690402227591
 30
0.0
 10
87.93899059216456
 20
-133.2690402227591
 30
0.0
 10
87.99376761038003
 20
-133.467822232258
 30
0.0
 10
88.12089163378576
 20
-133.4974500534312
 30
0.0
 10
88.2139092118875
 20
-133.4974500534312
 30
0.0
 10
88.35343557904012
 20
-133.4974500534312
 30
0.0
 10
88.50570879948816
 20
-133.3978867939075
 30
0.0
 10
88.50570879948816
 20
-133.1653428486531
 30
0.0
 10
88.50570879948816
 20
-132.9093722540991
 30
0.0
 10
88.32587481515812
 20
-132.8394368157485
 30
0.0
 10
88.20529647317437
 20
-132.8394368157485
 30
0.0
 10
88.17360159471008
 20
-132.8394368157485
 30
0.0
 10
88.03200817026631
 20
-132.8394368157485
 30
0.0
 10
87.94312470674686
 20
-132.9686278964454
 30
0.0
 10
87.94312470674686
 20
-132.9686278964454
 30
0.0
 10
87.76742483699913
 20
-132.9496798712765
 30
0.0
 10
87.76742483699913
 20
-132.9496798712765
 30
0.0
 10
87.76742483699913
 20
-132.9496798712765
 30
0.0
 10
87.88800317898287
 20
-132.1032199105506
 30
0.0
 10
87.88800317898287
 20
-132.1032199105506
 30
0.0
 10
87.88800317898287
 20
-132.1032199105506
 30
0.0
 10
88.66659475864932
 20
-132.1032199105506
 30
0.0
 10
88.66659475864932
 20
-132.1032199105506
 30
0.0
 10
88.66659475864932
 20
-132.1032199105506
 30
0.0
 10
88.66659475864932
 20
-132.2978678054672
 30
0.0
 10
88.66659475864932
 20
-132.2978678054672
 30
0.0
 10
88.66659475864932
 20
-132.2978678054672
 30
0.0
 10
88.05095619543518
 20
-132.2978678054672
 30
0.0
 10
88.05095619543518
 20
-132.2978678054672
 30
0.0
 10
88.05095619543518
 20
-132.2978678054672
 30
0.0
 10
87.98549938121543
 20
-132.7209255310559
 30
0.0
 10
87.98549938121543
 20
-132.7209255310559
 30
0.0
 10
88.04682208085288
 20
-132.6871635953004
 30
0.0
 10
88.12915986295036
 20
-132.646855978123
 30
0.0
 10
88.24767114764295
 20
-132.646855978123
 30
0.0
 10
88.50157468490586
 20
-132.646855978123
 30
0.0
 10
88.73859725429105
 20
-132.833235643875
 30
0.0
 10
88.73859725429105
 20
-133.1463948234842
 30
0.0
 10
88.73859725429105
 20
-133.4636881176758
 30
0.0
 10
88.51432153820129
 20
-133.6982991202213
 30
0.0
 10
88.21184215459635
 20
-133.6982991202213
 30
0.0
  0
HATCH
  5
71
330
6A
100
AcDbEntity
  8
_U+30EC_U+30A4_U+30E4_U+30FC 1
 62
     7
420
 16777215
100
AcDbHatch
 10
0.0
 20
0.0
 30
0.0
210
0.0
220
0.0
230
1.0
  2
SOLID
 70
     1
 71
     0
 91
        1
 92
        1
 93
        1
 72
     4
 94
        3
 73
     0
 74
     1
 95
       53
 96
       49
 40
0.0
 40
0.0
 40
0.0
 40
0.0
 40
1.0
 40
1.0
 40
1.0
 40
2.0
 40
2.0
 40
2.0
 40
3.0
 40
3.0
 40
3.0
 40
4.0
 40
4.0
 40
4.0
 40
5.0
 40
5.0
 40
5.0
 40
6.0
 40
6.0
 40
6.0
 40
7.0
 40
7.0
 40
7.0
 40
8.0
 40
8.0
 40
8.0
 40
9.0
 40
9.0
 40
9.0
 40
10.0
 40
10.0
 40
10.0
 40
11.0
 40
11.0
 40
11.0
 40
12.0
 40
12.0
 40
12.0
 40
13.0
 40
13.0
 40
13.0
 40
14.0
 40
14.0
 40
14.0
 40
15.0
 40
15.0
 40
15.0
 40
16.0
 40
16.0
 40
16.0
 40
16.0
 10
88.21184215459635
 20
-133.6982991202213
 10
88.13363848708117
 20
-133.6982991202213
 10
88.03200817026631
 20
-133.6814181523436
 10
87.93037785345143
 20
-133.6180283954149
 10
87.75708955054337
 20
-133.5081298494355
 10
87.73572995853482
 20
-133.3768717114474
 10
87.71678193336595
 20
-133.2690402227591
 10
87.71678193336595
 20
-133.2690402227591
 10
87.93899059216456
 20
-133.2690402227591
 10
87.93899059216456
 20
-133.2690402227591
 10
87.99376761038003
 20
-133.467822232258
 10
88.12089163378576
 20
-133.4974500534312
 10
88.2139092118875
 20
-133.4974500534312
 10
88.35343557904012
 20
-133.4974500534312
 10
88.50570879948816
 20
-133.3978867939075
 10
88.50570879948816
 20
-133.1653428486531
 10
88.50570879948816
 20
-132.9093722540991
 10
88.32587481515812
 20
-132.8394368157485
 10
88.20529647317437
 20
-132.8394368157485
 10
88.17360159471008
 20
-132.8394368157485
 10
88.03200817026631
 20
-132.8394368157485
 10
87.94312470674686
 20
-132.9686278964454
 10
87.94312470674686
 20
-132.9686278964454
 10
87.76742483699913
 20
-132.9496798712765
 10
87.76742483699913
 20
-132.9496798712765
 10
87.76742483699913
 20
-132.9496798712765
 10
87.88800317898287
 20
-132.1032199105506
 10
87.88800317898287
 20
-132.1032199105506
 10
87.88800317898287
 20
-132.1032199105506
 10
88.66659475864932
 20
-132.1032199105506
 10
88.66659475864932
 20
-132.1032199105506
 10
88.66659475864932
 20
-132.1032199105506
 10
88.66659475864932
 20
-132.2978678054672
 10
88.66659475864932
 20
-132.2978678054672
 10
88.66659475864932
 20
-132.2978678054672
 10
88.05095619543518
 20
-132.2978678054672
 10
88.05095619543518
 20
-132.2978678054672
 10
88.05095619543518
 20
-132.2978678054672
 10
87.98549938121543
 20
-132.7209255310559
 10
87.98549938121543
 20
-132.7209255310559
 10
88.04682208085288
 20
-132.6871635953004
 10
88.12915986295036
 20
-132.646855978123
 10
88.24767114764295
 20
-132.646855978123
 10
88.50157468490586
 20
-132.646855978123
 10
88.73859725429105
 20
-132.833235643875
 10
88.73859725429105
 20
-133.1463948234842
 10
88.73859725429105
 20
-133.4636881176758
 10
88.51432153820129
 20
-133.6982991202213
 10
88.21184215459635
 20
-133.6982991202213
 97
        0
 97
        0
 75
     2
 76
     1
 98
        0
  0
ENDBLK
  5
6D
330
6A
100
AcDbEntity
  8
0
100
AcDbBlockEnd
  0
BLOCK
  5
80
330
7E
100
AcDbEntity
  8
0
100
AcDbBlockBegin
  2
block 3
 70
     0
 10
0.0
 20
0.0
 30
0.0
  3
block 3
  1

  0
SPLINE
  5
82
330
7E
100
AcDbEntity
  8
_U+30EC_U+30A4_U+30E4_U+30FC 1
370
     0
100
AcDbSpline
210
0.0
220
0.0
230
1.0
 70
    11
 71
     3
 72
    26
 73
    22
 74
     0
 42
0.0000000001
 43
0.0000000001
 12
1.0
 22
0.0
 32
0.0
 13
1.0
 23
0.0
 33
0.0
 40
0.0
 40
0.0
 40
0.0
 40
0.0
 40
1.0
 40
1.0
 40
1.0
 40
2.0
 40
2.0
 40
2.0
 40
3.0
 40
3.0
 40
3.0
 40
4.0
 40
4.0
 40
4.0
 40
5.0
 40
5.0
 40
5.0
 40
6.0
 40
6.0
 40
6.0
 40
7.0
 40
7.0
 40
7.0
 40
7.0
 10
70.50542939860628
 20
-125.0738470824468
 30
0.0
 10
70.50542939860628
 20
-125.0738470824468
 30
0.0
 10
69.40110404080944
 20
-125.0738470824468
 30
0.0
 10
69.40110404080944
 20
-125.0738470824468
 30
0.0
 10
69.40110404080944
 20
-125.0738470824468
 30
0.0
 10
69.40110404080944
 20
-125.4038872299338
 30
0.0
 10
69.40110404080944
 20
-125.4038872299338
 30
0.0
 10
69.40110404080944
 20
-125.4038872299338
 30
0.0
 10
69.25313718971798
 20
-125.4038872299338
 30
0.0
 10
69.25313718971798
 20
-125.4038872299338
 30
0.0
 10
69.2383232791314
 20
-125.0717800251557
 30
0.0
 10
69.07537026267907
 20
-125.0252712361048
 30
0.0
 10
68.96116534734304
 20
-124.9956434149316
 30
0.0
 10
68.96116534734304
 20
-124.9956434149316
 30
0.0
 10
68.96116534734304
 20
-124.8495713663571
 30
0.0
 10
68.96116534734304
 20
-124.8495713663571
 30
0.0
 10
68.96116534734304
 20
-124.8495713663571
 30
0.0
 10
70.50542939860628
 20
-124.8495713663571
 30
0.0
 10
70.50542939860628
 20
-124.8495713663571
 30
0.0
 10
70.50542939860628
 20
-124.8495713663571
 30
0.0
 10
70.50542939860628
 20
-125.0738470824468
 30
0.0
 10
70.50542939860628
 20
-125.0738470824468
 30
0.0
  0
HATCH
  5
83
330
7E
100
AcDbEntity
  8
_U+30EC_U+30A4_U+30E4_U+30FC 1
 62
     7
420
 16777215
100
AcDbHatch
 10
0.0
 20
0.0
 30
0.0
210
0.0
220
0.0
230
1.0
  2
SOLID
 70
     1
 71
     0
 91
        1
 92
        1
 93
        1
 72
     4
 94
        3
 73
     0
 74
     1
 95
       26
 96
       22
 40
0.0
 40
0.0
 40
0.0
 40
0.0
 40
1.0
 40
1.0
 40
1.0
 40
2.0
 40
2.0
 40
2.0
 40
3.0
 40
3.0
 40
3.0
 40
4.0
 40
4.0
 40
4.0
 40
5.0
 40
5.0
 40
5.0
 40
6.0
 40
6.0
 40
6.0
 40
7.0
 40
7.0
 40
7.0
 40
7.0
 10
70.50542939860628
 20
-125.0738470824468
 10
70.50542939860628
 20
-125.0738470824468
 10
69.40110404080944
 20
-125.0738470824468
 10
69.40110404080944
 20
-125.0738470824468
 10
69.40110404080944
 20
-125.0738470824468
 10
69.40110404080944
 20
-125.4038872299338
 10
69.40110404080944
 20
-125.4038872299338
 10
69.40110404080944
 20
-125.4038872299338
 10
69.25313718971798
 20
-125.4038872299338
 10
69.25313718971798
 20
-125.4038872299338
 10
69.2383232791314
 20
-125.0717800251557
 10
69.07537026267907
 20
-125.0252712361048
 10
68.96116534734304
 20
-124.9956434149316
 10
68.96116534734304
 20
-124.9956434149316
 10
68.96116534734304
 20
-124.8495713663571
 10
68.96116534734304
 20
-124.8495713663571
 10
68.96116534734304
 20
-124.8495713663571
 10
70.50542939860628
 20
-124.8495713663571
 10
70.50542939860628
 20
-124.8495713663571
 10
70.50542939860628
 20
-124.8495713663571
 10
70.50542939860628
 20
-125.0738470824468
 10
70.50542939860628
 20
-125.0738470824468
 97
        0
 97
        0
 75
     2
 76
     1
 98
        0
  0
SPLINE
  5
84
330
7E
100
AcDbEntity
  8
_U+30EC_U+30A4_U+30E4_U+30FC 1
370
     0
100
AcDbSpline
210
0.0
220
0.0
230
1.0
 70
    11
 71
     3
 72
    44
 73
    40
 74
     0
 42
0.0000000001
 43
0.0000000001
 12
1.0
 22
0.0
 32
0.0
 13
1.0
 23
0.0
 33
0.0
 40
0.0
 40
0.0
 40
0.0
 40
0.0
 40
1.0
 40
1.0
 40
1.0
 40
2.0
 40
2.0
 40
2.0
 40
3.0
 40
3.0
 40
3.0
 40
4.0
 40
4.0
 40
4.0
 40
5.0
 40
5.0
 40
5.0
 40
6.0
 40
6.0
 40
6.0
 40
7.0
 40
7.0
 40
7.0
 40
8.0
 40
8.0
 40
8.0
 40
9.0
 40
9.0
 40
9.0
 40
10.0
 40
10.0
 40
10.0
 40
11.0
 40
11.0
 40
11.0
 40
12.0
 40
12.0
 40
12.0
 40
13.0
 40
13.0
 40
13.0
 40
13.0
 10
69.92372502592185
 20
-123.7554090402417
 30
0.0
 10
70.0823716730176
 20
-123.9731390749095
 30
0.0
 10
70.15644122595047
 20
-124.0661566530112
 30
0.0
 10
70.30027396245966
 20
-124.1150770089018
 30
0.0
 10
70.30027396245966
 20
-124.1150770089018
 30
0.0
 10
70.30027396245966
 20
-123.3364854292353
 30
0.0
 10
70.30027396245966
 20
-123.3364854292353
 30
0.0
 10
70.30027396245966
 20
-123.3364854292353
 30
0.0
 10
70.50542939860628
 20
-123.3364854292353
 30
0.0
 10
70.50542939860628
 20
-123.3364854292353
 30
0.0
 10
70.50542939860628
 20
-123.3364854292353
 30
0.0
 10
70.50542939860628
 20
-124.3645019220339
 30
0.0
 10
70.50542939860628
 20
-124.3645019220339
 30
0.0
 10
70.14782848723735
 20
-124.3328070435696
 30
0.0
 10
70.06962481972218
 20
-124.2673502293498
 30
0.0
 10
69.77127955069955
 20
-123.8821885540989
 30
0.0
 10
69.57249754120063
 20
-123.6262179595448
 30
0.0
 10
69.50480141491546
 20
-123.5607611453251
 30
0.0
 10
69.36734210505401
 20
-123.5607611453251
 30
0.0
 10
69.2488308203614
 20
-123.5607611453251
 30
0.0
 10
69.11774493714765
 20
-123.6327636409668
 30
0.0
 10
69.11774493714765
 20
-123.8294785931746
 30
0.0
 10
69.11774493714765
 20
-124.0895833023109
 30
0.0
 10
69.34822182511087
 20
-124.0981960410241
 30
0.0
 10
69.46466605251231
 20
-124.1023301556064
 30
0.0
 10
69.46466605251231
 20
-124.1023301556064
 30
0.0
 10
69.46466605251231
 20
-124.3266058716961
 30
0.0
 10
69.46466605251231
 20
-124.3266058716961
 30
0.0
 10
69.33771428388086
 20
-124.317993132983
 30
0.0
 10
69.22557642583597
 20
-124.3073133369787
 30
0.0
 10
69.10706514114338
 20
-124.2270426121724
 30
0.0
 10
68.94635143675647
 20
-124.1171440661929
 30
0.0
 10
68.91241724622677
 20
-123.9307644004409
 30
0.0
 10
68.91241724622677
 20
-123.814664682588
 30
0.0
 10
68.91241724622677
 20
-123.5373344960254
 30
0.0
 10
69.09655759991337
 20
-123.3299397478134
 30
0.0
 10
69.36940916234515
 20
-123.3299397478134
 30
0.0
 10
69.59781899301721
 20
-123.3299397478134
 30
0.0
 10
69.69738225254093
 20
-123.4463839752148
 30
0.0
 10
69.92372502592185
 20
-123.7554090402417
 30
0.0
  0
HATCH
  5
85
330
7E
100
AcDbEntity
  8
_U+30EC_U+30A4_U+30E4_U+30FC 1
 62
     7
420
 16777215
100
AcDbHatch
 10
0.0
 20
0.0
 30
0.0
210
0.0
220
0.0
230
1.0
  2
SOLID
 70
     1
 71
     0
 91
        1
 92
        1
 93
        1
 72
     4
 94
        3
 73
     0
 74
     1
 95
       44
 96
       40
 40
0.0
 40
0.0
 40
0.0
 40
0.0
 40
1.0
 40
1.0
 40
1.0
 40
2.0
 40
2.0
 40
2.0
 40
3.0
 40
3.0
 40
3.0
 40
4.0
 40
4.0
 40
4.0
 40
5.0
 40
5.0
 40
5.0
 40
6.0
 40
6.0
 40
6.0
 40
7.0
 40
7.0
 40
7.0
 40
8.0
 40
8.0
 40
8.0
 40
9.0
 40
9.0
 40
9.0
 40
10.0
 40
10.0
 40
10.0
 40
11.0
 40
11.0
 40
11.0
 40
12.0
 40
12.0
 40
12.0
 40
13.0
 40
13.0
 40
13.0
 40
13.0
 10
69.92372502592185
 20
-123.7554090402417
 10
70.0823716730176
 20
-123.9731390749095
 10
70.15644122595047
 20
-124.0661566530112
 10
70.30027396245966
 20
-124.1150770089018
 10
70.30027396245966
 20
-124.1150770089018
 10
70.30027396245966
 20
-123.3364854292353
 10
70.30027396245966
 20
-123.3364854292353
 10
70.30027396245966
 20
-123.3364854292353
 10
70.50542939860628
 20
-123.3364854292353
 10
70.50542939860628
 20
-123.3364854292353
 10
70.50542939860628
 20
-123.3364854292353
 10
70.50542939860628
 20
-124.3645019220339
 10
70.50542939860628
 20
-124.3645019220339
 10
70.14782848723735
 20
-124.3328070435696
 10
70.06962481972218
 20
-124.2673502293498
 10
69.77127955069955
 20
-123.8821885540989
 10
69.57249754120063
 20
-123.6262179595448
 10
69.50480141491546
 20
-123.5607611453251
 10
69.36734210505401
 20
-123.5607611453251
 10
69.2488308203614
 20
-123.5607611453251
 10
69.11774493714765
 20
-123.6327636409668
 10
69.11774493714765
 20
-123.8294785931746
 10
69.11774493714765
 20
-124.0895833023109
 10
69.34822182511087
 20
-124.0981960410241
 10
69.46466605251231
 20
-124.1023301556064
 10
69.46466605251231
 20
-124.1023301556064
 10
69.46466605251231
 20
-124.3266058716961
 10
69.46466605251231
 20
-124.3266058716961
 10
69.33771428388086
 20
-124.317993132983
 10
69.22557642583597
 20
-124.3073133369787
 10
69.10706514114338
 20
-124.2270426121724
 10
68.94635143675647
 20
-124.1171440661929
 10
68.91241724622677
 20
-123.9307644004409
 10
68.91241724622677
 20
-123.814664682588
 10
68.91241724622677
 20
-123.5373344960254
 10
69.09655759991337
 20
-123.3299397478134
 10
69.36940916234515
 20
-123.3299397478134
 10
69.59781899301721
 20
-123.3299397478134
 10
69.69738225254093
 20
-123.4463839752148
 10
69.92372502592185
 20
-123.7554090402417
 97
        0
 97
        0
 75
     2
 76
     1
 98
        0
  0
ENDBLK
  5
81
330
7E
100
AcDbEntity
  8
0
100
AcDbBlockEnd
  0
BLOCK
  5
8C
330
8A
100
AcDbEntity
  8
0
100
AcDbBlockBegin
  2
block 4
 70
     0
 10
0.0
 20
0.0
 30
0.0
  3
block 4
  1

  0
SPLINE
  5
8E
330
8A
100
AcDbEntity
  8
_U+30EC_U+30A4_U+30E4_U+30FC 1
370
     0
100
AcDbSpline
210
0.0
220
0.0
230
1.0
 70
    11
 71
     3
 72
    17
 73
    13
 74
     0
 42
0.0000000001
 43
0.0000000001
 12
1.0
 22
0.0
 32
0.0
 13
1.0
 23
0.0
 33
0.0
 40
0.0
 40
0.0
 40
0.0
 40
0.0
 40
1.0
 40
1.0
 40
1.0
 40
2.0
 40
2.0
 40
2.0
 40
3.0
 40
3.0
 40
3.0
 40
4.0
 40
4.0
 40
4.0
 40
4.0
 10
103.4634521225716
 20
-134.5189208648078
 30
0.0
 10
103.3576876911745
 20
-134.4131564334106
 30
0.0
 10
103.2770724568196
 20
-134.3752603830729
 30
0.0
 10
103.1840548787179
 20
-134.3435655046086
 30
0.0
 10
103.1840548787179
 20
-134.3435655046086
 30
0.0
 10
103.2942979342459
 20
-134.1782009213166
 30
0.0
 10
103.2942979342459
 20
-134.1782009213166
 30
0.0
 10
103.3914496269299
 20
-134.2209201053337
 30
0.0
 10
103.5120279689137
 20
-134.2987792633003
 30
0.0
 10
103.5650824393865
 20
-134.3539007910643
 30
0.0
 10
103.5650824393865
 20
-134.3539007910643
 30
0.0
 10
103.4634521225716
 20
-134.5189208648078
 30
0.0
 10
103.4634521225716
 20
-134.5189208648078
 30
0.0
  0
SPLINE
  5
8F
330
8A
100
AcDbEntity
  8
_U+30EC_U+30A4_U+30E4_U+30FC 1
370
     0
100
AcDbSpline
210
0.0
220
0.0
230
1.0
 70
    11
 71
     3
 72
   182
 73
   178
 74
     0
 42
0.0000000001
 43
0.0000000001
 12
1.0
 22
0.0
 32
0.0
 13
1.0
 23
0.0
 33
0.0
 40
0.0
 40
0.0
 40
0.0
 40
0.0
 40
1.0
 40
1.0
 40
1.0
 40
2.0
 40
2.0
 40
2.0
 40
3.0
 40
3.0
 40
3.0
 40
4.0
 40
4.0
 40
4.0
 40
5.0
 40
5.0
 40
5.0
 40
6.0
 40
6.0
 40
6.0
 40
7.0
 40
7.0
 40
7.0
 40
8.0
 40
8.0
 40
8.0
 40
9.0
 40
9.0
 40
9.0
 40
10.0
 40
10.0
 40
10.0
 40
11.0
 40
11.0
 40
11.0
 40
12.0
 40
12.0
 40
12.0
 40
13.0
 40
13.0
 40
13.0
 40
14.0
 40
14.0
 40
14.0
 40
15.0
 40
15.0
 40
15.0
 40
16.0
 40
16.0
 40
16.0
 40
17.0
 40
17.0
 40
17.0
 40
18.0
 40
18.0
 40
18.0
 40
19.0
 40
19.0
 40
19.0
 40
20.0
 40
20.0
 40
20.0
 40
21.0
 40
21.0
 40
21.0
 40
22.0
 40
22.0
 40
22.0
 40
23.0
 40
23.0
 40
23.0
 40
24.0
 40
24.0
 40
24.0
 40
25.0
 40
25.0
 40
25.0
 40
26.0
 40
26.0
 40
26.0
 40
27.0
 40
27.0
 40
27.0
 40
28.0
 40
28.0
 40
28.0
 40
29.0
 40
29.0
 40
29.0
 40
30.0
 40
30.0
 40
30.0
 40
31.0
 40
31.0
 40
31.0
 40
32.0
 40
32.0
 40
32.0
 40
33.0
 40
33.0
 40
33.0
 40
34.0
 40
34.0
 40
34.0
 40
35.0
 40
35.0
 40
35.0
 40
36.0
 40
36.0
 40
36.0
 40
37.0
 40
37.0
 40
37.0
 40
38.0
 40
38.0
 40
38.0
 40
39.0
 40
39.0
 40
39.0
 40
40.0
 40
40.0
 40
40.0
 40
41.0
 40
41.0
 40
41.0
 40
42.0
 40
42.0
 40
42.0
 40
43.0
 40
43.0
 40
43.0
 40
44.0
 40
44.0
 40
44.0
 40
45.0
 40
45.0
 40
45.0
 40
46.0
 40
46.0
 40
46.0
 40
47.0
 40
47.0
 40
47.0
 40
48.0
 40
48.0
 40
48.0
 40
49.0
 40
49.0
 40
49.0
 40
50.0
 40
50.0
 40
50.0
 40
51.0
 40
51.0
 40
51.0
 40
52.0
 40
52.0
 40
52.0
 40
53.0
 40
53.0
 40
53.0
 40
54.0
 40
54.0
 40
54.0
 40
55.0
 40
55.0
 40
55.0
 40
56.0
 40
56.0
 40
56.0
 40
57.0
 40
57.0
 40
57.0
 40
58.0
 40
58.0
 40
58.0
 40
59.0
 40
59.0
 40
59.0
 40
59.0
 10
104.5083495832479
 20
-135.6974880303117
 30
0.0
 10
104.5083495832479
 20
-135.6974880303117
 30
0.0
 10
103.8716959375737
 20
-135.6974880303117
 30
0.0
 10
103.8716959375737
 20
-135.6974880303117
 30
0.0
 10
103.6581000174883
 20
-135.6974880303117
 30
0.0
 10
103.4420925305631
 20
-135.701622144894
 30
0.0
 10
103.2284966104776
 20
-135.7140244886409
 30
0.0
 10
103.2284966104776
 20
-135.7140244886409
 30
0.0
 10
103.2284966104776
 20
-135.5069742499774
 30
0.0
 10
103.2284966104776
 20
-135.5069742499774
 30
0.0
 10
103.4507052692762
 20
-135.5197211032728
 30
0.0
 10
103.7741997353412
 20
-135.5238552178552
 30
0.0
 10
103.8716959375737
 20
-135.5238552178552
 30
0.0
 10
103.8716959375737
 20
-135.5238552178552
 30
0.0
 10
104.0918375390812
 20
-135.5238552178552
 30
0.0
 10
104.0918375390812
 20
-135.5238552178552
 30
0.0
 10
104.0918375390812
 20
-135.5238552178552
 30
0.0
 10
104.0918375390812
 20
-135.3819172838629
 30
0.0
 10
104.0918375390812
 20
-135.3819172838629
 30
0.0
 10
104.0918375390812
 20
-135.3819172838629
 30
0.0
 10
103.93095157992
 20
-135.3819172838629
 30
0.0
 10
103.93095157992
 20
-135.3819172838629
 30
0.0
 10
103.7659315061766
 20
-135.3819172838629
 30
0.0
 10
103.6009114324331
 20
-135.3863959079937
 30
0.0
 10
103.4358913586896
 20
-135.4012098185803
 30
0.0
 10
103.4358913586896
 20
-135.4012098185803
 30
0.0
 10
103.4358913586896
 20
-135.1917480130771
 30
0.0
 10
103.4358913586896
 20
-135.1917480130771
 30
0.0
 10
103.6071126043066
 20
-135.2065619236637
 30
0.0
 10
103.854814969696
 20
-135.2106960382459
 30
0.0
 10
103.93095157992
 20
-135.2106960382459
 30
0.0
 10
103.93095157992
 20
-135.2106960382459
 30
0.0
 10
104.0918375390812
 20
-135.2106960382459
 30
0.0
 10
104.0918375390812
 20
-135.2106960382459
 30
0.0
 10
104.0873589149504
 20
-135.1386935426042
 30
0.0
 10
104.0873589149504
 20
-135.1324923707308
 30
0.0
 10
104.0811577430769
 20
-135.0794379002579
 30
0.0
 10
104.0811577430769
 20
-135.0794379002579
 30
0.0
 10
104.2206841102296
 20
-135.094596320393
 30
0.0
 10
104.2206841102296
 20
-135.094596320393
 30
0.0
 10
104.2206841102296
 20
-135.094596320393
 30
0.0
 10
104.1214653602544
 20
-134.9230305652276
 30
0.0
 10
104.1214653602544
 20
-134.9230305652276
 30
0.0
 10
104.1679741493052
 20
-134.929231737101
 30
0.0
 10
104.2420437022381
 20
-134.9378444758142
 30
0.0
 10
104.2589246701158
 20
-134.9378444758142
 30
0.0
 10
104.309567573749
 20
-134.9378444758142
 30
0.0
 10
104.3264485416267
 20
-134.9168293933541
 30
0.0
 10
104.3264485416267
 20
-134.859640808299
 30
0.0
 10
104.3264485416267
 20
-134.859640808299
 30
0.0
 10
104.3264485416267
 20
-134.721836988889
 30
0.0
 10
104.3264485416267
 20
-134.721836988889
 30
0.0
 10
104.3264485416267
 20
-134.721836988889
 30
0.0
 10
104.2206841102296
 20
-134.721836988889
 30
0.0
 10
104.2206841102296
 20
-134.721836988889
 30
0.0
 10
104.0873589149504
 20
-134.721836988889
 30
0.0
 10
103.93095157992
 20
-134.721836988889
 30
0.0
 10
103.8083061806451
 20
-134.7349283517329
 30
0.0
 10
103.8083061806451
 20
-134.7349283517329
 30
0.0
 10
103.8083061806451
 20
-134.5444145713986
 30
0.0
 10
103.8083061806451
 20
-134.5444145713986
 30
0.0
 10
103.9753933116798
 20
-134.5612955392764
 30
0.0
 10
104.205870199643
 20
-134.5633625965675
 30
0.0
 10
104.2206841102296
 20
-134.5633625965675
 30
0.0
 10
104.2206841102296
 20
-134.5633625965675
 30
0.0
 10
104.3264485416267
 20
-134.5633625965675
 30
0.0
 10
104.3264485416267
 20
-134.5633625965675
 30
0.0
 10
104.3264485416267
 20
-134.5633625965675
 30
0.0
 10
104.3264485416267
 20
-134.432448968128
 30
0.0
 10
104.3264485416267
 20
-134.432448968128
 30
0.0
 10
104.3264485416267
 20
-134.432448968128
 30
0.0
 10
104.288552491289
 20
-134.432448968128
 30
0.0
 10
104.288552491289
 20
-134.432448968128
 30
0.0
 10
104.2441107595292
 20
-134.432448968128
 30
0.0
 10
104.1190537934147
 20
-134.4365830827103
 30
0.0
 10
104.0301703298952
 20
-134.4448513118749
 30
0.0
 10
104.0301703298952
 20
-134.4448513118749
 30
0.0
 10
104.0301703298952
 20
-134.3645805870686
 30
0.0
 10
104.0301703298952
 20
-134.3645805870686
 30
0.0
 10
103.9774603689709
 20
-134.4028211469549
 30
0.0
 10
103.9519666623801
 20
-134.4172905479929
 30
0.0
 10
103.9095919879115
 20
-134.4407171972926
 30
0.0
 10
103.9095919879115
 20
-134.4407171972926
 30
0.0
 10
103.7214897744169
 20
-134.3118706261443
 30
0.0
 10
103.7214897744169
 20
-134.3118706261443
 30
0.0
 10
103.799693441932
 20
-134.2777641808403
 30
0.0
 10
103.9564452865109
 20
-134.2143744239117
 30
0.0
 10
104.1128526215412
 20
-134.0707139421768
 30
0.0
 10
104.1951904036387
 20
-133.9921657651131
 30
0.0
 10
104.2737385807024
 20
-133.9074164161759
 30
0.0
 10
104.3264485416267
 20
-133.8061306089096
 30
0.0
 10
104.3264485416267
 20
-133.8061306089096
 30
0.0
 10
104.5379774044211
 20
-133.867453308547
 30
0.0
 10
104.5379774044211
 20
-133.867453308547
 30
0.0
 10
104.5572699391385
 20
-133.8736544804205
 30
0.0
 10
104.5676052255942
 20
-133.8822672191336
 30
0.0
 10
104.5676052255942
 20
-133.895014072429
 30
0.0
 10
104.5676052255942
 20
-133.9118950403067
 30
0.0
 10
104.5548583722988
 20
-133.9180962121802
 30
0.0
 10
104.5297091752565
 20
-133.9308430654756
 30
0.0
 10
104.6099799000628
 20
-134.0279947581597
 30
0.0
 10
104.7729329165151
 20
-134.1254909603923
 30
0.0
 10
104.8066948522706
 20
-134.1444389855611
 30
0.0
 10
104.9569010154274
 20
-134.2333224490806
 30
0.0
 10
105.0712781855377
 20
-134.2608832129626
 30
0.0
 10
105.1494818530529
 20
-134.2798312381314
 30
0.0
 10
105.1494818530529
 20
-134.2798312381314
 30
0.0
 10
105.0309705683603
 20
-134.4489854264572
 30
0.0
 10
105.0309705683603
 20
-134.4489854264572
 30
0.0
 10
104.9462212194232
 20
-134.4193576052841
 30
0.0
 10
104.89557831579
 20
-134.4007540896637
 30
0.0
 10
104.7770670310974
 20
-134.3349527658954
 30
0.0
 10
104.7770670310974
 20
-134.3349527658954
 30
0.0
 10
104.7770670310974
 20
-134.4448513118749
 30
0.0
 10
104.7770670310974
 20
-134.4448513118749
 30
0.0
 10
104.6947292489999
 20
-134.4365830827103
 30
0.0
 10
104.5676052255942
 20
-134.432448968128
 30
0.0
 10
104.5148952646699
 20
-134.432448968128
 30
0.0
 10
104.5148952646699
 20
-134.432448968128
 30
0.0
 10
104.5148952646699
 20
-134.5633625965675
 30
0.0
 10
104.5148952646699
 20
-134.5633625965675
 30
0.0
 10
104.5148952646699
 20
-134.5633625965675
 30
0.0
 10
104.6354736066536
 20
-134.5633625965675
 30
0.0
 10
104.6354736066536
 20
-134.5633625965675
 30
0.0
 10
104.6375406639448
 20
-134.5633625965675
 30
0.0
 10
104.8700846091992
 20
-134.5612955392764
 30
0.0
 10
105.047851536238
 20
-134.5444145713986
 30
0.0
 10
105.047851536238
 20
-134.5444145713986
 30
0.0
 10
105.047851536238
 20
-134.7349283517329
 30
0.0
 10
105.047851536238
 20
-134.7349283517329
 30
0.0
 10
104.9190049650897
 20
-134.721836988889
 30
0.0
 10
104.7622531205108
 20
-134.721836988889
 30
0.0
 10
104.6354736066536
 20
-134.721836988889
 30
0.0
 10
104.6354736066536
 20
-134.721836988889
 30
0.0
 10
104.5148952646699
 20
-134.721836988889
 30
0.0
 10
104.5148952646699
 20
-134.721836988889
 30
0.0
 10
104.5148952646699
 20
-134.721836988889
 30
0.0
 10
104.5148952646699
 20
-134.9485242718184
 30
0.0
 10
104.5148952646699
 20
-134.9485242718184
 30
0.0
 10
104.5148952646699
 20
-135.067035556511
 30
0.0
 10
104.489401558079
 20
-135.1028645495576
 30
0.0
 10
104.3285155989179
 20
-135.1176784601442
 30
0.0
 10
104.3329942230487
 20
-135.1366264853131
 30
0.0
 10
104.3264485416267
 20
-135.1473062813174
 30
0.0
 10
104.288552491289
 20
-135.1703884210685
 30
0.0
 10
104.2864854339978
 20
-135.1896809557859
 30
0.0
 10
104.2864854339978
 20
-135.1958821276594
 30
0.0
 10
104.2840738671582
 20
-135.2106960382459
 30
0.0
 10
104.2840738671582
 20
-135.2106960382459
 30
0.0
 10
104.4215331770196
 20
-135.2106960382459
 30
0.0
 10
104.4215331770196
 20
-135.2106960382459
 30
0.0
 10
104.5865532507631
 20
-135.2106960382459
 30
0.0
 10
104.7539848913462
 20
-135.2065619236637
 30
0.0
 10
104.9210720223808
 20
-135.1917480130771
 30
0.0
 10
104.9210720223808
 20
-135.1917480130771
 30
0.0
 10
104.9210720223808
 20
-135.3991427612891
 30
0.0
 10
104.9210720223808
 20
-135.3991427612891
 30
0.0
 10
104.7050645354557
 20
-135.3819172838629
 30
0.0
 10
104.440825711737
 20
-135.3819172838629
 30
0.0
 10
104.4215331770196
 20
-135.3819172838629
 30
0.0
 10
104.4215331770196
 20
-135.3819172838629
 30
0.0
 10
104.282006809867
 20
-135.3819172838629
 30
0.0
 10
104.282006809867
 20
-135.3819172838629
 30
0.0
 10
104.282006809867
 20
-135.3819172838629
 30
0.0
 10
104.282006809867
 20
-135.5238552178552
 30
0.0
 10
104.282006809867
 20
-135.5238552178552
 30
0.0
 10
104.282006809867
 20
-135.5238552178552
 30
0.0
 10
104.5083495832479
 20
-135.5238552178552
 30
0.0
 10
104.5083495832479
 20
-135.5238552178552
 30
0.0
 10
104.7243570701731
 20
-135.5238552178552
 30
0.0
 10
104.9420871048409
 20
-135.5197211032728
 30
0.0
 10
105.1577500822175
 20
-135.5069742499774
 30
0.0
 10
105.1577500822175
 20
-135.5069742499774
 30
0.0
 10
105.1577500822175
 20
-135.7140244886409
 30
0.0
 10
105.1577500822175
 20
-135.7140244886409
 30
0.0
 10
104.8766302906211
 20
-135.6974880303117
 30
0.0
 10
104.5317762325476
 20
-135.6974880303117
 30
0.0
 10
104.5083495832479
 20
-135.6974880303117
 30
0.0
  0
SPLINE
  5
90
330
8A
100
AcDbEntity
  8
_U+30EC_U+30A4_U+30E4_U+30FC 1
370
     0
100
AcDbSpline
210
0.0
220
0.0
230
1.0
 70
    11
 71
     3
 72
    23
 73
    19
 74
     0
 42
0.0000000001
 43
0.0000000001
 12
1.0
 22
0.0
 32
0.0
 13
1.0
 23
0.0
 33
0.0
 40
0.0
 40
0.0
 40
0.0
 40
0.0
 40
1.0
 40
1.0
 40
1.0
 40
2.0
 40
2.0
 40
2.0
 40
3.0
 40
3.0
 40
3.0
 40
4.0
 40
4.0
 40
4.0
 40
5.0
 40
5.0
 40
5.0
 40
6.0
 40
6.0
 40
6.0
 40
6.0
 10
103.3893825696388
 20
-135.0691026138022
 30
0.0
 10
103.3893825696388
 20
-135.0901176962622
 30
0.0
 10
103.3914496269299
 20
-135.1283582561485
 30
0.0
 10
103.3659559203391
 20
-135.1283582561485
 30
0.0
 10
103.3556206338833
 20
-135.1283582561485
 30
0.0
 10
103.3470078951702
 20
-135.1218125747265
 30
0.0
 10
103.3363280991659
 20
-135.1049316068488
 30
0.0
 10
103.3363280991659
 20
-135.1049316068488
 30
0.0
 10
103.2326307250599
 20
-134.9230305652276
 30
0.0
 10
103.2326307250599
 20
-134.9230305652276
 30
0.0
 10
103.4486382119851
 20
-134.7941839940792
 30
0.0
 10
103.6453531641928
 20
-134.5168538075166
 30
0.0
 10
103.6918619532437
 20
-134.4448513118749
 30
0.0
 10
103.6918619532437
 20
-134.4448513118749
 30
0.0
 10
103.7638644488854
 20
-134.6246852962049
 30
0.0
 10
103.7638644488854
 20
-134.6246852962049
 30
0.0
 10
103.6305392536063
 20
-134.8214002484127
 30
0.0
 10
103.4548393838585
 20
-135.0057128568736
 30
0.0
 10
103.3893825696388
 20
-135.0691026138022
 30
0.0
  0
SPLINE
  5
91
330
8A
100
AcDbEntity
  8
_U+30EC_U+30A4_U+30E4_U+30FC 1
370
     0
100
AcDbSpline
210
0.0
220
0.0
230
1.0
 70
    11
 71
     3
 72
    17
 73
    13
 74
     0
 42
0.0000000001
 43
0.0000000001
 12
1.0
 22
0.0
 32
0.0
 13
1.0
 23
0.0
 33
0.0
 40
0.0
 40
0.0
 40
0.0
 40
0.0
 40
1.0
 40
1.0
 40
1.0
 40
2.0
 40
2.0
 40
2.0
 40
3.0
 40
3.0
 40
3.0
 40
4.0
 40
4.0
 40
4.0
 40
4.0
 10
103.6432861069017
 20
-134.1740668067343
 30
0.0
 10
103.5819634072642
 20
-134.0979301965102
 30
0.0
 10
103.4527723265674
 20
-134.0217935862862
 30
0.0
 10
103.3490749524614
 20
-133.9921657651131
 30
0.0
 10
103.3490749524614
 20
-133.9921657651131
 30
0.0
 10
103.4445040974028
 20
-133.8271456913696
 30
0.0
 10
103.4445040974028
 20
-133.8271456913696
 30
0.0
 10
103.5457899046691
 20
-133.8633191939647
 30
0.0
 10
103.6515543360663
 20
-133.9205077790199
 30
0.0
 10
103.7404377995857
 20
-134.0004339942777
 30
0.0
 10
103.7404377995857
 20
-134.0004339942777
 30
0.0
 10
103.6432861069017
 20
-134.1740668067343
 30
0.0
 10
103.6432861069017
 20
-134.1740668067343
 30
0.0
  0
SPLINE
  5
92
330
8A
100
AcDbEntity
  8
_U+30EC_U+30A4_U+30E4_U+30FC 1
370
     0
100
AcDbSpline
210
0.0
220
0.0
230
1.0
 70
    11
 71
     3
 72
    23
 73
    19
 74
     0
 42
0.0000000001
 43
0.0000000001
 12
1.0
 22
0.0
 32
0.0
 13
1.0
 23
0.0
 33
0.0
 40
0.0
 40
0.0
 40
0.0
 40
0.0
 40
1.0
 40
1.0
 40
1.0
 40
2.0
 40
2.0
 40
2.0
 40
3.0
 40
3.0
 40
3.0
 40
4.0
 40
4.0
 40
4.0
 40
5.0
 40
5.0
 40
5.0
 40
6.0
 40
6.0
 40
6.0
 40
6.0
 10
104.0959716536635
 20
-134.8785888334679
 30
0.0
 10
104.074612061655
 20
-134.901670973219
 30
0.0
 10
103.9774603689709
 20
-135.0139810860382
 30
0.0
 10
103.8379340018183
 20
-135.094596320393
 30
0.0
 10
103.8379340018183
 20
-135.094596320393
 30
0.0
 10
103.6708468707837
 20
-134.9740179784093
 30
0.0
 10
103.6708468707837
 20
-134.9740179784093
 30
0.0
 10
103.8210530339406
 20
-134.8975368586367
 30
0.0
 10
103.9202717839158
 20
-134.8024522232438
 30
0.0
 10
103.9688476302578
 20
-134.749397752771
 30
0.0
 10
103.9688476302578
 20
-134.749397752771
 30
0.0
 10
104.1424804427144
 20
-134.832080044417
 30
0.0
 10
104.1424804427144
 20
-134.832080044417
 30
0.0
 10
104.150748671879
 20
-134.8362141589993
 30
0.0
 10
104.1593614105921
 20
-134.8424153308727
 30
0.0
 10
104.1593614105921
 20
-134.8534396364255
 30
0.0
 10
104.1593614105921
 20
-134.8785888334679
 30
0.0
 10
104.1235324175455
 20
-134.8785888334679
 30
0.0
 10
104.0959716536635
 20
-134.8785888334679
 30
0.0
  0
SPLINE
  5
93
330
8A
100
AcDbEntity
  8
_U+30EC_U+30A4_U+30E4_U+30FC 1
370
     0
100
AcDbSpline
210
0.0
220
0.0
230
1.0
 70
    11
 71
     3
 72
    20
 73
    16
 74
     0
 42
0.0000000001
 43
0.0000000001
 12
1.0
 22
0.0
 32
0.0
 13
1.0
 23
0.0
 33
0.0
 40
0.0
 40
0.0
 40
0.0
 40
0.0
 40
1.0
 40
1.0
 40
1.0
 40
2.0
 40
2.0
 40
2.0
 40
3.0
 40
3.0
 40
3.0
 40
4.0
 40
4.0
 40
4.0
 40
5.0
 40
5.0
 40
5.0
 40
5.0
 10
104.3943169226861
 20
-134.0366074968728
 30
0.0
 10
104.3560763627999
 20
-134.0851833432148
 30
0.0
 10
104.2947536631624
 20
-134.1637315202785
 30
0.0
 10
104.1552272960098
 20
-134.273630066258
 30
0.0
 10
104.2354980208161
 20
-134.2777641808403
 30
0.0
 10
104.2651258419893
 20
-134.2777641808403
 30
0.0
 10
104.288552491289
 20
-134.2777641808403
 30
0.0
 10
104.288552491289
 20
-134.2777641808403
 30
0.0
 10
104.516962321961
 20
-134.2777641808403
 30
0.0
 10
104.516962321961
 20
-134.2777641808403
 30
0.0
 10
104.5486572004253
 20
-134.2777641808403
 30
0.0
 10
104.5972330467674
 20
-134.2756971235492
 30
0.0
 10
104.6713025997002
 20
-134.273630066258
 30
0.0
 10
104.5593369964296
 20
-134.1995605133251
 30
0.0
 10
104.5104166405391
 20
-134.1530517242742
 30
0.0
 10
104.3943169226861
 20
-134.0366074968728
 30
0.0
  0
SPLINE
  5
94
330
8A
100
AcDbEntity
  8
_U+30EC_U+30A4_U+30E4_U+30FC 1
370
     0
100
AcDbSpline
210
0.0
220
0.0
230
1.0
 70
    11
 71
     3
 72
    17
 73
    13
 74
     0
 42
0.0000000001
 43
0.0000000001
 12
1.0
 22
0.0
 32
0.0
 13
1.0
 23
0.0
 33
0.0
 40
0.0
 40
0.0
 40
0.0
 40
0.0
 40
1.0
 40
1.0
 40
1.0
 40
2.0
 40
2.0
 40
2.0
 40
3.0
 40
3.0
 40
3.0
 40
4.0
 40
4.0
 40
4.0
 40
4.0
 10
104.9548339581363
 20
-135.0921847535533
 30
0.0
 10
104.819441705566
 20
-134.9802191502827
 30
0.0
 10
104.7136772741688
 20
-134.9168293933541
 30
0.0
 10
104.5951659894762
 20
-134.8534396364255
 30
0.0
 10
104.5951659894762
 20
-134.8534396364255
 30
0.0
 10
104.7219455033334
 20
-134.7411295236064
 30
0.0
 10
104.7219455033334
 20
-134.7411295236064
 30
0.0
 10
104.8532036413214
 20
-134.7876383126573
 30
0.0
 10
104.9631021873009
 20
-134.8448268977124
 30
0.0
 10
105.0881591534155
 20
-134.9464572145273
 30
0.0
 10
105.0881591534155
 20
-134.9464572145273
 30
0.0
 10
104.9548339581363
 20
-135.0921847535533
 30
0.0
 10
104.9548339581363
 20
-135.0921847535533
 30
0.0
  0
HATCH
  5
95
330
8A
100
AcDbEntity
  8
_U+30EC_U+30A4_U+30E4_U+30FC 1
 62
     7
420
 16777215
100
AcDbHatch
 10
0.0
 20
0.0
 30
0.0
210
0.0
220
0.0
230
1.0
  2
SOLID
 70
     1
 71
     0
 91
        7
 92
        1
 93
        1
 72
     4
 94
        3
 73
     0
 74
     1
 95
       17
 96
       13
 40
0.0
 40
0.0
 40
0.0
 40
0.0
 40
1.0
 40
1.0
 40
1.0
 40
2.0
 40
2.0
 40
2.0
 40
3.0
 40
3.0
 40
3.0
 40
4.0
 40
4.0
 40
4.0
 40
4.0
 10
103.4634521225716
 20
-134.5189208648078
 10
103.3576876911745
 20
-134.4131564334106
 10
103.2770724568196
 20
-134.3752603830729
 10
103.1840548787179
 20
-134.3435655046086
 10
103.1840548787179
 20
-134.3435655046086
 10
103.2942979342459
 20
-134.1782009213166
 10
103.2942979342459
 20
-134.1782009213166
 10
103.3914496269299
 20
-134.2209201053337
 10
103.5120279689137
 20
-134.2987792633003
 10
103.5650824393865
 20
-134.3539007910643
 10
103.5650824393865
 20
-134.3539007910643
 10
103.4634521225716
 20
-134.5189208648078
 10
103.4634521225716
 20
-134.5189208648078
 97
        0
 97
        0
 92
        1
 93
        1
 72
     4
 94
        3
 73
     0
 74
     1
 95
      182
 96
      178
 40
0.0
 40
0.0
 40
0.0
 40
0.0
 40
1.0
 40
1.0
 40
1.0
 40
2.0
 40
2.0
 40
2.0
 40
3.0
 40
3.0
 40
3.0
 40
4.0
 40
4.0
 40
4.0
 40
5.0
 40
5.0
 40
5.0
 40
6.0
 40
6.0
 40
6.0
 40
7.0
 40
7.0
 40
7.0
 40
8.0
 40
8.0
 40
8.0
 40
9.0
 40
9.0
 40
9.0
 40
10.0
 40
10.0
 40
10.0
 40
11.0
 40
11.0
 40
11.0
 40
12.0
 40
12.0
 40
12.0
 40
13.0
 40
13.0
 40
13.0
 40
14.0
 40
14.0
 40
14.0
 40
15.0
 40
15.0
 40
15.0
 40
16.0
 40
16.0
 40
16.0
 40
17.0
 40
17.0
 40
17.0
 40
18.0
 40
18.0
 40
18.0
 40
19.0
 40
19.0
 40
19.0
 40
20.0
 40
20.0
 40
20.0
 40
21.0
 40
21.0
 40
21.0
 40
22.0
 40
22.0
 40
22.0
 40
23.0
 40
23.0
 40
23.0
 40
24.0
 40
24.0
 40
24.0
 40
25.0
 40
25.0
 40
25.0
 40
26.0
 40
26.0
 40
26.0
 40
27.0
 40
27.0
 40
27.0
 40
28.0
 40
28.0
 40
28.0
 40
29.0
 40
29.0
 40
29.0
 40
30.0
 40
30.0
 40
30.0
 40
31.0
 40
31.0
 40
31.0
 40
32.0
 40
32.0
 40
32.0
 40
33.0
 40
33.0
 40
33.0
 40
34.0
 40
34.0
 40
34.0
 40
35.0
 40
35.0
 40
35.0
 40
36.0
 40
36.0
 40
36.0
 40
37.0
 40
37.0
 40
37.0
 40
38.0
 40
38.0
 40
38.0
 40
39.0
 40
39.0
 40
39.0
 40
40.0
 40
40.0
 40
40.0
 40
41.0
 40
41.0
 40
41.0
 40
42.0
 40
42.0
 40
42.0
 40
43.0
 40
43.0
 40
43.0
 40
44.0
 40
44.0
 40
44.0
 40
45.0
 40
45.0
 40
45.0
 40
46.0
 40
46.0
 40
46.0
 40
47.0
 40
47.0
 40
47.0
 40
48.0
 40
48.0
 40
48.0
 40
49.0
 40
49.0
 40
49.0
 40
50.0
 40
50.0
 40
50.0
 40
51.0
 40
51.0
 40
51.0
 40
52.0
 40
52.0
 40
52.0
 40
53.0
 40
53.0
 40
53.0
 40
54.0
 40
54.0
 40
54.0
 40
55.0
 40
55.0
 40
55.0
 40
56.0
 40
56.0
 40
56.0
 40
57.0
 40
57.0
 40
57.0
 40
58.0
 40
58.0
 40
58.0
 40
59.0
 40
59.0
 40
59.0
 40
59.0
 10
104.5083495832479
 20
-135.6974880303117
 10
104.5083495832479
 20
-135.6974880303117
 10
103.8716959375737
 20
-135.6974880303117
 10
103.8716959375737
 20
-135.6974880303117
 10
103.6581000174883
 20
-135.6974880303117
 10
103.4420925305631
 20
-135.701622144894
 10
103.2284966104776
 20
-135.7140244886409
 10
103.2284966104776
 20
-135.7140244886409
 10
103.2284966104776
 20
-135.5069742499774
 10
103.2284966104776
 20
-135.5069742499774
 10
103.4507052692762
 20
-135.5197211032728
 10
103.7741997353412
 20
-135.5238552178552
 10
103.8716959375737
 20
-135.5238552178552
 10
103.8716959375737
 20
-135.5238552178552
 10
104.0918375390812
 20
-135.5238552178552
 10
104.0918375390812
 20
-135.5238552178552
 10
104.0918375390812
 20
-135.5238552178552
 10
104.0918375390812
 20
-135.3819172838629
 10
104.0918375390812
 20
-135.3819172838629
 10
104.0918375390812
 20
-135.3819172838629
 10
103.93095157992
 20
-135.3819172838629
 10
103.93095157992
 20
-135.3819172838629
 10
103.7659315061766
 20
-135.3819172838629
 10
103.6009114324331
 20
-135.3863959079937
 10
103.4358913586896
 20
-135.4012098185803
 10
103.4358913586896
 20
-135.4012098185803
 10
103.4358913586896
 20
-135.1917480130771
 10
103.4358913586896
 20
-135.1917480130771
 10
103.6071126043066
 20
-135.2065619236637
 10
103.854814969696
 20
-135.2106960382459
 10
103.93095157992
 20
-135.2106960382459
 10
103.93095157992
 20
-135.2106960382459
 10
104.0918375390812
 20
-135.2106960382459
 10
104.0918375390812
 20
-135.2106960382459
 10
104.0873589149504
 20
-135.1386935426042
 10
104.0873589149504
 20
-135.1324923707308
 10
104.0811577430769
 20
-135.0794379002579
 10
104.0811577430769
 20
-135.0794379002579
 10
104.2206841102296
 20
-135.094596320393
 10
104.2206841102296
 20
-135.094596320393
 10
104.2206841102296
 20
-135.094596320393
 10
104.1214653602544
 20
-134.9230305652276
 10
104.1214653602544
 20
-134.9230305652276
 10
104.1679741493052
 20
-134.929231737101
 10
104.2420437022381
 20
-134.9378444758142
 10
104.2589246701158
 20
-134.9378444758142
 10
104.309567573749
 20
-134.9378444758142
 10
104.3264485416267
 20
-134.9168293933541
 10
104.3264485416267
 20
-134.859640808299
 10
104.3264485416267
 20
-134.859640808299
 10
104.3264485416267
 20
-134.721836988889
 10
104.3264485416267
 20
-134.721836988889
 10
104.3264485416267
 20
-134.721836988889
 10
104.2206841102296
 20
-134.721836988889
 10
104.2206841102296
 20
-134.721836988889
 10
104.0873589149504
 20
-134.721836988889
 10
103.93095157992
 20
-134.721836988889
 10
103.8083061806451
 20
-134.7349283517329
 10
103.8083061806451
 20
-134.7349283517329
 10
103.8083061806451
 20
-134.5444145713986
 10
103.8083061806451
 20
-134.5444145713986
 10
103.9753933116798
 20
-134.5612955392764
 10
104.205870199643
 20
-134.5633625965675
 10
104.2206841102296
 20
-134.5633625965675
 10
104.2206841102296
 20
-134.5633625965675
 10
104.3264485416267
 20
-134.5633625965675
 10
104.3264485416267
 20
-134.5633625965675
 10
104.3264485416267
 20
-134.5633625965675
 10
104.3264485416267
 20
-134.432448968128
 10
104.3264485416267
 20
-134.432448968128
 10
104.3264485416267
 20
-134.432448968128
 10
104.288552491289
 20
-134.432448968128
 10
104.288552491289
 20
-134.432448968128
 10
104.2441107595292
 20
-134.432448968128
 10
104.1190537934147
 20
-134.4365830827103
 10
104.0301703298952
 20
-134.4448513118749
 10
104.0301703298952
 20
-134.4448513118749
 10
104.0301703298952
 20
-134.3645805870686
 10
104.0301703298952
 20
-134.3645805870686
 10
103.9774603689709
 20
-134.4028211469549
 10
103.9519666623801
 20
-134.4172905479929
 10
103.9095919879115
 20
-134.4407171972926
 10
103.9095919879115
 20
-134.4407171972926
 10
103.7214897744169
 20
-134.3118706261443
 10
103.7214897744169
 20
-134.3118706261443
 10
103.799693441932
 20
-134.2777641808403
 10
103.9564452865109
 20
-134.2143744239117
 10
104.1128526215412
 20
-134.0707139421768
 10
104.1951904036387
 20
-133.9921657651131
 10
104.2737385807024
 20
-133.9074164161759
 10
104.3264485416267
 20
-133.8061306089096
 10
104.3264485416267
 20
-133.8061306089096
 10
104.5379774044211
 20
-133.867453308547
 10
104.5379774044211
 20
-133.867453308547
 10
104.5572699391385
 20
-133.8736544804205
 10
104.5676052255942
 20
-133.8822672191336
 10
104.5676052255942
 20
-133.895014072429
 10
104.5676052255942
 20
-133.9118950403067
 10
104.5548583722988
 20
-133.9180962121802
 10
104.5297091752565
 20
-133.9308430654756
 10
104.6099799000628
 20
-134.0279947581597
 10
104.7729329165151
 20
-134.1254909603923
 10
104.8066948522706
 20
-134.1444389855611
 10
104.9569010154274
 20
-134.2333224490806
 10
105.0712781855377
 20
-134.2608832129626
 10
105.1494818530529
 20
-134.2798312381314
 10
105.1494818530529
 20
-134.2798312381314
 10
105.0309705683603
 20
-134.4489854264572
 10
105.0309705683603
 20
-134.4489854264572
 10
104.9462212194232
 20
-134.4193576052841
 10
104.89557831579
 20
-134.4007540896637
 10
104.7770670310974
 20
-134.3349527658954
 10
104.7770670310974
 20
-134.3349527658954
 10
104.7770670310974
 20
-134.4448513118749
 10
104.7770670310974
 20
-134.4448513118749
 10
104.6947292489999
 20
-134.4365830827103
 10
104.5676052255942
 20
-134.432448968128
 10
104.5148952646699
 20
-134.432448968128
 10
104.5148952646699
 20
-134.432448968128
 10
104.5148952646699
 20
-134.5633625965675
 10
104.5148952646699
 20
-134.5633625965675
 10
104.5148952646699
 20
-134.5633625965675
 10
104.6354736066536
 20
-134.5633625965675
 10
104.6354736066536
 20
-134.5633625965675
 10
104.6375406639448
 20
-134.5633625965675
 10
104.8700846091992
 20
-134.5612955392764
 10
105.047851536238
 20
-134.5444145713986
 10
105.047851536238
 20
-134.5444145713986
 10
105.047851536238
 20
-134.7349283517329
 10
105.047851536238
 20
-134.7349283517329
 10
104.9190049650897
 20
-134.721836988889
 10
104.7622531205108
 20
-134.721836988889
 10
104.6354736066536
 20
-134.721836988889
 10
104.6354736066536
 20
-134.721836988889
 10
104.5148952646699
 20
-134.721836988889
 10
104.5148952646699
 20
-134.721836988889
 10
104.5148952646699
 20
-134.721836988889
 10
104.5148952646699
 20
-134.9485242718184
 10
104.5148952646699
 20
-134.9485242718184
 10
104.5148952646699
 20
-135.067035556511
 10
104.489401558079
 20
-135.1028645495576
 10
104.3285155989179
 20
-135.1176784601442
 10
104.3329942230487
 20
-135.1366264853131
 10
104.3264485416267
 20
-135.1473062813174
 10
104.288552491289
 20
-135.1703884210685
 10
104.2864854339978
 20
-135.1896809557859
 10
104.2864854339978
 20
-135.1958821276594
 10
104.2840738671582
 20
-135.2106960382459
 10
104.2840738671582
 20
-135.2106960382459
 10
104.4215331770196
 20
-135.2106960382459
 10
104.4215331770196
 20
-135.2106960382459
 10
104.5865532507631
 20
-135.2106960382459
 10
104.7539848913462
 20
-135.2065619236637
 10
104.9210720223808
 20
-135.1917480130771
 10
104.9210720223808
 20
-135.1917480130771
 10
104.9210720223808
 20
-135.3991427612891
 10
104.9210720223808
 20
-135.3991427612891
 10
104.7050645354557
 20
-135.3819172838629
 10
104.440825711737
 20
-135.3819172838629
 10
104.4215331770196
 20
-135.3819172838629
 10
104.4215331770196
 20
-135.3819172838629
 10
104.282006809867
 20
-135.3819172838629
 10
104.282006809867
 20
-135.3819172838629
 10
104.282006809867
 20
-135.3819172838629
 10
104.282006809867
 20
-135.5238552178552
 10
104.282006809867
 20
-135.5238552178552
 10
104.282006809867
 20
-135.5238552178552
 10
104.5083495832479
 20
-135.5238552178552
 10
104.5083495832479
 20
-135.5238552178552
 10
104.7243570701731
 20
-135.5238552178552
 10
104.9420871048409
 20
-135.5197211032728
 10
105.1577500822175
 20
-135.5069742499774
 10
105.1577500822175
 20
-135.5069742499774
 10
105.1577500822175
 20
-135.7140244886409
 10
105.1577500822175
 20
-135.7140244886409
 10
104.8766302906211
 20
-135.6974880303117
 10
104.5317762325476
 20
-135.6974880303117
 10
104.5083495832479
 20
-135.6974880303117
 97
        0
 97
        0
 92
        1
 93
        1
 72
     4
 94
        3
 73
     0
 74
     1
 95
       23
 96
       19
 40
0.0
 40
0.0
 40
0.0
 40
0.0
 40
1.0
 40
1.0
 40
1.0
 40
2.0
 40
2.0
 40
2.0
 40
3.0
 40
3.0
 40
3.0
 40
4.0
 40
4.0
 40
4.0
 40
5.0
 40
5.0
 40
5.0
 40
6.0
 40
6.0
 40
6.0
 40
6.0
 10
103.3893825696388
 20
-135.0691026138022
 10
103.3893825696388
 20
-135.0901176962622
 10
103.3914496269299
 20
-135.1283582561485
 10
103.3659559203391
 20
-135.1283582561485
 10
103.3556206338833
 20
-135.1283582561485
 10
103.3470078951702
 20
-135.1218125747265
 10
103.3363280991659
 20
-135.1049316068488
 10
103.3363280991659
 20
-135.1049316068488
 10
103.2326307250599
 20
-134.9230305652276
 10
103.2326307250599
 20
-134.9230305652276
 10
103.4486382119851
 20
-134.7941839940792
 10
103.6453531641928
 20
-134.5168538075166
 10
103.6918619532437
 20
-134.4448513118749
 10
103.6918619532437
 20
-134.4448513118749
 10
103.7638644488854
 20
-134.6246852962049
 10
103.7638644488854
 20
-134.6246852962049
 10
103.6305392536063
 20
-134.8214002484127
 10
103.4548393838585
 20
-135.0057128568736
 10
103.3893825696388
 20
-135.0691026138022
 97
        0
 97
        0
 92
        1
 93
        1
 72
     4
 94
        3
 73
     0
 74
     1
 95
       17
 96
       13
 40
0.0
 40
0.0
 40
0.0
 40
0.0
 40
1.0
 40
1.0
 40
1.0
 40
2.0
 40
2.0
 40
2.0
 40
3.0
 40
3.0
 40
3.0
 40
4.0
 40
4.0
 40
4.0
 40
4.0
 10
103.6432861069017
 20
-134.1740668067343
 10
103.5819634072642
 20
-134.0979301965102
 10
103.4527723265674
 20
-134.0217935862862
 10
103.3490749524614
 20
-133.9921657651131
 10
103.3490749524614
 20
-133.9921657651131
 10
103.4445040974028
 20
-133.8271456913696
 10
103.4445040974028
 20
-133.8271456913696
 10
103.5457899046691
 20
-133.8633191939647
 10
103.6515543360663
 20
-133.9205077790199
 10
103.7404377995857
 20
-134.0004339942777
 10
103.7404377995857
 20
-134.0004339942777
 10
103.6432861069017
 20
-134.1740668067343
 10
103.6432861069017
 20
-134.1740668067343
 97
        0
 97
        0
 92
        1
 93
        1
 72
     4
 94
        3
 73
     0
 74
     1
 95
       23
 96
       19
 40
0.0
 40
0.0
 40
0.0
 40
0.0
 40
1.0
 40
1.0
 40
1.0
 40
2.0
 40
2.0
 40
2.0
 40
3.0
 40
3.0
 40
3.0
 40
4.0
 40
4.0
 40
4.0
 40
5.0
 40
5.0
 40
5.0
 40
6.0
 40
6.0
 40
6.0
 40
6.0
 10
104.0959716536635
 20
-134.8785888334679
 10
104.074612061655
 20
-134.901670973219
 10
103.9774603689709
 20
-135.0139810860382
 10
103.8379340018183
 20
-135.094596320393
 10
103.8379340018183
 20
-135.094596320393
 10
103.6708468707837
 20
-134.9740179784093
 10
103.6708468707837
 20
-134.9740179784093
 10
103.8210530339406
 20
-134.8975368586367
 10
103.9202717839158
 20
-134.8024522232438
 10
103.9688476302578
 20
-134.749397752771
 10
103.9688476302578
 20
-134.749397752771
 10
104.1424804427144
 20
-134.832080044417
 10
104.1424804427144
 20
-134.832080044417
 10
104.150748671879
 20
-134.8362141589993
 10
104.1593614105921
 20
-134.8424153308727
 10
104.1593614105921
 20
-134.8534396364255
 10
104.1593614105921
 20
-134.8785888334679
 10
104.1235324175455
 20
-134.8785888334679
 10
104.0959716536635
 20
-134.8785888334679
 97
        0
 97
        0
 92
        1
 93
        1
 72
     4
 94
        3
 73
     0
 74
     1
 95
       20
 96
       16
 40
0.0
 40
0.0
 40
0.0
 40
0.0
 40
1.0
 40
1.0
 40
1.0
 40
2.0
 40
2.0
 40
2.0
 40
3.0
 40
3.0
 40
3.0
 40
4.0
 40
4.0
 40
4.0
 40
5.0
 40
5.0
 40
5.0
 40
5.0
 10
104.3943169226861
 20
-134.0366074968728
 10
104.3560763627999
 20
-134.0851833432148
 10
104.2947536631624
 20
-134.1637315202785
 10
104.1552272960098
 20
-134.273630066258
 10
104.2354980208161
 20
-134.2777641808403
 10
104.2651258419893
 20
-134.2777641808403
 10
104.288552491289
 20
-134.2777641808403
 10
104.288552491289
 20
-134.2777641808403
 10
104.516962321961
 20
-134.2777641808403
 10
104.516962321961
 20
-134.2777641808403
 10
104.5486572004253
 20
-134.2777641808403
 10
104.5972330467674
 20
-134.2756971235492
 10
104.6713025997002
 20
-134.273630066258
 10
104.5593369964296
 20
-134.1995605133251
 10
104.5104166405391
 20
-134.1530517242742
 10
104.3943169226861
 20
-134.0366074968728
 97
        0
 97
        0
 92
        1
 93
        1
 72
     4
 94
        3
 73
     0
 74
     1
 95
       17
 96
       13
 40
0.0
 40
0.0
 40
0.0
 40
0.0
 40
1.0
 40
1.0
 40
1.0
 40
2.0
 40
2.0
 40
2.0
 40
3.0
 40
3.0
 40
3.0
 40
4.0
 40
4.0
 40
4.0
 40
4.0
 10
104.9548339581363
 20
-135.0921847535533
 10
104.819441705566
 20
-134.9802191502827
 10
104.7136772741688
 20
-134.9168293933541
 10
104.5951659894762
 20
-134.8534396364255
 10
104.5951659894762
 20
-134.8534396364255
 10
104.7219455033334
 20
-134.7411295236064
 10
104.7219455033334
 20
-134.7411295236064
 10
104.8532036413214
 20
-134.7876383126573
 10
104.9631021873009
 20
-134.8448268977124
 10
105.0881591534155
 20
-134.9464572145273
 10
105.0881591534155
 20
-134.9464572145273
 10
104.9548339581363
 20
-135.0921847535533
 10
104.9548339581363
 20
-135.0921847535533
 97
        0
 97
        0
 75
     2
 76
     1
 98
        0
  0
SPLINE
  5
96
330
8A
100
AcDbEntity
  8
_U+30EC_U+30A4_U+30E4_U+30FC 1
370
     0
100
AcDbSpline
210
0.0
220
0.0
230
1.0
 70
    11
 71
     3
 72
   113
 73
   109
 74
     0
 42
0.0000000001
 43
0.0000000001
 12
1.0
 22
0.0
 32
0.0
 13
1.0
 23
0.0
 33
0.0
 40
0.0
 40
0.0
 40
0.0
 40
0.0
 40
1.0
 40
1.0
 40
1.0
 40
2.0
 40
2.0
 40
2.0
 40
3.0
 40
3.0
 40
3.0
 40
4.0
 40
4.0
 40
4.0
 40
5.0
 40
5.0
 40
5.0
 40
6.0
 40
6.0
 40
6.0
 40
7.0
 40
7.0
 40
7.0
 40
8.0
 40
8.0
 40
8.0
 40
9.0
 40
9.0
 40
9.0
 40
10.0
 40
10.0
 40
10.0
 40
11.0
 40
11.0
 40
11.0
 40
12.0
 40
12.0
 40
12.0
 40
13.0
 40
13.0
 40
13.0
 40
14.0
 40
14.0
 40
14.0
 40
15.0
 40
15.0
 40
15.0
 40
16.0
 40
16.0
 40
16.0
 40
17.0
 40
17.0
 40
17.0
 40
18.0
 40
18.0
 40
18.0
 40
19.0
 40
19.0
 40
19.0
 40
20.0
 40
20.0
 40
20.0
 40
21.0
 40
21.0
 40
21.0
 40
22.0
 40
22.0
 40
22.0
 40
23.0
 40
23.0
 40
23.0
 40
24.0
 40
24.0
 40
24.0
 40
25.0
 40
25.0
 40
25.0
 40
26.0
 40
26.0
 40
26.0
 40
27.0
 40
27.0
 40
27.0
 40
28.0
 40
28.0
 40
28.0
 40
29.0
 40
29.0
 40
29.0
 40
30.0
 40
30.0
 40
30.0
 40
31.0
 40
31.0
 40
31.0
 40
32.0
 40
32.0
 40
32.0
 40
33.0
 40
33.0
 40
33.0
 40
34.0
 40
34.0
 40
34.0
 40
35.0
 40
35.0
 40
35.0
 40
36.0
 40
36.0
 40
36.0
 40
36.0
 10
106.8344780548886
 20
-135.0691026138022
 30
0.0
 10
106.8344780548886
 20
-135.0691026138022
 30
0.0
 10
106.9340413144123
 20
-135.1683213637774
 30
0.0
 10
106.9340413144123
 20
-135.1683213637774
 30
0.0
 10
106.9447211104166
 20
-135.1790011597816
 30
0.0
 10
106.9550563968724
 20
-135.1917480130771
 30
0.0
 10
106.9550563968724
 20
-135.2065619236637
 30
0.0
 10
106.9550563968724
 20
-135.2086289809548
 30
0.0
 10
106.9550563968724
 20
-135.2382568021279
 30
0.0
 10
106.9171603465346
 20
-135.2382568021279
 30
0.0
 10
106.9085476078215
 20
-135.2382568021279
 30
0.0
 10
106.8682399906441
 20
-135.2337781779971
 30
0.0
 10
106.8620388187706
 20
-135.2337781779971
 30
0.0
 10
106.8217312015932
 20
-135.2658175660099
 30
0.0
 10
106.7752224125423
 20
-135.2995795017654
 30
0.0
 10
106.6760036625671
 20
-135.3567680868205
 30
0.0
 10
106.8217312015932
 20
-135.4645995755089
 30
0.0
 10
106.9805501034632
 20
-135.521788160564
 30
0.0
 10
107.253401665895
 20
-135.5596842109018
 30
0.0
 10
107.253401665895
 20
-135.5596842109018
 30
0.0
 10
107.1031955027381
 20
-135.7353840806495
 30
0.0
 10
107.1031955027381
 20
-135.7353840806495
 30
0.0
 10
106.8410237363106
 20
-135.6633815850078
 30
0.0
 10
106.6842718917317
 20
-135.5748426310369
 30
0.0
 10
106.6081352815077
 20
-135.521788160564
 30
0.0
 10
106.4579291183508
 20
-135.4201578437491
 30
0.0
 10
106.3142686366159
 20
-135.2572048272968
 30
0.0
 10
106.2381320263919
 20
-135.0921847535533
 30
0.0
 10
106.1702636453324
 20
-135.1579860773216
 30
0.0
 10
106.0961940923996
 20
-135.2106960382459
 30
0.0
 10
106.0179904248844
 20
-135.259271884588
 30
0.0
 10
106.0179904248844
 20
-135.259271884588
 30
0.0
 10
106.0179904248844
 20
-135.5111083645597
 30
0.0
 10
106.0179904248844
 20
-135.5111083645597
 30
0.0
 10
106.1809434413367
 20
-135.4859591675174
 30
0.0
 10
106.3669785975402
 20
-135.4411729262092
 30
0.0
 10
106.4303683544688
 20
-135.4267035251711
 30
0.0
 10
106.4303683544688
 20
-135.4267035251711
 30
0.0
 10
106.4007405332956
 20
-135.5955132039483
 30
0.0
 10
106.4007405332956
 20
-135.5955132039483
 30
0.0
 10
106.3986734760045
 20
-135.5955132039483
 30
0.0
 10
106.3797254508356
 20
-135.6020588853703
 30
0.0
 10
106.3776583935445
 20
-135.6020588853703
 30
0.0
 10
106.1788763840456
 20
-135.6402994452566
 30
0.0
 10
105.8615830898541
 20
-135.7057562594763
 30
0.0
 10
105.6645236280978
 20
-135.741585252523
 30
0.0
 10
105.654188341642
 20
-135.7588107299492
 30
0.0
 10
105.6307616923423
 20
-135.7905056084135
 30
0.0
 10
105.6076795525911
 20
-135.7905056084135
 30
0.0
 10
105.5801187887091
 20
-135.7905056084135
 30
0.0
 10
105.5759846741268
 20
-135.7712130736961
 30
0.0
 10
105.5735731072872
 20
-135.7522650485272
 30
0.0
 10
105.5735731072872
 20
-135.7522650485272
 30
0.0
 10
105.5484239102448
 20
-135.5789767456191
 30
0.0
 10
105.5484239102448
 20
-135.5789767456191
 30
0.0
 10
105.6224934631777
 20
-135.570364006906
 30
0.0
 10
105.730324951866
 20
-135.5576171536106
 30
0.0
 10
105.8381564405544
 20
-135.5366020711506
 30
0.0
 10
105.8381564405544
 20
-135.5366020711506
 30
0.0
 10
105.8381564405544
 20
-135.3588351441117
 30
0.0
 10
105.8381564405544
 20
-135.3588351441117
 30
0.0
 10
105.6941514492709
 20
-135.4308376397534
 30
0.0
 10
105.599066813878
 20
-135.4604654609265
 30
0.0
 10
105.4340467401345
 20
-135.4900932820997
 30
0.0
 10
105.4340467401345
 20
-135.4900932820997
 30
0.0
 10
105.3134683981508
 20
-135.3205945842254
 30
0.0
 10
105.3134683981508
 20
-135.3205945842254
 30
0.0
 10
105.6307616923423
 20
-135.2930338203434
 30
0.0
 10
105.8233425299678
 20
-135.2000162422417
 30
0.0
 10
106.0011094570067
 20
-135.067035556511
 30
0.0
 10
105.8550374084321
 20
-135.067035556511
 30
0.0
 10
105.5546250821183
 20
-135.0711696710933
 30
0.0
 10
105.3579101299105
 20
-135.0773708429668
 30
0.0
 10
105.3579101299105
 20
-135.0773708429668
 30
0.0
 10
105.3579101299105
 20
-134.8996039159279
 30
0.0
 10
105.3579101299105
 20
-134.8996039159279
 30
0.0
 10
105.5122504076497
 20
-134.9061495973499
 30
0.0
 10
105.8085286193812
 20
-134.9126952787718
 30
0.0
 10
105.9924967182936
 20
-134.9126952787718
 30
0.0
 10
105.9924967182936
 20
-134.9126952787718
 30
0.0
 10
106.2040255810879
 20
-134.9126952787718
 30
0.0
 10
106.2040255810879
 20
-134.9126952787718
 30
0.0
 10
106.2040255810879
 20
-134.8172661338304
 30
0.0
 10
106.2019585237967
 20
-134.7666232301972
 30
0.0
 10
106.1957573519233
 20
-134.7197699315979
 30
0.0
 10
106.1957573519233
 20
-134.7197699315979
 30
0.0
 10
106.4114203292999
 20
-134.7369954090241
 30
0.0
 10
106.4114203292999
 20
-134.7369954090241
 30
0.0
 10
106.4599961756419
 20
-134.7411295236064
 30
0.0
 10
106.4686089143551
 20
-134.755943434193
 30
0.0
 10
106.4686089143551
 20
-134.7707573447795
 30
0.0
 10
106.4686089143551
 20
-134.7962510513704
 30
0.0
 10
106.4517279464773
 20
-134.804519280535
 30
0.0
 10
106.4007405332956
 20
-134.8300129871258
 30
0.0
 10
106.3986734760045
 20
-134.8555066937167
 30
0.0
 10
106.3986734760045
 20
-134.8617078655901
 30
0.0
 10
106.3966064187133
 20
-134.9126952787718
 30
0.0
 10
106.3966064187133
 20
-134.9126952787718
 30
0.0
 10
106.6270833066766
 20
-134.9126952787718
 30
0.0
 10
106.6270833066766
 20
-134.9126952787718
 30
0.0
 10
106.79210338042
 20
-134.9126952787718
 30
0.0
 10
107.0842474775692
 20
-134.9061495973499
 30
0.0
 10
107.2640814618993
 20
-134.8996039159279
 30
0.0
 10
107.2640814618993
 20
-134.8996039159279
 30
0.0
 10
107.2640814618993
 20
-135.0773708429668
 30
0.0
 10
107.2640814618993
 20
-135.0773708429668
 30
0.0
 10
107.1348903812024
 20
-135.0732367283845
 30
0.0
 10
107.1118082414512
 20
-135.0732367283845
 30
0.0
 10
106.8344780548886
 20
-135.0691026138022
 30
0.0
  0
SPLINE
  5
97
330
8A
100
AcDbEntity
  8
_U+30EC_U+30A4_U+30E4_U+30FC 1
370
     0
100
AcDbSpline
210
0.0
220
0.0
230
1.0
 70
    11
 71
     3
 72
    23
 73
    19
 74
     0
 42
0.0000000001
 43
0.0000000001
 12
1.0
 22
0.0
 32
0.0
 13
1.0
 23
0.0
 33
0.0
 40
0.0
 40
0.0
 40
0.0
 40
0.0
 40
1.0
 40
1.0
 40
1.0
 40
2.0
 40
2.0
 40
2.0
 40
3.0
 40
3.0
 40
3.0
 40
4.0
 40
4.0
 40
4.0
 40
5.0
 40
5.0
 40
5.0
 40
6.0
 40
6.0
 40
6.0
 40
6.0
 10
105.550490967536
 20
-134.7177028743067
 30
0.0
 10
105.5336099996583
 20
-134.7580104914841
 30
0.0
 10
105.5270643182363
 20
-134.7748914593618
 30
0.0
 10
105.5060492357763
 20
-134.7748914593618
 30
0.0
 10
105.4912353251897
 20
-134.7748914593618
 30
0.0
 10
105.4805555291854
 20
-134.7580104914841
 30
0.0
 10
105.474354357312
 20
-134.7452636381887
 30
0.0
 10
105.474354357312
 20
-134.7452636381887
 30
0.0
 10
105.3747910977882
 20
-134.5802435644452
 30
0.0
 10
105.3747910977882
 20
-134.5802435644452
 30
0.0
 10
105.4764214146031
 20
-134.5485486859809
 30
0.0
 10
105.62662757776
 20
-134.4937716677655
 30
0.0
 10
105.8254095872589
 20
-134.3304741417646
 30
0.0
 10
105.8254095872589
 20
-134.3304741417646
 30
0.0
 10
105.8825981723141
 20
-134.5041069542212
 30
0.0
 10
105.8825981723141
 20
-134.5041069542212
 30
0.0
 10
105.7895805942123
 20
-134.5867892458672
 30
0.0
 10
105.7006971306929
 20
-134.6439778309224
 30
0.0
 10
105.550490967536
 20
-134.7177028743067
 30
0.0
  0
SPLINE
  5
98
330
8A
100
AcDbEntity
  8
_U+30EC_U+30A4_U+30E4_U+30FC 1
370
     0
100
AcDbSpline
210
0.0
220
0.0
230
1.0
 70
    11
 71
     3
 72
    17
 73
    13
 74
     0
 42
0.0000000001
 43
0.0000000001
 12
1.0
 22
0.0
 32
0.0
 13
1.0
 23
0.0
 33
0.0
 40
0.0
 40
0.0
 40
0.0
 40
0.0
 40
1.0
 40
1.0
 40
1.0
 40
2.0
 40
2.0
 40
2.0
 40
3.0
 40
3.0
 40
3.0
 40
4.0
 40
4.0
 40
4.0
 40
4.0
 10
105.702764187984
 20
-134.252614983798
 30
0.0
 10
105.6731363668109
 20
-134.2123073666205
 30
0.0
 10
105.6052679857515
 20
-134.114811164388
 30
0.0
 10
105.4233669441303
 20
-134.0049126184085
 30
0.0
 10
105.4233669441303
 20
-134.0049126184085
 30
0.0
 10
105.550490967536
 20
-133.8715874231293
 30
0.0
 10
105.550490967536
 20
-133.8715874231293
 30
0.0
 10
105.7365261237395
 20
-133.9732177399442
 30
0.0
 10
105.7937147087946
 20
-134.0621012034636
 30
0.0
 10
105.8212754726766
 20
-134.1044758779322
 30
0.0
 10
105.8212754726766
 20
-134.1044758779322
 30
0.0
 10
105.702764187984
 20
-134.252614983798
 30
0.0
 10
105.702764187984
 20
-134.252614983798
 30
0.0
  0
SPLINE
  5
99
330
8A
100
AcDbEntity
  8
_U+30EC_U+30A4_U+30E4_U+30FC 1
370
     0
100
AcDbSpline
210
0.0
220
0.0
230
1.0
 70
    11
 71
     3
 72
    38
 73
    34
 74
     0
 42
0.0000000001
 43
0.0000000001
 12
1.0
 22
0.0
 32
0.0
 13
1.0
 23
0.0
 33
0.0
 40
0.0
 40
0.0
 40
0.0
 40
0.0
 40
1.0
 40
1.0
 40
1.0
 40
2.0
 40
2.0
 40
2.0
 40
3.0
 40
3.0
 40
3.0
 40
4.0
 40
4.0
 40
4.0
 40
5.0
 40
5.0
 40
5.0
 40
6.0
 40
6.0
 40
6.0
 40
7.0
 40
7.0
 40
7.0
 40
8.0
 40
8.0
 40
8.0
 40
9.0
 40
9.0
 40
9.0
 40
10.0
 40
10.0
 40
10.0
 40
11.0
 40
11.0
 40
11.0
 40
11.0
 10
106.0707003858087
 20
-133.9477240333534
 30
0.0
 10
106.0686333285176
 20
-133.9942328224042
 30
0.0
 10
106.0665662712264
 20
-134.1106770498057
 30
0.0
 10
106.0665662712264
 20
-134.1551187815654
 30
0.0
 10
106.0665662712264
 20
-134.1551187815654
 30
0.0
 10
106.0665662712264
 20
-134.5020398969301
 30
0.0
 10
106.0665662712264
 20
-134.5020398969301
 30
0.0
 10
106.0665662712264
 20
-134.5888563031583
 30
0.0
 10
106.0686333285176
 20
-134.7304497276021
 30
0.0
 10
106.0793131245218
 20
-134.8510280695859
 30
0.0
 10
106.0793131245218
 20
-134.8510280695859
 30
0.0
 10
105.8887993441875
 20
-134.8510280695859
 30
0.0
 10
105.8887993441875
 20
-134.8510280695859
 30
0.0
 10
105.8932779683184
 20
-134.7876383126573
 30
0.0
 10
105.8974120829007
 20
-134.7349283517329
 30
0.0
 10
105.8994791401918
 20
-134.6798068239689
 30
0.0
 10
105.901546197483
 20
-134.557161424694
 30
0.0
 10
105.9036132547741
 20
-134.5420030045589
 30
0.0
 10
105.9036132547741
 20
-134.4979057823477
 30
0.0
 10
105.9036132547741
 20
-134.4979057823477
 30
0.0
 10
105.9036132547741
 20
-134.1761338640254
 30
0.0
 10
105.9036132547741
 20
-134.1761338640254
 30
0.0
 10
105.9036132547741
 20
-134.1210123362614
 30
0.0
 10
105.8908664014787
 20
-133.8822672191336
 30
0.0
 10
105.8887993441875
 20
-133.8316243155004
 30
0.0
 10
105.8887993441875
 20
-133.8316243155004
 30
0.0
 10
106.0899929205261
 20
-133.8591850793824
 30
0.0
 10
106.0899929205261
 20
-133.8591850793824
 30
0.0
 10
106.1110080029861
 20
-133.8612521366736
 30
0.0
 10
106.1427028814504
 20
-133.8653862512559
 30
0.0
 10
106.1427028814504
 20
-133.8908799578467
 30
0.0
 10
106.1427028814504
 20
-133.9180962121802
 30
0.0
 10
106.0920599778173
 20
-133.9391112946402
 30
0.0
 10
106.0707003858087
 20
-133.9477240333534
 30
0.0
  0
SPLINE
  5
9A
330
8A
100
AcDbEntity
  8
_U+30EC_U+30A4_U+30E4_U+30FC 1
370
     0
100
AcDbSpline
210
0.0
220
0.0
230
1.0
 70
    11
 71
     3
 72
    83
 73
    79
 74
     0
 42
0.0000000001
 43
0.0000000001
 12
1.0
 22
0.0
 32
0.0
 13
1.0
 23
0.0
 33
0.0
 40
0.0
 40
0.0
 40
0.0
 40
0.0
 40
1.0
 40
1.0
 40
1.0
 40
2.0
 40
2.0
 40
2.0
 40
3.0
 40
3.0
 40
3.0
 40
4.0
 40
4.0
 40
4.0
 40
5.0
 40
5.0
 40
5.0
 40
6.0
 40
6.0
 40
6.0
 40
7.0
 40
7.0
 40
7.0
 40
8.0
 40
8.0
 40
8.0
 40
9.0
 40
9.0
 40
9.0
 40
10.0
 40
10.0
 40
10.0
 40
11.0
 40
11.0
 40
11.0
 40
12.0
 40
12.0
 40
12.0
 40
13.0
 40
13.0
 40
13.0
 40
14.0
 40
14.0
 40
14.0
 40
15.0
 40
15.0
 40
15.0
 40
16.0
 40
16.0
 40
16.0
 40
17.0
 40
17.0
 40
17.0
 40
18.0
 40
18.0
 40
18.0
 40
19.0
 40
19.0
 40
19.0
 40
20.0
 40
20.0
 40
20.0
 40
21.0
 40
21.0
 40
21.0
 40
22.0
 40
22.0
 40
22.0
 40
23.0
 40
23.0
 40
23.0
 40
24.0
 40
24.0
 40
24.0
 40
25.0
 40
25.0
 40
25.0
 40
26.0
 40
26.0
 40
26.0
 40
26.0
 10
106.8727186147749
 20
-134.2691514421272
 30
0.0
 10
106.8727186147749
 20
-134.2691514421272
 30
0.0
 10
106.7752224125423
 20
-134.2691514421272
 30
0.0
 10
106.7752224125423
 20
-134.2691514421272
 30
0.0
 10
106.7752224125423
 20
-134.2691514421272
 30
0.0
 10
106.7752224125423
 20
-134.5168538075166
 30
0.0
 10
106.7752224125423
 20
-134.5168538075166
 30
0.0
 10
106.7752224125423
 20
-134.5168538075166
 30
0.0
 10
106.8579047041883
 20
-134.5168538075166
 30
0.0
 10
106.8579047041883
 20
-134.5168538075166
 30
0.0
 10
106.9233615184081
 20
-134.5168538075166
 30
0.0
 10
107.0628878855607
 20
-134.5123751833858
 30
0.0
 10
107.1624511450844
 20
-134.5041069542212
 30
0.0
 10
107.1624511450844
 20
-134.5041069542212
 30
0.0
 10
107.1624511450844
 20
-134.6839409385512
 30
0.0
 10
107.1624511450844
 20
-134.6839409385512
 30
0.0
 10
107.0694335669827
 20
-134.6756727093866
 30
0.0
 10
106.9192274038258
 20
-134.6715385948043
 30
0.0
 10
106.8579047041883
 20
-134.6715385948043
 30
0.0
 10
106.8579047041883
 20
-134.6715385948043
 30
0.0
 10
106.5530137537437
 20
-134.6715385948043
 30
0.0
 10
106.5530137537437
 20
-134.6715385948043
 30
0.0
 10
106.5003037928194
 20
-134.6715385948043
 30
0.0
 10
106.3542317442448
 20
-134.6756727093866
 30
0.0
 10
106.2484673128476
 20
-134.6839409385512
 30
0.0
 10
106.2484673128476
 20
-134.6839409385512
 30
0.0
 10
106.2484673128476
 20
-134.5041069542212
 30
0.0
 10
106.2484673128476
 20
-134.5041069542212
 30
0.0
 10
106.3480305723713
 20
-134.5123751833858
 30
0.0
 10
106.487556939524
 20
-134.5168538075166
 30
0.0
 10
106.5530137537437
 20
-134.5168538075166
 30
0.0
 10
106.5530137537437
 20
-134.5168538075166
 30
0.0
 10
106.5974554855034
 20
-134.5168538075166
 30
0.0
 10
106.5974554855034
 20
-134.5168538075166
 30
0.0
 10
106.5974554855034
 20
-134.5168538075166
 30
0.0
 10
106.5974554855034
 20
-134.2691514421272
 30
0.0
 10
106.5974554855034
 20
-134.2691514421272
 30
0.0
 10
106.5974554855034
 20
-134.2691514421272
 30
0.0
 10
106.5237304421191
 20
-134.2691514421272
 30
0.0
 10
106.5237304421191
 20
-134.2691514421272
 30
0.0
 10
106.4620632329331
 20
-134.2691514421272
 30
0.0
 10
106.2949761018985
 20
-134.273630066258
 30
0.0
 10
106.1743977599147
 20
-134.2822428049711
 30
0.0
 10
106.1743977599147
 20
-134.2822428049711
 30
0.0
 10
106.1743977599147
 20
-134.1044758779322
 30
0.0
 10
106.1743977599147
 20
-134.1044758779322
 30
0.0
 10
106.288774930025
 20
-134.1106770498057
 30
0.0
 10
106.4472493223465
 20
-134.114811164388
 30
0.0
 10
106.5237304421191
 20
-134.114811164388
 30
0.0
 10
106.5237304421191
 20
-134.114811164388
 30
0.0
 10
106.5953884282123
 20
-134.114811164388
 30
0.0
 10
106.5953884282123
 20
-134.114811164388
 30
0.0
 10
106.59125431363
 20
-133.9625379439399
 30
0.0
 10
106.5891872563388
 20
-133.9287760081845
 30
0.0
 10
106.5826415749168
 20
-133.8357584300827
 30
0.0
 10
106.5826415749168
 20
-133.8357584300827
 30
0.0
 10
106.7945149472597
 20
-133.8591850793824
 30
0.0
 10
106.7945149472597
 20
-133.8591850793824
 30
0.0
 10
106.819664144302
 20
-133.8612521366736
 30
0.0
 10
106.8430907936017
 20
-133.8653862512559
 30
0.0
 10
106.8430907936017
 20
-133.8884683910071
 30
0.0
 10
106.8430907936017
 20
-133.9205077790199
 30
0.0
 10
106.798649061842
 20
-133.9370442373491
 30
0.0
 10
106.7752224125423
 20
-133.9456569760622
 30
0.0
 10
106.7752224125423
 20
-133.9456569760622
 30
0.0
 10
106.7752224125423
 20
-134.114811164388
 30
0.0
 10
106.7752224125423
 20
-134.114811164388
 30
0.0
 10
106.7752224125423
 20
-134.114811164388
 30
0.0
 10
106.8727186147749
 20
-134.114811164388
 30
0.0
 10
106.8727186147749
 20
-134.114811164388
 30
0.0
 10
106.9488552249989
 20
-134.114811164388
 30
0.0
 10
107.1073296173204
 20
-134.1106770498057
 30
0.0
 10
107.2237738447218
 20
-134.1044758779322
 30
0.0
 10
107.2237738447218
 20
-134.1044758779322
 30
0.0
 10
107.2237738447218
 20
-134.2822428049711
 30
0.0
 10
107.2237738447218
 20
-134.2822428049711
 30
0.0
 10
107.1159423560335
 20
-134.2756971235492
 30
0.0
 10
106.9423095435769
 20
-134.2691514421272
 30
0.0
 10
106.8727186147749
 20
-134.2691514421272
 30
0.0
  0
SPLINE
  5
9B
330
8A
100
AcDbEntity
  8
_U+30EC_U+30A4_U+30E4_U+30FC 1
370
     0
100
AcDbSpline
210
0.0
220
0.0
230
1.0
 70
    11
 71
     3
 72
    17
 73
    13
 74
     0
 42
0.0000000001
 43
0.0000000001
 12
1.0
 22
0.0
 32
0.0
 13
1.0
 23
0.0
 33
0.0
 40
0.0
 40
0.0
 40
0.0
 40
0.0
 40
1.0
 40
1.0
 40
1.0
 40
2.0
 40
2.0
 40
2.0
 40
3.0
 40
3.0
 40
3.0
 40
4.0
 40
4.0
 40
4.0
 40
4.0
 10
106.6270833066766
 20
-135.067035556511
 30
0.0
 10
106.6270833066766
 20
-135.067035556511
 30
0.0
 10
106.4241671825954
 20
-135.067035556511
 30
0.0
 10
106.4241671825954
 20
-135.067035556511
 30
0.0
 10
106.4517279464773
 20
-135.1262911988573
 30
0.0
 10
106.5065049646928
 20
-135.1979491849505
 30
0.0
 10
106.5340657285748
 20
-135.2275770061237
 30
0.0
 10
106.5616264924568
 20
-135.2131076050856
 30
0.0
 10
106.6760036625671
 20
-135.1493733386085
 30
0.0
 10
106.7669541833777
 20
-135.067035556511
 30
0.0
 10
106.7669541833777
 20
-135.067035556511
 30
0.0
 10
106.6270833066766
 20
-135.067035556511
 30
0.0
 10
106.6270833066766
 20
-135.067035556511
 30
0.0
  0
HATCH
  5
9C
330
8A
100
AcDbEntity
  8
_U+30EC_U+30A4_U+30E4_U+30FC 1
 62
     7
420
 16777215
100
AcDbHatch
 10
0.0
 20
0.0
 30
0.0
210
0.0
220
0.0
230
1.0
  2
SOLID
 70
     1
 71
     0
 91
        6
 92
        1
 93
        1
 72
     4
 94
        3
 73
     0
 74
     1
 95
      113
 96
      109
 40
0.0
 40
0.0
 40
0.0
 40
0.0
 40
1.0
 40
1.0
 40
1.0
 40
2.0
 40
2.0
 40
2.0
 40
3.0
 40
3.0
 40
3.0
 40
4.0
 40
4.0
 40
4.0
 40
5.0
 40
5.0
 40
5.0
 40
6.0
 40
6.0
 40
6.0
 40
7.0
 40
7.0
 40
7.0
 40
8.0
 40
8.0
 40
8.0
 40
9.0
 40
9.0
 40
9.0
 40
10.0
 40
10.0
 40
10.0
 40
11.0
 40
11.0
 40
11.0
 40
12.0
 40
12.0
 40
12.0
 40
13.0
 40
13.0
 40
13.0
 40
14.0
 40
14.0
 40
14.0
 40
15.0
 40
15.0
 40
15.0
 40
16.0
 40
16.0
 40
16.0
 40
17.0
 40
17.0
 40
17.0
 40
18.0
 40
18.0
 40
18.0
 40
19.0
 40
19.0
 40
19.0
 40
20.0
 40
20.0
 40
20.0
 40
21.0
 40
21.0
 40
21.0
 40
22.0
 40
22.0
 40
22.0
 40
23.0
 40
23.0
 40
23.0
 40
24.0
 40
24.0
 40
24.0
 40
25.0
 40
25.0
 40
25.0
 40
26.0
 40
26.0
 40
26.0
 40
27.0
 40
27.0
 40
27.0
 40
28.0
 40
28.0
 40
28.0
 40
29.0
 40
29.0
 40
29.0
 40
30.0
 40
30.0
 40
30.0
 40
31.0
 40
31.0
 40
31.0
 40
32.0
 40
32.0
 40
32.0
 40
33.0
 40
33.0
 40
33.0
 40
34.0
 40
34.0
 40
34.0
 40
35.0
 40
35.0
 40
35.0
 40
36.0
 40
36.0
 40
36.0
 40
36.0
 10
106.8344780548886
 20
-135.0691026138022
 10
106.8344780548886
 20
-135.0691026138022
 10
106.9340413144123
 20
-135.1683213637774
 10
106.9340413144123
 20
-135.1683213637774
 10
106.9447211104166
 20
-135.1790011597816
 10
106.9550563968724
 20
-135.1917480130771
 10
106.9550563968724
 20
-135.2065619236637
 10
106.9550563968724
 20
-135.2086289809548
 10
106.9550563968724
 20
-135.2382568021279
 10
106.9171603465346
 20
-135.2382568021279
 10
106.9085476078215
 20
-135.2382568021279
 10
106.8682399906441
 20
-135.2337781779971
 10
106.8620388187706
 20
-135.2337781779971
 10
106.8217312015932
 20
-135.2658175660099
 10
106.7752224125423
 20
-135.2995795017654
 10
106.6760036625671
 20
-135.3567680868205
 10
106.8217312015932
 20
-135.4645995755089
 10
106.9805501034632
 20
-135.521788160564
 10
107.253401665895
 20
-135.5596842109018
 10
107.253401665895
 20
-135.5596842109018
 10
107.1031955027381
 20
-135.7353840806495
 10
107.1031955027381
 20
-135.7353840806495
 10
106.8410237363106
 20
-135.6633815850078
 10
106.6842718917317
 20
-135.5748426310369
 10
106.6081352815077
 20
-135.521788160564
 10
106.4579291183508
 20
-135.4201578437491
 10
106.3142686366159
 20
-135.2572048272968
 10
106.2381320263919
 20
-135.0921847535533
 10
106.1702636453324
 20
-135.1579860773216
 10
106.0961940923996
 20
-135.2106960382459
 10
106.0179904248844
 20
-135.259271884588
 10
106.0179904248844
 20
-135.259271884588
 10
106.0179904248844
 20
-135.5111083645597
 10
106.0179904248844
 20
-135.5111083645597
 10
106.1809434413367
 20
-135.4859591675174
 10
106.3669785975402
 20
-135.4411729262092
 10
106.4303683544688
 20
-135.4267035251711
 10
106.4303683544688
 20
-135.4267035251711
 10
106.4007405332956
 20
-135.5955132039483
 10
106.4007405332956
 20
-135.5955132039483
 10
106.3986734760045
 20
-135.5955132039483
 10
106.3797254508356
 20
-135.6020588853703
 10
106.3776583935445
 20
-135.6020588853703
 10
106.1788763840456
 20
-135.6402994452566
 10
105.8615830898541
 20
-135.7057562594763
 10
105.6645236280978
 20
-135.741585252523
 10
105.654188341642
 20
-135.7588107299492
 10
105.6307616923423
 20
-135.7905056084135
 10
105.6076795525911
 20
-135.7905056084135
 10
105.5801187887091
 20
-135.7905056084135
 10
105.5759846741268
 20
-135.7712130736961
 10
105.5735731072872
 20
-135.7522650485272
 10
105.5735731072872
 20
-135.7522650485272
 10
105.5484239102448
 20
-135.5789767456191
 10
105.5484239102448
 20
-135.5789767456191
 10
105.6224934631777
 20
-135.570364006906
 10
105.730324951866
 20
-135.5576171536106
 10
105.8381564405544
 20
-135.5366020711506
 10
105.8381564405544
 20
-135.5366020711506
 10
105.8381564405544
 20
-135.3588351441117
 10
105.8381564405544
 20
-135.3588351441117
 10
105.6941514492709
 20
-135.4308376397534
 10
105.599066813878
 20
-135.4604654609265
 10
105.4340467401345
 20
-135.4900932820997
 10
105.4340467401345
 20
-135.4900932820997
 10
105.3134683981508
 20
-135.3205945842254
 10
105.3134683981508
 20
-135.3205945842254
 10
105.6307616923423
 20
-135.2930338203434
 10
105.8233425299678
 20
-135.2000162422417
 10
106.0011094570067
 20
-135.067035556511
 10
105.8550374084321
 20
-135.067035556511
 10
105.5546250821183
 20
-135.0711696710933
 10
105.3579101299105
 20
-135.0773708429668
 10
105.3579101299105
 20
-135.0773708429668
 10
105.3579101299105
 20
-134.8996039159279
 10
105.3579101299105
 20
-134.8996039159279
 10
105.5122504076497
 20
-134.9061495973499
 10
105.8085286193812
 20
-134.9126952787718
 10
105.9924967182936
 20
-134.9126952787718
 10
105.9924967182936
 20
-134.9126952787718
 10
106.2040255810879
 20
-134.9126952787718
 10
106.2040255810879
 20
-134.9126952787718
 10
106.2040255810879
 20
-134.8172661338304
 10
106.2019585237967
 20
-134.7666232301972
 10
106.1957573519233
 20
-134.7197699315979
 10
106.1957573519233
 20
-134.7197699315979
 10
106.4114203292999
 20
-134.7369954090241
 10
106.4114203292999
 20
-134.7369954090241
 10
106.4599961756419
 20
-134.7411295236064
 10
106.4686089143551
 20
-134.755943434193
 10
106.4686089143551
 20
-134.7707573447795
 10
106.4686089143551
 20
-134.7962510513704
 10
106.4517279464773
 20
-134.804519280535
 10
106.4007405332956
 20
-134.8300129871258
 10
106.3986734760045
 20
-134.8555066937167
 10
106.3986734760045
 20
-134.8617078655901
 10
106.3966064187133
 20
-134.9126952787718
 10
106.3966064187133
 20
-134.9126952787718
 10
106.6270833066766
 20
-134.9126952787718
 10
106.6270833066766
 20
-134.9126952787718
 10
106.79210338042
 20
-134.9126952787718
 10
107.0842474775692
 20
-134.9061495973499
 10
107.2640814618993
 20
-134.8996039159279
 10
107.2640814618993
 20
-134.8996039159279
 10
107.2640814618993
 20
-135.0773708429668
 10
107.2640814618993
 20
-135.0773708429668
 10
107.1348903812024
 20
-135.0732367283845
 10
107.1118082414512
 20
-135.0732367283845
 10
106.8344780548886
 20
-135.0691026138022
 97
        0
 97
        0
 92
        1
 93
        1
 72
     4
 94
        3
 73
     0
 74
     1
 95
       23
 96
       19
 40
0.0
 40
0.0
 40
0.0
 40
0.0
 40
1.0
 40
1.0
 40
1.0
 40
2.0
 40
2.0
 40
2.0
 40
3.0
 40
3.0
 40
3.0
 40
4.0
 40
4.0
 40
4.0
 40
5.0
 40
5.0
 40
5.0
 40
6.0
 40
6.0
 40
6.0
 40
6.0
 10
105.550490967536
 20
-134.7177028743067
 10
105.5336099996583
 20
-134.7580104914841
 10
105.5270643182363
 20
-134.7748914593618
 10
105.5060492357763
 20
-134.7748914593618
 10
105.4912353251897
 20
-134.7748914593618
 10
105.4805555291854
 20
-134.7580104914841
 10
105.474354357312
 20
-134.7452636381887
 10
105.474354357312
 20
-134.7452636381887
 10
105.3747910977882
 20
-134.5802435644452
 10
105.3747910977882
 20
-134.5802435644452
 10
105.4764214146031
 20
-134.5485486859809
 10
105.62662757776
 20
-134.4937716677655
 10
105.8254095872589
 20
-134.3304741417646
 10
105.8254095872589
 20
-134.3304741417646
 10
105.8825981723141
 20
-134.5041069542212
 10
105.8825981723141
 20
-134.5041069542212
 10
105.7895805942123
 20
-134.5867892458672
 10
105.7006971306929
 20
-134.6439778309224
 10
105.550490967536
 20
-134.7177028743067
 97
        0
 97
        0
 92
        1
 93
        1
 72
     4
 94
        3
 73
     0
 74
     1
 95
       17
 96
       13
 40
0.0
 40
0.0
 40
0.0
 40
0.0
 40
1.0
 40
1.0
 40
1.0
 40
2.0
 40
2.0
 40
2.0
 40
3.0
 40
3.0
 40
3.0
 40
4.0
 40
4.0
 40
4.0
 40
4.0
 10
105.702764187984
 20
-134.252614983798
 10
105.6731363668109
 20
-134.2123073666205
 10
105.6052679857515
 20
-134.114811164388
 10
105.4233669441303
 20
-134.0049126184085
 10
105.4233669441303
 20
-134.0049126184085
 10
105.550490967536
 20
-133.8715874231293
 10
105.550490967536
 20
-133.8715874231293
 10
105.7365261237395
 20
-133.9732177399442
 10
105.7937147087946
 20
-134.0621012034636
 10
105.8212754726766
 20
-134.1044758779322
 10
105.8212754726766
 20
-134.1044758779322
 10
105.702764187984
 20
-134.252614983798
 10
105.702764187984
 20
-134.252614983798
 97
        0
 97
        0
 92
        1
 93
        1
 72
     4
 94
        3
 73
     0
 74
     1
 95
       38
 96
       34
 40
0.0
 40
0.0
 40
0.0
 40
0.0
 40
1.0
 40
1.0
 40
1.0
 40
2.0
 40
2.0
 40
2.0
 40
3.0
 40
3.0
 40
3.0
 40
4.0
 40
4.0
 40
4.0
 40
5.0
 40
5.0
 40
5.0
 40
6.0
 40
6.0
 40
6.0
 40
7.0
 40
7.0
 40
7.0
 40
8.0
 40
8.0
 40
8.0
 40
9.0
 40
9.0
 40
9.0
 40
10.0
 40
10.0
 40
10.0
 40
11.0
 40
11.0
 40
11.0
 40
11.0
 10
106.0707003858087
 20
-133.9477240333534
 10
106.0686333285176
 20
-133.9942328224042
 10
106.0665662712264
 20
-134.1106770498057
 10
106.0665662712264
 20
-134.1551187815654
 10
106.0665662712264
 20
-134.1551187815654
 10
106.0665662712264
 20
-134.5020398969301
 10
106.0665662712264
 20
-134.5020398969301
 10
106.0665662712264
 20
-134.5888563031583
 10
106.0686333285176
 20
-134.7304497276021
 10
106.0793131245218
 20
-134.8510280695859
 10
106.0793131245218
 20
-134.8510280695859
 10
105.8887993441875
 20
-134.8510280695859
 10
105.8887993441875
 20
-134.8510280695859
 10
105.8932779683184
 20
-134.7876383126573
 10
105.8974120829007
 20
-134.7349283517329
 10
105.8994791401918
 20
-134.6798068239689
 10
105.901546197483
 20
-134.557161424694
 10
105.9036132547741
 20
-134.5420030045589
 10
105.9036132547741
 20
-134.4979057823477
 10
105.9036132547741
 20
-134.4979057823477
 10
105.9036132547741
 20
-134.1761338640254
 10
105.9036132547741
 20
-134.1761338640254
 10
105.9036132547741
 20
-134.1210123362614
 10
105.8908664014787
 20
-133.8822672191336
 10
105.8887993441875
 20
-133.8316243155004
 10
105.8887993441875
 20
-133.8316243155004
 10
106.0899929205261
 20
-133.8591850793824
 10
106.0899929205261
 20
-133.8591850793824
 10
106.1110080029861
 20
-133.8612521366736
 10
106.1427028814504
 20
-133.8653862512559
 10
106.1427028814504
 20
-133.8908799578467
 10
106.1427028814504
 20
-133.9180962121802
 10
106.0920599778173
 20
-133.9391112946402
 10
106.0707003858087
 20
-133.9477240333534
 97
        0
 97
        0
 92
        1
 93
        1
 72
     4
 94
        3
 73
     0
 74
     1
 95
       83
 96
       79
 40
0.0
 40
0.0
 40
0.0
 40
0.0
 40
1.0
 40
1.0
 40
1.0
 40
2.0
 40
2.0
 40
2.0
 40
3.0
 40
3.0
 40
3.0
 40
4.0
 40
4.0
 40
4.0
 40
5.0
 40
5.0
 40
5.0
 40
6.0
 40
6.0
 40
6.0
 40
7.0
 40
7.0
 40
7.0
 40
8.0
 40
8.0
 40
8.0
 40
9.0
 40
9.0
 40
9.0
 40
10.0
 40
10.0
 40
10.0
 40
11.0
 40
11.0
 40
11.0
 40
12.0
 40
12.0
 40
12.0
 40
13.0
 40
13.0
 40
13.0
 40
14.0
 40
14.0
 40
14.0
 40
15.0
 40
15.0
 40
15.0
 40
16.0
 40
16.0
 40
16.0
 40
17.0
 40
17.0
 40
17.0
 40
18.0
 40
18.0
 40
18.0
 40
19.0
 40
19.0
 40
19.0
 40
20.0
 40
20.0
 40
20.0
 40
21.0
 40
21.0
 40
21.0
 40
22.0
 40
22.0
 40
22.0
 40
23.0
 40
23.0
 40
23.0
 40
24.0
 40
24.0
 40
24.0
 40
25.0
 40
25.0
 40
25.0
 40
26.0
 40
26.0
 40
26.0
 40
26.0
 10
106.8727186147749
 20
-134.2691514421272
 10
106.8727186147749
 20
-134.2691514421272
 10
106.7752224125423
 20
-134.2691514421272
 10
106.7752224125423
 20
-134.2691514421272
 10
106.7752224125423
 20
-134.2691514421272
 10
106.7752224125423
 20
-134.5168538075166
 10
106.7752224125423
 20
-134.5168538075166
 10
106.7752224125423
 20
-134.5168538075166
 10
106.8579047041883
 20
-134.5168538075166
 10
106.8579047041883
 20
-134.5168538075166
 10
106.9233615184081
 20
-134.5168538075166
 10
107.0628878855607
 20
-134.5123751833858
 10
107.1624511450844
 20
-134.5041069542212
 10
107.1624511450844
 20
-134.5041069542212
 10
107.1624511450844
 20
-134.6839409385512
 10
107.1624511450844
 20
-134.6839409385512
 10
107.0694335669827
 20
-134.6756727093866
 10
106.9192274038258
 20
-134.6715385948043
 10
106.8579047041883
 20
-134.6715385948043
 10
106.8579047041883
 20
-134.6715385948043
 10
106.5530137537437
 20
-134.6715385948043
 10
106.5530137537437
 20
-134.6715385948043
 10
106.5003037928194
 20
-134.6715385948043
 10
106.3542317442448
 20
-134.6756727093866
 10
106.2484673128476
 20
-134.6839409385512
 10
106.2484673128476
 20
-134.6839409385512
 10
106.2484673128476
 20
-134.5041069542212
 10
106.2484673128476
 20
-134.5041069542212
 10
106.3480305723713
 20
-134.5123751833858
 10
106.487556939524
 20
-134.5168538075166
 10
106.5530137537437
 20
-134.5168538075166
 10
106.5530137537437
 20
-134.5168538075166
 10
106.5974554855034
 20
-134.5168538075166
 10
106.5974554855034
 20
-134.5168538075166
 10
106.5974554855034
 20
-134.5168538075166
 10
106.5974554855034
 20
-134.2691514421272
 10
106.5974554855034
 20
-134.2691514421272
 10
106.5974554855034
 20
-134.2691514421272
 10
106.5237304421191
 20
-134.2691514421272
 10
106.5237304421191
 20
-134.2691514421272
 10
106.4620632329331
 20
-134.2691514421272
 10
106.2949761018985
 20
-134.273630066258
 10
106.1743977599147
 20
-134.2822428049711
 10
106.1743977599147
 20
-134.2822428049711
 10
106.1743977599147
 20
-134.1044758779322
 10
106.1743977599147
 20
-134.1044758779322
 10
106.288774930025
 20
-134.1106770498057
 10
106.4472493223465
 20
-134.114811164388
 10
106.5237304421191
 20
-134.114811164388
 10
106.5237304421191
 20
-134.114811164388
 10
106.5953884282123
 20
-134.114811164388
 10
106.5953884282123
 20
-134.114811164388
 10
106.59125431363
 20
-133.9625379439399
 10
106.5891872563388
 20
-133.9287760081845
 10
106.5826415749168
 20
-133.8357584300827
 10
106.5826415749168
 20
-133.8357584300827
 10
106.7945149472597
 20
-133.8591850793824
 10
106.7945149472597
 20
-133.8591850793824
 10
106.819664144302
 20
-133.8612521366736
 10
106.8430907936017
 20
-133.8653862512559
 10
106.8430907936017
 20
-133.8884683910071
 10
106.8430907936017
 20
-133.9205077790199
 10
106.798649061842
 20
-133.9370442373491
 10
106.7752224125423
 20
-133.9456569760622
 10
106.7752224125423
 20
-133.9456569760622
 10
106.7752224125423
 20
-134.114811164388
 10
106.7752224125423
 20
-134.114811164388
 10
106.7752224125423
 20
-134.114811164388
 10
106.8727186147749
 20
-134.114811164388
 10
106.8727186147749
 20
-134.114811164388
 10
106.9488552249989
 20
-134.114811164388
 10
107.1073296173204
 20
-134.1106770498057
 10
107.2237738447218
 20
-134.1044758779322
 10
107.2237738447218
 20
-134.1044758779322
 10
107.2237738447218
 20
-134.2822428049711
 10
107.2237738447218
 20
-134.2822428049711
 10
107.1159423560335
 20
-134.2756971235492
 10
106.9423095435769
 20
-134.2691514421272
 10
106.8727186147749
 20
-134.2691514421272
 97
        0
 97
        0
 92
        1
 93
        1
 72
     4
 94
        3
 73
     0
 74
     1
 95
       17
 96
       13
 40
0.0
 40
0.0
 40
0.0
 40
0.0
 40
1.0
 40
1.0
 40
1.0
 40
2.0
 40
2.0
 40
2.0
 40
3.0
 40
3.0
 40
3.0
 40
4.0
 40
4.0
 40
4.0
 40
4.0
 10
106.6270833066766
 20
-135.067035556511
 10
106.6270833066766
 20
-135.067035556511
 10
106.4241671825954
 20
-135.067035556511
 10
106.4241671825954
 20
-135.067035556511
 10
106.4517279464773
 20
-135.1262911988573
 10
106.5065049646928
 20
-135.1979491849505
 10
106.5340657285748
 20
-135.2275770061237
 10
106.5616264924568
 20
-135.2131076050856
 10
106.6760036625671
 20
-135.1493733386085
 10
106.7669541833777
 20
-135.067035556511
 10
106.7669541833777
 20
-135.067035556511
 10
106.6270833066766
 20
-135.067035556511
 10
106.6270833066766
 20
-135.067035556511
 97
        0
 97
        0
 75
     2
 76
     1
 98
        0
  0
SPLINE
  5
9D
330
8A
100
AcDbEntity
  8
_U+30EC_U+30A4_U+30E4_U+30FC 1
370
     0
100
AcDbSpline
210
0.0
220
0.0
230
1.0
 70
    11
 71
     3
 72
    77
 73
    73
 74
     0
 42
0.0000000001
 43
0.0000000001
 12
1.0
 22
0.0
 32
0.0
 13
1.0
 23
0.0
 33
0.0
 40
0.0
 40
0.0
 40
0.0
 40
0.0
 40
1.0
 40
1.0
 40
1.0
 40
2.0
 40
2.0
 40
2.0
 40
3.0
 40
3.0
 40
3.0
 40
4.0
 40
4.0
 40
4.0
 40
5.0
 40
5.0
 40
5.0
 40
6.0
 40
6.0
 40
6.0
 40
7.0
 40
7.0
 40
7.0
 40
8.0
 40
8.0
 40
8.0
 40
9.0
 40
9.0
 40
9.0
 40
10.0
 40
10.0
 40
10.0
 40
11.0
 40
11.0
 40
11.0
 40
12.0
 40
12.0
 40
12.0
 40
13.0
 40
13.0
 40
13.0
 40
14.0
 40
14.0
 40
14.0
 40
15.0
 40
15.0
 40
15.0
 40
16.0
 40
16.0
 40
16.0
 40
17.0
 40
17.0
 40
17.0
 40
18.0
 40
18.0
 40
18.0
 40
19.0
 40
19.0
 40
19.0
 40
20.0
 40
20.0
 40
20.0
 40
21.0
 40
21.0
 40
21.0
 40
22.0
 40
22.0
 40
22.0
 40
23.0
 40
23.0
 40
23.0
 40
24.0
 40
24.0
 40
24.0
 40
24.0
 10
109.1182318520607
 20
-135.6974880303117
 30
0.0
 10
109.0717230630099
 20
-135.7226372273541
 30
0.0
 10
108.9470106064438
 20
-135.7353840806495
 30
0.0
 10
108.8684624293801
 20
-135.7353840806495
 30
0.0
 10
108.8560600856332
 20
-135.7353840806495
 30
0.0
 10
108.8305663790424
 20
-135.7353840806495
 30
0.0
 10
108.7968044432869
 20
-135.7312499660672
 30
0.0
 10
108.7968044432869
 20
-135.7312499660672
 30
0.0
 10
108.6993082410543
 20
-135.5045626831377
 30
0.0
 10
108.6993082410543
 20
-135.5045626831377
 30
0.0
 10
108.7289360622275
 20
-135.5111083645597
 30
0.0
 10
108.7861246472826
 20
-135.5197211032728
 30
0.0
 10
108.9025688746841
 20
-135.5197211032728
 30
0.0
 10
108.9807725421993
 20
-135.5197211032728
 30
0.0
 10
108.9828395994904
 20
-135.4773464288043
 30
0.0
 10
108.9828395994904
 20
-135.4201578437491
 30
0.0
 10
108.9828395994904
 20
-135.4201578437491
 30
0.0
 10
108.9828395994904
 20
-135.0711696710933
 30
0.0
 10
108.9828395994904
 20
-135.0711696710933
 30
0.0
 10
108.9828395994904
 20
-135.0711696710933
 30
0.0
 10
108.5236083713066
 20
-135.0711696710933
 30
0.0
 10
108.5236083713066
 20
-135.0711696710933
 30
0.0
 10
108.5260199381463
 20
-135.2086289809548
 30
0.0
 10
108.5280869954374
 20
-135.4074109904537
 30
0.0
 10
108.5342881673109
 20
-135.5407361857329
 30
0.0
 10
108.536355224602
 20
-135.5682969496149
 30
0.0
 10
108.536355224602
 20
-135.6127386813746
 30
0.0
 10
108.5491020778975
 20
-135.6740613810121
 30
0.0
 10
108.5491020778975
 20
-135.6740613810121
 30
0.0
 10
108.30794539393
 20
-135.6740613810121
 30
0.0
 10
108.30794539393
 20
-135.6740613810121
 30
0.0
 10
108.3334391005208
 20
-135.549348924446
 30
0.0
 10
108.3334391005208
 20
-135.2086289809548
 30
0.0
 10
108.3334391005208
 20
-135.0711696710933
 30
0.0
 10
108.3334391005208
 20
-135.0711696710933
 30
0.0
 10
107.8910888402147
 20
-135.0711696710933
 30
0.0
 10
107.8910888402147
 20
-135.0711696710933
 30
0.0
 10
107.8680067004636
 20
-135.2785644193054
 30
0.0
 10
107.8025498862438
 20
-135.5472818671549
 30
0.0
 10
107.6054904244875
 20
-135.7312499660672
 30
0.0
 10
107.6054904244875
 20
-135.7312499660672
 30
0.0
 10
107.4173882109929
 20
-135.6086045667923
 30
0.0
 10
107.4173882109929
 20
-135.6086045667923
 30
0.0
 10
107.6712917482558
 20
-135.3884629652848
 30
0.0
 10
107.7029866267201
 20
-135.0563557605068
 30
0.0
 10
107.7029866267201
 20
-134.7242485557287
 30
0.0
 10
107.7029866267201
 20
-134.7242485557287
 30
0.0
 10
107.7029866267201
 20
-134.2884439768446
 30
0.0
 10
107.7029866267201
 20
-134.2884439768446
 30
0.0
 10
107.7029866267201
 20
-134.252614983798
 30
0.0
 10
107.7009195694289
 20
-134.0197265289951
 30
0.0
 10
107.6923068307158
 20
-133.9180962121802
 30
0.0
 10
107.832177707417
 20
-133.9287760081845
 30
0.0
 10
108.0733343913844
 20
-133.9287760081845
 30
0.0
 10
108.2169948731194
 20
-133.9287760081845
 30
0.0
 10
108.2169948731194
 20
-133.9287760081845
 30
0.0
 10
108.6762261013032
 20
-133.9287760081845
 30
0.0
 10
108.6762261013032
 20
-133.9287760081845
 30
0.0
 10
108.6910400118897
 20
-133.9287760081845
 30
0.0
 10
109.0400281845455
 20
-133.9287760081845
 30
0.0
 10
109.198502576867
 20
-133.9180962121802
 30
0.0
 10
109.1964355195759
 20
-133.9708061731045
 30
0.0
 10
109.1902343477024
 20
-134.1320366418142
 30
0.0
 10
109.1902343477024
 20
-134.1826795454474
 30
0.0
 10
109.1902343477024
 20
-134.1826795454474
 30
0.0
 10
109.1902343477024
 20
-134.7897053699484
 30
0.0
 10
109.1902343477024
 20
-134.7897053699484
 30
0.0
 10
109.1902343477024
 20
-134.8086533951173
 30
0.0
 10
109.2005696341582
 20
-135.3798502265717
 30
0.0
 10
109.2005696341582
 20
-135.4921603393909
 30
0.0
 10
109.2005696341582
 20
-135.549348924446
 30
0.0
 10
109.2005696341582
 20
-135.6506347317124
 30
0.0
 10
109.1182318520607
 20
-135.6974880303117
 30
0.0
  0
POLYLINE
  5
9E
330
8A
100
AcDbEntity
  8
_U+30EC_U+30A4_U+30E4_U+30FC 1
370
     0
100
AcDb2dPolyline
 66
     1
 10
0.0
 20
0.0
 30
0.0
  0
VERTEX
  5
9F
330
9E
100
AcDbEntity
  8
_U+30EC_U+30A4_U+30E4_U+30FC 1
370
     0
100
AcDbVertex
100
AcDb2dVertex
 10
108.3334391005208
 20
-134.1106770498057
 30
0.0
  0
VERTEX
  5
A0
330
9E
100
AcDbEntity
  8
_U+30EC_U+30A4_U+30E4_U+30FC 1
370
     0
100
AcDbVertex
100
AcDb2dVertex
 10
107.8955674643456
 20
-134.1106770498057
 30
0.0
  0
VERTEX
  5
A1
330
9E
100
AcDbEntity
  8
_U+30EC_U+30A4_U+30E4_U+30FC 1
370
     0
100
AcDbVertex
100
AcDb2dVertex
 10
107.8955674643456
 20
-134.4152234907017
 30
0.0
  0
VERTEX
  5
A2
330
9E
100
AcDbEntity
  8
_U+30EC_U+30A4_U+30E4_U+30FC 1
370
     0
100
AcDbVertex
100
AcDb2dVertex
 10
108.3334391005208
 20
-134.4152234907017
 30
0.0
  0
VERTEX
  5
A3
330
9E
100
AcDbEntity
  8
_U+30EC_U+30A4_U+30E4_U+30FC 1
370
     0
100
AcDbVertex
100
AcDb2dVertex
 10
108.3334391005208
 20
-134.1106770498057
 30
0.0
  0
SEQEND
  5
A4
330
9E
100
AcDbEntity
  8
_U+30EC_U+30A4_U+30E4_U+30FC 1
370
     0
  0
POLYLINE
  5
A5
330
8A
100
AcDbEntity
  8
_U+30EC_U+30A4_U+30E4_U+30FC 1
370
     0
100
AcDb2dPolyline
 66
     1
 10
0.0
 20
0.0
 30
0.0
  0
VERTEX
  5
A6
330
A5
100
AcDbEntity
  8
_U+30EC_U+30A4_U+30E4_U+30FC 1
370
     0
100
AcDbVertex
100
AcDb2dVertex
 10
108.3334391005208
 20
-134.5826551312849
 30
0.0
  0
VERTEX
  5
A7
330
A5
100
AcDbEntity
  8
_U+30EC_U+30A4_U+30E4_U+30FC 1
370
     0
100
AcDbVertex
100
AcDb2dVertex
 10
107.8955674643456
 20
-134.5826551312849
 30
0.0
  0
VERTEX
  5
A8
330
A5
100
AcDbEntity
  8
_U+30EC_U+30A4_U+30E4_U+30FC 1
370
     0
100
AcDbVertex
100
AcDb2dVertex
 10
107.8955674643456
 20
-134.8913356867633
 30
0.0
  0
VERTEX
  5
A9
330
A5
100
AcDbEntity
  8
_U+30EC_U+30A4_U+30E4_U+30FC 1
370
     0
100
AcDbVertex
100
AcDb2dVertex
 10
108.3334391005208
 20
-134.8913356867633
 30
0.0
  0
VERTEX
  5
AA
330
A5
100
AcDbEntity
  8
_U+30EC_U+30A4_U+30E4_U+30FC 1
370
     0
100
AcDbVertex
100
AcDb2dVertex
 10
108.3334391005208
 20
-134.5826551312849
 30
0.0
  0
SEQEND
  5
AB
330
A5
100
AcDbEntity
  8
_U+30EC_U+30A4_U+30E4_U+30FC 1
370
     0
  0
POLYLINE
  5
AC
330
8A
100
AcDbEntity
  8
_U+30EC_U+30A4_U+30E4_U+30FC 1
370
     0
100
AcDb2dPolyline
 66
     1
 10
0.0
 20
0.0
 30
0.0
  0
VERTEX
  5
AD
330
AC
100
AcDbEntity
  8
_U+30EC_U+30A4_U+30E4_U+30FC 1
370
     0
100
AcDbVertex
100
AcDb2dVertex
 10
108.9828395994904
 20
-134.1106770498057
 30
0.0
  0
VERTEX
  5
AE
330
AC
100
AcDbEntity
  8
_U+30EC_U+30A4_U+30E4_U+30FC 1
370
     0
100
AcDbVertex
100
AcDb2dVertex
 10
108.5236083713066
 20
-134.1106770498057
 30
0.0
  0
VERTEX
  5
AF
330
AC
100
AcDbEntity
  8
_U+30EC_U+30A4_U+30E4_U+30FC 1
370
     0
100
AcDbVertex
100
AcDb2dVertex
 10
108.5236083713066
 20
-134.4152234907017
 30
0.0
  0
VERTEX
  5
B0
330
AC
100
AcDbEntity
  8
_U+30EC_U+30A4_U+30E4_U+30FC 1
370
     0
100
AcDbVertex
100
AcDb2dVertex
 10
108.9828395994904
 20
-134.4152234907017
 30
0.0
  0
VERTEX
  5
B1
330
AC
100
AcDbEntity
  8
_U+30EC_U+30A4_U+30E4_U+30FC 1
370
     0
100
AcDbVertex
100
AcDb2dVertex
 10
108.9828395994904
 20
-134.1106770498057
 30
0.0
  0
SEQEND
  5
B2
330
AC
100
AcDbEntity
  8
_U+30EC_U+30A4_U+30E4_U+30FC 1
370
     0
  0
POLYLINE
  5
B3
330
8A
100
AcDbEntity
  8
_U+30EC_U+30A4_U+30E4_U+30FC 1
370
     0
100
AcDb2dPolyline
 66
     1
 10
0.0
 20
0.0
 30
0.0
  0
VERTEX
  5
B4
330
B3
100
AcDbEntity
  8
_U+30EC_U+30A4_U+30E4_U+30FC 1
370
     0
100
AcDbVertex
100
AcDb2dVertex
 10
108.9828395994904
 20
-134.5826551312849
 30
0.0
  0
VERTEX
  5
B5
330
B3
100
AcDbEntity
  8
_U+30EC_U+30A4_U+30E4_U+30FC 1
370
     0
100
AcDbVertex
100
AcDb2dVertex
 10
108.5236083713066
 20
-134.5826551312849
 30
0.0
  0
VERTEX
  5
B6
330
B3
100
AcDbEntity
  8
_U+30EC_U+30A4_U+30E4_U+30FC 1
370
     0
100
AcDbVertex
100
AcDb2dVertex
 10
108.5236083713066
 20
-134.8913356867633
 30
0.0
  0
VERTEX
  5
B7
330
B3
100
AcDbEntity
  8
_U+30EC_U+30A4_U+30E4_U+30FC 1
370
     0
100
AcDbVertex
100
AcDb2dVertex
 10
108.9828395994904
 20
-134.8913356867633
 30
0.0
  0
VERTEX
  5
B8
330
B3
100
AcDbEntity
  8
_U+30EC_U+30A4_U+30E4_U+30FC 1
370
     0
100
AcDbVertex
100
AcDb2dVertex
 10
108.9828395994904
 20
-134.5826551312849
 30
0.0
  0
SEQEND
  5
B9
330
B3
100
AcDbEntity
  8
_U+30EC_U+30A4_U+30E4_U+30FC 1
370
     0
  0
HATCH
  5
BA
330
8A
100
AcDbEntity
  8
_U+30EC_U+30A4_U+30E4_U+30FC 1
 62
     7
420
 16777215
100
AcDbHatch
 10
0.0
 20
0.0
 30
0.0
210
0.0
220
0.0
230
1.0
  2
SOLID
 70
     1
 71
     0
 91
        5
 92
        1
 93
        1
 72
     4
 94
        3
 73
     0
 74
     1
 95
       77
 96
       73
 40
0.0
 40
0.0
 40
0.0
 40
0.0
 40
1.0
 40
1.0
 40
1.0
 40
2.0
 40
2.0
 40
2.0
 40
3.0
 40
3.0
 40
3.0
 40
4.0
 40
4.0
 40
4.0
 40
5.0
 40
5.0
 40
5.0
 40
6.0
 40
6.0
 40
6.0
 40
7.0
 40
7.0
 40
7.0
 40
8.0
 40
8.0
 40
8.0
 40
9.0
 40
9.0
 40
9.0
 40
10.0
 40
10.0
 40
10.0
 40
11.0
 40
11.0
 40
11.0
 40
12.0
 40
12.0
 40
12.0
 40
13.0
 40
13.0
 40
13.0
 40
14.0
 40
14.0
 40
14.0
 40
15.0
 40
15.0
 40
15.0
 40
16.0
 40
16.0
 40
16.0
 40
17.0
 40
17.0
 40
17.0
 40
18.0
 40
18.0
 40
18.0
 40
19.0
 40
19.0
 40
19.0
 40
20.0
 40
20.0
 40
20.0
 40
21.0
 40
21.0
 40
21.0
 40
22.0
 40
22.0
 40
22.0
 40
23.0
 40
23.0
 40
23.0
 40
24.0
 40
24.0
 40
24.0
 40
24.0
 10
109.1182318520607
 20
-135.6974880303117
 10
109.0717230630099
 20
-135.7226372273541
 10
108.9470106064438
 20
-135.7353840806495
 10
108.8684624293801
 20
-135.7353840806495
 10
108.8560600856332
 20
-135.7353840806495
 10
108.8305663790424
 20
-135.7353840806495
 10
108.7968044432869
 20
-135.7312499660672
 10
108.7968044432869
 20
-135.7312499660672
 10
108.6993082410543
 20
-135.5045626831377
 10
108.6993082410543
 20
-135.5045626831377
 10
108.7289360622275
 20
-135.5111083645597
 10
108.7861246472826
 20
-135.5197211032728
 10
108.9025688746841
 20
-135.5197211032728
 10
108.9807725421993
 20
-135.5197211032728
 10
108.9828395994904
 20
-135.4773464288043
 10
108.9828395994904
 20
-135.4201578437491
 10
108.9828395994904
 20
-135.4201578437491
 10
108.9828395994904
 20
-135.0711696710933
 10
108.9828395994904
 20
-135.0711696710933
 10
108.9828395994904
 20
-135.0711696710933
 10
108.5236083713066
 20
-135.0711696710933
 10
108.5236083713066
 20
-135.0711696710933
 10
108.5260199381463
 20
-135.2086289809548
 10
108.5280869954374
 20
-135.4074109904537
 10
108.5342881673109
 20
-135.5407361857329
 10
108.536355224602
 20
-135.5682969496149
 10
108.536355224602
 20
-135.6127386813746
 10
108.5491020778975
 20
-135.6740613810121
 10
108.5491020778975
 20
-135.6740613810121
 10
108.30794539393
 20
-135.6740613810121
 10
108.30794539393
 20
-135.6740613810121
 10
108.3334391005208
 20
-135.549348924446
 10
108.3334391005208
 20
-135.2086289809548
 10
108.3334391005208
 20
-135.0711696710933
 10
108.3334391005208
 20
-135.0711696710933
 10
107.8910888402147
 20
-135.0711696710933
 10
107.8910888402147
 20
-135.0711696710933
 10
107.8680067004636
 20
-135.2785644193054
 10
107.8025498862438
 20
-135.5472818671549
 10
107.6054904244875
 20
-135.7312499660672
 10
107.6054904244875
 20
-135.7312499660672
 10
107.4173882109929
 20
-135.6086045667923
 10
107.4173882109929
 20
-135.6086045667923
 10
107.6712917482558
 20
-135.3884629652848
 10
107.7029866267201
 20
-135.0563557605068
 10
107.7029866267201
 20
-134.7242485557287
 10
107.7029866267201
 20
-134.7242485557287
 10
107.7029866267201
 20
-134.2884439768446
 10
107.7029866267201
 20
-134.2884439768446
 10
107.7029866267201
 20
-134.252614983798
 10
107.7009195694289
 20
-134.0197265289951
 10
107.6923068307158
 20
-133.9180962121802
 10
107.832177707417
 20
-133.9287760081845
 10
108.0733343913844
 20
-133.9287760081845
 10
108.2169948731194
 20
-133.9287760081845
 10
108.2169948731194
 20
-133.9287760081845
 10
108.6762261013032
 20
-133.9287760081845
 10
108.6762261013032
 20
-133.9287760081845
 10
108.6910400118897
 20
-133.9287760081845
 10
109.0400281845455
 20
-133.9287760081845
 10
109.198502576867
 20
-133.9180962121802
 10
109.1964355195759
 20
-133.9708061731045
 10
109.1902343477024
 20
-134.1320366418142
 10
109.1902343477024
 20
-134.1826795454474
 10
109.1902343477024
 20
-134.1826795454474
 10
109.1902343477024
 20
-134.7897053699484
 10
109.1902343477024
 20
-134.7897053699484
 10
109.1902343477024
 20
-134.8086533951173
 10
109.2005696341582
 20
-135.3798502265717
 10
109.2005696341582
 20
-135.4921603393909
 10
109.2005696341582
 20
-135.549348924446
 10
109.2005696341582
 20
-135.6506347317124
 10
109.1182318520607
 20
-135.6974880303117
 97
        0
 97
        0
 92
        1
 93
        4
 72
     1
 10
108.3334391005208
 20
-134.1106770498057
 11
107.8955674643456
 21
-134.1106770498057
 72
     1
 10
107.8955674643456
 20
-134.1106770498057
 11
107.8955674643456
 21
-134.4152234907017
 72
     1
 10
107.8955674643456
 20
-134.4152234907017
 11
108.3334391005208
 21
-134.4152234907017
 72
     1
 10
108.3334391005208
 20
-134.4152234907017
 11
108.3334391005208
 21
-134.1106770498057
 97
        0
 92
        1
 93
        4
 72
     1
 10
108.3334391005208
 20
-134.5826551312849
 11
107.8955674643456
 21
-134.5826551312849
 72
     1
 10
107.8955674643456
 20
-134.5826551312849
 11
107.8955674643456
 21
-134.8913356867633
 72
     1
 10
107.8955674643456
 20
-134.8913356867633
 11
108.3334391005208
 21
-134.8913356867633
 72
     1
 10
108.3334391005208
 20
-134.8913356867633
 11
108.3334391005208
 21
-134.5826551312849
 97
        0
 92
        1
 93
        4
 72
     1
 10
108.9828395994904
 20
-134.1106770498057
 11
108.5236083713066
 21
-134.1106770498057
 72
     1
 10
108.5236083713066
 20
-134.1106770498057
 11
108.5236083713066
 21
-134.4152234907017
 72
     1
 10
108.5236083713066
 20
-134.4152234907017
 11
108.9828395994904
 21
-134.4152234907017
 72
     1
 10
108.9828395994904
 20
-134.4152234907017
 11
108.9828395994904
 21
-134.1106770498057
 97
        0
 92
        1
 93
        4
 72
     1
 10
108.9828395994904
 20
-134.5826551312849
 11
108.5236083713066
 21
-134.5826551312849
 72
     1
 10
108.5236083713066
 20
-134.5826551312849
 11
108.5236083713066
 21
-134.8913356867633
 72
     1
 10
108.5236083713066
 20
-134.8913356867633
 11
108.9828395994904
 21
-134.8913356867633
 72
     1
 10
108.9828395994904
 20
-134.8913356867633
 11
108.9828395994904
 21
-134.5826551312849
 97
        0
 75
     2
 76
     1
 98
        0
  0
SPLINE
  5
BB
330
8A
100
AcDbEntity
  8
_U+30EC_U+30A4_U+30E4_U+30FC 1
370
     0
100
AcDbSpline
210
0.0
220
0.0
230
1.0
 70
    11
 71
     3
 72
    44
 73
    40
 74
     0
 42
0.0000000001
 43
0.0000000001
 12
1.0
 22
0.0
 32
0.0
 13
1.0
 23
0.0
 33
0.0
 40
0.0
 40
0.0
 40
0.0
 40
0.0
 40
1.0
 40
1.0
 40
1.0
 40
2.0
 40
2.0
 40
2.0
 40
3.0
 40
3.0
 40
3.0
 40
4.0
 40
4.0
 40
4.0
 40
5.0
 40
5.0
 40
5.0
 40
6.0
 40
6.0
 40
6.0
 40
7.0
 40
7.0
 40
7.0
 40
8.0
 40
8.0
 40
8.0
 40
9.0
 40
9.0
 40
9.0
 40
10.0
 40
10.0
 40
10.0
 40
11.0
 40
11.0
 40
11.0
 40
12.0
 40
12.0
 40
12.0
 40
13.0
 40
13.0
 40
13.0
 40
13.0
 10
104.6668239755694
 20
-136.9873317799893
 30
0.0
 10
104.5548583722988
 20
-137.355267977814
 30
0.0
 10
104.5042154686656
 20
-137.5137423701354
 30
0.0
 10
104.3075005164578
 20
-137.7635117928161
 30
0.0
 10
104.123187907997
 20
-137.9939886807793
 30
0.0
 10
103.8865098481603
 20
-138.1800238369828
 30
0.0
 10
103.6071126043066
 20
-138.2733859246331
 30
0.0
 10
103.6071126043066
 20
-138.2733859246331
 30
0.0
 10
103.4145317666811
 20
-138.093551940303
 30
0.0
 10
103.4145317666811
 20
-138.093551940303
 30
0.0
 10
104.0556640364861
 20
-137.941278719855
 30
0.0
 10
104.385704183973
 20
-137.3848957989871
 30
0.0
 10
104.4490939409016
 20
-136.9446125959722
 30
0.0
 10
104.4490939409016
 20
-136.9446125959722
 30
0.0
 10
103.6832492145306
 20
-136.9446125959722
 30
0.0
 10
103.6832492145306
 20
-136.9446125959722
 30
0.0
 10
103.5902316364288
 20
-136.9446125959722
 30
0.0
 10
103.4062635375165
 20
-136.949091220103
 30
0.0
 10
103.2495116929376
 20
-136.9680392452719
 30
0.0
 10
103.2495116929376
 20
-136.9680392452719
 30
0.0
 10
103.2495116929376
 20
-136.748242153313
 30
0.0
 10
103.2495116929376
 20
-136.748242153313
 30
0.0
 10
103.3363280991659
 20
-136.769257235773
 30
0.0
 10
103.5881645791377
 20
-136.769257235773
 30
0.0
 10
103.6873833291129
 20
-136.769257235773
 30
0.0
 10
103.6873833291129
 20
-136.769257235773
 30
0.0
 10
104.1190537934147
 20
-136.769257235773
 30
0.0
 10
104.1190537934147
 20
-136.769257235773
 30
0.0
 10
104.1614284678833
 20
-136.769257235773
 30
0.0
 10
104.3960394704288
 20
-136.7668456689333
 30
0.0
 10
104.4342800303151
 20
-136.7606444970598
 30
0.0
 10
104.4766547047836
 20
-136.7544433251864
 30
0.0
 10
104.4787217620748
 20
-136.7523762678952
 30
0.0
 10
104.5400444617122
 20
-136.7120686507178
 30
0.0
 10
104.5400444617122
 20
-136.7120686507178
 30
0.0
 10
104.7281466752069
 20
-136.8667534380055
 30
0.0
 10
104.7281466752069
 20
-136.8667534380055
 30
0.0
 10
104.6988633635822
 20
-136.8963812591787
 30
0.0
 10
104.6840494529957
 20
-136.928076137643
 30
0.0
 10
104.6668239755694
 20
-136.9873317799893
 30
0.0
  0
SPLINE
  5
BC
330
8A
100
AcDbEntity
  8
_U+30EC_U+30A4_U+30E4_U+30FC 1
370
     0
100
AcDbSpline
210
0.0
220
0.0
230
1.0
 70
    11
 71
     3
 72
    17
 73
    13
 74
     0
 42
0.0000000001
 43
0.0000000001
 12
1.0
 22
0.0
 32
0.0
 13
1.0
 23
0.0
 33
0.0
 40
0.0
 40
0.0
 40
0.0
 40
0.0
 40
1.0
 40
1.0
 40
1.0
 40
2.0
 40
2.0
 40
2.0
 40
3.0
 40
3.0
 40
3.0
 40
4.0
 40
4.0
 40
4.0
 40
4.0
 10
104.8762857810726
 20
-136.7882052609419
 30
0.0
 10
104.7495062672154
 20
-136.7882052609419
 30
0.0
 10
104.6478759504005
 20
-136.6869194536755
 30
0.0
 10
104.6478759504005
 20
-136.5597954302698
 30
0.0
 10
104.6478759504005
 20
-136.4326714068641
 30
0.0
 10
104.7495062672154
 20
-136.3293185423066
 30
0.0
 10
104.8762857810726
 20
-136.3293185423066
 30
0.0
 10
105.0034098044783
 20
-136.3293185423066
 30
0.0
 10
105.1071071785843
 20
-136.4326714068641
 30
0.0
 10
105.1071071785843
 20
-136.5597954302698
 30
0.0
 10
105.1071071785843
 20
-136.6869194536755
 30
0.0
 10
105.0034098044783
 20
-136.7882052609419
 30
0.0
 10
104.8762857810726
 20
-136.7882052609419
 30
0.0
  0
SPLINE
  5
BD
330
8A
100
AcDbEntity
  8
_U+30EC_U+30A4_U+30E4_U+30FC 1
370
     0
100
AcDbSpline
210
0.0
220
0.0
230
1.0
 70
    11
 71
     3
 72
    17
 73
    13
 74
     0
 42
0.0000000001
 43
0.0000000001
 12
1.0
 22
0.0
 32
0.0
 13
1.0
 23
0.0
 33
0.0
 40
0.0
 40
0.0
 40
0.0
 40
0.0
 40
1.0
 40
1.0
 40
1.0
 40
2.0
 40
2.0
 40
2.0
 40
3.0
 40
3.0
 40
3.0
 40
4.0
 40
4.0
 40
4.0
 40
4.0
 10
104.8742187237815
 20
-136.4581651134549
 30
0.0
 10
104.819441705566
 20
-136.4581651134549
 30
0.0
 10
104.7749999738063
 20
-136.5026068452146
 30
0.0
 10
104.7749999738063
 20
-136.5577283729786
 30
0.0
 10
104.7749999738063
 20
-136.6145724484853
 30
0.0
 10
104.819441705566
 20
-136.6634928043758
 30
0.0
 10
104.8783528383638
 20
-136.6634928043758
 30
0.0
 10
104.9376084807101
 20
-136.6634928043758
 30
0.0
 10
104.9779160978875
 20
-136.6125053911941
 30
0.0
 10
104.9779160978875
 20
-136.5597954302698
 30
0.0
 10
104.9779160978875
 20
-136.5026068452146
 30
0.0
 10
104.9314073088366
 20
-136.4581651134549
 30
0.0
 10
104.8742187237815
 20
-136.4581651134549
 30
0.0
  0
HATCH
  5
BE
330
8A
100
AcDbEntity
  8
_U+30EC_U+30A4_U+30E4_U+30FC 1
 62
     7
420
 16777215
100
AcDbHatch
 10
0.0
 20
0.0
 30
0.0
210
0.0
220
0.0
230
1.0
  2
SOLID
 70
     1
 71
     0
 91
        3
 92
        1
 93
        1
 72
     4
 94
        3
 73
     0
 74
     1
 95
       44
 96
       40
 40
0.0
 40
0.0
 40
0.0
 40
0.0
 40
1.0
 40
1.0
 40
1.0
 40
2.0
 40
2.0
 40
2.0
 40
3.0
 40
3.0
 40
3.0
 40
4.0
 40
4.0
 40
4.0
 40
5.0
 40
5.0
 40
5.0
 40
6.0
 40
6.0
 40
6.0
 40
7.0
 40
7.0
 40
7.0
 40
8.0
 40
8.0
 40
8.0
 40
9.0
 40
9.0
 40
9.0
 40
10.0
 40
10.0
 40
10.0
 40
11.0
 40
11.0
 40
11.0
 40
12.0
 40
12.0
 40
12.0
 40
13.0
 40
13.0
 40
13.0
 40
13.0
 10
104.6668239755694
 20
-136.9873317799893
 10
104.5548583722988
 20
-137.355267977814
 10
104.5042154686656
 20
-137.5137423701354
 10
104.3075005164578
 20
-137.7635117928161
 10
104.123187907997
 20
-137.9939886807793
 10
103.8865098481603
 20
-138.1800238369828
 10
103.6071126043066
 20
-138.2733859246331
 10
103.6071126043066
 20
-138.2733859246331
 10
103.4145317666811
 20
-138.093551940303
 10
103.4145317666811
 20
-138.093551940303
 10
104.0556640364861
 20
-137.941278719855
 10
104.385704183973
 20
-137.3848957989871
 10
104.4490939409016
 20
-136.9446125959722
 10
104.4490939409016
 20
-136.9446125959722
 10
103.6832492145306
 20
-136.9446125959722
 10
103.6832492145306
 20
-136.9446125959722
 10
103.5902316364288
 20
-136.9446125959722
 10
103.4062635375165
 20
-136.949091220103
 10
103.2495116929376
 20
-136.9680392452719
 10
103.2495116929376
 20
-136.9680392452719
 10
103.2495116929376
 20
-136.748242153313
 10
103.2495116929376
 20
-136.748242153313
 10
103.3363280991659
 20
-136.769257235773
 10
103.5881645791377
 20
-136.769257235773
 10
103.6873833291129
 20
-136.769257235773
 10
103.6873833291129
 20
-136.769257235773
 10
104.1190537934147
 20
-136.769257235773
 10
104.1190537934147
 20
-136.769257235773
 10
104.1614284678833
 20
-136.769257235773
 10
104.3960394704288
 20
-136.7668456689333
 10
104.4342800303151
 20
-136.7606444970598
 10
104.4766547047836
 20
-136.7544433251864
 10
104.4787217620748
 20
-136.7523762678952
 10
104.5400444617122
 20
-136.7120686507178
 10
104.5400444617122
 20
-136.7120686507178
 10
104.7281466752069
 20
-136.8667534380055
 10
104.7281466752069
 20
-136.8667534380055
 10
104.6988633635822
 20
-136.8963812591787
 10
104.6840494529957
 20
-136.928076137643
 10
104.6668239755694
 20
-136.9873317799893
 97
        0
 97
        0
 92
        1
 93
        1
 72
     4
 94
        3
 73
     0
 74
     1
 95
       17
 96
       13
 40
0.0
 40
0.0
 40
0.0
 40
0.0
 40
1.0
 40
1.0
 40
1.0
 40
2.0
 40
2.0
 40
2.0
 40
3.0
 40
3.0
 40
3.0
 40
4.0
 40
4.0
 40
4.0
 40
4.0
 10
104.8762857810726
 20
-136.7882052609419
 10
104.7495062672154
 20
-136.7882052609419
 10
104.6478759504005
 20
-136.6869194536755
 10
104.6478759504005
 20
-136.5597954302698
 10
104.6478759504005
 20
-136.4326714068641
 10
104.7495062672154
 20
-136.3293185423066
 10
104.8762857810726
 20
-136.3293185423066
 10
105.0034098044783
 20
-136.3293185423066
 10
105.1071071785843
 20
-136.4326714068641
 10
105.1071071785843
 20
-136.5597954302698
 10
105.1071071785843
 20
-136.6869194536755
 10
105.0034098044783
 20
-136.7882052609419
 10
104.8762857810726
 20
-136.7882052609419
 97
        0
 97
        0
 92
        1
 93
        1
 72
     4
 94
        3
 73
     0
 74
     1
 95
       17
 96
       13
 40
0.0
 40
0.0
 40
0.0
 40
0.0
 40
1.0
 40
1.0
 40
1.0
 40
2.0
 40
2.0
 40
2.0
 40
3.0
 40
3.0
 40
3.0
 40
4.0
 40
4.0
 40
4.0
 40
4.0
 10
104.8742187237815
 20
-136.4581651134549
 10
104.819441705566
 20
-136.4581651134549
 10
104.7749999738063
 20
-136.5026068452146
 10
104.7749999738063
 20
-136.5577283729786
 10
104.7749999738063
 20
-136.6145724484853
 10
104.819441705566
 20
-136.6634928043758
 10
104.8783528383638
 20
-136.6634928043758
 10
104.9376084807101
 20
-136.6634928043758
 10
104.9779160978875
 20
-136.6125053911941
 10
104.9779160978875
 20
-136.5597954302698
 10
104.9779160978875
 20
-136.5026068452146
 10
104.9314073088366
 20
-136.4581651134549
 10
104.8742187237815
 20
-136.4581651134549
 97
        0
 97
        0
 75
     2
 76
     1
 98
        0
  0
SPLINE
  5
BF
330
8A
100
AcDbEntity
  8
_U+30EC_U+30A4_U+30E4_U+30FC 1
370
     0
100
AcDbSpline
210
0.0
220
0.0
230
1.0
 70
    11
 71
     3
 72
    50
 73
    46
 74
     0
 42
0.0000000001
 43
0.0000000001
 12
1.0
 22
0.0
 32
0.0
 13
1.0
 23
0.0
 33
0.0
 40
0.0
 40
0.0
 40
0.0
 40
0.0
 40
1.0
 40
1.0
 40
1.0
 40
2.0
 40
2.0
 40
2.0
 40
3.0
 40
3.0
 40
3.0
 40
4.0
 40
4.0
 40
4.0
 40
5.0
 40
5.0
 40
5.0
 40
6.0
 40
6.0
 40
6.0
 40
7.0
 40
7.0
 40
7.0
 40
8.0
 40
8.0
 40
8.0
 40
9.0
 40
9.0
 40
9.0
 40
10.0
 40
10.0
 40
10.0
 40
11.0
 40
11.0
 40
11.0
 40
12.0
 40
12.0
 40
12.0
 40
13.0
 40
13.0
 40
13.0
 40
14.0
 40
14.0
 40
14.0
 40
15.0
 40
15.0
 40
15.0
 40
15.0
 10
106.6715250384363
 20
-137.2960123354677
 30
0.0
 10
106.5929768613726
 20
-137.4737792625066
 30
0.0
 10
106.4575846088023
 20
-137.6811740107186
 30
0.0
 10
106.3201252989408
 20
-137.8207003778712
 30
0.0
 10
106.150971110615
 20
-137.9919216234881
 30
0.0
 10
105.9880180941627
 20
-138.0808050870076
 30
0.0
 10
105.6686577426801
 20
-138.2227430209999
 30
0.0
 10
105.6686577426801
 20
-138.2227430209999
 30
0.0
 10
105.4995035543543
 20
-138.0342962979567
 30
0.0
 10
105.4995035543543
 20
-138.0342962979567
 30
0.0
 10
105.6855387105578
 20
-138.0112141582055
 30
0.0
 10
105.8567599561747
 20
-137.9243977519772
 30
0.0
 10
106.0093776861713
 20
-137.8182888110316
 30
0.0
 10
106.2715494525988
 20
-137.6363877694104
 30
0.0
 10
106.4620632329331
 20
-137.3235730993497
 30
0.0
 10
106.5106390792751
 20
-137.1416720577285
 30
0.0
 10
106.5106390792751
 20
-137.1416720577285
 30
0.0
 10
105.839878988297
 20
-137.1416720577285
 30
0.0
 10
105.839878988297
 20
-137.1416720577285
 30
0.0
 10
105.6814045959755
 20
-137.1416720577285
 30
0.0
 10
105.3892604988263
 20
-137.1499402868931
 30
0.0
 10
105.2369872783783
 20
-137.1671657643193
 30
0.0
 10
105.2369872783783
 20
-137.1671657643193
 30
0.0
 10
105.2369872783783
 20
-136.9384114240987
 30
0.0
 10
105.2369872783783
 20
-136.9384114240987
 30
0.0
 10
105.2710937236822
 20
-136.9446125959722
 30
0.0
 10
105.2962429207246
 20
-136.9511582773942
 30
0.0
 10
105.3492973911974
 20
-136.9552923919765
 30
0.0
 10
105.4505831984637
 20
-136.9618380733984
 30
0.0
 10
105.64764266022
 20
-136.9639051306896
 30
0.0
 10
105.7320474996087
 20
-136.9639051306896
 30
0.0
 10
105.7320474996087
 20
-136.9639051306896
 30
0.0
 10
106.2377875168433
 20
-136.9639051306896
 30
0.0
 10
106.2377875168433
 20
-136.9639051306896
 30
0.0
 10
106.3053113883542
 20
-136.9639051306896
 30
0.0
 10
106.4513834369288
 20
-136.9597710161073
 30
0.0
 10
106.5127061365663
 20
-136.9532253346853
 30
0.0
 10
106.584708632208
 20
-136.9446125959722
 30
0.0
 10
106.61226939609
 20
-136.9301431949341
 30
0.0
 10
106.6460313318454
 20
-136.9067165456344
 30
0.0
 10
106.6460313318454
 20
-136.9067165456344
 30
0.0
 10
106.8110514055889
 20
-137.0738036766691
 30
0.0
 10
106.8110514055889
 20
-137.0738036766691
 30
0.0
 10
106.7411159672383
 20
-137.1416720577285
 30
0.0
 10
106.6946071781875
 20
-137.245024922286
 30
0.0
 10
106.6715250384363
 20
-137.2960123354677
 30
0.0
  0
SPLINE
  5
C0
330
8A
100
AcDbEntity
  8
_U+30EC_U+30A4_U+30E4_U+30FC 1
370
     0
100
AcDbSpline
210
0.0
220
0.0
230
1.0
 70
    11
 71
     3
 72
    29
 73
    25
 74
     0
 42
0.0000000001
 43
0.0000000001
 12
1.0
 22
0.0
 32
0.0
 13
1.0
 23
0.0
 33
0.0
 40
0.0
 40
0.0
 40
0.0
 40
0.0
 40
1.0
 40
1.0
 40
1.0
 40
2.0
 40
2.0
 40
2.0
 40
3.0
 40
3.0
 40
3.0
 40
4.0
 40
4.0
 40
4.0
 40
5.0
 40
5.0
 40
5.0
 40
6.0
 40
6.0
 40
6.0
 40
7.0
 40
7.0
 40
7.0
 40
8.0
 40
8.0
 40
8.0
 40
8.0
 10
106.178531874497
 20
-136.6696939762492
 30
0.0
 10
106.178531874497
 20
-136.6696939762492
 30
0.0
 10
105.8378119310058
 20
-136.6696939762492
 30
0.0
 10
105.8378119310058
 20
-136.6696939762492
 30
0.0
 10
105.7237792704441
 20
-136.6696939762492
 30
0.0
 10
105.6073350430426
 20
-136.6738280908316
 30
0.0
 10
105.4929578729323
 20
-136.6889865109667
 30
0.0
 10
105.4929578729323
 20
-136.6889865109667
 30
0.0
 10
105.4929578729323
 20
-136.4795247054635
 30
0.0
 10
105.4929578729323
 20
-136.4795247054635
 30
0.0
 10
105.6114691576249
 20
-136.4939941065015
 30
0.0
 10
105.7851019700815
 20
-136.4984727306323
 30
0.0
 10
105.8378119310058
 20
-136.4984727306323
 30
0.0
 10
105.8378119310058
 20
-136.4984727306323
 30
0.0
 10
106.178531874497
 20
-136.4984727306323
 30
0.0
 10
106.178531874497
 20
-136.4984727306323
 30
0.0
 10
106.2949761018985
 20
-136.4984727306323
 30
0.0
 10
106.4110758197514
 20
-136.4939941065015
 30
0.0
 10
106.5275200471528
 20
-136.4795247054635
 30
0.0
 10
106.5275200471528
 20
-136.4795247054635
 30
0.0
 10
106.5275200471528
 20
-136.6889865109667
 30
0.0
 10
106.5275200471528
 20
-136.6889865109667
 30
0.0
 10
106.377313883996
 20
-136.6696939762492
 30
0.0
 10
106.1933457850836
 20
-136.6696939762492
 30
0.0
 10
106.178531874497
 20
-136.6696939762492
 30
0.0
  0
HATCH
  5
C1
330
8A
100
AcDbEntity
  8
_U+30EC_U+30A4_U+30E4_U+30FC 1
 62
     7
420
 16777215
100
AcDbHatch
 10
0.0
 20
0.0
 30
0.0
210
0.0
220
0.0
230
1.0
  2
SOLID
 70
     1
 71
     0
 91
        2
 92
        1
 93
        1
 72
     4
 94
        3
 73
     0
 74
     1
 95
       50
 96
       46
 40
0.0
 40
0.0
 40
0.0
 40
0.0
 40
1.0
 40
1.0
 40
1.0
 40
2.0
 40
2.0
 40
2.0
 40
3.0
 40
3.0
 40
3.0
 40
4.0
 40
4.0
 40
4.0
 40
5.0
 40
5.0
 40
5.0
 40
6.0
 40
6.0
 40
6.0
 40
7.0
 40
7.0
 40
7.0
 40
8.0
 40
8.0
 40
8.0
 40
9.0
 40
9.0
 40
9.0
 40
10.0
 40
10.0
 40
10.0
 40
11.0
 40
11.0
 40
11.0
 40
12.0
 40
12.0
 40
12.0
 40
13.0
 40
13.0
 40
13.0
 40
14.0
 40
14.0
 40
14.0
 40
15.0
 40
15.0
 40
15.0
 40
15.0
 10
106.6715250384363
 20
-137.2960123354677
 10
106.5929768613726
 20
-137.4737792625066
 10
106.4575846088023
 20
-137.6811740107186
 10
106.3201252989408
 20
-137.8207003778712
 10
106.150971110615
 20
-137.9919216234881
 10
105.9880180941627
 20
-138.0808050870076
 10
105.6686577426801
 20
-138.2227430209999
 10
105.6686577426801
 20
-138.2227430209999
 10
105.4995035543543
 20
-138.0342962979567
 10
105.4995035543543
 20
-138.0342962979567
 10
105.6855387105578
 20
-138.0112141582055
 10
105.8567599561747
 20
-137.9243977519772
 10
106.0093776861713
 20
-137.8182888110316
 10
106.2715494525988
 20
-137.6363877694104
 10
106.4620632329331
 20
-137.3235730993497
 10
106.5106390792751
 20
-137.1416720577285
 10
106.5106390792751
 20
-137.1416720577285
 10
105.839878988297
 20
-137.1416720577285
 10
105.839878988297
 20
-137.1416720577285
 10
105.6814045959755
 20
-137.1416720577285
 10
105.3892604988263
 20
-137.1499402868931
 10
105.2369872783783
 20
-137.1671657643193
 10
105.2369872783783
 20
-137.1671657643193
 10
105.2369872783783
 20
-136.9384114240987
 10
105.2369872783783
 20
-136.9384114240987
 10
105.2710937236822
 20
-136.9446125959722
 10
105.2962429207246
 20
-136.9511582773942
 10
105.3492973911974
 20
-136.9552923919765
 10
105.4505831984637
 20
-136.9618380733984
 10
105.64764266022
 20
-136.9639051306896
 10
105.7320474996087
 20
-136.9639051306896
 10
105.7320474996087
 20
-136.9639051306896
 10
106.2377875168433
 20
-136.9639051306896
 10
106.2377875168433
 20
-136.9639051306896
 10
106.3053113883542
 20
-136.9639051306896
 10
106.4513834369288
 20
-136.9597710161073
 10
106.5127061365663
 20
-136.9532253346853
 10
106.584708632208
 20
-136.9446125959722
 10
106.61226939609
 20
-136.9301431949341
 10
106.6460313318454
 20
-136.9067165456344
 10
106.6460313318454
 20
-136.9067165456344
 10
106.8110514055889
 20
-137.0738036766691
 10
106.8110514055889
 20
-137.0738036766691
 10
106.7411159672383
 20
-137.1416720577285
 10
106.6946071781875
 20
-137.245024922286
 10
106.6715250384363
 20
-137.2960123354677
 97
        0
 97
        0
 92
        1
 93
        1
 72
     4
 94
        3
 73
     0
 74
     1
 95
       29
 96
       25
 40
0.0
 40
0.0
 40
0.0
 40
0.0
 40
1.0
 40
1.0
 40
1.0
 40
2.0
 40
2.0
 40
2.0
 40
3.0
 40
3.0
 40
3.0
 40
4.0
 40
4.0
 40
4.0
 40
5.0
 40
5.0
 40
5.0
 40
6.0
 40
6.0
 40
6.0
 40
7.0
 40
7.0
 40
7.0
 40
8.0
 40
8.0
 40
8.0
 40
8.0
 10
106.178531874497
 20
-136.6696939762492
 10
106.178531874497
 20
-136.6696939762492
 10
105.8378119310058
 20
-136.6696939762492
 10
105.8378119310058
 20
-136.6696939762492
 10
105.7237792704441
 20
-136.6696939762492
 10
105.6073350430426
 20
-136.6738280908316
 10
105.4929578729323
 20
-136.6889865109667
 10
105.4929578729323
 20
-136.6889865109667
 10
105.4929578729323
 20
-136.4795247054635
 10
105.4929578729323
 20
-136.4795247054635
 10
105.6114691576249
 20
-136.4939941065015
 10
105.7851019700815
 20
-136.4984727306323
 10
105.8378119310058
 20
-136.4984727306323
 10
105.8378119310058
 20
-136.4984727306323
 10
106.178531874497
 20
-136.4984727306323
 10
106.178531874497
 20
-136.4984727306323
 10
106.2949761018985
 20
-136.4984727306323
 10
106.4110758197514
 20
-136.4939941065015
 10
106.5275200471528
 20
-136.4795247054635
 10
106.5275200471528
 20
-136.4795247054635
 10
106.5275200471528
 20
-136.6889865109667
 10
106.5275200471528
 20
-136.6889865109667
 10
106.377313883996
 20
-136.6696939762492
 10
106.1933457850836
 20
-136.6696939762492
 10
106.178531874497
 20
-136.6696939762492
 97
        0
 97
        0
 75
     2
 76
     1
 98
        0
  0
SPLINE
  5
C2
330
8A
100
AcDbEntity
  8
_U+30EC_U+30A4_U+30E4_U+30FC 1
370
     0
100
AcDbSpline
210
0.0
220
0.0
230
1.0
 70
    11
 71
     3
 72
    50
 73
    46
 74
     0
 42
0.0000000001
 43
0.0000000001
 12
1.0
 22
0.0
 32
0.0
 13
1.0
 23
0.0
 33
0.0
 40
0.0
 40
0.0
 40
0.0
 40
0.0
 40
1.0
 40
1.0
 40
1.0
 40
2.0
 40
2.0
 40
2.0
 40
3.0
 40
3.0
 40
3.0
 40
4.0
 40
4.0
 40
4.0
 40
5.0
 40
5.0
 40
5.0
 40
6.0
 40
6.0
 40
6.0
 40
7.0
 40
7.0
 40
7.0
 40
8.0
 40
8.0
 40
8.0
 40
9.0
 40
9.0
 40
9.0
 40
10.0
 40
10.0
 40
10.0
 40
11.0
 40
11.0
 40
11.0
 40
12.0
 40
12.0
 40
12.0
 40
13.0
 40
13.0
 40
13.0
 40
14.0
 40
14.0
 40
14.0
 40
15.0
 40
15.0
 40
15.0
 40
15.0
 10
108.3816704373143
 20
-136.6552245752112
 30
0.0
 10
108.1722086318111
 20
-136.8688204952967
 30
0.0
 10
108.1005506457179
 20
-136.9404784813899
 30
0.0
 10
107.9586127117256
 20
-137.0589897660825
 30
0.0
 10
107.9586127117256
 20
-137.0589897660825
 30
0.0
 10
107.9586127117256
 20
-137.6260524829546
 30
0.0
 10
107.9586127117256
 20
-137.6260524829546
 30
0.0
 10
107.9586127117256
 20
-137.7762586461115
 30
0.0
 10
107.9651583931476
 20
-137.7952066712804
 30
0.0
 10
107.9692925077299
 20
-137.9729735983193
 30
0.0
 10
107.9713595650211
 20
-138.1042317363073
 30
0.0
 10
107.9775607368945
 20
-138.1528075826493
 30
0.0
 10
107.9841064183165
 20
-138.2120632249956
 30
0.0
 10
107.9841064183165
 20
-138.2120632249956
 30
0.0
 10
107.7577636449356
 20
-138.2120632249956
 30
0.0
 10
107.7577636449356
 20
-138.2120632249956
 30
0.0
 10
107.7618977595179
 20
-138.1676214932359
 30
0.0
 10
107.7660318741002
 20
-138.1207681946365
 30
0.0
 10
107.7660318741002
 20
-138.1124999654719
 30
0.0
 10
107.7660318741002
 20
-138.0322292406656
 30
0.0
 10
107.770510498231
 20
-137.6811740107186
 30
0.0
 10
107.770510498231
 20
-137.6088270055284
 30
0.0
 10
107.770510498231
 20
-137.6088270055284
 30
0.0
 10
107.770510498231
 20
-137.2029947573659
 30
0.0
 10
107.770510498231
 20
-137.2029947573659
 30
0.0
 10
107.5886094566098
 20
-137.327707213932
 30
0.0
 10
107.3939615616932
 20
-137.43795026946
 30
0.0
 10
107.1907009280634
 20
-137.5244221661397
 30
0.0
 10
107.1907009280634
 20
-137.5244221661397
 30
0.0
 10
106.9877848039822
 20
-137.3614691496874
 30
0.0
 10
106.9877848039822
 20
-137.3614691496874
 30
0.0
 10
107.1104302032571
 20
-137.3256401566408
 30
0.0
 10
107.3664007978112
 20
-137.251570603708
 30
0.0
 10
107.7112548558847
 20
-136.9956000091539
 30
0.0
 10
107.9269178332613
 20
-136.8371256168324
 30
0.0
 10
108.1194986708868
 20
-136.6486788937892
 30
0.0
 10
108.2717718913348
 20
-136.4285372922818
 30
0.0
 10
108.2717718913348
 20
-136.4285372922818
 30
0.0
 10
108.4643527289603
 20
-136.5725422835652
 30
0.0
 10
108.4643527289603
 20
-136.5725422835652
 30
0.0
 10
108.4770995822557
 20
-136.5828775700209
 30
0.0
 10
108.4853678114203
 20
-136.5980359901561
 30
0.0
 10
108.4853678114203
 20
-136.6104383339029
 30
0.0
 10
108.4853678114203
 20
-136.6507459510804
 30
0.0
 10
108.4474717610826
 20
-136.6507459510804
 30
0.0
 10
108.3816704373143
 20
-136.6552245752112
 30
0.0
  0
HATCH
  5
C3
330
8A
100
AcDbEntity
  8
_U+30EC_U+30A4_U+30E4_U+30FC 1
 62
     7
420
 16777215
100
AcDbHatch
 10
0.0
 20
0.0
 30
0.0
210
0.0
220
0.0
230
1.0
  2
SOLID
 70
     1
 71
     0
 91
        1
 92
        1
 93
        1
 72
     4
 94
        3
 73
     0
 74
     1
 95
       50
 96
       46
 40
0.0
 40
0.0
 40
0.0
 40
0.0
 40
1.0
 40
1.0
 40
1.0
 40
2.0
 40
2.0
 40
2.0
 40
3.0
 40
3.0
 40
3.0
 40
4.0
 40
4.0
 40
4.0
 40
5.0
 40
5.0
 40
5.0
 40
6.0
 40
6.0
 40
6.0
 40
7.0
 40
7.0
 40
7.0
 40
8.0
 40
8.0
 40
8.0
 40
9.0
 40
9.0
 40
9.0
 40
10.0
 40
10.0
 40
10.0
 40
11.0
 40
11.0
 40
11.0
 40
12.0
 40
12.0
 40
12.0
 40
13.0
 40
13.0
 40
13.0
 40
14.0
 40
14.0
 40
14.0
 40
15.0
 40
15.0
 40
15.0
 40
15.0
 10
108.3816704373143
 20
-136.6552245752112
 10
108.1722086318111
 20
-136.8688204952967
 10
108.1005506457179
 20
-136.9404784813899
 10
107.9586127117256
 20
-137.0589897660825
 10
107.9586127117256
 20
-137.0589897660825
 10
107.9586127117256
 20
-137.6260524829546
 10
107.9586127117256
 20
-137.6260524829546
 10
107.9586127117256
 20
-137.7762586461115
 10
107.9651583931476
 20
-137.7952066712804
 10
107.9692925077299
 20
-137.9729735983193
 10
107.9713595650211
 20
-138.1042317363073
 10
107.9775607368945
 20
-138.1528075826493
 10
107.9841064183165
 20
-138.2120632249956
 10
107.9841064183165
 20
-138.2120632249956
 10
107.7577636449356
 20
-138.2120632249956
 10
107.7577636449356
 20
-138.2120632249956
 10
107.7618977595179
 20
-138.1676214932359
 10
107.7660318741002
 20
-138.1207681946365
 10
107.7660318741002
 20
-138.1124999654719
 10
107.7660318741002
 20
-138.0322292406656
 10
107.770510498231
 20
-137.6811740107186
 10
107.770510498231
 20
-137.6088270055284
 10
107.770510498231
 20
-137.6088270055284
 10
107.770510498231
 20
-137.2029947573659
 10
107.770510498231
 20
-137.2029947573659
 10
107.5886094566098
 20
-137.327707213932
 10
107.3939615616932
 20
-137.43795026946
 10
107.1907009280634
 20
-137.5244221661397
 10
107.1907009280634
 20
-137.5244221661397
 10
106.9877848039822
 20
-137.3614691496874
 10
106.9877848039822
 20
-137.3614691496874
 10
107.1104302032571
 20
-137.3256401566408
 10
107.3664007978112
 20
-137.251570603708
 10
107.7112548558847
 20
-136.9956000091539
 10
107.9269178332613
 20
-136.8371256168324
 10
108.1194986708868
 20
-136.6486788937892
 10
108.2717718913348
 20
-136.4285372922818
 10
108.2717718913348
 20
-136.4285372922818
 10
108.4643527289603
 20
-136.5725422835652
 10
108.4643527289603
 20
-136.5725422835652
 10
108.4770995822557
 20
-136.5828775700209
 10
108.4853678114203
 20
-136.5980359901561
 10
108.4853678114203
 20
-136.6104383339029
 10
108.4853678114203
 20
-136.6507459510804
 10
108.4474717610826
 20
-136.6507459510804
 10
108.3816704373143
 20
-136.6552245752112
 97
        0
 97
        0
 75
     2
 76
     1
 98
        0
  0
SPLINE
  5
C4
330
8A
100
AcDbEntity
  8
_U+30EC_U+30A4_U+30E4_U+30FC 1
370
     0
100
AcDbSpline
210
0.0
220
0.0
230
1.0
 70
    11
 71
     3
 72
    50
 73
    46
 74
     0
 42
0.0000000001
 43
0.0000000001
 12
1.0
 22
0.0
 32
0.0
 13
1.0
 23
0.0
 33
0.0
 40
0.0
 40
0.0
 40
0.0
 40
0.0
 40
1.0
 40
1.0
 40
1.0
 40
2.0
 40
2.0
 40
2.0
 40
3.0
 40
3.0
 40
3.0
 40
4.0
 40
4.0
 40
4.0
 40
5.0
 40
5.0
 40
5.0
 40
6.0
 40
6.0
 40
6.0
 40
7.0
 40
7.0
 40
7.0
 40
8.0
 40
8.0
 40
8.0
 40
9.0
 40
9.0
 40
9.0
 40
10.0
 40
10.0
 40
10.0
 40
11.0
 40
11.0
 40
11.0
 40
12.0
 40
12.0
 40
12.0
 40
13.0
 40
13.0
 40
13.0
 40
14.0
 40
14.0
 40
14.0
 40
15.0
 40
15.0
 40
15.0
 40
15.0
 10
110.0900932884497
 20
-137.1816351653574
 30
0.0
 10
110.0287705888123
 20
-137.2536376609991
 30
0.0
 10
109.7683213701274
 20
-137.5709309551906
 30
0.0
 10
109.7114772946207
 20
-137.6343207121192
 30
0.0
 10
109.7958821340094
 20
-137.7318169143518
 30
0.0
 10
109.8468695471911
 20
-137.7952066712804
 30
0.0
 10
109.9123263614108
 20
-137.886157192091
 30
0.0
 10
109.9123263614108
 20
-137.886157192091
 30
0.0
 10
109.7283582624985
 20
-138.0236165019524
 30
0.0
 10
109.7283582624985
 20
-138.0236165019524
 30
0.0
 10
109.5929660099281
 20
-137.8120876391581
 30
0.0
 10
109.4214002547627
 20
-137.5881564326169
 30
0.0
 10
109.1275336098709
 20
-137.3890299135694
 30
0.0
 10
109.1275336098709
 20
-137.3890299135694
 30
0.0
 10
109.2756727157366
 20
-137.2346896358302
 30
0.0
 10
109.2756727157366
 20
-137.2346896358302
 30
0.0
 10
109.3855712617161
 20
-137.3149603606365
 30
0.0
 10
109.4892686358221
 20
-137.403843824156
 30
0.0
 10
109.5864203285062
 20
-137.4992729690974
 30
0.0
 10
109.6542887095656
 20
-137.4227918493249
 30
0.0
 10
109.8572048336468
 20
-137.1795681080662
 30
0.0
 10
109.990530028926
 20
-136.9511582773942
 30
0.0
 10
109.990530028926
 20
-136.9511582773942
 30
0.0
 10
109.3177028806567
 20
-136.9511582773942
 30
0.0
 10
109.3177028806567
 20
-136.9511582773942
 30
0.0
 10
109.1929904240907
 20
-136.9511582773942
 30
0.0
 10
108.9411539441189
 20
-136.9597710161073
 30
0.0
 10
108.7316921386157
 20
-136.970106302563
 30
0.0
 10
108.7316921386157
 20
-136.970106302563
 30
0.0
 10
108.7316921386157
 20
-136.7503092106041
 30
0.0
 10
108.7316921386157
 20
-136.7503092106041
 30
0.0
 10
108.9160047470766
 20
-136.769257235773
 30
0.0
 10
109.1209879284489
 20
-136.7733913503553
 30
0.0
 10
109.3094346514921
 20
-136.7733913503553
 30
0.0
 10
109.3094346514921
 20
-136.7733913503553
 30
0.0
 10
109.8127631018871
 20
-136.7733913503553
 30
0.0
 10
109.8127631018871
 20
-136.7733913503553
 30
0.0
 10
110.1514159880872
 20
-136.7733913503553
 30
0.0
 10
110.1958577198469
 20
-136.7585774397687
 30
0.0
 10
110.2781955019443
 20
-136.7186143321398
 30
0.0
 10
110.2781955019443
 20
-136.7186143321398
 30
0.0
 10
110.445282632979
 20
-136.8770887244613
 30
0.0
 10
110.445282632979
 20
-136.8770887244613
 30
0.0
 10
110.2930094125309
 20
-136.949091220103
 30
0.0
 10
110.149348930796
 20
-137.1120442365553
 30
0.0
 10
110.0900932884497
 20
-137.1816351653574
 30
0.0
  0
HATCH
  5
C5
330
8A
100
AcDbEntity
  8
_U+30EC_U+30A4_U+30E4_U+30FC 1
 62
     7
420
 16777215
100
AcDbHatch
 10
0.0
 20
0.0
 30
0.0
210
0.0
220
0.0
230
1.0
  2
SOLID
 70
     1
 71
     0
 91
        1
 92
        1
 93
        1
 72
     4
 94
        3
 73
     0
 74
     1
 95
       50
 96
       46
 40
0.0
 40
0.0
 40
0.0
 40
0.0
 40
1.0
 40
1.0
 40
1.0
 40
2.0
 40
2.0
 40
2.0
 40
3.0
 40
3.0
 40
3.0
 40
4.0
 40
4.0
 40
4.0
 40
5.0
 40
5.0
 40
5.0
 40
6.0
 40
6.0
 40
6.0
 40
7.0
 40
7.0
 40
7.0
 40
8.0
 40
8.0
 40
8.0
 40
9.0
 40
9.0
 40
9.0
 40
10.0
 40
10.0
 40
10.0
 40
11.0
 40
11.0
 40
11.0
 40
12.0
 40
12.0
 40
12.0
 40
13.0
 40
13.0
 40
13.0
 40
14.0
 40
14.0
 40
14.0
 40
15.0
 40
15.0
 40
15.0
 40
15.0
 10
110.0900932884497
 20
-137.1816351653574
 10
110.0287705888123
 20
-137.2536376609991
 10
109.7683213701274
 20
-137.5709309551906
 10
109.7114772946207
 20
-137.6343207121192
 10
109.7958821340094
 20
-137.7318169143518
 10
109.8468695471911
 20
-137.7952066712804
 10
109.9123263614108
 20
-137.886157192091
 10
109.9123263614108
 20
-137.886157192091
 10
109.7283582624985
 20
-138.0236165019524
 10
109.7283582624985
 20
-138.0236165019524
 10
109.5929660099281
 20
-137.8120876391581
 10
109.4214002547627
 20
-137.5881564326169
 10
109.1275336098709
 20
-137.3890299135694
 10
109.1275336098709
 20
-137.3890299135694
 10
109.2756727157366
 20
-137.2346896358302
 10
109.2756727157366
 20
-137.2346896358302
 10
109.3855712617161
 20
-137.3149603606365
 10
109.4892686358221
 20
-137.403843824156
 10
109.5864203285062
 20
-137.4992729690974
 10
109.6542887095656
 20
-137.4227918493249
 10
109.8572048336468
 20
-137.1795681080662
 10
109.990530028926
 20
-136.9511582773942
 10
109.990530028926
 20
-136.9511582773942
 10
109.3177028806567
 20
-136.9511582773942
 10
109.3177028806567
 20
-136.9511582773942
 10
109.1929904240907
 20
-136.9511582773942
 10
108.9411539441189
 20
-136.9597710161073
 10
108.7316921386157
 20
-136.970106302563
 10
108.7316921386157
 20
-136.970106302563
 10
108.7316921386157
 20
-136.7503092106041
 10
108.7316921386157
 20
-136.7503092106041
 10
108.9160047470766
 20
-136.769257235773
 10
109.1209879284489
 20
-136.7733913503553
 10
109.3094346514921
 20
-136.7733913503553
 10
109.3094346514921
 20
-136.7733913503553
 10
109.8127631018871
 20
-136.7733913503553
 10
109.8127631018871
 20
-136.7733913503553
 10
110.1514159880872
 20
-136.7733913503553
 10
110.1958577198469
 20
-136.7585774397687
 10
110.2781955019443
 20
-136.7186143321398
 10
110.2781955019443
 20
-136.7186143321398
 10
110.445282632979
 20
-136.8770887244613
 10
110.445282632979
 20
-136.8770887244613
 10
110.2930094125309
 20
-136.949091220103
 10
110.149348930796
 20
-137.1120442365553
 10
110.0900932884497
 20
-137.1816351653574
 97
        0
 97
        0
 75
     2
 76
     1
 98
        0
  0
SPLINE
  5
C6
330
8A
100
AcDbEntity
  8
_U+30EC_U+30A4_U+30E4_U+30FC 1
370
     0
100
AcDbSpline
210
0.0
220
0.0
230
1.0
 70
    11
 71
     3
 72
    29
 73
    25
 74
     0
 42
0.0000000001
 43
0.0000000001
 12
1.0
 22
0.0
 32
0.0
 13
1.0
 23
0.0
 33
0.0
 40
0.0
 40
0.0
 40
0.0
 40
0.0
 40
1.0
 40
1.0
 40
1.0
 40
2.0
 40
2.0
 40
2.0
 40
3.0
 40
3.0
 40
3.0
 40
4.0
 40
4.0
 40
4.0
 40
5.0
 40
5.0
 40
5.0
 40
6.0
 40
6.0
 40
6.0
 40
7.0
 40
7.0
 40
7.0
 40
8.0
 40
8.0
 40
8.0
 40
8.0
 10
111.713766790648
 20
-137.424858906616
 30
0.0
 10
111.713766790648
 20
-137.424858906616
 30
0.0
 10
111.2293863654218
 20
-137.424858906616
 30
0.0
 10
111.2293863654218
 20
-137.424858906616
 30
0.0
 10
111.2018256015398
 20
-137.424858906616
 30
0.0
 10
110.8845323073483
 20
-137.424858906616
 30
0.0
 10
110.673003444554
 20
-137.4503526132069
 30
0.0
 10
110.673003444554
 20
-137.4503526132069
 30
0.0
 10
110.673003444554
 20
-137.2198757252436
 30
0.0
 10
110.673003444554
 20
-137.2198757252436
 30
0.0
 10
110.8314778368755
 20
-137.2429578649948
 30
0.0
 10
111.0219916172098
 20
-137.245024922286
 30
0.0
 10
111.2293863654218
 20
-137.245024922286
 30
0.0
 10
111.2293863654218
 20
-137.245024922286
 30
0.0
 10
111.713766790648
 20
-137.245024922286
 30
0.0
 10
111.713766790648
 20
-137.245024922286
 30
0.0
 10
111.8998019468514
 20
-137.245024922286
 30
0.0
 10
112.0861816126035
 20
-137.2429578649948
 30
0.0
 10
112.2701497115158
 20
-137.2198757252436
 30
0.0
 10
112.2701497115158
 20
-137.2198757252436
 30
0.0
 10
112.2701497115158
 20
-137.4503526132069
 30
0.0
 10
112.2701497115158
 20
-137.4503526132069
 30
0.0
 10
112.0861816126035
 20
-137.4269259639072
 30
0.0
 10
111.838479247214
 20
-137.424858906616
 30
0.0
 10
111.713766790648
 20
-137.424858906616
 30
0.0
  0
HATCH
  5
C7
330
8A
100
AcDbEntity
  8
_U+30EC_U+30A4_U+30E4_U+30FC 1
 62
     7
420
 16777215
100
AcDbHatch
 10
0.0
 20
0.0
 30
0.0
210
0.0
220
0.0
230
1.0
  2
SOLID
 70
     1
 71
     0
 91
        1
 92
        1
 93
        1
 72
     4
 94
        3
 73
     0
 74
     1
 95
       29
 96
       25
 40
0.0
 40
0.0
 40
0.0
 40
0.0
 40
1.0
 40
1.0
 40
1.0
 40
2.0
 40
2.0
 40
2.0
 40
3.0
 40
3.0
 40
3.0
 40
4.0
 40
4.0
 40
4.0
 40
5.0
 40
5.0
 40
5.0
 40
6.0
 40
6.0
 40
6.0
 40
7.0
 40
7.0
 40
7.0
 40
8.0
 40
8.0
 40
8.0
 40
8.0
 10
111.713766790648
 20
-137.424858906616
 10
111.713766790648
 20
-137.424858906616
 10
111.2293863654218
 20
-137.424858906616
 10
111.2293863654218
 20
-137.424858906616
 10
111.2018256015398
 20
-137.424858906616
 10
110.8845323073483
 20
-137.424858906616
 10
110.673003444554
 20
-137.4503526132069
 10
110.673003444554
 20
-137.4503526132069
 10
110.673003444554
 20
-137.2198757252436
 10
110.673003444554
 20
-137.2198757252436
 10
110.8314778368755
 20
-137.2429578649948
 10
111.0219916172098
 20
-137.245024922286
 10
111.2293863654218
 20
-137.245024922286
 10
111.2293863654218
 20
-137.245024922286
 10
111.713766790648
 20
-137.245024922286
 10
111.713766790648
 20
-137.245024922286
 10
111.8998019468514
 20
-137.245024922286
 10
112.0861816126035
 20
-137.2429578649948
 10
112.2701497115158
 20
-137.2198757252436
 10
112.2701497115158
 20
-137.2198757252436
 10
112.2701497115158
 20
-137.4503526132069
 10
112.2701497115158
 20
-137.4503526132069
 10
112.0861816126035
 20
-137.4269259639072
 10
111.838479247214
 20
-137.424858906616
 10
111.713766790648
 20
-137.424858906616
 97
        0
 97
        0
 75
     2
 76
     1
 98
        0
  0
ENDBLK
  5
8D
330
8A
100
AcDbEntity
  8
0
100
AcDbBlockEnd
  0
ENDSEC
  0
SECTION
  2
ENTITIES
  0
POLYLINE
  5
41
330
1F
100
AcDbEntity
  8
_U+30EC_U+30A4_U+30E4_U+30FC 1
 62
     7
420
 16777215
370
    25
100
AcDb2dPolyline
 66
     1
 10
0.0
 20
0.0
 30
0.0
  0
VERTEX
  5
42
330
41
100
AcDbEntity
  8
_U+30EC_U+30A4_U+30E4_U+30FC 1
 62
     7
420
 16777215
370
    25
100
AcDbVertex
100
AcDb2dVertex
 10
100.2185221971679
 20
-129.3612827454375
 30
0.0
  0
VERTEX
  5
43
330
41
100
AcDbEntity
  8
_U+30EC_U+30A4_U+30E4_U+30FC 1
 62
     7
420
 16777215
370
    25
100
AcDbVertex
100
AcDb2dVertex
 10
100.2185221971679
 20
-129.8614863564237
 30
0.0
  0
SEQEND
  5
44
330
41
100
AcDbEntity
  8
_U+30EC_U+30A4_U+30E4_U+30FC 1
 62
     7
420
 16777215
370
    25
  0
POLYLINE
  5
45
330
1F
100
AcDbEntity
  8
_U+30EC_U+30A4_U+30E4_U+30FC 1
 62
     7
420
 16777215
370
    25
100
AcDb2dPolyline
 66
     1
 10
0.0
 20
0.0
 30
0.0
  0
VERTEX
  5
46
330
45
100
AcDbEntity
  8
_U+30EC_U+30A4_U+30E4_U+30FC 1
 62
     7
420
 16777215
370
    25
100
AcDbVertex
100
AcDb2dVertex
 10
76.21841305550629
 20
-129.3612827454375
 30
0.0
  0
VERTEX
  5
47
330
45
100
AcDbEntity
  8
_U+30EC_U+30A4_U+30E4_U+30FC 1
 62
     7
420
 16777215
370
    25
100
AcDbVertex
100
AcDb2dVertex
 10
100.2185221971679
 20
-129.3612827454375
 30
0.0
  0
SEQEND
  5
48
330
45
100
AcDbEntity
  8
_U+30EC_U+30A4_U+30E4_U+30FC 1
 62
     7
420
 16777215
370
    25
  0
POLYLINE
  5
49
330
1F
100
AcDbEntity
  8
_U+30EC_U+30A4_U+30E4_U+30FC 1
 62
     7
420
 16777215
370
    25
100
AcDb2dPolyline
 66
     1
 10
0.0
 20
0.0
 30
0.0
  0
VERTEX
  5
4A
330
49
100
AcDbEntity
  8
_U+30EC_U+30A4_U+30E4_U+30FC 1
 62
     7
420
 16777215
370
    25
100
AcDbVertex
100
AcDb2dVertex
 10
100.2185221971679
 20
-129.8614863564237
 30
0.0
  0
VERTEX
  5
4B
330
49
100
AcDbEntity
  8
_U+30EC_U+30A4_U+30E4_U+30FC 1
 62
     7
420
 16777215
370
    25
100
AcDbVertex
100
AcDb2dVertex
 10
76.03514500462629
 20
-130.3610196896319
 30
0.0
  0
SEQEND
  5
4C
330
49
100
AcDbEntity
  8
_U+30EC_U+30A4_U+30E4_U+30FC 1
 62
     7
420
 16777215
370
    25
  0
POLYLINE
  5
4D
330
1F
100
AcDbEntity
  8
_U+30EC_U+30A4_U+30E4_U+30FC 1
 62
     7
420
 16777215
370
    25
100
AcDb2dPolyline
 66
     1
 10
0.0
 20
0.0
 30
0.0
  0
VERTEX
  5
4E
330
4D
100
AcDbEntity
  8
_U+30EC_U+30A4_U+30E4_U+30FC 1
 62
     7
420
 16777215
370
    25
100
AcDbVertex
100
AcDb2dVertex
 10
76.21841305550629
 20
-118.3612483037431
 30
0.0
  0
VERTEX
  5
4F
330
4D
100
AcDbEntity
  8
_U+30EC_U+30A4_U+30E4_U+30FC 1
 62
     7
420
 16777215
370
    25
100
AcDbVertex
100
AcDb2dVertex
 10
76.21841305550629
 20
-129.3612827454375
 30
0.0
  0
SEQEND
  5
50
330
4D
100
AcDbEntity
  8
_U+30EC_U+30A4_U+30E4_U+30FC 1
 62
     7
420
 16777215
370
    25
  0
POLYLINE
  5
51
330
1F
100
AcDbEntity
  8
_U+30EC_U+30A4_U+30E4_U+30FC 1
 62
     7
420
 16777215
370
    25
100
AcDb2dPolyline
 66
     1
 10
0.0
 20
0.0
 30
0.0
  0
VERTEX
  5
52
330
51
100
AcDbEntity
  8
_U+30EC_U+30A4_U+30E4_U+30FC 1
 62
     7
420
 16777215
370
    25
100
AcDbVertex
100
AcDb2dVertex
 10
75.7230072348118
 20
-118.3295688593066
 30
0.0
  0
VERTEX
  5
53
330
51
100
AcDbEntity
  8
_U+30EC_U+30A4_U+30E4_U+30FC 1
 62
     7
420
 16777215
370
    25
100
AcDbVertex
100
AcDb2dVertex
 10
76.22324611093853
 20
-118.3295688593066
 30
0.0
  0
SEQEND
  5
54
330
51
100
AcDbEntity
  8
_U+30EC_U+30A4_U+30E4_U+30FC 1
 62
     7
420
 16777215
370
    25
  0
POLYLINE
  5
55
330
1F
100
AcDbEntity
  8
_U+30EC_U+30A4_U+30E4_U+30FC 1
 62
     7
420
 16777215
370
    25
100
AcDb2dPolyline
 66
     1
 10
0.0
 20
0.0
 30
0.0
  0
VERTEX
  5
56
330
55
100
AcDbEntity
  8
_U+30EC_U+30A4_U+30E4_U+30FC 1
 62
     7
420
 16777215
370
    25
100
AcDbVertex
100
AcDb2dVertex
 10
75.71887973491711
 20
-118.3612483037431
 30
0.0
  0
VERTEX
  5
57
330
55
100
AcDbEntity
  8
_U+30EC_U+30A4_U+30E4_U+30FC 1
 62
     7
420
 16777215
370
    25
100
AcDbVertex
100
AcDb2dVertex
 10
75.21934641432793
 20
-129.5252538565075
 30
0.0
  0
SEQEND
  5
58
330
55
100
AcDbEntity
  8
_U+30EC_U+30A4_U+30E4_U+30FC 1
 62
     7
420
 16777215
370
    25
  0
SPLINE
  5
59
330
1F
100
AcDbEntity
  8
_U+30EC_U+30A4_U+30E4_U+30FC 1
 62
     7
420
 16777215
370
    25
100
AcDbSpline
210
0.0
220
0.0
230
1.0
 70
     8
 71
     3
 72
    11
 73
     7
 74
     0
 42
0.0000000001
 43
0.0000000001
 12
1.0
 22
0.0
 32
0.0
 13
1.0
 23
0.0
 33
0.0
 40
0.0
 40
0.0
 40
0.0
 40
0.0
 40
1.0
 40
1.0
 40
1.0
 40
2.0
 40
2.0
 40
2.0
 40
2.0
 10
75.21934641432793
 20
-129.5252538565075
 30
0.0
 10
75.19937919261511
 20
-129.966931634175
 30
0.0
 10
75.54182057276759
 20
-130.3410524674147
 30
0.0
 10
75.98279278373968
 20
-130.3603494118545
 30
0.0
 10
76.00000833885603
 20
-130.3610196896319
 30
0.0
 10
76.01792944950994
 20
-130.3617252451874
 30
0.0
 10
76.03514500462629
 20
-130.3610196896319
 30
0.0
  0
SPLINE
  5
5A
330
1F
100
AcDbEntity
  8
_U+30EC_U+30A4_U+30E4_U+30FC 1
 62
     7
420
 16777215
370
     9
100
AcDbSpline
210
0.0
220
0.0
230
1.0
 70
    11
 71
     3
 72
    17
 73
    13
 74
     0
 42
0.0000000001
 43
0.0000000001
 12
1.0
 22
0.0
 32
0.0
 13
1.0
 23
0.0
 33
0.0
 40
0.0
 40
0.0
 40
0.0
 40
0.0
 40
1.0
 40
1.0
 40
1.0
 40
2.0
 40
2.0
 40
2.0
 40
3.0
 40
3.0
 40
3.0
 40
4.0
 40
4.0
 40
4.0
 40
4.0
 10
100.3184263295526
 20
-134.3614844108543
 30
0.0
 10
100.3184263295526
 20
-134.3056749664239
 30
0.0
 10
100.2736235529179
 20
-134.2608721886571
 30
0.0
 10
100.2185221971679
 20
-134.2608721886571
 30
0.0
 10
100.1633805001748
 20
-134.2608721886571
 30
0.0
 10
100.1186130013169
 20
-134.3056749664239
 30
0.0
 10
100.1186130013169
 20
-134.3614844108543
 30
0.0
 10
100.1186130013169
 20
-134.4165882997292
 30
0.0
 10
100.1633805001748
 20
-134.4613910774959
 30
0.0
 10
100.2185221971679
 20
-134.4613910774959
 30
0.0
 10
100.2736235529179
 20
-134.4613910774959
 30
0.0
 10
100.3184263295526
 20
-134.4165882997292
 30
0.0
 10
100.3184263295526
 20
-134.3614844108543
 30
0.0
  0
SPLINE
  5
5B
330
1F
100
AcDbEntity
  8
_U+30EC_U+30A4_U+30E4_U+30FC 1
 62
     7
420
 16777215
370
     9
100
AcDbSpline
210
0.0
220
0.0
230
1.0
 70
    11
 71
     3
 72
    17
 73
    13
 74
     0
 42
0.0000000001
 43
0.0000000001
 12
1.0
 22
0.0
 32
0.0
 13
1.0
 23
0.0
 33
0.0
 40
0.0
 40
0.0
 40
0.0
 40
0.0
 40
1.0
 40
1.0
 40
1.0
 40
2.0
 40
2.0
 40
2.0
 40
3.0
 40
3.0
 40
3.0
 40
4.0
 40
4.0
 40
4.0
 40
4.0
 10
71.31882373606078
 20
-130.3610196896319
 30
0.0
 10
71.31882373606078
 20
-130.305915800757
 30
0.0
 10
71.27402095942601
 20
-130.2611130229902
 30
0.0
 10
71.21891707194294
 20
-130.2611130229902
 30
0.0
 10
71.16310762892232
 20
-130.2611130229902
 30
0.0
 10
71.11830485228755
 20
-130.305915800757
 30
0.0
 10
71.11830485228755
 20
-130.3610196896319
 30
0.0
 10
71.11830485228755
 20
-130.416158856285
 30
0.0
 10
71.16310762892232
 20
-130.4609263562735
 30
0.0
 10
71.21891707194294
 20
-130.4609263562735
 30
0.0
 10
71.27402095942601
 20
-130.4609263562735
 30
0.0
 10
71.31882373606078
 20
-130.416158856285
 30
0.0
 10
71.31882373606078
 20
-130.3610196896319
 30
0.0
  0
SPLINE
  5
5C
330
1F
100
AcDbEntity
  8
_U+30EC_U+30A4_U+30E4_U+30FC 1
 62
     7
420
 16777215
370
     9
100
AcDbSpline
210
0.0
220
0.0
230
1.0
 70
    11
 71
     3
 72
    17
 73
    13
 74
     0
 42
0.0000000001
 43
0.0000000001
 12
1.0
 22
0.0
 32
0.0
 13
1.0
 23
0.0
 33
0.0
 40
0.0
 40
0.0
 40
0.0
 40
0.0
 40
1.0
 40
1.0
 40
1.0
 40
2.0
 40
2.0
 40
2.0
 40
3.0
 40
3.0
 40
3.0
 40
4.0
 40
4.0
 40
4.0
 40
4.0
 10
75.31858280068509
 20
-134.3614844108543
 30
0.0
 10
75.31858280068509
 20
-134.3056749664239
 30
0.0
 10
75.27378002405032
 20
-134.2608721886571
 30
0.0
 10
75.21867613656725
 20
-134.2608721886571
 30
0.0
 10
75.16353887009797
 20
-134.2608721886571
 30
0.0
 10
75.11876947244942
 20
-134.3056749664239
 30
0.0
 10
75.11876947244942
 20
-134.3614844108543
 30
0.0
 10
75.11876947244942
 20
-134.4165882997292
 30
0.0
 10
75.16353887009797
 20
-134.4613910774959
 30
0.0
 10
75.21867613656725
 20
-134.4613910774959
 30
0.0
 10
75.27378002405032
 20
-134.4613910774959
 30
0.0
 10
75.31858280068509
 20
-134.4165882997292
 30
0.0
 10
75.31858280068509
 20
-134.3614844108543
 30
0.0
  0
SPLINE
  5
5D
330
1F
100
AcDbEntity
  8
_U+30EC_U+30A4_U+30E4_U+30FC 1
 62
     7
420
 16777215
370
     9
100
AcDbSpline
210
0.0
220
0.0
230
1.0
 70
    11
 71
     3
 72
    17
 73
    13
 74
     0
 42
0.0000000001
 43
0.0000000001
 12
1.0
 22
0.0
 32
0.0
 13
1.0
 23
0.0
 33
0.0
 40
0.0
 40
0.0
 40
0.0
 40
0.0
 40
1.0
 40
1.0
 40
1.0
 40
2.0
 40
2.0
 40
2.0
 40
3.0
 40
3.0
 40
3.0
 40
4.0
 40
4.0
 40
4.0
 40
4.0
 10
71.31882373606078
 20
-118.3612483037431
 30
0.0
 10
71.31882373606078
 20
-118.3057916370901
 30
0.0
 10
71.27402095942601
 20
-118.2609888593237
 30
0.0
 10
71.21891707194294
 20
-118.2609888593237
 30
0.0
 10
71.16310762892232
 20
-118.2609888593237
 30
0.0
 10
71.11830485228755
 20
-118.3057916370901
 30
0.0
 10
71.11830485228755
 20
-118.3612483037431
 30
0.0
 10
71.11830485228755
 20
-118.4163874703958
 30
0.0
 10
71.16310762892232
 20
-118.4611549703847
 30
0.0
 10
71.21891707194294
 20
-118.4611549703847
 30
0.0
 10
71.27402095942601
 20
-118.4611549703847
 30
0.0
 10
71.31882373606078
 20
-118.4163874703958
 30
0.0
 10
71.31882373606078
 20
-118.3612483037431
 30
0.0
  0
POLYLINE
  5
5E
330
1F
100
AcDbEntity
  8
_U+30EC_U+30A4_U+30E4_U+30FC 1
 62
     7
420
 16777215
370
     9
100
AcDb2dPolyline
 66
     1
 10
0.0
 20
0.0
 30
0.0
  0
VERTEX
  5
5F
330
5E
100
AcDbEntity
  8
_U+30EC_U+30A4_U+30E4_U+30FC 1
 62
     7
420
 16777215
370
     9
100
AcDbVertex
100
AcDb2dVertex
 10
75.21867613656725
 20
-134.3614844108543
 30
0.0
  0
VERTEX
  5
60
330
5E
100
AcDbEntity
  8
_U+30EC_U+30A4_U+30E4_U+30FC 1
 62
     7
420
 16777215
370
     9
100
AcDbVertex
100
AcDb2dVertex
 10
100.2185221971679
 20
-134.3614844108543
 30
0.0
  0
SEQEND
  5
61
330
5E
100
AcDbEntity
  8
_U+30EC_U+30A4_U+30E4_U+30FC 1
 62
     7
420
 16777215
370
     9
  0
POLYLINE
  5
62
330
1F
100
AcDbEntity
  8
_U+30EC_U+30A4_U+30E4_U+30FC 1
 62
     7
420
 16777215
370
     9
100
AcDb2dPolyline
 66
     1
 10
0.0
 20
0.0
 30
0.0
  0
VERTEX
  5
63
330
62
100
AcDbEntity
  8
_U+30EC_U+30A4_U+30E4_U+30FC 1
 62
     7
420
 16777215
370
     9
100
AcDbVertex
100
AcDb2dVertex
 10
75.21867613656725
 20
-132.1014841336413
 30
0.0
  0
VERTEX
  5
64
330
62
100
AcDbEntity
  8
_U+30EC_U+30A4_U+30E4_U+30FC 1
 62
     7
420
 16777215
370
     9
100
AcDbVertex
100
AcDb2dVertex
 10
75.21867613656725
 20
-135.3612566328262
 30
0.0
  0
SEQEND
  5
65
330
62
100
AcDbEntity
  8
_U+30EC_U+30A4_U+30E4_U+30FC 1
 62
     7
420
 16777215
370
     9
  0
POLYLINE
  5
66
330
1F
100
AcDbEntity
  8
_U+30EC_U+30A4_U+30E4_U+30FC 1
 62
     7
420
 16777215
370
     9
100
AcDb2dPolyline
 66
     1
 10
0.0
 20
0.0
 30
0.0
  0
VERTEX
  5
67
330
66
100
AcDbEntity
  8
_U+30EC_U+30A4_U+30E4_U+30FC 1
 62
     7
420
 16777215
370
     9
100
AcDbVertex
100
AcDb2dVertex
 10
100.2185221971679
 20
-132.4012041335662
 30
0.0
  0
VERTEX
  5
68
330
66
100
AcDbEntity
  8
_U+30EC_U+30A4_U+30E4_U+30FC 1
 62
     7
420
 16777215
370
     9
100
AcDbVertex
100
AcDb2dVertex
 10
100.2185221971679
 20
-135.3612566328262
 30
0.0
  0
SEQEND
  5
69
330
66
100
AcDbEntity
  8
_U+30EC_U+30A4_U+30E4_U+30FC 1
 62
     7
420
 16777215
370
     9
  0
INSERT
  5
6B
330
1F
100
AcDbEntity
  8
_U+30EC_U+30A4_U+30E4_U+30FC 1
100
AcDbBlockReference
  2
block 2
 10
0.0
 20
0.0
 30
0.0
  0
POLYLINE
  5
72
330
1F
100
AcDbEntity
  8
_U+30EC_U+30A4_U+30E4_U+30FC 1
 62
     7
420
 16777215
370
     9
100
AcDb2dPolyline
 66
     1
 10
0.0
 20
0.0
 30
0.0
  0
VERTEX
  5
73
330
72
100
AcDbEntity
  8
_U+30EC_U+30A4_U+30E4_U+30FC 1
 62
     7
420
 16777215
370
     9
100
AcDbVertex
100
AcDb2dVertex
 10
71.21891707194294
 20
-118.3612483037431
 30
0.0
  0
VERTEX
  5
74
330
72
100
AcDbEntity
  8
_U+30EC_U+30A4_U+30E4_U+30FC 1
 62
     7
420
 16777215
370
     9
100
AcDbVertex
100
AcDb2dVertex
 10
71.21891707194294
 20
-130.3610196896319
 30
0.0
  0
SEQEND
  5
75
330
72
100
AcDbEntity
  8
_U+30EC_U+30A4_U+30E4_U+30FC 1
 62
     7
420
 16777215
370
     9
  0
POLYLINE
  5
76
330
1F
100
AcDbEntity
  8
_U+30EC_U+30A4_U+30E4_U+30FC 1
 62
     7
420
 16777215
370
     9
100
AcDb2dPolyline
 66
     1
 10
0.0
 20
0.0
 30
0.0
  0
VERTEX
  5
77
330
76
100
AcDbEntity
  8
_U+30EC_U+30A4_U+30E4_U+30FC 1
 62
     7
420
 16777215
370
     9
100
AcDbVertex
100
AcDb2dVertex
 10
73.18261924406696
 20
-118.3295688593066
 30
0.0
  0
VERTEX
  5
78
330
76
100
AcDbEntity
  8
_U+30EC_U+30A4_U+30E4_U+30FC 1
 62
     7
420
 16777215
370
     9
100
AcDbVertex
100
AcDb2dVertex
 10
70.22327237512174
 20
-118.3295688593066
 30
0.0
  0
SEQEND
  5
79
330
76
100
AcDbEntity
  8
_U+30EC_U+30A4_U+30E4_U+30FC 1
 62
     7
420
 16777215
370
     9
  0
POLYLINE
  5
7A
330
1F
100
AcDbEntity
  8
_U+30EC_U+30A4_U+30E4_U+30FC 1
 62
     7
420
 16777215
370
     9
100
AcDb2dPolyline
 66
     1
 10
0.0
 20
0.0
 30
0.0
  0
VERTEX
  5
7B
330
7A
100
AcDbEntity
  8
_U+30EC_U+30A4_U+30E4_U+30FC 1
 62
     7
420
 16777215
370
     9
100
AcDbVertex
100
AcDb2dVertex
 10
73.47888201428644
 20
-130.3610196896319
 30
0.0
  0
VERTEX
  5
7C
330
7A
100
AcDbEntity
  8
_U+30EC_U+30A4_U+30E4_U+30FC 1
 62
     7
420
 16777215
370
     9
100
AcDbVertex
100
AcDb2dVertex
 10
70.21843931968948
 20
-130.3610196896319
 30
0.0
  0
SEQEND
  5
7D
330
7A
100
AcDbEntity
  8
_U+30EC_U+30A4_U+30E4_U+30FC 1
 62
     7
420
 16777215
370
     9
  0
INSERT
  5
7F
330
1F
100
AcDbEntity
  8
_U+30EC_U+30A4_U+30E4_U+30FC 1
100
AcDbBlockReference
  2
block 3
 10
0.0
 20
0.0
 30
0.0
  0
POLYLINE
  5
86
330
1F
100
AcDbEntity
  8
_U+30EC_U+30A4_U+30E4_U+30FC 1
 62
     7
420
 16777215
370
     9
100
AcDb2dPolyline
 66
     1
 10
0.0
 20
0.0
 30
0.0
  0
VERTEX
  5
87
330
86
100
AcDbEntity
  8
_U+30EC_U+30A4_U+30E4_U+30FC 1
 62
     7
420
 16777215
370
     9
100
AcDbVertex
100
AcDb2dVertex
 10
100.2185221971679
 20
-130.3613724674096
 30
0.0
  0
VERTEX
  5
88
330
86
100
AcDbEntity
  8
_U+30EC_U+30A4_U+30E4_U+30FC 1
 62
     7
420
 16777215
370
     9
100
AcDbVertex
100
AcDb2dVertex
 10
103.8758373499066
 20
-133.4095841333145
 30
0.0
  0
SEQEND
  5
89
330
86
100
AcDbEntity
  8
_U+30EC_U+30A4_U+30E4_U+30FC 1
 62
     7
420
 16777215
370
     9
  0
INSERT
  5
8B
330
1F
100
AcDbEntity
  8
_U+30EC_U+30A4_U+30E4_U+30FC 1
100
AcDbBlockReference
  2
block 4
 10
0.0
 20
0.0
 30
0.0
  0
POLYLINE
  5
C8
330
1F
100
AcDbEntity
  8
_U+30EC_U+30A4_U+30E4_U+30FC 1
  6
AI-Linetype-1
 62
   154
420
    23468
370
    25
100
AcDb2dPolyline
 66
     1
 10
0.0
 20
0.0
 30
0.0
  0
VERTEX
  5
C9
330
C8
100
AcDbEntity
  8
_U+30EC_U+30A4_U+30E4_U+30FC 1
  6
AI-Linetype-1
 62
   154
420
    23468
370
    25
100
AcDbVertex
100
AcDb2dVertex
 10
75.21899363655915
 20
-118.3612483037431
 30
0.0
  0
VERTEX
  5
CA
330
C8
100
AcDbEntity
  8
_U+30EC_U+30A4_U+30E4_U+30FC 1
  6
AI-Linetype-1
 62
   154
420
    23468
370
    25
100
AcDbVertex
100
AcDb2dVertex
 10
74.6546903176224
 20
-130.8960424672762
 30
0.0
  0
VERTEX
  5
CB
330
C8
100
AcDbEntity
  8
_U+30EC_U+30A4_U+30E4_U+30FC 1
  6
AI-Linetype-1
 62
   154
420
    23468
370
    25
100
AcDbVertex
100
AcDb2dVertex
 10
100.2185221971679
 20
-130.3613724674096
 30
0.0
  0
SEQEND
  5
CD
330
C8
100
AcDbEntity
  8
_U+30EC_U+30A4_U+30E4_U+30FC 1
  6
AI-Linetype-1
 62
   154
420
    23468
370
    25
  0
ENDSEC
  0
SECTION
  2
OBJECTS
  0
DICTIONARY
  5
C
330
0
100
AcDbDictionary
281
     1
  3
ACAD_GROUP
350
D
  3
ACAD_LAYOUT
350
1A
  3
ACAD_MATERIAL
350
3B
  3
ACAD_MLEADERSTYLE
350
CF
  3
ACAD_MLINESTYLE
350
17
  3
ACAD_PLOTSETTINGS
350
19
  3
ACAD_PLOTSTYLENAME
350
E
  3
ACAD_TABLESTYLE
350
CE
  3
ACAD_VISUALSTYLE
350
2A
  0
SUN
  5
3F
330
29
100
AcDbSun
 90
        1
290
     0
 63
     7
421
 16777215
 40
1.0
291
     1
 91
  2455826
 92
 54000000
292
     0
 70
     2
 71
   256
280
     1
  0
DICTIONARY
  5
D
102
{ACAD_REACTORS
330
C
102
}
330
C
100
AcDbDictionary
281
     1
  0
DICTIONARY
  5
1A
102
{ACAD_REACTORS
330
C
102
}
330
C
100
AcDbDictionary
281
     1
  3
Layout1
350
1E
  3
Layout2
350
26
  3
Model
350
22
  0
DICTIONARY
  5
3B
102
{ACAD_REACTORS
330
C
102
}
330
C
100
AcDbDictionary
281
     1
  3
ByBlock
350
3D
  3
ByLayer
350
3C
  3
Global
350
3E
  0
DICTIONARY
  5
CF
102
{ACAD_REACTORS
330
C
102
}
330
C
100
AcDbDictionary
281
     1
  0
DICTIONARY
  5
17
102
{ACAD_REACTORS
330
C
102
}
330
C
100
AcDbDictionary
281
     1
  3
Standard
350
18
  0
DICTIONARY
  5
19
102
{ACAD_REACTORS
330
C
102
}
330
C
100
AcDbDictionary
281
     1
  0
ACDBDICTIONARYWDFLT
  5
E
102
{ACAD_REACTORS
330
C
102
}
330
C
100
AcDbDictionary
281
     1
  3
Normal
350
F
100
AcDbDictionaryWithDefault
340
F
  0
DICTIONARY
  5
CE
102
{ACAD_REACTORS
330
C
102
}
330
C
100
AcDbDictionary
281
     1
  0
DICTIONARY
  5
2A
102
{ACAD_REACTORS
330
C
102
}
330
C
100
AcDbDictionary
281
     1
  3
2dWireframe
350
2F
  3
3D Hidden
350
31
  3
3dWireframe
350
30
  3
Basic
350
32
  3
Brighten
350
36
  3
ColorChange
350
3A
  3
Conceptual
350
34
  3
Dim
350
35
  3
Facepattern
350
39
  3
Flat
350
2B
  3
FlatWithEdges
350
2C
  3
Gouraud
350
2D
  3
GouraudWithEdges
350
2E
  3
Linepattern
350
38
  3
Realistic
350
33
  3
Thicken
350
37
  0
LAYOUT
  5
1E
102
{ACAD_REACTORS
330
1A
102
}
330
1A
100
AcDbPlotSettings
  1

  2
none_device
  4

  6

 40
0.0
 41
0.0
 42
0.0
 43
0.0
 44
0.0
 45
0.0
 46
0.0
 47
0.0
 48
0.0
 49
0.0
140
0.0
141
0.0
142
1.0
143
1.0
 70
   688
 72
     0
 73
     0
 74
     5
  7

 75
    16
 76
     0
 77
     2
 78
   300
147
1.0
148
0.0
149
0.0
100
AcDbLayout
  1
Layout1
 70
     1
 71
     1
 10
0.0
 20
0.0
 11
12.0
 21
9.0
 12
0.0
 22
0.0
 32
0.0
 14
1.000000000000000E+20
 24
1.000000000000000E+20
 34
1.000000000000000E+20
 15
-1.000000000000000E+20
 25
-1.000000000000000E+20
 35
-1.000000000000000E+20
146
0.0
 13
0.0
 23
0.0
 33
0.0
 16
1.0
 26
0.0
 36
0.0
 17
0.0
 27
1.0
 37
0.0
 76
     0
330
1B
  0
LAYOUT
  5
26
102
{ACAD_REACTORS
330
1A
102
}
330
1A
100
AcDbPlotSettings
  1

  2
none_device
  4

  6

 40
0.0
 41
0.0
 42
0.0
 43
0.0
 44
0.0
 45
0.0
 46
0.0
 47
0.0
 48
0.0
 49
0.0
140
0.0
141
0.0
142
1.0
143
1.0
 70
   688
 72
     0
 73
     0
 74
     5
  7

 75
    16
 76
     0
 77
     2
 78
   300
147
1.0
148
0.0
149
0.0
100
AcDbLayout
  1
Layout2
 70
     1
 71
     2
 10
0.0
 20
0.0
 11
0.0
 21
0.0
 12
0.0
 22
0.0
 32
0.0
 14
0.0
 24
0.0
 34
0.0
 15
0.0
 25
0.0
 35
0.0
146
0.0
 13
0.0
 23
0.0
 33
0.0
 16
1.0
 26
0.0
 36
0.0
 17
0.0
 27
1.0
 37
0.0
 76
     0
330
23
  0
LAYOUT
  5
22
102
{ACAD_REACTORS
330
1A
102
}
330
1A
100
AcDbPlotSettings
  1

  2
none_device
  4

  6

 40
0.0
 41
0.0
 42
0.0
 43
0.0
 44
0.0
 45
0.0
 46
0.0
 47
0.0
 48
0.0
 49
0.0
140
0.0
141
0.0
142
1.0
143
1.0
 70
  1712
 72
     0
 73
     0
 74
     0
  7

 75
     0
 76
     0
 77
     2
 78
   300
147
1.0
148
0.0
149
0.0
100
AcDbLayout
  1
Model
 70
     1
 71
     0
 10
0.0
 20
0.0
 11
12.0
 21
9.0
 12
0.0
 22
0.0
 32
0.0
 14
1.000000000000000E+20
 24
1.000000000000000E+20
 34
1.000000000000000E+20
 15
-1.000000000000000E+20
 25
-1.000000000000000E+20
 35
-1.000000000000000E+20
146
0.0
 13
0.0
 23
0.0
 33
0.0
 16
1.0
 26
0.0
 36
0.0
 17
0.0
 27
1.0
 37
0.0
 76
     0
330
1F
331
29
  0
MATERIAL
  5
3D
102
{ACAD_REACTORS
330
3B
102
}
330
3B
100
AcDbMaterial
  1
ByBlock
 72
     1
 94
      127
  0
MATERIAL
  5
3C
102
{ACAD_REACTORS
330
3B
102
}
330
3B
100
AcDbMaterial
  1
ByLayer
 72
     1
 94
      127
  0
MATERIAL
  5
3E
102
{ACAD_REACTORS
330
3B
102
}
330
3B
100
AcDbMaterial
  1
Global
 72
     1
 94
      127
  0
MLINESTYLE
  5
18
102
{ACAD_REACTORS
330
17
102
}
330
17
100
AcDbMlineStyle
  2
Standard
 70
     0
  3

 62
   256
 51
90.0
 52
90.0
 71
     2
 49
0.5
 62
   256
  6
BYLAYER
 49
-0.5
 62
   256
  6
BYLAYER
  0
ACDBPLACEHOLDER
  5
F
102
{ACAD_REACTORS
330
E
102
}
330
E
  0
VISUALSTYLE
  5
2F
102
{ACAD_REACTORS
330
2A
102
}
330
2A
100
AcDbVisualStyle
  2
2dWireframe
 70
     4
177
     2
291
     0
 71
     0
176
     1
 72
     2
176
     1
 73
     0
176
     1
 90
        0
176
     1
 40
-0.6
176
     1
 41
-30.0
176
     1
 62
     5
 63
     7
421
 16777215
176
     1
 74
     1
176
     1
 91
        4
176
     1
 64
     7
176
     1
 65
   257
176
     1
 75
     1
176
     1
175
     1
176
     1
 42
1.0
176
     1
 92
        0
176
     1
 66
   257
176
     1
 43
1.0
176
     1
 76
     1
176
     1
 77
     6
176
     1
 78
     2
176
     1
 67
     7
176
     1
 79
     5
176
     1
170
     0
176
     1
171
     0
176
     1
290
     0
176
     1
 93
        1
176
     1
 44
0.0
176
     1
173
     0
176
     1
  0
VISUALSTYLE
  5
31
102
{ACAD_REACTORS
330
2A
102
}
330
2A
100
AcDbVisualStyle
  2
3D Hidden
 70
     6
177
     2
291
     0
 71
     1
176
     1
 72
     2
176
     1
 73
     2
176
     1
 90
        0
176
     1
 40
-0.6
176
     1
 41
-30.0
176
     1
 62
     5
 63
     7
421
 16777215
176
     1
 74
     2
176
     1
 91
        2
176
     1
 64
     7
176
     1
 65
   257
176
     1
 75
     2
176
     1
175
     1
176
     1
 42
40.0
176
     1
 92
        0
176
     1
 66
   257
176
     1
 43
1.0
176
     1
 76
     1
176
     1
 77
     6
176
     1
 78
     2
176
     1
 67
     7
176
     1
 79
     3
176
     1
170
     0
176
     1
171
     0
176
     1
290
     0
176
     1
 93
        1
176
     1
 44
0.0
176
     1
173
     0
176
     1
  0
VISUALSTYLE
  5
30
102
{ACAD_REACTORS
330
2A
102
}
330
2A
100
AcDbVisualStyle
  2
3dWireframe
 70
     5
177
     2
291
     0
 71
     0
176
     1
 72
     2
176
     1
 73
     0
176
     1
 90
        0
176
     1
 40
-0.6
176
     1
 41
-30.0
176
     1
 62
     5
 63
     7
421
 16777215
176
     1
 74
     1
176
     1
 91
        4
176
     1
 64
     7
176
     1
 65
   257
176
     1
 75
     1
176
     1
175
     1
176
     1
 42
1.0
176
     1
 92
        0
176
     1
 66
   257
176
     1
 43
1.0
176
     1
 76
     1
176
     1
 77
     6
176
     1
 78
     2
176
     1
 67
     7
176
     1
 79
     5
176
     1
170
     0
176
     1
171
     0
176
     1
290
     0
176
     1
 93
        1
176
     1
 44
0.0
176
     1
173
     0
176
     1
  0
VISUALSTYLE
  5
32
102
{ACAD_REACTORS
330
2A
102
}
330
2A
100
AcDbVisualStyle
  2
Basic
 70
     7
177
     2
291
     1
 71
     1
176
     1
 72
     0
176
     1
 73
     1
176
     1
 90
        0
176
     1
 40
-0.6
176
     1
 41
-30.0
176
     1
 62
     5
 63
     7
421
 16777215
176
     1
 74
     0
176
     1
 91
        4
176
     1
 64
     7
176
     1
 65
   257
176
     1
 75
     1
176
     1
175
     1
176
     1
 42
1.0
176
     1
 92
        8
176
     1
 66
     7
176
     1
 43
1.0
176
     1
 76
     1
176
     1
 77
     6
176
     1
 78
     2
176
     1
 67
     7
176
     1
 79
     5
176
     1
170
     0
176
     1
171
     0
176
     1
290
     0
176
     1
 93
        1
176
     1
 44
0.0
176
     1
173
     0
176
     1
  0
VISUALSTYLE
  5
36
102
{ACAD_REACTORS
330
2A
102
}
330
2A
100
AcDbVisualStyle
  2
Brighten
 70
    12
177
     2
291
     1
 71
     2
176
     1
 72
     2
176
     1
 73
     0
176
     1
 90
        0
176
     1
 40
-0.6
176
     1
 41
-30.0
176
     1
 62
     5
 63
     7
421
 16777215
176
     1
 74
     1
176
     1
 91
        4
176
     1
 64
     7
176
     1
 65
   257
176
     1
 75
     1
176
     1
175
     1
176
     1
 42
1.0
176
     1
 92
        8
176
     1
 66
     7
176
     1
 43
1.0
176
     1
 76
     1
176
     1
 77
     6
176
     1
 78
     2
176
     1
 67
     7
176
     1
 79
     5
176
     1
170
     0
176
     1
171
     0
176
     1
290
     0
176
     1
 93
        1
176
     1
 44
50.0
176
     1
173
     0
176
     1
  0
VISUALSTYLE
  5
3A
102
{ACAD_REACTORS
330
2A
102
}
330
2A
100
AcDbVisualStyle
  2
ColorChange
 70
    16
177
     2
291
     1
 71
     2
176
     1
 72
     2
176
     1
 73
     3
176
     1
 90
        0
176
     1
 40
-0.6
176
     1
 41
-30.0
176
     1
 62
     5
 63
     8
421
  8421504
176
     1
 74
     1
176
     1
 91
        4
176
     1
 64
     7
176
     1
 65
   257
176
     1
 75
     1
176
     1
175
     1
176
     1
 42
1.0
176
     1
 92
        8
176
     1
 66
     8
424
  8421504
176
     1
 43
1.0
176
     1
 76
     1
176
     1
 77
     6
176
     1
 78
     2
176
     1
 67
     7
176
     1
 79
     5
176
     1
170
     0
176
     1
171
     0
176
     1
290
     0
176
     1
 93
        1
176
     1
 44
0.0
176
     1
173
     0
176
     1
  0
VISUALSTYLE
  5
34
102
{ACAD_REACTORS
330
2A
102
}
330
2A
100
AcDbVisualStyle
  2
Conceptual
 70
     9
177
     2
291
     0
 71
     3
176
     1
 72
     2
176
     1
 73
     0
176
     1
 90
        0
176
     1
 40
-0.6
176
     1
 41
-30.0
176
     1
 62
     5
 63
     7
421
 16777215
176
     1
 74
     2
176
     1
 91
        2
176
     1
 64
     7
176
     1
 65
   257
176
     1
 75
     1
176
     1
175
     1
176
     1
 42
40.0
176
     1
 92
        8
176
     1
 66
     7
176
     1
 43
1.0
176
     1
 76
     1
176
     1
 77
     6
176
     1
 78
     2
176
     1
 67
     7
176
     1
 79
     3
176
     1
170
     0
176
     1
171
     0
176
     1
290
     0
176
     1
 93
        1
176
     1
 44
0.0
176
     1
173
     0
176
     1
  0
VISUALSTYLE
  5
35
102
{ACAD_REACTORS
330
2A
102
}
330
2A
100
AcDbVisualStyle
  2
Dim
 70
    11
177
     2
291
     1
 71
     2
176
     1
 72
     2
176
     1
 73
     0
176
     1
 90
        0
176
     1
 40
-0.6
176
     1
 41
-30.0
176
     1
 62
     5
 63
     7
421
 16777215
176
     1
 74
     1
176
     1
 91
        4
176
     1
 64
     7
176
     1
 65
   257
176
     1
 75
     1
176
     1
175
     1
176
     1
 42
1.0
176
     1
 92
        8
176
     1
 66
     7
176
     1
 43
1.0
176
     1
 76
     1
176
     1
 77
     6
176
     1
 78
     2
176
     1
 67
     7
176
     1
 79
     5
176
     1
170
     0
176
     1
171
     0
176
     1
290
     0
176
     1
 93
        1
176
     1
 44
-50.0
176
     1
173
     0
176
     1
  0
VISUALSTYLE
  5
39
102
{ACAD_REACTORS
330
2A
102
}
330
2A
100
AcDbVisualStyle
  2
Facepattern
 70
    15
177
     2
291
     1
 71
     2
176
     1
 72
     2
176
     1
 73
     0
176
     1
 90
        0
176
     1
 40
-0.6
176
     1
 41
-30.0
176
     1
 62
     5
 63
     7
421
 16777215
176
     1
 74
     1
176
     1
 91
        4
176
     1
 64
     7
176
     1
 65
   257
176
     1
 75
     1
176
     1
175
     1
176
     1
 42
1.0
176
     1
 92
        8
176
     1
 66
     7
176
     1
 43
1.0
176
     1
 76
     1
176
     1
 77
     6
176
     1
 78
     2
176
     1
 67
     7
176
     1
 79
     5
176
     1
170
     0
176
     1
171
     0
176
     1
290
     0
176
     1
 93
        1
176
     1
 44
0.0
176
     1
173
     0
176
     1
  0
VISUALSTYLE
  5
2B
102
{ACAD_REACTORS
330
2A
102
}
330
2A
100
AcDbVisualStyle
  2
Flat
 70
     0
177
     2
291
     1
 71
     2
176
     1
 72
     1
176
     1
 73
     1
176
     1
 90
        2
176
     1
 40
-0.6
176
     1
 41
30.0
176
     1
 62
     5
 63
     7
421
 16777215
176
     1
 74
     0
176
     1
 91
        4
176
     1
 64
     7
176
     1
 65
   257
176
     1
 75
     1
176
     1
175
     1
176
     1
 42
1.0
176
     1
 92
        8
176
     1
 66
     7
176
     1
 43
1.0
176
     1
 76
     1
176
     1
 77
     6
176
     1
 78
     2
176
     1
 67
     7
176
     1
 79
     5
176
     1
170
     0
176
     1
171
     0
176
     1
290
     0
176
     1
 93
       13
176
     1
 44
0.0
176
     1
173
     0
176
     1
  0
VISUALSTYLE
  5
2C
102
{ACAD_REACTORS
330
2A
102
}
330
2A
100
AcDbVisualStyle
  2
FlatWithEdges
 70
     1
177
     2
291
     1
 71
     2
176
     1
 72
     1
176
     1
 73
     1
176
     1
 90
        2
176
     1
 40
-0.6
176
     1
 41
30.0
176
     1
 62
     5
 63
     7
421
 16777215
176
     1
 74
     1
176
     1
 91
        4
176
     1
 64
     7
176
     1
 65
   257
176
     1
 75
     1
176
     1
175
     1
176
     1
 42
1.0
176
     1
 92
        0
176
     1
 66
   257
176
     1
 43
1.0
176
     1
 76
     1
176
     1
 77
     6
176
     1
 78
     2
176
     1
 67
     7
176
     1
 79
     5
176
     1
170
     0
176
     1
171
     0
176
     1
290
     0
176
     1
 93
       13
176
     1
 44
0.0
176
     1
173
     0
176
     1
  0
VISUALSTYLE
  5
2D
102
{ACAD_REACTORS
330
2A
102
}
330
2A
100
AcDbVisualStyle
  2
Gouraud
 70
     2
177
     2
291
     1
 71
     2
176
     1
 72
     2
176
     1
 73
     1
176
     1
 90
        2
176
     1
 40
-0.6
176
     1
 41
30.0
176
     1
 62
     5
 63
     7
421
 16777215
176
     1
 74
     0
176
     1
 91
        4
176
     1
 64
     7
176
     1
 65
   257
176
     1
 75
     1
176
     1
175
     1
176
     1
 42
1.0
176
     1
 92
        0
176
     1
 66
     7
176
     1
 43
1.0
176
     1
 76
     1
176
     1
 77
     6
176
     1
 78
     2
176
     1
 67
     7
176
     1
 79
     5
176
     1
170
     0
176
     1
171
     0
176
     1
290
     0
176
     1
 93
       13
176
     1
 44
0.0
176
     1
173
     0
176
     1
  0
VISUALSTYLE
  5
2E
102
{ACAD_REACTORS
330
2A
102
}
330
2A
100
AcDbVisualStyle
  2
GouraudWithEdges
 70
     3
177
     2
291
     1
 71
     2
176
     1
 72
     2
176
     1
 73
     1
176
     1
 90
        2
176
     1
 40
-0.6
176
     1
 41
30.0
176
     1
 62
     5
 63
     7
421
 16777215
176
     1
 74
     1
176
     1
 91
        4
176
     1
 64
     7
176
     1
 65
   257
176
     1
 75
     1
176
     1
175
     1
176
     1
 42
1.0
176
     1
 92
        0
176
     1
 66
   257
176
     1
 43
1.0
176
     1
 76
     1
176
     1
 77
     6
176
     1
 78
     2
176
     1
 67
     7
176
     1
 79
     5
176
     1
170
     0
176
     1
171
     0
176
     1
290
     0
176
     1
 93
       13
176
     1
 44
0.0
176
     1
173
     0
176
     1
  0
VISUALSTYLE
  5
38
102
{ACAD_REACTORS
330
2A
102
}
330
2A
100
AcDbVisualStyle
  2
Linepattern
 70
    14
177
     2
291
     1
 71
     2
176
     1
 72
     2
176
     1
 73
     0
176
     1
 90
        0
176
     1
 40
-0.6
176
     1
 41
-30.0
176
     1
 62
     5
 63
     7
421
 16777215
176
     1
 74
     1
176
     1
 91
        4
176
     1
 64
     7
176
     1
 65
   257
176
     1
 75
     7
176
     1
175
     7
176
     1
 42
1.0
176
     1
 92
        8
176
     1
 66
     7
176
     1
 43
1.0
176
     1
 76
     1
176
     1
 77
     6
176
     1
 78
     2
176
     1
 67
     7
176
     1
 79
     5
176
     1
170
     0
176
     1
171
     0
176
     1
290
     0
176
     1
 93
        1
176
     1
 44
0.0
176
     1
173
     0
176
     1
  0
VISUALSTYLE
  5
33
102
{ACAD_REACTORS
330
2A
102
}
330
2A
100
AcDbVisualStyle
  2
Realistic
 70
     8
177
     2
291
     0
 71
     2
176
     1
 72
     2
176
     1
 73
     0
176
     1
 90
        0
176
     1
 40
-0.6
176
     1
 41
-30.0
176
     1
 62
     5
 63
     7
421
 16777215
176
     1
 74
     1
176
     1
 91
        0
176
     1
 64
     7
176
     1
 65
   257
176
     1
 75
     1
176
     1
175
     1
176
     1
 42
1.0
176
     1
 92
        8
176
     1
 66
     8
424
  7895160
176
     1
 43
1.0
176
     1
 76
     1
176
     1
 77
     6
176
     1
 78
     2
176
     1
 67
     7
176
     1
 79
     5
176
     1
170
     0
176
     1
171
     0
176
     1
290
     0
176
     1
 93
       13
176
     1
 44
0.0
176
     1
173
     0
176
     1
  0
VISUALSTYLE
  5
37
102
{ACAD_REACTORS
330
2A
102
}
330
2A
100
AcDbVisualStyle
  2
Thicken
 70
    13
177
     2
291
     1
 71
     2
176
     1
 72
     2
176
     1
 73
     0
176
     1
 90
        0
176
     1
 40
-0.6
176
     1
 41
-30.0
176
     1
 62
     5
 63
     7
421
 16777215
176
     1
 74
     1
176
     1
 91
        4
176
     1
 64
     7
176
     1
 65
   257
176
     1
 75
     1
176
     1
175
     1
176
     1
 42
1.0
176
     1
 92
       12
176
     1
 66
     7
176
     1
 43
1.0
176
     1
 76
     1
176
     1
 77
     6
176
     1
 78
     2
176
     1
 67
     7
176
     1
 79
     5
176
     1
170
     0
176
     1
171
     0
176
     1
290
     0
176
     1
 93
        1
176
     1
 44
0.0
176
     1
173
     0
176
     1
  0
ENDSEC
  0
EOF
