  0
SECTION
  2
HEADER
  9
$ACADVER
  1
AC1024
  9
$ACADMAINTVER
 70
     6
  9
$DWGCODEPAGE
  3
UNDEFINED
  9
$INSBASE
 10
0.0
 20
0.0
 30
0.0
  9
$EXTMIN
 10
1.000000000000000E+20
 20
1.000000000000000E+20
 30
1.000000000000000E+20
  9
$EXTMAX
 10
-1.000000000000000E+20
 20
-1.000000000000000E+20
 30
-1.000000000000000E+20
  9
$LIMMIN
 10
0.0
 20
0.0
  9
$LIMMAX
 10
12.0
 20
9.0
  9
$ORTHOMODE
 70
     0
  9
$REGENMODE
 70
     1
  9
$FILLMODE
 70
     1
  9
$QTEXTMODE
 70
     0
  9
$MIRRTEXT
 70
     1
  9
$LTSCALE
 40
1.0
  9
$ATTMODE
 70
     1
  9
$TEXTSIZE
 40
0.2
  9
$TRACEWID
 40
0.05
  9
$TEXTSTYLE
  7
Standard
  9
$CLAYER
  8
0
  9
$CELTYPE
  6
ByLayer
  9
$CECOLOR
 62
   256
  9
$CELTSCALE
 40
1.0
  9
$DISPSILH
 70
     0
  9
$DIMSCALE
 40
1.0
  9
$DIMASZ
 40
0.18
  9
$DIMEXO
 40
0.0625
  9
$DIMDLI
 40
0.38
  9
$DIMRND
 40
0.0
  9
$DIMDLE
 40
0.0
  9
$DIMEXE
 40
0.18
  9
$DIMTP
 40
0.0
  9
$DIMTM
 40
0.0
  9
$DIMTXT
 40
0.18
  9
$DIMCEN
 40
0.09
  9
$DIMTSZ
 40
0.0
  9
$DIMTOL
 70
     0
  9
$DIMLIM
 70
     0
  9
$DIMTIH
 70
     1
  9
$DIMTOH
 70
     1
  9
$DIMSE1
 70
     0
  9
$DIMSE2
 70
     0
  9
$DIMTAD
 70
     0
  9
$DIMZIN
 70
     0
  9
$DIMBLK
  1

  9
$DIMASO
 70
     1
  9
$DIMSHO
 70
     1
  9
$DIMPOST
  1

  9
$DIMAPOST
  1

  9
$DIMALT
 70
     0
  9
$DIMALTD
 70
     2
  9
$DIMALTF
 40
25.4
  9
$DIMLFAC
 40
1.0
  9
$DIMTOFL
 70
     0
  9
$DIMTVP
 40
0.0
  9
$DIMTIX
 70
     0
  9
$DIMSOXD
 70
     0
  9
$DIMSAH
 70
     0
  9
$DIMBLK1
  1

  9
$DIMBLK2
  1

  9
$DIMSTYLE
  2
Standard
  9
$DIMCLRD
 70
     0
  9
$DIMCLRE
 70
     0
  9
$DIMCLRT
 70
     0
  9
$DIMTFAC
 40
1.0
  9
$DIMGAP
 40
0.09
  9
$DIMJUST
 70
     0
  9
$DIMSD1
 70
     0
  9
$DIMSD2
 70
     0
  9
$DIMTOLJ
 70
     1
  9
$DIMTZIN
 70
     0
  9
$DIMALTZ
 70
     0
  9
$DIMALTTZ
 70
     0
  9
$DIMUPT
 70
     0
  9
$DIMDEC
 70
     4
  9
$DIMTDEC
 70
     4
  9
$DIMALTU
 70
     2
  9
$DIMALTTD
 70
     2
  9
$DIMTXSTY
  7
Standard
  9
$DIMAUNIT
 70
     0
  9
$DIMADEC
 70
     0
  9
$DIMALTRND
 40
0.0
  9
$DIMAZIN
 70
     0
  9
$DIMDSEP
 70
    46
  9
$DIMATFIT
 70
     3
  9
$DIMFRAC
 70
     0
  9
$DIMLDRBLK
  1

  9
$DIMLUNIT
 70
     2
  9
$DIMLWD
 70
    -2
  9
$DIMLWE
 70
    -2
  9
$DIMTMOVE
 70
     0
  9
$DIMFXL
 40
1.0
  9
$DIMFXLON
 70
     0
  9
$DIMJOGANG
 40
0.7853981633974483
  9
$DIMTFILL
 70
     0
  9
$DIMTFILLCLR
 70
     0
  9
$DIMARCSYM
 70
     0
  9
$DIMLTYPE
  6

  9
$DIMLTEX1
  6

  9
$DIMLTEX2
  6

  9
$DIMTXTDIRECTION
 70
     0
  9
$LUNITS
 70
     2
  9
$LUPREC
 70
     4
  9
$SKETCHINC
 40
0.1
  9
$FILLETRAD
 40
0.5
  9
$AUNITS
 70
     0
  9
$AUPREC
 70
     0
  9
$MENU
  1
.
  9
$ELEVATION
 40
0.0
  9
$PELEVATION
 40
0.0
  9
$THICKNESS
 40
0.0
  9
$LIMCHECK
 70
     0
  9
$CHAMFERA
 40
0.5
  9
$CHAMFERB
 40
0.5
  9
$CHAMFERC
 40
1.0
  9
$CHAMFERD
 40
0.0
  9
$SKPOLY
 70
     0
  9
$TDCREATE
 40
2457917.585428229
  9
$TDUCREATE
 40
2457917.210428241
  9
$TDUPDATE
 40
2457917.585428229
  9
$TDUUPDATE
 40
2457917.210428241
  9
$TDINDWG
 40
0.0000000116
  9
$TDUSRTIMER
 40
0.0000000116
  9
$USRTIMER
 70
     1
  9
$ANGBASE
 50
0.0
  9
$ANGDIR
 70
     0
  9
$PDMODE
 70
     0
  9
$PDSIZE
 40
0.0
  9
$PLINEWID
 40
0.0
  9
$SPLFRAME
 70
     0
  9
$SPLINETYPE
 70
     6
  9
$SPLINESEGS
 70
     8
  9
$HANDSEED
  5
12A
  9
$SURFTAB1
 70
     6
  9
$SURFTAB2
 70
     6
  9
$SURFTYPE
 70
     6
  9
$SURFU
 70
     6
  9
$SURFV
 70
     6
  9
$UCSBASE
  2

  9
$UCSNAME
  2

  9
$UCSORG
 10
0.0
 20
0.0
 30
0.0
  9
$UCSXDIR
 10
1.0
 20
0.0
 30
0.0
  9
$UCSYDIR
 10
0.0
 20
1.0
 30
0.0
  9
$UCSORTHOREF
  2

  9
$UCSORTHOVIEW
 70
     0
  9
$UCSORGTOP
 10
0.0
 20
0.0
 30
0.0
  9
$UCSORGBOTTOM
 10
0.0
 20
0.0
 30
0.0
  9
$UCSORGLEFT
 10
0.0
 20
0.0
 30
0.0
  9
$UCSORGRIGHT
 10
0.0
 20
0.0
 30
0.0
  9
$UCSORGFRONT
 10
0.0
 20
0.0
 30
0.0
  9
$UCSORGBACK
 10
0.0
 20
0.0
 30
0.0
  9
$PUCSBASE
  2

  9
$PUCSNAME
  2

  9
$PUCSORG
 10
0.0
 20
0.0
 30
0.0
  9
$PUCSXDIR
 10
1.0
 20
0.0
 30
0.0
  9
$PUCSYDIR
 10
0.0
 20
1.0
 30
0.0
  9
$PUCSORTHOREF
  2

  9
$PUCSORTHOVIEW
 70
     0
  9
$PUCSORGTOP
 10
0.0
 20
0.0
 30
0.0
  9
$PUCSORGBOTTOM
 10
0.0
 20
0.0
 30
0.0
  9
$PUCSORGLEFT
 10
0.0
 20
0.0
 30
0.0
  9
$PUCSORGRIGHT
 10
0.0
 20
0.0
 30
0.0
  9
$PUCSORGFRONT
 10
0.0
 20
0.0
 30
0.0
  9
$PUCSORGBACK
 10
0.0
 20
0.0
 30
0.0
  9
$USERI1
 70
     0
  9
$USERI2
 70
     0
  9
$USERI3
 70
     0
  9
$USERI4
 70
     0
  9
$USERI5
 70
     0
  9
$USERR1
 40
0.0
  9
$USERR2
 40
0.0
  9
$USERR3
 40
0.0
  9
$USERR4
 40
0.0
  9
$USERR5
 40
0.0
  9
$WORLDVIEW
 70
     1
  9
$SHADEDGE
 70
     3
  9
$SHADEDIF
 70
    70
  9
$TILEMODE
 70
     1
  9
$MAXACTVP
 70
    64
  9
$PINSBASE
 10
0.0
 20
0.0
 30
0.0
  9
$PLIMCHECK
 70
     0
  9
$PEXTMIN
 10
1.000000000000000E+20
 20
1.000000000000000E+20
 30
1.000000000000000E+20
  9
$PEXTMAX
 10
-1.000000000000000E+20
 20
-1.000000000000000E+20
 30
-1.000000000000000E+20
  9
$PLIMMIN
 10
0.0
 20
0.0
  9
$PLIMMAX
 10
12.0
 20
9.0
  9
$UNITMODE
 70
     0
  9
$VISRETAIN
 70
     1
  9
$PLINEGEN
 70
     0
  9
$PSLTSCALE
 70
     1
  9
$TREEDEPTH
 70
  3020
  9
$CMLSTYLE
  2
Standard
  9
$CMLJUST
 70
     0
  9
$CMLSCALE
 40
1.0
  9
$PROXYGRAPHICS
 70
     1
  9
$MEASUREMENT
 70
     0
  9
$CELWEIGHT
370
    -1
  9
$ENDCAPS
280
     0
  9
$JOINSTYLE
280
     0
  9
$LWDISPLAY
290
     1
  9
$INSUNITS
 70
     1
  9
$HYPERLINKBASE
  1

  9
$STYLESHEET
  1

  9
$XEDIT
290
     1
  9
$CEPSNTYPE
380
     0
  9
$PSTYLEMODE
290
     1
  9
$FINGERPRINTGUID
  2
{2DEF7B8B-888E-CCA4-0752-EE7721F3DB27}
  9
$VERSIONGUID
  2
{FAEB1C32-E019-11D5-929B-00C0DF256EC4}
  9
$EXTNAMES
290
     1
  9
$PSVPSCALE
 40
0.0
  9
$OLESTARTUP
290
     0
  9
$SORTENTS
280
   127
  9
$INDEXCTL
280
     0
  9
$HIDETEXT
280
     1
  9
$XCLIPFRAME
280
     2
  9
$HALOGAP
280
     0
  9
$OBSCOLOR
 70
   257
  9
$OBSLTYPE
280
     0
  9
$INTERSECTIONDISPLAY
280
     0
  9
$INTERSECTIONCOLOR
 70
   257
  9
$DIMASSOC
280
     2
  9
$PROJECTNAME
  1

  9
$CAMERADISPLAY
290
     0
  9
$LENSLENGTH
 40
50.0
  9
$CAMERAHEIGHT
 40
0.0
  9
$STEPSPERSEC
 40
2.0
  9
$STEPSIZE
 40
6.0
  9
$3DDWFPREC
 40
2.0
  9
$PSOLWIDTH
 40
0.25
  9
$PSOLHEIGHT
 40
4.0
  9
$LOFTANG1
 40
1.570796326794897
  9
$LOFTANG2
 40
1.570796326794897
  9
$LOFTMAG1
 40
0.0
  9
$LOFTMAG2
 40
0.0
  9
$LOFTPARAM
 70
     7
  9
$LOFTNORMALS
280
     1
  9
$LATITUDE
 40
37.795
  9
$LONGITUDE
 40
-122.394
  9
$NORTHDIRECTION
 40
0.0
  9
$TIMEZONE
 70
 -8000
  9
$LIGHTGLYPHDISPLAY
280
     1
  9
$TILEMODELIGHTSYNCH
280
     1
  9
$CMATERIAL
347
3C
  9
$SOLIDHIST
280
     1
  9
$SHOWHIST
280
     1
  9
$DWFFRAME
280
     2
  9
$DGNFRAME
280
     2
  9
$REALWORLDSCALE
290
     1
  9
$INTERFERECOLOR
 62
   256
  9
$CSHADOW
280
     0
  9
$SHADOWPLANELOCATION
 40
0.0
  0
ENDSEC
  0
SECTION
  2
CLASSES
  0
CLASS
  1
ACDBDICTIONARYWDFLT
  2
AcDbDictionaryWithDefault
  3
ObjectDBX Classes
 90
        0
 91
        4
280
     0
281
     0
  0
CLASS
  1
VISUALSTYLE
  2
AcDbVisualStyle
  3
ObjectDBX Classes
 90
     4095
 91
        4
280
     0
281
     0
  0
CLASS
  1
MATERIAL
  2
AcDbMaterial
  3
ObjectDBX Classes
 90
     1153
 91
        4
280
     0
281
     0
  0
CLASS
  1
SUN
  2
AcDbSun
  3
SCENEOE
 90
     1024
 91
        4
280
     0
281
     0
  0
ENDSEC
  0
SECTION
  2
TABLES
  0
TABLE
  2
VPORT
  5
8
330
0
100
AcDbSymbolTable
 70
     1
  0
VPORT
  5
29
330
8
100
AcDbSymbolTableRecord
100
AcDbViewportTableRecord
  2
*Active
 70
     0
 10
0.0
 20
0.0
 11
1.0
 21
1.0
 12
0.0
 22
0.0
 13
0.0
 23
0.0
 14
0.5
 24
0.5
 15
0.5
 25
0.5
 16
0.0
 26
0.0
 36
1.0
 17
91.00082462281999
 27
-128.4993055234307
 37
0.0
 40
256.9986110468615
 41
0.7081814508812795
 42
50.0
 43
0.0
 44
0.0
 50
0.0
 51
0.0
 71
     0
 72
   100
 73
     1
 74
     3
 75
     0
 76
     0
 77
     0
 78
     0
281
     0
 65
     1
110
0.0
120
0.0
130
0.0
111
1.0
121
0.0
131
0.0
112
0.0
122
1.0
132
0.0
 79
     0
146
0.0
 60
     3
 61
     5
292
     1
282
     1
141
0.0
142
0.0
 63
   250
361
3F
  0
ENDTAB
  0
TABLE
  2
LTYPE
  5
5
330
0
100
AcDbSymbolTable
 70
     2
  0
LTYPE
  5
14
330
5
100
AcDbSymbolTableRecord
100
AcDbLinetypeTableRecord
  2
ByBlock
 70
     0
  3

 72
    65
 73
     0
 40
0.0
  0
LTYPE
  5
15
330
5
100
AcDbSymbolTableRecord
100
AcDbLinetypeTableRecord
  2
ByLayer
 70
     0
  3

 72
    65
 73
     0
 40
0.0
  0
LTYPE
  5
16
330
5
100
AcDbSymbolTableRecord
100
AcDbLinetypeTableRecord
  2
Continuous
 70
     0
  3
Solid line
 72
    65
 73
     0
 40
0.0
  0
LTYPE
  5
F1
330
5
100
AcDbSymbolTableRecord
100
AcDbLinetypeTableRecord
  2
AI-Linetype-1
 70
     0
  3
Adobe Illustrator Linetype No. 1
 72
    65
 73
     2
 40
1.411111110758333
 49
0.7055555553791667
 74
     0
 49
-0.7055555553791667
 74
     0
  0
ENDTAB
  0
TABLE
  2
LAYER
  5
2
330
0
100
AcDbSymbolTable
 70
     2
  0
LAYER
  5
10
330
2
100
AcDbSymbolTableRecord
100
AcDbLayerTableRecord
  2
0
 70
     0
 62
     7
  6
Continuous
370
    -3
390
F
347
3E
  0
LAYER
  5
40
330
2
100
AcDbSymbolTableRecord
100
AcDbLayerTableRecord
  2
_U+30EC_U+30A4_U+30E4_U+30FC 1
 70
     0
 62
     7
  6
Continuous
370
    -3
390
F
347
3E
  0
ENDTAB
  0
TABLE
  2
STYLE
  5
3
330
0
100
AcDbSymbolTable
 70
     1
  0
STYLE
  5
11
330
3
100
AcDbSymbolTableRecord
100
AcDbTextStyleTableRecord
  2
Standard
 70
     0
 40
0.0
 41
1.0
 50
0.0
 71
     0
 42
0.2
  3
txt
  4

  0
ENDTAB
  0
TABLE
  2
VIEW
  5
6
330
0
100
AcDbSymbolTable
 70
     0
  0
ENDTAB
  0
TABLE
  2
UCS
  5
7
330
0
100
AcDbSymbolTable
 70
     0
  0
ENDTAB
  0
TABLE
  2
APPID
  5
9
330
0
100
AcDbSymbolTable
 70
     1
  0
APPID
  5
12
330
9
100
AcDbSymbolTableRecord
100
AcDbRegAppTableRecord
  2
ACAD
 70
     0
  0
ENDTAB
  0
TABLE
  2
DIMSTYLE
  5
A
330
0
100
AcDbSymbolTable
 70
     1
100
AcDbDimStyleTable
  0
DIMSTYLE
105
27
330
A
100
AcDbSymbolTableRecord
100
AcDbDimStyleTableRecord
  2
Standard
 70
     0
178
     0
340
11
  0
ENDTAB
  0
TABLE
  2
BLOCK_RECORD
  5
1
330
0
100
AcDbSymbolTable
 70
    17
  0
BLOCK_RECORD
  5
1F
330
1
100
AcDbSymbolTableRecord
100
AcDbBlockTableRecord
  2
*Model_Space
340
22
 70
     0
280
     1
281
     0
  0
BLOCK_RECORD
  5
1B
330
1
100
AcDbSymbolTableRecord
100
AcDbBlockTableRecord
  2
*Paper_Space
340
1E
 70
     0
280
     1
281
     0
  0
BLOCK_RECORD
  5
23
330
1
100
AcDbSymbolTableRecord
100
AcDbBlockTableRecord
  2
*Paper_Space0
340
26
 70
     0
280
     1
281
     0
  0
BLOCK_RECORD
  5
41
330
1
100
AcDbSymbolTableRecord
100
AcDbBlockTableRecord
  2
block 2
340
0
102
{BLKREFS
331
42
102
}
 70
     0
280
     1
281
     0
  0
BLOCK_RECORD
  5
54
330
1
100
AcDbSymbolTableRecord
100
AcDbBlockTableRecord
  2
block 3
340
0
102
{BLKREFS
331
55
102
}
 70
     0
280
     1
281
     0
  0
BLOCK_RECORD
  5
5A
330
1
100
AcDbSymbolTableRecord
100
AcDbBlockTableRecord
  2
block 4
340
0
102
{BLKREFS
331
5B
102
}
 70
     0
280
     1
281
     0
  0
BLOCK_RECORD
  5
60
330
1
100
AcDbSymbolTableRecord
100
AcDbBlockTableRecord
  2
block 5
340
0
102
{BLKREFS
331
61
102
}
 70
     0
280
     1
281
     0
  0
BLOCK_RECORD
  5
66
330
1
100
AcDbSymbolTableRecord
100
AcDbBlockTableRecord
  2
block 6
340
0
102
{BLKREFS
331
67
102
}
 70
     0
280
     1
281
     0
  0
BLOCK_RECORD
  5
6C
330
1
100
AcDbSymbolTableRecord
100
AcDbBlockTableRecord
  2
block 7
340
0
102
{BLKREFS
331
6D
102
}
 70
     0
280
     1
281
     0
  0
BLOCK_RECORD
  5
72
330
1
100
AcDbSymbolTableRecord
100
AcDbBlockTableRecord
  2
block 8
340
0
102
{BLKREFS
331
73
102
}
 70
     0
280
     1
281
     0
  0
BLOCK_RECORD
  5
78
330
1
100
AcDbSymbolTableRecord
100
AcDbBlockTableRecord
  2
block 9
340
0
102
{BLKREFS
331
79
102
}
 70
     0
280
     1
281
     0
  0
BLOCK_RECORD
  5
7E
330
1
100
AcDbSymbolTableRecord
100
AcDbBlockTableRecord
  2
block 10
340
0
102
{BLKREFS
331
7F
102
}
 70
     0
280
     1
281
     0
  0
BLOCK_RECORD
  5
84
330
1
100
AcDbSymbolTableRecord
100
AcDbBlockTableRecord
  2
block 11
340
0
102
{BLKREFS
331
85
102
}
 70
     0
280
     1
281
     0
  0
BLOCK_RECORD
  5
8A
330
1
100
AcDbSymbolTableRecord
100
AcDbBlockTableRecord
  2
block 12
340
0
102
{BLKREFS
331
8B
102
}
 70
     0
280
     1
281
     0
  0
BLOCK_RECORD
  5
90
330
1
100
AcDbSymbolTableRecord
100
AcDbBlockTableRecord
  2
block 13
340
0
102
{BLKREFS
331
91
102
}
 70
     0
280
     1
281
     0
  0
BLOCK_RECORD
  5
A5
330
1
100
AcDbSymbolTableRecord
100
AcDbBlockTableRecord
  2
block 14
340
0
102
{BLKREFS
331
A6
102
}
 70
     0
280
     1
281
     0
  0
BLOCK_RECORD
  5
D2
330
1
100
AcDbSymbolTableRecord
100
AcDbBlockTableRecord
  2
block 15
340
0
102
{BLKREFS
331
D3
102
}
 70
     0
280
     1
281
     0
  0
BLOCK_RECORD
  5
E6
330
1
100
AcDbSymbolTableRecord
100
AcDbBlockTableRecord
  2
block 16
340
0
102
{BLKREFS
331
E7
102
}
 70
     0
280
     1
281
     0
  0
BLOCK_RECORD
  5
FF
330
1
100
AcDbSymbolTableRecord
100
AcDbBlockTableRecord
  2
block 17
340
0
102
{BLKREFS
331
100
102
}
 70
     0
280
     1
281
     0
  0
ENDTAB
  0
ENDSEC
  0
SECTION
  2
BLOCKS
  0
BLOCK
  5
20
330
1F
100
AcDbEntity
  8
0
100
AcDbBlockBegin
  2
*Model_Space
 70
     0
 10
0.0
 20
0.0
 30
0.0
  3
*Model_Space
  1

  0
ENDBLK
  5
21
330
1F
100
AcDbEntity
  8
0
100
AcDbBlockEnd
  0
BLOCK
  5
1C
330
1B
100
AcDbEntity
 67
     1
  8
0
100
AcDbBlockBegin
  2
*Paper_Space
 70
     0
 10
0.0
 20
0.0
 30
0.0
  3
*Paper_Space
  1

  0
ENDBLK
  5
1D
330
1B
100
AcDbEntity
 67
     1
  8
0
100
AcDbBlockEnd
  0
BLOCK
  5
24
330
23
100
AcDbEntity
  8
0
100
AcDbBlockBegin
  2
*Paper_Space0
 70
     0
 10
0.0
 20
0.0
 30
0.0
  3
*Paper_Space0
  1

  0
ENDBLK
  5
25
330
23
100
AcDbEntity
  8
0
100
AcDbBlockEnd
  0
BLOCK
  5
43
330
41
100
AcDbEntity
  8
0
100
AcDbBlockBegin
  2
block 2
 70
     0
 10
0.0
 20
0.0
 30
0.0
  3
block 2
  1

  0
POLYLINE
  5
45
330
41
100
AcDbEntity
  8
_U+30EC_U+30A4_U+30E4_U+30FC 1
 62
     7
420
 16777215
370
     9
100
AcDb2dPolyline
 66
     1
 10
0.0
 20
0.0
 30
0.0
  0
VERTEX
  5
46
330
45
100
AcDbEntity
  8
_U+30EC_U+30A4_U+30E4_U+30FC 1
 62
     7
420
 16777215
370
     9
100
AcDbVertex
100
AcDb2dVertex
 10
119.2519739020731
 20
-131.4014671893719
 30
0.0
  0
VERTEX
  5
127
330
45
100
AcDbEntity
  8
0
100
AcDbVertex
100
AcDb2dVertex
 10
119.2519739020731
 20
-131.4014671893719
 30
0.0
  0
SEQEND
  5
47
330
45
100
AcDbEntity
  8
_U+30EC_U+30A4_U+30E4_U+30FC 1
 62
     7
420
 16777215
370
     9
  0
POLYLINE
  5
48
330
41
100
AcDbEntity
  8
_U+30EC_U+30A4_U+30E4_U+30FC 1
 62
     7
420
 16777215
370
     9
100
AcDb2dPolyline
 66
     1
 10
0.0
 20
0.0
 30
0.0
  0
VERTEX
  5
49
330
48
100
AcDbEntity
  8
_U+30EC_U+30A4_U+30E4_U+30FC 1
 62
     7
420
 16777215
370
     9
100
AcDbVertex
100
AcDb2dVertex
 10
118.9656947427101
 20
-131.6116169115415
 30
0.0
  0
VERTEX
  5
4A
330
48
100
AcDbEntity
  8
_U+30EC_U+30A4_U+30E4_U+30FC 1
 62
     7
420
 16777215
370
     9
100
AcDbVertex
100
AcDb2dVertex
 10
109.98330247187
 20
-135.4067296883703
 30
0.0
  0
VERTEX
  5
4B
330
48
100
AcDbEntity
  8
_U+30EC_U+30A4_U+30E4_U+30FC 1
 62
     7
420
 16777215
370
     9
100
AcDbVertex
100
AcDb2dVertex
 10
109.9757177498413
 20
-135.1669466328751
 30
0.0
  0
VERTEX
  5
4C
330
48
100
AcDbEntity
  8
_U+30EC_U+30A4_U+30E4_U+30FC 1
 62
     7
420
 16777215
370
     9
100
AcDbVertex
100
AcDb2dVertex
 10
118.97292668697
 20
-131.4014671893719
 30
0.0
  0
SEQEND
  5
4D
330
48
100
AcDbEntity
  8
_U+30EC_U+30A4_U+30E4_U+30FC 1
 62
     7
420
 16777215
370
     9
  0
POLYLINE
  5
4E
330
41
100
AcDbEntity
  8
_U+30EC_U+30A4_U+30E4_U+30FC 1
 62
     7
420
 16777215
370
     9
100
AcDb2dPolyline
 66
     1
 10
0.0
 20
0.0
 30
0.0
  0
VERTEX
  5
4F
330
4E
100
AcDbEntity
  8
_U+30EC_U+30A4_U+30E4_U+30FC 1
 62
     7
420
 16777215
370
     9
100
AcDbVertex
100
AcDb2dVertex
 10
113.650956544967
 20
-126.1767930240115
 30
0.0
  0
VERTEX
  5
50
330
4E
100
AcDbEntity
  8
_U+30EC_U+30A4_U+30E4_U+30FC 1
 62
     7
420
 16777215
370
     9
100
AcDbVertex
100
AcDb2dVertex
 10
104.1886453974818
 20
-130.1460721896856
 30
0.0
  0
VERTEX
  5
51
330
4E
100
AcDbEntity
  8
_U+30EC_U+30A4_U+30E4_U+30FC 1
 62
     7
420
 16777215
370
     9
100
AcDbVertex
100
AcDb2dVertex
 10
104.1796848421548
 20
-132.6947505223816
 30
0.0
  0
VERTEX
  5
52
330
4E
100
AcDbEntity
  8
_U+30EC_U+30A4_U+30E4_U+30FC 1
 62
     7
420
 16777215
370
     9
100
AcDbVertex
100
AcDb2dVertex
 10
113.9930451473507
 20
-128.5583958011936
 30
0.0
  0
SEQEND
  5
53
330
4E
100
AcDbEntity
  8
_U+30EC_U+30A4_U+30E4_U+30FC 1
 62
     7
420
 16777215
370
     9
  0
INSERT
  5
55
330
41
100
AcDbEntity
  8
_U+30EC_U+30A4_U+30E4_U+30FC 1
100
AcDbBlockReference
  2
block 3
 10
0.0
 20
0.0
 30
0.0
  0
INSERT
  5
5B
330
41
100
AcDbEntity
  8
_U+30EC_U+30A4_U+30E4_U+30FC 1
100
AcDbBlockReference
  2
block 4
 10
0.0
 20
0.0
 30
0.0
  0
INSERT
  5
61
330
41
100
AcDbEntity
  8
_U+30EC_U+30A4_U+30E4_U+30FC 1
100
AcDbBlockReference
  2
block 5
 10
0.0
 20
0.0
 30
0.0
  0
INSERT
  5
67
330
41
100
AcDbEntity
  8
_U+30EC_U+30A4_U+30E4_U+30FC 1
100
AcDbBlockReference
  2
block 6
 10
0.0
 20
0.0
 30
0.0
  0
INSERT
  5
6D
330
41
100
AcDbEntity
  8
_U+30EC_U+30A4_U+30E4_U+30FC 1
100
AcDbBlockReference
  2
block 7
 10
0.0
 20
0.0
 30
0.0
  0
INSERT
  5
73
330
41
100
AcDbEntity
  8
_U+30EC_U+30A4_U+30E4_U+30FC 1
100
AcDbBlockReference
  2
block 8
 10
0.0
 20
0.0
 30
0.0
  0
INSERT
  5
79
330
41
100
AcDbEntity
  8
_U+30EC_U+30A4_U+30E4_U+30FC 1
100
AcDbBlockReference
  2
block 9
 10
0.0
 20
0.0
 30
0.0
  0
INSERT
  5
7F
330
41
100
AcDbEntity
  8
_U+30EC_U+30A4_U+30E4_U+30FC 1
100
AcDbBlockReference
  2
block 10
 10
0.0
 20
0.0
 30
0.0
  0
INSERT
  5
85
330
41
100
AcDbEntity
  8
_U+30EC_U+30A4_U+30E4_U+30FC 1
100
AcDbBlockReference
  2
block 11
 10
0.0
 20
0.0
 30
0.0
  0
INSERT
  5
8B
330
41
100
AcDbEntity
  8
_U+30EC_U+30A4_U+30E4_U+30FC 1
100
AcDbBlockReference
  2
block 12
 10
0.0
 20
0.0
 30
0.0
  0
INSERT
  5
91
330
41
100
AcDbEntity
  8
_U+30EC_U+30A4_U+30E4_U+30FC 1
100
AcDbBlockReference
  2
block 13
 10
0.0
 20
0.0
 30
0.0
  0
POLYLINE
  5
96
330
41
100
AcDbEntity
  8
_U+30EC_U+30A4_U+30E4_U+30FC 1
 62
     7
420
 16777215
370
     9
100
AcDb2dPolyline
 66
     1
 10
0.0
 20
0.0
 30
0.0
  0
VERTEX
  5
97
330
96
100
AcDbEntity
  8
_U+30EC_U+30A4_U+30E4_U+30FC 1
 62
     7
420
 16777215
370
     9
100
AcDbVertex
100
AcDb2dVertex
 10
118.9656947427101
 20
-131.6116169115415
 30
0.0
  0
VERTEX
  5
98
330
96
100
AcDbEntity
  8
_U+30EC_U+30A4_U+30E4_U+30FC 1
 62
     7
420
 16777215
370
     9
100
AcDbVertex
100
AcDb2dVertex
 10
118.97292668697
 20
-131.4014671893719
 30
0.0
  0
SEQEND
  5
99
330
96
100
AcDbEntity
  8
_U+30EC_U+30A4_U+30E4_U+30FC 1
 62
     7
420
 16777215
370
     9
  0
POLYLINE
  5
9A
330
41
100
AcDbEntity
  8
_U+30EC_U+30A4_U+30E4_U+30FC 1
 62
     7
420
 16777215
370
     9
100
AcDb2dPolyline
 66
     1
 10
0.0
 20
0.0
 30
0.0
  0
VERTEX
  5
9B
330
9A
100
AcDbEntity
  8
_U+30EC_U+30A4_U+30E4_U+30FC 1
 62
     7
420
 16777215
370
     9
100
AcDbVertex
100
AcDb2dVertex
 10
109.9757177498413
 20
-135.1669466328751
 30
0.0
  0
VERTEX
  5
9C
330
9A
100
AcDbEntity
  8
_U+30EC_U+30A4_U+30E4_U+30FC 1
 62
     7
420
 16777215
370
     9
100
AcDbVertex
100
AcDb2dVertex
 10
104.1796848421548
 20
-132.6947505223816
 30
0.0
  0
VERTEX
  5
9D
330
9A
100
AcDbEntity
  8
_U+30EC_U+30A4_U+30E4_U+30FC 1
 62
     7
420
 16777215
370
     9
100
AcDbVertex
100
AcDb2dVertex
 10
103.8524129060598
 20
-133.2128752444747
 30
0.0
  0
VERTEX
  5
9E
330
9A
100
AcDbEntity
  8
_U+30EC_U+30A4_U+30E4_U+30FC 1
 62
     7
420
 16777215
370
     9
100
AcDbVertex
100
AcDb2dVertex
 10
109.98330247187
 20
-135.4067296883703
 30
0.0
  0
SEQEND
  5
9F
330
9A
100
AcDbEntity
  8
_U+30EC_U+30A4_U+30E4_U+30FC 1
 62
     7
420
 16777215
370
     9
  0
POLYLINE
  5
A0
330
41
100
AcDbEntity
  8
_U+30EC_U+30A4_U+30E4_U+30FC 1
 62
     7
420
 16777215
370
     9
100
AcDb2dPolyline
 66
     1
 10
0.0
 20
0.0
 30
0.0
  0
VERTEX
  5
A1
330
A0
100
AcDbEntity
  8
_U+30EC_U+30A4_U+30E4_U+30FC 1
 62
     7
420
 16777215
370
     9
100
AcDbVertex
100
AcDb2dVertex
 10
104.1886453974818
 20
-130.1460721896856
 30
0.0
  0
VERTEX
  5
A2
330
A0
100
AcDbEntity
  8
_U+30EC_U+30A4_U+30E4_U+30FC 1
 62
     7
420
 16777215
370
     9
100
AcDbVertex
100
AcDb2dVertex
 10
104.0418898456703
 20
-130.234266634108
 30
0.0
  0
VERTEX
  5
A3
330
A0
100
AcDbEntity
  8
_U+30EC_U+30A4_U+30E4_U+30FC 1
 62
     7
420
 16777215
370
     9
100
AcDbVertex
100
AcDb2dVertex
 10
103.8524129060598
 20
-133.2128752444747
 30
0.0
  0
SEQEND
  5
A4
330
A0
100
AcDbEntity
  8
_U+30EC_U+30A4_U+30E4_U+30FC 1
 62
     7
420
 16777215
370
     9
  0
ENDBLK
  5
44
330
41
100
AcDbEntity
  8
0
100
AcDbBlockEnd
  0
BLOCK
  5
56
330
54
100
AcDbEntity
  8
0
100
AcDbBlockBegin
  2
block 3
 70
     0
 10
0.0
 20
0.0
 30
0.0
  3
block 3
  1

  0
SPLINE
  5
58
330
54
100
AcDbEntity
  8
_U+30EC_U+30A4_U+30E4_U+30FC 1
 62
     7
420
 16777215
370
     9
100
AcDbSpline
210
0.0
220
0.0
230
1.0
 70
    11
 71
     3
 72
    17
 73
    13
 74
     0
 42
0.0000000001
 43
0.0000000001
 12
1.0
 22
0.0
 32
0.0
 13
1.0
 23
0.0
 33
0.0
 40
0.0
 40
0.0
 40
0.0
 40
0.0
 40
1.0
 40
1.0
 40
1.0
 40
2.0
 40
2.0
 40
2.0
 40
3.0
 40
3.0
 40
3.0
 40
4.0
 40
4.0
 40
4.0
 40
4.0
 10
108.1215530749227
 20
-133.0303127445204
 30
0.0
 10
108.1215530749227
 20
-133.2376755222461
 30
0.0
 10
107.8307936378962
 20
-133.4065149666485
 30
0.0
 10
107.4725125359256
 20
-133.4065149666485
 30
0.0
 10
107.1128583065553
 20
-133.4065149666485
 30
0.0
 10
106.8227664413909
 20
-133.2376755222461
 30
0.0
 10
106.8227664413909
 20
-133.0303127445204
 30
0.0
 10
106.8227664413909
 20
-132.8215388556837
 30
0.0
 10
107.1128583065553
 20
-132.6526994112813
 30
0.0
 10
107.4725125359256
 20
-132.6526994112813
 30
0.0
 10
107.8307936378962
 20
-132.6526994112813
 30
0.0
 10
108.1215530749227
 20
-132.8215388556837
 30
0.0
 10
108.1215530749227
 20
-133.0303127445204
 30
0.0
  0
SPLINE
  5
59
330
54
100
AcDbEntity
  8
_U+30EC_U+30A4_U+30E4_U+30FC 1
 62
     7
420
 16777215
370
     9
100
AcDbSpline
210
0.0
220
0.0
230
1.0
 70
     8
 71
     3
 72
    11
 73
     7
 74
     0
 42
0.0000000001
 43
0.0000000001
 12
1.0
 22
0.0
 32
0.0
 13
1.0
 23
0.0
 33
0.0
 40
0.0
 40
0.0
 40
0.0
 40
0.0
 40
1.0
 40
1.0
 40
1.0
 40
2.0
 40
2.0
 40
2.0
 40
2.0
 10
106.9350583065994
 20
-133.2362996889132
 30
0.0
 10
106.9350583065994
 20
-133.2362996889132
 30
0.0
 10
106.9164642167782
 20
-132.7849910779149
 30
0.0
 10
107.6502772536126
 20
-132.822209133461
 30
0.0
 10
107.6502772536126
 20
-132.822209133461
 30
0.0
 10
108.0843702980935
 20
-132.878724133447
 30
0.0
 10
108.0085610841087
 20
-133.2177083000289
 30
0.0
  0
ENDBLK
  5
57
330
54
100
AcDbEntity
  8
0
100
AcDbBlockEnd
  0
BLOCK
  5
5C
330
5A
100
AcDbEntity
  8
0
100
AcDbBlockBegin
  2
block 4
 70
     0
 10
0.0
 20
0.0
 30
0.0
  3
block 4
  1

  0
SPLINE
  5
5E
330
5A
100
AcDbEntity
  8
_U+30EC_U+30A4_U+30E4_U+30FC 1
 62
     7
420
 16777215
370
     9
100
AcDbSpline
210
0.0
220
0.0
230
1.0
 70
    11
 71
     3
 72
    17
 73
    13
 74
     0
 42
0.0000000001
 43
0.0000000001
 12
1.0
 22
0.0
 32
0.0
 13
1.0
 23
0.0
 33
0.0
 40
0.0
 40
0.0
 40
0.0
 40
0.0
 40
1.0
 40
1.0
 40
1.0
 40
2.0
 40
2.0
 40
2.0
 40
3.0
 40
3.0
 40
3.0
 40
4.0
 40
4.0
 40
4.0
 40
4.0
 10
113.0721540597335
 20
-133.0303127445204
 30
0.0
 10
113.0721540597335
 20
-133.2376755222461
 30
0.0
 10
112.7813946227069
 20
-133.4065149666485
 30
0.0
 10
112.4224079651988
 20
-133.4065149666485
 30
0.0
 10
112.0644796409969
 20
-133.4065149666485
 30
0.0
 10
111.7730146484328
 20
-133.2376755222461
 30
0.0
 10
111.7730146484328
 20
-133.0303127445204
 30
0.0
 10
111.7730146484328
 20
-132.8215388556837
 30
0.0
 10
112.0644796409969
 20
-132.6526994112813
 30
0.0
 10
112.4224079651988
 20
-132.6526994112813
 30
0.0
 10
112.7813946227069
 20
-132.6526994112813
 30
0.0
 10
113.0721540597335
 20
-132.8215388556837
 30
0.0
 10
113.0721540597335
 20
-133.0303127445204
 30
0.0
  0
SPLINE
  5
5F
330
5A
100
AcDbEntity
  8
_U+30EC_U+30A4_U+30E4_U+30FC 1
 62
     7
420
 16777215
370
     9
100
AcDbSpline
210
0.0
220
0.0
230
1.0
 70
     8
 71
     3
 72
    11
 73
     7
 74
     0
 42
0.0000000001
 43
0.0000000001
 12
1.0
 22
0.0
 32
0.0
 13
1.0
 23
0.0
 33
0.0
 40
0.0
 40
0.0
 40
0.0
 40
0.0
 40
1.0
 40
1.0
 40
1.0
 40
2.0
 40
2.0
 40
2.0
 40
2.0
 10
111.8860093677723
 20
-133.2362996889132
 30
0.0
 10
111.8860093677723
 20
-133.2362996889132
 30
0.0
 10
111.8674179793577
 20
-132.7849910779149
 30
0.0
 10
112.6008782384234
 20
-132.822209133461
 30
0.0
 10
112.6008782384234
 20
-132.822209133461
 30
0.0
 10
113.0349712829043
 20
-132.878724133447
 30
0.0
 10
112.959159340394
 20
-133.2177083000289
 30
0.0
  0
ENDBLK
  5
5D
330
5A
100
AcDbEntity
  8
0
100
AcDbBlockEnd
  0
BLOCK
  5
62
330
60
100
AcDbEntity
  8
0
100
AcDbBlockBegin
  2
block 5
 70
     0
 10
0.0
 20
0.0
 30
0.0
  3
block 5
  1

  0
SPLINE
  5
64
330
60
100
AcDbEntity
  8
_U+30EC_U+30A4_U+30E4_U+30FC 1
 62
     7
420
 16777215
370
     9
100
AcDbSpline
210
0.0
220
0.0
230
1.0
 70
    11
 71
     3
 72
    17
 73
    13
 74
     0
 42
0.0000000001
 43
0.0000000001
 12
1.0
 22
0.0
 32
0.0
 13
1.0
 23
0.0
 33
0.0
 40
0.0
 40
0.0
 40
0.0
 40
0.0
 40
1.0
 40
1.0
 40
1.0
 40
2.0
 40
2.0
 40
2.0
 40
3.0
 40
3.0
 40
3.0
 40
4.0
 40
4.0
 40
4.0
 40
4.0
 10
110.4490777501658
 20
-134.1899285775637
 30
0.0
 10
110.4490777501658
 20
-134.3979969108449
 30
0.0
 10
110.1583155229606
 20
-134.5661307996917
 30
0.0
 10
109.7993288654524
 20
-134.5661307996917
 30
0.0
 10
109.4403422079443
 20
-134.5661307996917
 30
0.0
 10
109.1495827709177
 20
-134.3979969108449
 30
0.0
 10
109.1495827709177
 20
-134.1899285775637
 30
0.0
 10
109.1495827709177
 20
-133.9811546887269
 30
0.0
 10
109.4403422079443
 20
-133.8130207998801
 30
0.0
 10
109.7993288654524
 20
-133.8130207998801
 30
0.0
 10
110.1583155229606
 20
-133.8130207998801
 30
0.0
 10
110.4490777501658
 20
-133.9811546887269
 30
0.0
 10
110.4490777501658
 20
-134.1899285775637
 30
0.0
  0
SPLINE
  5
65
330
60
100
AcDbEntity
  8
_U+30EC_U+30A4_U+30E4_U+30FC 1
 62
     7
420
 16777215
370
     9
100
AcDbSpline
210
0.0
220
0.0
230
1.0
 70
     8
 71
     3
 72
    11
 73
     7
 74
     0
 42
0.0000000001
 43
0.0000000001
 12
1.0
 22
0.0
 32
0.0
 13
1.0
 23
0.0
 33
0.0
 40
0.0
 40
0.0
 40
0.0
 40
0.0
 40
1.0
 40
1.0
 40
1.0
 40
2.0
 40
2.0
 40
2.0
 40
2.0
 10
109.2625774902572
 20
-134.396621077512
 30
0.0
 10
109.2625774902572
 20
-134.396621077512
 30
0.0
 10
109.2432833060222
 20
-133.9453124665137
 30
0.0
 10
109.9784721947276
 20
-133.9818249665043
 30
0.0
 10
109.9784721947276
 20
-133.9818249665043
 30
0.0
 10
110.4111866276204
 20
-134.0383399664902
 30
0.0
 10
110.3360802406476
 20
-134.3780296886277
 30
0.0
  0
ENDBLK
  5
63
330
60
100
AcDbEntity
  8
0
100
AcDbBlockEnd
  0
BLOCK
  5
68
330
66
100
AcDbEntity
  8
0
100
AcDbBlockBegin
  2
block 6
 70
     0
 10
0.0
 20
0.0
 30
0.0
  3
block 6
  1

  0
SPLINE
  5
6A
330
66
100
AcDbEntity
  8
_U+30EC_U+30A4_U+30E4_U+30FC 1
 62
     7
420
 16777215
370
     9
100
AcDbSpline
210
0.0
220
0.0
230
1.0
 70
    11
 71
     3
 72
    17
 73
    13
 74
     0
 42
0.0000000001
 43
0.0000000001
 12
1.0
 22
0.0
 32
0.0
 13
1.0
 23
0.0
 33
0.0
 40
0.0
 40
0.0
 40
0.0
 40
0.0
 40
1.0
 40
1.0
 40
1.0
 40
2.0
 40
2.0
 40
2.0
 40
3.0
 40
3.0
 40
3.0
 40
4.0
 40
4.0
 40
4.0
 40
4.0
 10
110.4490777501658
 20
-133.1556899667108
 30
0.0
 10
110.4490777501658
 20
-133.3624177444373
 30
0.0
 10
110.1583155229606
 20
-133.5318921888395
 30
0.0
 10
109.7993288654524
 20
-133.5318921888395
 30
0.0
 10
109.4403422079443
 20
-133.5318921888395
 30
0.0
 10
109.1495827709177
 20
-133.3624177444373
 30
0.0
 10
109.1495827709177
 20
-133.1556899667108
 30
0.0
 10
109.1495827709177
 20
-132.9469160778747
 30
0.0
 10
109.4403422079443
 20
-132.7781119112498
 30
0.0
 10
109.7993288654524
 20
-132.7781119112498
 30
0.0
 10
110.1583155229606
 20
-132.7781119112498
 30
0.0
 10
110.4490777501658
 20
-132.9469160778747
 30
0.0
 10
110.4490777501658
 20
-133.1556899667108
 30
0.0
  0
SPLINE
  5
6B
330
66
100
AcDbEntity
  8
_U+30EC_U+30A4_U+30E4_U+30FC 1
 62
     7
420
 16777215
370
     9
100
AcDbSpline
210
0.0
220
0.0
230
1.0
 70
     8
 71
     3
 72
    11
 73
     7
 74
     0
 42
0.0000000001
 43
0.0000000001
 12
1.0
 22
0.0
 32
0.0
 13
1.0
 23
0.0
 33
0.0
 40
0.0
 40
0.0
 40
0.0
 40
0.0
 40
1.0
 40
1.0
 40
1.0
 40
2.0
 40
2.0
 40
2.0
 40
2.0
 10
109.2625774902572
 20
-133.3617121888817
 30
0.0
 10
109.2625774902572
 20
-133.3617121888817
 30
0.0
 10
109.2432833060222
 20
-132.909733300106
 30
0.0
 10
109.9784721947276
 20
-132.9476216334295
 30
0.0
 10
109.9784721947276
 20
-132.9476216334295
 30
0.0
 10
110.4111866276204
 20
-133.00343107786
 30
0.0
 10
110.3360802406476
 20
-133.3431207999975
 30
0.0
  0
ENDBLK
  5
69
330
66
100
AcDbEntity
  8
0
100
AcDbBlockEnd
  0
BLOCK
  5
6E
330
6C
100
AcDbEntity
  8
0
100
AcDbBlockBegin
  2
block 7
 70
     0
 10
0.0
 20
0.0
 30
0.0
  3
block 7
  1

  0
SPLINE
  5
70
330
6C
100
AcDbEntity
  8
_U+30EC_U+30A4_U+30E4_U+30FC 1
 62
     7
420
 16777215
370
     9
100
AcDbSpline
210
0.0
220
0.0
230
1.0
 70
    11
 71
     3
 72
    17
 73
    13
 74
     0
 42
0.0000000001
 43
0.0000000001
 12
1.0
 22
0.0
 32
0.0
 13
1.0
 23
0.0
 33
0.0
 40
0.0
 40
0.0
 40
0.0
 40
0.0
 40
1.0
 40
1.0
 40
1.0
 40
2.0
 40
2.0
 40
2.0
 40
3.0
 40
3.0
 40
3.0
 40
4.0
 40
4.0
 40
4.0
 40
4.0
 10
110.4490777501658
 20
-131.9884894114475
 30
0.0
 10
110.4490777501658
 20
-132.1958874669508
 30
0.0
 10
110.1583155229606
 20
-132.3646916335756
 30
0.0
 10
109.7993288654524
 20
-132.3646916335756
 30
0.0
 10
109.4403422079443
 20
-132.3646916335756
 30
0.0
 10
109.1495827709177
 20
-132.1958874669508
 30
0.0
 10
109.1495827709177
 20
-131.9884894114475
 30
0.0
 10
109.1495827709177
 20
-131.7797155226108
 30
0.0
 10
109.4403422079443
 20
-131.610911355986
 30
0.0
 10
109.7993288654524
 20
-131.610911355986
 30
0.0
 10
110.1583155229606
 20
-131.610911355986
 30
0.0
 10
110.4490777501658
 20
-131.7797155226108
 30
0.0
 10
110.4490777501658
 20
-131.9884894114475
 30
0.0
  0
SPLINE
  5
71
330
6C
100
AcDbEntity
  8
_U+30EC_U+30A4_U+30E4_U+30FC 1
 62
     7
420
 16777215
370
     9
100
AcDbSpline
210
0.0
220
0.0
230
1.0
 70
     8
 71
     3
 72
    11
 73
     7
 74
     0
 42
0.0000000001
 43
0.0000000001
 12
1.0
 22
0.0
 32
0.0
 13
1.0
 23
0.0
 33
0.0
 40
0.0
 40
0.0
 40
0.0
 40
0.0
 40
1.0
 40
1.0
 40
1.0
 40
2.0
 40
2.0
 40
2.0
 40
2.0
 10
109.2625774902572
 20
-132.1952171891734
 30
0.0
 10
109.2625774902572
 20
-132.1952171891734
 30
0.0
 10
109.2432833060222
 20
-131.7432030226196
 30
0.0
 10
109.9784721947276
 20
-131.7804210781663
 30
0.0
 10
109.9784721947276
 20
-131.7804210781663
 30
0.0
 10
110.4111866276204
 20
-131.8369008003741
 30
0.0
 10
110.3360802406476
 20
-132.1759202447336
 30
0.0
  0
ENDBLK
  5
6F
330
6C
100
AcDbEntity
  8
0
100
AcDbBlockEnd
  0
BLOCK
  5
74
330
72
100
AcDbEntity
  8
0
100
AcDbBlockBegin
  2
block 8
 70
     0
 10
0.0
 20
0.0
 30
0.0
  3
block 8
  1

  0
SPLINE
  5
76
330
72
100
AcDbEntity
  8
_U+30EC_U+30A4_U+30E4_U+30FC 1
 62
     7
420
 16777215
370
     9
100
AcDbSpline
210
0.0
220
0.0
230
1.0
 70
    11
 71
     3
 72
    17
 73
    13
 74
     0
 42
0.0000000001
 43
0.0000000001
 12
1.0
 22
0.0
 32
0.0
 13
1.0
 23
0.0
 33
0.0
 40
0.0
 40
0.0
 40
0.0
 40
0.0
 40
1.0
 40
1.0
 40
1.0
 40
2.0
 40
2.0
 40
2.0
 40
3.0
 40
3.0
 40
3.0
 40
4.0
 40
4.0
 40
4.0
 40
4.0
 10
117.2242072871391
 20
-131.4641558004674
 30
0.0
 10
117.2242072871391
 20
-131.6715538559712
 30
0.0
 10
116.9341181278732
 20
-131.8403580225954
 30
0.0
 10
116.5751314703651
 20
-131.8403580225954
 30
0.0
 10
116.2161448128569
 20
-131.8403580225954
 30
0.0
 10
115.9247150980697
 20
-131.6715538559712
 30
0.0
 10
115.9247150980697
 20
-131.4641558004674
 30
0.0
 10
115.9247150980697
 20
-131.2553819116306
 30
0.0
 10
116.2161448128569
 20
-131.0865777450064
 30
0.0
 10
116.5751314703651
 20
-131.0865777450064
 30
0.0
 10
116.9341181278732
 20
-131.0865777450064
 30
0.0
 10
117.2242072871391
 20
-131.2553819116306
 30
0.0
 10
117.2242072871391
 20
-131.4641558004674
 30
0.0
  0
SPLINE
  5
77
330
72
100
AcDbEntity
  8
_U+30EC_U+30A4_U+30E4_U+30FC 1
 62
     7
420
 16777215
370
     9
100
AcDbSpline
210
0.0
220
0.0
230
1.0
 70
     8
 71
     3
 72
    11
 73
     7
 74
     0
 42
0.0000000001
 43
0.0000000001
 12
1.0
 22
0.0
 32
0.0
 13
1.0
 23
0.0
 33
0.0
 40
0.0
 40
0.0
 40
0.0
 40
0.0
 40
1.0
 40
1.0
 40
1.0
 40
2.0
 40
2.0
 40
2.0
 40
2.0
 10
116.0377098174092
 20
-131.6701780226383
 30
0.0
 10
116.0377098174092
 20
-131.6701780226383
 30
0.0
 10
116.0197916376617
 20
-131.21886941164
 30
0.0
 10
116.7536017435897
 20
-131.2560874671861
 30
0.0
 10
116.7536017435897
 20
-131.2560874671861
 30
0.0
 10
117.1869892325331
 20
-131.3125671893939
 30
0.0
 10
117.1112125677996
 20
-131.6515513559759
 30
0.0
  0
ENDBLK
  5
75
330
72
100
AcDbEntity
  8
0
100
AcDbBlockEnd
  0
BLOCK
  5
7A
330
78
100
AcDbEntity
  8
0
100
AcDbBlockBegin
  2
block 9
 70
     0
 10
0.0
 20
0.0
 30
0.0
  3
block 9
  1

  0
SPLINE
  5
7C
330
78
100
AcDbEntity
  8
_U+30EC_U+30A4_U+30E4_U+30FC 1
 62
     7
420
 16777215
370
     9
100
AcDbSpline
210
0.0
220
0.0
230
1.0
 70
    11
 71
     3
 72
    17
 73
    13
 74
     0
 42
0.0000000001
 43
0.0000000001
 12
1.0
 22
0.0
 32
0.0
 13
1.0
 23
0.0
 33
0.0
 40
0.0
 40
0.0
 40
0.0
 40
0.0
 40
1.0
 40
1.0
 40
1.0
 40
2.0
 40
2.0
 40
2.0
 40
3.0
 40
3.0
 40
3.0
 40
4.0
 40
4.0
 40
4.0
 40
4.0
 10
112.7317940684168
 20
-131.1382596894375
 30
0.0
 10
112.7317940684168
 20
-131.3470335782743
 30
0.0
 10
112.4417049091509
 20
-131.5151321893436
 30
0.0
 10
112.0827182516427
 20
-131.5151321893436
 30
0.0
 10
111.7237668719115
 20
-131.5151321893436
 30
0.0
 10
111.4333277499194
 20
-131.3470335782743
 30
0.0
 10
111.4333277499194
 20
-131.1382596894375
 30
0.0
 10
111.4333277499194
 20
-130.9308616339337
 30
0.0
 10
111.7237668719115
 20
-130.7620574673095
 30
0.0
 10
112.0827182516427
 20
-130.7620574673095
 30
0.0
 10
112.4417049091509
 20
-130.7620574673095
 30
0.0
 10
112.7317940684168
 20
-130.9308616339337
 30
0.0
 10
112.7317940684168
 20
-131.1382596894375
 30
0.0
  0
SPLINE
  5
7D
330
78
100
AcDbEntity
  8
_U+30EC_U+30A4_U+30E4_U+30FC 1
 62
     7
420
 16777215
370
     9
100
AcDbSpline
210
0.0
220
0.0
230
1.0
 70
     8
 71
     3
 72
    11
 73
     7
 74
     0
 42
0.0000000001
 43
0.0000000001
 12
1.0
 22
0.0
 32
0.0
 13
1.0
 23
0.0
 33
0.0
 40
0.0
 40
0.0
 40
0.0
 40
0.0
 40
1.0
 40
1.0
 40
1.0
 40
2.0
 40
2.0
 40
2.0
 40
2.0
 10
111.5456493764556
 20
-131.3456577449414
 30
0.0
 10
111.5456493764556
 20
-131.3456577449414
 30
0.0
 10
111.5277282658017
 20
-130.8943491339431
 30
0.0
 10
112.2611885248674
 20
-130.9315319117117
 30
0.0
 10
112.2611885248674
 20
-130.9315319117117
 30
0.0
 10
112.6952815693483
 20
-130.9873413561421
 30
0.0
 10
112.6187993490773
 20
-131.3270310782796
 30
0.0
  0
ENDBLK
  5
7B
330
78
100
AcDbEntity
  8
0
100
AcDbBlockEnd
  0
BLOCK
  5
80
330
7E
100
AcDbEntity
  8
0
100
AcDbBlockBegin
  2
block 10
 70
     0
 10
0.0
 20
0.0
 30
0.0
  3
block 10
  1

  0
SPLINE
  5
82
330
7E
100
AcDbEntity
  8
_U+30EC_U+30A4_U+30E4_U+30FC 1
 62
     7
420
 16777215
370
     9
100
AcDbSpline
210
0.0
220
0.0
230
1.0
 70
    11
 71
     3
 72
    17
 73
    13
 74
     0
 42
0.0000000001
 43
0.0000000001
 12
1.0
 22
0.0
 32
0.0
 13
1.0
 23
0.0
 33
0.0
 40
0.0
 40
0.0
 40
0.0
 40
0.0
 40
1.0
 40
1.0
 40
1.0
 40
2.0
 40
2.0
 40
2.0
 40
3.0
 40
3.0
 40
3.0
 40
4.0
 40
4.0
 40
4.0
 40
4.0
 10
114.889100680046
 20
-132.4391277446679
 30
0.0
 10
114.889100680046
 20
-132.6465258001718
 30
0.0
 10
114.5976709652587
 20
-132.815329966796
 30
0.0
 10
114.2393545855113
 20
-132.815329966796
 30
0.0
 10
113.8803679280031
 20
-132.815329966796
 30
0.0
 10
113.5896084909765
 20
-132.6465258001718
 30
0.0
 10
113.5896084909765
 20
-132.4391277446679
 30
0.0
 10
113.5896084909765
 20
-132.2303538558311
 30
0.0
 10
113.8803679280031
 20
-132.0622199669843
 30
0.0
 10
114.2393545855113
 20
-132.0622199669843
 30
0.0
 10
114.5976709652587
 20
-132.0622199669843
 30
0.0
 10
114.889100680046
 20
-132.2303538558311
 30
0.0
 10
114.889100680046
 20
-132.4391277446679
 30
0.0
  0
SPLINE
  5
83
330
7E
100
AcDbEntity
  8
_U+30EC_U+30A4_U+30E4_U+30FC 1
 62
     7
420
 16777215
370
     9
100
AcDbSpline
210
0.0
220
0.0
230
1.0
 70
     8
 71
     3
 72
    11
 73
     7
 74
     0
 42
0.0000000001
 43
0.0000000001
 12
1.0
 22
0.0
 32
0.0
 13
1.0
 23
0.0
 33
0.0
 40
0.0
 40
0.0
 40
0.0
 40
0.0
 40
1.0
 40
1.0
 40
1.0
 40
2.0
 40
2.0
 40
2.0
 40
2.0
 10
113.7019329325554
 20
-132.6451499668389
 30
0.0
 10
113.7019329325554
 20
-132.6451499668389
 30
0.0
 10
113.6840118219014
 20
-132.1938413558405
 30
0.0
 10
114.4178277491736
 20
-132.2310241336091
 30
0.0
 10
114.4178277491736
 20
-132.2310241336091
 30
0.0
 10
114.8512123476792
 20
-132.2875391335951
 30
0.0
 10
114.7754356829458
 20
-132.6265233001764
 30
0.0
  0
ENDBLK
  5
81
330
7E
100
AcDbEntity
  8
0
100
AcDbBlockEnd
  0
BLOCK
  5
86
330
84
100
AcDbEntity
  8
0
100
AcDbBlockBegin
  2
block 11
 70
     0
 10
0.0
 20
0.0
 30
0.0
  3
block 11
  1

  0
SPLINE
  5
88
330
84
100
AcDbEntity
  8
_U+30EC_U+30A4_U+30E4_U+30FC 1
 62
     7
420
 16777215
370
     9
100
AcDbSpline
210
0.0
220
0.0
230
1.0
 70
    11
 71
     3
 72
    17
 73
    13
 74
     0
 42
0.0000000001
 43
0.0000000001
 12
1.0
 22
0.0
 32
0.0
 13
1.0
 23
0.0
 33
0.0
 40
0.0
 40
0.0
 40
0.0
 40
0.0
 40
1.0
 40
1.0
 40
1.0
 40
2.0
 40
2.0
 40
2.0
 40
3.0
 40
3.0
 40
3.0
 40
4.0
 40
4.0
 40
4.0
 40
4.0
 10
114.889100680046
 20
-131.4048891338156
 30
0.0
 10
114.889100680046
 20
-131.6136630226524
 30
0.0
 10
114.5976709652587
 20
-131.7817969114992
 30
0.0
 10
114.2393545855113
 20
-131.7817969114992
 30
0.0
 10
113.8803679280031
 20
-131.7817969114992
 30
0.0
 10
113.5896084909765
 20
-131.6136630226524
 30
0.0
 10
113.5896084909765
 20
-131.4048891338156
 30
0.0
 10
113.5896084909765
 20
-131.1968208005344
 30
0.0
 10
113.8803679280031
 20
-131.0280166339095
 30
0.0
 10
114.2393545855113
 20
-131.0280166339095
 30
0.0
 10
114.5976709652587
 20
-131.0280166339095
 30
0.0
 10
114.889100680046
 20
-131.1968208005344
 30
0.0
 10
114.889100680046
 20
-131.4048891338156
 30
0.0
  0
SPLINE
  5
89
330
84
100
AcDbEntity
  8
_U+30EC_U+30A4_U+30E4_U+30FC 1
 62
     7
420
 16777215
370
     9
100
AcDbSpline
210
0.0
220
0.0
230
1.0
 70
     8
 71
     3
 72
    11
 73
     7
 74
     0
 42
0.0000000001
 43
0.0000000001
 12
1.0
 22
0.0
 32
0.0
 13
1.0
 23
0.0
 33
0.0
 40
0.0
 40
0.0
 40
0.0
 40
0.0
 40
1.0
 40
1.0
 40
1.0
 40
2.0
 40
2.0
 40
2.0
 40
2.0
 10
113.7019329325554
 20
-131.6116169115415
 30
0.0
 10
113.7019329325554
 20
-131.6116169115415
 30
0.0
 10
113.6840118219014
 20
-131.1603083005431
 30
0.0
 10
114.4178277491736
 20
-131.1974910783118
 30
0.0
 10
114.4178277491736
 20
-131.1974910783118
 30
0.0
 10
114.8512123476792
 20
-131.2540060782977
 30
0.0
 10
114.7754356829458
 20
-131.5936958004352
 30
0.0
  0
ENDBLK
  5
87
330
84
100
AcDbEntity
  8
0
100
AcDbBlockEnd
  0
BLOCK
  5
8C
330
8A
100
AcDbEntity
  8
0
100
AcDbBlockBegin
  2
block 12
 70
     0
 10
0.0
 20
0.0
 30
0.0
  3
block 12
  1

  0
SPLINE
  5
8E
330
8A
100
AcDbEntity
  8
_U+30EC_U+30A4_U+30E4_U+30FC 1
 62
     7
420
 16777215
370
     9
100
AcDbSpline
210
0.0
220
0.0
230
1.0
 70
    11
 71
     3
 72
    17
 73
    13
 74
     0
 42
0.0000000001
 43
0.0000000001
 12
1.0
 22
0.0
 32
0.0
 13
1.0
 23
0.0
 33
0.0
 40
0.0
 40
0.0
 40
0.0
 40
0.0
 40
1.0
 40
1.0
 40
1.0
 40
2.0
 40
2.0
 40
2.0
 40
3.0
 40
3.0
 40
3.0
 40
4.0
 40
4.0
 40
4.0
 40
4.0
 10
112.8440860828999
 20
-132.0870202447563
 30
0.0
 10
112.8440860828999
 20
-132.295123855815
 30
0.0
 10
112.5526535174315
 20
-132.4632224668844
 30
0.0
 10
112.1943724154609
 20
-132.4632224668844
 30
0.0
 10
111.8364088134822
 20
-132.4632224668844
 30
0.0
 10
111.5449438209181
 20
-132.295123855815
 30
0.0
 10
111.5449438209181
 20
-132.0870202447563
 30
0.0
 10
111.5449438209181
 20
-131.8782463559195
 30
0.0
 10
111.8364088134822
 20
-131.7101477448502
 30
0.0
 10
112.1943724154609
 20
-131.7101477448502
 30
0.0
 10
112.5526535174315
 20
-131.7101477448502
 30
0.0
 10
112.8440860828999
 20
-131.8782463559195
 30
0.0
 10
112.8440860828999
 20
-132.0870202447563
 30
0.0
  0
SPLINE
  5
8F
330
8A
100
AcDbEntity
  8
_U+30EC_U+30A4_U+30E4_U+30FC 1
 62
     7
420
 16777215
370
     9
100
AcDbSpline
210
0.0
220
0.0
230
1.0
 70
     8
 71
     3
 72
    11
 73
     7
 74
     0
 42
0.0000000001
 43
0.0000000001
 12
1.0
 22
0.0
 32
0.0
 13
1.0
 23
0.0
 33
0.0
 40
0.0
 40
0.0
 40
0.0
 40
0.0
 40
1.0
 40
1.0
 40
1.0
 40
2.0
 40
2.0
 40
2.0
 40
2.0
 10
111.6579385402576
 20
-132.2937480224822
 30
0.0
 10
111.6579385402576
 20
-132.2937480224822
 30
0.0
 10
111.6393499720904
 20
-131.8417338559283
 30
0.0
 10
112.3728074109086
 20
-131.8789519114744
 30
0.0
 10
112.3728074109086
 20
-131.8789519114744
 30
0.0
 10
112.8075707331502
 20
-131.9354316336829
 30
0.0
 10
112.7310885128792
 20
-132.2751213558203
 30
0.0
  0
ENDBLK
  5
8D
330
8A
100
AcDbEntity
  8
0
100
AcDbBlockEnd
  0
BLOCK
  5
92
330
90
100
AcDbEntity
  8
0
100
AcDbBlockBegin
  2
block 13
 70
     0
 10
0.0
 20
0.0
 30
0.0
  3
block 13
  1

  0
SPLINE
  5
94
330
90
100
AcDbEntity
  8
_U+30EC_U+30A4_U+30E4_U+30FC 1
 62
     7
420
 16777215
370
     9
100
AcDbSpline
210
0.0
220
0.0
230
1.0
 70
    11
 71
     3
 72
    17
 73
    13
 74
     0
 42
0.0000000001
 43
0.0000000001
 12
1.0
 22
0.0
 32
0.0
 13
1.0
 23
0.0
 33
0.0
 40
0.0
 40
0.0
 40
0.0
 40
0.0
 40
1.0
 40
1.0
 40
1.0
 40
2.0
 40
2.0
 40
2.0
 40
3.0
 40
3.0
 40
3.0
 40
4.0
 40
4.0
 40
4.0
 40
4.0
 10
114.889100680046
 20
-130.2376885785518
 30
0.0
 10
114.889100680046
 20
-130.4457921896105
 30
0.0
 10
114.5976709652587
 20
-130.6138908006798
 30
0.0
 10
114.2393545855113
 20
-130.6138908006798
 30
0.0
 10
113.8803679280031
 20
-130.6138908006798
 30
0.0
 10
113.5896084909765
 20
-130.4457921896105
 30
0.0
 10
113.5896084909765
 20
-130.2376885785518
 30
0.0
 10
113.5896084909765
 20
-130.0296202452705
 30
0.0
 10
113.8803679280031
 20
-129.8614863564237
 30
0.0
 10
114.2393545855113
 20
-129.8614863564237
 30
0.0
 10
114.5976709652587
 20
-129.8614863564237
 30
0.0
 10
114.889100680046
 20
-130.0296202452705
 30
0.0
 10
114.889100680046
 20
-130.2376885785518
 30
0.0
  0
SPLINE
  5
95
330
90
100
AcDbEntity
  8
_U+30EC_U+30A4_U+30E4_U+30FC 1
 62
     7
420
 16777215
370
     9
100
AcDbSpline
210
0.0
220
0.0
230
1.0
 70
     8
 71
     3
 72
    11
 73
     7
 74
     0
 42
0.0000000001
 43
0.0000000001
 12
1.0
 22
0.0
 32
0.0
 13
1.0
 23
0.0
 33
0.0
 40
0.0
 40
0.0
 40
0.0
 40
0.0
 40
1.0
 40
1.0
 40
1.0
 40
2.0
 40
2.0
 40
2.0
 40
2.0
 10
113.7019329325554
 20
-130.4444163562776
 30
0.0
 10
113.7019329325554
 20
-130.4444163562776
 30
0.0
 10
113.6840118219014
 20
-129.9931077452793
 30
0.0
 10
114.4178277491736
 20
-130.0302905230479
 30
0.0
 10
114.4178277491736
 20
-130.0302905230479
 30
0.0
 10
114.8512123476792
 20
-130.0868055230339
 30
0.0
 10
114.7754356829458
 20
-130.4257896896158
 30
0.0
  0
ENDBLK
  5
93
330
90
100
AcDbEntity
  8
0
100
AcDbBlockEnd
  0
BLOCK
  5
A7
330
A5
100
AcDbEntity
  8
0
100
AcDbBlockBegin
  2
block 14
 70
     0
 10
0.0
 20
0.0
 30
0.0
  3
block 14
  1

  0
POLYLINE
  5
A9
330
A5
100
AcDbEntity
  8
_U+30EC_U+30A4_U+30E4_U+30FC 1
 62
   179
420
  2234388
370
    25
100
AcDb2dPolyline
 66
     1
 10
0.0
 20
0.0
 30
0.0
  0
VERTEX
  5
AA
330
A9
100
AcDbEntity
  8
_U+30EC_U+30A4_U+30E4_U+30FC 1
 62
   179
420
  2234388
370
    25
100
AcDbVertex
100
AcDb2dVertex
 10
94.76493053186432
 20
-132.1593749669602
 30
0.0
  0
VERTEX
  5
AB
330
A9
100
AcDbEntity
  8
_U+30EC_U+30A4_U+30E4_U+30FC 1
 62
   179
420
  2234388
370
    25
100
AcDbVertex
100
AcDb2dVertex
 10
94.76493053186432
 20
-132.6596138557239
 30
0.0
  0
SEQEND
  5
AC
330
A9
100
AcDbEntity
  8
_U+30EC_U+30A4_U+30E4_U+30FC 1
 62
   179
420
  2234388
370
    25
  0
POLYLINE
  5
AD
330
A5
100
AcDbEntity
  8
_U+30EC_U+30A4_U+30E4_U+30FC 1
 62
   179
420
  2234388
370
    25
100
AcDb2dPolyline
 66
     1
 10
0.0
 20
0.0
 30
0.0
  0
VERTEX
  5
AE
330
AD
100
AcDbEntity
  8
_U+30EC_U+30A4_U+30E4_U+30FC 1
 62
   179
420
  2234388
370
    25
100
AcDbVertex
100
AcDb2dVertex
 10
70.76517430574111
 20
-132.1593749669602
 30
0.0
  0
VERTEX
  5
AF
330
AD
100
AcDbEntity
  8
_U+30EC_U+30A4_U+30E4_U+30FC 1
 62
   179
420
  2234388
370
    25
100
AcDbVertex
100
AcDb2dVertex
 10
94.76493053186432
 20
-132.1593749669602
 30
0.0
  0
SEQEND
  5
B0
330
AD
100
AcDbEntity
  8
_U+30EC_U+30A4_U+30E4_U+30FC 1
 62
   179
420
  2234388
370
    25
  0
POLYLINE
  5
B1
330
A5
100
AcDbEntity
  8
_U+30EC_U+30A4_U+30E4_U+30FC 1
 62
   179
420
  2234388
370
    25
100
AcDb2dPolyline
 66
     1
 10
0.0
 20
0.0
 30
0.0
  0
VERTEX
  5
B2
330
B1
100
AcDbEntity
  8
_U+30EC_U+30A4_U+30E4_U+30FC 1
 62
   179
420
  2234388
370
    25
100
AcDbVertex
100
AcDb2dVertex
 10
94.76493053186432
 20
-132.6596138557239
 30
0.0
  0
VERTEX
  5
B3
330
B1
100
AcDbEntity
  8
_U+30EC_U+30A4_U+30E4_U+30FC 1
 62
   179
420
  2234388
370
    25
100
AcDbVertex
100
AcDb2dVertex
 10
70.58155347709233
 20
-133.1591471889327
 30
0.0
  0
SEQEND
  5
B4
330
B1
100
AcDbEntity
  8
_U+30EC_U+30A4_U+30E4_U+30FC 1
 62
   179
420
  2234388
370
    25
  0
POLYLINE
  5
B5
330
A5
100
AcDbEntity
  8
_U+30EC_U+30A4_U+30E4_U+30FC 1
 62
   179
420
  2234388
370
    25
100
AcDb2dPolyline
 66
     1
 10
0.0
 20
0.0
 30
0.0
  0
VERTEX
  5
B6
330
B5
100
AcDbEntity
  8
_U+30EC_U+30A4_U+30E4_U+30FC 1
 62
   179
420
  2234388
370
    25
100
AcDbVertex
100
AcDb2dVertex
 10
70.76517430574111
 20
-121.1595169141546
 30
0.0
  0
VERTEX
  5
B7
330
B5
100
AcDbEntity
  8
_U+30EC_U+30A4_U+30E4_U+30FC 1
 62
   179
420
  2234388
370
    25
100
AcDbVertex
100
AcDb2dVertex
 10
70.76517430574111
 20
-132.1593749669602
 30
0.0
  0
SEQEND
  5
B8
330
B5
100
AcDbEntity
  8
_U+30EC_U+30A4_U+30E4_U+30FC 1
 62
   179
420
  2234388
370
    25
  0
POLYLINE
  5
B9
330
A5
100
AcDbEntity
  8
_U+30EC_U+30A4_U+30E4_U+30FC 1
 62
   179
420
  2234388
370
    25
100
AcDb2dPolyline
 66
     1
 10
0.0
 20
0.0
 30
0.0
  0
VERTEX
  5
BA
330
B9
100
AcDbEntity
  8
_U+30EC_U+30A4_U+30E4_U+30FC 1
 62
   179
420
  2234388
370
    25
100
AcDbVertex
100
AcDb2dVertex
 10
70.26976848504663
 20
-121.1278374697182
 30
0.0
  0
VERTEX
  5
BB
330
B9
100
AcDbEntity
  8
_U+30EC_U+30A4_U+30E4_U+30FC 1
 62
   179
420
  2234388
370
    25
100
AcDbVertex
100
AcDb2dVertex
 10
70.76965458340459
 20
-121.1278374697182
 30
0.0
  0
SEQEND
  5
BC
330
B9
100
AcDbEntity
  8
_U+30EC_U+30A4_U+30E4_U+30FC 1
 62
   179
420
  2234388
370
    25
  0
POLYLINE
  5
BD
330
A5
100
AcDbEntity
  8
_U+30EC_U+30A4_U+30E4_U+30FC 1
 62
   179
420
  2234388
370
    25
100
AcDb2dPolyline
 66
     1
 10
0.0
 20
0.0
 30
0.0
  0
VERTEX
  5
BE
330
BD
100
AcDbEntity
  8
_U+30EC_U+30A4_U+30E4_U+30FC 1
 62
   179
420
  2234388
370
    25
100
AcDbVertex
100
AcDb2dVertex
 10
70.26528820738315
 20
-121.1595169141546
 30
0.0
  0
VERTEX
  5
BF
330
BD
100
AcDbEntity
  8
_U+30EC_U+30A4_U+30E4_U+30FC 1
 62
   179
420
  2234388
370
    25
100
AcDbVertex
100
AcDb2dVertex
 10
69.76575488679397
 20
-132.3236988558079
 30
0.0
  0
SEQEND
  5
C0
330
BD
100
AcDbEntity
  8
_U+30EC_U+30A4_U+30E4_U+30FC 1
 62
   179
420
  2234388
370
    25
  0
SPLINE
  5
C1
330
A5
100
AcDbEntity
  8
_U+30EC_U+30A4_U+30E4_U+30FC 1
 62
   179
420
  2234388
370
    25
100
AcDbSpline
210
0.0
220
0.0
230
1.0
 70
     8
 71
     3
 72
    11
 73
     7
 74
     0
 42
0.0000000001
 43
0.0000000001
 12
1.0
 22
0.0
 32
0.0
 13
1.0
 23
0.0
 33
0.0
 40
0.0
 40
0.0
 40
0.0
 40
0.0
 40
1.0
 40
1.0
 40
1.0
 40
2.0
 40
2.0
 40
2.0
 40
2.0
 10
69.76575488679397
 20
-132.3236988558079
 30
0.0
 10
69.74614044284993
 20
-132.7650238556977
 30
0.0
 10
70.08822904523365
 20
-133.1391446889374
 30
0.0
 10
70.52920125620572
 20
-133.1584416333772
 30
0.0
 10
70.54676958909086
 20
-133.1594999667098
 30
0.0
 10
70.56433792197598
 20
-133.1598174667101
 30
0.0
 10
70.58155347709233
 20
-133.1591471889327
 30
0.0
  0
SPLINE
  5
C2
330
A5
100
AcDbEntity
  8
_U+30EC_U+30A4_U+30E4_U+30FC 1
 62
   179
420
  2234388
370
     9
100
AcDbSpline
210
0.0
220
0.0
230
1.0
 70
    11
 71
     3
 72
    17
 73
    13
 74
     0
 42
0.0000000001
 43
0.0000000001
 12
1.0
 22
0.0
 32
0.0
 13
1.0
 23
0.0
 33
0.0
 40
0.0
 40
0.0
 40
0.0
 40
0.0
 40
1.0
 40
1.0
 40
1.0
 40
2.0
 40
2.0
 40
2.0
 40
3.0
 40
3.0
 40
3.0
 40
4.0
 40
4.0
 40
4.0
 40
4.0
 10
94.86483480201866
 20
-137.1595766323769
 30
0.0
 10
94.86483480201866
 20
-137.1041199657243
 30
0.0
 10
94.82006730316077
 20
-137.0593171879576
 30
0.0
 10
94.76493053186432
 20
-137.0593171879576
 30
0.0
 10
94.70982425041775
 20
-137.0593171879576
 30
0.0
 10
94.66502147378299
 20
-137.1041199657243
 30
0.0
 10
94.66502147378299
 20
-137.1595766323769
 30
0.0
 10
94.66502147378299
 20
-137.2147157990294
 30
0.0
 10
94.70982425041775
 20
-137.2594832990186
 30
0.0
 10
94.76493053186432
 20
-137.2594832990186
 30
0.0
 10
94.82006730316077
 20
-137.2594832990186
 30
0.0
 10
94.86483480201866
 20
-137.2147157990294
 30
0.0
 10
94.86483480201866
 20
-137.1595766323769
 30
0.0
  0
SPLINE
  5
C3
330
A5
100
AcDbEntity
  8
_U+30EC_U+30A4_U+30E4_U+30FC 1
 62
   179
420
  2234388
370
     9
100
AcDbSpline
210
0.0
220
0.0
230
1.0
 70
    11
 71
     3
 72
    17
 73
    13
 74
     0
 42
0.0000000001
 43
0.0000000001
 12
1.0
 22
0.0
 32
0.0
 13
1.0
 23
0.0
 33
0.0
 40
0.0
 40
0.0
 40
0.0
 40
0.0
 40
1.0
 40
1.0
 40
1.0
 40
2.0
 40
2.0
 40
2.0
 40
3.0
 40
3.0
 40
3.0
 40
4.0
 40
4.0
 40
4.0
 40
4.0
 10
65.86523220852682
 20
-133.1594999667098
 30
0.0
 10
65.86523220852682
 20
-133.1040080222796
 30
0.0
 10
65.82042943189207
 20
-133.0595933000682
 30
0.0
 10
65.76532554440898
 20
-133.0595933000682
 30
0.0
 10
65.70986887915714
 20
-133.0595933000682
 30
0.0
 10
65.66506610252237
 20
-133.1040080222796
 30
0.0
 10
65.66506610252237
 20
-133.1594999667098
 30
0.0
 10
65.66506610252237
 20
-133.2146038555854
 30
0.0
 10
65.70986887915714
 20
-133.2594066333521
 30
0.0
 10
65.76532554440898
 20
-133.2594066333521
 30
0.0
 10
65.82042943189207
 20
-133.2594066333521
 30
0.0
 10
65.86523220852682
 20
-133.2146038555854
 30
0.0
 10
65.86523220852682
 20
-133.1594999667098
 30
0.0
  0
SPLINE
  5
C4
330
A5
100
AcDbEntity
  8
_U+30EC_U+30A4_U+30E4_U+30FC 1
 62
   179
420
  2234388
370
     9
100
AcDbSpline
210
0.0
220
0.0
230
1.0
 70
    11
 71
     3
 72
    17
 73
    13
 74
     0
 42
0.0000000001
 43
0.0000000001
 12
1.0
 22
0.0
 32
0.0
 13
1.0
 23
0.0
 33
0.0
 40
0.0
 40
0.0
 40
0.0
 40
0.0
 40
1.0
 40
1.0
 40
1.0
 40
2.0
 40
2.0
 40
2.0
 40
3.0
 40
3.0
 40
3.0
 40
4.0
 40
4.0
 40
4.0
 40
4.0
 10
69.86499127315113
 20
-137.1595766323769
 30
0.0
 10
69.86499127315113
 20
-137.1041199657243
 30
0.0
 10
69.82018849651637
 20
-137.0593171879576
 30
0.0
 10
69.7650846090333
 20
-137.0593171879576
 30
0.0
 10
69.70994720479476
 20
-137.0593171879576
 30
0.0
 10
69.66517794491547
 20
-137.1041199657243
 30
0.0
 10
69.66517794491547
 20
-137.1595766323769
 30
0.0
 10
69.66517794491547
 20
-137.2147157990294
 30
0.0
 10
69.70994720479476
 20
-137.2594832990186
 30
0.0
 10
69.7650846090333
 20
-137.2594832990186
 30
0.0
 10
69.82018849651637
 20
-137.2594832990186
 30
0.0
 10
69.86499127315113
 20
-137.2147157990294
 30
0.0
 10
69.86499127315113
 20
-137.1595766323769
 30
0.0
  0
SPLINE
  5
C5
330
A5
100
AcDbEntity
  8
_U+30EC_U+30A4_U+30E4_U+30FC 1
 62
   179
420
  2234388
370
     9
100
AcDbSpline
210
0.0
220
0.0
230
1.0
 70
    11
 71
     3
 72
    17
 73
    13
 74
     0
 42
0.0000000001
 43
0.0000000001
 12
1.0
 22
0.0
 32
0.0
 13
1.0
 23
0.0
 33
0.0
 40
0.0
 40
0.0
 40
0.0
 40
0.0
 40
1.0
 40
1.0
 40
1.0
 40
2.0
 40
2.0
 40
2.0
 40
3.0
 40
3.0
 40
3.0
 40
4.0
 40
4.0
 40
4.0
 40
4.0
 10
65.86523220852682
 20
-121.1595169141546
 30
0.0
 10
65.86523220852682
 20
-121.1040602475016
 30
0.0
 10
65.82042943189207
 20
-121.0592927475131
 30
0.0
 10
65.76532554440898
 20
-121.0592927475131
 30
0.0
 10
65.70986887915714
 20
-121.0592927475131
 30
0.0
 10
65.66506610252237
 20
-121.1040602475016
 30
0.0
 10
65.66506610252237
 20
-121.1595169141546
 30
0.0
 10
65.66506610252237
 20
-121.2146560808074
 30
0.0
 10
65.70986887915714
 20
-121.2594235807963
 30
0.0
 10
65.76532554440898
 20
-121.2594235807963
 30
0.0
 10
65.82042943189207
 20
-121.2594235807963
 30
0.0
 10
65.86523220852682
 20
-121.2146560808074
 30
0.0
 10
65.86523220852682
 20
-121.1595169141546
 30
0.0
  0
POLYLINE
  5
C6
330
A5
100
AcDbEntity
  8
_U+30EC_U+30A4_U+30E4_U+30FC 1
 62
   179
420
  2234388
370
     9
100
AcDb2dPolyline
 66
     1
 10
0.0
 20
0.0
 30
0.0
  0
VERTEX
  5
C7
330
C6
100
AcDbEntity
  8
_U+30EC_U+30A4_U+30E4_U+30FC 1
 62
   179
420
  2234388
370
     9
100
AcDbVertex
100
AcDb2dVertex
 10
69.7650846090333
 20
-137.1595766323769
 30
0.0
  0
VERTEX
  5
C8
330
C6
100
AcDbEntity
  8
_U+30EC_U+30A4_U+30E4_U+30FC 1
 62
   179
420
  2234388
370
     9
100
AcDbVertex
100
AcDb2dVertex
 10
94.76493053186432
 20
-137.1595766323769
 30
0.0
  0
SEQEND
  5
C9
330
C6
100
AcDbEntity
  8
_U+30EC_U+30A4_U+30E4_U+30FC 1
 62
   179
420
  2234388
370
     9
  0
POLYLINE
  5
CA
330
A5
100
AcDbEntity
  8
_U+30EC_U+30A4_U+30E4_U+30FC 1
 62
   179
420
  2234388
370
     9
100
AcDb2dPolyline
 66
     1
 10
0.0
 20
0.0
 30
0.0
  0
VERTEX
  5
CB
330
CA
100
AcDbEntity
  8
_U+30EC_U+30A4_U+30E4_U+30FC 1
 62
   179
420
  2234388
370
     9
100
AcDbVertex
100
AcDb2dVertex
 10
69.7650846090333
 20
-134.8996116329415
 30
0.0
  0
VERTEX
  5
CC
330
CA
100
AcDbEntity
  8
_U+30EC_U+30A4_U+30E4_U+30FC 1
 62
   179
420
  2234388
370
     9
100
AcDbVertex
100
AcDb2dVertex
 10
69.7650846090333
 20
-138.1593488543488
 30
0.0
  0
SEQEND
  5
CD
330
CA
100
AcDbEntity
  8
_U+30EC_U+30A4_U+30E4_U+30FC 1
 62
   179
420
  2234388
370
     9
  0
POLYLINE
  5
CE
330
A5
100
AcDbEntity
  8
_U+30EC_U+30A4_U+30E4_U+30FC 1
 62
   179
420
  2234388
370
     9
100
AcDb2dPolyline
 66
     1
 10
0.0
 20
0.0
 30
0.0
  0
VERTEX
  5
CF
330
CE
100
AcDbEntity
  8
_U+30EC_U+30A4_U+30E4_U+30FC 1
 62
   179
420
  2234388
370
     9
100
AcDbVertex
100
AcDb2dVertex
 10
94.76493053186432
 20
-135.1993316328671
 30
0.0
  0
VERTEX
  5
D0
330
CE
100
AcDbEntity
  8
_U+30EC_U+30A4_U+30E4_U+30FC 1
 62
   179
420
  2234388
370
     9
100
AcDbVertex
100
AcDb2dVertex
 10
94.76493053186432
 20
-138.1593488543488
 30
0.0
  0
SEQEND
  5
D1
330
CE
100
AcDbEntity
  8
_U+30EC_U+30A4_U+30E4_U+30FC 1
 62
   179
420
  2234388
370
     9
  0
INSERT
  5
D3
330
A5
100
AcDbEntity
  8
_U+30EC_U+30A4_U+30E4_U+30FC 1
100
AcDbBlockReference
  2
block 15
 10
0.0
 20
0.0
 30
0.0
  0
POLYLINE
  5
DA
330
A5
100
AcDbEntity
  8
_U+30EC_U+30A4_U+30E4_U+30FC 1
 62
   179
420
  2234388
370
     9
100
AcDb2dPolyline
 66
     1
 10
0.0
 20
0.0
 30
0.0
  0
VERTEX
  5
DB
330
DA
100
AcDbEntity
  8
_U+30EC_U+30A4_U+30E4_U+30FC 1
 62
   179
420
  2234388
370
     9
100
AcDbVertex
100
AcDb2dVertex
 10
65.76532554440898
 20
-121.1595169141546
 30
0.0
  0
VERTEX
  5
DC
330
DA
100
AcDbEntity
  8
_U+30EC_U+30A4_U+30E4_U+30FC 1
 62
   179
420
  2234388
370
     9
100
AcDbVertex
100
AcDb2dVertex
 10
65.76532554440898
 20
-133.1594999667098
 30
0.0
  0
SEQEND
  5
DD
330
DA
100
AcDbEntity
  8
_U+30EC_U+30A4_U+30E4_U+30FC 1
 62
   179
420
  2234388
370
     9
  0
POLYLINE
  5
DE
330
A5
100
AcDbEntity
  8
_U+30EC_U+30A4_U+30E4_U+30FC 1
 62
   179
420
  2234388
370
     9
100
AcDb2dPolyline
 66
     1
 10
0.0
 20
0.0
 30
0.0
  0
VERTEX
  5
DF
330
DE
100
AcDbEntity
  8
_U+30EC_U+30A4_U+30E4_U+30FC 1
 62
   179
420
  2234388
370
     9
100
AcDbVertex
100
AcDb2dVertex
 10
67.72938049430176
 20
-121.1278374697182
 30
0.0
  0
VERTEX
  5
E0
330
DE
100
AcDbEntity
  8
_U+30EC_U+30A4_U+30E4_U+30FC 1
 62
   179
420
  2234388
370
     9
100
AcDbVertex
100
AcDb2dVertex
 10
64.76968084758778
 20
-121.1278374697182
 30
0.0
  0
SEQEND
  5
E1
330
DE
100
AcDbEntity
  8
_U+30EC_U+30A4_U+30E4_U+30FC 1
 62
   179
420
  2234388
370
     9
  0
POLYLINE
  5
E2
330
A5
100
AcDbEntity
  8
_U+30EC_U+30A4_U+30E4_U+30FC 1
 62
   179
420
  2234388
370
     9
100
AcDb2dPolyline
 66
     1
 10
0.0
 20
0.0
 30
0.0
  0
VERTEX
  5
E3
330
E2
100
AcDbEntity
  8
_U+30EC_U+30A4_U+30E4_U+30FC 1
 62
   179
420
  2234388
370
     9
100
AcDbVertex
100
AcDb2dVertex
 10
68.02529048675248
 20
-133.1594999667098
 30
0.0
  0
VERTEX
  5
E4
330
E2
100
AcDbEntity
  8
_U+30EC_U+30A4_U+30E4_U+30FC 1
 62
   179
420
  2234388
370
     9
100
AcDbVertex
100
AcDb2dVertex
 10
64.7652005699243
 20
-133.1594999667098
 30
0.0
  0
SEQEND
  5
E5
330
E2
100
AcDbEntity
  8
_U+30EC_U+30A4_U+30E4_U+30FC 1
 62
   179
420
  2234388
370
     9
  0
INSERT
  5
E7
330
A5
100
AcDbEntity
  8
_U+30EC_U+30A4_U+30E4_U+30FC 1
100
AcDbBlockReference
  2
block 16
 10
0.0
 20
0.0
 30
0.0
  0
ENDBLK
  5
A8
330
A5
100
AcDbEntity
  8
0
100
AcDbBlockEnd
  0
BLOCK
  5
D4
330
D2
100
AcDbEntity
  8
0
100
AcDbBlockBegin
  2
block 15
 70
     0
 10
0.0
 20
0.0
 30
0.0
  3
block 15
  1

  0
SPLINE
  5
D6
330
D2
100
AcDbEntity
  8
_U+30EC_U+30A4_U+30E4_U+30FC 1
370
     0
100
AcDbSpline
210
0.0
220
0.0
230
1.0
 70
    11
 71
     3
 72
    44
 73
    40
 74
     0
 42
0.0000000001
 43
0.0000000001
 12
1.0
 22
0.0
 32
0.0
 13
1.0
 23
0.0
 33
0.0
 40
0.0
 40
0.0
 40
0.0
 40
0.0
 40
1.0
 40
1.0
 40
1.0
 40
2.0
 40
2.0
 40
2.0
 40
3.0
 40
3.0
 40
3.0
 40
4.0
 40
4.0
 40
4.0
 40
5.0
 40
5.0
 40
5.0
 40
6.0
 40
6.0
 40
6.0
 40
7.0
 40
7.0
 40
7.0
 40
8.0
 40
8.0
 40
8.0
 40
9.0
 40
9.0
 40
9.0
 40
10.0
 40
10.0
 40
10.0
 40
11.0
 40
11.0
 40
11.0
 40
12.0
 40
12.0
 40
12.0
 40
13.0
 40
13.0
 40
13.0
 40
13.0
 10
81.74005803078026
 20
-135.8645751613464
 30
0.0
 10
81.50716957597737
 20
-136.0233940632164
 30
0.0
 10
81.40760631645365
 20
-136.0974636161492
 30
0.0
 10
81.35592988417491
 20
-136.2411240978842
 30
0.0
 10
81.35592988417491
 20
-136.2411240978842
 30
0.0
 10
82.18757593431422
 20
-136.2411240978842
 30
0.0
 10
82.18757593431422
 20
-136.2411240978842
 30
0.0
 10
82.18757593431422
 20
-136.2411240978842
 30
0.0
 10
82.18757593431422
 20
-136.4464517888051
 30
0.0
 10
82.18757593431422
 20
-136.4464517888051
 30
0.0
 10
82.18757593431422
 20
-136.4464517888051
 30
0.0
 10
81.08893498406805
 20
-136.4464517888051
 30
0.0
 10
81.08893498406805
 20
-136.4464517888051
 30
0.0
 10
81.12304142937202
 20
-136.0888508774361
 30
0.0
 10
81.19297686772259
 20
-136.010647209921
 30
0.0
 10
81.60432126866142
 20
-135.7123019408983
 30
0.0
 10
81.87786185019026
 20
-135.5135199313994
 30
0.0
 10
81.94814179808935
 20
-135.44565155034
 30
0.0
 10
81.94814179808935
 20
-135.3081922404785
 30
0.0
 10
81.94814179808935
 20
-135.1896809557859
 30
0.0
 10
81.87131616876829
 20
-135.0587673273464
 30
0.0
 10
81.66082083461951
 20
-135.0587673273464
 30
0.0
 10
81.38280162895985
 20
-135.0587673273464
 30
0.0
 10
81.37384438069822
 20
-135.2892442153097
 30
0.0
 10
81.36936575656739
 20
-135.4056884427111
 30
0.0
 10
81.36936575656739
 20
-135.4056884427111
 30
0.0
 10
81.12958711079399
 20
-135.4056884427111
 30
0.0
 10
81.12958711079399
 20
-135.4056884427111
 30
0.0
 10
81.13888886860417
 20
-135.2785644193054
 30
0.0
 10
81.14991317415696
 20
-135.1665988160347
 30
0.0
 10
81.23604056128822
 20
-135.0480875313422
 30
0.0
 10
81.35351831733523
 20
-134.887201572181
 30
0.0
 10
81.55230032683416
 20
-134.8534396364255
 30
0.0
 10
81.67666827385167
 20
-134.8534396364255
 30
0.0
 10
81.97294648558315
 20
-134.8534396364255
 30
0.0
 10
82.19446612528472
 20
-135.0374077353379
 30
0.0
 10
82.19446612528472
 20
-135.3102592977697
 30
0.0
 10
82.19446612528472
 20
-135.5390136379903
 30
0.0
 10
82.0700981782672
 20
-135.6382323879654
 30
0.0
 10
81.74005803078026
 20
-135.8645751613464
 30
0.0
  0
HATCH
  5
D7
330
D2
100
AcDbEntity
  8
_U+30EC_U+30A4_U+30E4_U+30FC 1
 62
   179
420
  2234388
100
AcDbHatch
 10
0.0
 20
0.0
 30
0.0
210
0.0
220
0.0
230
1.0
  2
SOLID
 70
     1
 71
     0
 91
        1
 92
        1
 93
        1
 72
     4
 94
        3
 73
     0
 74
     1
 95
       44
 96
       40
 40
0.0
 40
0.0
 40
0.0
 40
0.0
 40
1.0
 40
1.0
 40
1.0
 40
2.0
 40
2.0
 40
2.0
 40
3.0
 40
3.0
 40
3.0
 40
4.0
 40
4.0
 40
4.0
 40
5.0
 40
5.0
 40
5.0
 40
6.0
 40
6.0
 40
6.0
 40
7.0
 40
7.0
 40
7.0
 40
8.0
 40
8.0
 40
8.0
 40
9.0
 40
9.0
 40
9.0
 40
10.0
 40
10.0
 40
10.0
 40
11.0
 40
11.0
 40
11.0
 40
12.0
 40
12.0
 40
12.0
 40
13.0
 40
13.0
 40
13.0
 40
13.0
 10
81.74005803078026
 20
-135.8645751613464
 10
81.50716957597737
 20
-136.0233940632164
 10
81.40760631645365
 20
-136.0974636161492
 10
81.35592988417491
 20
-136.2411240978842
 10
81.35592988417491
 20
-136.2411240978842
 10
82.18757593431422
 20
-136.2411240978842
 10
82.18757593431422
 20
-136.2411240978842
 10
82.18757593431422
 20
-136.2411240978842
 10
82.18757593431422
 20
-136.4464517888051
 10
82.18757593431422
 20
-136.4464517888051
 10
82.18757593431422
 20
-136.4464517888051
 10
81.08893498406805
 20
-136.4464517888051
 10
81.08893498406805
 20
-136.4464517888051
 10
81.12304142937202
 20
-136.0888508774361
 10
81.19297686772259
 20
-136.010647209921
 10
81.60432126866142
 20
-135.7123019408983
 10
81.87786185019026
 20
-135.5135199313994
 10
81.94814179808935
 20
-135.44565155034
 10
81.94814179808935
 20
-135.3081922404785
 10
81.94814179808935
 20
-135.1896809557859
 10
81.87131616876829
 20
-135.0587673273464
 10
81.66082083461951
 20
-135.0587673273464
 10
81.38280162895985
 20
-135.0587673273464
 10
81.37384438069822
 20
-135.2892442153097
 10
81.36936575656739
 20
-135.4056884427111
 10
81.36936575656739
 20
-135.4056884427111
 10
81.12958711079399
 20
-135.4056884427111
 10
81.12958711079399
 20
-135.4056884427111
 10
81.13888886860417
 20
-135.2785644193054
 10
81.14991317415696
 20
-135.1665988160347
 10
81.23604056128822
 20
-135.0480875313422
 10
81.35351831733523
 20
-134.887201572181
 10
81.55230032683416
 20
-134.8534396364255
 10
81.67666827385167
 20
-134.8534396364255
 10
81.97294648558315
 20
-134.8534396364255
 10
82.19446612528472
 20
-135.0374077353379
 10
82.19446612528472
 20
-135.3102592977697
 10
82.19446612528472
 20
-135.5390136379903
 10
82.0700981782672
 20
-135.6382323879654
 10
81.74005803078026
 20
-135.8645751613464
 97
        0
 97
        0
 75
     2
 76
     1
 98
        0
  0
SPLINE
  5
D8
330
D2
100
AcDbEntity
  8
_U+30EC_U+30A4_U+30E4_U+30FC 1
370
     0
100
AcDbSpline
210
0.0
220
0.0
230
1.0
 70
    11
 71
     3
 72
    53
 73
    49
 74
     0
 42
0.0000000001
 43
0.0000000001
 12
1.0
 22
0.0
 32
0.0
 13
1.0
 23
0.0
 33
0.0
 40
0.0
 40
0.0
 40
0.0
 40
0.0
 40
1.0
 40
1.0
 40
1.0
 40
2.0
 40
2.0
 40
2.0
 40
3.0
 40
3.0
 40
3.0
 40
4.0
 40
4.0
 40
4.0
 40
5.0
 40
5.0
 40
5.0
 40
6.0
 40
6.0
 40
6.0
 40
7.0
 40
7.0
 40
7.0
 40
8.0
 40
8.0
 40
8.0
 40
9.0
 40
9.0
 40
9.0
 40
10.0
 40
10.0
 40
10.0
 40
11.0
 40
11.0
 40
11.0
 40
12.0
 40
12.0
 40
12.0
 40
13.0
 40
13.0
 40
13.0
 40
14.0
 40
14.0
 40
14.0
 40
15.0
 40
15.0
 40
15.0
 40
16.0
 40
16.0
 40
16.0
 40
16.0
 10
82.8779730695583
 20
-136.4970946924382
 30
0.0
 10
82.79460175881525
 20
-136.4970946924382
 30
0.0
 10
82.68573674148135
 20
-136.4802137245605
 30
0.0
 10
82.5775607432445
 20
-136.4168239676319
 30
0.0
 10
82.39187009658954
 20
-136.3069254216524
 30
0.0
 10
82.36947697593541
 20
-136.1756672836644
 30
0.0
 10
82.34915091257244
 20
-136.0678357949761
 30
0.0
 10
82.34915091257244
 20
-136.0678357949761
 30
0.0
 10
82.58651799150616
 20
-136.0678357949761
 30
0.0
 10
82.58651799150616
 20
-136.0678357949761
 30
0.0
 10
82.6450846147554
 20
-136.266617804475
 30
0.0
 10
82.78082137687424
 20
-136.2962456256482
 30
0.0
 10
82.88038463639796
 20
-136.2962456256482
 30
0.0
 10
83.02955727090928
 20
-136.2962456256482
 30
0.0
 10
83.19216577781307
 20
-136.1966823661244
 30
0.0
 10
83.19216577781307
 20
-135.9641384208701
 30
0.0
 10
83.19216577781307
 20
-135.708167826316
 30
0.0
 10
83.00027395928466
 20
-135.6382323879654
 30
0.0
 10
82.87142738813631
 20
-135.6382323879654
 30
0.0
 10
82.83732094283233
 20
-135.6382323879654
 30
0.0
 10
82.68573674148135
 20
-135.6382323879654
 30
0.0
 10
82.59099661563698
 20
-135.7674234686623
 30
0.0
 10
82.59099661563698
 20
-135.7674234686623
 30
0.0
 10
82.40323891169086
 20
-135.7484754434934
 30
0.0
 10
82.40323891169086
 20
-135.7484754434934
 30
0.0
 10
82.40323891169086
 20
-135.7484754434934
 30
0.0
 10
82.53208548283921
 20
-134.9020154827676
 30
0.0
 10
82.53208548283921
 20
-134.9020154827676
 30
0.0
 10
82.53208548283921
 20
-134.9020154827676
 30
0.0
 10
83.36407604252705
 20
-134.9020154827676
 30
0.0
 10
83.36407604252705
 20
-134.9020154827676
 30
0.0
 10
83.36407604252705
 20
-134.9020154827676
 30
0.0
 10
83.36407604252705
 20
-135.0966633776842
 30
0.0
 10
83.36407604252705
 20
-135.0966633776842
 30
0.0
 10
83.36407604252705
 20
-135.0966633776842
 30
0.0
 10
82.70640731439285
 20
-135.0966633776842
 30
0.0
 10
82.70640731439285
 20
-135.0966633776842
 30
0.0
 10
82.70640731439285
 20
-135.0966633776842
 30
0.0
 10
82.63612736649375
 20
-135.5197211032728
 30
0.0
 10
82.63612736649375
 20
-135.5197211032728
 30
0.0
 10
82.7015841807135
 20
-135.4859591675174
 30
0.0
 10
82.7897786251359
 20
-135.44565155034
 30
0.0
 10
82.91655813899308
 20
-135.44565155034
 30
0.0
 10
83.18768715368225
 20
-135.44565155034
 30
0.0
 10
83.44090167184811
 20
-135.632031216092
 30
0.0
 10
83.44090167184811
 20
-135.9451903957012
 30
0.0
 10
83.44090167184811
 20
-136.2624836898927
 30
0.0
 10
83.20146753562325
 20
-136.4970946924382
 30
0.0
 10
82.8779730695583
 20
-136.4970946924382
 30
0.0
  0
HATCH
  5
D9
330
D2
100
AcDbEntity
  8
_U+30EC_U+30A4_U+30E4_U+30FC 1
 62
   179
420
  2234388
100
AcDbHatch
 10
0.0
 20
0.0
 30
0.0
210
0.0
220
0.0
230
1.0
  2
SOLID
 70
     1
 71
     0
 91
        1
 92
        1
 93
        1
 72
     4
 94
        3
 73
     0
 74
     1
 95
       53
 96
       49
 40
0.0
 40
0.0
 40
0.0
 40
0.0
 40
1.0
 40
1.0
 40
1.0
 40
2.0
 40
2.0
 40
2.0
 40
3.0
 40
3.0
 40
3.0
 40
4.0
 40
4.0
 40
4.0
 40
5.0
 40
5.0
 40
5.0
 40
6.0
 40
6.0
 40
6.0
 40
7.0
 40
7.0
 40
7.0
 40
8.0
 40
8.0
 40
8.0
 40
9.0
 40
9.0
 40
9.0
 40
10.0
 40
10.0
 40
10.0
 40
11.0
 40
11.0
 40
11.0
 40
12.0
 40
12.0
 40
12.0
 40
13.0
 40
13.0
 40
13.0
 40
14.0
 40
14.0
 40
14.0
 40
15.0
 40
15.0
 40
15.0
 40
16.0
 40
16.0
 40
16.0
 40
16.0
 10
82.8779730695583
 20
-136.4970946924382
 10
82.79460175881525
 20
-136.4970946924382
 10
82.68573674148135
 20
-136.4802137245605
 10
82.5775607432445
 20
-136.4168239676319
 10
82.39187009658954
 20
-136.3069254216524
 10
82.36947697593541
 20
-136.1756672836644
 10
82.34915091257244
 20
-136.0678357949761
 10
82.34915091257244
 20
-136.0678357949761
 10
82.58651799150616
 20
-136.0678357949761
 10
82.58651799150616
 20
-136.0678357949761
 10
82.6450846147554
 20
-136.266617804475
 10
82.78082137687424
 20
-136.2962456256482
 10
82.88038463639796
 20
-136.2962456256482
 10
83.02955727090928
 20
-136.2962456256482
 10
83.19216577781307
 20
-136.1966823661244
 10
83.19216577781307
 20
-135.9641384208701
 10
83.19216577781307
 20
-135.708167826316
 10
83.00027395928466
 20
-135.6382323879654
 10
82.87142738813631
 20
-135.6382323879654
 10
82.83732094283233
 20
-135.6382323879654
 10
82.68573674148135
 20
-135.6382323879654
 10
82.59099661563698
 20
-135.7674234686623
 10
82.59099661563698
 20
-135.7674234686623
 10
82.40323891169086
 20
-135.7484754434934
 10
82.40323891169086
 20
-135.7484754434934
 10
82.40323891169086
 20
-135.7484754434934
 10
82.53208548283921
 20
-134.9020154827676
 10
82.53208548283921
 20
-134.9020154827676
 10
82.53208548283921
 20
-134.9020154827676
 10
83.36407604252705
 20
-134.9020154827676
 10
83.36407604252705
 20
-134.9020154827676
 10
83.36407604252705
 20
-134.9020154827676
 10
83.36407604252705
 20
-135.0966633776842
 10
83.36407604252705
 20
-135.0966633776842
 10
83.36407604252705
 20
-135.0966633776842
 10
82.70640731439285
 20
-135.0966633776842
 10
82.70640731439285
 20
-135.0966633776842
 10
82.70640731439285
 20
-135.0966633776842
 10
82.63612736649375
 20
-135.5197211032728
 10
82.63612736649375
 20
-135.5197211032728
 10
82.7015841807135
 20
-135.4859591675174
 10
82.7897786251359
 20
-135.44565155034
 10
82.91655813899308
 20
-135.44565155034
 10
83.18768715368225
 20
-135.44565155034
 10
83.44090167184811
 20
-135.632031216092
 10
83.44090167184811
 20
-135.9451903957012
 10
83.44090167184811
 20
-136.2624836898927
 10
83.20146753562325
 20
-136.4970946924382
 10
82.8779730695583
 20
-136.4970946924382
 97
        0
 97
        0
 75
     2
 76
     1
 98
        0
  0
ENDBLK
  5
D5
330
D2
100
AcDbEntity
  8
0
100
AcDbBlockEnd
  0
BLOCK
  5
E8
330
E6
100
AcDbEntity
  8
0
100
AcDbBlockBegin
  2
block 16
 70
     0
 10
0.0
 20
0.0
 30
0.0
  3
block 16
  1

  0
SPLINE
  5
EA
330
E6
100
AcDbEntity
  8
_U+30EC_U+30A4_U+30E4_U+30FC 1
370
     0
100
AcDbSpline
210
0.0
220
0.0
230
1.0
 70
    11
 71
     3
 72
    26
 73
    22
 74
     0
 42
0.0000000001
 43
0.0000000001
 12
1.0
 22
0.0
 32
0.0
 13
1.0
 23
0.0
 33
0.0
 40
0.0
 40
0.0
 40
0.0
 40
0.0
 40
1.0
 40
1.0
 40
1.0
 40
2.0
 40
2.0
 40
2.0
 40
3.0
 40
3.0
 40
3.0
 40
4.0
 40
4.0
 40
4.0
 40
5.0
 40
5.0
 40
5.0
 40
6.0
 40
6.0
 40
6.0
 40
7.0
 40
7.0
 40
7.0
 40
7.0
 10
65.05167099068153
 20
-127.8350911138746
 30
0.0
 10
65.05167099068153
 20
-127.8350911138746
 30
0.0
 10
63.94734563288469
 20
-127.8350911138746
 30
0.0
 10
63.94734563288469
 20
-127.8350911138746
 30
0.0
 10
63.94734563288469
 20
-127.8350911138746
 30
0.0
 10
63.94734563288469
 20
-128.1875243820156
 30
0.0
 10
63.94734563288469
 20
-128.1875243820156
 30
0.0
 10
63.94734563288469
 20
-128.1875243820156
 30
0.0
 10
63.79937878179322
 20
-128.1875243820156
 30
0.0
 10
63.79937878179322
 20
-128.1875243820156
 30
0.0
 10
63.78456487120664
 20
-127.8326795470349
 30
0.0
 10
63.62161185475432
 20
-127.7830701720473
 30
0.0
 10
63.50740693941829
 20
-127.751375293583
 30
0.0
 10
63.50740693941829
 20
-127.751375293583
 30
0.0
 10
63.50740693941829
 20
-127.5953124681012
 30
0.0
 10
63.50740693941829
 20
-127.5953124681012
 30
0.0
 10
63.50740693941829
 20
-127.5953124681012
 30
0.0
 10
65.05167099068153
 20
-127.5953124681012
 30
0.0
 10
65.05167099068153
 20
-127.5953124681012
 30
0.0
 10
65.05167099068153
 20
-127.5953124681012
 30
0.0
 10
65.05167099068153
 20
-127.8350911138746
 30
0.0
 10
65.05167099068153
 20
-127.8350911138746
 30
0.0
  0
HATCH
  5
EB
330
E6
100
AcDbEntity
  8
_U+30EC_U+30A4_U+30E4_U+30FC 1
 62
   179
420
  2234388
100
AcDbHatch
 10
0.0
 20
0.0
 30
0.0
210
0.0
220
0.0
230
1.0
  2
SOLID
 70
     1
 71
     0
 91
        1
 92
        1
 93
        1
 72
     4
 94
        3
 73
     0
 74
     1
 95
       26
 96
       22
 40
0.0
 40
0.0
 40
0.0
 40
0.0
 40
1.0
 40
1.0
 40
1.0
 40
2.0
 40
2.0
 40
2.0
 40
3.0
 40
3.0
 40
3.0
 40
4.0
 40
4.0
 40
4.0
 40
5.0
 40
5.0
 40
5.0
 40
6.0
 40
6.0
 40
6.0
 40
7.0
 40
7.0
 40
7.0
 40
7.0
 10
65.05167099068153
 20
-127.8350911138746
 10
65.05167099068153
 20
-127.8350911138746
 10
63.94734563288469
 20
-127.8350911138746
 10
63.94734563288469
 20
-127.8350911138746
 10
63.94734563288469
 20
-127.8350911138746
 10
63.94734563288469
 20
-128.1875243820156
 10
63.94734563288469
 20
-128.1875243820156
 10
63.94734563288469
 20
-128.1875243820156
 10
63.79937878179322
 20
-128.1875243820156
 10
63.79937878179322
 20
-128.1875243820156
 10
63.78456487120664
 20
-127.8326795470349
 10
63.62161185475432
 20
-127.7830701720473
 10
63.50740693941829
 20
-127.751375293583
 10
63.50740693941829
 20
-127.751375293583
 10
63.50740693941829
 20
-127.5953124681012
 10
63.50740693941829
 20
-127.5953124681012
 10
63.50740693941829
 20
-127.5953124681012
 10
65.05167099068153
 20
-127.5953124681012
 10
65.05167099068153
 20
-127.5953124681012
 10
65.05167099068153
 20
-127.5953124681012
 10
65.05167099068153
 20
-127.8350911138746
 10
65.05167099068153
 20
-127.8350911138746
 97
        0
 97
        0
 75
     2
 76
     1
 98
        0
  0
SPLINE
  5
EC
330
E6
100
AcDbEntity
  8
_U+30EC_U+30A4_U+30E4_U+30FC 1
370
     0
100
AcDbSpline
210
0.0
220
0.0
230
1.0
 70
    11
 71
     3
 72
    44
 73
    40
 74
     0
 42
0.0000000001
 43
0.0000000001
 12
1.0
 22
0.0
 32
0.0
 13
1.0
 23
0.0
 33
0.0
 40
0.0
 40
0.0
 40
0.0
 40
0.0
 40
1.0
 40
1.0
 40
1.0
 40
2.0
 40
2.0
 40
2.0
 40
3.0
 40
3.0
 40
3.0
 40
4.0
 40
4.0
 40
4.0
 40
5.0
 40
5.0
 40
5.0
 40
6.0
 40
6.0
 40
6.0
 40
7.0
 40
7.0
 40
7.0
 40
8.0
 40
8.0
 40
8.0
 40
9.0
 40
9.0
 40
9.0
 40
10.0
 40
10.0
 40
10.0
 40
11.0
 40
11.0
 40
11.0
 40
12.0
 40
12.0
 40
12.0
 40
13.0
 40
13.0
 40
13.0
 40
13.0
 10
64.46996661799709
 20
-126.4257025508589
 30
0.0
 10
64.62861326509285
 20
-126.6585910056617
 30
0.0
 10
64.70268281802572
 20
-126.7581542651855
 30
0.0
 10
64.8465155545349
 20
-126.8101752070127
 30
0.0
 10
64.8465155545349
 20
-126.8101752070127
 30
0.0
 10
64.8465155545349
 20
-125.9778401377764
 30
0.0
 10
64.8465155545349
 20
-125.9778401377764
 30
0.0
 10
64.8465155545349
 20
-125.9778401377764
 30
0.0
 10
65.05167099068153
 20
-125.9778401377764
 30
0.0
 10
65.05167099068153
 20
-125.9778401377764
 30
0.0
 10
65.05167099068153
 20
-125.9778401377764
 30
0.0
 10
65.05167099068153
 20
-127.0768255975711
 30
0.0
 10
65.05167099068153
 20
-127.0768255975711
 30
0.0
 10
64.6940700793126
 20
-127.0427191522671
 30
0.0
 10
64.61586641179743
 20
-126.9727837139165
 30
0.0
 10
64.3175211427748
 20
-126.5614393129777
 30
0.0
 10
64.11873913327588
 20
-126.2878987314489
 30
0.0
 10
64.05104300699071
 20
-126.2176187835498
 30
0.0
 10
63.91358369712925
 20
-126.2176187835498
 30
0.0
 10
63.79507241243665
 20
-126.2176187835498
 30
0.0
 10
63.6639865292229
 20
-126.2944444128708
 30
0.0
 10
63.6639865292229
 20
-126.5049397470196
 30
0.0
 10
63.6639865292229
 20
-126.7829589526793
 30
0.0
 10
63.89446341718611
 20
-126.7919162009409
 30
0.0
 10
64.01090764458755
 20
-126.7963948250717
 30
0.0
 10
64.01090764458755
 20
-126.7963948250717
 30
0.0
 10
64.01090764458755
 20
-127.0361734708451
 30
0.0
 10
64.01090764458755
 20
-127.0361734708451
 30
0.0
 10
63.8839558759561
 20
-127.0272162225835
 30
0.0
 10
63.77181801791122
 20
-127.0158474074822
 30
0.0
 10
63.65330673321862
 20
-126.9297200203509
 30
0.0
 10
63.49259302883171
 20
-126.8122422643039
 30
0.0
 10
63.45865883830201
 20
-126.613460254805
 30
0.0
 10
63.45865883830201
 20
-126.4890923077875
 30
0.0
 10
63.45865883830201
 20
-126.192814096056
 30
0.0
 10
63.64279919198861
 20
-125.9712944563544
 30
0.0
 10
63.9156507544204
 20
-125.9712944563544
 30
0.0
 10
64.14406058509246
 20
-125.9712944563544
 30
0.0
 10
64.24362384461618
 20
-126.0956624033719
 30
0.0
 10
64.46996661799709
 20
-126.4257025508589
 30
0.0
  0
HATCH
  5
ED
330
E6
100
AcDbEntity
  8
_U+30EC_U+30A4_U+30E4_U+30FC 1
 62
   179
420
  2234388
100
AcDbHatch
 10
0.0
 20
0.0
 30
0.0
210
0.0
220
0.0
230
1.0
  2
SOLID
 70
     1
 71
     0
 91
        1
 92
        1
 93
        1
 72
     4
 94
        3
 73
     0
 74
     1
 95
       44
 96
       40
 40
0.0
 40
0.0
 40
0.0
 40
0.0
 40
1.0
 40
1.0
 40
1.0
 40
2.0
 40
2.0
 40
2.0
 40
3.0
 40
3.0
 40
3.0
 40
4.0
 40
4.0
 40
4.0
 40
5.0
 40
5.0
 40
5.0
 40
6.0
 40
6.0
 40
6.0
 40
7.0
 40
7.0
 40
7.0
 40
8.0
 40
8.0
 40
8.0
 40
9.0
 40
9.0
 40
9.0
 40
10.0
 40
10.0
 40
10.0
 40
11.0
 40
11.0
 40
11.0
 40
12.0
 40
12.0
 40
12.0
 40
13.0
 40
13.0
 40
13.0
 40
13.0
 10
64.46996661799709
 20
-126.4257025508589
 10
64.62861326509285
 20
-126.6585910056617
 10
64.70268281802572
 20
-126.7581542651855
 10
64.8465155545349
 20
-126.8101752070127
 10
64.8465155545349
 20
-126.8101752070127
 10
64.8465155545349
 20
-125.9778401377764
 10
64.8465155545349
 20
-125.9778401377764
 10
64.8465155545349
 20
-125.9778401377764
 10
65.05167099068153
 20
-125.9778401377764
 10
65.05167099068153
 20
-125.9778401377764
 10
65.05167099068153
 20
-125.9778401377764
 10
65.05167099068153
 20
-127.0768255975711
 10
65.05167099068153
 20
-127.0768255975711
 10
64.6940700793126
 20
-127.0427191522671
 10
64.61586641179743
 20
-126.9727837139165
 10
64.3175211427748
 20
-126.5614393129777
 10
64.11873913327588
 20
-126.2878987314489
 10
64.05104300699071
 20
-126.2176187835498
 10
63.91358369712925
 20
-126.2176187835498
 10
63.79507241243665
 20
-126.2176187835498
 10
63.6639865292229
 20
-126.2944444128708
 10
63.6639865292229
 20
-126.5049397470196
 10
63.6639865292229
 20
-126.7829589526793
 10
63.89446341718611
 20
-126.7919162009409
 10
64.01090764458755
 20
-126.7963948250717
 10
64.01090764458755
 20
-126.7963948250717
 10
64.01090764458755
 20
-127.0361734708451
 10
64.01090764458755
 20
-127.0361734708451
 10
63.8839558759561
 20
-127.0272162225835
 10
63.77181801791122
 20
-127.0158474074822
 10
63.65330673321862
 20
-126.9297200203509
 10
63.49259302883171
 20
-126.8122422643039
 10
63.45865883830201
 20
-126.613460254805
 10
63.45865883830201
 20
-126.4890923077875
 10
63.45865883830201
 20
-126.192814096056
 10
63.64279919198861
 20
-125.9712944563544
 10
63.9156507544204
 20
-125.9712944563544
 10
64.14406058509246
 20
-125.9712944563544
 10
64.24362384461618
 20
-126.0956624033719
 10
64.46996661799709
 20
-126.4257025508589
 97
        0
 97
        0
 75
     2
 76
     1
 98
        0
  0
ENDBLK
  5
E9
330
E6
100
AcDbEntity
  8
0
100
AcDbBlockEnd
  0
BLOCK
  5
101
330
FF
100
AcDbEntity
  8
0
100
AcDbBlockBegin
  2
block 17
 70
     0
 10
0.0
 20
0.0
 30
0.0
  3
block 17
  1

  0
SPLINE
  5
103
330
FF
100
AcDbEntity
  8
_U+30EC_U+30A4_U+30E4_U+30FC 1
370
     0
100
AcDbSpline
210
0.0
220
0.0
230
1.0
 70
    11
 71
     3
 72
   242
 73
   238
 74
     0
 42
0.0000000001
 43
0.0000000001
 12
1.0
 22
0.0
 32
0.0
 13
1.0
 23
0.0
 33
0.0
 40
0.0
 40
0.0
 40
0.0
 40
0.0
 40
1.0
 40
1.0
 40
1.0
 40
2.0
 40
2.0
 40
2.0
 40
3.0
 40
3.0
 40
3.0
 40
4.0
 40
4.0
 40
4.0
 40
5.0
 40
5.0
 40
5.0
 40
6.0
 40
6.0
 40
6.0
 40
7.0
 40
7.0
 40
7.0
 40
8.0
 40
8.0
 40
8.0
 40
9.0
 40
9.0
 40
9.0
 40
10.0
 40
10.0
 40
10.0
 40
11.0
 40
11.0
 40
11.0
 40
12.0
 40
12.0
 40
12.0
 40
13.0
 40
13.0
 40
13.0
 40
14.0
 40
14.0
 40
14.0
 40
15.0
 40
15.0
 40
15.0
 40
16.0
 40
16.0
 40
16.0
 40
17.0
 40
17.0
 40
17.0
 40
18.0
 40
18.0
 40
18.0
 40
19.0
 40
19.0
 40
19.0
 40
20.0
 40
20.0
 40
20.0
 40
21.0
 40
21.0
 40
21.0
 40
22.0
 40
22.0
 40
22.0
 40
23.0
 40
23.0
 40
23.0
 40
24.0
 40
24.0
 40
24.0
 40
25.0
 40
25.0
 40
25.0
 40
26.0
 40
26.0
 40
26.0
 40
27.0
 40
27.0
 40
27.0
 40
28.0
 40
28.0
 40
28.0
 40
29.0
 40
29.0
 40
29.0
 40
30.0
 40
30.0
 40
30.0
 40
31.0
 40
31.0
 40
31.0
 40
32.0
 40
32.0
 40
32.0
 40
33.0
 40
33.0
 40
33.0
 40
34.0
 40
34.0
 40
34.0
 40
35.0
 40
35.0
 40
35.0
 40
36.0
 40
36.0
 40
36.0
 40
37.0
 40
37.0
 40
37.0
 40
38.0
 40
38.0
 40
38.0
 40
39.0
 40
39.0
 40
39.0
 40
40.0
 40
40.0
 40
40.0
 40
41.0
 40
41.0
 40
41.0
 40
42.0
 40
42.0
 40
42.0
 40
43.0
 40
43.0
 40
43.0
 40
44.0
 40
44.0
 40
44.0
 40
45.0
 40
45.0
 40
45.0
 40
46.0
 40
46.0
 40
46.0
 40
47.0
 40
47.0
 40
47.0
 40
48.0
 40
48.0
 40
48.0
 40
49.0
 40
49.0
 40
49.0
 40
50.0
 40
50.0
 40
50.0
 40
51.0
 40
51.0
 40
51.0
 40
52.0
 40
52.0
 40
52.0
 40
53.0
 40
53.0
 40
53.0
 40
54.0
 40
54.0
 40
54.0
 40
55.0
 40
55.0
 40
55.0
 40
56.0
 40
56.0
 40
56.0
 40
57.0
 40
57.0
 40
57.0
 40
58.0
 40
58.0
 40
58.0
 40
59.0
 40
59.0
 40
59.0
 40
60.0
 40
60.0
 40
60.0
 40
61.0
 40
61.0
 40
61.0
 40
62.0
 40
62.0
 40
62.0
 40
63.0
 40
63.0
 40
63.0
 40
64.0
 40
64.0
 40
64.0
 40
65.0
 40
65.0
 40
65.0
 40
66.0
 40
66.0
 40
66.0
 40
67.0
 40
67.0
 40
67.0
 40
68.0
 40
68.0
 40
68.0
 40
69.0
 40
69.0
 40
69.0
 40
70.0
 40
70.0
 40
70.0
 40
71.0
 40
71.0
 40
71.0
 40
72.0
 40
72.0
 40
72.0
 40
73.0
 40
73.0
 40
73.0
 40
74.0
 40
74.0
 40
74.0
 40
75.0
 40
75.0
 40
75.0
 40
76.0
 40
76.0
 40
76.0
 40
77.0
 40
77.0
 40
77.0
 40
78.0
 40
78.0
 40
78.0
 40
79.0
 40
79.0
 40
79.0
 40
79.0
 10
85.63077661704718
 20
-119.5601440130787
 30
0.0
 10
85.63077661704718
 20
-119.5601440130787
 30
0.0
 10
85.40891246779708
 20
-119.5601440130787
 30
0.0
 10
85.40891246779708
 20
-119.5601440130787
 30
0.0
 10
85.40891246779708
 20
-119.5601440130787
 30
0.0
 10
85.16603323608697
 20
-119.5601440130787
 30
0.0
 10
85.16603323608697
 20
-119.5601440130787
 30
0.0
 10
85.16603323608697
 20
-119.5601440130787
 30
0.0
 10
85.27730982026054
 20
-119.6025186875473
 30
0.0
 10
85.27730982026054
 20
-119.6025186875473
 30
0.0
 10
85.28661157807072
 20
-119.6068250569039
 30
0.0
 10
85.29763588362351
 20
-119.6130262287773
 30
0.0
 10
85.29763588362351
 20
-119.6257730820727
 30
0.0
 10
85.29763588362351
 20
-119.646960419307
 30
0.0
 10
85.269730610193
 20
-119.6533338459547
 30
0.0
 10
85.25147160412116
 20
-119.657467960537
 30
0.0
 10
85.24216984631099
 20
-119.6807223550625
 30
0.0
 10
85.2159871206231
 20
-119.7463514240565
 30
0.0
 10
85.19945066229388
 20
-119.7907931558162
 30
0.0
 10
85.19945066229388
 20
-119.7907931558162
 30
0.0
 10
85.43647323167907
 20
-119.7907931558162
 30
0.0
 10
85.43647323167907
 20
-119.7907931558162
 30
0.0
 10
85.51605493738835
 20
-119.7907931558162
 30
0.0
 10
85.68830971165085
 20
-119.7864867864596
 30
0.0
 10
85.81233314911984
 20
-119.7780463025208
 30
0.0
 10
85.81233314911984
 20
-119.7780463025208
 30
0.0
 10
85.81233314911984
 20
-119.9558132295597
 30
0.0
 10
85.81233314911984
 20
-119.9558132295597
 30
0.0
 10
85.74033065347811
 20
-119.9515068602031
 30
0.0
 10
85.72172713785777
 20
-119.9515068602031
 30
0.0
 10
85.56428627418185
 20
-119.9473727456208
 30
0.0
 10
85.53638100075132
 20
-120.10171302336
 30
0.0
 10
85.49779593131653
 20
-120.1821560029406
 30
0.0
 10
85.4588663523332
 20
-120.2519191865169
 30
0.0
 10
85.56428627418185
 20
-120.3111748288632
 30
0.0
 10
85.65695934273506
 20
-120.3788709551483
 30
0.0
 10
85.74756535399715
 20
-120.4613809920201
 30
0.0
 10
85.74756535399715
 20
-120.4613809920201
 30
0.0
 10
85.64386797989113
 20
-120.6284681230547
 30
0.0
 10
85.64386797989113
 20
-120.6284681230547
 30
0.0
 10
85.62354191652814
 20
-120.6095200978858
 30
0.0
 10
85.61251761097535
 20
-120.601079613947
 30
0.0
 10
85.51433238964573
 20
-120.5163302650098
 30
0.0
 10
85.47161320562863
 20
-120.4782619598978
 30
0.0
 10
85.41993677334987
 20
-120.4424329668512
 30
0.0
 10
85.34965682545078
 20
-120.3979912350915
 30
0.0
 10
85.16431068834434
 20
-120.5841986460692
 30
0.0
 10
84.98482121356282
 20
-120.6074530405947
 30
0.0
 10
84.73091767629991
 20
-120.6370808617678
 30
0.0
 10
84.73091767629991
 20
-120.6370808617678
 30
0.0
 10
84.64031166503784
 20
-120.4572468774378
 30
0.0
 10
84.64031166503784
 20
-120.4572468774378
 30
0.0
 10
84.91798636114898
 20
-120.4529405080812
 30
0.0
 10
85.07163761979112
 20
-120.4276190562646
 30
0.0
 10
85.20496281507029
 20
-120.3175482555109
 30
0.0
 10
85.10126544096427
 20
-120.2667330971035
 30
0.0
 10
85.02375079254615
 20
-120.2393445879957
 30
0.0
 10
84.99205591408185
 20
-120.2265977347003
 30
0.0
 10
84.97551945575265
 20
-120.2541584985823
 30
0.0
 10
84.96242809290871
 20
-120.2731065237512
 30
0.0
 10
84.93831242451195
 20
-120.3070407142809
 30
0.0
 10
84.93831242451195
 20
-120.3070407142809
 30
0.0
 10
84.76605765024946
 20
-120.2245306774091
 30
0.0
 10
84.76605765024946
 20
-120.2245306774091
 30
0.0
 10
84.8384046554397
 20
-120.1440876978286
 30
0.0
 10
84.8921481450096
 20
-120.0488308076614
 30
0.0
 10
84.94210202954572
 20
-119.9473727456208
 30
0.0
 10
84.77535940805964
 20
-119.9515068602031
 30
0.0
 10
84.75710040198781
 20
-119.9515068602031
 30
0.0
 10
84.68475339679756
 20
-119.9558132295597
 30
0.0
 10
84.68475339679756
 20
-119.9558132295597
 30
0.0
 10
84.68475339679756
 20
-119.7780463025208
 30
0.0
 10
84.68475339679756
 20
-119.7780463025208
 30
0.0
 10
84.80705428652394
 20
-119.7844197291685
 30
0.0
 10
84.99033336633923
 20
-119.788726098525
 30
0.0
 10
85.01238197744483
 20
-119.788726098525
 30
0.0
 10
85.0271958880314
 20
-119.7547919079953
 30
0.0
 10
85.07542722482489
 20
-119.6342135660116
 30
0.0
 10
85.09196368315409
 20
-119.5601440130787
 30
0.0
 10
85.07542722482489
 20
-119.5601440130787
 30
0.0
 10
84.91970890889161
 20
-119.5665174397264
 30
0.0
 10
84.74952119192027
 20
-119.5792642930219
 30
0.0
 10
84.74952119192027
 20
-119.5792642930219
 30
0.0
 10
84.74952119192027
 20
-119.712589488301
 30
0.0
 10
84.74952119192027
 20
-119.712589488301
 30
0.0
 10
84.70680200790316
 20
-119.7379109401176
 30
0.0
 10
84.65512557562441
 20
-119.7696058185819
 30
0.0
 10
84.53833683867445
 20
-119.8352348875759
 30
0.0
 10
84.53833683867445
 20
-119.8352348875759
 30
0.0
 10
84.53833683867445
 20
-119.9811346813762
 30
0.0
 10
84.53833683867445
 20
-119.9811346813762
 30
0.0
 10
84.53833683867445
 20
-119.9811346813762
 30
0.0
 10
84.53833683867445
 20
-120.4488063934989
 30
0.0
 10
84.53833683867445
 20
-120.4488063934989
 30
0.0
 10
84.53833683867445
 20
-120.5755859073561
 30
0.0
 10
84.50698646975867
 20
-120.6348415497024
 30
0.0
 10
84.25893959482069
 20
-120.6264010657635
 30
0.0
 10
84.25893959482069
 20
-120.6264010657635
 30
0.0
 10
84.1679890740101
 20
-120.4191785723258
 30
0.0
 10
84.1679890740101
 20
-120.4191785723258
 30
0.0
 10
84.22379962087113
 20
-120.4317531708469
 30
0.0
 10
84.26617429533971
 20
-120.4360595402035
 30
0.0
 10
84.30131426928926
 20
-120.4360595402035
 30
0.0
 10
84.36814912170311
 20
-120.4360595402035
 30
0.0
 10
84.37745087951328
 20
-120.412805145678
 30
0.0
 10
84.37745087951328
 20
-120.3471760766841
 30
0.0
 10
84.37745087951328
 20
-120.3471760766841
 30
0.0
 10
84.37745087951328
 20
-119.9177449244476
 30
0.0
 10
84.37745087951328
 20
-119.9177449244476
 30
0.0
 10
84.29201251147909
 20
-119.9578802868508
 30
0.0
 10
84.2771986008925
 20
-119.9642537134985
 30
0.0
 10
84.23654647416656
 20
-119.9833739934417
 30
0.0
 10
84.23275686913279
 20
-120.0043890759017
 30
0.0
 10
84.22931177364754
 20
-120.0340168970748
 30
0.0
 10
84.21243080576981
 20
-120.0340168970748
 30
0.0
 10
84.20519610525079
 20
-120.0340168970748
 30
0.0
 10
84.19589434744061
 20
-120.0298827824925
 30
0.0
 10
84.19038219466421
 20
-120.0066283879671
 30
0.0
 10
84.19038219466421
 20
-120.0066283879671
 30
0.0
 10
84.14387340561333
 20
-119.8140475503416
 30
0.0
 10
84.14387340561333
 20
-119.8140475503416
 30
0.0
 10
84.27168644811611
 20
-119.7675387612908
 30
0.0
 10
84.32921954271978
 20
-119.7442843667653
 30
0.0
 10
84.37745087951328
 20
-119.723097029531
 30
0.0
 10
84.37745087951328
 20
-119.723097029531
 30
0.0
 10
84.37745087951328
 20
-119.3105468451724
 30
0.0
 10
84.37745087951328
 20
-119.3105468451724
 30
0.0
 10
84.37745087951328
 20
-119.3105468451724
 30
0.0
 10
84.3309420904624
 20
-119.3105468451724
 30
0.0
 10
84.3309420904624
 20
-119.3105468451724
 30
0.0
 10
84.3309420904624
 20
-119.3105468451724
 30
0.0
 10
84.26238469030594
 20
-119.3105468451724
 30
0.0
 10
84.26238469030594
 20
-119.3105468451724
 30
0.0
 10
84.20312904795964
 20
-119.3105468451724
 30
0.0
 10
84.19589434744061
 20
-119.3105468451724
 30
0.0
 10
84.16454397852485
 20
-119.3169202718201
 30
0.0
 10
84.16454397852485
 20
-119.3169202718201
 30
0.0
 10
84.16454397852485
 20
-119.1222723769035
 30
0.0
 10
84.16454397852485
 20
-119.1222723769035
 30
0.0
 10
84.18831513737307
 20
-119.1286458035512
 30
0.0
 10
84.19589434744061
 20
-119.1286458035512
 30
0.0
 10
84.25687253752953
 20
-119.1286458035512
 30
0.0
 10
84.25687253752953
 20
-119.1286458035512
 30
0.0
 10
84.3736612744795
 20
-119.1286458035512
 30
0.0
 10
84.3736612744795
 20
-119.1286458035512
 30
0.0
 10
84.3736612744795
 20
-119.0588826199749
 30
0.0
 10
84.3736612744795
 20
-118.9763725831031
 30
0.0
 10
84.37193872673689
 20
-118.9720662137466
 30
0.0
 10
84.36435951666932
 20
-118.7922322294165
 30
0.0
 10
84.36435951666932
 20
-118.7732842042477
 30
0.0
 10
84.36263696892671
 20
-118.7267754151968
 30
0.0
 10
84.36263696892671
 20
-118.7267754151968
 30
0.0
 10
84.55142820151839
 20
-118.7352158991356
 30
0.0
 10
84.55142820151839
 20
-118.7352158991356
 30
0.0
 10
84.56072995932857
 20
-118.7352158991356
 30
0.0
 10
84.57933347494892
 20
-118.7372829564268
 30
0.0
 10
84.57933347494892
 20
-118.7541639243045
 30
0.0
 10
84.57933347494892
 20
-118.7732842042477
 30
0.0
 10
84.56624211210497
 20
-118.7837917454777
 30
0.0
 10
84.54384899145084
 20
-118.8029120254208
 30
0.0
 10
84.54384899145084
 20
-118.853554929054
 30
0.0
 10
84.53833683867445
 20
-119.0821370145003
 30
0.0
 10
84.5404038959656
 20
-119.1286458035512
 30
0.0
 10
84.65305851833327
 20
-119.1286458035512
 30
0.0
 10
84.66442733343459
 20
-119.1286458035512
 30
0.0
 10
84.74952119192027
 20
-119.1202053196123
 30
0.0
 10
84.74952119192027
 20
-119.1202053196123
 30
0.0
 10
84.74952119192027
 20
-119.3148532145289
 30
0.0
 10
84.74952119192027
 20
-119.3148532145289
 30
0.0
 10
84.71610376571334
 20
-119.3126139024635
 30
0.0
 10
84.65684812336704
 20
-119.3084797878812
 30
0.0
 10
84.53833683867445
 20
-119.3105468451724
 30
0.0
 10
84.53833683867445
 20
-119.3105468451724
 30
0.0
 10
84.53833683867445
 20
-119.6490274765982
 30
0.0
 10
84.53833683867445
 20
-119.6490274765982
 30
0.0
 10
84.58656817546795
 20
-119.6257730820727
 30
0.0
 10
84.64410127007162
 20
-119.5982123181907
 30
0.0
 10
84.68647594454019
 20
-119.5749579236653
 30
0.0
 10
84.68647594454019
 20
-119.5749579236653
 30
0.0
 10
84.68647594454019
 20
-119.3973632514007
 30
0.0
 10
84.68647594454019
 20
-119.3973632514007
 30
0.0
 10
84.78672822316096
 20
-119.4099378499218
 30
0.0
 10
84.89008108771846
 20
-119.4099378499218
 30
0.0
 10
84.99205591408185
 20
-119.4099378499218
 30
0.0
 10
84.97172985071887
 20
-119.3148532145289
 30
0.0
 10
84.94761418232213
 20
-119.2323431776572
 30
0.0
 10
84.8921481450096
 20
-119.099017982378
 30
0.0
 10
84.85321856602629
 20
-119.1010850396692
 30
0.0
 10
84.78087156083603
 20
-119.1053914090257
 30
0.0
 10
84.74779864417764
 20
-119.1074584663169
 30
0.0
 10
84.74779864417764
 20
-119.1074584663169
 30
0.0
 10
84.74779864417764
 20
-118.9276244819869
 30
0.0
 10
84.74779864417764
 20
-118.9276244819869
 30
0.0
 10
84.85700817106006
 20
-118.9360649659257
 30
0.0
 10
85.00859237241104
 20
-118.9403713352823
 30
0.0
 10
85.0809393776013
 20
-118.9403713352823
 30
0.0
 10
85.0809393776013
 20
-118.9403713352823
 30
0.0
 10
85.15328638279155
 20
-118.9403713352823
 30
0.0
 10
85.15328638279155
 20
-118.9403713352823
 30
0.0
 10
85.15328638279155
 20
-118.77741831883
 30
0.0
 10
85.15328638279155
 20
-118.7669107775999
 30
0.0
 10
85.15121932550039
 20
-118.7119615046102
 30
0.0
 10
85.15121932550039
 20
-118.7119615046102
 30
0.0
 10
85.34758976815964
 20
-118.7372829564268
 30
0.0
 10
85.34758976815964
 20
-118.7372829564268
 30
0.0
 10
85.35137937319341
 20
-118.7372829564268
 30
0.0
 10
85.36998288881375
 20
-118.7393500137179
 30
0.0
 10
85.36998288881375
 20
-118.7562309815957
 30
0.0
 10
85.36998288881375
 20
-118.7710448921822
 30
0.0
 10
85.36068113100359
 20
-118.7796576308954
 30
0.0
 10
85.33656546260683
 20
-118.7944715414819
 30
0.0
 10
85.33105330983044
 20
-118.8599283557017
 30
0.0
 10
85.32898625253928
 20
-118.881115692936
 30
0.0
 10
85.32898625253928
 20
-118.9403713352823
 30
0.0
 10
85.32898625253928
 20
-118.9403713352823
 30
0.0
 10
85.41235756328233
 20
-118.9403713352823
 30
0.0
 10
85.41235756328233
 20
-118.9403713352823
 30
0.0
 10
85.48470456847258
 20
-118.9403713352823
 30
0.0
 10
85.63663327937209
 20
-118.9360649659257
 30
0.0
 10
85.74584280625452
 20
-118.9276244819869
 30
0.0
 10
85.74584280625452
 20
-118.9276244819869
 30
0.0
 10
85.74584280625452
 20
-119.1074584663169
 30
0.0
 10
85.74584280625452
 20
-119.1074584663169
 30
0.0
 10
85.71966008056661
 20
-119.1053914090257
 30
0.0
 10
85.61630721600912
 20
-119.1010850396692
 30
0.0
 10
85.58082273251105
 20
-119.099017982378
 30
0.0
 10
85.56807587921563
 20
-119.1498331407855
 30
0.0
 10
85.53844805804248
 20
-119.2619709988303
 30
0.0
 10
85.4809149634388
 20
-119.401497365983
 30
0.0
 10
85.5181219946795
 20
-119.401497365983
 30
0.0
 10
85.76065671684108
 20
-119.3825493408141
 30
0.0
 10
85.814400206411
 20
-119.3803100287487
 30
0.0
 10
85.814400206411
 20
-119.3803100287487
 30
0.0
 10
85.814400206411
 20
-119.5644503824353
 30
0.0
 10
85.814400206411
 20
-119.5644503824353
 30
0.0
 10
85.78821748072309
 20
-119.5644503824353
 30
0.0
 10
85.77340357013651
 20
-119.5601440130787
 30
0.0
 10
85.63077661704718
 20
-119.5601440130787
 30
0.0
  0
SPLINE
  5
104
330
FF
100
AcDbEntity
  8
_U+30EC_U+30A4_U+30E4_U+30FC 1
370
     0
100
AcDbSpline
210
0.0
220
0.0
230
1.0
 70
    11
 71
     3
 72
    20
 73
    16
 74
     0
 42
0.0000000001
 43
0.0000000001
 12
1.0
 22
0.0
 32
0.0
 13
1.0
 23
0.0
 33
0.0
 40
0.0
 40
0.0
 40
0.0
 40
0.0
 40
1.0
 40
1.0
 40
1.0
 40
2.0
 40
2.0
 40
2.0
 40
3.0
 40
3.0
 40
3.0
 40
4.0
 40
4.0
 40
4.0
 40
5.0
 40
5.0
 40
5.0
 40
5.0
 10
85.0809393776013
 20
-119.0948838677957
 30
0.0
 10
85.0809393776013
 20
-119.0948838677957
 30
0.0
 10
85.0533786137193
 20
-119.0948838677957
 30
0.0
 10
85.0533786137193
 20
-119.0948838677957
 30
0.0
 10
85.09403074044525
 20
-119.1942748725452
 30
0.0
 10
85.12159150432724
 20
-119.2745455973515
 30
0.0
 10
85.15121932550039
 20
-119.401497365983
 30
0.0
 10
85.15121932550039
 20
-119.401497365983
 30
0.0
 10
85.33277585757305
 20
-119.401497365983
 30
0.0
 10
85.33277585757305
 20
-119.401497365983
 30
0.0
 10
85.36068113100359
 20
-119.3084797878812
 30
0.0
 10
85.38100719436656
 20
-119.2239026937183
 30
0.0
 10
85.40133325772953
 20
-119.0948838677957
 30
0.0
 10
85.40133325772953
 20
-119.0948838677957
 30
0.0
 10
85.0809393776013
 20
-119.0948838677957
 30
0.0
 10
85.0809393776013
 20
-119.0948838677957
 30
0.0
  0
SPLINE
  5
105
330
FF
100
AcDbEntity
  8
_U+30EC_U+30A4_U+30E4_U+30FC 1
370
     0
100
AcDbSpline
210
0.0
220
0.0
230
1.0
 70
    11
 71
     3
 72
    17
 73
    13
 74
     0
 42
0.0000000001
 43
0.0000000001
 12
1.0
 22
0.0
 32
0.0
 13
1.0
 23
0.0
 33
0.0
 40
0.0
 40
0.0
 40
0.0
 40
0.0
 40
1.0
 40
1.0
 40
1.0
 40
2.0
 40
2.0
 40
2.0
 40
3.0
 40
3.0
 40
3.0
 40
4.0
 40
4.0
 40
4.0
 40
4.0
 10
85.13640541491382
 20
-119.9453056883297
 30
0.0
 10
85.12159150432724
 20
-119.9747612547285
 30
0.0
 10
85.07714977256752
 20
-120.0679510876045
 30
0.0
 10
85.06784801475735
 20
-120.0868991127734
 30
0.0
 10
85.23459063624344
 20
-120.1461547551197
 30
0.0
 10
85.2531941518638
 20
-120.1525281817674
 30
0.0
 10
85.31623939924386
 20
-120.1800889456494
 30
0.0
 10
85.36412622648884
 20
-120.0932725394211
 30
0.0
 10
85.38479679940033
 20
-120.0192029864883
 30
0.0
 10
85.39754365269576
 20
-119.9453056883297
 30
0.0
 10
85.39754365269576
 20
-119.9453056883297
 30
0.0
 10
85.13640541491382
 20
-119.9453056883297
 30
0.0
 10
85.13640541491382
 20
-119.9453056883297
 30
0.0
  0
HATCH
  5
106
330
FF
100
AcDbEntity
  8
_U+30EC_U+30A4_U+30E4_U+30FC 1
 62
   179
420
  2234388
100
AcDbHatch
 10
0.0
 20
0.0
 30
0.0
210
0.0
220
0.0
230
1.0
  2
SOLID
 70
     1
 71
     0
 91
        3
 92
        1
 93
        1
 72
     4
 94
        3
 73
     0
 74
     1
 95
      242
 96
      238
 40
0.0
 40
0.0
 40
0.0
 40
0.0
 40
1.0
 40
1.0
 40
1.0
 40
2.0
 40
2.0
 40
2.0
 40
3.0
 40
3.0
 40
3.0
 40
4.0
 40
4.0
 40
4.0
 40
5.0
 40
5.0
 40
5.0
 40
6.0
 40
6.0
 40
6.0
 40
7.0
 40
7.0
 40
7.0
 40
8.0
 40
8.0
 40
8.0
 40
9.0
 40
9.0
 40
9.0
 40
10.0
 40
10.0
 40
10.0
 40
11.0
 40
11.0
 40
11.0
 40
12.0
 40
12.0
 40
12.0
 40
13.0
 40
13.0
 40
13.0
 40
14.0
 40
14.0
 40
14.0
 40
15.0
 40
15.0
 40
15.0
 40
16.0
 40
16.0
 40
16.0
 40
17.0
 40
17.0
 40
17.0
 40
18.0
 40
18.0
 40
18.0
 40
19.0
 40
19.0
 40
19.0
 40
20.0
 40
20.0
 40
20.0
 40
21.0
 40
21.0
 40
21.0
 40
22.0
 40
22.0
 40
22.0
 40
23.0
 40
23.0
 40
23.0
 40
24.0
 40
24.0
 40
24.0
 40
25.0
 40
25.0
 40
25.0
 40
26.0
 40
26.0
 40
26.0
 40
27.0
 40
27.0
 40
27.0
 40
28.0
 40
28.0
 40
28.0
 40
29.0
 40
29.0
 40
29.0
 40
30.0
 40
30.0
 40
30.0
 40
31.0
 40
31.0
 40
31.0
 40
32.0
 40
32.0
 40
32.0
 40
33.0
 40
33.0
 40
33.0
 40
34.0
 40
34.0
 40
34.0
 40
35.0
 40
35.0
 40
35.0
 40
36.0
 40
36.0
 40
36.0
 40
37.0
 40
37.0
 40
37.0
 40
38.0
 40
38.0
 40
38.0
 40
39.0
 40
39.0
 40
39.0
 40
40.0
 40
40.0
 40
40.0
 40
41.0
 40
41.0
 40
41.0
 40
42.0
 40
42.0
 40
42.0
 40
43.0
 40
43.0
 40
43.0
 40
44.0
 40
44.0
 40
44.0
 40
45.0
 40
45.0
 40
45.0
 40
46.0
 40
46.0
 40
46.0
 40
47.0
 40
47.0
 40
47.0
 40
48.0
 40
48.0
 40
48.0
 40
49.0
 40
49.0
 40
49.0
 40
50.0
 40
50.0
 40
50.0
 40
51.0
 40
51.0
 40
51.0
 40
52.0
 40
52.0
 40
52.0
 40
53.0
 40
53.0
 40
53.0
 40
54.0
 40
54.0
 40
54.0
 40
55.0
 40
55.0
 40
55.0
 40
56.0
 40
56.0
 40
56.0
 40
57.0
 40
57.0
 40
57.0
 40
58.0
 40
58.0
 40
58.0
 40
59.0
 40
59.0
 40
59.0
 40
60.0
 40
60.0
 40
60.0
 40
61.0
 40
61.0
 40
61.0
 40
62.0
 40
62.0
 40
62.0
 40
63.0
 40
63.0
 40
63.0
 40
64.0
 40
64.0
 40
64.0
 40
65.0
 40
65.0
 40
65.0
 40
66.0
 40
66.0
 40
66.0
 40
67.0
 40
67.0
 40
67.0
 40
68.0
 40
68.0
 40
68.0
 40
69.0
 40
69.0
 40
69.0
 40
70.0
 40
70.0
 40
70.0
 40
71.0
 40
71.0
 40
71.0
 40
72.0
 40
72.0
 40
72.0
 40
73.0
 40
73.0
 40
73.0
 40
74.0
 40
74.0
 40
74.0
 40
75.0
 40
75.0
 40
75.0
 40
76.0
 40
76.0
 40
76.0
 40
77.0
 40
77.0
 40
77.0
 40
78.0
 40
78.0
 40
78.0
 40
79.0
 40
79.0
 40
79.0
 40
79.0
 10
85.63077661704718
 20
-119.5601440130787
 10
85.63077661704718
 20
-119.5601440130787
 10
85.40891246779708
 20
-119.5601440130787
 10
85.40891246779708
 20
-119.5601440130787
 10
85.40891246779708
 20
-119.5601440130787
 10
85.16603323608697
 20
-119.5601440130787
 10
85.16603323608697
 20
-119.5601440130787
 10
85.16603323608697
 20
-119.5601440130787
 10
85.27730982026054
 20
-119.6025186875473
 10
85.27730982026054
 20
-119.6025186875473
 10
85.28661157807072
 20
-119.6068250569039
 10
85.29763588362351
 20
-119.6130262287773
 10
85.29763588362351
 20
-119.6257730820727
 10
85.29763588362351
 20
-119.646960419307
 10
85.269730610193
 20
-119.6533338459547
 10
85.25147160412116
 20
-119.657467960537
 10
85.24216984631099
 20
-119.6807223550625
 10
85.2159871206231
 20
-119.7463514240565
 10
85.19945066229388
 20
-119.7907931558162
 10
85.19945066229388
 20
-119.7907931558162
 10
85.43647323167907
 20
-119.7907931558162
 10
85.43647323167907
 20
-119.7907931558162
 10
85.51605493738835
 20
-119.7907931558162
 10
85.68830971165085
 20
-119.7864867864596
 10
85.81233314911984
 20
-119.7780463025208
 10
85.81233314911984
 20
-119.7780463025208
 10
85.81233314911984
 20
-119.9558132295597
 10
85.81233314911984
 20
-119.9558132295597
 10
85.74033065347811
 20
-119.9515068602031
 10
85.72172713785777
 20
-119.9515068602031
 10
85.56428627418185
 20
-119.9473727456208
 10
85.53638100075132
 20
-120.10171302336
 10
85.49779593131653
 20
-120.1821560029406
 10
85.4588663523332
 20
-120.2519191865169
 10
85.56428627418185
 20
-120.3111748288632
 10
85.65695934273506
 20
-120.3788709551483
 10
85.74756535399715
 20
-120.4613809920201
 10
85.74756535399715
 20
-120.4613809920201
 10
85.64386797989113
 20
-120.6284681230547
 10
85.64386797989113
 20
-120.6284681230547
 10
85.62354191652814
 20
-120.6095200978858
 10
85.61251761097535
 20
-120.601079613947
 10
85.51433238964573
 20
-120.5163302650098
 10
85.47161320562863
 20
-120.4782619598978
 10
85.41993677334987
 20
-120.4424329668512
 10
85.34965682545078
 20
-120.3979912350915
 10
85.16431068834434
 20
-120.5841986460692
 10
84.98482121356282
 20
-120.6074530405947
 10
84.73091767629991
 20
-120.6370808617678
 10
84.73091767629991
 20
-120.6370808617678
 10
84.64031166503784
 20
-120.4572468774378
 10
84.64031166503784
 20
-120.4572468774378
 10
84.91798636114898
 20
-120.4529405080812
 10
85.07163761979112
 20
-120.4276190562646
 10
85.20496281507029
 20
-120.3175482555109
 10
85.10126544096427
 20
-120.2667330971035
 10
85.02375079254615
 20
-120.2393445879957
 10
84.99205591408185
 20
-120.2265977347003
 10
84.97551945575265
 20
-120.2541584985823
 10
84.96242809290871
 20
-120.2731065237512
 10
84.93831242451195
 20
-120.3070407142809
 10
84.93831242451195
 20
-120.3070407142809
 10
84.76605765024946
 20
-120.2245306774091
 10
84.76605765024946
 20
-120.2245306774091
 10
84.8384046554397
 20
-120.1440876978286
 10
84.8921481450096
 20
-120.0488308076614
 10
84.94210202954572
 20
-119.9473727456208
 10
84.77535940805964
 20
-119.9515068602031
 10
84.75710040198781
 20
-119.9515068602031
 10
84.68475339679756
 20
-119.9558132295597
 10
84.68475339679756
 20
-119.9558132295597
 10
84.68475339679756
 20
-119.7780463025208
 10
84.68475339679756
 20
-119.7780463025208
 10
84.80705428652394
 20
-119.7844197291685
 10
84.99033336633923
 20
-119.788726098525
 10
85.01238197744483
 20
-119.788726098525
 10
85.0271958880314
 20
-119.7547919079953
 10
85.07542722482489
 20
-119.6342135660116
 10
85.09196368315409
 20
-119.5601440130787
 10
85.07542722482489
 20
-119.5601440130787
 10
84.91970890889161
 20
-119.5665174397264
 10
84.74952119192027
 20
-119.5792642930219
 10
84.74952119192027
 20
-119.5792642930219
 10
84.74952119192027
 20
-119.712589488301
 10
84.74952119192027
 20
-119.712589488301
 10
84.70680200790316
 20
-119.7379109401176
 10
84.65512557562441
 20
-119.7696058185819
 10
84.53833683867445
 20
-119.8352348875759
 10
84.53833683867445
 20
-119.8352348875759
 10
84.53833683867445
 20
-119.9811346813762
 10
84.53833683867445
 20
-119.9811346813762
 10
84.53833683867445
 20
-119.9811346813762
 10
84.53833683867445
 20
-120.4488063934989
 10
84.53833683867445
 20
-120.4488063934989
 10
84.53833683867445
 20
-120.5755859073561
 10
84.50698646975867
 20
-120.6348415497024
 10
84.25893959482069
 20
-120.6264010657635
 10
84.25893959482069
 20
-120.6264010657635
 10
84.1679890740101
 20
-120.4191785723258
 10
84.1679890740101
 20
-120.4191785723258
 10
84.22379962087113
 20
-120.4317531708469
 10
84.26617429533971
 20
-120.4360595402035
 10
84.30131426928926
 20
-120.4360595402035
 10
84.36814912170311
 20
-120.4360595402035
 10
84.37745087951328
 20
-120.412805145678
 10
84.37745087951328
 20
-120.3471760766841
 10
84.37745087951328
 20
-120.3471760766841
 10
84.37745087951328
 20
-119.9177449244476
 10
84.37745087951328
 20
-119.9177449244476
 10
84.29201251147909
 20
-119.9578802868508
 10
84.2771986008925
 20
-119.9642537134985
 10
84.23654647416656
 20
-119.9833739934417
 10
84.23275686913279
 20
-120.0043890759017
 10
84.22931177364754
 20
-120.0340168970748
 10
84.21243080576981
 20
-120.0340168970748
 10
84.20519610525079
 20
-120.0340168970748
 10
84.19589434744061
 20
-120.0298827824925
 10
84.19038219466421
 20
-120.0066283879671
 10
84.19038219466421
 20
-120.0066283879671
 10
84.14387340561333
 20
-119.8140475503416
 10
84.14387340561333
 20
-119.8140475503416
 10
84.27168644811611
 20
-119.7675387612908
 10
84.32921954271978
 20
-119.7442843667653
 10
84.37745087951328
 20
-119.723097029531
 10
84.37745087951328
 20
-119.723097029531
 10
84.37745087951328
 20
-119.3105468451724
 10
84.37745087951328
 20
-119.3105468451724
 10
84.37745087951328
 20
-119.3105468451724
 10
84.3309420904624
 20
-119.3105468451724
 10
84.3309420904624
 20
-119.3105468451724
 10
84.3309420904624
 20
-119.3105468451724
 10
84.26238469030594
 20
-119.3105468451724
 10
84.26238469030594
 20
-119.3105468451724
 10
84.20312904795964
 20
-119.3105468451724
 10
84.19589434744061
 20
-119.3105468451724
 10
84.16454397852485
 20
-119.3169202718201
 10
84.16454397852485
 20
-119.3169202718201
 10
84.16454397852485
 20
-119.1222723769035
 10
84.16454397852485
 20
-119.1222723769035
 10
84.18831513737307
 20
-119.1286458035512
 10
84.19589434744061
 20
-119.1286458035512
 10
84.25687253752953
 20
-119.1286458035512
 10
84.25687253752953
 20
-119.1286458035512
 10
84.3736612744795
 20
-119.1286458035512
 10
84.3736612744795
 20
-119.1286458035512
 10
84.3736612744795
 20
-119.0588826199749
 10
84.3736612744795
 20
-118.9763725831031
 10
84.37193872673689
 20
-118.9720662137466
 10
84.36435951666932
 20
-118.7922322294165
 10
84.36435951666932
 20
-118.7732842042477
 10
84.36263696892671
 20
-118.7267754151968
 10
84.36263696892671
 20
-118.7267754151968
 10
84.55142820151839
 20
-118.7352158991356
 10
84.55142820151839
 20
-118.7352158991356
 10
84.56072995932857
 20
-118.7352158991356
 10
84.57933347494892
 20
-118.7372829564268
 10
84.57933347494892
 20
-118.7541639243045
 10
84.57933347494892
 20
-118.7732842042477
 10
84.56624211210497
 20
-118.7837917454777
 10
84.54384899145084
 20
-118.8029120254208
 10
84.54384899145084
 20
-118.853554929054
 10
84.53833683867445
 20
-119.0821370145003
 10
84.5404038959656
 20
-119.1286458035512
 10
84.65305851833327
 20
-119.1286458035512
 10
84.66442733343459
 20
-119.1286458035512
 10
84.74952119192027
 20
-119.1202053196123
 10
84.74952119192027
 20
-119.1202053196123
 10
84.74952119192027
 20
-119.3148532145289
 10
84.74952119192027
 20
-119.3148532145289
 10
84.71610376571334
 20
-119.3126139024635
 10
84.65684812336704
 20
-119.3084797878812
 10
84.53833683867445
 20
-119.3105468451724
 10
84.53833683867445
 20
-119.3105468451724
 10
84.53833683867445
 20
-119.6490274765982
 10
84.53833683867445
 20
-119.6490274765982
 10
84.58656817546795
 20
-119.6257730820727
 10
84.64410127007162
 20
-119.5982123181907
 10
84.68647594454019
 20
-119.5749579236653
 10
84.68647594454019
 20
-119.5749579236653
 10
84.68647594454019
 20
-119.3973632514007
 10
84.68647594454019
 20
-119.3973632514007
 10
84.78672822316096
 20
-119.4099378499218
 10
84.89008108771846
 20
-119.4099378499218
 10
84.99205591408185
 20
-119.4099378499218
 10
84.97172985071887
 20
-119.3148532145289
 10
84.94761418232213
 20
-119.2323431776572
 10
84.8921481450096
 20
-119.099017982378
 10
84.85321856602629
 20
-119.1010850396692
 10
84.78087156083603
 20
-119.1053914090257
 10
84.74779864417764
 20
-119.1074584663169
 10
84.74779864417764
 20
-119.1074584663169
 10
84.74779864417764
 20
-118.9276244819869
 10
84.74779864417764
 20
-118.9276244819869
 10
84.85700817106006
 20
-118.9360649659257
 10
85.00859237241104
 20
-118.9403713352823
 10
85.0809393776013
 20
-118.9403713352823
 10
85.0809393776013
 20
-118.9403713352823
 10
85.15328638279155
 20
-118.9403713352823
 10
85.15328638279155
 20
-118.9403713352823
 10
85.15328638279155
 20
-118.77741831883
 10
85.15328638279155
 20
-118.7669107775999
 10
85.15121932550039
 20
-118.7119615046102
 10
85.15121932550039
 20
-118.7119615046102
 10
85.34758976815964
 20
-118.7372829564268
 10
85.34758976815964
 20
-118.7372829564268
 10
85.35137937319341
 20
-118.7372829564268
 10
85.36998288881375
 20
-118.7393500137179
 10
85.36998288881375
 20
-118.7562309815957
 10
85.36998288881375
 20
-118.7710448921822
 10
85.36068113100359
 20
-118.7796576308954
 10
85.33656546260683
 20
-118.7944715414819
 10
85.33105330983044
 20
-118.8599283557017
 10
85.32898625253928
 20
-118.881115692936
 10
85.32898625253928
 20
-118.9403713352823
 10
85.32898625253928
 20
-118.9403713352823
 10
85.41235756328233
 20
-118.9403713352823
 10
85.41235756328233
 20
-118.9403713352823
 10
85.48470456847258
 20
-118.9403713352823
 10
85.63663327937209
 20
-118.9360649659257
 10
85.74584280625452
 20
-118.9276244819869
 10
85.74584280625452
 20
-118.9276244819869
 10
85.74584280625452
 20
-119.1074584663169
 10
85.74584280625452
 20
-119.1074584663169
 10
85.71966008056661
 20
-119.1053914090257
 10
85.61630721600912
 20
-119.1010850396692
 10
85.58082273251105
 20
-119.099017982378
 10
85.56807587921563
 20
-119.1498331407855
 10
85.53844805804248
 20
-119.2619709988303
 10
85.4809149634388
 20
-119.401497365983
 10
85.5181219946795
 20
-119.401497365983
 10
85.76065671684108
 20
-119.3825493408141
 10
85.814400206411
 20
-119.3803100287487
 10
85.814400206411
 20
-119.3803100287487
 10
85.814400206411
 20
-119.5644503824353
 10
85.814400206411
 20
-119.5644503824353
 10
85.78821748072309
 20
-119.5644503824353
 10
85.77340357013651
 20
-119.5601440130787
 10
85.63077661704718
 20
-119.5601440130787
 97
        0
 97
        0
 92
        1
 93
        1
 72
     4
 94
        3
 73
     0
 74
     1
 95
       20
 96
       16
 40
0.0
 40
0.0
 40
0.0
 40
0.0
 40
1.0
 40
1.0
 40
1.0
 40
2.0
 40
2.0
 40
2.0
 40
3.0
 40
3.0
 40
3.0
 40
4.0
 40
4.0
 40
4.0
 40
5.0
 40
5.0
 40
5.0
 40
5.0
 10
85.0809393776013
 20
-119.0948838677957
 10
85.0809393776013
 20
-119.0948838677957
 10
85.0533786137193
 20
-119.0948838677957
 10
85.0533786137193
 20
-119.0948838677957
 10
85.09403074044525
 20
-119.1942748725452
 10
85.12159150432724
 20
-119.2745455973515
 10
85.15121932550039
 20
-119.401497365983
 10
85.15121932550039
 20
-119.401497365983
 10
85.33277585757305
 20
-119.401497365983
 10
85.33277585757305
 20
-119.401497365983
 10
85.36068113100359
 20
-119.3084797878812
 10
85.38100719436656
 20
-119.2239026937183
 10
85.40133325772953
 20
-119.0948838677957
 10
85.40133325772953
 20
-119.0948838677957
 10
85.0809393776013
 20
-119.0948838677957
 10
85.0809393776013
 20
-119.0948838677957
 97
        0
 97
        0
 92
        1
 93
        1
 72
     4
 94
        3
 73
     0
 74
     1
 95
       17
 96
       13
 40
0.0
 40
0.0
 40
0.0
 40
0.0
 40
1.0
 40
1.0
 40
1.0
 40
2.0
 40
2.0
 40
2.0
 40
3.0
 40
3.0
 40
3.0
 40
4.0
 40
4.0
 40
4.0
 40
4.0
 10
85.13640541491382
 20
-119.9453056883297
 10
85.12159150432724
 20
-119.9747612547285
 10
85.07714977256752
 20
-120.0679510876045
 10
85.06784801475735
 20
-120.0868991127734
 10
85.23459063624344
 20
-120.1461547551197
 10
85.2531941518638
 20
-120.1525281817674
 10
85.31623939924386
 20
-120.1800889456494
 10
85.36412622648884
 20
-120.0932725394211
 10
85.38479679940033
 20
-120.0192029864883
 10
85.39754365269576
 20
-119.9453056883297
 10
85.39754365269576
 20
-119.9453056883297
 10
85.13640541491382
 20
-119.9453056883297
 10
85.13640541491382
 20
-119.9453056883297
 97
        0
 97
        0
 75
     2
 76
     1
 98
        0
  0
SPLINE
  5
107
330
FF
100
AcDbEntity
  8
_U+30EC_U+30A4_U+30E4_U+30FC 1
370
     0
100
AcDbSpline
210
0.0
220
0.0
230
1.0
 70
    11
 71
     3
 72
   203
 73
   199
 74
     0
 42
0.0000000001
 43
0.0000000001
 12
1.0
 22
0.0
 32
0.0
 13
1.0
 23
0.0
 33
0.0
 40
0.0
 40
0.0
 40
0.0
 40
0.0
 40
1.0
 40
1.0
 40
1.0
 40
2.0
 40
2.0
 40
2.0
 40
3.0
 40
3.0
 40
3.0
 40
4.0
 40
4.0
 40
4.0
 40
5.0
 40
5.0
 40
5.0
 40
6.0
 40
6.0
 40
6.0
 40
7.0
 40
7.0
 40
7.0
 40
8.0
 40
8.0
 40
8.0
 40
9.0
 40
9.0
 40
9.0
 40
10.0
 40
10.0
 40
10.0
 40
11.0
 40
11.0
 40
11.0
 40
12.0
 40
12.0
 40
12.0
 40
13.0
 40
13.0
 40
13.0
 40
14.0
 40
14.0
 40
14.0
 40
15.0
 40
15.0
 40
15.0
 40
16.0
 40
16.0
 40
16.0
 40
17.0
 40
17.0
 40
17.0
 40
18.0
 40
18.0
 40
18.0
 40
19.0
 40
19.0
 40
19.0
 40
20.0
 40
20.0
 40
20.0
 40
21.0
 40
21.0
 40
21.0
 40
22.0
 40
22.0
 40
22.0
 40
23.0
 40
23.0
 40
23.0
 40
24.0
 40
24.0
 40
24.0
 40
25.0
 40
25.0
 40
25.0
 40
26.0
 40
26.0
 40
26.0
 40
27.0
 40
27.0
 40
27.0
 40
28.0
 40
28.0
 40
28.0
 40
29.0
 40
29.0
 40
29.0
 40
30.0
 40
30.0
 40
30.0
 40
31.0
 40
31.0
 40
31.0
 40
32.0
 40
32.0
 40
32.0
 40
33.0
 40
33.0
 40
33.0
 40
34.0
 40
34.0
 40
34.0
 40
35.0
 40
35.0
 40
35.0
 40
36.0
 40
36.0
 40
36.0
 40
37.0
 40
37.0
 40
37.0
 40
38.0
 40
38.0
 40
38.0
 40
39.0
 40
39.0
 40
39.0
 40
40.0
 40
40.0
 40
40.0
 40
41.0
 40
41.0
 40
41.0
 40
42.0
 40
42.0
 40
42.0
 40
43.0
 40
43.0
 40
43.0
 40
44.0
 40
44.0
 40
44.0
 40
45.0
 40
45.0
 40
45.0
 40
46.0
 40
46.0
 40
46.0
 40
47.0
 40
47.0
 40
47.0
 40
48.0
 40
48.0
 40
48.0
 40
49.0
 40
49.0
 40
49.0
 40
50.0
 40
50.0
 40
50.0
 40
51.0
 40
51.0
 40
51.0
 40
52.0
 40
52.0
 40
52.0
 40
53.0
 40
53.0
 40
53.0
 40
54.0
 40
54.0
 40
54.0
 40
55.0
 40
55.0
 40
55.0
 40
56.0
 40
56.0
 40
56.0
 40
57.0
 40
57.0
 40
57.0
 40
58.0
 40
58.0
 40
58.0
 40
59.0
 40
59.0
 40
59.0
 40
60.0
 40
60.0
 40
60.0
 40
61.0
 40
61.0
 40
61.0
 40
62.0
 40
62.0
 40
62.0
 40
63.0
 40
63.0
 40
63.0
 40
64.0
 40
64.0
 40
64.0
 40
65.0
 40
65.0
 40
65.0
 40
66.0
 40
66.0
 40
66.0
 40
66.0
 10
87.11285669480165
 20
-119.6278401393639
 30
0.0
 10
87.11285669480165
 20
-119.6278401393639
 30
0.0
 10
86.6239976454447
 20
-119.6278401393639
 30
0.0
 10
86.6239976454447
 20
-119.6278401393639
 30
0.0
 10
86.61469588763453
 20
-119.6722818711236
 30
0.0
 10
86.6074611871155
 20
-119.7039767495879
 30
0.0
 10
86.59609237201417
 20
-119.7422173094742
 30
0.0
 10
86.6184854926683
 20
-119.7422173094742
 30
0.0
 10
86.63157685551225
 20
-119.7442843667653
 30
0.0
 10
86.63708900828865
 20
-119.7442843667653
 30
0.0
 10
86.63708900828865
 20
-119.7442843667653
 30
0.0
 10
86.80176457248359
 20
-119.7442843667653
 30
0.0
 10
86.80176457248359
 20
-119.7442843667653
 30
0.0
 10
86.80176457248359
 20
-119.7442843667653
 30
0.0
 10
87.12939315313085
 20
-119.7442843667653
 30
0.0
 10
87.12939315313085
 20
-119.7442843667653
 30
0.0
 10
87.1741793944391
 20
-119.7442843667653
 30
0.0
 10
87.42222626937709
 20
-119.7315375134699
 30
0.0
 10
87.44978703325908
 20
-119.7315375134699
 30
0.0
 10
87.44806448551645
 20
-119.7590982773519
 30
0.0
 10
87.44634193777384
 20
-119.7780463025208
 30
0.0
 10
87.44634193777384
 20
-119.8076741236939
 30
0.0
 10
87.44427488048268
 20
-119.8393690021582
 30
0.0
 10
87.44427488048268
 20
-119.9747612547285
 30
0.0
 10
87.44427488048268
 20
-120.0023220186105
 30
0.0
 10
87.44427488048268
 20
-120.0023220186105
 30
0.0
 10
87.44427488048268
 20
-120.2477850719346
 30
0.0
 10
87.44427488048268
 20
-120.2477850719346
 30
0.0
 10
87.44427488048268
 20
-120.2922268036943
 30
0.0
 10
87.44806448551645
 20
-120.4889417559021
 30
0.0
 10
87.45185409055024
 20
-120.6412149763501
 30
0.0
 10
87.45185409055024
 20
-120.6412149763501
 30
0.0
 10
87.25376110014837
 20
-120.6412149763501
 30
0.0
 10
87.25376110014837
 20
-120.6412149763501
 30
0.0
 10
87.25376110014837
 20
-120.6412149763501
 30
0.0
 10
87.255483647891
 20
-120.6074530405947
 30
0.0
 10
87.255483647891
 20
-120.6074530405947
 30
0.0
 10
87.255483647891
 20
-120.6074530405947
 30
0.0
 10
86.64087861332243
 20
-120.6074530405947
 30
0.0
 10
86.64087861332243
 20
-120.6074530405947
 30
0.0
 10
86.64087861332243
 20
-120.6074530405947
 30
0.0
 10
86.64260116106504
 20
-120.6412149763501
 30
0.0
 10
86.64260116106504
 20
-120.6412149763501
 30
0.0
 10
86.64260116106504
 20
-120.6412149763501
 30
0.0
 10
86.4517428711822
 20
-120.6412149763501
 30
0.0
 10
86.4517428711822
 20
-120.6412149763501
 30
0.0
 10
86.45553247621598
 20
-120.5862657033604
 30
0.0
 10
86.45553247621598
 20
-120.573518850065
 30
0.0
 10
86.46104462899238
 20
-120.4593139347289
 30
0.0
 10
86.46311168628353
 20
-120.4317531708469
 30
0.0
 10
86.46483423402616
 20
-120.298600230342
 30
0.0
 10
86.46483423402616
 20
-120.2794799503989
 30
0.0
 10
86.46483423402616
 20
-120.2794799503989
 30
0.0
 10
86.46483423402616
 20
-120.0763915715434
 30
0.0
 10
86.46483423402616
 20
-120.0763915715434
 30
0.0
 10
86.34253334429978
 20
-120.3259887394498
 30
0.0
 10
86.19439423843404
 20
-120.4572468774378
 30
0.0
 10
86.10172116988082
 20
-120.5227036916575
 30
0.0
 10
86.10172116988082
 20
-120.5227036916575
 30
0.0
 10
85.95013696852983
 20
-120.3831773245049
 30
0.0
 10
85.95013696852983
 20
-120.3831773245049
 30
0.0
 10
86.02765161694795
 20
-120.3323621660975
 30
0.0
 10
86.1537421117081
 20
-120.2455457598692
 30
0.0
 10
86.27397594414332
 20
-120.0510701197268
 30
0.0
 10
86.35355764985259
 20
-119.9241183510954
 30
0.0
 10
86.41109074445626
 20
-119.7802856145862
 30
0.0
 10
86.44071856562941
 20
-119.6278401393639
 30
0.0
 10
86.24055851793639
 20
-119.6300794514293
 30
0.0
 10
86.083462163809
 20
-119.636452878077
 30
0.0
 10
86.00009085306596
 20
-119.6385199353682
 30
0.0
 10
86.00009085306596
 20
-119.6385199353682
 30
0.0
 10
86.00009085306596
 20
-119.4607530083293
 30
0.0
 10
86.00009085306596
 20
-119.4607530083293
 30
0.0
 10
86.17234562732844
 20
-119.467126434977
 30
0.0
 10
86.42039250226644
 20
-119.4714328043335
 30
0.0
 10
86.55199514980298
 20
-119.4714328043335
 30
0.0
 10
86.55199514980298
 20
-119.4714328043335
 30
0.0
 10
86.73871932510352
 20
-119.4714328043335
 30
0.0
 10
86.73871932510352
 20
-119.4714328043335
 30
0.0
 10
86.73871932510352
 20
-119.4714328043335
 30
0.0
 10
86.73871932510352
 20
-119.363429060871
 30
0.0
 10
86.73871932510352
 20
-119.363429060871
 30
0.0
 10
86.73871932510352
 20
-119.363429060871
 30
0.0
 10
86.61125079214928
 20
-119.363429060871
 30
0.0
 10
86.61125079214928
 20
-119.363429060871
 30
0.0
 10
86.46311168628353
 20
-119.363429060871
 30
0.0
 10
86.31497258041779
 20
-119.3677354302275
 30
0.0
 10
86.16855602229467
 20
-119.3741088568752
 30
0.0
 10
86.16855602229467
 20
-119.3741088568752
 30
0.0
 10
86.16855602229467
 20
-119.202715356484
 30
0.0
 10
86.16855602229467
 20
-119.202715356484
 30
0.0
 10
86.30360376531647
 20
-119.2132228977141
 30
0.0
 10
86.46655678176879
 20
-119.2132228977141
 30
0.0
 10
86.61125079214928
 20
-119.2132228977141
 30
0.0
 10
86.61125079214928
 20
-119.2132228977141
 30
0.0
 10
86.73871932510352
 20
-119.2132228977141
 30
0.0
 10
86.73871932510352
 20
-119.2132228977141
 30
0.0
 10
86.73871932510352
 20
-119.2132228977141
 30
0.0
 10
86.73871932510352
 20
-119.0948838677957
 30
0.0
 10
86.73871932510352
 20
-119.0948838677957
 30
0.0
 10
86.73871932510352
 20
-119.0948838677957
 30
0.0
 10
86.6239976454447
 20
-119.0948838677957
 30
0.0
 10
86.6239976454447
 20
-119.0948838677957
 30
0.0
 10
86.58334551871874
 20
-119.0948838677957
 30
0.0
 10
86.40557859167986
 20
-119.1033243517346
 30
0.0
 10
86.36837156043916
 20
-119.1033243517346
 30
0.0
 10
86.19060463340027
 20
-119.1074584663169
 30
0.0
 10
86.12411429053495
 20
-119.109525523608
 30
0.0
 10
86.05555689037847
 20
-119.1117648356735
 30
0.0
 10
86.05555689037847
 20
-119.1117648356735
 30
0.0
 10
86.05555689037847
 20
-118.9276244819869
 30
0.0
 10
86.05555689037847
 20
-118.9276244819869
 30
0.0
 10
86.15546465945071
 20
-118.9360649659257
 30
0.0
 10
86.19439423843404
 20
-118.9360649659257
 30
0.0
 10
86.52960202914885
 20
-118.9446777046388
 30
0.0
 10
86.47413599183633
 20
-118.8494208144717
 30
0.0
 10
86.45002032343959
 20
-118.8218600505897
 30
0.0
 10
86.41832544497528
 20
-118.7858588027688
 30
0.0
 10
86.41832544497528
 20
-118.7858588027688
 30
0.0
 10
86.57232121316595
 20
-118.7033487658971
 30
0.0
 10
86.57232121316595
 20
-118.7033487658971
 30
0.0
 10
86.6074611871155
 20
-118.7393500137179
 30
0.0
 10
86.64639076609882
 20
-118.7817246881865
 30
0.0
 10
86.71115856122152
 20
-118.891623234166
 30
0.0
 10
86.71115856122152
 20
-118.891623234166
 30
0.0
 10
86.61125079214928
 20
-118.94674476193
 30
0.0
 10
86.61125079214928
 20
-118.94674476193
 30
0.0
 10
86.61125079214928
 20
-118.94674476193
 30
0.0
 10
86.62020804041093
 20
-118.94674476193
 30
0.0
 10
86.62020804041093
 20
-118.94674476193
 30
0.0
 10
86.62020804041093
 20
-118.94674476193
 30
0.0
 10
87.07771672085211
 20
-118.94674476193
 30
0.0
 10
87.07771672085211
 20
-118.94674476193
 30
0.0
 10
87.07771672085211
 20
-118.94674476193
 30
0.0
 10
86.99434541010906
 20
-118.9023030301703
 30
0.0
 10
86.99434541010906
 20
-118.9023030301703
 30
0.0
 10
87.01846107850581
 20
-118.8642347250583
 30
0.0
 10
87.06841496304193
 20
-118.7837917454777
 30
0.0
 10
87.08150632588588
 20
-118.7097221925448
 30
0.0
 10
87.08150632588588
 20
-118.7097221925448
 30
0.0
 10
87.26857501073495
 20
-118.7732842042477
 30
0.0
 10
87.26857501073495
 20
-118.7732842042477
 30
0.0
 10
87.27580971125397
 20
-118.7753512615388
 30
0.0
 10
87.29441322687431
 20
-118.7858588027688
 30
0.0
 10
87.29441322687431
 20
-118.8070461400031
 30
0.0
 10
87.29441322687431
 20
-118.8451144451151
 30
0.0
 10
87.23688013227064
 20
-118.8451144451151
 30
0.0
 10
87.22034367394144
 20
-118.8451144451151
 30
0.0
 10
87.21104191613126
 20
-118.8642347250583
 30
0.0
 10
87.19071585276829
 20
-118.9043700874614
 30
0.0
 10
87.16487763662893
 20
-118.9446777046388
 30
0.0
 10
87.51455482838178
 20
-118.9383042779911
 30
0.0
 10
87.54073755406968
 20
-118.9360649659257
 30
0.0
 10
87.607227896935
 20
-118.9298637940523
 30
0.0
 10
87.607227896935
 20
-118.9298637940523
 30
0.0
 10
87.607227896935
 20
-119.1117648356735
 30
0.0
 10
87.607227896935
 20
-119.1117648356735
 30
0.0
 10
87.5906914386058
 20
-119.1117648356735
 30
0.0
 10
87.56829831795167
 20
-119.109525523608
 30
0.0
 10
87.37571748032622
 20
-119.1010850396692
 30
0.0
 10
87.3312757485665
 20
-119.099017982378
 30
0.0
 10
87.13869491094103
 20
-119.0948838677957
 30
0.0
 10
87.0997653319577
 20
-119.0948838677957
 30
0.0
 10
87.0997653319577
 20
-119.0948838677957
 30
0.0
 10
86.91097409936602
 20
-119.0948838677957
 30
0.0
 10
86.91097409936602
 20
-119.0948838677957
 30
0.0
 10
86.91097409936602
 20
-119.0948838677957
 30
0.0
 10
86.91097409936602
 20
-119.2132228977141
 30
0.0
 10
86.91097409936602
 20
-119.2132228977141
 30
0.0
 10
86.91097409936602
 20
-119.2132228977141
 30
0.0
 10
87.06290281026553
 20
-119.2132228977141
 30
0.0
 10
87.06290281026553
 20
-119.2132228977141
 30
0.0
 10
87.20552976335487
 20
-119.2132228977141
 30
0.0
 10
87.37227238484097
 20
-119.2132228977141
 30
0.0
 10
87.50904267560539
 20
-119.202715356484
 30
0.0
 10
87.50904267560539
 20
-119.202715356484
 30
0.0
 10
87.50904267560539
 20
-119.3741088568752
 30
0.0
 10
87.50904267560539
 20
-119.3741088568752
 30
0.0
 10
87.3257635957901
 20
-119.3656683729364
 30
0.0
 10
87.1535088215276
 20
-119.363429060871
 30
0.0
 10
87.06290281026553
 20
-119.363429060871
 30
0.0
 10
87.06290281026553
 20
-119.363429060871
 30
0.0
 10
86.91097409936602
 20
-119.363429060871
 30
0.0
 10
86.91097409936602
 20
-119.363429060871
 30
0.0
 10
86.91097409936602
 20
-119.363429060871
 30
0.0
 10
86.91097409936602
 20
-119.4714328043335
 30
0.0
 10
86.91097409936602
 20
-119.4714328043335
 30
0.0
 10
86.91097409936602
 20
-119.4714328043335
 30
0.0
 10
87.11285669480165
 20
-119.4714328043335
 30
0.0
 10
87.11285669480165
 20
-119.4714328043335
 30
0.0
 10
87.22964543175162
 20
-119.4714328043335
 30
0.0
 10
87.48148191172338
 20
-119.467126434977
 30
0.0
 10
87.66476099153867
 20
-119.4607530083293
 30
0.0
 10
87.66476099153867
 20
-119.4607530083293
 30
0.0
 10
87.66476099153867
 20
-119.6385199353682
 30
0.0
 10
87.66476099153867
 20
-119.6385199353682
 30
0.0
 10
87.49629582230996
 20
-119.6321465087204
 30
0.0
 10
87.22206622168407
 20
-119.6278401393639
 30
0.0
 10
87.11285669480165
 20
-119.6278401393639
 30
0.0
  0
POLYLINE
  5
108
330
FF
100
AcDbEntity
  8
_U+30EC_U+30A4_U+30E4_U+30FC 1
370
     0
100
AcDb2dPolyline
 66
     1
 10
0.0
 20
0.0
 30
0.0
  0
VERTEX
  5
109
330
108
100
AcDbEntity
  8
_U+30EC_U+30A4_U+30E4_U+30FC 1
370
     0
100
AcDbVertex
100
AcDb2dVertex
 10
87.25720619563361
 20
-119.8838107339179
 30
0.0
  0
VERTEX
  5
10A
330
108
100
AcDbEntity
  8
_U+30EC_U+30A4_U+30E4_U+30FC 1
370
     0
100
AcDbVertex
100
AcDb2dVertex
 10
86.63881155603127
 20
-119.8838107339179
 30
0.0
  0
VERTEX
  5
10B
330
108
100
AcDbEntity
  8
_U+30EC_U+30A4_U+30E4_U+30FC 1
370
     0
100
AcDbVertex
100
AcDb2dVertex
 10
86.63881155603127
 20
-119.9918144773805
 30
0.0
  0
VERTEX
  5
10C
330
108
100
AcDbEntity
  8
_U+30EC_U+30A4_U+30E4_U+30FC 1
370
     0
100
AcDbVertex
100
AcDb2dVertex
 10
87.25720619563361
 20
-119.9918144773805
 30
0.0
  0
VERTEX
  5
10D
330
108
100
AcDbEntity
  8
_U+30EC_U+30A4_U+30E4_U+30FC 1
370
     0
100
AcDbVertex
100
AcDb2dVertex
 10
87.25720619563361
 20
-119.8838107339179
 30
0.0
  0
SEQEND
  5
10E
330
108
100
AcDbEntity
  8
_U+30EC_U+30A4_U+30E4_U+30FC 1
370
     0
  0
POLYLINE
  5
10F
330
FF
100
AcDbEntity
  8
_U+30EC_U+30A4_U+30E4_U+30FC 1
370
     0
100
AcDb2dPolyline
 66
     1
 10
0.0
 20
0.0
 30
0.0
  0
VERTEX
  5
110
330
10F
100
AcDbEntity
  8
_U+30EC_U+30A4_U+30E4_U+30FC 1
370
     0
100
AcDbVertex
100
AcDb2dVertex
 10
87.25720619563361
 20
-120.1165269339466
 30
0.0
  0
VERTEX
  5
111
330
10F
100
AcDbEntity
  8
_U+30EC_U+30A4_U+30E4_U+30FC 1
370
     0
100
AcDbVertex
100
AcDb2dVertex
 10
86.63881155603127
 20
-120.1165269339466
 30
0.0
  0
VERTEX
  5
112
330
10F
100
AcDbEntity
  8
_U+30EC_U+30A4_U+30E4_U+30FC 1
370
     0
100
AcDbVertex
100
AcDb2dVertex
 10
86.63881155603127
 20
-120.2309041040569
 30
0.0
  0
VERTEX
  5
113
330
10F
100
AcDbEntity
  8
_U+30EC_U+30A4_U+30E4_U+30FC 1
370
     0
100
AcDbVertex
100
AcDb2dVertex
 10
87.25720619563361
 20
-120.2309041040569
 30
0.0
  0
VERTEX
  5
114
330
10F
100
AcDbEntity
  8
_U+30EC_U+30A4_U+30E4_U+30FC 1
370
     0
100
AcDbVertex
100
AcDb2dVertex
 10
87.25720619563361
 20
-120.1165269339466
 30
0.0
  0
SEQEND
  5
115
330
10F
100
AcDbEntity
  8
_U+30EC_U+30A4_U+30E4_U+30FC 1
370
     0
  0
POLYLINE
  5
116
330
FF
100
AcDbEntity
  8
_U+30EC_U+30A4_U+30E4_U+30FC 1
370
     0
100
AcDb2dPolyline
 66
     1
 10
0.0
 20
0.0
 30
0.0
  0
VERTEX
  5
117
330
116
100
AcDbEntity
  8
_U+30EC_U+30A4_U+30E4_U+30FC 1
370
     0
100
AcDbVertex
100
AcDb2dVertex
 10
87.25720619563361
 20
-120.3599229299795
 30
0.0
  0
VERTEX
  5
118
330
116
100
AcDbEntity
  8
_U+30EC_U+30A4_U+30E4_U+30FC 1
370
     0
100
AcDbVertex
100
AcDb2dVertex
 10
86.63881155603127
 20
-120.3599229299795
 30
0.0
  0
VERTEX
  5
119
330
116
100
AcDbEntity
  8
_U+30EC_U+30A4_U+30E4_U+30FC 1
370
     0
100
AcDbVertex
100
AcDb2dVertex
 10
86.63881155603127
 20
-120.4741278453155
 30
0.0
  0
VERTEX
  5
11A
330
116
100
AcDbEntity
  8
_U+30EC_U+30A4_U+30E4_U+30FC 1
370
     0
100
AcDbVertex
100
AcDb2dVertex
 10
87.25720619563361
 20
-120.4741278453155
 30
0.0
  0
VERTEX
  5
11B
330
116
100
AcDbEntity
  8
_U+30EC_U+30A4_U+30E4_U+30FC 1
370
     0
100
AcDbVertex
100
AcDb2dVertex
 10
87.25720619563361
 20
-120.3599229299795
 30
0.0
  0
SEQEND
  5
11C
330
116
100
AcDbEntity
  8
_U+30EC_U+30A4_U+30E4_U+30FC 1
370
     0
  0
HATCH
  5
11D
330
FF
100
AcDbEntity
  8
_U+30EC_U+30A4_U+30E4_U+30FC 1
 62
   179
420
  2234388
100
AcDbHatch
 10
0.0
 20
0.0
 30
0.0
210
0.0
220
0.0
230
1.0
  2
SOLID
 70
     1
 71
     0
 91
        4
 92
        1
 93
        1
 72
     4
 94
        3
 73
     0
 74
     1
 95
      203
 96
      199
 40
0.0
 40
0.0
 40
0.0
 40
0.0
 40
1.0
 40
1.0
 40
1.0
 40
2.0
 40
2.0
 40
2.0
 40
3.0
 40
3.0
 40
3.0
 40
4.0
 40
4.0
 40
4.0
 40
5.0
 40
5.0
 40
5.0
 40
6.0
 40
6.0
 40
6.0
 40
7.0
 40
7.0
 40
7.0
 40
8.0
 40
8.0
 40
8.0
 40
9.0
 40
9.0
 40
9.0
 40
10.0
 40
10.0
 40
10.0
 40
11.0
 40
11.0
 40
11.0
 40
12.0
 40
12.0
 40
12.0
 40
13.0
 40
13.0
 40
13.0
 40
14.0
 40
14.0
 40
14.0
 40
15.0
 40
15.0
 40
15.0
 40
16.0
 40
16.0
 40
16.0
 40
17.0
 40
17.0
 40
17.0
 40
18.0
 40
18.0
 40
18.0
 40
19.0
 40
19.0
 40
19.0
 40
20.0
 40
20.0
 40
20.0
 40
21.0
 40
21.0
 40
21.0
 40
22.0
 40
22.0
 40
22.0
 40
23.0
 40
23.0
 40
23.0
 40
24.0
 40
24.0
 40
24.0
 40
25.0
 40
25.0
 40
25.0
 40
26.0
 40
26.0
 40
26.0
 40
27.0
 40
27.0
 40
27.0
 40
28.0
 40
28.0
 40
28.0
 40
29.0
 40
29.0
 40
29.0
 40
30.0
 40
30.0
 40
30.0
 40
31.0
 40
31.0
 40
31.0
 40
32.0
 40
32.0
 40
32.0
 40
33.0
 40
33.0
 40
33.0
 40
34.0
 40
34.0
 40
34.0
 40
35.0
 40
35.0
 40
35.0
 40
36.0
 40
36.0
 40
36.0
 40
37.0
 40
37.0
 40
37.0
 40
38.0
 40
38.0
 40
38.0
 40
39.0
 40
39.0
 40
39.0
 40
40.0
 40
40.0
 40
40.0
 40
41.0
 40
41.0
 40
41.0
 40
42.0
 40
42.0
 40
42.0
 40
43.0
 40
43.0
 40
43.0
 40
44.0
 40
44.0
 40
44.0
 40
45.0
 40
45.0
 40
45.0
 40
46.0
 40
46.0
 40
46.0
 40
47.0
 40
47.0
 40
47.0
 40
48.0
 40
48.0
 40
48.0
 40
49.0
 40
49.0
 40
49.0
 40
50.0
 40
50.0
 40
50.0
 40
51.0
 40
51.0
 40
51.0
 40
52.0
 40
52.0
 40
52.0
 40
53.0
 40
53.0
 40
53.0
 40
54.0
 40
54.0
 40
54.0
 40
55.0
 40
55.0
 40
55.0
 40
56.0
 40
56.0
 40
56.0
 40
57.0
 40
57.0
 40
57.0
 40
58.0
 40
58.0
 40
58.0
 40
59.0
 40
59.0
 40
59.0
 40
60.0
 40
60.0
 40
60.0
 40
61.0
 40
61.0
 40
61.0
 40
62.0
 40
62.0
 40
62.0
 40
63.0
 40
63.0
 40
63.0
 40
64.0
 40
64.0
 40
64.0
 40
65.0
 40
65.0
 40
65.0
 40
66.0
 40
66.0
 40
66.0
 40
66.0
 10
87.11285669480165
 20
-119.6278401393639
 10
87.11285669480165
 20
-119.6278401393639
 10
86.6239976454447
 20
-119.6278401393639
 10
86.6239976454447
 20
-119.6278401393639
 10
86.61469588763453
 20
-119.6722818711236
 10
86.6074611871155
 20
-119.7039767495879
 10
86.59609237201417
 20
-119.7422173094742
 10
86.6184854926683
 20
-119.7422173094742
 10
86.63157685551225
 20
-119.7442843667653
 10
86.63708900828865
 20
-119.7442843667653
 10
86.63708900828865
 20
-119.7442843667653
 10
86.80176457248359
 20
-119.7442843667653
 10
86.80176457248359
 20
-119.7442843667653
 10
86.80176457248359
 20
-119.7442843667653
 10
87.12939315313085
 20
-119.7442843667653
 10
87.12939315313085
 20
-119.7442843667653
 10
87.1741793944391
 20
-119.7442843667653
 10
87.42222626937709
 20
-119.7315375134699
 10
87.44978703325908
 20
-119.7315375134699
 10
87.44806448551645
 20
-119.7590982773519
 10
87.44634193777384
 20
-119.7780463025208
 10
87.44634193777384
 20
-119.8076741236939
 10
87.44427488048268
 20
-119.8393690021582
 10
87.44427488048268
 20
-119.9747612547285
 10
87.44427488048268
 20
-120.0023220186105
 10
87.44427488048268
 20
-120.0023220186105
 10
87.44427488048268
 20
-120.2477850719346
 10
87.44427488048268
 20
-120.2477850719346
 10
87.44427488048268
 20
-120.2922268036943
 10
87.44806448551645
 20
-120.4889417559021
 10
87.45185409055024
 20
-120.6412149763501
 10
87.45185409055024
 20
-120.6412149763501
 10
87.25376110014837
 20
-120.6412149763501
 10
87.25376110014837
 20
-120.6412149763501
 10
87.25376110014837
 20
-120.6412149763501
 10
87.255483647891
 20
-120.6074530405947
 10
87.255483647891
 20
-120.6074530405947
 10
87.255483647891
 20
-120.6074530405947
 10
86.64087861332243
 20
-120.6074530405947
 10
86.64087861332243
 20
-120.6074530405947
 10
86.64087861332243
 20
-120.6074530405947
 10
86.64260116106504
 20
-120.6412149763501
 10
86.64260116106504
 20
-120.6412149763501
 10
86.64260116106504
 20
-120.6412149763501
 10
86.4517428711822
 20
-120.6412149763501
 10
86.4517428711822
 20
-120.6412149763501
 10
86.45553247621598
 20
-120.5862657033604
 10
86.45553247621598
 20
-120.573518850065
 10
86.46104462899238
 20
-120.4593139347289
 10
86.46311168628353
 20
-120.4317531708469
 10
86.46483423402616
 20
-120.298600230342
 10
86.46483423402616
 20
-120.2794799503989
 10
86.46483423402616
 20
-120.2794799503989
 10
86.46483423402616
 20
-120.0763915715434
 10
86.46483423402616
 20
-120.0763915715434
 10
86.34253334429978
 20
-120.3259887394498
 10
86.19439423843404
 20
-120.4572468774378
 10
86.10172116988082
 20
-120.5227036916575
 10
86.10172116988082
 20
-120.5227036916575
 10
85.95013696852983
 20
-120.3831773245049
 10
85.95013696852983
 20
-120.3831773245049
 10
86.02765161694795
 20
-120.3323621660975
 10
86.1537421117081
 20
-120.2455457598692
 10
86.27397594414332
 20
-120.0510701197268
 10
86.35355764985259
 20
-119.9241183510954
 10
86.41109074445626
 20
-119.7802856145862
 10
86.44071856562941
 20
-119.6278401393639
 10
86.24055851793639
 20
-119.6300794514293
 10
86.083462163809
 20
-119.636452878077
 10
86.00009085306596
 20
-119.6385199353682
 10
86.00009085306596
 20
-119.6385199353682
 10
86.00009085306596
 20
-119.4607530083293
 10
86.00009085306596
 20
-119.4607530083293
 10
86.17234562732844
 20
-119.467126434977
 10
86.42039250226644
 20
-119.4714328043335
 10
86.55199514980298
 20
-119.4714328043335
 10
86.55199514980298
 20
-119.4714328043335
 10
86.73871932510352
 20
-119.4714328043335
 10
86.73871932510352
 20
-119.4714328043335
 10
86.73871932510352
 20
-119.4714328043335
 10
86.73871932510352
 20
-119.363429060871
 10
86.73871932510352
 20
-119.363429060871
 10
86.73871932510352
 20
-119.363429060871
 10
86.61125079214928
 20
-119.363429060871
 10
86.61125079214928
 20
-119.363429060871
 10
86.46311168628353
 20
-119.363429060871
 10
86.31497258041779
 20
-119.3677354302275
 10
86.16855602229467
 20
-119.3741088568752
 10
86.16855602229467
 20
-119.3741088568752
 10
86.16855602229467
 20
-119.202715356484
 10
86.16855602229467
 20
-119.202715356484
 10
86.30360376531647
 20
-119.2132228977141
 10
86.46655678176879
 20
-119.2132228977141
 10
86.61125079214928
 20
-119.2132228977141
 10
86.61125079214928
 20
-119.2132228977141
 10
86.73871932510352
 20
-119.2132228977141
 10
86.73871932510352
 20
-119.2132228977141
 10
86.73871932510352
 20
-119.2132228977141
 10
86.73871932510352
 20
-119.0948838677957
 10
86.73871932510352
 20
-119.0948838677957
 10
86.73871932510352
 20
-119.0948838677957
 10
86.6239976454447
 20
-119.0948838677957
 10
86.6239976454447
 20
-119.0948838677957
 10
86.58334551871874
 20
-119.0948838677957
 10
86.40557859167986
 20
-119.1033243517346
 10
86.36837156043916
 20
-119.1033243517346
 10
86.19060463340027
 20
-119.1074584663169
 10
86.12411429053495
 20
-119.109525523608
 10
86.05555689037847
 20
-119.1117648356735
 10
86.05555689037847
 20
-119.1117648356735
 10
86.05555689037847
 20
-118.9276244819869
 10
86.05555689037847
 20
-118.9276244819869
 10
86.15546465945071
 20
-118.9360649659257
 10
86.19439423843404
 20
-118.9360649659257
 10
86.52960202914885
 20
-118.9446777046388
 10
86.47413599183633
 20
-118.8494208144717
 10
86.45002032343959
 20
-118.8218600505897
 10
86.41832544497528
 20
-118.7858588027688
 10
86.41832544497528
 20
-118.7858588027688
 10
86.57232121316595
 20
-118.7033487658971
 10
86.57232121316595
 20
-118.7033487658971
 10
86.6074611871155
 20
-118.7393500137179
 10
86.64639076609882
 20
-118.7817246881865
 10
86.71115856122152
 20
-118.891623234166
 10
86.71115856122152
 20
-118.891623234166
 10
86.61125079214928
 20
-118.94674476193
 10
86.61125079214928
 20
-118.94674476193
 10
86.61125079214928
 20
-118.94674476193
 10
86.62020804041093
 20
-118.94674476193
 10
86.62020804041093
 20
-118.94674476193
 10
86.62020804041093
 20
-118.94674476193
 10
87.07771672085211
 20
-118.94674476193
 10
87.07771672085211
 20
-118.94674476193
 10
87.07771672085211
 20
-118.94674476193
 10
86.99434541010906
 20
-118.9023030301703
 10
86.99434541010906
 20
-118.9023030301703
 10
87.01846107850581
 20
-118.8642347250583
 10
87.06841496304193
 20
-118.7837917454777
 10
87.08150632588588
 20
-118.7097221925448
 10
87.08150632588588
 20
-118.7097221925448
 10
87.26857501073495
 20
-118.7732842042477
 10
87.26857501073495
 20
-118.7732842042477
 10
87.27580971125397
 20
-118.7753512615388
 10
87.29441322687431
 20
-118.7858588027688
 10
87.29441322687431
 20
-118.8070461400031
 10
87.29441322687431
 20
-118.8451144451151
 10
87.23688013227064
 20
-118.8451144451151
 10
87.22034367394144
 20
-118.8451144451151
 10
87.21104191613126
 20
-118.8642347250583
 10
87.19071585276829
 20
-118.9043700874614
 10
87.16487763662893
 20
-118.9446777046388
 10
87.51455482838178
 20
-118.9383042779911
 10
87.54073755406968
 20
-118.9360649659257
 10
87.607227896935
 20
-118.9298637940523
 10
87.607227896935
 20
-118.9298637940523
 10
87.607227896935
 20
-119.1117648356735
 10
87.607227896935
 20
-119.1117648356735
 10
87.5906914386058
 20
-119.1117648356735
 10
87.56829831795167
 20
-119.109525523608
 10
87.37571748032622
 20
-119.1010850396692
 10
87.3312757485665
 20
-119.099017982378
 10
87.13869491094103
 20
-119.0948838677957
 10
87.0997653319577
 20
-119.0948838677957
 10
87.0997653319577
 20
-119.0948838677957
 10
86.91097409936602
 20
-119.0948838677957
 10
86.91097409936602
 20
-119.0948838677957
 10
86.91097409936602
 20
-119.0948838677957
 10
86.91097409936602
 20
-119.2132228977141
 10
86.91097409936602
 20
-119.2132228977141
 10
86.91097409936602
 20
-119.2132228977141
 10
87.06290281026553
 20
-119.2132228977141
 10
87.06290281026553
 20
-119.2132228977141
 10
87.20552976335487
 20
-119.2132228977141
 10
87.37227238484097
 20
-119.2132228977141
 10
87.50904267560539
 20
-119.202715356484
 10
87.50904267560539
 20
-119.202715356484
 10
87.50904267560539
 20
-119.3741088568752
 10
87.50904267560539
 20
-119.3741088568752
 10
87.3257635957901
 20
-119.3656683729364
 10
87.1535088215276
 20
-119.363429060871
 10
87.06290281026553
 20
-119.363429060871
 10
87.06290281026553
 20
-119.363429060871
 10
86.91097409936602
 20
-119.363429060871
 10
86.91097409936602
 20
-119.363429060871
 10
86.91097409936602
 20
-119.363429060871
 10
86.91097409936602
 20
-119.4714328043335
 10
86.91097409936602
 20
-119.4714328043335
 10
86.91097409936602
 20
-119.4714328043335
 10
87.11285669480165
 20
-119.4714328043335
 10
87.11285669480165
 20
-119.4714328043335
 10
87.22964543175162
 20
-119.4714328043335
 10
87.48148191172338
 20
-119.467126434977
 10
87.66476099153867
 20
-119.4607530083293
 10
87.66476099153867
 20
-119.4607530083293
 10
87.66476099153867
 20
-119.6385199353682
 10
87.66476099153867
 20
-119.6385199353682
 10
87.49629582230996
 20
-119.6321465087204
 10
87.22206622168407
 20
-119.6278401393639
 10
87.11285669480165
 20
-119.6278401393639
 97
        0
 97
        0
 92
        1
 93
        4
 72
     1
 10
87.25720619563361
 20
-119.8838107339179
 11
86.63881155603127
 21
-119.8838107339179
 72
     1
 10
86.63881155603127
 20
-119.8838107339179
 11
86.63881155603127
 21
-119.9918144773805
 72
     1
 10
86.63881155603127
 20
-119.9918144773805
 11
87.25720619563361
 21
-119.9918144773805
 72
     1
 10
87.25720619563361
 20
-119.9918144773805
 11
87.25720619563361
 21
-119.8838107339179
 97
        0
 92
        1
 93
        4
 72
     1
 10
87.25720619563361
 20
-120.1165269339466
 11
86.63881155603127
 21
-120.1165269339466
 72
     1
 10
86.63881155603127
 20
-120.1165269339466
 11
86.63881155603127
 21
-120.2309041040569
 72
     1
 10
86.63881155603127
 20
-120.2309041040569
 11
87.25720619563361
 21
-120.2309041040569
 72
     1
 10
87.25720619563361
 20
-120.2309041040569
 11
87.25720619563361
 21
-120.1165269339466
 97
        0
 92
        1
 93
        4
 72
     1
 10
87.25720619563361
 20
-120.3599229299795
 11
86.63881155603127
 21
-120.3599229299795
 72
     1
 10
86.63881155603127
 20
-120.3599229299795
 11
86.63881155603127
 21
-120.4741278453155
 72
     1
 10
86.63881155603127
 20
-120.4741278453155
 11
87.25720619563361
 21
-120.4741278453155
 72
     1
 10
87.25720619563361
 20
-120.4741278453155
 11
87.25720619563361
 21
-120.3599229299795
 97
        0
 75
     2
 76
     1
 98
        0
  0
SPLINE
  5
11E
330
FF
100
AcDbEntity
  8
_U+30EC_U+30A4_U+30E4_U+30FC 1
370
     0
100
AcDbSpline
210
0.0
220
0.0
230
1.0
 70
    11
 71
     3
 72
    47
 73
    43
 74
     0
 42
0.0000000001
 43
0.0000000001
 12
1.0
 22
0.0
 32
0.0
 13
1.0
 23
0.0
 33
0.0
 40
0.0
 40
0.0
 40
0.0
 40
0.0
 40
1.0
 40
1.0
 40
1.0
 40
2.0
 40
2.0
 40
2.0
 40
3.0
 40
3.0
 40
3.0
 40
4.0
 40
4.0
 40
4.0
 40
5.0
 40
5.0
 40
5.0
 40
6.0
 40
6.0
 40
6.0
 40
7.0
 40
7.0
 40
7.0
 40
8.0
 40
8.0
 40
8.0
 40
9.0
 40
9.0
 40
9.0
 40
10.0
 40
10.0
 40
10.0
 40
11.0
 40
11.0
 40
11.0
 40
12.0
 40
12.0
 40
12.0
 40
13.0
 40
13.0
 40
13.0
 40
14.0
 40
14.0
 40
14.0
 40
14.0
 10
88.84470619523674
 20
-119.6045857448384
 30
0.0
 10
88.84470619523674
 20
-119.6045857448384
 30
0.0
 10
88.7558227317173
 20
-119.6045857448384
 30
0.0
 10
88.7558227317173
 20
-119.6045857448384
 30
0.0
 10
88.7558227317173
 20
-119.6914021510667
 30
0.0
 10
88.73721921609695
 20
-120.0806979409
 30
0.0
 10
88.56496444183446
 20
-120.3006672876332
 30
0.0
 10
88.43163924655529
 20
-120.4698214759589
 30
0.0
 10
88.25008271448262
 20
-120.5397569143095
 30
0.0
 10
88.17601316154975
 20
-120.5671454234172
 30
0.0
 10
88.17601316154975
 20
-120.5671454234172
 30
0.0
 10
88.0058254445784
 20
-120.4000582923826
 30
0.0
 10
88.0058254445784
 20
-120.4000582923826
 30
0.0
 10
88.09091930306408
 20
-120.3873114390872
 30
0.0
 10
88.24457056170623
 20
-120.3640570445618
 30
0.0
 10
88.40959063544969
 20
-120.1757825762929
 30
0.0
 10
88.47435843057238
 20
-120.1039523354254
 30
0.0
 10
88.56496444183446
 20
-119.9642537134985
 30
0.0
 10
88.56496444183446
 20
-119.6045857448384
 30
0.0
 10
88.56496444183446
 20
-119.6045857448384
 30
0.0
 10
88.36308184639881
 20
-119.6045857448384
 30
0.0
 10
88.36308184639881
 20
-119.6045857448384
 30
0.0
 10
88.2001288299465
 20
-119.6045857448384
 30
0.0
 10
88.03717581349419
 20
-119.608892114195
 30
0.0
 10
87.87422279704187
 20
-119.6237060247816
 30
0.0
 10
87.87422279704187
 20
-119.6237060247816
 30
0.0
 10
87.87422279704187
 20
-119.4037366780484
 30
0.0
 10
87.87422279704187
 20
-119.4037366780484
 30
0.0
 10
88.0388983612368
 20
-119.418550588635
 30
0.0
 10
88.28901229346594
 20
-119.4226847032173
 30
0.0
 10
88.36308184639881
 20
-119.4226847032173
 30
0.0
 10
88.36308184639881
 20
-119.4226847032173
 30
0.0
 10
88.84470619523674
 20
-119.4226847032173
 30
0.0
 10
88.84470619523674
 20
-119.4226847032173
 30
0.0
 10
88.86124265356594
 20
-119.4226847032173
 30
0.0
 10
89.13891734967709
 20
-119.4226847032173
 30
0.0
 10
89.33907739737009
 20
-119.4037366780484
 30
0.0
 10
89.33907739737009
 20
-119.4037366780484
 30
0.0
 10
89.33907739737009
 20
-119.6237060247816
 30
0.0
 10
89.33907739737009
 20
-119.6237060247816
 30
0.0
 10
89.17405732362663
 20
-119.608892114195
 30
0.0
 10
89.00938175943169
 20
-119.6045857448384
 30
0.0
 10
88.84470619523674
 20
-119.6045857448384
 30
0.0
  0
SPLINE
  5
11F
330
FF
100
AcDbEntity
  8
_U+30EC_U+30A4_U+30E4_U+30FC 1
370
     0
100
AcDbSpline
210
0.0
220
0.0
230
1.0
 70
    11
 71
     3
 72
    29
 73
    25
 74
     0
 42
0.0000000001
 43
0.0000000001
 12
1.0
 22
0.0
 32
0.0
 13
1.0
 23
0.0
 33
0.0
 40
0.0
 40
0.0
 40
0.0
 40
0.0
 40
1.0
 40
1.0
 40
1.0
 40
2.0
 40
2.0
 40
2.0
 40
3.0
 40
3.0
 40
3.0
 40
4.0
 40
4.0
 40
4.0
 40
5.0
 40
5.0
 40
5.0
 40
6.0
 40
6.0
 40
6.0
 40
7.0
 40
7.0
 40
7.0
 40
8.0
 40
8.0
 40
8.0
 40
8.0
 10
88.7558227317173
 20
-119.0757635878526
 30
0.0
 10
88.7558227317173
 20
-119.0757635878526
 30
0.0
 10
88.44645315714186
 20
-119.0757635878526
 30
0.0
 10
88.44645315714186
 20
-119.0757635878526
 30
0.0
 10
88.34826793581225
 20
-119.0757635878526
 30
0.0
 10
88.22596704608587
 20
-119.0821370145003
 30
0.0
 10
88.13157142979003
 20
-119.0948838677957
 30
0.0
 10
88.13157142979003
 20
-119.0948838677957
 30
0.0
 10
88.13157142979003
 20
-118.8599283557017
 30
0.0
 10
88.13157142979003
 20
-118.8599283557017
 30
0.0
 10
88.23526880389605
 20
-118.8747422662883
 30
0.0
 10
88.39649927260574
 20
-118.8790486356448
 30
0.0
 10
88.44645315714186
 20
-118.8790486356448
 30
0.0
 10
88.44645315714186
 20
-118.8790486356448
 30
0.0
 10
88.7558227317173
 20
-118.8790486356448
 30
0.0
 10
88.7558227317173
 20
-118.8790486356448
 30
0.0
 10
88.7723591900465
 20
-118.8790486356448
 30
0.0
 10
88.95012611708539
 20
-118.8790486356448
 30
0.0
 10
89.07414955455438
 20
-118.8599283557017
 30
0.0
 10
89.07414955455438
 20
-118.8599283557017
 30
0.0
 10
89.07414955455438
 20
-119.0948838677957
 30
0.0
 10
89.07414955455438
 20
-119.0948838677957
 30
0.0
 10
88.93703475424144
 20
-119.0757635878526
 30
0.0
 10
88.77063664230387
 20
-119.0757635878526
 30
0.0
 10
88.7558227317173
 20
-119.0757635878526
 30
0.0
  0
HATCH
  5
120
330
FF
100
AcDbEntity
  8
_U+30EC_U+30A4_U+30E4_U+30FC 1
 62
   179
420
  2234388
100
AcDbHatch
 10
0.0
 20
0.0
 30
0.0
210
0.0
220
0.0
230
1.0
  2
SOLID
 70
     1
 71
     0
 91
        2
 92
        1
 93
        1
 72
     4
 94
        3
 73
     0
 74
     1
 95
       47
 96
       43
 40
0.0
 40
0.0
 40
0.0
 40
0.0
 40
1.0
 40
1.0
 40
1.0
 40
2.0
 40
2.0
 40
2.0
 40
3.0
 40
3.0
 40
3.0
 40
4.0
 40
4.0
 40
4.0
 40
5.0
 40
5.0
 40
5.0
 40
6.0
 40
6.0
 40
6.0
 40
7.0
 40
7.0
 40
7.0
 40
8.0
 40
8.0
 40
8.0
 40
9.0
 40
9.0
 40
9.0
 40
10.0
 40
10.0
 40
10.0
 40
11.0
 40
11.0
 40
11.0
 40
12.0
 40
12.0
 40
12.0
 40
13.0
 40
13.0
 40
13.0
 40
14.0
 40
14.0
 40
14.0
 40
14.0
 10
88.84470619523674
 20
-119.6045857448384
 10
88.84470619523674
 20
-119.6045857448384
 10
88.7558227317173
 20
-119.6045857448384
 10
88.7558227317173
 20
-119.6045857448384
 10
88.7558227317173
 20
-119.6914021510667
 10
88.73721921609695
 20
-120.0806979409
 10
88.56496444183446
 20
-120.3006672876332
 10
88.43163924655529
 20
-120.4698214759589
 10
88.25008271448262
 20
-120.5397569143095
 10
88.17601316154975
 20
-120.5671454234172
 10
88.17601316154975
 20
-120.5671454234172
 10
88.0058254445784
 20
-120.4000582923826
 10
88.0058254445784
 20
-120.4000582923826
 10
88.09091930306408
 20
-120.3873114390872
 10
88.24457056170623
 20
-120.3640570445618
 10
88.40959063544969
 20
-120.1757825762929
 10
88.47435843057238
 20
-120.1039523354254
 10
88.56496444183446
 20
-119.9642537134985
 10
88.56496444183446
 20
-119.6045857448384
 10
88.56496444183446
 20
-119.6045857448384
 10
88.36308184639881
 20
-119.6045857448384
 10
88.36308184639881
 20
-119.6045857448384
 10
88.2001288299465
 20
-119.6045857448384
 10
88.03717581349419
 20
-119.608892114195
 10
87.87422279704187
 20
-119.6237060247816
 10
87.87422279704187
 20
-119.6237060247816
 10
87.87422279704187
 20
-119.4037366780484
 10
87.87422279704187
 20
-119.4037366780484
 10
88.0388983612368
 20
-119.418550588635
 10
88.28901229346594
 20
-119.4226847032173
 10
88.36308184639881
 20
-119.4226847032173
 10
88.36308184639881
 20
-119.4226847032173
 10
88.84470619523674
 20
-119.4226847032173
 10
88.84470619523674
 20
-119.4226847032173
 10
88.86124265356594
 20
-119.4226847032173
 10
89.13891734967709
 20
-119.4226847032173
 10
89.33907739737009
 20
-119.4037366780484
 10
89.33907739737009
 20
-119.4037366780484
 10
89.33907739737009
 20
-119.6237060247816
 10
89.33907739737009
 20
-119.6237060247816
 10
89.17405732362663
 20
-119.608892114195
 10
89.00938175943169
 20
-119.6045857448384
 10
88.84470619523674
 20
-119.6045857448384
 97
        0
 97
        0
 92
        1
 93
        1
 72
     4
 94
        3
 73
     0
 74
     1
 95
       29
 96
       25
 40
0.0
 40
0.0
 40
0.0
 40
0.0
 40
1.0
 40
1.0
 40
1.0
 40
2.0
 40
2.0
 40
2.0
 40
3.0
 40
3.0
 40
3.0
 40
4.0
 40
4.0
 40
4.0
 40
5.0
 40
5.0
 40
5.0
 40
6.0
 40
6.0
 40
6.0
 40
7.0
 40
7.0
 40
7.0
 40
8.0
 40
8.0
 40
8.0
 40
8.0
 10
88.7558227317173
 20
-119.0757635878526
 10
88.7558227317173
 20
-119.0757635878526
 10
88.44645315714186
 20
-119.0757635878526
 10
88.44645315714186
 20
-119.0757635878526
 10
88.34826793581225
 20
-119.0757635878526
 10
88.22596704608587
 20
-119.0821370145003
 10
88.13157142979003
 20
-119.0948838677957
 10
88.13157142979003
 20
-119.0948838677957
 10
88.13157142979003
 20
-118.8599283557017
 10
88.13157142979003
 20
-118.8599283557017
 10
88.23526880389605
 20
-118.8747422662883
 10
88.39649927260574
 20
-118.8790486356448
 10
88.44645315714186
 20
-118.8790486356448
 10
88.44645315714186
 20
-118.8790486356448
 10
88.7558227317173
 20
-118.8790486356448
 10
88.7558227317173
 20
-118.8790486356448
 10
88.7723591900465
 20
-118.8790486356448
 10
88.95012611708539
 20
-118.8790486356448
 10
89.07414955455438
 20
-118.8599283557017
 10
89.07414955455438
 20
-118.8599283557017
 10
89.07414955455438
 20
-119.0948838677957
 10
89.07414955455438
 20
-119.0948838677957
 10
88.93703475424144
 20
-119.0757635878526
 10
88.77063664230387
 20
-119.0757635878526
 10
88.7558227317173
 20
-119.0757635878526
 97
        0
 97
        0
 75
     2
 76
     1
 98
        0
  0
SPLINE
  5
121
330
FF
100
AcDbEntity
  8
_U+30EC_U+30A4_U+30E4_U+30FC 1
370
     0
100
AcDbSpline
210
0.0
220
0.0
230
1.0
 70
    11
 71
     3
 72
    29
 73
    25
 74
     0
 42
0.0000000001
 43
0.0000000001
 12
1.0
 22
0.0
 32
0.0
 13
1.0
 23
0.0
 33
0.0
 40
0.0
 40
0.0
 40
0.0
 40
0.0
 40
1.0
 40
1.0
 40
1.0
 40
2.0
 40
2.0
 40
2.0
 40
3.0
 40
3.0
 40
3.0
 40
4.0
 40
4.0
 40
4.0
 40
5.0
 40
5.0
 40
5.0
 40
6.0
 40
6.0
 40
6.0
 40
7.0
 40
7.0
 40
7.0
 40
8.0
 40
8.0
 40
8.0
 40
8.0
 10
90.46148950646449
 20
-119.7675387612908
 30
0.0
 10
90.46148950646449
 20
-119.7675387612908
 30
0.0
 10
90.03739825223023
 20
-119.7675387612908
 30
0.0
 10
90.03739825223023
 20
-119.7675387612908
 30
0.0
 10
90.01328258383349
 20
-119.7675387612908
 30
0.0
 10
89.73526337817383
 20
-119.7675387612908
 30
0.0
 10
89.55026175061592
 20
-119.7928602131073
 30
0.0
 10
89.55026175061592
 20
-119.7928602131073
 30
0.0
 10
89.55026175061592
 20
-119.5623833251441
 30
0.0
 10
89.55026175061592
 20
-119.5623833251441
 30
0.0
 10
89.68909909867148
 20
-119.5856377196696
 30
0.0
 10
89.85584172015757
 20
-119.5877047769607
 30
0.0
 10
90.03739825223023
 20
-119.5877047769607
 30
0.0
 10
90.03739825223023
 20
-119.5877047769607
 30
0.0
 10
90.46148950646449
 20
-119.5877047769607
 30
0.0
 10
90.46148950646449
 20
-119.5877047769607
 30
0.0
 10
90.62409801336828
 20
-119.5877047769607
 30
0.0
 10
90.78739553936913
 20
-119.5856377196696
 30
0.0
 10
90.94828149853029
 20
-119.5623833251441
 30
0.0
 10
90.94828149853029
 20
-119.5623833251441
 30
0.0
 10
90.94828149853029
 20
-119.7928602131073
 30
0.0
 10
90.94828149853029
 20
-119.7928602131073
 30
0.0
 10
90.78739553936913
 20
-119.7696058185819
 30
0.0
 10
90.57069903334691
 20
-119.7675387612908
 30
0.0
 10
90.46148950646449
 20
-119.7675387612908
 30
0.0
  0
HATCH
  5
122
330
FF
100
AcDbEntity
  8
_U+30EC_U+30A4_U+30E4_U+30FC 1
 62
   179
420
  2234388
100
AcDbHatch
 10
0.0
 20
0.0
 30
0.0
210
0.0
220
0.0
230
1.0
  2
SOLID
 70
     1
 71
     0
 91
        1
 92
        1
 93
        1
 72
     4
 94
        3
 73
     0
 74
     1
 95
       29
 96
       25
 40
0.0
 40
0.0
 40
0.0
 40
0.0
 40
1.0
 40
1.0
 40
1.0
 40
2.0
 40
2.0
 40
2.0
 40
3.0
 40
3.0
 40
3.0
 40
4.0
 40
4.0
 40
4.0
 40
5.0
 40
5.0
 40
5.0
 40
6.0
 40
6.0
 40
6.0
 40
7.0
 40
7.0
 40
7.0
 40
8.0
 40
8.0
 40
8.0
 40
8.0
 10
90.46148950646449
 20
-119.7675387612908
 10
90.46148950646449
 20
-119.7675387612908
 10
90.03739825223023
 20
-119.7675387612908
 10
90.03739825223023
 20
-119.7675387612908
 10
90.01328258383349
 20
-119.7675387612908
 10
89.73526337817383
 20
-119.7675387612908
 10
89.55026175061592
 20
-119.7928602131073
 10
89.55026175061592
 20
-119.7928602131073
 10
89.55026175061592
 20
-119.5623833251441
 10
89.55026175061592
 20
-119.5623833251441
 10
89.68909909867148
 20
-119.5856377196696
 10
89.85584172015757
 20
-119.5877047769607
 10
90.03739825223023
 20
-119.5877047769607
 10
90.03739825223023
 20
-119.5877047769607
 10
90.46148950646449
 20
-119.5877047769607
 10
90.46148950646449
 20
-119.5877047769607
 10
90.62409801336828
 20
-119.5877047769607
 10
90.78739553936913
 20
-119.5856377196696
 10
90.94828149853029
 20
-119.5623833251441
 10
90.94828149853029
 20
-119.5623833251441
 10
90.94828149853029
 20
-119.7928602131073
 10
90.94828149853029
 20
-119.7928602131073
 10
90.78739553936913
 20
-119.7696058185819
 10
90.57069903334691
 20
-119.7675387612908
 10
90.46148950646449
 20
-119.7675387612908
 97
        0
 97
        0
 75
     2
 76
     1
 98
        0
  0
SPLINE
  5
123
330
FF
100
AcDbEntity
  8
_U+30EC_U+30A4_U+30E4_U+30FC 1
370
     0
100
AcDbSpline
210
0.0
220
0.0
230
1.0
 70
    11
 71
     3
 72
    44
 73
    40
 74
     0
 42
0.0000000001
 43
0.0000000001
 12
1.0
 22
0.0
 32
0.0
 13
1.0
 23
0.0
 33
0.0
 40
0.0
 40
0.0
 40
0.0
 40
0.0
 40
1.0
 40
1.0
 40
1.0
 40
2.0
 40
2.0
 40
2.0
 40
3.0
 40
3.0
 40
3.0
 40
4.0
 40
4.0
 40
4.0
 40
5.0
 40
5.0
 40
5.0
 40
6.0
 40
6.0
 40
6.0
 40
7.0
 40
7.0
 40
7.0
 40
8.0
 40
8.0
 40
8.0
 40
9.0
 40
9.0
 40
9.0
 40
10.0
 40
10.0
 40
10.0
 40
11.0
 40
11.0
 40
11.0
 40
12.0
 40
12.0
 40
12.0
 40
13.0
 40
13.0
 40
13.0
 40
13.0
 10
92.39814993349769
 20
-119.3296671251155
 30
0.0
 10
92.29996471216806
 20
-119.6977755777145
 30
0.0
 10
92.25552298040834
 20
-119.8564222248102
 30
0.0
 10
92.08326820614586
 20
-120.1060193927166
 30
0.0
 10
91.92238224698468
 20
-120.336668535454
 30
0.0
 10
91.71498749877264
 20
-120.5227036916575
 30
0.0
 10
91.4703857193199
 20
-120.6158935245335
 30
0.0
 10
91.4703857193199
 20
-120.6158935245335
 30
0.0
 10
91.30209280486545
 20
-120.4360595402035
 30
0.0
 10
91.30209280486545
 20
-120.4360595402035
 30
0.0
 10
91.8631266046384
 20
-120.2837863197554
 30
0.0
 10
92.15182560630232
 20
-119.7274033988876
 30
0.0
 10
92.20729164361485
 20
-119.2872924506469
 30
0.0
 10
92.20729164361485
 20
-119.2872924506469
 30
0.0
 10
91.53722057173376
 20
-119.2872924506469
 30
0.0
 10
91.53722057173376
 20
-119.2872924506469
 30
0.0
 10
91.45557180873334
 20
-119.2872924506469
 30
0.0
 10
91.29485810434643
 20
-119.2915988200035
 30
0.0
 10
91.15774330403349
 20
-119.3105468451724
 30
0.0
 10
91.15774330403349
 20
-119.3105468451724
 30
0.0
 10
91.15774330403349
 20
-119.0905774984392
 30
0.0
 10
91.15774330403349
 20
-119.0905774984392
 30
0.0
 10
91.23353540470899
 20
-119.1117648356735
 30
0.0
 10
91.45384926099071
 20
-119.1117648356735
 30
0.0
 10
91.54101017676753
 20
-119.1117648356735
 30
0.0
 10
91.54101017676753
 20
-119.1117648356735
 30
0.0
 10
91.91859264195091
 20
-119.1117648356735
 30
0.0
 10
91.91859264195091
 20
-119.1117648356735
 30
0.0
 10
91.9557996731916
 20
-119.1117648356735
 30
0.0
 10
92.1611273641125
 20
-119.109525523608
 30
0.0
 10
92.19454479031943
 20
-119.1033243517346
 30
0.0
 10
92.2314073120116
 20
-119.0969509250869
 30
0.0
 10
92.23347436930274
 20
-119.0948838677957
 30
0.0
 10
92.28721785887265
 20
-119.0545762506183
 30
0.0
 10
92.28721785887265
 20
-119.0545762506183
 30
0.0
 10
92.45189342306759
 20
-119.2090887831318
 30
0.0
 10
92.45189342306759
 20
-119.2090887831318
 30
0.0
 10
92.42605520692821
 20
-119.2387166043049
 30
0.0
 10
92.41296384408426
 20
-119.2704114827692
 30
0.0
 10
92.39814993349769
 20
-119.3296671251155
 30
0.0
  0
SPLINE
  5
124
330
FF
100
AcDbEntity
  8
_U+30EC_U+30A4_U+30E4_U+30FC 1
370
     0
100
AcDbSpline
210
0.0
220
0.0
230
1.0
 70
    11
 71
     3
 72
    17
 73
    13
 74
     0
 42
0.0000000001
 43
0.0000000001
 12
1.0
 22
0.0
 32
0.0
 13
1.0
 23
0.0
 33
0.0
 40
0.0
 40
0.0
 40
0.0
 40
0.0
 40
1.0
 40
1.0
 40
1.0
 40
2.0
 40
2.0
 40
2.0
 40
3.0
 40
3.0
 40
3.0
 40
4.0
 40
4.0
 40
4.0
 40
4.0
 10
92.58142901331298
 20
-119.1307128608423
 30
0.0
 10
92.47049693868793
 20
-119.1307128608423
 30
0.0
 10
92.38161347516849
 20
-119.0292547988017
 30
0.0
 10
92.38161347516849
 20
-118.9023030301703
 30
0.0
 10
92.38161347516849
 20
-118.7753512615388
 30
0.0
 10
92.47049693868793
 20
-118.6716538874328
 30
0.0
 10
92.58142901331298
 20
-118.6716538874328
 30
0.0
 10
92.69270559748655
 20
-118.6716538874328
 30
0.0
 10
92.78331160874862
 20
-118.7753512615388
 30
0.0
 10
92.78331160874862
 20
-118.9023030301703
 30
0.0
 10
92.78331160874862
 20
-119.0292547988017
 30
0.0
 10
92.69270559748655
 20
-119.1307128608423
 30
0.0
 10
92.58142901331298
 20
-119.1307128608423
 30
0.0
  0
SPLINE
  5
125
330
FF
100
AcDbEntity
  8
_U+30EC_U+30A4_U+30E4_U+30FC 1
370
     0
100
AcDbSpline
210
0.0
220
0.0
230
1.0
 70
    11
 71
     3
 72
    17
 73
    13
 74
     0
 42
0.0000000001
 43
0.0000000001
 12
1.0
 22
0.0
 32
0.0
 13
1.0
 23
0.0
 33
0.0
 40
0.0
 40
0.0
 40
0.0
 40
0.0
 40
1.0
 40
1.0
 40
1.0
 40
2.0
 40
2.0
 40
2.0
 40
3.0
 40
3.0
 40
3.0
 40
4.0
 40
4.0
 40
4.0
 40
4.0
 10
92.57970646557035
 20
-118.8006727133554
 30
0.0
 10
92.53147512877686
 20
-118.8006727133554
 30
0.0
 10
92.49254554979353
 20
-118.8451144451151
 30
0.0
 10
92.49254554979353
 20
-118.9002359728791
 30
0.0
 10
92.49254554979353
 20
-118.95725230316
 30
0.0
 10
92.53147512877686
 20
-119.0060004042763
 30
0.0
 10
92.58349607060413
 20
-119.0060004042763
 30
0.0
 10
92.63517250288288
 20
-119.0060004042763
 30
0.0
 10
92.67031247683242
 20
-118.9551852458688
 30
0.0
 10
92.67031247683242
 20
-118.9023030301703
 30
0.0
 10
92.67031247683242
 20
-118.8451144451151
 30
0.0
 10
92.62966035010648
 20
-118.8006727133554
 30
0.0
 10
92.57970646557035
 20
-118.8006727133554
 30
0.0
  0
HATCH
  5
126
330
FF
100
AcDbEntity
  8
_U+30EC_U+30A4_U+30E4_U+30FC 1
 62
   179
420
  2234388
100
AcDbHatch
 10
0.0
 20
0.0
 30
0.0
210
0.0
220
0.0
230
1.0
  2
SOLID
 70
     1
 71
     0
 91
        3
 92
        1
 93
        1
 72
     4
 94
        3
 73
     0
 74
     1
 95
       44
 96
       40
 40
0.0
 40
0.0
 40
0.0
 40
0.0
 40
1.0
 40
1.0
 40
1.0
 40
2.0
 40
2.0
 40
2.0
 40
3.0
 40
3.0
 40
3.0
 40
4.0
 40
4.0
 40
4.0
 40
5.0
 40
5.0
 40
5.0
 40
6.0
 40
6.0
 40
6.0
 40
7.0
 40
7.0
 40
7.0
 40
8.0
 40
8.0
 40
8.0
 40
9.0
 40
9.0
 40
9.0
 40
10.0
 40
10.0
 40
10.0
 40
11.0
 40
11.0
 40
11.0
 40
12.0
 40
12.0
 40
12.0
 40
13.0
 40
13.0
 40
13.0
 40
13.0
 10
92.39814993349769
 20
-119.3296671251155
 10
92.29996471216806
 20
-119.6977755777145
 10
92.25552298040834
 20
-119.8564222248102
 10
92.08326820614586
 20
-120.1060193927166
 10
91.92238224698468
 20
-120.336668535454
 10
91.71498749877264
 20
-120.5227036916575
 10
91.4703857193199
 20
-120.6158935245335
 10
91.4703857193199
 20
-120.6158935245335
 10
91.30209280486545
 20
-120.4360595402035
 10
91.30209280486545
 20
-120.4360595402035
 10
91.8631266046384
 20
-120.2837863197554
 10
92.15182560630232
 20
-119.7274033988876
 10
92.20729164361485
 20
-119.2872924506469
 10
92.20729164361485
 20
-119.2872924506469
 10
91.53722057173376
 20
-119.2872924506469
 10
91.53722057173376
 20
-119.2872924506469
 10
91.45557180873334
 20
-119.2872924506469
 10
91.29485810434643
 20
-119.2915988200035
 10
91.15774330403349
 20
-119.3105468451724
 10
91.15774330403349
 20
-119.3105468451724
 10
91.15774330403349
 20
-119.0905774984392
 10
91.15774330403349
 20
-119.0905774984392
 10
91.23353540470899
 20
-119.1117648356735
 10
91.45384926099071
 20
-119.1117648356735
 10
91.54101017676753
 20
-119.1117648356735
 10
91.54101017676753
 20
-119.1117648356735
 10
91.91859264195091
 20
-119.1117648356735
 10
91.91859264195091
 20
-119.1117648356735
 10
91.9557996731916
 20
-119.1117648356735
 10
92.1611273641125
 20
-119.109525523608
 10
92.19454479031943
 20
-119.1033243517346
 10
92.2314073120116
 20
-119.0969509250869
 10
92.23347436930274
 20
-119.0948838677957
 10
92.28721785887265
 20
-119.0545762506183
 10
92.28721785887265
 20
-119.0545762506183
 10
92.45189342306759
 20
-119.2090887831318
 10
92.45189342306759
 20
-119.2090887831318
 10
92.42605520692821
 20
-119.2387166043049
 10
92.41296384408426
 20
-119.2704114827692
 10
92.39814993349769
 20
-119.3296671251155
 97
        0
 97
        0
 92
        1
 93
        1
 72
     4
 94
        3
 73
     0
 74
     1
 95
       17
 96
       13
 40
0.0
 40
0.0
 40
0.0
 40
0.0
 40
1.0
 40
1.0
 40
1.0
 40
2.0
 40
2.0
 40
2.0
 40
3.0
 40
3.0
 40
3.0
 40
4.0
 40
4.0
 40
4.0
 40
4.0
 10
92.58142901331298
 20
-119.1307128608423
 10
92.47049693868793
 20
-119.1307128608423
 10
92.38161347516849
 20
-119.0292547988017
 10
92.38161347516849
 20
-118.9023030301703
 10
92.38161347516849
 20
-118.7753512615388
 10
92.47049693868793
 20
-118.6716538874328
 10
92.58142901331298
 20
-118.6716538874328
 10
92.69270559748655
 20
-118.6716538874328
 10
92.78331160874862
 20
-118.7753512615388
 10
92.78331160874862
 20
-118.9023030301703
 10
92.78331160874862
 20
-119.0292547988017
 10
92.69270559748655
 20
-119.1307128608423
 10
92.58142901331298
 20
-119.1307128608423
 97
        0
 97
        0
 92
        1
 93
        1
 72
     4
 94
        3
 73
     0
 74
     1
 95
       17
 96
       13
 40
0.0
 40
0.0
 40
0.0
 40
0.0
 40
1.0
 40
1.0
 40
1.0
 40
2.0
 40
2.0
 40
2.0
 40
3.0
 40
3.0
 40
3.0
 40
4.0
 40
4.0
 40
4.0
 40
4.0
 10
92.57970646557035
 20
-118.8006727133554
 10
92.53147512877686
 20
-118.8006727133554
 10
92.49254554979353
 20
-118.8451144451151
 10
92.49254554979353
 20
-118.9002359728791
 10
92.49254554979353
 20
-118.95725230316
 10
92.53147512877686
 20
-119.0060004042763
 10
92.58349607060413
 20
-119.0060004042763
 10
92.63517250288288
 20
-119.0060004042763
 10
92.67031247683242
 20
-118.9551852458688
 10
92.67031247683242
 20
-118.9023030301703
 10
92.67031247683242
 20
-118.8451144451151
 10
92.62966035010648
 20
-118.8006727133554
 10
92.57970646557035
 20
-118.8006727133554
 97
        0
 97
        0
 75
     2
 76
     1
 98
        0
  0
ENDBLK
  5
102
330
FF
100
AcDbEntity
  8
0
100
AcDbBlockEnd
  0
ENDSEC
  0
SECTION
  2
ENTITIES
  0
INSERT
  5
42
330
1F
100
AcDbEntity
  8
_U+30EC_U+30A4_U+30E4_U+30FC 1
100
AcDbBlockReference
  2
block 2
 10
0.0
 20
0.0
 30
0.0
  0
INSERT
  5
A6
330
1F
100
AcDbEntity
  8
_U+30EC_U+30A4_U+30E4_U+30FC 1
100
AcDbBlockReference
  2
block 14
 10
0.0
 20
0.0
 30
0.0
  0
POLYLINE
  5
EE
330
1F
100
AcDbEntity
  8
_U+30EC_U+30A4_U+30E4_U+30FC 1
  6
AI-Linetype-1
 62
   154
420
    23468
370
    25
100
AcDb2dPolyline
 66
     1
 10
0.0
 20
0.0
 30
0.0
  0
VERTEX
  5
EF
330
EE
100
AcDbEntity
  8
_U+30EC_U+30A4_U+30E4_U+30FC 1
  6
AI-Linetype-1
 62
   154
420
    23468
370
    25
100
AcDbVertex
100
AcDb2dVertex
 10
84.79070117014233
 20
-131.4372741338076
 30
0.0
  0
VERTEX
  5
F0
330
EE
100
AcDbEntity
  8
_U+30EC_U+30A4_U+30E4_U+30FC 1
  6
AI-Linetype-1
 62
   154
420
    23468
370
    25
100
AcDbVertex
100
AcDb2dVertex
 10
94.79008119281467
 20
-131.4372741338076
 30
0.0
  0
SEQEND
  5
F2
330
EE
100
AcDbEntity
  8
_U+30EC_U+30A4_U+30E4_U+30FC 1
  6
AI-Linetype-1
 62
   154
420
    23468
370
    25
  0
POLYLINE
  5
F3
330
1F
100
AcDbEntity
  8
_U+30EC_U+30A4_U+30E4_U+30FC 1
 62
   179
420
  2234388
370
     9
100
AcDb2dPolyline
 66
     1
 10
0.0
 20
0.0
 30
0.0
  0
VERTEX
  5
F4
330
F3
100
AcDbEntity
  8
_U+30EC_U+30A4_U+30E4_U+30FC 1
 62
   179
420
  2234388
370
     9
100
AcDbVertex
100
AcDb2dVertex
 10
86.83466028466326
 20
-130.9370705228214
 30
0.0
  0
VERTEX
  5
F5
330
F3
100
AcDbEntity
  8
_U+30EC_U+30A4_U+30E4_U+30FC 1
 62
   179
420
  2234388
370
     9
100
AcDbVertex
100
AcDb2dVertex
 10
87.09303472251602
 20
-129.9710591341737
 30
0.0
  0
SEQEND
  5
F6
330
F3
100
AcDbEntity
  8
_U+30EC_U+30A4_U+30E4_U+30FC 1
 62
   179
420
  2234388
370
     9
  0
POLYLINE
  5
F7
330
1F
100
AcDbEntity
  8
_U+30EC_U+30A4_U+30E4_U+30FC 1
 62
   179
420
  2234388
370
     9
100
AcDb2dPolyline
 66
     1
 10
0.0
 20
0.0
 30
0.0
  0
VERTEX
  5
F8
330
F7
100
AcDbEntity
  8
_U+30EC_U+30A4_U+30E4_U+30FC 1
 62
   179
420
  2234388
370
     9
100
AcDbVertex
100
AcDb2dVertex
 10
86.83466028466326
 20
-130.9370705228214
 30
0.0
  0
VERTEX
  5
F9
330
F7
100
AcDbEntity
  8
_U+30EC_U+30A4_U+30E4_U+30FC 1
 62
   179
420
  2234388
370
     9
100
AcDbVertex
100
AcDb2dVertex
 10
86.83466028466326
 20
-121.5615777473873
 30
0.0
  0
SEQEND
  5
FA
330
F7
100
AcDbEntity
  8
_U+30EC_U+30A4_U+30E4_U+30FC 1
 62
   179
420
  2234388
370
     9
  0
POLYLINE
  5
FB
330
1F
100
AcDbEntity
  8
_U+30EC_U+30A4_U+30E4_U+30FC 1
 62
   179
420
  2234388
370
     9
100
AcDb2dPolyline
 66
     1
 10
0.0
 20
0.0
 30
0.0
  0
VERTEX
  5
FC
330
FB
100
AcDbEntity
  8
_U+30EC_U+30A4_U+30E4_U+30FC 1
 62
   179
420
  2234388
370
     9
100
AcDbVertex
100
AcDb2dVertex
 10
86.83466028466326
 20
-130.9370705228214
 30
0.0
  0
VERTEX
  5
FD
330
FB
100
AcDbEntity
  8
_U+30EC_U+30A4_U+30E4_U+30FC 1
 62
   179
420
  2234388
370
     9
100
AcDbVertex
100
AcDb2dVertex
 10
86.57558029127294
 20
-129.9710591341737
 30
0.0
  0
SEQEND
  5
FE
330
FB
100
AcDbEntity
  8
_U+30EC_U+30A4_U+30E4_U+30FC 1
 62
   179
420
  2234388
370
     9
  0
INSERT
  5
100
330
1F
100
AcDbEntity
  8
_U+30EC_U+30A4_U+30E4_U+30FC 1
100
AcDbBlockReference
  2
block 17
 10
0.0
 20
0.0
 30
0.0
  0
ENDSEC
  0
SECTION
  2
OBJECTS
  0
DICTIONARY
  5
C
330
0
100
AcDbDictionary
281
     1
  3
ACAD_GROUP
350
D
  3
ACAD_LAYOUT
350
1A
  3
ACAD_MATERIAL
350
3B
  3
ACAD_MLEADERSTYLE
350
129
  3
ACAD_MLINESTYLE
350
17
  3
ACAD_PLOTSETTINGS
350
19
  3
ACAD_PLOTSTYLENAME
350
E
  3
ACAD_TABLESTYLE
350
128
  3
ACAD_VISUALSTYLE
350
2A
  0
SUN
  5
3F
330
29
100
AcDbSun
 90
        1
290
     0
 63
     7
421
 16777215
 40
1.0
291
     1
 91
  2455826
 92
 54000000
292
     0
 70
     2
 71
   256
280
     1
  0
DICTIONARY
  5
D
102
{ACAD_REACTORS
330
C
102
}
330
C
100
AcDbDictionary
281
     1
  0
DICTIONARY
  5
1A
102
{ACAD_REACTORS
330
C
102
}
330
C
100
AcDbDictionary
281
     1
  3
Layout1
350
1E
  3
Layout2
350
26
  3
Model
350
22
  0
DICTIONARY
  5
3B
102
{ACAD_REACTORS
330
C
102
}
330
C
100
AcDbDictionary
281
     1
  3
ByBlock
350
3D
  3
ByLayer
350
3C
  3
Global
350
3E
  0
DICTIONARY
  5
129
102
{ACAD_REACTORS
330
C
102
}
330
C
100
AcDbDictionary
281
     1
  0
DICTIONARY
  5
17
102
{ACAD_REACTORS
330
C
102
}
330
C
100
AcDbDictionary
281
     1
  3
Standard
350
18
  0
DICTIONARY
  5
19
102
{ACAD_REACTORS
330
C
102
}
330
C
100
AcDbDictionary
281
     1
  0
ACDBDICTIONARYWDFLT
  5
E
102
{ACAD_REACTORS
330
C
102
}
330
C
100
AcDbDictionary
281
     1
  3
Normal
350
F
100
AcDbDictionaryWithDefault
340
F
  0
DICTIONARY
  5
128
102
{ACAD_REACTORS
330
C
102
}
330
C
100
AcDbDictionary
281
     1
  0
DICTIONARY
  5
2A
102
{ACAD_REACTORS
330
C
102
}
330
C
100
AcDbDictionary
281
     1
  3
2dWireframe
350
2F
  3
3D Hidden
350
31
  3
3dWireframe
350
30
  3
Basic
350
32
  3
Brighten
350
36
  3
ColorChange
350
3A
  3
Conceptual
350
34
  3
Dim
350
35
  3
Facepattern
350
39
  3
Flat
350
2B
  3
FlatWithEdges
350
2C
  3
Gouraud
350
2D
  3
GouraudWithEdges
350
2E
  3
Linepattern
350
38
  3
Realistic
350
33
  3
Thicken
350
37
  0
LAYOUT
  5
1E
102
{ACAD_REACTORS
330
1A
102
}
330
1A
100
AcDbPlotSettings
  1

  2
none_device
  4

  6

 40
0.0
 41
0.0
 42
0.0
 43
0.0
 44
0.0
 45
0.0
 46
0.0
 47
0.0
 48
0.0
 49
0.0
140
0.0
141
0.0
142
1.0
143
1.0
 70
   688
 72
     0
 73
     0
 74
     5
  7

 75
    16
 76
     0
 77
     2
 78
   300
147
1.0
148
0.0
149
0.0
100
AcDbLayout
  1
Layout1
 70
     1
 71
     1
 10
0.0
 20
0.0
 11
12.0
 21
9.0
 12
0.0
 22
0.0
 32
0.0
 14
1.000000000000000E+20
 24
1.000000000000000E+20
 34
1.000000000000000E+20
 15
-1.000000000000000E+20
 25
-1.000000000000000E+20
 35
-1.000000000000000E+20
146
0.0
 13
0.0
 23
0.0
 33
0.0
 16
1.0
 26
0.0
 36
0.0
 17
0.0
 27
1.0
 37
0.0
 76
     0
330
1B
  0
LAYOUT
  5
26
102
{ACAD_REACTORS
330
1A
102
}
330
1A
100
AcDbPlotSettings
  1

  2
none_device
  4

  6

 40
0.0
 41
0.0
 42
0.0
 43
0.0
 44
0.0
 45
0.0
 46
0.0
 47
0.0
 48
0.0
 49
0.0
140
0.0
141
0.0
142
1.0
143
1.0
 70
   688
 72
     0
 73
     0
 74
     5
  7

 75
    16
 76
     0
 77
     2
 78
   300
147
1.0
148
0.0
149
0.0
100
AcDbLayout
  1
Layout2
 70
     1
 71
     2
 10
0.0
 20
0.0
 11
0.0
 21
0.0
 12
0.0
 22
0.0
 32
0.0
 14
0.0
 24
0.0
 34
0.0
 15
0.0
 25
0.0
 35
0.0
146
0.0
 13
0.0
 23
0.0
 33
0.0
 16
1.0
 26
0.0
 36
0.0
 17
0.0
 27
1.0
 37
0.0
 76
     0
330
23
  0
LAYOUT
  5
22
102
{ACAD_REACTORS
330
1A
102
}
330
1A
100
AcDbPlotSettings
  1

  2
none_device
  4

  6

 40
0.0
 41
0.0
 42
0.0
 43
0.0
 44
0.0
 45
0.0
 46
0.0
 47
0.0
 48
0.0
 49
0.0
140
0.0
141
0.0
142
1.0
143
1.0
 70
  1712
 72
     0
 73
     0
 74
     0
  7

 75
     0
 76
     0
 77
     2
 78
   300
147
1.0
148
0.0
149
0.0
100
AcDbLayout
  1
Model
 70
     1
 71
     0
 10
0.0
 20
0.0
 11
12.0
 21
9.0
 12
0.0
 22
0.0
 32
0.0
 14
1.000000000000000E+20
 24
1.000000000000000E+20
 34
1.000000000000000E+20
 15
-1.000000000000000E+20
 25
-1.000000000000000E+20
 35
-1.000000000000000E+20
146
0.0
 13
0.0
 23
0.0
 33
0.0
 16
1.0
 26
0.0
 36
0.0
 17
0.0
 27
1.0
 37
0.0
 76
     0
330
1F
331
29
  0
MATERIAL
  5
3D
102
{ACAD_REACTORS
330
3B
102
}
330
3B
100
AcDbMaterial
  1
ByBlock
 72
     1
 94
      127
  0
MATERIAL
  5
3C
102
{ACAD_REACTORS
330
3B
102
}
330
3B
100
AcDbMaterial
  1
ByLayer
 72
     1
 94
      127
  0
MATERIAL
  5
3E
102
{ACAD_REACTORS
330
3B
102
}
330
3B
100
AcDbMaterial
  1
Global
 72
     1
 94
      127
  0
MLINESTYLE
  5
18
102
{ACAD_REACTORS
330
17
102
}
330
17
100
AcDbMlineStyle
  2
Standard
 70
     0
  3

 62
   256
 51
90.0
 52
90.0
 71
     2
 49
0.5
 62
   256
  6
BYLAYER
 49
-0.5
 62
   256
  6
BYLAYER
  0
ACDBPLACEHOLDER
  5
F
102
{ACAD_REACTORS
330
E
102
}
330
E
  0
VISUALSTYLE
  5
2F
102
{ACAD_REACTORS
330
2A
102
}
330
2A
100
AcDbVisualStyle
  2
2dWireframe
 70
     4
177
     2
291
     0
 71
     0
176
     1
 72
     2
176
     1
 73
     0
176
     1
 90
        0
176
     1
 40
-0.6
176
     1
 41
-30.0
176
     1
 62
     5
 63
     7
421
 16777215
176
     1
 74
     1
176
     1
 91
        4
176
     1
 64
     7
176
     1
 65
   257
176
     1
 75
     1
176
     1
175
     1
176
     1
 42
1.0
176
     1
 92
        0
176
     1
 66
   257
176
     1
 43
1.0
176
     1
 76
     1
176
     1
 77
     6
176
     1
 78
     2
176
     1
 67
     7
176
     1
 79
     5
176
     1
170
     0
176
     1
171
     0
176
     1
290
     0
176
     1
 93
        1
176
     1
 44
0.0
176
     1
173
     0
176
     1
  0
VISUALSTYLE
  5
31
102
{ACAD_REACTORS
330
2A
102
}
330
2A
100
AcDbVisualStyle
  2
3D Hidden
 70
     6
177
     2
291
     0
 71
     1
176
     1
 72
     2
176
     1
 73
     2
176
     1
 90
        0
176
     1
 40
-0.6
176
     1
 41
-30.0
176
     1
 62
     5
 63
     7
421
 16777215
176
     1
 74
     2
176
     1
 91
        2
176
     1
 64
     7
176
     1
 65
   257
176
     1
 75
     2
176
     1
175
     1
176
     1
 42
40.0
176
     1
 92
        0
176
     1
 66
   257
176
     1
 43
1.0
176
     1
 76
     1
176
     1
 77
     6
176
     1
 78
     2
176
     1
 67
     7
176
     1
 79
     3
176
     1
170
     0
176
     1
171
     0
176
     1
290
     0
176
     1
 93
        1
176
     1
 44
0.0
176
     1
173
     0
176
     1
  0
VISUALSTYLE
  5
30
102
{ACAD_REACTORS
330
2A
102
}
330
2A
100
AcDbVisualStyle
  2
3dWireframe
 70
     5
177
     2
291
     0
 71
     0
176
     1
 72
     2
176
     1
 73
     0
176
     1
 90
        0
176
     1
 40
-0.6
176
     1
 41
-30.0
176
     1
 62
     5
 63
     7
421
 16777215
176
     1
 74
     1
176
     1
 91
        4
176
     1
 64
     7
176
     1
 65
   257
176
     1
 75
     1
176
     1
175
     1
176
     1
 42
1.0
176
     1
 92
        0
176
     1
 66
   257
176
     1
 43
1.0
176
     1
 76
     1
176
     1
 77
     6
176
     1
 78
     2
176
     1
 67
     7
176
     1
 79
     5
176
     1
170
     0
176
     1
171
     0
176
     1
290
     0
176
     1
 93
        1
176
     1
 44
0.0
176
     1
173
     0
176
     1
  0
VISUALSTYLE
  5
32
102
{ACAD_REACTORS
330
2A
102
}
330
2A
100
AcDbVisualStyle
  2
Basic
 70
     7
177
     2
291
     1
 71
     1
176
     1
 72
     0
176
     1
 73
     1
176
     1
 90
        0
176
     1
 40
-0.6
176
     1
 41
-30.0
176
     1
 62
     5
 63
     7
421
 16777215
176
     1
 74
     0
176
     1
 91
        4
176
     1
 64
     7
176
     1
 65
   257
176
     1
 75
     1
176
     1
175
     1
176
     1
 42
1.0
176
     1
 92
        8
176
     1
 66
     7
176
     1
 43
1.0
176
     1
 76
     1
176
     1
 77
     6
176
     1
 78
     2
176
     1
 67
     7
176
     1
 79
     5
176
     1
170
     0
176
     1
171
     0
176
     1
290
     0
176
     1
 93
        1
176
     1
 44
0.0
176
     1
173
     0
176
     1
  0
VISUALSTYLE
  5
36
102
{ACAD_REACTORS
330
2A
102
}
330
2A
100
AcDbVisualStyle
  2
Brighten
 70
    12
177
     2
291
     1
 71
     2
176
     1
 72
     2
176
     1
 73
     0
176
     1
 90
        0
176
     1
 40
-0.6
176
     1
 41
-30.0
176
     1
 62
     5
 63
     7
421
 16777215
176
     1
 74
     1
176
     1
 91
        4
176
     1
 64
     7
176
     1
 65
   257
176
     1
 75
     1
176
     1
175
     1
176
     1
 42
1.0
176
     1
 92
        8
176
     1
 66
     7
176
     1
 43
1.0
176
     1
 76
     1
176
     1
 77
     6
176
     1
 78
     2
176
     1
 67
     7
176
     1
 79
     5
176
     1
170
     0
176
     1
171
     0
176
     1
290
     0
176
     1
 93
        1
176
     1
 44
50.0
176
     1
173
     0
176
     1
  0
VISUALSTYLE
  5
3A
102
{ACAD_REACTORS
330
2A
102
}
330
2A
100
AcDbVisualStyle
  2
ColorChange
 70
    16
177
     2
291
     1
 71
     2
176
     1
 72
     2
176
     1
 73
     3
176
     1
 90
        0
176
     1
 40
-0.6
176
     1
 41
-30.0
176
     1
 62
     5
 63
     8
421
  8421504
176
     1
 74
     1
176
     1
 91
        4
176
     1
 64
     7
176
     1
 65
   257
176
     1
 75
     1
176
     1
175
     1
176
     1
 42
1.0
176
     1
 92
        8
176
     1
 66
     8
424
  8421504
176
     1
 43
1.0
176
     1
 76
     1
176
     1
 77
     6
176
     1
 78
     2
176
     1
 67
     7
176
     1
 79
     5
176
     1
170
     0
176
     1
171
     0
176
     1
290
     0
176
     1
 93
        1
176
     1
 44
0.0
176
     1
173
     0
176
     1
  0
VISUALSTYLE
  5
34
102
{ACAD_REACTORS
330
2A
102
}
330
2A
100
AcDbVisualStyle
  2
Conceptual
 70
     9
177
     2
291
     0
 71
     3
176
     1
 72
     2
176
     1
 73
     0
176
     1
 90
        0
176
     1
 40
-0.6
176
     1
 41
-30.0
176
     1
 62
     5
 63
     7
421
 16777215
176
     1
 74
     2
176
     1
 91
        2
176
     1
 64
     7
176
     1
 65
   257
176
     1
 75
     1
176
     1
175
     1
176
     1
 42
40.0
176
     1
 92
        8
176
     1
 66
     7
176
     1
 43
1.0
176
     1
 76
     1
176
     1
 77
     6
176
     1
 78
     2
176
     1
 67
     7
176
     1
 79
     3
176
     1
170
     0
176
     1
171
     0
176
     1
290
     0
176
     1
 93
        1
176
     1
 44
0.0
176
     1
173
     0
176
     1
  0
VISUALSTYLE
  5
35
102
{ACAD_REACTORS
330
2A
102
}
330
2A
100
AcDbVisualStyle
  2
Dim
 70
    11
177
     2
291
     1
 71
     2
176
     1
 72
     2
176
     1
 73
     0
176
     1
 90
        0
176
     1
 40
-0.6
176
     1
 41
-30.0
176
     1
 62
     5
 63
     7
421
 16777215
176
     1
 74
     1
176
     1
 91
        4
176
     1
 64
     7
176
     1
 65
   257
176
     1
 75
     1
176
     1
175
     1
176
     1
 42
1.0
176
     1
 92
        8
176
     1
 66
     7
176
     1
 43
1.0
176
     1
 76
     1
176
     1
 77
     6
176
     1
 78
     2
176
     1
 67
     7
176
     1
 79
     5
176
     1
170
     0
176
     1
171
     0
176
     1
290
     0
176
     1
 93
        1
176
     1
 44
-50.0
176
     1
173
     0
176
     1
  0
VISUALSTYLE
  5
39
102
{ACAD_REACTORS
330
2A
102
}
330
2A
100
AcDbVisualStyle
  2
Facepattern
 70
    15
177
     2
291
     1
 71
     2
176
     1
 72
     2
176
     1
 73
     0
176
     1
 90
        0
176
     1
 40
-0.6
176
     1
 41
-30.0
176
     1
 62
     5
 63
     7
421
 16777215
176
     1
 74
     1
176
     1
 91
        4
176
     1
 64
     7
176
     1
 65
   257
176
     1
 75
     1
176
     1
175
     1
176
     1
 42
1.0
176
     1
 92
        8
176
     1
 66
     7
176
     1
 43
1.0
176
     1
 76
     1
176
     1
 77
     6
176
     1
 78
     2
176
     1
 67
     7
176
     1
 79
     5
176
     1
170
     0
176
     1
171
     0
176
     1
290
     0
176
     1
 93
        1
176
     1
 44
0.0
176
     1
173
     0
176
     1
  0
VISUALSTYLE
  5
2B
102
{ACAD_REACTORS
330
2A
102
}
330
2A
100
AcDbVisualStyle
  2
Flat
 70
     0
177
     2
291
     1
 71
     2
176
     1
 72
     1
176
     1
 73
     1
176
     1
 90
        2
176
     1
 40
-0.6
176
     1
 41
30.0
176
     1
 62
     5
 63
     7
421
 16777215
176
     1
 74
     0
176
     1
 91
        4
176
     1
 64
     7
176
     1
 65
   257
176
     1
 75
     1
176
     1
175
     1
176
     1
 42
1.0
176
     1
 92
        8
176
     1
 66
     7
176
     1
 43
1.0
176
     1
 76
     1
176
     1
 77
     6
176
     1
 78
     2
176
     1
 67
     7
176
     1
 79
     5
176
     1
170
     0
176
     1
171
     0
176
     1
290
     0
176
     1
 93
       13
176
     1
 44
0.0
176
     1
173
     0
176
     1
  0
VISUALSTYLE
  5
2C
102
{ACAD_REACTORS
330
2A
102
}
330
2A
100
AcDbVisualStyle
  2
FlatWithEdges
 70
     1
177
     2
291
     1
 71
     2
176
     1
 72
     1
176
     1
 73
     1
176
     1
 90
        2
176
     1
 40
-0.6
176
     1
 41
30.0
176
     1
 62
     5
 63
     7
421
 16777215
176
     1
 74
     1
176
     1
 91
        4
176
     1
 64
     7
176
     1
 65
   257
176
     1
 75
     1
176
     1
175
     1
176
     1
 42
1.0
176
     1
 92
        0
176
     1
 66
   257
176
     1
 43
1.0
176
     1
 76
     1
176
     1
 77
     6
176
     1
 78
     2
176
     1
 67
     7
176
     1
 79
     5
176
     1
170
     0
176
     1
171
     0
176
     1
290
     0
176
     1
 93
       13
176
     1
 44
0.0
176
     1
173
     0
176
     1
  0
VISUALSTYLE
  5
2D
102
{ACAD_REACTORS
330
2A
102
}
330
2A
100
AcDbVisualStyle
  2
Gouraud
 70
     2
177
     2
291
     1
 71
     2
176
     1
 72
     2
176
     1
 73
     1
176
     1
 90
        2
176
     1
 40
-0.6
176
     1
 41
30.0
176
     1
 62
     5
 63
     7
421
 16777215
176
     1
 74
     0
176
     1
 91
        4
176
     1
 64
     7
176
     1
 65
   257
176
     1
 75
     1
176
     1
175
     1
176
     1
 42
1.0
176
     1
 92
        0
176
     1
 66
     7
176
     1
 43
1.0
176
     1
 76
     1
176
     1
 77
     6
176
     1
 78
     2
176
     1
 67
     7
176
     1
 79
     5
176
     1
170
     0
176
     1
171
     0
176
     1
290
     0
176
     1
 93
       13
176
     1
 44
0.0
176
     1
173
     0
176
     1
  0
VISUALSTYLE
  5
2E
102
{ACAD_REACTORS
330
2A
102
}
330
2A
100
AcDbVisualStyle
  2
GouraudWithEdges
 70
     3
177
     2
291
     1
 71
     2
176
     1
 72
     2
176
     1
 73
     1
176
     1
 90
        2
176
     1
 40
-0.6
176
     1
 41
30.0
176
     1
 62
     5
 63
     7
421
 16777215
176
     1
 74
     1
176
     1
 91
        4
176
     1
 64
     7
176
     1
 65
   257
176
     1
 75
     1
176
     1
175
     1
176
     1
 42
1.0
176
     1
 92
        0
176
     1
 66
   257
176
     1
 43
1.0
176
     1
 76
     1
176
     1
 77
     6
176
     1
 78
     2
176
     1
 67
     7
176
     1
 79
     5
176
     1
170
     0
176
     1
171
     0
176
     1
290
     0
176
     1
 93
       13
176
     1
 44
0.0
176
     1
173
     0
176
     1
  0
VISUALSTYLE
  5
38
102
{ACAD_REACTORS
330
2A
102
}
330
2A
100
AcDbVisualStyle
  2
Linepattern
 70
    14
177
     2
291
     1
 71
     2
176
     1
 72
     2
176
     1
 73
     0
176
     1
 90
        0
176
     1
 40
-0.6
176
     1
 41
-30.0
176
     1
 62
     5
 63
     7
421
 16777215
176
     1
 74
     1
176
     1
 91
        4
176
     1
 64
     7
176
     1
 65
   257
176
     1
 75
     7
176
     1
175
     7
176
     1
 42
1.0
176
     1
 92
        8
176
     1
 66
     7
176
     1
 43
1.0
176
     1
 76
     1
176
     1
 77
     6
176
     1
 78
     2
176
     1
 67
     7
176
     1
 79
     5
176
     1
170
     0
176
     1
171
     0
176
     1
290
     0
176
     1
 93
        1
176
     1
 44
0.0
176
     1
173
     0
176
     1
  0
VISUALSTYLE
  5
33
102
{ACAD_REACTORS
330
2A
102
}
330
2A
100
AcDbVisualStyle
  2
Realistic
 70
     8
177
     2
291
     0
 71
     2
176
     1
 72
     2
176
     1
 73
     0
176
     1
 90
        0
176
     1
 40
-0.6
176
     1
 41
-30.0
176
     1
 62
     5
 63
     7
421
 16777215
176
     1
 74
     1
176
     1
 91
        0
176
     1
 64
     7
176
     1
 65
   257
176
     1
 75
     1
176
     1
175
     1
176
     1
 42
1.0
176
     1
 92
        8
176
     1
 66
     8
424
  7895160
176
     1
 43
1.0
176
     1
 76
     1
176
     1
 77
     6
176
     1
 78
     2
176
     1
 67
     7
176
     1
 79
     5
176
     1
170
     0
176
     1
171
     0
176
     1
290
     0
176
     1
 93
       13
176
     1
 44
0.0
176
     1
173
     0
176
     1
  0
VISUALSTYLE
  5
37
102
{ACAD_REACTORS
330
2A
102
}
330
2A
100
AcDbVisualStyle
  2
Thicken
 70
    13
177
     2
291
     1
 71
     2
176
     1
 72
     2
176
     1
 73
     0
176
     1
 90
        0
176
     1
 40
-0.6
176
     1
 41
-30.0
176
     1
 62
     5
 63
     7
421
 16777215
176
     1
 74
     1
176
     1
 91
        4
176
     1
 64
     7
176
     1
 65
   257
176
     1
 75
     1
176
     1
175
     1
176
     1
 42
1.0
176
     1
 92
       12
176
     1
 66
     7
176
     1
 43
1.0
176
     1
 76
     1
176
     1
 77
     6
176
     1
 78
     2
176
     1
 67
     7
176
     1
 79
     5
176
     1
170
     0
176
     1
171
     0
176
     1
290
     0
176
     1
 93
        1
176
     1
 44
0.0
176
     1
173
     0
176
     1
  0
ENDSEC
  0
EOF
