  0
SECTION
  2
HEADER
  9
$ACADVER
  1
AC1024
  9
$ACADMAINTVER
 70
     6
  9
$DWGCODEPAGE
  3
UNDEFINED
  9
$INSBASE
 10
0.0
 20
0.0
 30
0.0
  9
$EXTMIN
 10
1.000000000000000E+20
 20
1.000000000000000E+20
 30
1.000000000000000E+20
  9
$EXTMAX
 10
-1.000000000000000E+20
 20
-1.000000000000000E+20
 30
-1.000000000000000E+20
  9
$LIMMIN
 10
0.0
 20
0.0
  9
$LIMMAX
 10
12.0
 20
9.0
  9
$ORTHOMODE
 70
     0
  9
$REGENMODE
 70
     1
  9
$FILLMODE
 70
     1
  9
$QTEXTMODE
 70
     0
  9
$MIRRTEXT
 70
     1
  9
$LTSCALE
 40
1.0
  9
$ATTMODE
 70
     1
  9
$TEXTSIZE
 40
0.2
  9
$TRACEWID
 40
0.05
  9
$TEXTSTYLE
  7
Standard
  9
$CLAYER
  8
0
  9
$CELTYPE
  6
ByLayer
  9
$CECOLOR
 62
   256
  9
$CELTSCALE
 40
1.0
  9
$DISPSILH
 70
     0
  9
$DIMSCALE
 40
1.0
  9
$DIMASZ
 40
0.18
  9
$DIMEXO
 40
0.0625
  9
$DIMDLI
 40
0.38
  9
$DIMRND
 40
0.0
  9
$DIMDLE
 40
0.0
  9
$DIMEXE
 40
0.18
  9
$DIMTP
 40
0.0
  9
$DIMTM
 40
0.0
  9
$DIMTXT
 40
0.18
  9
$DIMCEN
 40
0.09
  9
$DIMTSZ
 40
0.0
  9
$DIMTOL
 70
     0
  9
$DIMLIM
 70
     0
  9
$DIMTIH
 70
     1
  9
$DIMTOH
 70
     1
  9
$DIMSE1
 70
     0
  9
$DIMSE2
 70
     0
  9
$DIMTAD
 70
     0
  9
$DIMZIN
 70
     0
  9
$DIMBLK
  1

  9
$DIMASO
 70
     1
  9
$DIMSHO
 70
     1
  9
$DIMPOST
  1

  9
$DIMAPOST
  1

  9
$DIMALT
 70
     0
  9
$DIMALTD
 70
     2
  9
$DIMALTF
 40
25.4
  9
$DIMLFAC
 40
1.0
  9
$DIMTOFL
 70
     0
  9
$DIMTVP
 40
0.0
  9
$DIMTIX
 70
     0
  9
$DIMSOXD
 70
     0
  9
$DIMSAH
 70
     0
  9
$DIMBLK1
  1

  9
$DIMBLK2
  1

  9
$DIMSTYLE
  2
Standard
  9
$DIMCLRD
 70
     0
  9
$DIMCLRE
 70
     0
  9
$DIMCLRT
 70
     0
  9
$DIMTFAC
 40
1.0
  9
$DIMGAP
 40
0.09
  9
$DIMJUST
 70
     0
  9
$DIMSD1
 70
     0
  9
$DIMSD2
 70
     0
  9
$DIMTOLJ
 70
     1
  9
$DIMTZIN
 70
     0
  9
$DIMALTZ
 70
     0
  9
$DIMALTTZ
 70
     0
  9
$DIMUPT
 70
     0
  9
$DIMDEC
 70
     4
  9
$DIMTDEC
 70
     4
  9
$DIMALTU
 70
     2
  9
$DIMALTTD
 70
     2
  9
$DIMTXSTY
  7
Standard
  9
$DIMAUNIT
 70
     0
  9
$DIMADEC
 70
     0
  9
$DIMALTRND
 40
0.0
  9
$DIMAZIN
 70
     0
  9
$DIMDSEP
 70
    46
  9
$DIMATFIT
 70
     3
  9
$DIMFRAC
 70
     0
  9
$DIMLDRBLK
  1

  9
$DIMLUNIT
 70
     2
  9
$DIMLWD
 70
    -2
  9
$DIMLWE
 70
    -2
  9
$DIMTMOVE
 70
     0
  9
$DIMFXL
 40
1.0
  9
$DIMFXLON
 70
     0
  9
$DIMJOGANG
 40
0.7853981633974483
  9
$DIMTFILL
 70
     0
  9
$DIMTFILLCLR
 70
     0
  9
$DIMARCSYM
 70
     0
  9
$DIMLTYPE
  6

  9
$DIMLTEX1
  6

  9
$DIMLTEX2
  6

  9
$DIMTXTDIRECTION
 70
     0
  9
$LUNITS
 70
     2
  9
$LUPREC
 70
     4
  9
$SKETCHINC
 40
0.1
  9
$FILLETRAD
 40
0.5
  9
$AUNITS
 70
     0
  9
$AUPREC
 70
     0
  9
$MENU
  1
.
  9
$ELEVATION
 40
0.0
  9
$PELEVATION
 40
0.0
  9
$THICKNESS
 40
0.0
  9
$LIMCHECK
 70
     0
  9
$CHAMFERA
 40
0.5
  9
$CHAMFERB
 40
0.5
  9
$CHAMFERC
 40
1.0
  9
$CHAMFERD
 40
0.0
  9
$SKPOLY
 70
     0
  9
$TDCREATE
 40
2457917.584224525
  9
$TDUCREATE
 40
2457917.209224537
  9
$TDUPDATE
 40
2457917.584224525
  9
$TDUUPDATE
 40
2457917.209224537
  9
$TDINDWG
 40
0.0000000116
  9
$TDUSRTIMER
 40
0.0000000116
  9
$USRTIMER
 70
     1
  9
$ANGBASE
 50
0.0
  9
$ANGDIR
 70
     0
  9
$PDMODE
 70
     0
  9
$PDSIZE
 40
0.0
  9
$PLINEWID
 40
0.0
  9
$SPLFRAME
 70
     0
  9
$SPLINETYPE
 70
     6
  9
$SPLINESEGS
 70
     8
  9
$HANDSEED
  5
EE
  9
$SURFTAB1
 70
     6
  9
$SURFTAB2
 70
     6
  9
$SURFTYPE
 70
     6
  9
$SURFU
 70
     6
  9
$SURFV
 70
     6
  9
$UCSBASE
  2

  9
$UCSNAME
  2

  9
$UCSORG
 10
0.0
 20
0.0
 30
0.0
  9
$UCSXDIR
 10
1.0
 20
0.0
 30
0.0
  9
$UCSYDIR
 10
0.0
 20
1.0
 30
0.0
  9
$UCSORTHOREF
  2

  9
$UCSORTHOVIEW
 70
     0
  9
$UCSORGTOP
 10
0.0
 20
0.0
 30
0.0
  9
$UCSORGBOTTOM
 10
0.0
 20
0.0
 30
0.0
  9
$UCSORGLEFT
 10
0.0
 20
0.0
 30
0.0
  9
$UCSORGRIGHT
 10
0.0
 20
0.0
 30
0.0
  9
$UCSORGFRONT
 10
0.0
 20
0.0
 30
0.0
  9
$UCSORGBACK
 10
0.0
 20
0.0
 30
0.0
  9
$PUCSBASE
  2

  9
$PUCSNAME
  2

  9
$PUCSORG
 10
0.0
 20
0.0
 30
0.0
  9
$PUCSXDIR
 10
1.0
 20
0.0
 30
0.0
  9
$PUCSYDIR
 10
0.0
 20
1.0
 30
0.0
  9
$PUCSORTHOREF
  2

  9
$PUCSORTHOVIEW
 70
     0
  9
$PUCSORGTOP
 10
0.0
 20
0.0
 30
0.0
  9
$PUCSORGBOTTOM
 10
0.0
 20
0.0
 30
0.0
  9
$PUCSORGLEFT
 10
0.0
 20
0.0
 30
0.0
  9
$PUCSORGRIGHT
 10
0.0
 20
0.0
 30
0.0
  9
$PUCSORGFRONT
 10
0.0
 20
0.0
 30
0.0
  9
$PUCSORGBACK
 10
0.0
 20
0.0
 30
0.0
  9
$USERI1
 70
     0
  9
$USERI2
 70
     0
  9
$USERI3
 70
     0
  9
$USERI4
 70
     0
  9
$USERI5
 70
     0
  9
$USERR1
 40
0.0
  9
$USERR2
 40
0.0
  9
$USERR3
 40
0.0
  9
$USERR4
 40
0.0
  9
$USERR5
 40
0.0
  9
$WORLDVIEW
 70
     1
  9
$SHADEDGE
 70
     3
  9
$SHADEDIF
 70
    70
  9
$TILEMODE
 70
     1
  9
$MAXACTVP
 70
    64
  9
$PINSBASE
 10
0.0
 20
0.0
 30
0.0
  9
$PLIMCHECK
 70
     0
  9
$PEXTMIN
 10
1.000000000000000E+20
 20
1.000000000000000E+20
 30
1.000000000000000E+20
  9
$PEXTMAX
 10
-1.000000000000000E+20
 20
-1.000000000000000E+20
 30
-1.000000000000000E+20
  9
$PLIMMIN
 10
0.0
 20
0.0
  9
$PLIMMAX
 10
12.0
 20
9.0
  9
$UNITMODE
 70
     0
  9
$VISRETAIN
 70
     1
  9
$PLINEGEN
 70
     0
  9
$PSLTSCALE
 70
     1
  9
$TREEDEPTH
 70
  3020
  9
$CMLSTYLE
  2
Standard
  9
$CMLJUST
 70
     0
  9
$CMLSCALE
 40
1.0
  9
$PROXYGRAPHICS
 70
     1
  9
$MEASUREMENT
 70
     0
  9
$CELWEIGHT
370
    -1
  9
$ENDCAPS
280
     0
  9
$JOINSTYLE
280
     0
  9
$LWDISPLAY
290
     1
  9
$INSUNITS
 70
     1
  9
$HYPERLINKBASE
  1

  9
$STYLESHEET
  1

  9
$XEDIT
290
     1
  9
$CEPSNTYPE
380
     0
  9
$PSTYLEMODE
290
     1
  9
$FINGERPRINTGUID
  2
{A4A551D1-1A3F-40F6-F319-26D62BFD2FDC}
  9
$VERSIONGUID
  2
{FAEB1C32-E019-11D5-929B-00C0DF256EC4}
  9
$EXTNAMES
290
     1
  9
$PSVPSCALE
 40
0.0
  9
$OLESTARTUP
290
     0
  9
$SORTENTS
280
   127
  9
$INDEXCTL
280
     0
  9
$HIDETEXT
280
     1
  9
$XCLIPFRAME
280
     2
  9
$HALOGAP
280
     0
  9
$OBSCOLOR
 70
   257
  9
$OBSLTYPE
280
     0
  9
$INTERSECTIONDISPLAY
280
     0
  9
$INTERSECTIONCOLOR
 70
   257
  9
$DIMASSOC
280
     2
  9
$PROJECTNAME
  1

  9
$CAMERADISPLAY
290
     0
  9
$LENSLENGTH
 40
50.0
  9
$CAMERAHEIGHT
 40
0.0
  9
$STEPSPERSEC
 40
2.0
  9
$STEPSIZE
 40
6.0
  9
$3DDWFPREC
 40
2.0
  9
$PSOLWIDTH
 40
0.25
  9
$PSOLHEIGHT
 40
4.0
  9
$LOFTANG1
 40
1.570796326794897
  9
$LOFTANG2
 40
1.570796326794897
  9
$LOFTMAG1
 40
0.0
  9
$LOFTMAG2
 40
0.0
  9
$LOFTPARAM
 70
     7
  9
$LOFTNORMALS
280
     1
  9
$LATITUDE
 40
37.795
  9
$LONGITUDE
 40
-122.394
  9
$NORTHDIRECTION
 40
0.0
  9
$TIMEZONE
 70
 -8000
  9
$LIGHTGLYPHDISPLAY
280
     1
  9
$TILEMODELIGHTSYNCH
280
     1
  9
$CMATERIAL
347
3C
  9
$SOLIDHIST
280
     1
  9
$SHOWHIST
280
     1
  9
$DWFFRAME
280
     2
  9
$DGNFRAME
280
     2
  9
$REALWORLDSCALE
290
     1
  9
$INTERFERECOLOR
 62
   256
  9
$CSHADOW
280
     0
  9
$SHADOWPLANELOCATION
 40
0.0
  0
ENDSEC
  0
SECTION
  2
CLASSES
  0
CLASS
  1
ACDBDICTIONARYWDFLT
  2
AcDbDictionaryWithDefault
  3
ObjectDBX Classes
 90
        0
 91
        4
280
     0
281
     0
  0
CLASS
  1
VISUALSTYLE
  2
AcDbVisualStyle
  3
ObjectDBX Classes
 90
     4095
 91
        4
280
     0
281
     0
  0
CLASS
  1
MATERIAL
  2
AcDbMaterial
  3
ObjectDBX Classes
 90
     1153
 91
        4
280
     0
281
     0
  0
CLASS
  1
SUN
  2
AcDbSun
  3
SCENEOE
 90
     1024
 91
        4
280
     0
281
     0
  0
ENDSEC
  0
SECTION
  2
TABLES
  0
TABLE
  2
VPORT
  5
8
330
0
100
AcDbSymbolTable
 70
     1
  0
VPORT
  5
29
330
8
100
AcDbSymbolTableRecord
100
AcDbViewportTableRecord
  2
*Active
 70
     0
 10
0.0
 20
0.0
 11
1.0
 21
1.0
 12
0.0
 22
0.0
 13
0.0
 23
0.0
 14
0.5
 24
0.5
 15
0.5
 25
0.5
 16
0.0
 26
0.0
 36
1.0
 17
91.00082462281999
 27
-128.4993055234307
 37
0.0
 40
256.9986110468615
 41
0.7081814508812795
 42
50.0
 43
0.0
 44
0.0
 50
0.0
 51
0.0
 71
     0
 72
   100
 73
     1
 74
     3
 75
     0
 76
     0
 77
     0
 78
     0
281
     0
 65
     1
110
0.0
120
0.0
130
0.0
111
1.0
121
0.0
131
0.0
112
0.0
122
1.0
132
0.0
 79
     0
146
0.0
 60
     3
 61
     5
292
     1
282
     1
141
0.0
142
0.0
 63
   250
361
3F
  0
ENDTAB
  0
TABLE
  2
LTYPE
  5
5
330
0
100
AcDbSymbolTable
 70
     1
  0
LTYPE
  5
14
330
5
100
AcDbSymbolTableRecord
100
AcDbLinetypeTableRecord
  2
ByBlock
 70
     0
  3

 72
    65
 73
     0
 40
0.0
  0
LTYPE
  5
15
330
5
100
AcDbSymbolTableRecord
100
AcDbLinetypeTableRecord
  2
ByLayer
 70
     0
  3

 72
    65
 73
     0
 40
0.0
  0
LTYPE
  5
16
330
5
100
AcDbSymbolTableRecord
100
AcDbLinetypeTableRecord
  2
Continuous
 70
     0
  3
Solid line
 72
    65
 73
     0
 40
0.0
  0
ENDTAB
  0
TABLE
  2
LAYER
  5
2
330
0
100
AcDbSymbolTable
 70
     2
  0
LAYER
  5
10
330
2
100
AcDbSymbolTableRecord
100
AcDbLayerTableRecord
  2
0
 70
     0
 62
     7
  6
Continuous
370
    -3
390
F
347
3E
  0
LAYER
  5
40
330
2
100
AcDbSymbolTableRecord
100
AcDbLayerTableRecord
  2
_U+30EC_U+30A4_U+30E4_U+30FC 1
 70
     0
 62
     7
  6
Continuous
370
    -3
390
F
347
3E
  0
ENDTAB
  0
TABLE
  2
STYLE
  5
3
330
0
100
AcDbSymbolTable
 70
     1
  0
STYLE
  5
11
330
3
100
AcDbSymbolTableRecord
100
AcDbTextStyleTableRecord
  2
Standard
 70
     0
 40
0.0
 41
1.0
 50
0.0
 71
     0
 42
0.2
  3
txt
  4

  0
ENDTAB
  0
TABLE
  2
VIEW
  5
6
330
0
100
AcDbSymbolTable
 70
     0
  0
ENDTAB
  0
TABLE
  2
UCS
  5
7
330
0
100
AcDbSymbolTable
 70
     0
  0
ENDTAB
  0
TABLE
  2
APPID
  5
9
330
0
100
AcDbSymbolTable
 70
     1
  0
APPID
  5
12
330
9
100
AcDbSymbolTableRecord
100
AcDbRegAppTableRecord
  2
ACAD
 70
     0
  0
ENDTAB
  0
TABLE
  2
DIMSTYLE
  5
A
330
0
100
AcDbSymbolTable
 70
     1
100
AcDbDimStyleTable
  0
DIMSTYLE
105
27
330
A
100
AcDbSymbolTableRecord
100
AcDbDimStyleTableRecord
  2
Standard
 70
     0
178
     0
340
11
  0
ENDTAB
  0
TABLE
  2
BLOCK_RECORD
  5
1
330
0
100
AcDbSymbolTable
 70
     6
  0
BLOCK_RECORD
  5
1F
330
1
100
AcDbSymbolTableRecord
100
AcDbBlockTableRecord
  2
*Model_Space
340
22
 70
     0
280
     1
281
     0
  0
BLOCK_RECORD
  5
1B
330
1
100
AcDbSymbolTableRecord
100
AcDbBlockTableRecord
  2
*Paper_Space
340
1E
 70
     0
280
     1
281
     0
  0
BLOCK_RECORD
  5
23
330
1
100
AcDbSymbolTableRecord
100
AcDbBlockTableRecord
  2
*Paper_Space0
340
26
 70
     0
280
     1
281
     0
  0
BLOCK_RECORD
  5
82
330
1
100
AcDbSymbolTableRecord
100
AcDbBlockTableRecord
  2
block 2
340
0
102
{BLKREFS
331
83
102
}
 70
     0
280
     1
281
     0
  0
BLOCK_RECORD
  5
9D
330
1
100
AcDbSymbolTableRecord
100
AcDbBlockTableRecord
  2
block 3
340
0
102
{BLKREFS
331
9E
102
}
 70
     0
280
     1
281
     0
  0
BLOCK_RECORD
  5
AF
330
1
100
AcDbSymbolTableRecord
100
AcDbBlockTableRecord
  2
block 4
340
0
102
{BLKREFS
331
B0
102
}
 70
     0
280
     1
281
     0
  0
BLOCK_RECORD
  5
C0
330
1
100
AcDbSymbolTableRecord
100
AcDbBlockTableRecord
  2
block 5
340
0
102
{BLKREFS
331
C1
102
}
 70
     0
280
     1
281
     0
  0
BLOCK_RECORD
  5
DA
330
1
100
AcDbSymbolTableRecord
100
AcDbBlockTableRecord
  2
block 6
340
0
102
{BLKREFS
331
DB
102
}
 70
     0
280
     1
281
     0
  0
ENDTAB
  0
ENDSEC
  0
SECTION
  2
BLOCKS
  0
BLOCK
  5
20
330
1F
100
AcDbEntity
  8
0
100
AcDbBlockBegin
  2
*Model_Space
 70
     0
 10
0.0
 20
0.0
 30
0.0
  3
*Model_Space
  1

  0
ENDBLK
  5
21
330
1F
100
AcDbEntity
  8
0
100
AcDbBlockEnd
  0
BLOCK
  5
1C
330
1B
100
AcDbEntity
 67
     1
  8
0
100
AcDbBlockBegin
  2
*Paper_Space
 70
     0
 10
0.0
 20
0.0
 30
0.0
  3
*Paper_Space
  1

  0
ENDBLK
  5
1D
330
1B
100
AcDbEntity
 67
     1
  8
0
100
AcDbBlockEnd
  0
BLOCK
  5
24
330
23
100
AcDbEntity
  8
0
100
AcDbBlockBegin
  2
*Paper_Space0
 70
     0
 10
0.0
 20
0.0
 30
0.0
  3
*Paper_Space0
  1

  0
ENDBLK
  5
25
330
23
100
AcDbEntity
  8
0
100
AcDbBlockEnd
  0
BLOCK
  5
84
330
82
100
AcDbEntity
  8
0
100
AcDbBlockBegin
  2
block 2
 70
     0
 10
0.0
 20
0.0
 30
0.0
  3
block 2
  1

  0
SPLINE
  5
86
330
82
100
AcDbEntity
  8
_U+30EC_U+30A4_U+30E4_U+30FC 1
370
     0
100
AcDbSpline
210
0.0
220
0.0
230
1.0
 70
    11
 71
     3
 72
    44
 73
    40
 74
     0
 42
0.0000000001
 43
0.0000000001
 12
1.0
 22
0.0
 32
0.0
 13
1.0
 23
0.0
 33
0.0
 40
0.0
 40
0.0
 40
0.0
 40
0.0
 40
1.0
 40
1.0
 40
1.0
 40
2.0
 40
2.0
 40
2.0
 40
3.0
 40
3.0
 40
3.0
 40
4.0
 40
4.0
 40
4.0
 40
5.0
 40
5.0
 40
5.0
 40
6.0
 40
6.0
 40
6.0
 40
7.0
 40
7.0
 40
7.0
 40
8.0
 40
8.0
 40
8.0
 40
9.0
 40
9.0
 40
9.0
 40
10.0
 40
10.0
 40
10.0
 40
11.0
 40
11.0
 40
11.0
 40
12.0
 40
12.0
 40
12.0
 40
13.0
 40
13.0
 40
13.0
 40
13.0
 10
76.70367294089353
 20
-137.0572672183399
 30
0.0
 10
76.48577065145147
 20
-137.2160861202099
 30
0.0
 10
76.39258081857547
 20
-137.2901556731427
 30
0.0
 10
76.34400497223345
 20
-137.4338161548777
 30
0.0
 10
76.34400497223345
 20
-137.4338161548777
 30
0.0
 10
77.12242429712565
 20
-137.4338161548777
 30
0.0
 10
77.12242429712565
 20
-137.4338161548777
 30
0.0
 10
77.12242429712565
 20
-137.4338161548777
 30
0.0
 10
77.12242429712565
 20
-137.6391438457985
 30
0.0
 10
77.12242429712565
 20
-137.6391438457985
 30
0.0
 10
77.12242429712565
 20
-137.6391438457985
 30
0.0
 10
76.09440780432709
 20
-137.6391438457985
 30
0.0
 10
76.09440780432709
 20
-137.6391438457985
 30
0.0
 10
76.1261026827914
 20
-137.2815429344296
 30
0.0
 10
76.19155949701114
 20
-137.2033392669144
 30
0.0
 10
76.57672117226207
 20
-136.9049939978918
 30
0.0
 10
76.83269176681614
 20
-136.7062119883929
 30
0.0
 10
76.89814858103588
 20
-136.6383436073335
 30
0.0
 10
76.89814858103588
 20
-136.500884297472
 30
0.0
 10
76.89814858103588
 20
-136.3823730127794
 30
0.0
 10
76.82631834016843
 20
-136.2514593843399
 30
0.0
 10
76.62960338796066
 20
-136.2514593843399
 30
0.0
 10
76.36932642405003
 20
-136.2514593843399
 30
0.0
 10
76.36088594011117
 20
-136.4819362723031
 30
0.0
 10
76.3565795707546
 20
-136.5983804997046
 30
0.0
 10
76.3565795707546
 20
-136.5983804997046
 30
0.0
 10
76.13247610943911
 20
-136.5983804997046
 30
0.0
 10
76.13247610943911
 20
-136.5983804997046
 30
0.0
 10
76.14091659337797
 20
-136.4712564762989
 30
0.0
 10
76.15142413460798
 20
-136.3592908730282
 30
0.0
 10
76.23186711418856
 20
-136.2407795883356
 30
0.0
 10
76.34176566016804
 20
-136.0798936291745
 30
0.0
 10
76.5279730711458
 20
-136.046131693419
 30
0.0
 10
76.64441729854724
 20
-136.046131693419
 30
0.0
 10
76.92157523033558
 20
-136.046131693419
 30
0.0
 10
77.12879772377336
 20
-136.2300997923314
 30
0.0
 10
77.12879772377336
 20
-136.5029513547632
 30
0.0
 10
77.12879772377336
 20
-136.7317056949838
 30
0.0
 10
77.01252575114617
 20
-136.830924444959
 30
0.0
 10
76.70367294089353
 20
-137.0572672183399
 30
0.0
  0
HATCH
  5
87
330
82
100
AcDbEntity
  8
_U+30EC_U+30A4_U+30E4_U+30FC 1
 62
   179
420
  2234388
100
AcDbHatch
 10
0.0
 20
0.0
 30
0.0
210
0.0
220
0.0
230
1.0
  2
SOLID
 70
     1
 71
     0
 91
        1
 92
        1
 93
        1
 72
     4
 94
        3
 73
     0
 74
     1
 95
       44
 96
       40
 40
0.0
 40
0.0
 40
0.0
 40
0.0
 40
1.0
 40
1.0
 40
1.0
 40
2.0
 40
2.0
 40
2.0
 40
3.0
 40
3.0
 40
3.0
 40
4.0
 40
4.0
 40
4.0
 40
5.0
 40
5.0
 40
5.0
 40
6.0
 40
6.0
 40
6.0
 40
7.0
 40
7.0
 40
7.0
 40
8.0
 40
8.0
 40
8.0
 40
9.0
 40
9.0
 40
9.0
 40
10.0
 40
10.0
 40
10.0
 40
11.0
 40
11.0
 40
11.0
 40
12.0
 40
12.0
 40
12.0
 40
13.0
 40
13.0
 40
13.0
 40
13.0
 10
76.70367294089353
 20
-137.0572672183399
 10
76.48577065145147
 20
-137.2160861202099
 10
76.39258081857547
 20
-137.2901556731427
 10
76.34400497223345
 20
-137.4338161548777
 10
76.34400497223345
 20
-137.4338161548777
 10
77.12242429712565
 20
-137.4338161548777
 10
77.12242429712565
 20
-137.4338161548777
 10
77.12242429712565
 20
-137.4338161548777
 10
77.12242429712565
 20
-137.6391438457985
 10
77.12242429712565
 20
-137.6391438457985
 10
77.12242429712565
 20
-137.6391438457985
 10
76.09440780432709
 20
-137.6391438457985
 10
76.09440780432709
 20
-137.6391438457985
 10
76.1261026827914
 20
-137.2815429344296
 10
76.19155949701114
 20
-137.2033392669144
 10
76.57672117226207
 20
-136.9049939978918
 10
76.83269176681614
 20
-136.7062119883929
 10
76.89814858103588
 20
-136.6383436073335
 10
76.89814858103588
 20
-136.500884297472
 10
76.89814858103588
 20
-136.3823730127794
 10
76.82631834016843
 20
-136.2514593843399
 10
76.62960338796066
 20
-136.2514593843399
 10
76.36932642405003
 20
-136.2514593843399
 10
76.36088594011117
 20
-136.4819362723031
 10
76.3565795707546
 20
-136.5983804997046
 10
76.3565795707546
 20
-136.5983804997046
 10
76.13247610943911
 20
-136.5983804997046
 10
76.13247610943911
 20
-136.5983804997046
 10
76.14091659337797
 20
-136.4712564762989
 10
76.15142413460798
 20
-136.3592908730282
 10
76.23186711418856
 20
-136.2407795883356
 10
76.34176566016804
 20
-136.0798936291745
 10
76.5279730711458
 20
-136.046131693419
 10
76.64441729854724
 20
-136.046131693419
 10
76.92157523033558
 20
-136.046131693419
 10
77.12879772377336
 20
-136.2300997923314
 10
77.12879772377336
 20
-136.5029513547632
 10
77.12879772377336
 20
-136.7317056949838
 10
77.01252575114617
 20
-136.830924444959
 10
76.70367294089353
 20
-137.0572672183399
 97
        0
 97
        0
 75
     2
 76
     1
 98
        0
  0
SPLINE
  5
88
330
82
100
AcDbEntity
  8
_U+30EC_U+30A4_U+30E4_U+30FC 1
370
     0
100
AcDbSpline
210
0.0
220
0.0
230
1.0
 70
    11
 71
     3
 72
    53
 73
    49
 74
     0
 42
0.0000000001
 43
0.0000000001
 12
1.0
 22
0.0
 32
0.0
 13
1.0
 23
0.0
 33
0.0
 40
0.0
 40
0.0
 40
0.0
 40
0.0
 40
1.0
 40
1.0
 40
1.0
 40
2.0
 40
2.0
 40
2.0
 40
3.0
 40
3.0
 40
3.0
 40
4.0
 40
4.0
 40
4.0
 40
5.0
 40
5.0
 40
5.0
 40
6.0
 40
6.0
 40
6.0
 40
7.0
 40
7.0
 40
7.0
 40
8.0
 40
8.0
 40
8.0
 40
9.0
 40
9.0
 40
9.0
 40
10.0
 40
10.0
 40
10.0
 40
11.0
 40
11.0
 40
11.0
 40
12.0
 40
12.0
 40
12.0
 40
13.0
 40
13.0
 40
13.0
 40
14.0
 40
14.0
 40
14.0
 40
15.0
 40
15.0
 40
15.0
 40
16.0
 40
16.0
 40
16.0
 40
16.0
 10
77.76837970061
 20
-137.6897867494317
 30
0.0
 10
77.69000377832056
 20
-137.6897867494317
 30
0.0
 10
77.58854571627995
 20
-137.672905781554
 30
0.0
 10
77.48691539946508
 20
-137.6095160246254
 30
0.0
 10
77.31345484178276
 20
-137.4996174786459
 30
0.0
 10
77.29226750454846
 20
-137.3683593406579
 30
0.0
 10
77.2733194793796
 20
-137.2605278519696
 30
0.0
 10
77.2733194793796
 20
-137.2605278519696
 30
0.0
 10
77.49535588340395
 20
-137.2605278519696
 30
0.0
 10
77.49535588340395
 20
-137.2605278519696
 30
0.0
 10
77.55047741116795
 20
-137.4593098614685
 30
0.0
 10
77.67742917979939
 20
-137.4889376826416
 30
0.0
 10
77.77044675790114
 20
-137.4889376826416
 30
0.0
 10
77.90997312505377
 20
-137.4889376826416
 30
0.0
 10
78.06241860027606
 20
-137.3893744231179
 30
0.0
 10
78.06241860027606
 20
-137.1568304778636
 30
0.0
 10
78.06241860027606
 20
-136.9008598833095
 30
0.0
 10
77.88258461594603
 20
-136.830924444959
 30
0.0
 10
77.76200627396229
 20
-136.830924444959
 30
0.0
 10
77.73031139549798
 20
-136.830924444959
 30
0.0
 10
77.58854571627995
 20
-136.830924444959
 30
0.0
 10
77.4996622527605
 20
-136.9601155256558
 30
0.0
 10
77.4996622527605
 20
-136.9601155256558
 30
0.0
 10
77.32413463778703
 20
-136.9411675004869
 30
0.0
 10
77.32413463778703
 20
-136.9411675004869
 30
0.0
 10
77.32413463778703
 20
-136.9411675004869
 30
0.0
 10
77.44471297977077
 20
-136.0947075397611
 30
0.0
 10
77.44471297977077
 20
-136.0947075397611
 30
0.0
 10
77.44471297977077
 20
-136.0947075397611
 30
0.0
 10
78.22313230466297
 20
-136.0947075397611
 30
0.0
 10
78.22313230466297
 20
-136.0947075397611
 30
0.0
 10
78.22313230466297
 20
-136.0947075397611
 30
0.0
 10
78.22313230466297
 20
-136.2893554346777
 30
0.0
 10
78.22313230466297
 20
-136.2893554346777
 30
0.0
 10
78.22313230466297
 20
-136.2893554346777
 30
0.0
 10
77.60749374144882
 20
-136.2893554346777
 30
0.0
 10
77.60749374144882
 20
-136.2893554346777
 30
0.0
 10
77.60749374144882
 20
-136.2893554346777
 30
0.0
 10
77.54203692722908
 20
-136.7124131602664
 30
0.0
 10
77.54203692722908
 20
-136.7124131602664
 30
0.0
 10
77.60335962686652
 20
-136.6786512245109
 30
0.0
 10
77.68586966373826
 20
-136.6383436073335
 30
0.0
 10
77.80420869365659
 20
-136.6383436073335
 30
0.0
 10
78.0581122309195
 20
-136.6383436073335
 30
0.0
 10
78.2951348003047
 20
-136.8247232730855
 30
0.0
 10
78.2951348003047
 20
-137.1378824526947
 30
0.0
 10
78.2951348003047
 20
-137.4551757468862
 30
0.0
 10
78.07085908421493
 20
-137.6897867494317
 30
0.0
 10
77.76837970061
 20
-137.6897867494317
 30
0.0
  0
HATCH
  5
89
330
82
100
AcDbEntity
  8
_U+30EC_U+30A4_U+30E4_U+30FC 1
 62
   179
420
  2234388
100
AcDbHatch
 10
0.0
 20
0.0
 30
0.0
210
0.0
220
0.0
230
1.0
  2
SOLID
 70
     1
 71
     0
 91
        1
 92
        1
 93
        1
 72
     4
 94
        3
 73
     0
 74
     1
 95
       53
 96
       49
 40
0.0
 40
0.0
 40
0.0
 40
0.0
 40
1.0
 40
1.0
 40
1.0
 40
2.0
 40
2.0
 40
2.0
 40
3.0
 40
3.0
 40
3.0
 40
4.0
 40
4.0
 40
4.0
 40
5.0
 40
5.0
 40
5.0
 40
6.0
 40
6.0
 40
6.0
 40
7.0
 40
7.0
 40
7.0
 40
8.0
 40
8.0
 40
8.0
 40
9.0
 40
9.0
 40
9.0
 40
10.0
 40
10.0
 40
10.0
 40
11.0
 40
11.0
 40
11.0
 40
12.0
 40
12.0
 40
12.0
 40
13.0
 40
13.0
 40
13.0
 40
14.0
 40
14.0
 40
14.0
 40
15.0
 40
15.0
 40
15.0
 40
16.0
 40
16.0
 40
16.0
 40
16.0
 10
77.76837970061
 20
-137.6897867494317
 10
77.69000377832056
 20
-137.6897867494317
 10
77.58854571627995
 20
-137.672905781554
 10
77.48691539946508
 20
-137.6095160246254
 10
77.31345484178276
 20
-137.4996174786459
 10
77.29226750454846
 20
-137.3683593406579
 10
77.2733194793796
 20
-137.2605278519696
 10
77.2733194793796
 20
-137.2605278519696
 10
77.49535588340395
 20
-137.2605278519696
 10
77.49535588340395
 20
-137.2605278519696
 10
77.55047741116795
 20
-137.4593098614685
 10
77.67742917979939
 20
-137.4889376826416
 10
77.77044675790114
 20
-137.4889376826416
 10
77.90997312505377
 20
-137.4889376826416
 10
78.06241860027606
 20
-137.3893744231179
 10
78.06241860027606
 20
-137.1568304778636
 10
78.06241860027606
 20
-136.9008598833095
 10
77.88258461594603
 20
-136.830924444959
 10
77.76200627396229
 20
-136.830924444959
 10
77.73031139549798
 20
-136.830924444959
 10
77.58854571627995
 20
-136.830924444959
 10
77.4996622527605
 20
-136.9601155256558
 10
77.4996622527605
 20
-136.9601155256558
 10
77.32413463778703
 20
-136.9411675004869
 10
77.32413463778703
 20
-136.9411675004869
 10
77.32413463778703
 20
-136.9411675004869
 10
77.44471297977077
 20
-136.0947075397611
 10
77.44471297977077
 20
-136.0947075397611
 10
77.44471297977077
 20
-136.0947075397611
 10
78.22313230466297
 20
-136.0947075397611
 10
78.22313230466297
 20
-136.0947075397611
 10
78.22313230466297
 20
-136.0947075397611
 10
78.22313230466297
 20
-136.2893554346777
 10
78.22313230466297
 20
-136.2893554346777
 10
78.22313230466297
 20
-136.2893554346777
 10
77.60749374144882
 20
-136.2893554346777
 10
77.60749374144882
 20
-136.2893554346777
 10
77.60749374144882
 20
-136.2893554346777
 10
77.54203692722908
 20
-136.7124131602664
 10
77.54203692722908
 20
-136.7124131602664
 10
77.60335962686652
 20
-136.6786512245109
 10
77.68586966373826
 20
-136.6383436073335
 10
77.80420869365659
 20
-136.6383436073335
 10
78.0581122309195
 20
-136.6383436073335
 10
78.2951348003047
 20
-136.8247232730855
 10
78.2951348003047
 20
-137.1378824526947
 10
78.2951348003047
 20
-137.4551757468862
 10
78.07085908421493
 20
-137.6897867494317
 10
77.76837970061
 20
-137.6897867494317
 97
        0
 97
        0
 75
     2
 76
     1
 98
        0
  0
SPLINE
  5
8A
330
82
100
AcDbEntity
  8
_U+30EC_U+30A4_U+30E4_U+30FC 1
370
     0
100
AcDbSpline
210
0.0
220
0.0
230
1.0
 70
    11
 71
     3
 72
    44
 73
    40
 74
     0
 42
0.0000000001
 43
0.0000000001
 12
1.0
 22
0.0
 32
0.0
 13
1.0
 23
0.0
 33
0.0
 40
0.0
 40
0.0
 40
0.0
 40
0.0
 40
1.0
 40
1.0
 40
1.0
 40
2.0
 40
2.0
 40
2.0
 40
3.0
 40
3.0
 40
3.0
 40
4.0
 40
4.0
 40
4.0
 40
5.0
 40
5.0
 40
5.0
 40
6.0
 40
6.0
 40
6.0
 40
7.0
 40
7.0
 40
7.0
 40
8.0
 40
8.0
 40
8.0
 40
9.0
 40
9.0
 40
9.0
 40
10.0
 40
10.0
 40
10.0
 40
11.0
 40
11.0
 40
11.0
 40
12.0
 40
12.0
 40
12.0
 40
13.0
 40
13.0
 40
13.0
 40
13.0
 10
79.47835284471375
 20
-137.6391438457985
 30
0.0
 10
79.45492619541405
 20
-137.5947021140388
 30
0.0
 10
79.43391111295402
 20
-137.5419921531145
 30
0.0
 10
79.43167180088861
 20
-137.3111707556028
 30
0.0
 10
79.42753768630631
 20
-137.0679470143441
 30
0.0
 10
79.36828204396002
 20
-136.9980115759936
 30
0.0
 10
79.19051511692112
 20
-136.9980115759936
 30
0.0
 10
79.19051511692112
 20
-136.9980115759936
 30
0.0
 10
78.78227130191902
 20
-136.9980115759936
 30
0.0
 10
78.78227130191902
 20
-136.9980115759936
 30
0.0
 10
78.78227130191902
 20
-136.9980115759936
 30
0.0
 10
78.78227130191902
 20
-137.6391438457985
 30
0.0
 10
78.78227130191902
 20
-137.6391438457985
 30
0.0
 10
78.78227130191902
 20
-137.6391438457985
 30
0.0
 10
78.54748804459925
 20
-137.6391438457985
 30
0.0
 10
78.54748804459925
 20
-137.6391438457985
 30
0.0
 10
78.54748804459925
 20
-137.6391438457985
 30
0.0
 10
78.54748804459925
 20
-136.0947075397611
 30
0.0
 10
78.54748804459925
 20
-136.0947075397611
 30
0.0
 10
78.54748804459925
 20
-136.0947075397611
 30
0.0
 10
79.22220999538543
 20
-136.0947075397611
 30
0.0
 10
79.22220999538543
 20
-136.0947075397611
 30
0.0
 10
79.52899574834692
 20
-136.0947075397611
 30
0.0
 10
79.6962551341558
 20
-136.2662732949265
 30
0.0
 10
79.6962551341558
 20
-136.5222438894806
 30
0.0
 10
79.6962551341558
 20
-136.5728867931137
 30
0.0
 10
79.68764239544268
 20
-136.6555690847597
 30
0.0
 10
79.64320066368295
 20
-136.735839809566
 30
0.0
 10
79.58411727611092
 20
-136.8395371836721
 30
0.0
 10
79.5184882071169
 20
-136.8584852088409
 30
0.0
 10
79.45716550747946
 20
-136.8753661767187
 30
0.0
 10
79.59462481734093
 20
-136.9177408511872
 30
0.0
 10
79.66232094362609
 20
-136.9663166975293
 30
0.0
 10
79.66662731298265
 20
-137.2815429344296
 30
0.0
 10
79.67076142756495
 20
-137.5523274395703
 30
0.0
 10
79.70676267538582
 20
-137.5840223180346
 30
0.0
 10
79.77445880167097
 20
-137.6391438457985
 30
0.0
 10
79.77445880167097
 20
-137.6391438457985
 30
0.0
 10
79.47835284471375
 20
-137.6391438457985
 30
0.0
 10
79.47835284471375
 20
-137.6391438457985
 30
0.0
  0
SPLINE
  5
8B
330
82
100
AcDbEntity
  8
_U+30EC_U+30A4_U+30E4_U+30FC 1
370
     0
100
AcDbSpline
210
0.0
220
0.0
230
1.0
 70
    11
 71
     3
 72
    20
 73
    16
 74
     0
 42
0.0000000001
 43
0.0000000001
 12
1.0
 22
0.0
 32
0.0
 13
1.0
 23
0.0
 33
0.0
 40
0.0
 40
0.0
 40
0.0
 40
0.0
 40
1.0
 40
1.0
 40
1.0
 40
2.0
 40
2.0
 40
2.0
 40
3.0
 40
3.0
 40
3.0
 40
4.0
 40
4.0
 40
4.0
 40
5.0
 40
5.0
 40
5.0
 40
5.0
 10
79.22651636474198
 20
-136.3062364025554
 30
0.0
 10
79.22651636474198
 20
-136.3062364025554
 30
0.0
 10
78.78227130191902
 20
-136.3062364025554
 30
0.0
 10
78.78227130191902
 20
-136.3062364025554
 30
0.0
 10
78.78227130191902
 20
-136.3062364025554
 30
0.0
 10
78.78227130191902
 20
-136.7864827131992
 30
0.0
 10
78.78227130191902
 20
-136.7864827131992
 30
0.0
 10
78.78227130191902
 20
-136.7864827131992
 30
0.0
 10
79.22444930745084
 20
-136.7864827131992
 30
0.0
 10
79.22444930745084
 20
-136.7864827131992
 30
0.0
 10
79.32384031220029
 20
-136.7864827131992
 30
0.0
 10
79.45923256477062
 20
-136.7103461029752
 30
0.0
 10
79.45923256477062
 20
-136.5391248573583
 30
0.0
 10
79.45923256477062
 20
-136.4609211898431
 30
0.0
 10
79.42547062901517
 20
-136.3062364025554
 30
0.0
 10
79.22651636474198
 20
-136.3062364025554
 30
0.0
  0
HATCH
  5
8C
330
82
100
AcDbEntity
  8
_U+30EC_U+30A4_U+30E4_U+30FC 1
 62
   179
420
  2234388
100
AcDbHatch
 10
0.0
 20
0.0
 30
0.0
210
0.0
220
0.0
230
1.0
  2
SOLID
 70
     1
 71
     0
 91
        2
 92
        1
 93
        1
 72
     4
 94
        3
 73
     0
 74
     1
 95
       44
 96
       40
 40
0.0
 40
0.0
 40
0.0
 40
0.0
 40
1.0
 40
1.0
 40
1.0
 40
2.0
 40
2.0
 40
2.0
 40
3.0
 40
3.0
 40
3.0
 40
4.0
 40
4.0
 40
4.0
 40
5.0
 40
5.0
 40
5.0
 40
6.0
 40
6.0
 40
6.0
 40
7.0
 40
7.0
 40
7.0
 40
8.0
 40
8.0
 40
8.0
 40
9.0
 40
9.0
 40
9.0
 40
10.0
 40
10.0
 40
10.0
 40
11.0
 40
11.0
 40
11.0
 40
12.0
 40
12.0
 40
12.0
 40
13.0
 40
13.0
 40
13.0
 40
13.0
 10
79.47835284471375
 20
-137.6391438457985
 10
79.45492619541405
 20
-137.5947021140388
 10
79.43391111295402
 20
-137.5419921531145
 10
79.43167180088861
 20
-137.3111707556028
 10
79.42753768630631
 20
-137.0679470143441
 10
79.36828204396002
 20
-136.9980115759936
 10
79.19051511692112
 20
-136.9980115759936
 10
79.19051511692112
 20
-136.9980115759936
 10
78.78227130191902
 20
-136.9980115759936
 10
78.78227130191902
 20
-136.9980115759936
 10
78.78227130191902
 20
-136.9980115759936
 10
78.78227130191902
 20
-137.6391438457985
 10
78.78227130191902
 20
-137.6391438457985
 10
78.78227130191902
 20
-137.6391438457985
 10
78.54748804459925
 20
-137.6391438457985
 10
78.54748804459925
 20
-137.6391438457985
 10
78.54748804459925
 20
-137.6391438457985
 10
78.54748804459925
 20
-136.0947075397611
 10
78.54748804459925
 20
-136.0947075397611
 10
78.54748804459925
 20
-136.0947075397611
 10
79.22220999538543
 20
-136.0947075397611
 10
79.22220999538543
 20
-136.0947075397611
 10
79.52899574834692
 20
-136.0947075397611
 10
79.6962551341558
 20
-136.2662732949265
 10
79.6962551341558
 20
-136.5222438894806
 10
79.6962551341558
 20
-136.5728867931137
 10
79.68764239544268
 20
-136.6555690847597
 10
79.64320066368295
 20
-136.735839809566
 10
79.58411727611092
 20
-136.8395371836721
 10
79.5184882071169
 20
-136.8584852088409
 10
79.45716550747946
 20
-136.8753661767187
 10
79.59462481734093
 20
-136.9177408511872
 10
79.66232094362609
 20
-136.9663166975293
 10
79.66662731298265
 20
-137.2815429344296
 10
79.67076142756495
 20
-137.5523274395703
 10
79.70676267538582
 20
-137.5840223180346
 10
79.77445880167097
 20
-137.6391438457985
 10
79.77445880167097
 20
-137.6391438457985
 10
79.47835284471375
 20
-137.6391438457985
 10
79.47835284471375
 20
-137.6391438457985
 97
        0
 97
        0
 92
        1
 93
        1
 72
     4
 94
        3
 73
     0
 74
     1
 95
       20
 96
       16
 40
0.0
 40
0.0
 40
0.0
 40
0.0
 40
1.0
 40
1.0
 40
1.0
 40
2.0
 40
2.0
 40
2.0
 40
3.0
 40
3.0
 40
3.0
 40
4.0
 40
4.0
 40
4.0
 40
5.0
 40
5.0
 40
5.0
 40
5.0
 10
79.22651636474198
 20
-136.3062364025554
 10
79.22651636474198
 20
-136.3062364025554
 10
78.78227130191902
 20
-136.3062364025554
 10
78.78227130191902
 20
-136.3062364025554
 10
78.78227130191902
 20
-136.3062364025554
 10
78.78227130191902
 20
-136.7864827131992
 10
78.78227130191902
 20
-136.7864827131992
 10
78.78227130191902
 20
-136.7864827131992
 10
79.22444930745084
 20
-136.7864827131992
 10
79.22444930745084
 20
-136.7864827131992
 10
79.32384031220029
 20
-136.7864827131992
 10
79.45923256477062
 20
-136.7103461029752
 10
79.45923256477062
 20
-136.5391248573583
 10
79.45923256477062
 20
-136.4609211898431
 10
79.42547062901517
 20
-136.3062364025554
 10
79.22651636474198
 20
-136.3062364025554
 97
        0
 97
        0
 75
     2
 76
     1
 98
        0
  0
ENDBLK
  5
85
330
82
100
AcDbEntity
  8
0
100
AcDbBlockEnd
  0
BLOCK
  5
9F
330
9D
100
AcDbEntity
  8
0
100
AcDbBlockBegin
  2
block 3
 70
     0
 10
0.0
 20
0.0
 30
0.0
  3
block 3
  1

  0
SPLINE
  5
A1
330
9D
100
AcDbEntity
  8
_U+30EC_U+30A4_U+30E4_U+30FC 1
370
     0
100
AcDbSpline
210
0.0
220
0.0
230
1.0
 70
    11
 71
     3
 72
    26
 73
    22
 74
     0
 42
0.0000000001
 43
0.0000000001
 12
1.0
 22
0.0
 32
0.0
 13
1.0
 23
0.0
 33
0.0
 40
0.0
 40
0.0
 40
0.0
 40
0.0
 40
1.0
 40
1.0
 40
1.0
 40
2.0
 40
2.0
 40
2.0
 40
3.0
 40
3.0
 40
3.0
 40
4.0
 40
4.0
 40
4.0
 40
5.0
 40
5.0
 40
5.0
 40
6.0
 40
6.0
 40
6.0
 40
7.0
 40
7.0
 40
7.0
 40
7.0
 10
114.0367946763519
 20
-132.9324543938502
 30
0.0
 10
114.0367946763519
 20
-132.9324543938502
 30
0.0
 10
112.9326415733293
 20
-132.9324543938502
 30
0.0
 10
112.9326415733293
 20
-132.9324543938502
 30
0.0
 10
112.9326415733293
 20
-132.9324543938502
 30
0.0
 10
112.9326415733293
 20
-133.2624945413372
 30
0.0
 10
112.9326415733293
 20
-133.2624945413372
 30
0.0
 10
112.9326415733293
 20
-133.2624945413372
 30
0.0
 10
112.7845024674636
 20
-133.2624945413372
 30
0.0
 10
112.7845024674636
 20
-133.2624945413372
 30
0.0
 10
112.769688556877
 20
-132.9303873365591
 30
0.0
 10
112.6067355404247
 20
-132.8838785475082
 30
0.0
 10
112.4923583703144
 20
-132.8542507263351
 30
0.0
 10
112.4923583703144
 20
-132.8542507263351
 30
0.0
 10
112.4923583703144
 20
-132.7081786777605
 30
0.0
 10
112.4923583703144
 20
-132.7081786777605
 30
0.0
 10
112.4923583703144
 20
-132.7081786777605
 30
0.0
 10
114.0367946763519
 20
-132.7081786777605
 30
0.0
 10
114.0367946763519
 20
-132.7081786777605
 30
0.0
 10
114.0367946763519
 20
-132.7081786777605
 30
0.0
 10
114.0367946763519
 20
-132.9324543938502
 30
0.0
 10
114.0367946763519
 20
-132.9324543938502
 30
0.0
  0
HATCH
  5
A2
330
9D
100
AcDbEntity
  8
_U+30EC_U+30A4_U+30E4_U+30FC 1
 62
   179
420
  2234388
100
AcDbHatch
 10
0.0
 20
0.0
 30
0.0
210
0.0
220
0.0
230
1.0
  2
SOLID
 70
     1
 71
     0
 91
        1
 92
        1
 93
        1
 72
     4
 94
        3
 73
     0
 74
     1
 95
       26
 96
       22
 40
0.0
 40
0.0
 40
0.0
 40
0.0
 40
1.0
 40
1.0
 40
1.0
 40
2.0
 40
2.0
 40
2.0
 40
3.0
 40
3.0
 40
3.0
 40
4.0
 40
4.0
 40
4.0
 40
5.0
 40
5.0
 40
5.0
 40
6.0
 40
6.0
 40
6.0
 40
7.0
 40
7.0
 40
7.0
 40
7.0
 10
114.0367946763519
 20
-132.9324543938502
 10
114.0367946763519
 20
-132.9324543938502
 10
112.9326415733293
 20
-132.9324543938502
 10
112.9326415733293
 20
-132.9324543938502
 10
112.9326415733293
 20
-132.9324543938502
 10
112.9326415733293
 20
-133.2624945413372
 10
112.9326415733293
 20
-133.2624945413372
 10
112.9326415733293
 20
-133.2624945413372
 10
112.7845024674636
 20
-133.2624945413372
 10
112.7845024674636
 20
-133.2624945413372
 10
112.769688556877
 20
-132.9303873365591
 10
112.6067355404247
 20
-132.8838785475082
 10
112.4923583703144
 20
-132.8542507263351
 10
112.4923583703144
 20
-132.8542507263351
 10
112.4923583703144
 20
-132.7081786777605
 10
112.4923583703144
 20
-132.7081786777605
 10
112.4923583703144
 20
-132.7081786777605
 10
114.0367946763519
 20
-132.7081786777605
 10
114.0367946763519
 20
-132.7081786777605
 10
114.0367946763519
 20
-132.7081786777605
 10
114.0367946763519
 20
-132.9324543938502
 10
114.0367946763519
 20
-132.9324543938502
 97
        0
 97
        0
 75
     2
 76
     1
 98
        0
  0
ENDBLK
  5
A0
330
9D
100
AcDbEntity
  8
0
100
AcDbBlockEnd
  0
BLOCK
  5
B1
330
AF
100
AcDbEntity
  8
0
100
AcDbBlockBegin
  2
block 4
 70
     0
 10
0.0
 20
0.0
 30
0.0
  3
block 4
  1

  0
SPLINE
  5
B3
330
AF
100
AcDbEntity
  8
_U+30EC_U+30A4_U+30E4_U+30FC 1
370
     0
100
AcDbSpline
210
0.0
220
0.0
230
1.0
 70
    11
 71
     3
 72
    44
 73
    40
 74
     0
 42
0.0000000001
 43
0.0000000001
 12
1.0
 22
0.0
 32
0.0
 13
1.0
 23
0.0
 33
0.0
 40
0.0
 40
0.0
 40
0.0
 40
0.0
 40
1.0
 40
1.0
 40
1.0
 40
2.0
 40
2.0
 40
2.0
 40
3.0
 40
3.0
 40
3.0
 40
4.0
 40
4.0
 40
4.0
 40
5.0
 40
5.0
 40
5.0
 40
6.0
 40
6.0
 40
6.0
 40
7.0
 40
7.0
 40
7.0
 40
8.0
 40
8.0
 40
8.0
 40
9.0
 40
9.0
 40
9.0
 40
10.0
 40
10.0
 40
10.0
 40
11.0
 40
11.0
 40
11.0
 40
12.0
 40
12.0
 40
12.0
 40
13.0
 40
13.0
 40
13.0
 40
13.0
 10
100.1179198968455
 20
-150.7656466636975
 30
0.0
 10
99.90018986217774
 20
-150.9244655655675
 30
0.0
 10
99.80717228407599
 20
-150.9985351185004
 30
0.0
 10
99.75825192818544
 20
-151.1421956002353
 30
0.0
 10
99.75825192818544
 20
-151.1421956002353
 30
0.0
 10
100.5368435078519
 20
-151.1421956002353
 30
0.0
 10
100.5368435078519
 20
-151.1421956002353
 30
0.0
 10
100.5368435078519
 20
-151.1421956002353
 30
0.0
 10
100.5368435078519
 20
-151.3475232911562
 30
0.0
 10
100.5368435078519
 20
-151.3475232911562
 30
0.0
 10
100.5368435078519
 20
-151.3475232911562
 30
0.0
 10
99.50882701505336
 20
-151.3475232911562
 30
0.0
 10
99.50882701505336
 20
-151.3475232911562
 30
0.0
 10
99.54052189351765
 20
-150.9899223797873
 30
0.0
 10
99.60597870773739
 20
-150.9117187122721
 30
0.0
 10
99.99114038298833
 20
-150.6133734432494
 30
0.0
 10
100.2471109775424
 20
-150.4145914337505
 30
0.0
 10
100.3125677917621
 20
-150.3467230526911
 30
0.0
 10
100.3125677917621
 20
-150.2092637428296
 30
0.0
 10
100.3125677917621
 20
-150.090752458137
 30
0.0
 10
100.2405652961204
 20
-149.9598388296976
 30
0.0
 10
100.0438503439127
 20
-149.9598388296976
 30
0.0
 10
99.7837456347763
 20
-149.9598388296976
 30
0.0
 10
99.7754774056117
 20
-150.1903157176608
 30
0.0
 10
99.77099878148087
 20
-150.3067599450622
 30
0.0
 10
99.77099878148087
 20
-150.3067599450622
 30
0.0
 10
99.5467230653911
 20
-150.3067599450622
 30
0.0
 10
99.5467230653911
 20
-150.3067599450622
 30
0.0
 10
99.55533580410423
 20
-150.1796359216565
 30
0.0
 10
99.5660156001085
 20
-150.0676703183859
 30
0.0
 10
99.64628632491483
 20
-149.9491590336933
 30
0.0
 10
99.75618487089429
 20
-149.7882730745321
 30
0.0
 10
99.9425645366463
 20
-149.7545111387766
 30
0.0
 10
100.0586642544992
 20
-149.7545111387766
 30
0.0
 10
100.3359944410618
 20
-149.7545111387766
 30
0.0
 10
100.5433891892739
 20
-149.938479237689
 30
0.0
 10
100.5433891892739
 20
-150.2113308001208
 30
0.0
 10
100.5433891892739
 20
-150.4400851403414
 30
0.0
 10
100.4269449618724
 20
-150.5393038903166
 30
0.0
 10
100.1179198968455
 20
-150.7656466636975
 30
0.0
  0
HATCH
  5
B4
330
AF
100
AcDbEntity
  8
_U+30EC_U+30A4_U+30E4_U+30FC 1
 62
   179
420
  2234388
100
AcDbHatch
 10
0.0
 20
0.0
 30
0.0
210
0.0
220
0.0
230
1.0
  2
SOLID
 70
     1
 71
     0
 91
        1
 92
        1
 93
        1
 72
     4
 94
        3
 73
     0
 74
     1
 95
       44
 96
       40
 40
0.0
 40
0.0
 40
0.0
 40
0.0
 40
1.0
 40
1.0
 40
1.0
 40
2.0
 40
2.0
 40
2.0
 40
3.0
 40
3.0
 40
3.0
 40
4.0
 40
4.0
 40
4.0
 40
5.0
 40
5.0
 40
5.0
 40
6.0
 40
6.0
 40
6.0
 40
7.0
 40
7.0
 40
7.0
 40
8.0
 40
8.0
 40
8.0
 40
9.0
 40
9.0
 40
9.0
 40
10.0
 40
10.0
 40
10.0
 40
11.0
 40
11.0
 40
11.0
 40
12.0
 40
12.0
 40
12.0
 40
13.0
 40
13.0
 40
13.0
 40
13.0
 10
100.1179198968455
 20
-150.7656466636975
 10
99.90018986217774
 20
-150.9244655655675
 10
99.80717228407599
 20
-150.9985351185004
 10
99.75825192818544
 20
-151.1421956002353
 10
99.75825192818544
 20
-151.1421956002353
 10
100.5368435078519
 20
-151.1421956002353
 10
100.5368435078519
 20
-151.1421956002353
 10
100.5368435078519
 20
-151.1421956002353
 10
100.5368435078519
 20
-151.3475232911562
 10
100.5368435078519
 20
-151.3475232911562
 10
100.5368435078519
 20
-151.3475232911562
 10
99.50882701505336
 20
-151.3475232911562
 10
99.50882701505336
 20
-151.3475232911562
 10
99.54052189351765
 20
-150.9899223797873
 10
99.60597870773739
 20
-150.9117187122721
 10
99.99114038298833
 20
-150.6133734432494
 10
100.2471109775424
 20
-150.4145914337505
 10
100.3125677917621
 20
-150.3467230526911
 10
100.3125677917621
 20
-150.2092637428296
 10
100.3125677917621
 20
-150.090752458137
 10
100.2405652961204
 20
-149.9598388296976
 10
100.0438503439127
 20
-149.9598388296976
 10
99.7837456347763
 20
-149.9598388296976
 10
99.7754774056117
 20
-150.1903157176608
 10
99.77099878148087
 20
-150.3067599450622
 10
99.77099878148087
 20
-150.3067599450622
 10
99.5467230653911
 20
-150.3067599450622
 10
99.5467230653911
 20
-150.3067599450622
 10
99.55533580410423
 20
-150.1796359216565
 10
99.5660156001085
 20
-150.0676703183859
 10
99.64628632491483
 20
-149.9491590336933
 10
99.75618487089429
 20
-149.7882730745321
 10
99.9425645366463
 20
-149.7545111387766
 10
100.0586642544992
 20
-149.7545111387766
 10
100.3359944410618
 20
-149.7545111387766
 10
100.5433891892739
 20
-149.938479237689
 10
100.5433891892739
 20
-150.2113308001208
 10
100.5433891892739
 20
-150.4400851403414
 10
100.4269449618724
 20
-150.5393038903166
 10
100.1179198968455
 20
-150.7656466636975
 97
        0
 97
        0
 75
     2
 76
     1
 98
        0
  0
SPLINE
  5
B5
330
AF
100
AcDbEntity
  8
_U+30EC_U+30A4_U+30E4_U+30FC 1
370
     0
100
AcDbSpline
210
0.0
220
0.0
230
1.0
 70
    11
 71
     3
 72
    29
 73
    25
 74
     0
 42
0.0000000001
 43
0.0000000001
 12
1.0
 22
0.0
 32
0.0
 13
1.0
 23
0.0
 33
0.0
 40
0.0
 40
0.0
 40
0.0
 40
0.0
 40
1.0
 40
1.0
 40
1.0
 40
2.0
 40
2.0
 40
2.0
 40
3.0
 40
3.0
 40
3.0
 40
4.0
 40
4.0
 40
4.0
 40
5.0
 40
5.0
 40
5.0
 40
6.0
 40
6.0
 40
6.0
 40
7.0
 40
7.0
 40
7.0
 40
8.0
 40
8.0
 40
8.0
 40
8.0
 10
101.5996554650515
 20
-151.1697563641173
 30
0.0
 10
101.4914794668146
 20
-151.3792181696205
 30
0.0
 10
101.3181911639066
 20
-151.3981661947894
 30
0.0
 10
101.2017469365051
 20
-151.3981661947894
 30
0.0
 10
101.040860977344
 20
-151.3981661947894
 30
0.0
 10
100.8992675529002
 20
-151.3516574057385
 30
0.0
 10
100.8041829175073
 20
-151.1697563641173
 30
0.0
 10
100.7004855434013
 20
-150.9751084692007
 30
0.0
 10
100.6815375182324
 20
-150.7380858998155
 30
0.0
 10
100.6815375182324
 20
-150.5754773929117
 30
0.0
 10
100.6815375182324
 20
-150.4314724016282
 30
0.0
 10
100.6984184861101
 20
-150.1796359216565
 30
0.0
 10
100.8041829175073
 20
-149.9808539121576
 30
0.0
 10
100.9120144061956
 20
-149.7779377880763
 30
0.0
 10
101.0729003653568
 20
-149.7545111387766
 30
0.0
 10
101.2017469365051
 20
-149.7545111387766
 30
0.0
 10
101.3605658383751
 20
-149.7545111387766
 30
0.0
 10
101.5042263201101
 20
-149.7989528705364
 30
0.0
 10
101.5996554650515
 20
-149.9808539121576
 30
0.0
 10
101.6988742150267
 20
-150.173434749783
 30
0.0
 10
101.7223008643264
 20
-150.4018445804551
 30
0.0
 10
101.7223008643264
 20
-150.5754773929117
 30
0.0
 10
101.7223008643264
 20
-150.7466986385286
 30
0.0
 10
101.7009412723178
 20
-150.9771755264918
 30
0.0
 10
101.5996554650515
 20
-151.1697563641173
 30
0.0
  0
SPLINE
  5
B6
330
AF
100
AcDbEntity
  8
_U+30EC_U+30A4_U+30E4_U+30FC 1
370
     0
100
AcDbSpline
210
0.0
220
0.0
230
1.0
 70
    11
 71
     3
 72
    17
 73
    13
 74
     0
 42
0.0000000001
 43
0.0000000001
 12
1.0
 22
0.0
 32
0.0
 13
1.0
 23
0.0
 33
0.0
 40
0.0
 40
0.0
 40
0.0
 40
0.0
 40
1.0
 40
1.0
 40
1.0
 40
2.0
 40
2.0
 40
2.0
 40
3.0
 40
3.0
 40
3.0
 40
4.0
 40
4.0
 40
4.0
 40
4.0
 10
101.2017469365051
 20
-149.9470919764021
 30
0.0
 10
100.952322023373
 20
-149.9470919764021
 30
0.0
 10
100.9054687247736
 20
-150.2306233348382
 30
0.0
 10
100.9054687247736
 20
-150.5754773929117
 30
0.0
 10
100.9054687247736
 20
-150.8948377443944
 30
0.0
 10
100.9416422273688
 20
-151.2035182998727
 30
0.0
 10
101.2017469365051
 20
-151.2035182998727
 30
0.0
 10
101.4494493018946
 20
-151.2035182998727
 30
0.0
 10
101.4980251482366
 20
-150.9223985082764
 30
0.0
 10
101.4980251482366
 20
-150.5754773929117
 30
0.0
 10
101.4980251482366
 20
-150.2557725318805
 30
0.0
 10
101.4597845883503
 20
-149.9470919764021
 30
0.0
 10
101.2017469365051
 20
-149.9470919764021
 30
0.0
  0
HATCH
  5
B7
330
AF
100
AcDbEntity
  8
_U+30EC_U+30A4_U+30E4_U+30FC 1
 62
   179
420
  2234388
100
AcDbHatch
 10
0.0
 20
0.0
 30
0.0
210
0.0
220
0.0
230
1.0
  2
SOLID
 70
     1
 71
     0
 91
        2
 92
        1
 93
        1
 72
     4
 94
        3
 73
     0
 74
     1
 95
       29
 96
       25
 40
0.0
 40
0.0
 40
0.0
 40
0.0
 40
1.0
 40
1.0
 40
1.0
 40
2.0
 40
2.0
 40
2.0
 40
3.0
 40
3.0
 40
3.0
 40
4.0
 40
4.0
 40
4.0
 40
5.0
 40
5.0
 40
5.0
 40
6.0
 40
6.0
 40
6.0
 40
7.0
 40
7.0
 40
7.0
 40
8.0
 40
8.0
 40
8.0
 40
8.0
 10
101.5996554650515
 20
-151.1697563641173
 10
101.4914794668146
 20
-151.3792181696205
 10
101.3181911639066
 20
-151.3981661947894
 10
101.2017469365051
 20
-151.3981661947894
 10
101.040860977344
 20
-151.3981661947894
 10
100.8992675529002
 20
-151.3516574057385
 10
100.8041829175073
 20
-151.1697563641173
 10
100.7004855434013
 20
-150.9751084692007
 10
100.6815375182324
 20
-150.7380858998155
 10
100.6815375182324
 20
-150.5754773929117
 10
100.6815375182324
 20
-150.4314724016282
 10
100.6984184861101
 20
-150.1796359216565
 10
100.8041829175073
 20
-149.9808539121576
 10
100.9120144061956
 20
-149.7779377880763
 10
101.0729003653568
 20
-149.7545111387766
 10
101.2017469365051
 20
-149.7545111387766
 10
101.3605658383751
 20
-149.7545111387766
 10
101.5042263201101
 20
-149.7989528705364
 10
101.5996554650515
 20
-149.9808539121576
 10
101.6988742150267
 20
-150.173434749783
 10
101.7223008643264
 20
-150.4018445804551
 10
101.7223008643264
 20
-150.5754773929117
 10
101.7223008643264
 20
-150.7466986385286
 10
101.7009412723178
 20
-150.9771755264918
 10
101.5996554650515
 20
-151.1697563641173
 97
        0
 97
        0
 92
        1
 93
        1
 72
     4
 94
        3
 73
     0
 74
     1
 95
       17
 96
       13
 40
0.0
 40
0.0
 40
0.0
 40
0.0
 40
1.0
 40
1.0
 40
1.0
 40
2.0
 40
2.0
 40
2.0
 40
3.0
 40
3.0
 40
3.0
 40
4.0
 40
4.0
 40
4.0
 40
4.0
 10
101.2017469365051
 20
-149.9470919764021
 10
100.952322023373
 20
-149.9470919764021
 10
100.9054687247736
 20
-150.2306233348382
 10
100.9054687247736
 20
-150.5754773929117
 10
100.9054687247736
 20
-150.8948377443944
 10
100.9416422273688
 20
-151.2035182998727
 10
101.2017469365051
 20
-151.2035182998727
 10
101.4494493018946
 20
-151.2035182998727
 10
101.4980251482366
 20
-150.9223985082764
 10
101.4980251482366
 20
-150.5754773929117
 10
101.4980251482366
 20
-150.2557725318805
 10
101.4597845883503
 20
-149.9470919764021
 10
101.2017469365051
 20
-149.9470919764021
 97
        0
 97
        0
 75
     2
 76
     1
 98
        0
  0
ENDBLK
  5
B2
330
AF
100
AcDbEntity
  8
0
100
AcDbBlockEnd
  0
BLOCK
  5
C2
330
C0
100
AcDbEntity
  8
0
100
AcDbBlockBegin
  2
block 5
 70
     0
 10
0.0
 20
0.0
 30
0.0
  3
block 5
  1

  0
SPLINE
  5
C4
330
C0
100
AcDbEntity
  8
_U+30EC_U+30A4_U+30E4_U+30FC 1
370
     0
100
AcDbSpline
210
0.0
220
0.0
230
1.0
 70
    11
 71
     3
 72
    26
 73
    22
 74
     0
 42
0.0000000001
 43
0.0000000001
 12
1.0
 22
0.0
 32
0.0
 13
1.0
 23
0.0
 33
0.0
 40
0.0
 40
0.0
 40
0.0
 40
0.0
 40
1.0
 40
1.0
 40
1.0
 40
2.0
 40
2.0
 40
2.0
 40
3.0
 40
3.0
 40
3.0
 40
4.0
 40
4.0
 40
4.0
 40
5.0
 40
5.0
 40
5.0
 40
6.0
 40
6.0
 40
6.0
 40
7.0
 40
7.0
 40
7.0
 40
7.0
 10
114.0367946763519
 20
-143.6336099901333
 30
0.0
 10
114.0367946763519
 20
-143.6336099901333
 30
0.0
 10
112.9326415733293
 20
-143.6336099901333
 30
0.0
 10
112.9326415733293
 20
-143.6336099901333
 30
0.0
 10
112.9326415733293
 20
-143.6336099901333
 30
0.0
 10
112.9326415733293
 20
-143.9636501376202
 30
0.0
 10
112.9326415733293
 20
-143.9636501376202
 30
0.0
 10
112.9326415733293
 20
-143.9636501376202
 30
0.0
 10
112.7845024674636
 20
-143.9636501376202
 30
0.0
 10
112.7845024674636
 20
-143.9636501376202
 30
0.0
 10
112.769688556877
 20
-143.6315429328421
 30
0.0
 10
112.6067355404247
 20
-143.5850341437913
 30
0.0
 10
112.4923583703144
 20
-143.5554063226181
 30
0.0
 10
112.4923583703144
 20
-143.5554063226181
 30
0.0
 10
112.4923583703144
 20
-143.4093342740435
 30
0.0
 10
112.4923583703144
 20
-143.4093342740435
 30
0.0
 10
112.4923583703144
 20
-143.4093342740435
 30
0.0
 10
114.0367946763519
 20
-143.4093342740435
 30
0.0
 10
114.0367946763519
 20
-143.4093342740435
 30
0.0
 10
114.0367946763519
 20
-143.4093342740435
 30
0.0
 10
114.0367946763519
 20
-143.6336099901333
 30
0.0
 10
114.0367946763519
 20
-143.6336099901333
 30
0.0
  0
HATCH
  5
C5
330
C0
100
AcDbEntity
  8
_U+30EC_U+30A4_U+30E4_U+30FC 1
 62
   179
420
  2234388
100
AcDbHatch
 10
0.0
 20
0.0
 30
0.0
210
0.0
220
0.0
230
1.0
  2
SOLID
 70
     1
 71
     0
 91
        1
 92
        1
 93
        1
 72
     4
 94
        3
 73
     0
 74
     1
 95
       26
 96
       22
 40
0.0
 40
0.0
 40
0.0
 40
0.0
 40
1.0
 40
1.0
 40
1.0
 40
2.0
 40
2.0
 40
2.0
 40
3.0
 40
3.0
 40
3.0
 40
4.0
 40
4.0
 40
4.0
 40
5.0
 40
5.0
 40
5.0
 40
6.0
 40
6.0
 40
6.0
 40
7.0
 40
7.0
 40
7.0
 40
7.0
 10
114.0367946763519
 20
-143.6336099901333
 10
114.0367946763519
 20
-143.6336099901333
 10
112.9326415733293
 20
-143.6336099901333
 10
112.9326415733293
 20
-143.6336099901333
 10
112.9326415733293
 20
-143.6336099901333
 10
112.9326415733293
 20
-143.9636501376202
 10
112.9326415733293
 20
-143.9636501376202
 10
112.9326415733293
 20
-143.9636501376202
 10
112.7845024674636
 20
-143.9636501376202
 10
112.7845024674636
 20
-143.9636501376202
 10
112.769688556877
 20
-143.6315429328421
 10
112.6067355404247
 20
-143.5850341437913
 10
112.4923583703144
 20
-143.5554063226181
 10
112.4923583703144
 20
-143.5554063226181
 10
112.4923583703144
 20
-143.4093342740435
 10
112.4923583703144
 20
-143.4093342740435
 10
112.4923583703144
 20
-143.4093342740435
 10
114.0367946763519
 20
-143.4093342740435
 10
114.0367946763519
 20
-143.4093342740435
 10
114.0367946763519
 20
-143.4093342740435
 10
114.0367946763519
 20
-143.6336099901333
 10
114.0367946763519
 20
-143.6336099901333
 97
        0
 97
        0
 75
     2
 76
     1
 98
        0
  0
SPLINE
  5
C6
330
C0
100
AcDbEntity
  8
_U+30EC_U+30A4_U+30E4_U+30FC 1
370
     0
100
AcDbSpline
210
0.0
220
0.0
230
1.0
 70
    11
 71
     3
 72
    44
 73
    40
 74
     0
 42
0.0000000001
 43
0.0000000001
 12
1.0
 22
0.0
 32
0.0
 13
1.0
 23
0.0
 33
0.0
 40
0.0
 40
0.0
 40
0.0
 40
0.0
 40
1.0
 40
1.0
 40
1.0
 40
2.0
 40
2.0
 40
2.0
 40
3.0
 40
3.0
 40
3.0
 40
4.0
 40
4.0
 40
4.0
 40
5.0
 40
5.0
 40
5.0
 40
6.0
 40
6.0
 40
6.0
 40
7.0
 40
7.0
 40
7.0
 40
8.0
 40
8.0
 40
8.0
 40
9.0
 40
9.0
 40
9.0
 40
10.0
 40
10.0
 40
10.0
 40
11.0
 40
11.0
 40
11.0
 40
12.0
 40
12.0
 40
12.0
 40
13.0
 40
13.0
 40
13.0
 40
13.0
 10
113.4549180488932
 20
-142.3151719479281
 30
0.0
 10
113.6137369507632
 20
-142.5329019825959
 30
0.0
 10
113.6878065036961
 20
-142.6259195606977
 30
0.0
 10
113.831466985431
 20
-142.6748399165882
 30
0.0
 10
113.831466985431
 20
-142.6748399165882
 30
0.0
 10
113.831466985431
 20
-141.8962483369218
 30
0.0
 10
113.831466985431
 20
-141.8962483369218
 30
0.0
 10
113.831466985431
 20
-141.8962483369218
 30
0.0
 10
114.0367946763519
 20
-141.8962483369218
 30
0.0
 10
114.0367946763519
 20
-141.8962483369218
 30
0.0
 10
114.0367946763519
 20
-141.8962483369218
 30
0.0
 10
114.0367946763519
 20
-142.9242648297203
 30
0.0
 10
114.0367946763519
 20
-142.9242648297203
 30
0.0
 10
113.679193764983
 20
-142.892569951256
 30
0.0
 10
113.6009900974678
 20
-142.8271131370363
 30
0.0
 10
113.3026448284452
 20
-142.4419514617854
 30
0.0
 10
113.1038628189463
 20
-142.1859808672313
 30
0.0
 10
113.0359944378868
 20
-142.1205240530115
 30
0.0
 10
112.8985351280254
 20
-142.1205240530115
 30
0.0
 10
112.7800238433328
 20
-142.1205240530115
 30
0.0
 10
112.6491102148933
 20
-142.1925265486533
 30
0.0
 10
112.6491102148933
 20
-142.389241500861
 30
0.0
 10
112.6491102148933
 20
-142.6493462099974
 30
0.0
 10
112.8795871028565
 20
-142.6579589487105
 30
0.0
 10
112.9960313302579
 20
-142.6620930632928
 30
0.0
 10
112.9960313302579
 20
-142.6620930632928
 30
0.0
 10
112.9960313302579
 20
-142.8863687793826
 30
0.0
 10
112.9960313302579
 20
-142.8863687793826
 30
0.0
 10
112.8689073068522
 20
-142.8777560406695
 30
0.0
 10
112.7569417035816
 20
-142.8670762446652
 30
0.0
 10
112.638430418889
 20
-142.7868055198589
 30
0.0
 10
112.4775444597278
 20
-142.6769069738794
 30
0.0
 10
112.4437825239724
 20
-142.4905273081274
 30
0.0
 10
112.4437825239724
 20
-142.3744275902745
 30
0.0
 10
112.4437825239724
 20
-142.0970974037118
 30
0.0
 10
112.6277506228847
 20
-141.8897026554998
 30
0.0
 10
112.9006021853165
 20
-141.8897026554998
 30
0.0
 10
113.1293565255371
 20
-141.8897026554998
 30
0.0
 10
113.2285752755123
 20
-142.0061468829012
 30
0.0
 10
113.4549180488932
 20
-142.3151719479281
 30
0.0
  0
HATCH
  5
C7
330
C0
100
AcDbEntity
  8
_U+30EC_U+30A4_U+30E4_U+30FC 1
 62
   179
420
  2234388
100
AcDbHatch
 10
0.0
 20
0.0
 30
0.0
210
0.0
220
0.0
230
1.0
  2
SOLID
 70
     1
 71
     0
 91
        1
 92
        1
 93
        1
 72
     4
 94
        3
 73
     0
 74
     1
 95
       44
 96
       40
 40
0.0
 40
0.0
 40
0.0
 40
0.0
 40
1.0
 40
1.0
 40
1.0
 40
2.0
 40
2.0
 40
2.0
 40
3.0
 40
3.0
 40
3.0
 40
4.0
 40
4.0
 40
4.0
 40
5.0
 40
5.0
 40
5.0
 40
6.0
 40
6.0
 40
6.0
 40
7.0
 40
7.0
 40
7.0
 40
8.0
 40
8.0
 40
8.0
 40
9.0
 40
9.0
 40
9.0
 40
10.0
 40
10.0
 40
10.0
 40
11.0
 40
11.0
 40
11.0
 40
12.0
 40
12.0
 40
12.0
 40
13.0
 40
13.0
 40
13.0
 40
13.0
 10
113.4549180488932
 20
-142.3151719479281
 10
113.6137369507632
 20
-142.5329019825959
 10
113.6878065036961
 20
-142.6259195606977
 10
113.831466985431
 20
-142.6748399165882
 10
113.831466985431
 20
-142.6748399165882
 10
113.831466985431
 20
-141.8962483369218
 10
113.831466985431
 20
-141.8962483369218
 10
113.831466985431
 20
-141.8962483369218
 10
114.0367946763519
 20
-141.8962483369218
 10
114.0367946763519
 20
-141.8962483369218
 10
114.0367946763519
 20
-141.8962483369218
 10
114.0367946763519
 20
-142.9242648297203
 10
114.0367946763519
 20
-142.9242648297203
 10
113.679193764983
 20
-142.892569951256
 10
113.6009900974678
 20
-142.8271131370363
 10
113.3026448284452
 20
-142.4419514617854
 10
113.1038628189463
 20
-142.1859808672313
 10
113.0359944378868
 20
-142.1205240530115
 10
112.8985351280254
 20
-142.1205240530115
 10
112.7800238433328
 20
-142.1205240530115
 10
112.6491102148933
 20
-142.1925265486533
 10
112.6491102148933
 20
-142.389241500861
 10
112.6491102148933
 20
-142.6493462099974
 10
112.8795871028565
 20
-142.6579589487105
 10
112.9960313302579
 20
-142.6620930632928
 10
112.9960313302579
 20
-142.6620930632928
 10
112.9960313302579
 20
-142.8863687793826
 10
112.9960313302579
 20
-142.8863687793826
 10
112.8689073068522
 20
-142.8777560406695
 10
112.7569417035816
 20
-142.8670762446652
 10
112.638430418889
 20
-142.7868055198589
 10
112.4775444597278
 20
-142.6769069738794
 10
112.4437825239724
 20
-142.4905273081274
 10
112.4437825239724
 20
-142.3744275902745
 10
112.4437825239724
 20
-142.0970974037118
 10
112.6277506228847
 20
-141.8897026554998
 10
112.9006021853165
 20
-141.8897026554998
 10
113.1293565255371
 20
-141.8897026554998
 10
113.2285752755123
 20
-142.0061468829012
 10
113.4549180488932
 20
-142.3151719479281
 97
        0
 97
        0
 75
     2
 76
     1
 98
        0
  0
POLYLINE
  5
C8
330
C0
100
AcDbEntity
  8
_U+30EC_U+30A4_U+30E4_U+30FC 1
370
     0
100
AcDb2dPolyline
 66
     1
 10
0.0
 20
0.0
 30
0.0
  0
VERTEX
  5
C9
330
C8
100
AcDbEntity
  8
_U+30EC_U+30A4_U+30E4_U+30FC 1
370
     0
100
AcDbVertex
100
AcDb2dVertex
 10
114.0367946763519
 20
-141.671283601735
 30
0.0
  0
VERTEX
  5
CA
330
C8
100
AcDbEntity
  8
_U+30EC_U+30A4_U+30E4_U+30FC 1
370
     0
100
AcDbVertex
100
AcDb2dVertex
 10
113.7849581963802
 20
-141.671283601735
 30
0.0
  0
VERTEX
  5
CB
330
C8
100
AcDbEntity
  8
_U+30EC_U+30A4_U+30E4_U+30FC 1
370
     0
100
AcDbVertex
100
AcDb2dVertex
 10
113.7849581963802
 20
-141.4194471217632
 30
0.0
  0
VERTEX
  5
CC
330
C8
100
AcDbEntity
  8
_U+30EC_U+30A4_U+30E4_U+30FC 1
370
     0
100
AcDbVertex
100
AcDb2dVertex
 10
114.0367946763519
 20
-141.4194471217632
 30
0.0
  0
VERTEX
  5
CD
330
C8
100
AcDbEntity
  8
_U+30EC_U+30A4_U+30E4_U+30FC 1
370
     0
100
AcDbVertex
100
AcDb2dVertex
 10
114.0367946763519
 20
-141.671283601735
 30
0.0
  0
SEQEND
  5
CE
330
C8
100
AcDbEntity
  8
_U+30EC_U+30A4_U+30E4_U+30FC 1
370
     0
  0
HATCH
  5
CF
330
C0
100
AcDbEntity
  8
_U+30EC_U+30A4_U+30E4_U+30FC 1
 62
   179
420
  2234388
100
AcDbHatch
 10
0.0
 20
0.0
 30
0.0
210
0.0
220
0.0
230
1.0
  2
SOLID
 70
     1
 71
     0
 91
        1
 92
        1
 93
        4
 72
     1
 10
114.0367946763519
 20
-141.671283601735
 11
113.7849581963802
 21
-141.671283601735
 72
     1
 10
113.7849581963802
 20
-141.671283601735
 11
113.7849581963802
 21
-141.4194471217632
 72
     1
 10
113.7849581963802
 20
-141.4194471217632
 11
114.0367946763519
 21
-141.4194471217632
 72
     1
 10
114.0367946763519
 20
-141.4194471217632
 11
114.0367946763519
 21
-141.671283601735
 97
        0
 75
     2
 76
     1
 98
        0
  0
SPLINE
  5
D0
330
C0
100
AcDbEntity
  8
_U+30EC_U+30A4_U+30E4_U+30FC 1
370
     0
100
AcDbSpline
210
0.0
220
0.0
230
1.0
 70
    11
 71
     3
 72
    53
 73
    49
 74
     0
 42
0.0000000001
 43
0.0000000001
 12
1.0
 22
0.0
 32
0.0
 13
1.0
 23
0.0
 33
0.0
 40
0.0
 40
0.0
 40
0.0
 40
0.0
 40
1.0
 40
1.0
 40
1.0
 40
2.0
 40
2.0
 40
2.0
 40
3.0
 40
3.0
 40
3.0
 40
4.0
 40
4.0
 40
4.0
 40
5.0
 40
5.0
 40
5.0
 40
6.0
 40
6.0
 40
6.0
 40
7.0
 40
7.0
 40
7.0
 40
8.0
 40
8.0
 40
8.0
 40
9.0
 40
9.0
 40
9.0
 40
10.0
 40
10.0
 40
10.0
 40
11.0
 40
11.0
 40
11.0
 40
12.0
 40
12.0
 40
12.0
 40
13.0
 40
13.0
 40
13.0
 40
14.0
 40
14.0
 40
14.0
 40
15.0
 40
15.0
 40
15.0
 40
16.0
 40
16.0
 40
16.0
 40
16.0
 10
114.0874375799851
 20
-140.7021782417342
 30
0.0
 10
114.0874375799851
 20
-140.7803819092493
 30
0.0
 10
114.0705566121074
 20
-140.8820122260642
 30
0.0
 10
114.0071668551788
 20
-140.9836425428791
 30
0.0
 10
113.8972683091993
 20
-141.1569308457872
 30
0.0
 10
113.7660101712113
 20
-141.1782904377957
 30
0.0
 10
113.658178682523
 20
-141.1972384629646
 30
0.0
 10
113.658178682523
 20
-141.1972384629646
 30
0.0
 10
113.658178682523
 20
-140.975029804166
 30
0.0
 10
113.658178682523
 20
-140.975029804166
 30
0.0
 10
113.8569606920219
 20
-140.9202527859505
 30
0.0
 10
113.886588513195
 20
-140.7931287625448
 30
0.0
 10
113.886588513195
 20
-140.700111184443
 30
0.0
 10
113.886588513195
 20
-140.5605848172904
 30
0.0
 10
113.7870252536713
 20
-140.4083115968424
 30
0.0
 10
113.5544813084169
 20
-140.4083115968424
 30
0.0
 10
113.2985107138629
 20
-140.4083115968424
 30
0.0
 10
113.2285752755123
 20
-140.5881455811724
 30
0.0
 10
113.2285752755123
 20
-140.7087239231562
 30
0.0
 10
113.2285752755123
 20
-140.7404188016205
 30
0.0
 10
113.2285752755123
 20
-140.8820122260642
 30
0.0
 10
113.3577663562092
 20
-140.9708956895837
 30
0.0
 10
113.3577663562092
 20
-140.9708956895837
 30
0.0
 10
113.3388183310403
 20
-141.1465955593314
 30
0.0
 10
113.3388183310403
 20
-141.1465955593314
 30
0.0
 10
113.3388183310403
 20
-141.1465955593314
 30
0.0
 10
112.4923583703144
 20
-141.0260172173477
 30
0.0
 10
112.4923583703144
 20
-141.0260172173477
 30
0.0
 10
112.4923583703144
 20
-141.0260172173477
 30
0.0
 10
112.4923583703144
 20
-140.2474256376812
 30
0.0
 10
112.4923583703144
 20
-140.2474256376812
 30
0.0
 10
112.4923583703144
 20
-140.2474256376812
 30
0.0
 10
112.687006265231
 20
-140.2474256376812
 30
0.0
 10
112.687006265231
 20
-140.2474256376812
 30
0.0
 10
112.687006265231
 20
-140.2474256376812
 30
0.0
 10
112.687006265231
 20
-140.8630642008953
 30
0.0
 10
112.687006265231
 20
-140.8630642008953
 30
0.0
 10
112.687006265231
 20
-140.8630642008953
 30
0.0
 10
113.1100639908197
 20
-140.9285210151151
 30
0.0
 10
113.1100639908197
 20
-140.9285210151151
 30
0.0
 10
113.0763020550643
 20
-140.8671983154777
 30
0.0
 10
113.0359944378868
 20
-140.7848605333802
 30
0.0
 10
113.0359944378868
 20
-140.6663492486876
 30
0.0
 10
113.0359944378868
 20
-140.4124457114247
 30
0.0
 10
113.2223741036389
 20
-140.1754231420395
 30
0.0
 10
113.5355332832481
 20
-140.1754231420395
 30
0.0
 10
113.8528265774396
 20
-140.1754231420395
 30
0.0
 10
114.0874375799851
 20
-140.3996988581293
 30
0.0
 10
114.0874375799851
 20
-140.7021782417342
 30
0.0
  0
HATCH
  5
D1
330
C0
100
AcDbEntity
  8
_U+30EC_U+30A4_U+30E4_U+30FC 1
 62
   179
420
  2234388
100
AcDbHatch
 10
0.0
 20
0.0
 30
0.0
210
0.0
220
0.0
230
1.0
  2
SOLID
 70
     1
 71
     0
 91
        1
 92
        1
 93
        1
 72
     4
 94
        3
 73
     0
 74
     1
 95
       53
 96
       49
 40
0.0
 40
0.0
 40
0.0
 40
0.0
 40
1.0
 40
1.0
 40
1.0
 40
2.0
 40
2.0
 40
2.0
 40
3.0
 40
3.0
 40
3.0
 40
4.0
 40
4.0
 40
4.0
 40
5.0
 40
5.0
 40
5.0
 40
6.0
 40
6.0
 40
6.0
 40
7.0
 40
7.0
 40
7.0
 40
8.0
 40
8.0
 40
8.0
 40
9.0
 40
9.0
 40
9.0
 40
10.0
 40
10.0
 40
10.0
 40
11.0
 40
11.0
 40
11.0
 40
12.0
 40
12.0
 40
12.0
 40
13.0
 40
13.0
 40
13.0
 40
14.0
 40
14.0
 40
14.0
 40
15.0
 40
15.0
 40
15.0
 40
16.0
 40
16.0
 40
16.0
 40
16.0
 10
114.0874375799851
 20
-140.7021782417342
 10
114.0874375799851
 20
-140.7803819092493
 10
114.0705566121074
 20
-140.8820122260642
 10
114.0071668551788
 20
-140.9836425428791
 10
113.8972683091993
 20
-141.1569308457872
 10
113.7660101712113
 20
-141.1782904377957
 10
113.658178682523
 20
-141.1972384629646
 10
113.658178682523
 20
-141.1972384629646
 10
113.658178682523
 20
-140.975029804166
 10
113.658178682523
 20
-140.975029804166
 10
113.8569606920219
 20
-140.9202527859505
 10
113.886588513195
 20
-140.7931287625448
 10
113.886588513195
 20
-140.700111184443
 10
113.886588513195
 20
-140.5605848172904
 10
113.7870252536713
 20
-140.4083115968424
 10
113.5544813084169
 20
-140.4083115968424
 10
113.2985107138629
 20
-140.4083115968424
 10
113.2285752755123
 20
-140.5881455811724
 10
113.2285752755123
 20
-140.7087239231562
 10
113.2285752755123
 20
-140.7404188016205
 10
113.2285752755123
 20
-140.8820122260642
 10
113.3577663562092
 20
-140.9708956895837
 10
113.3577663562092
 20
-140.9708956895837
 10
113.3388183310403
 20
-141.1465955593314
 10
113.3388183310403
 20
-141.1465955593314
 10
113.3388183310403
 20
-141.1465955593314
 10
112.4923583703144
 20
-141.0260172173477
 10
112.4923583703144
 20
-141.0260172173477
 10
112.4923583703144
 20
-141.0260172173477
 10
112.4923583703144
 20
-140.2474256376812
 10
112.4923583703144
 20
-140.2474256376812
 10
112.4923583703144
 20
-140.2474256376812
 10
112.687006265231
 20
-140.2474256376812
 10
112.687006265231
 20
-140.2474256376812
 10
112.687006265231
 20
-140.2474256376812
 10
112.687006265231
 20
-140.8630642008953
 10
112.687006265231
 20
-140.8630642008953
 10
112.687006265231
 20
-140.8630642008953
 10
113.1100639908197
 20
-140.9285210151151
 10
113.1100639908197
 20
-140.9285210151151
 10
113.0763020550643
 20
-140.8671983154777
 10
113.0359944378868
 20
-140.7848605333802
 10
113.0359944378868
 20
-140.6663492486876
 10
113.0359944378868
 20
-140.4124457114247
 10
113.2223741036389
 20
-140.1754231420395
 10
113.5355332832481
 20
-140.1754231420395
 10
113.8528265774396
 20
-140.1754231420395
 10
114.0874375799851
 20
-140.3996988581293
 10
114.0874375799851
 20
-140.7021782417342
 97
        0
 97
        0
 75
     2
 76
     1
 98
        0
  0
ENDBLK
  5
C3
330
C0
100
AcDbEntity
  8
0
100
AcDbBlockEnd
  0
BLOCK
  5
DC
330
DA
100
AcDbEntity
  8
0
100
AcDbBlockBegin
  2
block 6
 70
     0
 10
0.0
 20
0.0
 30
0.0
  3
block 6
  1

  0
SPLINE
  5
DE
330
DA
100
AcDbEntity
  8
_U+30EC_U+30A4_U+30E4_U+30FC 1
370
     0
100
AcDbSpline
210
0.0
220
0.0
230
1.0
 70
    11
 71
     3
 72
    26
 73
    22
 74
     0
 42
0.0000000001
 43
0.0000000001
 12
1.0
 22
0.0
 32
0.0
 13
1.0
 23
0.0
 33
0.0
 40
0.0
 40
0.0
 40
0.0
 40
0.0
 40
1.0
 40
1.0
 40
1.0
 40
2.0
 40
2.0
 40
2.0
 40
3.0
 40
3.0
 40
3.0
 40
4.0
 40
4.0
 40
4.0
 40
5.0
 40
5.0
 40
5.0
 40
6.0
 40
6.0
 40
6.0
 40
7.0
 40
7.0
 40
7.0
 40
7.0
 10
70.36314695506546
 20
-116.9499674186792
 30
0.0
 10
70.36314695506546
 20
-116.9499674186792
 30
0.0
 10
70.36314695506546
 20
-115.8456420608823
 30
0.0
 10
70.36314695506546
 20
-115.8456420608823
 30
0.0
 10
70.36314695506546
 20
-115.8456420608823
 30
0.0
 10
70.03310680757853
 20
-115.8456420608823
 30
0.0
 10
70.03310680757853
 20
-115.8456420608823
 30
0.0
 10
70.03310680757853
 20
-115.8456420608823
 30
0.0
 10
70.03310680757853
 20
-115.6976752097909
 30
0.0
 10
70.03310680757853
 20
-115.6976752097909
 30
0.0
 10
70.36521401235662
 20
-115.6828612992043
 30
0.0
 10
70.41172280140749
 20
-115.519908282752
 30
0.0
 10
70.44135062258064
 20
-115.4057033674159
 30
0.0
 10
70.44135062258064
 20
-115.4057033674159
 30
0.0
 10
70.58742267115522
 20
-115.4057033674159
 30
0.0
 10
70.58742267115522
 20
-115.4057033674159
 30
0.0
 10
70.58742267115522
 20
-115.4057033674159
 30
0.0
 10
70.58742267115522
 20
-116.9499674186792
 30
0.0
 10
70.58742267115522
 20
-116.9499674186792
 30
0.0
 10
70.58742267115522
 20
-116.9499674186792
 30
0.0
 10
70.36314695506546
 20
-116.9499674186792
 30
0.0
 10
70.36314695506546
 20
-116.9499674186792
 30
0.0
  0
HATCH
  5
DF
330
DA
100
AcDbEntity
  8
_U+30EC_U+30A4_U+30E4_U+30FC 1
 62
   179
420
  2234388
100
AcDbHatch
 10
0.0
 20
0.0
 30
0.0
210
0.0
220
0.0
230
1.0
  2
SOLID
 70
     1
 71
     0
 91
        1
 92
        1
 93
        1
 72
     4
 94
        3
 73
     0
 74
     1
 95
       26
 96
       22
 40
0.0
 40
0.0
 40
0.0
 40
0.0
 40
1.0
 40
1.0
 40
1.0
 40
2.0
 40
2.0
 40
2.0
 40
3.0
 40
3.0
 40
3.0
 40
4.0
 40
4.0
 40
4.0
 40
5.0
 40
5.0
 40
5.0
 40
6.0
 40
6.0
 40
6.0
 40
7.0
 40
7.0
 40
7.0
 40
7.0
 10
70.36314695506546
 20
-116.9499674186792
 10
70.36314695506546
 20
-116.9499674186792
 10
70.36314695506546
 20
-115.8456420608823
 10
70.36314695506546
 20
-115.8456420608823
 10
70.36314695506546
 20
-115.8456420608823
 10
70.03310680757853
 20
-115.8456420608823
 10
70.03310680757853
 20
-115.8456420608823
 10
70.03310680757853
 20
-115.8456420608823
 10
70.03310680757853
 20
-115.6976752097909
 10
70.03310680757853
 20
-115.6976752097909
 10
70.36521401235662
 20
-115.6828612992043
 10
70.41172280140749
 20
-115.519908282752
 10
70.44135062258064
 20
-115.4057033674159
 10
70.44135062258064
 20
-115.4057033674159
 10
70.58742267115522
 20
-115.4057033674159
 10
70.58742267115522
 20
-115.4057033674159
 10
70.58742267115522
 20
-115.4057033674159
 10
70.58742267115522
 20
-116.9499674186792
 10
70.58742267115522
 20
-116.9499674186792
 10
70.58742267115522
 20
-116.9499674186792
 10
70.36314695506546
 20
-116.9499674186792
 10
70.36314695506546
 20
-116.9499674186792
 97
        0
 97
        0
 75
     2
 76
     1
 98
        0
  0
SPLINE
  5
E0
330
DA
100
AcDbEntity
  8
_U+30EC_U+30A4_U+30E4_U+30FC 1
370
     0
100
AcDbSpline
210
0.0
220
0.0
230
1.0
 70
    11
 71
     3
 72
    44
 73
    40
 74
     0
 42
0.0000000001
 43
0.0000000001
 12
1.0
 22
0.0
 32
0.0
 13
1.0
 23
0.0
 33
0.0
 40
0.0
 40
0.0
 40
0.0
 40
0.0
 40
1.0
 40
1.0
 40
1.0
 40
2.0
 40
2.0
 40
2.0
 40
3.0
 40
3.0
 40
3.0
 40
4.0
 40
4.0
 40
4.0
 40
5.0
 40
5.0
 40
5.0
 40
6.0
 40
6.0
 40
6.0
 40
7.0
 40
7.0
 40
7.0
 40
8.0
 40
8.0
 40
8.0
 40
9.0
 40
9.0
 40
9.0
 40
10.0
 40
10.0
 40
10.0
 40
11.0
 40
11.0
 40
11.0
 40
12.0
 40
12.0
 40
12.0
 40
13.0
 40
13.0
 40
13.0
 40
13.0
 10
71.68175725204485
 20
-116.3682630459948
 30
0.0
 10
71.4638549626028
 20
-116.5269096930905
 30
0.0
 10
71.37066512972679
 20
-116.6009792460234
 30
0.0
 10
71.32208928338476
 20
-116.7448119825326
 30
0.0
 10
71.32208928338476
 20
-116.7448119825326
 30
0.0
 10
72.10050860827695
 20
-116.7448119825326
 30
0.0
 10
72.10050860827695
 20
-116.7448119825326
 30
0.0
 10
72.10050860827695
 20
-116.7448119825326
 30
0.0
 10
72.10050860827695
 20
-116.9499674186792
 30
0.0
 10
72.10050860827695
 20
-116.9499674186792
 30
0.0
 10
72.10050860827695
 20
-116.9499674186792
 30
0.0
 10
71.07249211547841
 20
-116.9499674186792
 30
0.0
 10
71.07249211547841
 20
-116.9499674186792
 30
0.0
 10
71.1041869939427
 20
-116.5923665073102
 30
0.0
 10
71.16964380816245
 20
-116.5141628397951
 30
0.0
 10
71.55480548341339
 20
-116.2158175707724
 30
0.0
 10
71.81077607796745
 20
-116.0170355612735
 30
0.0
 10
71.87623289218719
 20
-115.9493394349884
 30
0.0
 10
71.87623289218719
 20
-115.8118801251269
 30
0.0
 10
71.87623289218719
 20
-115.6933688404343
 30
0.0
 10
71.80440265131973
 20
-115.5622829572205
 30
0.0
 10
71.60768769911196
 20
-115.5622829572205
 30
0.0
 10
71.34741073520135
 20
-115.5622829572205
 30
0.0
 10
71.33897025126248
 20
-115.7927598451838
 30
0.0
 10
71.33466388190593
 20
-115.9092040725852
 30
0.0
 10
71.33466388190593
 20
-115.9092040725852
 30
0.0
 10
71.11056042059042
 20
-115.9092040725852
 30
0.0
 10
71.11056042059042
 20
-115.9092040725852
 30
0.0
 10
71.11900090452929
 20
-115.7822523039538
 30
0.0
 10
71.1295084457593
 20
-115.6701144459089
 30
0.0
 10
71.20995142533988
 20
-115.5516031612163
 30
0.0
 10
71.31984997131934
 20
-115.3908894568294
 30
0.0
 10
71.5060573822971
 20
-115.3569552662997
 30
0.0
 10
71.62250160969855
 20
-115.3569552662997
 30
0.0
 10
71.8996595414869
 20
-115.3569552662997
 30
0.0
 10
72.10688203492467
 20
-115.5410956199863
 30
0.0
 10
72.10688203492467
 20
-115.813947182418
 30
0.0
 10
72.10688203492467
 20
-116.0423570130901
 30
0.0
 10
71.99061006229749
 20
-116.1419202726138
 30
0.0
 10
71.68175725204485
 20
-116.3682630459948
 30
0.0
  0
HATCH
  5
E1
330
DA
100
AcDbEntity
  8
_U+30EC_U+30A4_U+30E4_U+30FC 1
 62
   179
420
  2234388
100
AcDbHatch
 10
0.0
 20
0.0
 30
0.0
210
0.0
220
0.0
230
1.0
  2
SOLID
 70
     1
 71
     0
 91
        1
 92
        1
 93
        1
 72
     4
 94
        3
 73
     0
 74
     1
 95
       44
 96
       40
 40
0.0
 40
0.0
 40
0.0
 40
0.0
 40
1.0
 40
1.0
 40
1.0
 40
2.0
 40
2.0
 40
2.0
 40
3.0
 40
3.0
 40
3.0
 40
4.0
 40
4.0
 40
4.0
 40
5.0
 40
5.0
 40
5.0
 40
6.0
 40
6.0
 40
6.0
 40
7.0
 40
7.0
 40
7.0
 40
8.0
 40
8.0
 40
8.0
 40
9.0
 40
9.0
 40
9.0
 40
10.0
 40
10.0
 40
10.0
 40
11.0
 40
11.0
 40
11.0
 40
12.0
 40
12.0
 40
12.0
 40
13.0
 40
13.0
 40
13.0
 40
13.0
 10
71.68175725204485
 20
-116.3682630459948
 10
71.4638549626028
 20
-116.5269096930905
 10
71.37066512972679
 20
-116.6009792460234
 10
71.32208928338476
 20
-116.7448119825326
 10
71.32208928338476
 20
-116.7448119825326
 10
72.10050860827695
 20
-116.7448119825326
 10
72.10050860827695
 20
-116.7448119825326
 10
72.10050860827695
 20
-116.7448119825326
 10
72.10050860827695
 20
-116.9499674186792
 10
72.10050860827695
 20
-116.9499674186792
 10
72.10050860827695
 20
-116.9499674186792
 10
71.07249211547841
 20
-116.9499674186792
 10
71.07249211547841
 20
-116.9499674186792
 10
71.1041869939427
 20
-116.5923665073102
 10
71.16964380816245
 20
-116.5141628397951
 10
71.55480548341339
 20
-116.2158175707724
 10
71.81077607796745
 20
-116.0170355612735
 10
71.87623289218719
 20
-115.9493394349884
 10
71.87623289218719
 20
-115.8118801251269
 10
71.87623289218719
 20
-115.6933688404343
 10
71.80440265131973
 20
-115.5622829572205
 10
71.60768769911196
 20
-115.5622829572205
 10
71.34741073520135
 20
-115.5622829572205
 10
71.33897025126248
 20
-115.7927598451838
 10
71.33466388190593
 20
-115.9092040725852
 10
71.33466388190593
 20
-115.9092040725852
 10
71.11056042059042
 20
-115.9092040725852
 10
71.11056042059042
 20
-115.9092040725852
 10
71.11900090452929
 20
-115.7822523039538
 10
71.1295084457593
 20
-115.6701144459089
 10
71.20995142533988
 20
-115.5516031612163
 10
71.31984997131934
 20
-115.3908894568294
 10
71.5060573822971
 20
-115.3569552662997
 10
71.62250160969855
 20
-115.3569552662997
 10
71.8996595414869
 20
-115.3569552662997
 10
72.10688203492467
 20
-115.5410956199863
 10
72.10688203492467
 20
-115.813947182418
 10
72.10688203492467
 20
-116.0423570130901
 10
71.99061006229749
 20
-116.1419202726138
 10
71.68175725204485
 20
-116.3682630459948
 97
        0
 97
        0
 75
     2
 76
     1
 98
        0
  0
POLYLINE
  5
E2
330
DA
100
AcDbEntity
  8
_U+30EC_U+30A4_U+30E4_U+30FC 1
370
     0
100
AcDb2dPolyline
 66
     1
 10
0.0
 20
0.0
 30
0.0
  0
VERTEX
  5
E3
330
E2
100
AcDbEntity
  8
_U+30EC_U+30A4_U+30E4_U+30FC 1
370
     0
100
AcDbVertex
100
AcDb2dVertex
 10
72.32547334346377
 20
-116.9499674186792
 30
0.0
  0
VERTEX
  5
E4
330
E2
100
AcDbEntity
  8
_U+30EC_U+30A4_U+30E4_U+30FC 1
370
     0
100
AcDbVertex
100
AcDb2dVertex
 10
72.32547334346377
 20
-116.6983031934817
 30
0.0
  0
VERTEX
  5
E5
330
E2
100
AcDbEntity
  8
_U+30EC_U+30A4_U+30E4_U+30FC 1
370
     0
100
AcDbVertex
100
AcDb2dVertex
 10
72.57713756866127
 20
-116.6983031934817
 30
0.0
  0
VERTEX
  5
E6
330
E2
100
AcDbEntity
  8
_U+30EC_U+30A4_U+30E4_U+30FC 1
370
     0
100
AcDbVertex
100
AcDb2dVertex
 10
72.57713756866127
 20
-116.9499674186792
 30
0.0
  0
VERTEX
  5
E7
330
E2
100
AcDbEntity
  8
_U+30EC_U+30A4_U+30E4_U+30FC 1
370
     0
100
AcDbVertex
100
AcDb2dVertex
 10
72.32547334346377
 20
-116.9499674186792
 30
0.0
  0
SEQEND
  5
E8
330
E2
100
AcDbEntity
  8
_U+30EC_U+30A4_U+30E4_U+30FC 1
370
     0
  0
HATCH
  5
E9
330
DA
100
AcDbEntity
  8
_U+30EC_U+30A4_U+30E4_U+30FC 1
 62
   179
420
  2234388
100
AcDbHatch
 10
0.0
 20
0.0
 30
0.0
210
0.0
220
0.0
230
1.0
  2
SOLID
 70
     1
 71
     0
 91
        1
 92
        1
 93
        4
 72
     1
 10
72.32547334346377
 20
-116.9499674186792
 11
72.32547334346377
 21
-116.6983031934817
 72
     1
 10
72.32547334346377
 20
-116.6983031934817
 11
72.57713756866127
 21
-116.6983031934817
 72
     1
 10
72.57713756866127
 20
-116.6983031934817
 11
72.57713756866127
 21
-116.9499674186792
 72
     1
 10
72.57713756866127
 20
-116.9499674186792
 11
72.32547334346377
 21
-116.9499674186792
 97
        0
 75
     2
 76
     1
 98
        0
  0
SPLINE
  5
EA
330
DA
100
AcDbEntity
  8
_U+30EC_U+30A4_U+30E4_U+30FC 1
370
     0
100
AcDbSpline
210
0.0
220
0.0
230
1.0
 70
    11
 71
     3
 72
    53
 73
    49
 74
     0
 42
0.0000000001
 43
0.0000000001
 12
1.0
 22
0.0
 32
0.0
 13
1.0
 23
0.0
 33
0.0
 40
0.0
 40
0.0
 40
0.0
 40
0.0
 40
1.0
 40
1.0
 40
1.0
 40
2.0
 40
2.0
 40
2.0
 40
3.0
 40
3.0
 40
3.0
 40
4.0
 40
4.0
 40
4.0
 40
5.0
 40
5.0
 40
5.0
 40
6.0
 40
6.0
 40
6.0
 40
7.0
 40
7.0
 40
7.0
 40
8.0
 40
8.0
 40
8.0
 40
9.0
 40
9.0
 40
9.0
 40
10.0
 40
10.0
 40
10.0
 40
11.0
 40
11.0
 40
11.0
 40
12.0
 40
12.0
 40
12.0
 40
13.0
 40
13.0
 40
13.0
 40
14.0
 40
14.0
 40
14.0
 40
15.0
 40
15.0
 40
15.0
 40
16.0
 40
16.0
 40
16.0
 40
16.0
 10
73.29457870346455
 20
-117.0007825770866
 30
0.0
 10
73.21620278117511
 20
-117.0007825770866
 30
0.0
 10
73.1147447191345
 20
-116.9837293544346
 30
0.0
 10
73.01311440231964
 20
-116.920339597506
 30
0.0
 10
72.83965384463731
 20
-116.8102687967523
 30
0.0
 10
72.81846650740303
 20
-116.6791829135385
 30
0.0
 10
72.79951848223415
 20
-116.5713514248502
 30
0.0
 10
72.79951848223415
 20
-116.5713514248502
 30
0.0
 10
73.0215548862585
 20
-116.5713514248502
 30
0.0
 10
73.0215548862585
 20
-116.5713514248502
 30
0.0
 10
73.0766764140225
 20
-116.7701334343491
 30
0.0
 10
73.20362818265396
 20
-116.7997612555223
 30
0.0
 10
73.29664576075571
 20
-116.7997612555223
 30
0.0
 10
73.43617212790832
 20
-116.7997612555223
 30
0.0
 10
73.58861760313063
 20
-116.7003702507728
 30
0.0
 10
73.58861760313063
 20
-116.4676540507442
 30
0.0
 10
73.58861760313063
 20
-116.2116834561901
 30
0.0
 10
73.40878361880058
 20
-116.1419202726138
 30
0.0
 10
73.28820527681684
 20
-116.1419202726138
 30
0.0
 10
73.25651039835255
 20
-116.1419202726138
 30
0.0
 10
73.1147447191345
 20
-116.1419202726138
 30
0.0
 10
73.02586125561507
 20
-116.2709390985364
 30
0.0
 10
73.02586125561507
 20
-116.2709390985364
 30
0.0
 10
72.85033364064158
 20
-116.2518188185933
 30
0.0
 10
72.85033364064158
 20
-116.2518188185933
 30
0.0
 10
72.85033364064158
 20
-116.2518188185933
 30
0.0
 10
72.97091198262532
 20
-115.4057033674159
 30
0.0
 10
72.97091198262532
 20
-115.4057033674159
 30
0.0
 10
72.97091198262532
 20
-115.4057033674159
 30
0.0
 10
73.74933130751754
 20
-115.4057033674159
 30
0.0
 10
73.74933130751754
 20
-115.4057033674159
 30
0.0
 10
73.74933130751754
 20
-115.4057033674159
 30
0.0
 10
73.74933130751754
 20
-115.6003512623326
 30
0.0
 10
73.74933130751754
 20
-115.6003512623326
 30
0.0
 10
73.74933130751754
 20
-115.6003512623326
 30
0.0
 10
73.13369274430339
 20
-115.6003512623326
 30
0.0
 10
73.13369274430339
 20
-115.6003512623326
 30
0.0
 10
73.13369274430339
 20
-115.6003512623326
 30
0.0
 10
73.06823593008365
 20
-116.0234089879212
 30
0.0
 10
73.06823593008365
 20
-116.0234089879212
 30
0.0
 10
73.12955862972109
 20
-115.9894747973915
 30
0.0
 10
73.21206866659281
 20
-115.9493394349884
 30
0.0
 10
73.33040769651114
 20
-115.9493394349884
 30
0.0
 10
73.58431123377406
 20
-115.9493394349884
 30
0.0
 10
73.82133380315925
 20
-116.1355468459661
 30
0.0
 10
73.82133380315925
 20
-116.4485337708011
 30
0.0
 10
73.82133380315925
 20
-116.7659993197668
 30
0.0
 10
73.59705808706948
 20
-117.0007825770866
 30
0.0
 10
73.29457870346455
 20
-117.0007825770866
 30
0.0
  0
HATCH
  5
EB
330
DA
100
AcDbEntity
  8
_U+30EC_U+30A4_U+30E4_U+30FC 1
 62
   179
420
  2234388
100
AcDbHatch
 10
0.0
 20
0.0
 30
0.0
210
0.0
220
0.0
230
1.0
  2
SOLID
 70
     1
 71
     0
 91
        1
 92
        1
 93
        1
 72
     4
 94
        3
 73
     0
 74
     1
 95
       53
 96
       49
 40
0.0
 40
0.0
 40
0.0
 40
0.0
 40
1.0
 40
1.0
 40
1.0
 40
2.0
 40
2.0
 40
2.0
 40
3.0
 40
3.0
 40
3.0
 40
4.0
 40
4.0
 40
4.0
 40
5.0
 40
5.0
 40
5.0
 40
6.0
 40
6.0
 40
6.0
 40
7.0
 40
7.0
 40
7.0
 40
8.0
 40
8.0
 40
8.0
 40
9.0
 40
9.0
 40
9.0
 40
10.0
 40
10.0
 40
10.0
 40
11.0
 40
11.0
 40
11.0
 40
12.0
 40
12.0
 40
12.0
 40
13.0
 40
13.0
 40
13.0
 40
14.0
 40
14.0
 40
14.0
 40
15.0
 40
15.0
 40
15.0
 40
16.0
 40
16.0
 40
16.0
 40
16.0
 10
73.29457870346455
 20
-117.0007825770866
 10
73.21620278117511
 20
-117.0007825770866
 10
73.1147447191345
 20
-116.9837293544346
 10
73.01311440231964
 20
-116.920339597506
 10
72.83965384463731
 20
-116.8102687967523
 10
72.81846650740303
 20
-116.6791829135385
 10
72.79951848223415
 20
-116.5713514248502
 10
72.79951848223415
 20
-116.5713514248502
 10
73.0215548862585
 20
-116.5713514248502
 10
73.0215548862585
 20
-116.5713514248502
 10
73.0766764140225
 20
-116.7701334343491
 10
73.20362818265396
 20
-116.7997612555223
 10
73.29664576075571
 20
-116.7997612555223
 10
73.43617212790832
 20
-116.7997612555223
 10
73.58861760313063
 20
-116.7003702507728
 10
73.58861760313063
 20
-116.4676540507442
 10
73.58861760313063
 20
-116.2116834561901
 10
73.40878361880058
 20
-116.1419202726138
 10
73.28820527681684
 20
-116.1419202726138
 10
73.25651039835255
 20
-116.1419202726138
 10
73.1147447191345
 20
-116.1419202726138
 10
73.02586125561507
 20
-116.2709390985364
 10
73.02586125561507
 20
-116.2709390985364
 10
72.85033364064158
 20
-116.2518188185933
 10
72.85033364064158
 20
-116.2518188185933
 10
72.85033364064158
 20
-116.2518188185933
 10
72.97091198262532
 20
-115.4057033674159
 10
72.97091198262532
 20
-115.4057033674159
 10
72.97091198262532
 20
-115.4057033674159
 10
73.74933130751754
 20
-115.4057033674159
 10
73.74933130751754
 20
-115.4057033674159
 10
73.74933130751754
 20
-115.4057033674159
 10
73.74933130751754
 20
-115.6003512623326
 10
73.74933130751754
 20
-115.6003512623326
 10
73.74933130751754
 20
-115.6003512623326
 10
73.13369274430339
 20
-115.6003512623326
 10
73.13369274430339
 20
-115.6003512623326
 10
73.13369274430339
 20
-115.6003512623326
 10
73.06823593008365
 20
-116.0234089879212
 10
73.06823593008365
 20
-116.0234089879212
 10
73.12955862972109
 20
-115.9894747973915
 10
73.21206866659281
 20
-115.9493394349884
 10
73.33040769651114
 20
-115.9493394349884
 10
73.58431123377406
 20
-115.9493394349884
 10
73.82133380315925
 20
-116.1355468459661
 10
73.82133380315925
 20
-116.4485337708011
 10
73.82133380315925
 20
-116.7659993197668
 10
73.59705808706948
 20
-117.0007825770866
 10
73.29457870346455
 20
-117.0007825770866
 97
        0
 97
        0
 75
     2
 76
     1
 98
        0
  0
ENDBLK
  5
DD
330
DA
100
AcDbEntity
  8
0
100
AcDbBlockEnd
  0
ENDSEC
  0
SECTION
  2
ENTITIES
  0
POLYLINE
  5
41
330
1F
100
AcDbEntity
  8
_U+30EC_U+30A4_U+30E4_U+30FC 1
 62
   179
420
  2234388
370
     9
100
AcDb2dPolyline
 66
     1
 10
0.0
 20
0.0
 30
0.0
  0
VERTEX
  5
42
330
41
100
AcDbEntity
  8
_U+30EC_U+30A4_U+30E4_U+30FC 1
 62
   179
420
  2234388
370
     9
100
AcDbVertex
100
AcDb2dVertex
 10
75.85378195369769
 20
-138.1421332987981
 30
0.0
  0
VERTEX
  5
43
330
41
100
AcDbEntity
  8
_U+30EC_U+30A4_U+30E4_U+30FC 1
 62
   179
420
  2234388
370
     9
100
AcDbVertex
100
AcDb2dVertex
 10
72.93507508371566
 20
-141.0611577425122
 30
0.0
  0
SEQEND
  5
44
330
41
100
AcDbEntity
  8
_U+30EC_U+30A4_U+30E4_U+30FC 1
 62
   179
420
  2234388
370
     9
  0
POLYLINE
  5
45
330
1F
100
AcDbEntity
  8
_U+30EC_U+30A4_U+30E4_U+30FC 1
 62
   179
420
  2234388
370
     9
100
AcDb2dPolyline
 66
     1
 10
0.0
 20
0.0
 30
0.0
  0
VERTEX
  5
46
330
45
100
AcDbEntity
  8
_U+30EC_U+30A4_U+30E4_U+30FC 1
 62
   179
420
  2234388
370
     9
100
AcDbVertex
100
AcDb2dVertex
 10
75.85378195369769
 20
-138.1421332987981
 30
0.0
  0
VERTEX
  5
47
330
45
100
AcDbEntity
  8
_U+30EC_U+30A4_U+30E4_U+30FC 1
 62
   179
420
  2234388
370
     9
100
AcDbVertex
100
AcDb2dVertex
 10
80.48190878006878
 20
-138.1421332987981
 30
0.0
  0
SEQEND
  5
48
330
45
100
AcDbEntity
  8
_U+30EC_U+30A4_U+30E4_U+30FC 1
 62
   179
420
  2234388
370
     9
  0
POLYLINE
  5
49
330
1F
100
AcDbEntity
  8
_U+30EC_U+30A4_U+30E4_U+30FC 1
 62
   179
420
  2234388
370
     9
100
AcDb2dPolyline
 66
     1
 10
0.0
 20
0.0
 30
0.0
  0
VERTEX
  5
4A
330
49
100
AcDbEntity
  8
_U+30EC_U+30A4_U+30E4_U+30FC 1
 62
   179
420
  2234388
370
     9
100
AcDbVertex
100
AcDb2dVertex
 10
73.97411144609653
 20
-140.4610121871069
 30
0.0
  0
VERTEX
  5
4B
330
49
100
AcDbEntity
  8
_U+30EC_U+30A4_U+30E4_U+30FC 1
 62
   179
420
  2234388
370
     9
100
AcDbVertex
100
AcDb2dVertex
 10
72.93507508371566
 20
-141.0611577425122
 30
0.0
  0
SEQEND
  5
4C
330
49
100
AcDbEntity
  8
_U+30EC_U+30A4_U+30E4_U+30FC 1
 62
   179
420
  2234388
370
     9
  0
POLYLINE
  5
4D
330
1F
100
AcDbEntity
  8
_U+30EC_U+30A4_U+30E4_U+30FC 1
 62
   179
420
  2234388
370
     9
100
AcDb2dPolyline
 66
     1
 10
0.0
 20
0.0
 30
0.0
  0
VERTEX
  5
4E
330
4D
100
AcDbEntity
  8
_U+30EC_U+30A4_U+30E4_U+30FC 1
 62
   179
420
  2234388
370
     9
100
AcDbVertex
100
AcDb2dVertex
 10
73.53451506842268
 20
-140.0217685761055
 30
0.0
  0
VERTEX
  5
4F
330
4D
100
AcDbEntity
  8
_U+30EC_U+30A4_U+30E4_U+30FC 1
 62
   179
420
  2234388
370
     9
100
AcDbVertex
100
AcDb2dVertex
 10
72.93507508371566
 20
-141.0611577425122
 30
0.0
  0
SEQEND
  5
50
330
4D
100
AcDbEntity
  8
_U+30EC_U+30A4_U+30E4_U+30FC 1
 62
   179
420
  2234388
370
     9
  0
POLYLINE
  5
51
330
1F
100
AcDbEntity
  8
_U+30EC_U+30A4_U+30E4_U+30FC 1
 62
   179
420
  2234388
370
    25
100
AcDb2dPolyline
 66
     1
 10
0.0
 20
0.0
 30
0.0
  0
VERTEX
  5
52
330
51
100
AcDbEntity
  8
_U+30EC_U+30A4_U+30E4_U+30FC 1
 62
   179
420
  2234388
370
    25
100
AcDbVertex
100
AcDb2dVertex
 10
89.6121149360267
 20
-135.883508854918
 30
0.0
  0
VERTEX
  5
53
330
51
100
AcDbEntity
  8
_U+30EC_U+30A4_U+30E4_U+30FC 1
 62
   179
420
  2234388
370
    25
100
AcDbVertex
100
AcDb2dVertex
 10
110.6123757891543
 20
-135.883508854918
 30
0.0
  0
SEQEND
  5
54
330
51
100
AcDbEntity
  8
_U+30EC_U+30A4_U+30E4_U+30FC 1
 62
   179
420
  2234388
370
    25
  0
POLYLINE
  5
55
330
1F
100
AcDbEntity
  8
_U+30EC_U+30A4_U+30E4_U+30FC 1
 62
   179
420
  2234388
370
    25
100
AcDb2dPolyline
 66
     1
 10
0.0
 20
0.0
 30
0.0
  0
VERTEX
  5
56
330
55
100
AcDbEntity
  8
_U+30EC_U+30A4_U+30E4_U+30FC 1
 62
   179
420
  2234388
370
    25
100
AcDbVertex
100
AcDb2dVertex
 10
88.52894607477175
 20
-134.8834191329458
 30
0.0
  0
VERTEX
  5
57
330
55
100
AcDbEntity
  8
_U+30EC_U+30A4_U+30E4_U+30FC 1
 62
   179
420
  2234388
370
    25
100
AcDbVertex
100
AcDb2dVertex
 10
110.6123757891543
 20
-134.8834191329458
 30
0.0
  0
SEQEND
  5
58
330
55
100
AcDbEntity
  8
_U+30EC_U+30A4_U+30E4_U+30FC 1
 62
   179
420
  2234388
370
    25
  0
POLYLINE
  5
59
330
1F
100
AcDbEntity
  8
_U+30EC_U+30A4_U+30E4_U+30FC 1
 62
   179
420
  2234388
370
    25
100
AcDb2dPolyline
 66
     1
 10
0.0
 20
0.0
 30
0.0
  0
VERTEX
  5
5A
330
59
100
AcDbEntity
  8
_U+30EC_U+30A4_U+30E4_U+30FC 1
 62
   179
420
  2234388
370
    25
100
AcDbVertex
100
AcDb2dVertex
 10
110.6123757891543
 20
-134.8834191329458
 30
0.0
  0
VERTEX
  5
5B
330
59
100
AcDbEntity
  8
_U+30EC_U+30A4_U+30E4_U+30FC 1
 62
   179
420
  2234388
370
    25
100
AcDbVertex
100
AcDb2dVertex
 10
110.6123757891543
 20
-135.883508854918
 30
0.0
  0
SEQEND
  5
5C
330
59
100
AcDbEntity
  8
_U+30EC_U+30A4_U+30E4_U+30FC 1
 62
   179
420
  2234388
370
    25
  0
POLYLINE
  5
5D
330
1F
100
AcDbEntity
  8
_U+30EC_U+30A4_U+30E4_U+30FC 1
 62
   179
420
  2234388
370
    25
100
AcDb2dPolyline
 66
     1
 10
0.0
 20
0.0
 30
0.0
  0
VERTEX
  5
5E
330
5D
100
AcDbEntity
  8
_U+30EC_U+30A4_U+30E4_U+30FC 1
 62
   179
420
  2234388
370
    25
100
AcDbVertex
100
AcDb2dVertex
 10
79.11214325945886
 20
-125.4665808019667
 30
0.0
  0
VERTEX
  5
5F
330
5D
100
AcDbEntity
  8
_U+30EC_U+30A4_U+30E4_U+30FC 1
 62
   179
420
  2234388
370
    25
100
AcDbVertex
100
AcDb2dVertex
 10
79.11214325945886
 20
-103.3835385852652
 30
0.0
  0
SEQEND
  5
60
330
5D
100
AcDbEntity
  8
_U+30EC_U+30A4_U+30E4_U+30FC 1
 62
   179
420
  2234388
370
    25
  0
POLYLINE
  5
61
330
1F
100
AcDbEntity
  8
_U+30EC_U+30A4_U+30E4_U+30FC 1
 62
   179
420
  2234388
370
    25
100
AcDb2dPolyline
 66
     1
 10
0.0
 20
0.0
 30
0.0
  0
VERTEX
  5
62
330
61
100
AcDbEntity
  8
_U+30EC_U+30A4_U+30E4_U+30FC 1
 62
   179
420
  2234388
370
    25
100
AcDbVertex
100
AcDb2dVertex
 10
79.11214325945886
 20
-103.3835385852652
 30
0.0
  0
VERTEX
  5
63
330
61
100
AcDbEntity
  8
_U+30EC_U+30A4_U+30E4_U+30FC 1
 62
   179
420
  2234388
370
    25
100
AcDbVertex
100
AcDb2dVertex
 10
78.11237106274295
 20
-103.3835385852652
 30
0.0
  0
SEQEND
  5
64
330
61
100
AcDbEntity
  8
_U+30EC_U+30A4_U+30E4_U+30FC 1
 62
   179
420
  2234388
370
    25
  0
POLYLINE
  5
65
330
1F
100
AcDbEntity
  8
_U+30EC_U+30A4_U+30E4_U+30FC 1
 62
   179
420
  2234388
370
    25
100
AcDb2dPolyline
 66
     1
 10
0.0
 20
0.0
 30
0.0
  0
VERTEX
  5
66
330
65
100
AcDbEntity
  8
_U+30EC_U+30A4_U+30E4_U+30FC 1
 62
   179
420
  2234388
370
    25
100
AcDbVertex
100
AcDb2dVertex
 10
78.11237106274295
 20
-124.3834471911262
 30
0.0
  0
VERTEX
  5
67
330
65
100
AcDbEntity
  8
_U+30EC_U+30A4_U+30E4_U+30FC 1
 62
   179
420
  2234388
370
    25
100
AcDbVertex
100
AcDb2dVertex
 10
78.11237106274295
 20
-103.3835385852652
 30
0.0
  0
SEQEND
  5
68
330
65
100
AcDbEntity
  8
_U+30EC_U+30A4_U+30E4_U+30FC 1
 62
   179
420
  2234388
370
    25
  0
POLYLINE
  5
69
330
1F
100
AcDbEntity
  8
_U+30EC_U+30A4_U+30E4_U+30FC 1
 62
   179
420
  2234388
370
    25
100
AcDb2dPolyline
 66
     1
 10
0.0
 20
0.0
 30
0.0
  0
VERTEX
  5
6A
330
69
100
AcDbEntity
  8
_U+30EC_U+30A4_U+30E4_U+30FC 1
 62
   179
420
  2234388
370
    25
100
AcDbVertex
100
AcDb2dVertex
 10
89.6121149360267
 20
-135.883508854918
 30
0.0
  0
VERTEX
  5
6B
330
69
100
AcDbEntity
  8
_U+30EC_U+30A4_U+30E4_U+30FC 1
 62
   179
420
  2234388
370
    25
100
AcDbVertex
100
AcDb2dVertex
 10
90.61291018827207
 20
-148.3833780184595
 30
0.0
  0
SEQEND
  5
6C
330
69
100
AcDbEntity
  8
_U+30EC_U+30A4_U+30E4_U+30FC 1
 62
   179
420
  2234388
370
    25
  0
POLYLINE
  5
6D
330
1F
100
AcDbEntity
  8
_U+30EC_U+30A4_U+30E4_U+30FC 1
 62
   179
420
  2234388
370
    25
100
AcDb2dPolyline
 66
     1
 10
0.0
 20
0.0
 30
0.0
  0
VERTEX
  5
6E
330
6D
100
AcDbEntity
  8
_U+30EC_U+30A4_U+30E4_U+30FC 1
 62
   179
420
  2234388
370
    25
100
AcDbVertex
100
AcDb2dVertex
 10
88.52894607477175
 20
-134.8834191329458
 30
0.0
  0
VERTEX
  5
6F
330
6D
100
AcDbEntity
  8
_U+30EC_U+30A4_U+30E4_U+30FC 1
 62
   179
420
  2234388
370
    25
100
AcDbVertex
100
AcDb2dVertex
 10
89.52734243818944
 20
-147.3588055187155
 30
0.0
  0
SEQEND
  5
70
330
6D
100
AcDbEntity
  8
_U+30EC_U+30A4_U+30E4_U+30FC 1
 62
   179
420
  2234388
370
    25
  0
POLYLINE
  5
71
330
1F
100
AcDbEntity
  8
_U+30EC_U+30A4_U+30E4_U+30FC 1
 62
   179
420
  2234388
370
    25
100
AcDb2dPolyline
 66
     1
 10
0.0
 20
0.0
 30
0.0
  0
VERTEX
  5
72
330
71
100
AcDbEntity
  8
_U+30EC_U+30A4_U+30E4_U+30FC 1
 62
   179
420
  2234388
370
    25
100
AcDbVertex
100
AcDb2dVertex
 10
65.6121847149826
 20
-123.383674969154
 30
0.0
  0
VERTEX
  5
73
330
71
100
AcDbEntity
  8
_U+30EC_U+30A4_U+30E4_U+30FC 1
 62
   179
420
  2234388
370
    25
100
AcDbVertex
100
AcDb2dVertex
 10
78.11237106274295
 20
-124.3834471911262
 30
0.0
  0
SEQEND
  5
74
330
71
100
AcDbEntity
  8
_U+30EC_U+30A4_U+30E4_U+30FC 1
 62
   179
420
  2234388
370
    25
  0
POLYLINE
  5
75
330
1F
100
AcDbEntity
  8
_U+30EC_U+30A4_U+30E4_U+30FC 1
 62
   179
420
  2234388
370
    25
100
AcDb2dPolyline
 66
     1
 10
0.0
 20
0.0
 30
0.0
  0
VERTEX
  5
76
330
75
100
AcDbEntity
  8
_U+30EC_U+30A4_U+30E4_U+30FC 1
 62
   179
420
  2234388
370
    25
100
AcDbVertex
100
AcDb2dVertex
 10
66.63675718884357
 20
-124.4685371911051
 30
0.0
  0
VERTEX
  5
77
330
75
100
AcDbEntity
  8
_U+30EC_U+30A4_U+30E4_U+30FC 1
 62
   179
420
  2234388
370
    25
100
AcDbVertex
100
AcDb2dVertex
 10
79.11214325945886
 20
-125.4665808019667
 30
0.0
  0
SEQEND
  5
78
330
75
100
AcDbEntity
  8
_U+30EC_U+30A4_U+30E4_U+30FC 1
 62
   179
420
  2234388
370
    25
  0
SPLINE
  5
79
330
1F
100
AcDbEntity
  8
_U+30EC_U+30A4_U+30E4_U+30FC 1
 62
   179
420
  2234388
370
     9
100
AcDbSpline
210
0.0
220
0.0
230
1.0
 70
    11
 71
     3
 72
    17
 73
    13
 74
     0
 42
0.0000000001
 43
0.0000000001
 12
1.0
 22
0.0
 32
0.0
 13
1.0
 23
0.0
 33
0.0
 40
0.0
 40
0.0
 40
0.0
 40
0.0
 40
1.0
 40
1.0
 40
1.0
 40
2.0
 40
2.0
 40
2.0
 40
3.0
 40
3.0
 40
3.0
 40
4.0
 40
4.0
 40
4.0
 40
4.0
 10
114.7127117956571
 20
-135.883508854918
 30
0.0
 10
114.7127117956571
 20
-135.8280521882653
 30
0.0
 10
114.6679471935551
 20
-135.7836021882763
 30
0.0
 10
114.6128051315393
 20
-135.7836021882763
 30
0.0
 10
114.5577012440562
 20
-135.7836021882763
 30
0.0
 10
114.5128984674215
 20
-135.8280521882653
 30
0.0
 10
114.5128984674215
 20
-135.883508854918
 30
0.0
 10
114.5128984674215
 20
-135.9386480215711
 30
0.0
 10
114.5577012440562
 20
-135.9834155215596
 30
0.0
 10
114.6128051315393
 20
-135.9834155215596
 30
0.0
 10
114.6679471935551
 20
-135.9834155215596
 30
0.0
 10
114.7127117956571
 20
-135.9386480215711
 30
0.0
 10
114.7127117956571
 20
-135.883508854918
 30
0.0
  0
SPLINE
  5
7A
330
1F
100
AcDbEntity
  8
_U+30EC_U+30A4_U+30E4_U+30FC 1
 62
   179
420
  2234388
370
     9
100
AcDbSpline
210
0.0
220
0.0
230
1.0
 70
    11
 71
     3
 72
    17
 73
    13
 74
     0
 42
0.0000000001
 43
0.0000000001
 12
1.0
 22
0.0
 32
0.0
 13
1.0
 23
0.0
 33
0.0
 40
0.0
 40
0.0
 40
0.0
 40
0.0
 40
1.0
 40
1.0
 40
1.0
 40
2.0
 40
2.0
 40
2.0
 40
3.0
 40
3.0
 40
3.0
 40
4.0
 40
4.0
 40
4.0
 40
4.0
 10
114.7127117956571
 20
-134.8834191329458
 30
0.0
 10
114.7127117956571
 20
-134.8282799662928
 30
0.0
 10
114.6679471935551
 20
-134.7835124663042
 30
0.0
 10
114.6128051315393
 20
-134.7835124663042
 30
0.0
 10
114.5577012440562
 20
-134.7835124663042
 30
0.0
 10
114.5128984674215
 20
-134.8282799662928
 30
0.0
 10
114.5128984674215
 20
-134.8834191329458
 30
0.0
 10
114.5128984674215
 20
-134.9385230218207
 30
0.0
 10
114.5577012440562
 20
-134.9833257995875
 30
0.0
 10
114.6128051315393
 20
-134.9833257995875
 30
0.0
 10
114.6679471935551
 20
-134.9833257995875
 30
0.0
 10
114.7127117956571
 20
-134.9385230218207
 30
0.0
 10
114.7127117956571
 20
-134.8834191329458
 30
0.0
  0
SPLINE
  5
7B
330
1F
100
AcDbEntity
  8
_U+30EC_U+30A4_U+30E4_U+30FC 1
 62
   179
420
  2234388
370
     9
100
AcDbSpline
210
0.0
220
0.0
230
1.0
 70
    11
 71
     3
 72
    17
 73
    13
 74
     0
 42
0.0000000001
 43
0.0000000001
 12
1.0
 22
0.0
 32
0.0
 13
1.0
 23
0.0
 33
0.0
 40
0.0
 40
0.0
 40
0.0
 40
0.0
 40
1.0
 40
1.0
 40
1.0
 40
2.0
 40
2.0
 40
2.0
 40
3.0
 40
3.0
 40
3.0
 40
4.0
 40
4.0
 40
4.0
 40
4.0
 10
114.7127117956571
 20
-148.3833780184595
 30
0.0
 10
114.7127117956571
 20
-148.328238851807
 30
0.0
 10
114.6679471935551
 20
-148.2834713518178
 30
0.0
 10
114.6128051315393
 20
-148.2834713518178
 30
0.0
 10
114.5577012440562
 20
-148.2834713518178
 30
0.0
 10
114.5128984674215
 20
-148.328238851807
 30
0.0
 10
114.5128984674215
 20
-148.3833780184595
 30
0.0
 10
114.5128984674215
 20
-148.4388346851128
 30
0.0
 10
114.5577012440562
 20
-148.4836021851013
 30
0.0
 10
114.6128051315393
 20
-148.4836021851013
 30
0.0
 10
114.6679471935551
 20
-148.4836021851013
 30
0.0
 10
114.7127117956571
 20
-148.4388346851128
 30
0.0
 10
114.7127117956571
 20
-148.3833780184595
 30
0.0
  0
SPLINE
  5
7C
330
1F
100
AcDbEntity
  8
_U+30EC_U+30A4_U+30E4_U+30FC 1
 62
   179
420
  2234388
370
    25
100
AcDbSpline
210
0.0
220
0.0
230
1.0
 70
    11
 71
     3
 72
    17
 73
    13
 74
     0
 42
0.0000000001
 43
0.0000000001
 12
1.0
 22
0.0
 32
0.0
 13
1.0
 23
0.0
 33
0.0
 40
0.0
 40
0.0
 40
0.0
 40
0.0
 40
1.0
 40
1.0
 40
1.0
 40
2.0
 40
2.0
 40
2.0
 40
3.0
 40
3.0
 40
3.0
 40
4.0
 40
4.0
 40
4.0
 40
4.0
 10
78.21227772686078
 20
-117.7116785816832
 30
0.0
 10
78.21227772686078
 20
-117.6565394150305
 30
0.0
 10
78.16747495022602
 20
-117.6117719150416
 30
0.0
 10
78.11237106274295
 20
-117.6117719150416
 30
0.0
 10
78.05723189748299
 20
-117.6117719150416
 30
0.0
 10
78.01246439862511
 20
-117.6565394150305
 30
0.0
 10
78.01246439862511
 20
-117.7116785816832
 30
0.0
 10
78.01246439862511
 20
-117.7667824705585
 30
0.0
 10
78.05723189748299
 20
-117.8115852483249
 30
0.0
 10
78.11237106274295
 20
-117.8115852483249
 30
0.0
 10
78.16747495022602
 20
-117.8115852483249
 30
0.0
 10
78.21227772686078
 20
-117.7667824705585
 30
0.0
 10
78.21227772686078
 20
-117.7116785816832
 30
0.0
  0
SPLINE
  5
7D
330
1F
100
AcDbEntity
  8
_U+30EC_U+30A4_U+30E4_U+30FC 1
 62
   179
420
  2234388
370
     9
100
AcDbSpline
210
0.0
220
0.0
230
1.0
 70
    11
 71
     3
 72
    17
 73
    13
 74
     0
 42
0.0000000001
 43
0.0000000001
 12
1.0
 22
0.0
 32
0.0
 13
1.0
 23
0.0
 33
0.0
 40
0.0
 40
0.0
 40
0.0
 40
0.0
 40
1.0
 40
1.0
 40
1.0
 40
2.0
 40
2.0
 40
2.0
 40
3.0
 40
3.0
 40
3.0
 40
4.0
 40
4.0
 40
4.0
 40
4.0
 10
65.71209137910044
 20
-117.7116785816832
 30
0.0
 10
65.71209137910044
 20
-117.6565394150305
 30
0.0
 10
65.66799415800322
 20
-117.6117719150416
 30
0.0
 10
65.6121847149826
 20
-117.6117719150416
 30
0.0
 10
65.55708082749953
 20
-117.6117719150416
 30
0.0
 10
65.51227805086477
 20
-117.6565394150305
 30
0.0
 10
65.51227805086477
 20
-117.7116785816832
 30
0.0
 10
65.51227805086477
 20
-117.7667824705585
 30
0.0
 10
65.55708082749953
 20
-117.8115852483249
 30
0.0
 10
65.6121847149826
 20
-117.8115852483249
 30
0.0
 10
65.66799415800322
 20
-117.8115852483249
 30
0.0
 10
65.71209137910044
 20
-117.7667824705585
 30
0.0
 10
65.71209137910044
 20
-117.7116785816832
 30
0.0
  0
SPLINE
  5
7E
330
1F
100
AcDbEntity
  8
_U+30EC_U+30A4_U+30E4_U+30FC 1
 62
   179
420
  2234388
370
     9
100
AcDbSpline
210
0.0
220
0.0
230
1.0
 70
    11
 71
     3
 72
    17
 73
    13
 74
     0
 42
0.0000000001
 43
0.0000000001
 12
1.0
 22
0.0
 32
0.0
 13
1.0
 23
0.0
 33
0.0
 40
0.0
 40
0.0
 40
0.0
 40
0.0
 40
1.0
 40
1.0
 40
1.0
 40
2.0
 40
2.0
 40
2.0
 40
3.0
 40
3.0
 40
3.0
 40
4.0
 40
4.0
 40
4.0
 40
4.0
 10
110.7129555278774
 20
-152.3834546841266
 30
0.0
 10
110.7129555278774
 20
-152.328350795251
 30
0.0
 10
110.6681852321749
 20
-152.2835480174849
 30
0.0
 10
110.6123757891543
 20
-152.2835480174849
 30
0.0
 10
110.5572366238944
 20
-152.2835480174849
 30
0.0
 10
110.5124691250365
 20
-152.328350795251
 30
0.0
 10
110.5124691250365
 20
-152.3834546841266
 30
0.0
 10
110.5124691250365
 20
-152.438593850779
 30
0.0
 10
110.5572366238944
 20
-152.4833613507682
 30
0.0
 10
110.6123757891543
 20
-152.4833613507682
 30
0.0
 10
110.6681852321749
 20
-152.4833613507682
 30
0.0
 10
110.7129555278774
 20
-152.438593850779
 30
0.0
 10
110.7129555278774
 20
-152.3834546841266
 30
0.0
  0
SPLINE
  5
7F
330
1F
100
AcDbEntity
  8
_U+30EC_U+30A4_U+30E4_U+30FC 1
 62
   179
420
  2234388
370
     9
100
AcDbSpline
210
0.0
220
0.0
230
1.0
 70
    11
 71
     3
 72
    17
 73
    13
 74
     0
 42
0.0000000001
 43
0.0000000001
 12
1.0
 22
0.0
 32
0.0
 13
1.0
 23
0.0
 33
0.0
 40
0.0
 40
0.0
 40
0.0
 40
0.0
 40
1.0
 40
1.0
 40
1.0
 40
2.0
 40
2.0
 40
2.0
 40
3.0
 40
3.0
 40
3.0
 40
4.0
 40
4.0
 40
4.0
 40
4.0
 10
90.7128168523899
 20
-152.3834546841266
 30
0.0
 10
90.7128168523899
 20
-152.328350795251
 30
0.0
 10
90.66801407575514
 20
-152.2835480174849
 30
0.0
 10
90.61291018827207
 20
-152.2835480174849
 30
0.0
 10
90.55777102301212
 20
-152.2835480174849
 30
0.0
 10
90.51300352415423
 20
-152.328350795251
 30
0.0
 10
90.51300352415423
 20
-152.3834546841266
 30
0.0
 10
90.51300352415423
 20
-152.438593850779
 30
0.0
 10
90.55777102301212
 20
-152.4833613507682
 30
0.0
 10
90.61291018827207
 20
-152.4833613507682
 30
0.0
 10
90.66801407575514
 20
-152.4833613507682
 30
0.0
 10
90.7128168523899
 20
-152.438593850779
 30
0.0
 10
90.7128168523899
 20
-152.3834546841266
 30
0.0
  0
SPLINE
  5
80
330
1F
100
AcDbEntity
  8
_U+30EC_U+30A4_U+30E4_U+30FC 1
 62
   179
420
  2234388
370
    25
100
AcDbSpline
210
0.0
220
0.0
230
1.0
 70
     8
 71
     3
 72
     8
 73
     4
 74
     0
 42
0.0000000001
 43
0.0000000001
 12
1.0
 22
0.0
 32
0.0
 13
1.0
 23
0.0
 33
0.0
 40
0.0
 40
0.0
 40
0.0
 40
0.0
 40
1.0
 40
1.0
 40
1.0
 40
1.0
 10
65.6121847149826
 20
-123.383674969154
 30
0.0
 10
65.6121847149826
 20
-137.1905857990354
 30
0.0
 10
76.80529415164482
 20
-148.3833780184595
 30
0.0
 10
90.61291018827207
 20
-148.3833780184595
 30
0.0
  0
SPLINE
  5
81
330
1F
100
AcDbEntity
  8
_U+30EC_U+30A4_U+30E4_U+30FC 1
 62
   179
420
  2234388
370
    25
100
AcDbSpline
210
0.0
220
0.0
230
1.0
 70
     8
 71
     3
 72
     8
 73
     4
 74
     0
 42
0.0000000001
 43
0.0000000001
 12
1.0
 22
0.0
 32
0.0
 13
1.0
 23
0.0
 33
0.0
 40
0.0
 40
0.0
 40
0.0
 40
0.0
 40
1.0
 40
1.0
 40
1.0
 40
1.0
 10
66.63675718884357
 20
-124.4685371911051
 30
0.0
 10
67.19830884118387
 20
-136.8705457991155
 30
0.0
 10
77.12501664348801
 20
-146.7975713521895
 30
0.0
 10
89.52734243818944
 20
-147.3588055187155
 30
0.0
  0
INSERT
  5
83
330
1F
100
AcDbEntity
  8
_U+30EC_U+30A4_U+30E4_U+30FC 1
100
AcDbBlockReference
  2
block 2
 10
0.0
 20
0.0
 30
0.0
  0
POLYLINE
  5
8D
330
1F
100
AcDbEntity
  8
_U+30EC_U+30A4_U+30E4_U+30FC 1
 62
   179
420
  2234388
370
     9
100
AcDb2dPolyline
 66
     1
 10
0.0
 20
0.0
 30
0.0
  0
VERTEX
  5
8E
330
8D
100
AcDbEntity
  8
_U+30EC_U+30A4_U+30E4_U+30FC 1
 62
   179
420
  2234388
370
     9
100
AcDbVertex
100
AcDb2dVertex
 10
114.6128051315393
 20
-134.8834191329458
 30
0.0
  0
VERTEX
  5
8F
330
8D
100
AcDbEntity
  8
_U+30EC_U+30A4_U+30E4_U+30FC 1
 62
   179
420
  2234388
370
     9
100
AcDbVertex
100
AcDb2dVertex
 10
114.6128051315393
 20
-132.1131963558606
 30
0.0
  0
SEQEND
  5
90
330
8D
100
AcDbEntity
  8
_U+30EC_U+30A4_U+30E4_U+30FC 1
 62
   179
420
  2234388
370
     9
  0
POLYLINE
  5
91
330
1F
100
AcDbEntity
  8
_U+30EC_U+30A4_U+30E4_U+30FC 1
 62
   179
420
  2234388
370
     9
100
AcDb2dPolyline
 66
     1
 10
0.0
 20
0.0
 30
0.0
  0
VERTEX
  5
92
330
91
100
AcDbEntity
  8
_U+30EC_U+30A4_U+30E4_U+30FC 1
 62
   179
420
  2234388
370
     9
100
AcDbVertex
100
AcDb2dVertex
 10
114.6128051315393
 20
-135.883508854918
 30
0.0
  0
VERTEX
  5
93
330
91
100
AcDbEntity
  8
_U+30EC_U+30A4_U+30E4_U+30FC 1
 62
   179
420
  2234388
370
     9
100
AcDbVertex
100
AcDb2dVertex
 10
114.6128051315393
 20
-134.8834191329458
 30
0.0
  0
SEQEND
  5
94
330
91
100
AcDbEntity
  8
_U+30EC_U+30A4_U+30E4_U+30FC 1
 62
   179
420
  2234388
370
     9
  0
POLYLINE
  5
95
330
1F
100
AcDbEntity
  8
_U+30EC_U+30A4_U+30E4_U+30FC 1
 62
   179
420
  2234388
370
     9
100
AcDb2dPolyline
 66
     1
 10
0.0
 20
0.0
 30
0.0
  0
VERTEX
  5
96
330
95
100
AcDbEntity
  8
_U+30EC_U+30A4_U+30E4_U+30FC 1
 62
   179
420
  2234388
370
     9
100
AcDbVertex
100
AcDb2dVertex
 10
113.1527666383783
 20
-135.883508854918
 30
0.0
  0
VERTEX
  5
97
330
95
100
AcDbEntity
  8
_U+30EC_U+30A4_U+30E4_U+30FC 1
 62
   179
420
  2234388
370
     9
100
AcDbVertex
100
AcDb2dVertex
 10
115.6125773282552
 20
-135.883508854918
 30
0.0
  0
SEQEND
  5
98
330
95
100
AcDbEntity
  8
_U+30EC_U+30A4_U+30E4_U+30FC 1
 62
   179
420
  2234388
370
     9
  0
POLYLINE
  5
99
330
1F
100
AcDbEntity
  8
_U+30EC_U+30A4_U+30E4_U+30FC 1
 62
   179
420
  2234388
370
     9
100
AcDb2dPolyline
 66
     1
 10
0.0
 20
0.0
 30
0.0
  0
VERTEX
  5
9A
330
99
100
AcDbEntity
  8
_U+30EC_U+30A4_U+30E4_U+30FC 1
 62
   179
420
  2234388
370
     9
100
AcDbVertex
100
AcDb2dVertex
 10
113.1527666383783
 20
-134.8834191329458
 30
0.0
  0
VERTEX
  5
9B
330
99
100
AcDbEntity
  8
_U+30EC_U+30A4_U+30E4_U+30FC 1
 62
   179
420
  2234388
370
     9
100
AcDbVertex
100
AcDb2dVertex
 10
115.6125773282552
 20
-134.8834191329458
 30
0.0
  0
SEQEND
  5
9C
330
99
100
AcDbEntity
  8
_U+30EC_U+30A4_U+30E4_U+30FC 1
 62
   179
420
  2234388
370
     9
  0
INSERT
  5
9E
330
1F
100
AcDbEntity
  8
_U+30EC_U+30A4_U+30E4_U+30FC 1
100
AcDbBlockReference
  2
block 3
 10
0.0
 20
0.0
 30
0.0
  0
POLYLINE
  5
A3
330
1F
100
AcDbEntity
  8
_U+30EC_U+30A4_U+30E4_U+30FC 1
 62
   179
420
  2234388
370
     9
100
AcDb2dPolyline
 66
     1
 10
0.0
 20
0.0
 30
0.0
  0
VERTEX
  5
A4
330
A3
100
AcDbEntity
  8
_U+30EC_U+30A4_U+30E4_U+30FC 1
 62
   179
420
  2234388
370
     9
100
AcDbVertex
100
AcDb2dVertex
 10
90.61291018827207
 20
-152.3834546841266
 30
0.0
  0
VERTEX
  5
A5
330
A3
100
AcDbEntity
  8
_U+30EC_U+30A4_U+30E4_U+30FC 1
 62
   179
420
  2234388
370
     9
100
AcDbVertex
100
AcDb2dVertex
 10
110.6123757891543
 20
-152.3834546841266
 30
0.0
  0
SEQEND
  5
A6
330
A3
100
AcDbEntity
  8
_U+30EC_U+30A4_U+30E4_U+30FC 1
 62
   179
420
  2234388
370
     9
  0
POLYLINE
  5
A7
330
1F
100
AcDbEntity
  8
_U+30EC_U+30A4_U+30E4_U+30FC 1
 62
   179
420
  2234388
370
     9
100
AcDb2dPolyline
 66
     1
 10
0.0
 20
0.0
 30
0.0
  0
VERTEX
  5
A8
330
A7
100
AcDbEntity
  8
_U+30EC_U+30A4_U+30E4_U+30FC 1
 62
   179
420
  2234388
370
     9
100
AcDbVertex
100
AcDb2dVertex
 10
90.61291018827207
 20
-150.9234485733804
 30
0.0
  0
VERTEX
  5
A9
330
A7
100
AcDbEntity
  8
_U+30EC_U+30A4_U+30E4_U+30FC 1
 62
   179
420
  2234388
370
     9
100
AcDbVertex
100
AcDb2dVertex
 10
90.61291018827207
 20
-153.3835796838763
 30
0.0
  0
SEQEND
  5
AA
330
A7
100
AcDbEntity
  8
_U+30EC_U+30A4_U+30E4_U+30FC 1
 62
   179
420
  2234388
370
     9
  0
POLYLINE
  5
AB
330
1F
100
AcDbEntity
  8
_U+30EC_U+30A4_U+30E4_U+30FC 1
 62
   179
420
  2234388
370
     9
100
AcDb2dPolyline
 66
     1
 10
0.0
 20
0.0
 30
0.0
  0
VERTEX
  5
AC
330
AB
100
AcDbEntity
  8
_U+30EC_U+30A4_U+30E4_U+30FC 1
 62
   179
420
  2234388
370
     9
100
AcDbVertex
100
AcDb2dVertex
 10
110.6123757891543
 20
-141.4235663535333
 30
0.0
  0
VERTEX
  5
AD
330
AB
100
AcDbEntity
  8
_U+30EC_U+30A4_U+30E4_U+30FC 1
 62
   179
420
  2234388
370
     9
100
AcDbVertex
100
AcDb2dVertex
 10
110.6123757891543
 20
-153.3835796838763
 30
0.0
  0
SEQEND
  5
AE
330
AB
100
AcDbEntity
  8
_U+30EC_U+30A4_U+30E4_U+30FC 1
 62
   179
420
  2234388
370
     9
  0
INSERT
  5
B0
330
1F
100
AcDbEntity
  8
_U+30EC_U+30A4_U+30E4_U+30FC 1
100
AcDbBlockReference
  2
block 4
 10
0.0
 20
0.0
 30
0.0
  0
POLYLINE
  5
B8
330
1F
100
AcDbEntity
  8
_U+30EC_U+30A4_U+30E4_U+30FC 1
 62
   179
420
  2234388
370
     9
100
AcDb2dPolyline
 66
     1
 10
0.0
 20
0.0
 30
0.0
  0
VERTEX
  5
B9
330
B8
100
AcDbEntity
  8
_U+30EC_U+30A4_U+30E4_U+30FC 1
 62
   179
420
  2234388
370
     9
100
AcDbVertex
100
AcDb2dVertex
 10
114.6128051315393
 20
-135.883508854918
 30
0.0
  0
VERTEX
  5
BA
330
B8
100
AcDbEntity
  8
_U+30EC_U+30A4_U+30E4_U+30FC 1
 62
   179
420
  2234388
370
     9
100
AcDbVertex
100
AcDb2dVertex
 10
114.6128051315393
 20
-148.3833780184595
 30
0.0
  0
SEQEND
  5
BB
330
B8
100
AcDbEntity
  8
_U+30EC_U+30A4_U+30E4_U+30FC 1
 62
   179
420
  2234388
370
     9
  0
POLYLINE
  5
BC
330
1F
100
AcDbEntity
  8
_U+30EC_U+30A4_U+30E4_U+30FC 1
 62
   179
420
  2234388
370
     9
100
AcDb2dPolyline
 66
     1
 10
0.0
 20
0.0
 30
0.0
  0
VERTEX
  5
BD
330
BC
100
AcDbEntity
  8
_U+30EC_U+30A4_U+30E4_U+30FC 1
 62
   179
420
  2234388
370
     9
100
AcDbVertex
100
AcDb2dVertex
 10
93.15262790125625
 20
-148.3833780184595
 30
0.0
  0
VERTEX
  5
BE
330
BC
100
AcDbEntity
  8
_U+30EC_U+30A4_U+30E4_U+30FC 1
 62
   179
420
  2234388
370
     9
100
AcDbVertex
100
AcDb2dVertex
 10
115.6125773282552
 20
-148.3833780184595
 30
0.0
  0
SEQEND
  5
BF
330
BC
100
AcDbEntity
  8
_U+30EC_U+30A4_U+30E4_U+30FC 1
 62
   179
420
  2234388
370
     9
  0
INSERT
  5
C1
330
1F
100
AcDbEntity
  8
_U+30EC_U+30A4_U+30E4_U+30FC 1
100
AcDbBlockReference
  2
block 5
 10
0.0
 20
0.0
 30
0.0
  0
POLYLINE
  5
D2
330
1F
100
AcDbEntity
  8
_U+30EC_U+30A4_U+30E4_U+30FC 1
 62
   179
420
  2234388
370
     9
100
AcDb2dPolyline
 66
     1
 10
0.0
 20
0.0
 30
0.0
  0
VERTEX
  5
D3
330
D2
100
AcDbEntity
  8
_U+30EC_U+30A4_U+30E4_U+30FC 1
 62
   179
420
  2234388
370
     9
100
AcDbVertex
100
AcDb2dVertex
 10
65.6121847149826
 20
-117.7116785816832
 30
0.0
  0
VERTEX
  5
D4
330
D2
100
AcDbEntity
  8
_U+30EC_U+30A4_U+30E4_U+30FC 1
 62
   179
420
  2234388
370
     9
100
AcDbVertex
100
AcDb2dVertex
 10
78.11237106274295
 20
-117.7116785816832
 30
0.0
  0
SEQEND
  5
D5
330
D2
100
AcDbEntity
  8
_U+30EC_U+30A4_U+30E4_U+30FC 1
 62
   179
420
  2234388
370
     9
  0
POLYLINE
  5
D6
330
1F
100
AcDbEntity
  8
_U+30EC_U+30A4_U+30E4_U+30FC 1
 62
   179
420
  2234388
370
     9
100
AcDb2dPolyline
 66
     1
 10
0.0
 20
0.0
 30
0.0
  0
VERTEX
  5
D7
330
D6
100
AcDbEntity
  8
_U+30EC_U+30A4_U+30E4_U+30FC 1
 62
   179
420
  2234388
370
     9
100
AcDbVertex
100
AcDb2dVertex
 10
65.6121847149826
 20
-120.8432869142335
 30
0.0
  0
VERTEX
  5
D8
330
D6
100
AcDbEntity
  8
_U+30EC_U+30A4_U+30E4_U+30FC 1
 62
   179
420
  2234388
370
     9
100
AcDbVertex
100
AcDb2dVertex
 10
65.6121847149826
 20
-116.711906359711
 30
0.0
  0
SEQEND
  5
D9
330
D6
100
AcDbEntity
  8
_U+30EC_U+30A4_U+30E4_U+30FC 1
 62
   179
420
  2234388
370
     9
  0
INSERT
  5
DB
330
1F
100
AcDbEntity
  8
_U+30EC_U+30A4_U+30E4_U+30FC 1
100
AcDbBlockReference
  2
block 6
 10
0.0
 20
0.0
 30
0.0
  0
ENDSEC
  0
SECTION
  2
OBJECTS
  0
DICTIONARY
  5
C
330
0
100
AcDbDictionary
281
     1
  3
ACAD_GROUP
350
D
  3
ACAD_LAYOUT
350
1A
  3
ACAD_MATERIAL
350
3B
  3
ACAD_MLEADERSTYLE
350
ED
  3
ACAD_MLINESTYLE
350
17
  3
ACAD_PLOTSETTINGS
350
19
  3
ACAD_PLOTSTYLENAME
350
E
  3
ACAD_TABLESTYLE
350
EC
  3
ACAD_VISUALSTYLE
350
2A
  0
SUN
  5
3F
330
29
100
AcDbSun
 90
        1
290
     0
 63
     7
421
 16777215
 40
1.0
291
     1
 91
  2455826
 92
 54000000
292
     0
 70
     2
 71
   256
280
     1
  0
DICTIONARY
  5
D
102
{ACAD_REACTORS
330
C
102
}
330
C
100
AcDbDictionary
281
     1
  0
DICTIONARY
  5
1A
102
{ACAD_REACTORS
330
C
102
}
330
C
100
AcDbDictionary
281
     1
  3
Layout1
350
1E
  3
Layout2
350
26
  3
Model
350
22
  0
DICTIONARY
  5
3B
102
{ACAD_REACTORS
330
C
102
}
330
C
100
AcDbDictionary
281
     1
  3
ByBlock
350
3D
  3
ByLayer
350
3C
  3
Global
350
3E
  0
DICTIONARY
  5
ED
102
{ACAD_REACTORS
330
C
102
}
330
C
100
AcDbDictionary
281
     1
  0
DICTIONARY
  5
17
102
{ACAD_REACTORS
330
C
102
}
330
C
100
AcDbDictionary
281
     1
  3
Standard
350
18
  0
DICTIONARY
  5
19
102
{ACAD_REACTORS
330
C
102
}
330
C
100
AcDbDictionary
281
     1
  0
ACDBDICTIONARYWDFLT
  5
E
102
{ACAD_REACTORS
330
C
102
}
330
C
100
AcDbDictionary
281
     1
  3
Normal
350
F
100
AcDbDictionaryWithDefault
340
F
  0
DICTIONARY
  5
EC
102
{ACAD_REACTORS
330
C
102
}
330
C
100
AcDbDictionary
281
     1
  0
DICTIONARY
  5
2A
102
{ACAD_REACTORS
330
C
102
}
330
C
100
AcDbDictionary
281
     1
  3
2dWireframe
350
2F
  3
3D Hidden
350
31
  3
3dWireframe
350
30
  3
Basic
350
32
  3
Brighten
350
36
  3
ColorChange
350
3A
  3
Conceptual
350
34
  3
Dim
350
35
  3
Facepattern
350
39
  3
Flat
350
2B
  3
FlatWithEdges
350
2C
  3
Gouraud
350
2D
  3
GouraudWithEdges
350
2E
  3
Linepattern
350
38
  3
Realistic
350
33
  3
Thicken
350
37
  0
LAYOUT
  5
1E
102
{ACAD_REACTORS
330
1A
102
}
330
1A
100
AcDbPlotSettings
  1

  2
none_device
  4

  6

 40
0.0
 41
0.0
 42
0.0
 43
0.0
 44
0.0
 45
0.0
 46
0.0
 47
0.0
 48
0.0
 49
0.0
140
0.0
141
0.0
142
1.0
143
1.0
 70
   688
 72
     0
 73
     0
 74
     5
  7

 75
    16
 76
     0
 77
     2
 78
   300
147
1.0
148
0.0
149
0.0
100
AcDbLayout
  1
Layout1
 70
     1
 71
     1
 10
0.0
 20
0.0
 11
12.0
 21
9.0
 12
0.0
 22
0.0
 32
0.0
 14
1.000000000000000E+20
 24
1.000000000000000E+20
 34
1.000000000000000E+20
 15
-1.000000000000000E+20
 25
-1.000000000000000E+20
 35
-1.000000000000000E+20
146
0.0
 13
0.0
 23
0.0
 33
0.0
 16
1.0
 26
0.0
 36
0.0
 17
0.0
 27
1.0
 37
0.0
 76
     0
330
1B
  0
LAYOUT
  5
26
102
{ACAD_REACTORS
330
1A
102
}
330
1A
100
AcDbPlotSettings
  1

  2
none_device
  4

  6

 40
0.0
 41
0.0
 42
0.0
 43
0.0
 44
0.0
 45
0.0
 46
0.0
 47
0.0
 48
0.0
 49
0.0
140
0.0
141
0.0
142
1.0
143
1.0
 70
   688
 72
     0
 73
     0
 74
     5
  7

 75
    16
 76
     0
 77
     2
 78
   300
147
1.0
148
0.0
149
0.0
100
AcDbLayout
  1
Layout2
 70
     1
 71
     2
 10
0.0
 20
0.0
 11
0.0
 21
0.0
 12
0.0
 22
0.0
 32
0.0
 14
0.0
 24
0.0
 34
0.0
 15
0.0
 25
0.0
 35
0.0
146
0.0
 13
0.0
 23
0.0
 33
0.0
 16
1.0
 26
0.0
 36
0.0
 17
0.0
 27
1.0
 37
0.0
 76
     0
330
23
  0
LAYOUT
  5
22
102
{ACAD_REACTORS
330
1A
102
}
330
1A
100
AcDbPlotSettings
  1

  2
none_device
  4

  6

 40
0.0
 41
0.0
 42
0.0
 43
0.0
 44
0.0
 45
0.0
 46
0.0
 47
0.0
 48
0.0
 49
0.0
140
0.0
141
0.0
142
1.0
143
1.0
 70
  1712
 72
     0
 73
     0
 74
     0
  7

 75
     0
 76
     0
 77
     2
 78
   300
147
1.0
148
0.0
149
0.0
100
AcDbLayout
  1
Model
 70
     1
 71
     0
 10
0.0
 20
0.0
 11
12.0
 21
9.0
 12
0.0
 22
0.0
 32
0.0
 14
1.000000000000000E+20
 24
1.000000000000000E+20
 34
1.000000000000000E+20
 15
-1.000000000000000E+20
 25
-1.000000000000000E+20
 35
-1.000000000000000E+20
146
0.0
 13
0.0
 23
0.0
 33
0.0
 16
1.0
 26
0.0
 36
0.0
 17
0.0
 27
1.0
 37
0.0
 76
     0
330
1F
331
29
  0
MATERIAL
  5
3D
102
{ACAD_REACTORS
330
3B
102
}
330
3B
100
AcDbMaterial
  1
ByBlock
 72
     1
 94
      127
  0
MATERIAL
  5
3C
102
{ACAD_REACTORS
330
3B
102
}
330
3B
100
AcDbMaterial
  1
ByLayer
 72
     1
 94
      127
  0
MATERIAL
  5
3E
102
{ACAD_REACTORS
330
3B
102
}
330
3B
100
AcDbMaterial
  1
Global
 72
     1
 94
      127
  0
MLINESTYLE
  5
18
102
{ACAD_REACTORS
330
17
102
}
330
17
100
AcDbMlineStyle
  2
Standard
 70
     0
  3

 62
   256
 51
90.0
 52
90.0
 71
     2
 49
0.5
 62
   256
  6
BYLAYER
 49
-0.5
 62
   256
  6
BYLAYER
  0
ACDBPLACEHOLDER
  5
F
102
{ACAD_REACTORS
330
E
102
}
330
E
  0
VISUALSTYLE
  5
2F
102
{ACAD_REACTORS
330
2A
102
}
330
2A
100
AcDbVisualStyle
  2
2dWireframe
 70
     4
177
     2
291
     0
 71
     0
176
     1
 72
     2
176
     1
 73
     0
176
     1
 90
        0
176
     1
 40
-0.6
176
     1
 41
-30.0
176
     1
 62
     5
 63
     7
421
 16777215
176
     1
 74
     1
176
     1
 91
        4
176
     1
 64
     7
176
     1
 65
   257
176
     1
 75
     1
176
     1
175
     1
176
     1
 42
1.0
176
     1
 92
        0
176
     1
 66
   257
176
     1
 43
1.0
176
     1
 76
     1
176
     1
 77
     6
176
     1
 78
     2
176
     1
 67
     7
176
     1
 79
     5
176
     1
170
     0
176
     1
171
     0
176
     1
290
     0
176
     1
 93
        1
176
     1
 44
0.0
176
     1
173
     0
176
     1
  0
VISUALSTYLE
  5
31
102
{ACAD_REACTORS
330
2A
102
}
330
2A
100
AcDbVisualStyle
  2
3D Hidden
 70
     6
177
     2
291
     0
 71
     1
176
     1
 72
     2
176
     1
 73
     2
176
     1
 90
        0
176
     1
 40
-0.6
176
     1
 41
-30.0
176
     1
 62
     5
 63
     7
421
 16777215
176
     1
 74
     2
176
     1
 91
        2
176
     1
 64
     7
176
     1
 65
   257
176
     1
 75
     2
176
     1
175
     1
176
     1
 42
40.0
176
     1
 92
        0
176
     1
 66
   257
176
     1
 43
1.0
176
     1
 76
     1
176
     1
 77
     6
176
     1
 78
     2
176
     1
 67
     7
176
     1
 79
     3
176
     1
170
     0
176
     1
171
     0
176
     1
290
     0
176
     1
 93
        1
176
     1
 44
0.0
176
     1
173
     0
176
     1
  0
VISUALSTYLE
  5
30
102
{ACAD_REACTORS
330
2A
102
}
330
2A
100
AcDbVisualStyle
  2
3dWireframe
 70
     5
177
     2
291
     0
 71
     0
176
     1
 72
     2
176
     1
 73
     0
176
     1
 90
        0
176
     1
 40
-0.6
176
     1
 41
-30.0
176
     1
 62
     5
 63
     7
421
 16777215
176
     1
 74
     1
176
     1
 91
        4
176
     1
 64
     7
176
     1
 65
   257
176
     1
 75
     1
176
     1
175
     1
176
     1
 42
1.0
176
     1
 92
        0
176
     1
 66
   257
176
     1
 43
1.0
176
     1
 76
     1
176
     1
 77
     6
176
     1
 78
     2
176
     1
 67
     7
176
     1
 79
     5
176
     1
170
     0
176
     1
171
     0
176
     1
290
     0
176
     1
 93
        1
176
     1
 44
0.0
176
     1
173
     0
176
     1
  0
VISUALSTYLE
  5
32
102
{ACAD_REACTORS
330
2A
102
}
330
2A
100
AcDbVisualStyle
  2
Basic
 70
     7
177
     2
291
     1
 71
     1
176
     1
 72
     0
176
     1
 73
     1
176
     1
 90
        0
176
     1
 40
-0.6
176
     1
 41
-30.0
176
     1
 62
     5
 63
     7
421
 16777215
176
     1
 74
     0
176
     1
 91
        4
176
     1
 64
     7
176
     1
 65
   257
176
     1
 75
     1
176
     1
175
     1
176
     1
 42
1.0
176
     1
 92
        8
176
     1
 66
     7
176
     1
 43
1.0
176
     1
 76
     1
176
     1
 77
     6
176
     1
 78
     2
176
     1
 67
     7
176
     1
 79
     5
176
     1
170
     0
176
     1
171
     0
176
     1
290
     0
176
     1
 93
        1
176
     1
 44
0.0
176
     1
173
     0
176
     1
  0
VISUALSTYLE
  5
36
102
{ACAD_REACTORS
330
2A
102
}
330
2A
100
AcDbVisualStyle
  2
Brighten
 70
    12
177
     2
291
     1
 71
     2
176
     1
 72
     2
176
     1
 73
     0
176
     1
 90
        0
176
     1
 40
-0.6
176
     1
 41
-30.0
176
     1
 62
     5
 63
     7
421
 16777215
176
     1
 74
     1
176
     1
 91
        4
176
     1
 64
     7
176
     1
 65
   257
176
     1
 75
     1
176
     1
175
     1
176
     1
 42
1.0
176
     1
 92
        8
176
     1
 66
     7
176
     1
 43
1.0
176
     1
 76
     1
176
     1
 77
     6
176
     1
 78
     2
176
     1
 67
     7
176
     1
 79
     5
176
     1
170
     0
176
     1
171
     0
176
     1
290
     0
176
     1
 93
        1
176
     1
 44
50.0
176
     1
173
     0
176
     1
  0
VISUALSTYLE
  5
3A
102
{ACAD_REACTORS
330
2A
102
}
330
2A
100
AcDbVisualStyle
  2
ColorChange
 70
    16
177
     2
291
     1
 71
     2
176
     1
 72
     2
176
     1
 73
     3
176
     1
 90
        0
176
     1
 40
-0.6
176
     1
 41
-30.0
176
     1
 62
     5
 63
     8
421
  8421504
176
     1
 74
     1
176
     1
 91
        4
176
     1
 64
     7
176
     1
 65
   257
176
     1
 75
     1
176
     1
175
     1
176
     1
 42
1.0
176
     1
 92
        8
176
     1
 66
     8
424
  8421504
176
     1
 43
1.0
176
     1
 76
     1
176
     1
 77
     6
176
     1
 78
     2
176
     1
 67
     7
176
     1
 79
     5
176
     1
170
     0
176
     1
171
     0
176
     1
290
     0
176
     1
 93
        1
176
     1
 44
0.0
176
     1
173
     0
176
     1
  0
VISUALSTYLE
  5
34
102
{ACAD_REACTORS
330
2A
102
}
330
2A
100
AcDbVisualStyle
  2
Conceptual
 70
     9
177
     2
291
     0
 71
     3
176
     1
 72
     2
176
     1
 73
     0
176
     1
 90
        0
176
     1
 40
-0.6
176
     1
 41
-30.0
176
     1
 62
     5
 63
     7
421
 16777215
176
     1
 74
     2
176
     1
 91
        2
176
     1
 64
     7
176
     1
 65
   257
176
     1
 75
     1
176
     1
175
     1
176
     1
 42
40.0
176
     1
 92
        8
176
     1
 66
     7
176
     1
 43
1.0
176
     1
 76
     1
176
     1
 77
     6
176
     1
 78
     2
176
     1
 67
     7
176
     1
 79
     3
176
     1
170
     0
176
     1
171
     0
176
     1
290
     0
176
     1
 93
        1
176
     1
 44
0.0
176
     1
173
     0
176
     1
  0
VISUALSTYLE
  5
35
102
{ACAD_REACTORS
330
2A
102
}
330
2A
100
AcDbVisualStyle
  2
Dim
 70
    11
177
     2
291
     1
 71
     2
176
     1
 72
     2
176
     1
 73
     0
176
     1
 90
        0
176
     1
 40
-0.6
176
     1
 41
-30.0
176
     1
 62
     5
 63
     7
421
 16777215
176
     1
 74
     1
176
     1
 91
        4
176
     1
 64
     7
176
     1
 65
   257
176
     1
 75
     1
176
     1
175
     1
176
     1
 42
1.0
176
     1
 92
        8
176
     1
 66
     7
176
     1
 43
1.0
176
     1
 76
     1
176
     1
 77
     6
176
     1
 78
     2
176
     1
 67
     7
176
     1
 79
     5
176
     1
170
     0
176
     1
171
     0
176
     1
290
     0
176
     1
 93
        1
176
     1
 44
-50.0
176
     1
173
     0
176
     1
  0
VISUALSTYLE
  5
39
102
{ACAD_REACTORS
330
2A
102
}
330
2A
100
AcDbVisualStyle
  2
Facepattern
 70
    15
177
     2
291
     1
 71
     2
176
     1
 72
     2
176
     1
 73
     0
176
     1
 90
        0
176
     1
 40
-0.6
176
     1
 41
-30.0
176
     1
 62
     5
 63
     7
421
 16777215
176
     1
 74
     1
176
     1
 91
        4
176
     1
 64
     7
176
     1
 65
   257
176
     1
 75
     1
176
     1
175
     1
176
     1
 42
1.0
176
     1
 92
        8
176
     1
 66
     7
176
     1
 43
1.0
176
     1
 76
     1
176
     1
 77
     6
176
     1
 78
     2
176
     1
 67
     7
176
     1
 79
     5
176
     1
170
     0
176
     1
171
     0
176
     1
290
     0
176
     1
 93
        1
176
     1
 44
0.0
176
     1
173
     0
176
     1
  0
VISUALSTYLE
  5
2B
102
{ACAD_REACTORS
330
2A
102
}
330
2A
100
AcDbVisualStyle
  2
Flat
 70
     0
177
     2
291
     1
 71
     2
176
     1
 72
     1
176
     1
 73
     1
176
     1
 90
        2
176
     1
 40
-0.6
176
     1
 41
30.0
176
     1
 62
     5
 63
     7
421
 16777215
176
     1
 74
     0
176
     1
 91
        4
176
     1
 64
     7
176
     1
 65
   257
176
     1
 75
     1
176
     1
175
     1
176
     1
 42
1.0
176
     1
 92
        8
176
     1
 66
     7
176
     1
 43
1.0
176
     1
 76
     1
176
     1
 77
     6
176
     1
 78
     2
176
     1
 67
     7
176
     1
 79
     5
176
     1
170
     0
176
     1
171
     0
176
     1
290
     0
176
     1
 93
       13
176
     1
 44
0.0
176
     1
173
     0
176
     1
  0
VISUALSTYLE
  5
2C
102
{ACAD_REACTORS
330
2A
102
}
330
2A
100
AcDbVisualStyle
  2
FlatWithEdges
 70
     1
177
     2
291
     1
 71
     2
176
     1
 72
     1
176
     1
 73
     1
176
     1
 90
        2
176
     1
 40
-0.6
176
     1
 41
30.0
176
     1
 62
     5
 63
     7
421
 16777215
176
     1
 74
     1
176
     1
 91
        4
176
     1
 64
     7
176
     1
 65
   257
176
     1
 75
     1
176
     1
175
     1
176
     1
 42
1.0
176
     1
 92
        0
176
     1
 66
   257
176
     1
 43
1.0
176
     1
 76
     1
176
     1
 77
     6
176
     1
 78
     2
176
     1
 67
     7
176
     1
 79
     5
176
     1
170
     0
176
     1
171
     0
176
     1
290
     0
176
     1
 93
       13
176
     1
 44
0.0
176
     1
173
     0
176
     1
  0
VISUALSTYLE
  5
2D
102
{ACAD_REACTORS
330
2A
102
}
330
2A
100
AcDbVisualStyle
  2
Gouraud
 70
     2
177
     2
291
     1
 71
     2
176
     1
 72
     2
176
     1
 73
     1
176
     1
 90
        2
176
     1
 40
-0.6
176
     1
 41
30.0
176
     1
 62
     5
 63
     7
421
 16777215
176
     1
 74
     0
176
     1
 91
        4
176
     1
 64
     7
176
     1
 65
   257
176
     1
 75
     1
176
     1
175
     1
176
     1
 42
1.0
176
     1
 92
        0
176
     1
 66
     7
176
     1
 43
1.0
176
     1
 76
     1
176
     1
 77
     6
176
     1
 78
     2
176
     1
 67
     7
176
     1
 79
     5
176
     1
170
     0
176
     1
171
     0
176
     1
290
     0
176
     1
 93
       13
176
     1
 44
0.0
176
     1
173
     0
176
     1
  0
VISUALSTYLE
  5
2E
102
{ACAD_REACTORS
330
2A
102
}
330
2A
100
AcDbVisualStyle
  2
GouraudWithEdges
 70
     3
177
     2
291
     1
 71
     2
176
     1
 72
     2
176
     1
 73
     1
176
     1
 90
        2
176
     1
 40
-0.6
176
     1
 41
30.0
176
     1
 62
     5
 63
     7
421
 16777215
176
     1
 74
     1
176
     1
 91
        4
176
     1
 64
     7
176
     1
 65
   257
176
     1
 75
     1
176
     1
175
     1
176
     1
 42
1.0
176
     1
 92
        0
176
     1
 66
   257
176
     1
 43
1.0
176
     1
 76
     1
176
     1
 77
     6
176
     1
 78
     2
176
     1
 67
     7
176
     1
 79
     5
176
     1
170
     0
176
     1
171
     0
176
     1
290
     0
176
     1
 93
       13
176
     1
 44
0.0
176
     1
173
     0
176
     1
  0
VISUALSTYLE
  5
38
102
{ACAD_REACTORS
330
2A
102
}
330
2A
100
AcDbVisualStyle
  2
Linepattern
 70
    14
177
     2
291
     1
 71
     2
176
     1
 72
     2
176
     1
 73
     0
176
     1
 90
        0
176
     1
 40
-0.6
176
     1
 41
-30.0
176
     1
 62
     5
 63
     7
421
 16777215
176
     1
 74
     1
176
     1
 91
        4
176
     1
 64
     7
176
     1
 65
   257
176
     1
 75
     7
176
     1
175
     7
176
     1
 42
1.0
176
     1
 92
        8
176
     1
 66
     7
176
     1
 43
1.0
176
     1
 76
     1
176
     1
 77
     6
176
     1
 78
     2
176
     1
 67
     7
176
     1
 79
     5
176
     1
170
     0
176
     1
171
     0
176
     1
290
     0
176
     1
 93
        1
176
     1
 44
0.0
176
     1
173
     0
176
     1
  0
VISUALSTYLE
  5
33
102
{ACAD_REACTORS
330
2A
102
}
330
2A
100
AcDbVisualStyle
  2
Realistic
 70
     8
177
     2
291
     0
 71
     2
176
     1
 72
     2
176
     1
 73
     0
176
     1
 90
        0
176
     1
 40
-0.6
176
     1
 41
-30.0
176
     1
 62
     5
 63
     7
421
 16777215
176
     1
 74
     1
176
     1
 91
        0
176
     1
 64
     7
176
     1
 65
   257
176
     1
 75
     1
176
     1
175
     1
176
     1
 42
1.0
176
     1
 92
        8
176
     1
 66
     8
424
  7895160
176
     1
 43
1.0
176
     1
 76
     1
176
     1
 77
     6
176
     1
 78
     2
176
     1
 67
     7
176
     1
 79
     5
176
     1
170
     0
176
     1
171
     0
176
     1
290
     0
176
     1
 93
       13
176
     1
 44
0.0
176
     1
173
     0
176
     1
  0
VISUALSTYLE
  5
37
102
{ACAD_REACTORS
330
2A
102
}
330
2A
100
AcDbVisualStyle
  2
Thicken
 70
    13
177
     2
291
     1
 71
     2
176
     1
 72
     2
176
     1
 73
     0
176
     1
 90
        0
176
     1
 40
-0.6
176
     1
 41
-30.0
176
     1
 62
     5
 63
     7
421
 16777215
176
     1
 74
     1
176
     1
 91
        4
176
     1
 64
     7
176
     1
 65
   257
176
     1
 75
     1
176
     1
175
     1
176
     1
 42
1.0
176
     1
 92
       12
176
     1
 66
     7
176
     1
 43
1.0
176
     1
 76
     1
176
     1
 77
     6
176
     1
 78
     2
176
     1
 67
     7
176
     1
 79
     5
176
     1
170
     0
176
     1
171
     0
176
     1
290
     0
176
     1
 93
        1
176
     1
 44
0.0
176
     1
173
     0
176
     1
  0
ENDSEC
  0
EOF
