  0
SECTION
  2
HEADER
  9
$ACADVER
  1
AC1024
  9
$ACADMAINTVER
 70
     6
  9
$DWGCODEPAGE
  3
UNDEFINED
  9
$INSBASE
 10
0.0
 20
0.0
 30
0.0
  9
$EXTMIN
 10
1.000000000000000E+20
 20
1.000000000000000E+20
 30
1.000000000000000E+20
  9
$EXTMAX
 10
-1.000000000000000E+20
 20
-1.000000000000000E+20
 30
-1.000000000000000E+20
  9
$LIMMIN
 10
0.0
 20
0.0
  9
$LIMMAX
 10
12.0
 20
9.0
  9
$ORTHOMODE
 70
     0
  9
$REGENMODE
 70
     1
  9
$FILLMODE
 70
     1
  9
$QTEXTMODE
 70
     0
  9
$MIRRTEXT
 70
     1
  9
$LTSCALE
 40
1.0
  9
$ATTMODE
 70
     1
  9
$TEXTSIZE
 40
0.2
  9
$TRACEWID
 40
0.05
  9
$TEXTSTYLE
  7
Standard
  9
$CLAYER
  8
0
  9
$CELTYPE
  6
ByLayer
  9
$CECOLOR
 62
   256
  9
$CELTSCALE
 40
1.0
  9
$DISPSILH
 70
     0
  9
$DIMSCALE
 40
1.0
  9
$DIMASZ
 40
0.18
  9
$DIMEXO
 40
0.0625
  9
$DIMDLI
 40
0.38
  9
$DIMRND
 40
0.0
  9
$DIMDLE
 40
0.0
  9
$DIMEXE
 40
0.18
  9
$DIMTP
 40
0.0
  9
$DIMTM
 40
0.0
  9
$DIMTXT
 40
0.18
  9
$DIMCEN
 40
0.09
  9
$DIMTSZ
 40
0.0
  9
$DIMTOL
 70
     0
  9
$DIMLIM
 70
     0
  9
$DIMTIH
 70
     1
  9
$DIMTOH
 70
     1
  9
$DIMSE1
 70
     0
  9
$DIMSE2
 70
     0
  9
$DIMTAD
 70
     0
  9
$DIMZIN
 70
     0
  9
$DIMBLK
  1

  9
$DIMASO
 70
     1
  9
$DIMSHO
 70
     1
  9
$DIMPOST
  1

  9
$DIMAPOST
  1

  9
$DIMALT
 70
     0
  9
$DIMALTD
 70
     2
  9
$DIMALTF
 40
25.4
  9
$DIMLFAC
 40
1.0
  9
$DIMTOFL
 70
     0
  9
$DIMTVP
 40
0.0
  9
$DIMTIX
 70
     0
  9
$DIMSOXD
 70
     0
  9
$DIMSAH
 70
     0
  9
$DIMBLK1
  1

  9
$DIMBLK2
  1

  9
$DIMSTYLE
  2
Standard
  9
$DIMCLRD
 70
     0
  9
$DIMCLRE
 70
     0
  9
$DIMCLRT
 70
     0
  9
$DIMTFAC
 40
1.0
  9
$DIMGAP
 40
0.09
  9
$DIMJUST
 70
     0
  9
$DIMSD1
 70
     0
  9
$DIMSD2
 70
     0
  9
$DIMTOLJ
 70
     1
  9
$DIMTZIN
 70
     0
  9
$DIMALTZ
 70
     0
  9
$DIMALTTZ
 70
     0
  9
$DIMUPT
 70
     0
  9
$DIMDEC
 70
     4
  9
$DIMTDEC
 70
     4
  9
$DIMALTU
 70
     2
  9
$DIMALTTD
 70
     2
  9
$DIMTXSTY
  7
Standard
  9
$DIMAUNIT
 70
     0
  9
$DIMADEC
 70
     0
  9
$DIMALTRND
 40
0.0
  9
$DIMAZIN
 70
     0
  9
$DIMDSEP
 70
    46
  9
$DIMATFIT
 70
     3
  9
$DIMFRAC
 70
     0
  9
$DIMLDRBLK
  1

  9
$DIMLUNIT
 70
     2
  9
$DIMLWD
 70
    -2
  9
$DIMLWE
 70
    -2
  9
$DIMTMOVE
 70
     0
  9
$DIMFXL
 40
1.0
  9
$DIMFXLON
 70
     0
  9
$DIMJOGANG
 40
0.7853981633974483
  9
$DIMTFILL
 70
     0
  9
$DIMTFILLCLR
 70
     0
  9
$DIMARCSYM
 70
     0
  9
$DIMLTYPE
  6

  9
$DIMLTEX1
  6

  9
$DIMLTEX2
  6

  9
$DIMTXTDIRECTION
 70
     0
  9
$LUNITS
 70
     2
  9
$LUPREC
 70
     4
  9
$SKETCHINC
 40
0.1
  9
$FILLETRAD
 40
0.5
  9
$AUNITS
 70
     0
  9
$AUPREC
 70
     0
  9
$MENU
  1
.
  9
$ELEVATION
 40
0.0
  9
$PELEVATION
 40
0.0
  9
$THICKNESS
 40
0.0
  9
$LIMCHECK
 70
     0
  9
$CHAMFERA
 40
0.5
  9
$CHAMFERB
 40
0.5
  9
$CHAMFERC
 40
1.0
  9
$CHAMFERD
 40
0.0
  9
$SKPOLY
 70
     0
  9
$TDCREATE
 40
2457917.584212963
  9
$TDUCREATE
 40
2457917.209212963
  9
$TDUPDATE
 40
2457917.584212963
  9
$TDUUPDATE
 40
2457917.209212963
  9
$TDINDWG
 40
0.0000000116
  9
$TDUSRTIMER
 40
0.0000000116
  9
$USRTIMER
 70
     1
  9
$ANGBASE
 50
0.0
  9
$ANGDIR
 70
     0
  9
$PDMODE
 70
     0
  9
$PDSIZE
 40
0.0
  9
$PLINEWID
 40
0.0
  9
$SPLFRAME
 70
     0
  9
$SPLINETYPE
 70
     6
  9
$SPLINESEGS
 70
     8
  9
$HANDSEED
  5
D9
  9
$SURFTAB1
 70
     6
  9
$SURFTAB2
 70
     6
  9
$SURFTYPE
 70
     6
  9
$SURFU
 70
     6
  9
$SURFV
 70
     6
  9
$UCSBASE
  2

  9
$UCSNAME
  2

  9
$UCSORG
 10
0.0
 20
0.0
 30
0.0
  9
$UCSXDIR
 10
1.0
 20
0.0
 30
0.0
  9
$UCSYDIR
 10
0.0
 20
1.0
 30
0.0
  9
$UCSORTHOREF
  2

  9
$UCSORTHOVIEW
 70
     0
  9
$UCSORGTOP
 10
0.0
 20
0.0
 30
0.0
  9
$UCSORGBOTTOM
 10
0.0
 20
0.0
 30
0.0
  9
$UCSORGLEFT
 10
0.0
 20
0.0
 30
0.0
  9
$UCSORGRIGHT
 10
0.0
 20
0.0
 30
0.0
  9
$UCSORGFRONT
 10
0.0
 20
0.0
 30
0.0
  9
$UCSORGBACK
 10
0.0
 20
0.0
 30
0.0
  9
$PUCSBASE
  2

  9
$PUCSNAME
  2

  9
$PUCSORG
 10
0.0
 20
0.0
 30
0.0
  9
$PUCSXDIR
 10
1.0
 20
0.0
 30
0.0
  9
$PUCSYDIR
 10
0.0
 20
1.0
 30
0.0
  9
$PUCSORTHOREF
  2

  9
$PUCSORTHOVIEW
 70
     0
  9
$PUCSORGTOP
 10
0.0
 20
0.0
 30
0.0
  9
$PUCSORGBOTTOM
 10
0.0
 20
0.0
 30
0.0
  9
$PUCSORGLEFT
 10
0.0
 20
0.0
 30
0.0
  9
$PUCSORGRIGHT
 10
0.0
 20
0.0
 30
0.0
  9
$PUCSORGFRONT
 10
0.0
 20
0.0
 30
0.0
  9
$PUCSORGBACK
 10
0.0
 20
0.0
 30
0.0
  9
$USERI1
 70
     0
  9
$USERI2
 70
     0
  9
$USERI3
 70
     0
  9
$USERI4
 70
     0
  9
$USERI5
 70
     0
  9
$USERR1
 40
0.0
  9
$USERR2
 40
0.0
  9
$USERR3
 40
0.0
  9
$USERR4
 40
0.0
  9
$USERR5
 40
0.0
  9
$WORLDVIEW
 70
     1
  9
$SHADEDGE
 70
     3
  9
$SHADEDIF
 70
    70
  9
$TILEMODE
 70
     1
  9
$MAXACTVP
 70
    64
  9
$PINSBASE
 10
0.0
 20
0.0
 30
0.0
  9
$PLIMCHECK
 70
     0
  9
$PEXTMIN
 10
1.000000000000000E+20
 20
1.000000000000000E+20
 30
1.000000000000000E+20
  9
$PEXTMAX
 10
-1.000000000000000E+20
 20
-1.000000000000000E+20
 30
-1.000000000000000E+20
  9
$PLIMMIN
 10
0.0
 20
0.0
  9
$PLIMMAX
 10
12.0
 20
9.0
  9
$UNITMODE
 70
     0
  9
$VISRETAIN
 70
     1
  9
$PLINEGEN
 70
     0
  9
$PSLTSCALE
 70
     1
  9
$TREEDEPTH
 70
  3020
  9
$CMLSTYLE
  2
Standard
  9
$CMLJUST
 70
     0
  9
$CMLSCALE
 40
1.0
  9
$PROXYGRAPHICS
 70
     1
  9
$MEASUREMENT
 70
     0
  9
$CELWEIGHT
370
    -1
  9
$ENDCAPS
280
     0
  9
$JOINSTYLE
280
     0
  9
$LWDISPLAY
290
     1
  9
$INSUNITS
 70
     1
  9
$HYPERLINKBASE
  1

  9
$STYLESHEET
  1

  9
$XEDIT
290
     1
  9
$CEPSNTYPE
380
     0
  9
$PSTYLEMODE
290
     1
  9
$FINGERPRINTGUID
  2
{23FA4028-D928-D02A-20BA-15634444000C}
  9
$VERSIONGUID
  2
{FAEB1C32-E019-11D5-929B-00C0DF256EC4}
  9
$EXTNAMES
290
     1
  9
$PSVPSCALE
 40
0.0
  9
$OLESTARTUP
290
     0
  9
$SORTENTS
280
   127
  9
$INDEXCTL
280
     0
  9
$HIDETEXT
280
     1
  9
$XCLIPFRAME
280
     2
  9
$HALOGAP
280
     0
  9
$OBSCOLOR
 70
   257
  9
$OBSLTYPE
280
     0
  9
$INTERSECTIONDISPLAY
280
     0
  9
$INTERSECTIONCOLOR
 70
   257
  9
$DIMASSOC
280
     2
  9
$PROJECTNAME
  1

  9
$CAMERADISPLAY
290
     0
  9
$LENSLENGTH
 40
50.0
  9
$CAMERAHEIGHT
 40
0.0
  9
$STEPSPERSEC
 40
2.0
  9
$STEPSIZE
 40
6.0
  9
$3DDWFPREC
 40
2.0
  9
$PSOLWIDTH
 40
0.25
  9
$PSOLHEIGHT
 40
4.0
  9
$LOFTANG1
 40
1.570796326794897
  9
$LOFTANG2
 40
1.570796326794897
  9
$LOFTMAG1
 40
0.0
  9
$LOFTMAG2
 40
0.0
  9
$LOFTPARAM
 70
     7
  9
$LOFTNORMALS
280
     1
  9
$LATITUDE
 40
37.795
  9
$LONGITUDE
 40
-122.394
  9
$NORTHDIRECTION
 40
0.0
  9
$TIMEZONE
 70
 -8000
  9
$LIGHTGLYPHDISPLAY
280
     1
  9
$TILEMODELIGHTSYNCH
280
     1
  9
$CMATERIAL
347
3C
  9
$SOLIDHIST
280
     1
  9
$SHOWHIST
280
     1
  9
$DWFFRAME
280
     2
  9
$DGNFRAME
280
     2
  9
$REALWORLDSCALE
290
     1
  9
$INTERFERECOLOR
 62
   256
  9
$CSHADOW
280
     0
  9
$SHADOWPLANELOCATION
 40
0.0
  0
ENDSEC
  0
SECTION
  2
CLASSES
  0
CLASS
  1
ACDBDICTIONARYWDFLT
  2
AcDbDictionaryWithDefault
  3
ObjectDBX Classes
 90
        0
 91
        4
280
     0
281
     0
  0
CLASS
  1
VISUALSTYLE
  2
AcDbVisualStyle
  3
ObjectDBX Classes
 90
     4095
 91
        4
280
     0
281
     0
  0
CLASS
  1
MATERIAL
  2
AcDbMaterial
  3
ObjectDBX Classes
 90
     1153
 91
        4
280
     0
281
     0
  0
CLASS
  1
SUN
  2
AcDbSun
  3
SCENEOE
 90
     1024
 91
        4
280
     0
281
     0
  0
ENDSEC
  0
SECTION
  2
TABLES
  0
TABLE
  2
VPORT
  5
8
330
0
100
AcDbSymbolTable
 70
     1
  0
VPORT
  5
29
330
8
100
AcDbSymbolTableRecord
100
AcDbViewportTableRecord
  2
*Active
 70
     0
 10
0.0
 20
0.0
 11
1.0
 21
1.0
 12
0.0
 22
0.0
 13
0.0
 23
0.0
 14
0.5
 24
0.5
 15
0.5
 25
0.5
 16
0.0
 26
0.0
 36
1.0
 17
91.00082462281999
 27
-128.4993055234307
 37
0.0
 40
256.9986110468615
 41
0.7081814508812795
 42
50.0
 43
0.0
 44
0.0
 50
0.0
 51
0.0
 71
     0
 72
   100
 73
     1
 74
     3
 75
     0
 76
     0
 77
     0
 78
     0
281
     0
 65
     1
110
0.0
120
0.0
130
0.0
111
1.0
121
0.0
131
0.0
112
0.0
122
1.0
132
0.0
 79
     0
146
0.0
 60
     3
 61
     5
292
     1
282
     1
141
0.0
142
0.0
 63
   250
361
3F
  0
ENDTAB
  0
TABLE
  2
LTYPE
  5
5
330
0
100
AcDbSymbolTable
 70
     1
  0
LTYPE
  5
14
330
5
100
AcDbSymbolTableRecord
100
AcDbLinetypeTableRecord
  2
ByBlock
 70
     0
  3

 72
    65
 73
     0
 40
0.0
  0
LTYPE
  5
15
330
5
100
AcDbSymbolTableRecord
100
AcDbLinetypeTableRecord
  2
ByLayer
 70
     0
  3

 72
    65
 73
     0
 40
0.0
  0
LTYPE
  5
16
330
5
100
AcDbSymbolTableRecord
100
AcDbLinetypeTableRecord
  2
Continuous
 70
     0
  3
Solid line
 72
    65
 73
     0
 40
0.0
  0
ENDTAB
  0
TABLE
  2
LAYER
  5
2
330
0
100
AcDbSymbolTable
 70
     2
  0
LAYER
  5
10
330
2
100
AcDbSymbolTableRecord
100
AcDbLayerTableRecord
  2
0
 70
     0
 62
     7
  6
Continuous
370
    -3
390
F
347
3E
  0
LAYER
  5
40
330
2
100
AcDbSymbolTableRecord
100
AcDbLayerTableRecord
  2
_U+30EC_U+30A4_U+30E4_U+30FC 1
 70
     0
 62
     7
  6
Continuous
370
    -3
390
F
347
3E
  0
ENDTAB
  0
TABLE
  2
STYLE
  5
3
330
0
100
AcDbSymbolTable
 70
     1
  0
STYLE
  5
11
330
3
100
AcDbSymbolTableRecord
100
AcDbTextStyleTableRecord
  2
Standard
 70
     0
 40
0.0
 41
1.0
 50
0.0
 71
     0
 42
0.2
  3
txt
  4

  0
ENDTAB
  0
TABLE
  2
VIEW
  5
6
330
0
100
AcDbSymbolTable
 70
     0
  0
ENDTAB
  0
TABLE
  2
UCS
  5
7
330
0
100
AcDbSymbolTable
 70
     0
  0
ENDTAB
  0
TABLE
  2
APPID
  5
9
330
0
100
AcDbSymbolTable
 70
     1
  0
APPID
  5
12
330
9
100
AcDbSymbolTableRecord
100
AcDbRegAppTableRecord
  2
ACAD
 70
     0
  0
ENDTAB
  0
TABLE
  2
DIMSTYLE
  5
A
330
0
100
AcDbSymbolTable
 70
     1
100
AcDbDimStyleTable
  0
DIMSTYLE
105
27
330
A
100
AcDbSymbolTableRecord
100
AcDbDimStyleTableRecord
  2
Standard
 70
     0
178
     0
340
11
  0
ENDTAB
  0
TABLE
  2
BLOCK_RECORD
  5
1
330
0
100
AcDbSymbolTable
 70
     6
  0
BLOCK_RECORD
  5
1F
330
1
100
AcDbSymbolTableRecord
100
AcDbBlockTableRecord
  2
*Model_Space
340
22
 70
     0
280
     1
281
     0
  0
BLOCK_RECORD
  5
1B
330
1
100
AcDbSymbolTableRecord
100
AcDbBlockTableRecord
  2
*Paper_Space
340
1E
 70
     0
280
     1
281
     0
  0
BLOCK_RECORD
  5
23
330
1
100
AcDbSymbolTableRecord
100
AcDbBlockTableRecord
  2
*Paper_Space0
340
26
 70
     0
280
     1
281
     0
  0
BLOCK_RECORD
  5
7B
330
1
100
AcDbSymbolTableRecord
100
AcDbBlockTableRecord
  2
block 2
340
0
102
{BLKREFS
331
7C
102
}
 70
     0
280
     1
281
     0
  0
BLOCK_RECORD
  5
8E
330
1
100
AcDbSymbolTableRecord
100
AcDbBlockTableRecord
  2
block 3
340
0
102
{BLKREFS
331
8F
102
}
 70
     0
280
     1
281
     0
  0
BLOCK_RECORD
  5
98
330
1
100
AcDbSymbolTableRecord
100
AcDbBlockTableRecord
  2
block 4
340
0
102
{BLKREFS
331
99
102
}
 70
     0
280
     1
281
     0
  0
BLOCK_RECORD
  5
B1
330
1
100
AcDbSymbolTableRecord
100
AcDbBlockTableRecord
  2
block 5
340
0
102
{BLKREFS
331
B2
102
}
 70
     0
280
     1
281
     0
  0
BLOCK_RECORD
  5
CE
330
1
100
AcDbSymbolTableRecord
100
AcDbBlockTableRecord
  2
block 6
340
0
102
{BLKREFS
331
CF
102
}
 70
     0
280
     1
281
     0
  0
ENDTAB
  0
ENDSEC
  0
SECTION
  2
BLOCKS
  0
BLOCK
  5
20
330
1F
100
AcDbEntity
  8
0
100
AcDbBlockBegin
  2
*Model_Space
 70
     0
 10
0.0
 20
0.0
 30
0.0
  3
*Model_Space
  1

  0
ENDBLK
  5
21
330
1F
100
AcDbEntity
  8
0
100
AcDbBlockEnd
  0
BLOCK
  5
1C
330
1B
100
AcDbEntity
 67
     1
  8
0
100
AcDbBlockBegin
  2
*Paper_Space
 70
     0
 10
0.0
 20
0.0
 30
0.0
  3
*Paper_Space
  1

  0
ENDBLK
  5
1D
330
1B
100
AcDbEntity
 67
     1
  8
0
100
AcDbBlockEnd
  0
BLOCK
  5
24
330
23
100
AcDbEntity
  8
0
100
AcDbBlockBegin
  2
*Paper_Space0
 70
     0
 10
0.0
 20
0.0
 30
0.0
  3
*Paper_Space0
  1

  0
ENDBLK
  5
25
330
23
100
AcDbEntity
  8
0
100
AcDbBlockEnd
  0
BLOCK
  5
7D
330
7B
100
AcDbEntity
  8
0
100
AcDbBlockBegin
  2
block 2
 70
     0
 10
0.0
 20
0.0
 30
0.0
  3
block 2
  1

  0
SPLINE
  5
7F
330
7B
100
AcDbEntity
  8
_U+30EC_U+30A4_U+30E4_U+30FC 1
370
     0
100
AcDbSpline
210
0.0
220
0.0
230
1.0
 70
    11
 71
     3
 72
    44
 73
    40
 74
     0
 42
0.0000000001
 43
0.0000000001
 12
1.0
 22
0.0
 32
0.0
 13
1.0
 23
0.0
 33
0.0
 40
0.0
 40
0.0
 40
0.0
 40
0.0
 40
1.0
 40
1.0
 40
1.0
 40
2.0
 40
2.0
 40
2.0
 40
3.0
 40
3.0
 40
3.0
 40
4.0
 40
4.0
 40
4.0
 40
5.0
 40
5.0
 40
5.0
 40
6.0
 40
6.0
 40
6.0
 40
7.0
 40
7.0
 40
7.0
 40
8.0
 40
8.0
 40
8.0
 40
9.0
 40
9.0
 40
9.0
 40
10.0
 40
10.0
 40
10.0
 40
11.0
 40
11.0
 40
11.0
 40
12.0
 40
12.0
 40
12.0
 40
13.0
 40
13.0
 40
13.0
 40
13.0
 10
76.70780705547583
 20
-136.5742648313078
 30
0.0
 10
76.48990476603377
 20
-136.7330837331778
 30
0.0
 10
76.39671493315777
 20
-136.8071532861107
 30
0.0
 10
76.34813908681575
 20
-136.9508137678456
 30
0.0
 10
76.34813908681575
 20
-136.9508137678456
 30
0.0
 10
77.12655841170795
 20
-136.9508137678456
 30
0.0
 10
77.12655841170795
 20
-136.9508137678456
 30
0.0
 10
77.12655841170795
 20
-136.9508137678456
 30
0.0
 10
77.12655841170795
 20
-137.1561414587665
 30
0.0
 10
77.12655841170795
 20
-137.1561414587665
 30
0.0
 10
77.12655841170795
 20
-137.1561414587665
 30
0.0
 10
76.09854191890939
 20
-137.1561414587665
 30
0.0
 10
76.09854191890939
 20
-137.1561414587665
 30
0.0
 10
76.1302367973737
 20
-136.7985405473976
 30
0.0
 10
76.1958658663677
 20
-136.7203368798824
 30
0.0
 10
76.58085528684437
 20
-136.4219916108598
 30
0.0
 10
76.83682588139844
 20
-136.2232096013609
 30
0.0
 10
76.90228269561818
 20
-136.1553412203014
 30
0.0
 10
76.90228269561818
 20
-136.01788191044
 30
0.0
 10
76.90228269561818
 20
-135.8993706257474
 30
0.0
 10
76.83045245475073
 20
-135.7684569973079
 30
0.0
 10
76.63373750254296
 20
-135.7684569973079
 30
0.0
 10
76.37346053863233
 20
-135.7684569973079
 30
0.0
 10
76.36502005469347
 20
-135.9989338852711
 30
0.0
 10
76.3607136853369
 20
-136.1153781126725
 30
0.0
 10
76.3607136853369
 20
-136.1153781126725
 30
0.0
 10
76.13661022402141
 20
-136.1153781126725
 30
0.0
 10
76.13661022402141
 20
-136.1153781126725
 30
0.0
 10
76.14505070796027
 20
-135.9882540892668
 30
0.0
 10
76.15555824919028
 20
-135.8762884859962
 30
0.0
 10
76.23600122877086
 20
-135.7577772013036
 30
0.0
 10
76.34589977475034
 20
-135.5968912421424
 30
0.0
 10
76.5321071857281
 20
-135.563129306387
 30
0.0
 10
76.64855141312954
 20
-135.563129306387
 30
0.0
 10
76.92570934491788
 20
-135.563129306387
 30
0.0
 10
77.13293183835566
 20
-135.7470974052993
 30
0.0
 10
77.13293183835566
 20
-136.0199489677311
 30
0.0
 10
77.13293183835566
 20
-136.2487033079517
 30
0.0
 10
77.01665986572847
 20
-136.3479220579269
 30
0.0
 10
76.70780705547583
 20
-136.5742648313078
 30
0.0
  0
HATCH
  5
80
330
7B
100
AcDbEntity
  8
_U+30EC_U+30A4_U+30E4_U+30FC 1
 62
   179
420
  2234388
100
AcDbHatch
 10
0.0
 20
0.0
 30
0.0
210
0.0
220
0.0
230
1.0
  2
SOLID
 70
     1
 71
     0
 91
        1
 92
        1
 93
        1
 72
     4
 94
        3
 73
     0
 74
     1
 95
       44
 96
       40
 40
0.0
 40
0.0
 40
0.0
 40
0.0
 40
1.0
 40
1.0
 40
1.0
 40
2.0
 40
2.0
 40
2.0
 40
3.0
 40
3.0
 40
3.0
 40
4.0
 40
4.0
 40
4.0
 40
5.0
 40
5.0
 40
5.0
 40
6.0
 40
6.0
 40
6.0
 40
7.0
 40
7.0
 40
7.0
 40
8.0
 40
8.0
 40
8.0
 40
9.0
 40
9.0
 40
9.0
 40
10.0
 40
10.0
 40
10.0
 40
11.0
 40
11.0
 40
11.0
 40
12.0
 40
12.0
 40
12.0
 40
13.0
 40
13.0
 40
13.0
 40
13.0
 10
76.70780705547583
 20
-136.5742648313078
 10
76.48990476603377
 20
-136.7330837331778
 10
76.39671493315777
 20
-136.8071532861107
 10
76.34813908681575
 20
-136.9508137678456
 10
76.34813908681575
 20
-136.9508137678456
 10
77.12655841170795
 20
-136.9508137678456
 10
77.12655841170795
 20
-136.9508137678456
 10
77.12655841170795
 20
-136.9508137678456
 10
77.12655841170795
 20
-137.1561414587665
 10
77.12655841170795
 20
-137.1561414587665
 10
77.12655841170795
 20
-137.1561414587665
 10
76.09854191890939
 20
-137.1561414587665
 10
76.09854191890939
 20
-137.1561414587665
 10
76.1302367973737
 20
-136.7985405473976
 10
76.1958658663677
 20
-136.7203368798824
 10
76.58085528684437
 20
-136.4219916108598
 10
76.83682588139844
 20
-136.2232096013609
 10
76.90228269561818
 20
-136.1553412203014
 10
76.90228269561818
 20
-136.01788191044
 10
76.90228269561818
 20
-135.8993706257474
 10
76.83045245475073
 20
-135.7684569973079
 10
76.63373750254296
 20
-135.7684569973079
 10
76.37346053863233
 20
-135.7684569973079
 10
76.36502005469347
 20
-135.9989338852711
 10
76.3607136853369
 20
-136.1153781126725
 10
76.3607136853369
 20
-136.1153781126725
 10
76.13661022402141
 20
-136.1153781126725
 10
76.13661022402141
 20
-136.1153781126725
 10
76.14505070796027
 20
-135.9882540892668
 10
76.15555824919028
 20
-135.8762884859962
 10
76.23600122877086
 20
-135.7577772013036
 10
76.34589977475034
 20
-135.5968912421424
 10
76.5321071857281
 20
-135.563129306387
 10
76.64855141312954
 20
-135.563129306387
 10
76.92570934491788
 20
-135.563129306387
 10
77.13293183835566
 20
-135.7470974052993
 10
77.13293183835566
 20
-136.0199489677311
 10
77.13293183835566
 20
-136.2487033079517
 10
77.01665986572847
 20
-136.3479220579269
 10
76.70780705547583
 20
-136.5742648313078
 97
        0
 97
        0
 75
     2
 76
     1
 98
        0
  0
SPLINE
  5
81
330
7B
100
AcDbEntity
  8
_U+30EC_U+30A4_U+30E4_U+30FC 1
370
     0
100
AcDbSpline
210
0.0
220
0.0
230
1.0
 70
    11
 71
     3
 72
    53
 73
    49
 74
     0
 42
0.0000000001
 43
0.0000000001
 12
1.0
 22
0.0
 32
0.0
 13
1.0
 23
0.0
 33
0.0
 40
0.0
 40
0.0
 40
0.0
 40
0.0
 40
1.0
 40
1.0
 40
1.0
 40
2.0
 40
2.0
 40
2.0
 40
3.0
 40
3.0
 40
3.0
 40
4.0
 40
4.0
 40
4.0
 40
5.0
 40
5.0
 40
5.0
 40
6.0
 40
6.0
 40
6.0
 40
7.0
 40
7.0
 40
7.0
 40
8.0
 40
8.0
 40
8.0
 40
9.0
 40
9.0
 40
9.0
 40
10.0
 40
10.0
 40
10.0
 40
11.0
 40
11.0
 40
11.0
 40
12.0
 40
12.0
 40
12.0
 40
13.0
 40
13.0
 40
13.0
 40
14.0
 40
14.0
 40
14.0
 40
15.0
 40
15.0
 40
15.0
 40
16.0
 40
16.0
 40
16.0
 40
16.0
 10
77.7725138151923
 20
-137.2067843623997
 30
0.0
 10
77.69413789290286
 20
-137.2067843623997
 30
0.0
 10
77.59267983086225
 20
-137.189903394522
 30
0.0
 10
77.49104951404738
 20
-137.1265136375934
 30
0.0
 10
77.31758895636506
 20
-137.0166150916139
 30
0.0
 10
77.29640161913076
 20
-136.8853569536259
 30
0.0
 10
77.2774535939619
 20
-136.7775254649376
 30
0.0
 10
77.2774535939619
 20
-136.7775254649376
 30
0.0
 10
77.49948999798625
 20
-136.7775254649376
 30
0.0
 10
77.49948999798625
 20
-136.7775254649376
 30
0.0
 10
77.55461152575025
 20
-136.9763074744365
 30
0.0
 10
77.68156329438169
 20
-137.0059352956096
 30
0.0
 10
77.77458087248344
 20
-137.0059352956096
 30
0.0
 10
77.91427949441032
 20
-137.0059352956096
 30
0.0
 10
78.06655271485836
 20
-136.9063720360859
 30
0.0
 10
78.06655271485836
 20
-136.6738280908316
 30
0.0
 10
78.06655271485836
 20
-136.4178574962775
 30
0.0
 10
77.88671873052833
 20
-136.3479220579269
 30
0.0
 10
77.76614038854458
 20
-136.3479220579269
 30
0.0
 10
77.73444551008028
 20
-136.3479220579269
 30
0.0
 10
77.59267983086225
 20
-136.3479220579269
 30
0.0
 10
77.5037963673428
 20
-136.4771131386238
 30
0.0
 10
77.5037963673428
 20
-136.4771131386238
 30
0.0
 10
77.32826875236933
 20
-136.4581651134549
 30
0.0
 10
77.32826875236933
 20
-136.4581651134549
 30
0.0
 10
77.32826875236933
 20
-136.4581651134549
 30
0.0
 10
77.44884709435307
 20
-135.611705152729
 30
0.0
 10
77.44884709435307
 20
-135.611705152729
 30
0.0
 10
77.44884709435307
 20
-135.611705152729
 30
0.0
 10
78.22726641924527
 20
-135.611705152729
 30
0.0
 10
78.22726641924527
 20
-135.611705152729
 30
0.0
 10
78.22726641924527
 20
-135.611705152729
 30
0.0
 10
78.22726641924527
 20
-135.8063530476456
 30
0.0
 10
78.22726641924527
 20
-135.8063530476456
 30
0.0
 10
78.22726641924527
 20
-135.8063530476456
 30
0.0
 10
77.61162785603112
 20
-135.8063530476456
 30
0.0
 10
77.61162785603112
 20
-135.8063530476456
 30
0.0
 10
77.61162785603112
 20
-135.8063530476456
 30
0.0
 10
77.54617104181138
 20
-136.2294107732343
 30
0.0
 10
77.54617104181138
 20
-136.2294107732343
 30
0.0
 10
77.60749374144882
 20
-136.1956488374789
 30
0.0
 10
77.69000377832056
 20
-136.1553412203014
 30
0.0
 10
77.80834280823889
 20
-136.1553412203014
 30
0.0
 10
78.0622463455018
 20
-136.1553412203014
 30
0.0
 10
78.299268914887
 20
-136.3417208860535
 30
0.0
 10
78.299268914887
 20
-136.6548800656627
 30
0.0
 10
78.299268914887
 20
-136.9721733598542
 30
0.0
 10
78.07499319879723
 20
-137.2067843623997
 30
0.0
 10
77.7725138151923
 20
-137.2067843623997
 30
0.0
  0
HATCH
  5
82
330
7B
100
AcDbEntity
  8
_U+30EC_U+30A4_U+30E4_U+30FC 1
 62
   179
420
  2234388
100
AcDbHatch
 10
0.0
 20
0.0
 30
0.0
210
0.0
220
0.0
230
1.0
  2
SOLID
 70
     1
 71
     0
 91
        1
 92
        1
 93
        1
 72
     4
 94
        3
 73
     0
 74
     1
 95
       53
 96
       49
 40
0.0
 40
0.0
 40
0.0
 40
0.0
 40
1.0
 40
1.0
 40
1.0
 40
2.0
 40
2.0
 40
2.0
 40
3.0
 40
3.0
 40
3.0
 40
4.0
 40
4.0
 40
4.0
 40
5.0
 40
5.0
 40
5.0
 40
6.0
 40
6.0
 40
6.0
 40
7.0
 40
7.0
 40
7.0
 40
8.0
 40
8.0
 40
8.0
 40
9.0
 40
9.0
 40
9.0
 40
10.0
 40
10.0
 40
10.0
 40
11.0
 40
11.0
 40
11.0
 40
12.0
 40
12.0
 40
12.0
 40
13.0
 40
13.0
 40
13.0
 40
14.0
 40
14.0
 40
14.0
 40
15.0
 40
15.0
 40
15.0
 40
16.0
 40
16.0
 40
16.0
 40
16.0
 10
77.7725138151923
 20
-137.2067843623997
 10
77.69413789290286
 20
-137.2067843623997
 10
77.59267983086225
 20
-137.189903394522
 10
77.49104951404738
 20
-137.1265136375934
 10
77.31758895636506
 20
-137.0166150916139
 10
77.29640161913076
 20
-136.8853569536259
 10
77.2774535939619
 20
-136.7775254649376
 10
77.2774535939619
 20
-136.7775254649376
 10
77.49948999798625
 20
-136.7775254649376
 10
77.49948999798625
 20
-136.7775254649376
 10
77.55461152575025
 20
-136.9763074744365
 10
77.68156329438169
 20
-137.0059352956096
 10
77.77458087248344
 20
-137.0059352956096
 10
77.91427949441032
 20
-137.0059352956096
 10
78.06655271485836
 20
-136.9063720360859
 10
78.06655271485836
 20
-136.6738280908316
 10
78.06655271485836
 20
-136.4178574962775
 10
77.88671873052833
 20
-136.3479220579269
 10
77.76614038854458
 20
-136.3479220579269
 10
77.73444551008028
 20
-136.3479220579269
 10
77.59267983086225
 20
-136.3479220579269
 10
77.5037963673428
 20
-136.4771131386238
 10
77.5037963673428
 20
-136.4771131386238
 10
77.32826875236933
 20
-136.4581651134549
 10
77.32826875236933
 20
-136.4581651134549
 10
77.32826875236933
 20
-136.4581651134549
 10
77.44884709435307
 20
-135.611705152729
 10
77.44884709435307
 20
-135.611705152729
 10
77.44884709435307
 20
-135.611705152729
 10
78.22726641924527
 20
-135.611705152729
 10
78.22726641924527
 20
-135.611705152729
 10
78.22726641924527
 20
-135.611705152729
 10
78.22726641924527
 20
-135.8063530476456
 10
78.22726641924527
 20
-135.8063530476456
 10
78.22726641924527
 20
-135.8063530476456
 10
77.61162785603112
 20
-135.8063530476456
 10
77.61162785603112
 20
-135.8063530476456
 10
77.61162785603112
 20
-135.8063530476456
 10
77.54617104181138
 20
-136.2294107732343
 10
77.54617104181138
 20
-136.2294107732343
 10
77.60749374144882
 20
-136.1956488374789
 10
77.69000377832056
 20
-136.1553412203014
 10
77.80834280823889
 20
-136.1553412203014
 10
78.0622463455018
 20
-136.1553412203014
 10
78.299268914887
 20
-136.3417208860535
 10
78.299268914887
 20
-136.6548800656627
 10
78.299268914887
 20
-136.9721733598542
 10
78.07499319879723
 20
-137.2067843623997
 10
77.7725138151923
 20
-137.2067843623997
 97
        0
 97
        0
 75
     2
 76
     1
 98
        0
  0
SPLINE
  5
83
330
7B
100
AcDbEntity
  8
_U+30EC_U+30A4_U+30E4_U+30FC 1
370
     0
100
AcDbSpline
210
0.0
220
0.0
230
1.0
 70
    11
 71
     3
 72
    44
 73
    40
 74
     0
 42
0.0000000001
 43
0.0000000001
 12
1.0
 22
0.0
 32
0.0
 13
1.0
 23
0.0
 33
0.0
 40
0.0
 40
0.0
 40
0.0
 40
0.0
 40
1.0
 40
1.0
 40
1.0
 40
2.0
 40
2.0
 40
2.0
 40
3.0
 40
3.0
 40
3.0
 40
4.0
 40
4.0
 40
4.0
 40
5.0
 40
5.0
 40
5.0
 40
6.0
 40
6.0
 40
6.0
 40
7.0
 40
7.0
 40
7.0
 40
8.0
 40
8.0
 40
8.0
 40
9.0
 40
9.0
 40
9.0
 40
10.0
 40
10.0
 40
10.0
 40
11.0
 40
11.0
 40
11.0
 40
12.0
 40
12.0
 40
12.0
 40
13.0
 40
13.0
 40
13.0
 40
13.0
 10
79.48248695929605
 20
-137.1561414587665
 30
0.0
 10
79.45906030999635
 20
-137.1116997270068
 30
0.0
 10
79.43804522753632
 20
-137.0589897660825
 30
0.0
 10
79.43580591547091
 20
-136.8281683685707
 30
0.0
 10
79.43167180088861
 20
-136.5849446273121
 30
0.0
 10
79.37241615854232
 20
-136.5150091889615
 30
0.0
 10
79.19464923150342
 20
-136.5150091889615
 30
0.0
 10
79.19464923150342
 20
-136.5150091889615
 30
0.0
 10
78.78640541650132
 20
-136.5150091889615
 30
0.0
 10
78.78640541650132
 20
-136.5150091889615
 30
0.0
 10
78.78640541650132
 20
-136.5150091889615
 30
0.0
 10
78.78640541650132
 20
-137.1561414587665
 30
0.0
 10
78.78640541650132
 20
-137.1561414587665
 30
0.0
 10
78.78640541650132
 20
-137.1561414587665
 30
0.0
 10
78.55162215918155
 20
-137.1561414587665
 30
0.0
 10
78.55162215918155
 20
-137.1561414587665
 30
0.0
 10
78.55162215918155
 20
-137.1561414587665
 30
0.0
 10
78.55162215918155
 20
-135.611705152729
 30
0.0
 10
78.55162215918155
 20
-135.611705152729
 30
0.0
 10
78.55162215918155
 20
-135.611705152729
 30
0.0
 10
79.22651636474198
 20
-135.611705152729
 30
0.0
 10
79.22651636474198
 20
-135.611705152729
 30
0.0
 10
79.53312986292921
 20
-135.611705152729
 30
0.0
 10
79.70021699396383
 20
-135.7832709078945
 30
0.0
 10
79.70021699396383
 20
-136.0392415024485
 30
0.0
 10
79.70021699396383
 20
-136.0898844060817
 30
0.0
 10
79.69177651002498
 20
-136.1725666977277
 30
0.0
 10
79.64733477826525
 20
-136.252837422534
 30
0.0
 10
79.58825139069322
 20
-136.35653479664
 30
0.0
 10
79.5226223216992
 20
-136.3754828218089
 30
0.0
 10
79.46129962206176
 20
-136.3923637896866
 30
0.0
 10
79.59875893192323
 20
-136.4347384641552
 30
0.0
 10
79.66645505820838
 20
-136.4833143104972
 30
0.0
 10
79.67076142756495
 20
-136.7985405473976
 30
0.0
 10
79.67489554214725
 20
-137.0693250525382
 30
0.0
 10
79.71089678996812
 20
-137.1010199310025
 30
0.0
 10
79.77859291625327
 20
-137.1561414587665
 30
0.0
 10
79.77859291625327
 20
-137.1561414587665
 30
0.0
 10
79.48248695929605
 20
-137.1561414587665
 30
0.0
 10
79.48248695929605
 20
-137.1561414587665
 30
0.0
  0
SPLINE
  5
84
330
7B
100
AcDbEntity
  8
_U+30EC_U+30A4_U+30E4_U+30FC 1
370
     0
100
AcDbSpline
210
0.0
220
0.0
230
1.0
 70
    11
 71
     3
 72
    20
 73
    16
 74
     0
 42
0.0000000001
 43
0.0000000001
 12
1.0
 22
0.0
 32
0.0
 13
1.0
 23
0.0
 33
0.0
 40
0.0
 40
0.0
 40
0.0
 40
0.0
 40
1.0
 40
1.0
 40
1.0
 40
2.0
 40
2.0
 40
2.0
 40
3.0
 40
3.0
 40
3.0
 40
4.0
 40
4.0
 40
4.0
 40
5.0
 40
5.0
 40
5.0
 40
5.0
 10
79.23065047932428
 20
-135.8232340155234
 30
0.0
 10
79.23065047932428
 20
-135.8232340155234
 30
0.0
 10
78.78640541650132
 20
-135.8232340155234
 30
0.0
 10
78.78640541650132
 20
-135.8232340155234
 30
0.0
 10
78.78640541650132
 20
-135.8232340155234
 30
0.0
 10
78.78640541650132
 20
-136.3034803261672
 30
0.0
 10
78.78640541650132
 20
-136.3034803261672
 30
0.0
 10
78.78640541650132
 20
-136.3034803261672
 30
0.0
 10
79.22858342203314
 20
-136.3034803261672
 30
0.0
 10
79.22858342203314
 20
-136.3034803261672
 30
0.0
 10
79.32797442678259
 20
-136.3034803261672
 30
0.0
 10
79.46336667935292
 20
-136.2273437159432
 30
0.0
 10
79.46336667935292
 20
-136.0561224703262
 30
0.0
 10
79.46336667935292
 20
-135.9779188028111
 30
0.0
 10
79.4294324888232
 20
-135.8232340155234
 30
0.0
 10
79.23065047932428
 20
-135.8232340155234
 30
0.0
  0
HATCH
  5
85
330
7B
100
AcDbEntity
  8
_U+30EC_U+30A4_U+30E4_U+30FC 1
 62
   179
420
  2234388
100
AcDbHatch
 10
0.0
 20
0.0
 30
0.0
210
0.0
220
0.0
230
1.0
  2
SOLID
 70
     1
 71
     0
 91
        2
 92
        1
 93
        1
 72
     4
 94
        3
 73
     0
 74
     1
 95
       44
 96
       40
 40
0.0
 40
0.0
 40
0.0
 40
0.0
 40
1.0
 40
1.0
 40
1.0
 40
2.0
 40
2.0
 40
2.0
 40
3.0
 40
3.0
 40
3.0
 40
4.0
 40
4.0
 40
4.0
 40
5.0
 40
5.0
 40
5.0
 40
6.0
 40
6.0
 40
6.0
 40
7.0
 40
7.0
 40
7.0
 40
8.0
 40
8.0
 40
8.0
 40
9.0
 40
9.0
 40
9.0
 40
10.0
 40
10.0
 40
10.0
 40
11.0
 40
11.0
 40
11.0
 40
12.0
 40
12.0
 40
12.0
 40
13.0
 40
13.0
 40
13.0
 40
13.0
 10
79.48248695929605
 20
-137.1561414587665
 10
79.45906030999635
 20
-137.1116997270068
 10
79.43804522753632
 20
-137.0589897660825
 10
79.43580591547091
 20
-136.8281683685707
 10
79.43167180088861
 20
-136.5849446273121
 10
79.37241615854232
 20
-136.5150091889615
 10
79.19464923150342
 20
-136.5150091889615
 10
79.19464923150342
 20
-136.5150091889615
 10
78.78640541650132
 20
-136.5150091889615
 10
78.78640541650132
 20
-136.5150091889615
 10
78.78640541650132
 20
-136.5150091889615
 10
78.78640541650132
 20
-137.1561414587665
 10
78.78640541650132
 20
-137.1561414587665
 10
78.78640541650132
 20
-137.1561414587665
 10
78.55162215918155
 20
-137.1561414587665
 10
78.55162215918155
 20
-137.1561414587665
 10
78.55162215918155
 20
-137.1561414587665
 10
78.55162215918155
 20
-135.611705152729
 10
78.55162215918155
 20
-135.611705152729
 10
78.55162215918155
 20
-135.611705152729
 10
79.22651636474198
 20
-135.611705152729
 10
79.22651636474198
 20
-135.611705152729
 10
79.53312986292921
 20
-135.611705152729
 10
79.70021699396383
 20
-135.7832709078945
 10
79.70021699396383
 20
-136.0392415024485
 10
79.70021699396383
 20
-136.0898844060817
 10
79.69177651002498
 20
-136.1725666977277
 10
79.64733477826525
 20
-136.252837422534
 10
79.58825139069322
 20
-136.35653479664
 10
79.5226223216992
 20
-136.3754828218089
 10
79.46129962206176
 20
-136.3923637896866
 10
79.59875893192323
 20
-136.4347384641552
 10
79.66645505820838
 20
-136.4833143104972
 10
79.67076142756495
 20
-136.7985405473976
 10
79.67489554214725
 20
-137.0693250525382
 10
79.71089678996812
 20
-137.1010199310025
 10
79.77859291625327
 20
-137.1561414587665
 10
79.77859291625327
 20
-137.1561414587665
 10
79.48248695929605
 20
-137.1561414587665
 10
79.48248695929605
 20
-137.1561414587665
 97
        0
 97
        0
 92
        1
 93
        1
 72
     4
 94
        3
 73
     0
 74
     1
 95
       20
 96
       16
 40
0.0
 40
0.0
 40
0.0
 40
0.0
 40
1.0
 40
1.0
 40
1.0
 40
2.0
 40
2.0
 40
2.0
 40
3.0
 40
3.0
 40
3.0
 40
4.0
 40
4.0
 40
4.0
 40
5.0
 40
5.0
 40
5.0
 40
5.0
 10
79.23065047932428
 20
-135.8232340155234
 10
79.23065047932428
 20
-135.8232340155234
 10
78.78640541650132
 20
-135.8232340155234
 10
78.78640541650132
 20
-135.8232340155234
 10
78.78640541650132
 20
-135.8232340155234
 10
78.78640541650132
 20
-136.3034803261672
 10
78.78640541650132
 20
-136.3034803261672
 10
78.78640541650132
 20
-136.3034803261672
 10
79.22858342203314
 20
-136.3034803261672
 10
79.22858342203314
 20
-136.3034803261672
 10
79.32797442678259
 20
-136.3034803261672
 10
79.46336667935292
 20
-136.2273437159432
 10
79.46336667935292
 20
-136.0561224703262
 10
79.46336667935292
 20
-135.9779188028111
 10
79.4294324888232
 20
-135.8232340155234
 10
79.23065047932428
 20
-135.8232340155234
 97
        0
 97
        0
 75
     2
 76
     1
 98
        0
  0
ENDBLK
  5
7E
330
7B
100
AcDbEntity
  8
0
100
AcDbBlockEnd
  0
BLOCK
  5
90
330
8E
100
AcDbEntity
  8
0
100
AcDbBlockBegin
  2
block 3
 70
     0
 10
0.0
 20
0.0
 30
0.0
  3
block 3
  1

  0
SPLINE
  5
92
330
8E
100
AcDbEntity
  8
_U+30EC_U+30A4_U+30E4_U+30FC 1
370
     0
100
AcDbSpline
210
0.0
220
0.0
230
1.0
 70
    11
 71
     3
 72
    26
 73
    22
 74
     0
 42
0.0000000001
 43
0.0000000001
 12
1.0
 22
0.0
 32
0.0
 13
1.0
 23
0.0
 33
0.0
 40
0.0
 40
0.0
 40
0.0
 40
0.0
 40
1.0
 40
1.0
 40
1.0
 40
2.0
 40
2.0
 40
2.0
 40
3.0
 40
3.0
 40
3.0
 40
4.0
 40
4.0
 40
4.0
 40
5.0
 40
5.0
 40
5.0
 40
6.0
 40
6.0
 40
6.0
 40
7.0
 40
7.0
 40
7.0
 40
7.0
 10
113.9930419636893
 20
-135.4783799574498
 30
0.0
 10
113.9930419636893
 20
-135.4783799574498
 30
0.0
 10
112.8888888606667
 20
-135.4783799574498
 30
0.0
 10
112.8888888606667
 20
-135.4783799574498
 30
0.0
 10
112.8888888606667
 20
-135.4783799574498
 30
0.0
 10
112.8888888606667
 20
-135.8084201049368
 30
0.0
 10
112.8888888606667
 20
-135.8084201049368
 30
0.0
 10
112.8888888606667
 20
-135.8084201049368
 30
0.0
 10
112.7407497548009
 20
-135.8084201049368
 30
0.0
 10
112.7407497548009
 20
-135.8084201049368
 30
0.0
 10
112.7259358442143
 20
-135.4763129001587
 30
0.0
 10
112.562982827762
 20
-135.4298041111078
 30
0.0
 10
112.4486056576517
 20
-135.4001762899347
 30
0.0
 10
112.4486056576517
 20
-135.4001762899347
 30
0.0
 10
112.4486056576517
 20
-135.2541042413601
 30
0.0
 10
112.4486056576517
 20
-135.2541042413601
 30
0.0
 10
112.4486056576517
 20
-135.2541042413601
 30
0.0
 10
113.9930419636893
 20
-135.2541042413601
 30
0.0
 10
113.9930419636893
 20
-135.2541042413601
 30
0.0
 10
113.9930419636893
 20
-135.2541042413601
 30
0.0
 10
113.9930419636893
 20
-135.4783799574498
 30
0.0
 10
113.9930419636893
 20
-135.4783799574498
 30
0.0
  0
HATCH
  5
93
330
8E
100
AcDbEntity
  8
_U+30EC_U+30A4_U+30E4_U+30FC 1
 62
   179
420
  2234388
100
AcDbHatch
 10
0.0
 20
0.0
 30
0.0
210
0.0
220
0.0
230
1.0
  2
SOLID
 70
     1
 71
     0
 91
        1
 92
        1
 93
        1
 72
     4
 94
        3
 73
     0
 74
     1
 95
       26
 96
       22
 40
0.0
 40
0.0
 40
0.0
 40
0.0
 40
1.0
 40
1.0
 40
1.0
 40
2.0
 40
2.0
 40
2.0
 40
3.0
 40
3.0
 40
3.0
 40
4.0
 40
4.0
 40
4.0
 40
5.0
 40
5.0
 40
5.0
 40
6.0
 40
6.0
 40
6.0
 40
7.0
 40
7.0
 40
7.0
 40
7.0
 10
113.9930419636893
 20
-135.4783799574498
 10
113.9930419636893
 20
-135.4783799574498
 10
112.8888888606667
 20
-135.4783799574498
 10
112.8888888606667
 20
-135.4783799574498
 10
112.8888888606667
 20
-135.4783799574498
 10
112.8888888606667
 20
-135.8084201049368
 10
112.8888888606667
 20
-135.8084201049368
 10
112.8888888606667
 20
-135.8084201049368
 10
112.7407497548009
 20
-135.8084201049368
 10
112.7407497548009
 20
-135.8084201049368
 10
112.7259358442143
 20
-135.4763129001587
 10
112.562982827762
 20
-135.4298041111078
 10
112.4486056576517
 20
-135.4001762899347
 10
112.4486056576517
 20
-135.4001762899347
 10
112.4486056576517
 20
-135.2541042413601
 10
112.4486056576517
 20
-135.2541042413601
 10
112.4486056576517
 20
-135.2541042413601
 10
113.9930419636893
 20
-135.2541042413601
 10
113.9930419636893
 20
-135.2541042413601
 10
113.9930419636893
 20
-135.2541042413601
 10
113.9930419636893
 20
-135.4783799574498
 10
113.9930419636893
 20
-135.4783799574498
 97
        0
 97
        0
 75
     2
 76
     1
 98
        0
  0
ENDBLK
  5
91
330
8E
100
AcDbEntity
  8
0
100
AcDbBlockEnd
  0
BLOCK
  5
9A
330
98
100
AcDbEntity
  8
0
100
AcDbBlockBegin
  2
block 4
 70
     0
 10
0.0
 20
0.0
 30
0.0
  3
block 4
  1

  0
SPLINE
  5
9C
330
98
100
AcDbEntity
  8
_U+30EC_U+30A4_U+30E4_U+30FC 1
370
     0
100
AcDbSpline
210
0.0
220
0.0
230
1.0
 70
    11
 71
     3
 72
    32
 73
    28
 74
     0
 42
0.0000000001
 43
0.0000000001
 12
1.0
 22
0.0
 32
0.0
 13
1.0
 23
0.0
 33
0.0
 40
0.0
 40
0.0
 40
0.0
 40
0.0
 40
1.0
 40
1.0
 40
1.0
 40
2.0
 40
2.0
 40
2.0
 40
3.0
 40
3.0
 40
3.0
 40
4.0
 40
4.0
 40
4.0
 40
5.0
 40
5.0
 40
5.0
 40
6.0
 40
6.0
 40
6.0
 40
7.0
 40
7.0
 40
7.0
 40
8.0
 40
8.0
 40
8.0
 40
9.0
 40
9.0
 40
9.0
 40
9.0
 10
114.0436848673224
 20
-144.0845729891525
 30
0.0
 10
114.0436848673224
 20
-144.2578612920605
 30
0.0
 10
113.9740939385204
 20
-144.5034966001589
 30
0.0
 10
113.6419867337423
 20
-144.5413926504966
 30
0.0
 10
113.6419867337423
 20
-144.5413926504966
 30
0.0
 10
113.6419867337423
 20
-144.3277967304111
 30
0.0
 10
113.6419867337423
 20
-144.3277967304111
 30
0.0
 10
113.7012423760886
 20
-144.3171169344068
 30
0.0
 10
113.8490369724058
 20
-144.2854220559425
 30
0.0
 10
113.8490369724058
 20
-144.0825059318613
 30
0.0
 10
113.8490369724058
 20
-143.7903618347121
 30
0.0
 10
113.5189968249189
 20
-143.7524657843744
 30
0.0
 10
113.3140136435465
 20
-143.739718931079
 30
0.0
 10
113.3942843683528
 20
-143.8306694518895
 30
0.0
 10
113.451472953408
 20
-143.8981933234004
 30
0.0
 10
113.451472953408
 20
-144.0800943650216
 30
0.0
 10
113.451472953408
 20
-144.2599283493517
 30
0.0
 10
113.3457085220108
 20
-144.5624077329566
 30
0.0
 10
112.9395317642998
 20
-144.5624077329566
 30
0.0
 10
112.6201714128172
 20
-144.5624077329566
 30
0.0
 10
112.4000298113097
 20
-144.3636257234577
 30
0.0
 10
112.4000298113097
 20
-144.0463324292662
 30
0.0
 10
112.4000298113097
 20
-143.5323241828669
 30
0.0
 10
112.9543456748864
 20
-143.5216443868626
 30
0.0
 10
113.1679415949719
 20
-143.5216443868626
 30
0.0
 10
113.3984184829351
 20
-143.5216443868626
 30
0.0
 10
114.0436848673224
 20
-143.5409369215801
 30
0.0
 10
114.0436848673224
 20
-144.0845729891525
 30
0.0
  0
SPLINE
  5
9D
330
98
100
AcDbEntity
  8
_U+30EC_U+30A4_U+30E4_U+30FC 1
370
     0
100
AcDbSpline
210
0.0
220
0.0
230
1.0
 70
    11
 71
     3
 72
    17
 73
    13
 74
     0
 42
0.0000000001
 43
0.0000000001
 12
1.0
 22
0.0
 32
0.0
 13
1.0
 23
0.0
 33
0.0
 40
0.0
 40
0.0
 40
0.0
 40
0.0
 40
1.0
 40
1.0
 40
1.0
 40
2.0
 40
2.0
 40
2.0
 40
3.0
 40
3.0
 40
3.0
 40
4.0
 40
4.0
 40
4.0
 40
4.0
 10
112.5926106489352
 20
-144.0442653719751
 30
0.0
 10
112.5926106489352
 20
-144.1627766566677
 30
0.0
 10
112.6497992339903
 20
-144.3384765264154
 30
0.0
 10
112.9353976497175
 20
-144.3384765264154
 30
0.0
 10
113.1617404230985
 20
-144.3384765264154
 30
0.0
 10
113.2568250584914
 20
-144.1986056497142
 30
0.0
 10
113.2568250584914
 20
-144.0632133971439
 30
0.0
 10
113.2568250584914
 20
-143.8010416307164
 30
0.0
 10
113.0473632529882
 20
-143.7628010708301
 30
0.0
 10
112.9309190255867
 20
-143.7628010708301
 30
0.0
 10
112.7555636653875
 20
-143.7628010708301
 30
0.0
 10
112.5926106489352
 20
-143.8582302157716
 30
0.0
 10
112.5926106489352
 20
-144.0442653719751
 30
0.0
  0
HATCH
  5
9E
330
98
100
AcDbEntity
  8
_U+30EC_U+30A4_U+30E4_U+30FC 1
 62
   179
420
  2234388
100
AcDbHatch
 10
0.0
 20
0.0
 30
0.0
210
0.0
220
0.0
230
1.0
  2
SOLID
 70
     1
 71
     0
 91
        2
 92
        1
 93
        1
 72
     4
 94
        3
 73
     0
 74
     1
 95
       32
 96
       28
 40
0.0
 40
0.0
 40
0.0
 40
0.0
 40
1.0
 40
1.0
 40
1.0
 40
2.0
 40
2.0
 40
2.0
 40
3.0
 40
3.0
 40
3.0
 40
4.0
 40
4.0
 40
4.0
 40
5.0
 40
5.0
 40
5.0
 40
6.0
 40
6.0
 40
6.0
 40
7.0
 40
7.0
 40
7.0
 40
8.0
 40
8.0
 40
8.0
 40
9.0
 40
9.0
 40
9.0
 40
9.0
 10
114.0436848673224
 20
-144.0845729891525
 10
114.0436848673224
 20
-144.2578612920605
 10
113.9740939385204
 20
-144.5034966001589
 10
113.6419867337423
 20
-144.5413926504966
 10
113.6419867337423
 20
-144.5413926504966
 10
113.6419867337423
 20
-144.3277967304111
 10
113.6419867337423
 20
-144.3277967304111
 10
113.7012423760886
 20
-144.3171169344068
 10
113.8490369724058
 20
-144.2854220559425
 10
113.8490369724058
 20
-144.0825059318613
 10
113.8490369724058
 20
-143.7903618347121
 10
113.5189968249189
 20
-143.7524657843744
 10
113.3140136435465
 20
-143.739718931079
 10
113.3942843683528
 20
-143.8306694518895
 10
113.451472953408
 20
-143.8981933234004
 10
113.451472953408
 20
-144.0800943650216
 10
113.451472953408
 20
-144.2599283493517
 10
113.3457085220108
 20
-144.5624077329566
 10
112.9395317642998
 20
-144.5624077329566
 10
112.6201714128172
 20
-144.5624077329566
 10
112.4000298113097
 20
-144.3636257234577
 10
112.4000298113097
 20
-144.0463324292662
 10
112.4000298113097
 20
-143.5323241828669
 10
112.9543456748864
 20
-143.5216443868626
 10
113.1679415949719
 20
-143.5216443868626
 10
113.3984184829351
 20
-143.5216443868626
 10
114.0436848673224
 20
-143.5409369215801
 10
114.0436848673224
 20
-144.0845729891525
 97
        0
 97
        0
 92
        1
 93
        1
 72
     4
 94
        3
 73
     0
 74
     1
 95
       17
 96
       13
 40
0.0
 40
0.0
 40
0.0
 40
0.0
 40
1.0
 40
1.0
 40
1.0
 40
2.0
 40
2.0
 40
2.0
 40
3.0
 40
3.0
 40
3.0
 40
4.0
 40
4.0
 40
4.0
 40
4.0
 10
112.5926106489352
 20
-144.0442653719751
 10
112.5926106489352
 20
-144.1627766566677
 10
112.6497992339903
 20
-144.3384765264154
 10
112.9353976497175
 20
-144.3384765264154
 10
113.1617404230985
 20
-144.3384765264154
 10
113.2568250584914
 20
-144.1986056497142
 10
113.2568250584914
 20
-144.0632133971439
 10
113.2568250584914
 20
-143.8010416307164
 10
113.0473632529882
 20
-143.7628010708301
 10
112.9309190255867
 20
-143.7628010708301
 10
112.7555636653875
 20
-143.7628010708301
 10
112.5926106489352
 20
-143.8582302157716
 10
112.5926106489352
 20
-144.0442653719751
 97
        0
 97
        0
 75
     2
 76
     1
 98
        0
  0
POLYLINE
  5
9F
330
98
100
AcDbEntity
  8
_U+30EC_U+30A4_U+30E4_U+30FC 1
370
     0
100
AcDb2dPolyline
 66
     1
 10
0.0
 20
0.0
 30
0.0
  0
VERTEX
  5
A0
330
9F
100
AcDbEntity
  8
_U+30EC_U+30A4_U+30E4_U+30FC 1
370
     0
100
AcDbVertex
100
AcDb2dVertex
 10
113.9930419636893
 20
-143.305292390389
 30
0.0
  0
VERTEX
  5
A1
330
9F
100
AcDbEntity
  8
_U+30EC_U+30A4_U+30E4_U+30FC 1
370
     0
100
AcDbVertex
100
AcDb2dVertex
 10
113.7412054837175
 20
-143.305292390389
 30
0.0
  0
VERTEX
  5
A2
330
9F
100
AcDbEntity
  8
_U+30EC_U+30A4_U+30E4_U+30FC 1
370
     0
100
AcDbVertex
100
AcDb2dVertex
 10
113.7412054837175
 20
-143.0534559104172
 30
0.0
  0
VERTEX
  5
A3
330
9F
100
AcDbEntity
  8
_U+30EC_U+30A4_U+30E4_U+30FC 1
370
     0
100
AcDbVertex
100
AcDb2dVertex
 10
113.9930419636893
 20
-143.0534559104172
 30
0.0
  0
VERTEX
  5
A4
330
9F
100
AcDbEntity
  8
_U+30EC_U+30A4_U+30E4_U+30FC 1
370
     0
100
AcDbVertex
100
AcDb2dVertex
 10
113.9930419636893
 20
-143.305292390389
 30
0.0
  0
SEQEND
  5
A5
330
9F
100
AcDbEntity
  8
_U+30EC_U+30A4_U+30E4_U+30FC 1
370
     0
  0
HATCH
  5
A6
330
98
100
AcDbEntity
  8
_U+30EC_U+30A4_U+30E4_U+30FC 1
 62
   179
420
  2234388
100
AcDbHatch
 10
0.0
 20
0.0
 30
0.0
210
0.0
220
0.0
230
1.0
  2
SOLID
 70
     1
 71
     0
 91
        1
 92
        1
 93
        4
 72
     1
 10
113.9930419636893
 20
-143.305292390389
 11
113.7412054837175
 21
-143.305292390389
 72
     1
 10
113.7412054837175
 20
-143.305292390389
 11
113.7412054837175
 21
-143.0534559104172
 72
     1
 10
113.7412054837175
 20
-143.0534559104172
 11
113.9930419636893
 21
-143.0534559104172
 72
     1
 10
113.9930419636893
 20
-143.0534559104172
 11
113.9930419636893
 21
-143.305292390389
 97
        0
 75
     2
 76
     1
 98
        0
  0
SPLINE
  5
A7
330
98
100
AcDbEntity
  8
_U+30EC_U+30A4_U+30E4_U+30FC 1
370
     0
100
AcDbSpline
210
0.0
220
0.0
230
1.0
 70
    11
 71
     3
 72
    53
 73
    49
 74
     0
 42
0.0000000001
 43
0.0000000001
 12
1.0
 22
0.0
 32
0.0
 13
1.0
 23
0.0
 33
0.0
 40
0.0
 40
0.0
 40
0.0
 40
0.0
 40
1.0
 40
1.0
 40
1.0
 40
2.0
 40
2.0
 40
2.0
 40
3.0
 40
3.0
 40
3.0
 40
4.0
 40
4.0
 40
4.0
 40
5.0
 40
5.0
 40
5.0
 40
6.0
 40
6.0
 40
6.0
 40
7.0
 40
7.0
 40
7.0
 40
8.0
 40
8.0
 40
8.0
 40
9.0
 40
9.0
 40
9.0
 40
10.0
 40
10.0
 40
10.0
 40
11.0
 40
11.0
 40
11.0
 40
12.0
 40
12.0
 40
12.0
 40
13.0
 40
13.0
 40
13.0
 40
14.0
 40
14.0
 40
14.0
 40
15.0
 40
15.0
 40
15.0
 40
16.0
 40
16.0
 40
16.0
 40
16.0
 10
114.0436848673224
 20
-142.3361870303882
 30
0.0
 10
114.0436848673224
 20
-142.4143906979033
 30
0.0
 10
114.0268038994447
 20
-142.5160210147182
 30
0.0
 10
113.9634141425161
 20
-142.6176513315331
 30
0.0
 10
113.8535155965366
 20
-142.7909396344412
 30
0.0
 10
113.7222574585486
 20
-142.8122992264497
 30
0.0
 10
113.6144259698603
 20
-142.8312472516186
 30
0.0
 10
113.6144259698603
 20
-142.8312472516186
 30
0.0
 10
113.6144259698603
 20
-142.60903859282
 30
0.0
 10
113.6144259698603
 20
-142.60903859282
 30
0.0
 10
113.8132079793592
 20
-142.5542615746045
 30
0.0
 10
113.8428358005324
 20
-142.4271375511988
 30
0.0
 10
113.8428358005324
 20
-142.334119973097
 30
0.0
 10
113.8428358005324
 20
-142.1945936059444
 30
0.0
 10
113.7432725410086
 20
-142.0423203854964
 30
0.0
 10
113.5107285957543
 20
-142.0423203854964
 30
0.0
 10
113.2547580012002
 20
-142.0423203854964
 30
0.0
 10
113.1848225628496
 20
-142.2221543698264
 30
0.0
 10
113.1848225628496
 20
-142.3427327118102
 30
0.0
 10
113.1848225628496
 20
-142.3744275902745
 30
0.0
 10
113.1848225628496
 20
-142.5160210147182
 30
0.0
 10
113.3140136435465
 20
-142.6049044782377
 30
0.0
 10
113.3140136435465
 20
-142.6049044782377
 30
0.0
 10
113.2950656183776
 20
-142.7806043479854
 30
0.0
 10
113.2950656183776
 20
-142.7806043479854
 30
0.0
 10
113.2950656183776
 20
-142.7806043479854
 30
0.0
 10
112.4486056576517
 20
-142.6600260060017
 30
0.0
 10
112.4486056576517
 20
-142.6600260060017
 30
0.0
 10
112.4486056576517
 20
-142.6600260060017
 30
0.0
 10
112.4486056576517
 20
-141.8814344263352
 30
0.0
 10
112.4486056576517
 20
-141.8814344263352
 30
0.0
 10
112.4486056576517
 20
-141.8814344263352
 30
0.0
 10
112.6432535525684
 20
-141.8814344263352
 30
0.0
 10
112.6432535525684
 20
-141.8814344263352
 30
0.0
 10
112.6432535525684
 20
-141.8814344263352
 30
0.0
 10
112.6432535525684
 20
-142.4970729895493
 30
0.0
 10
112.6432535525684
 20
-142.4970729895493
 30
0.0
 10
112.6432535525684
 20
-142.4970729895493
 30
0.0
 10
113.066311278157
 20
-142.5625298037691
 30
0.0
 10
113.066311278157
 20
-142.5625298037691
 30
0.0
 10
113.0325493424016
 20
-142.5012071041317
 30
0.0
 10
112.9922417252242
 20
-142.4188693220342
 30
0.0
 10
112.9922417252242
 20
-142.3003580373416
 30
0.0
 10
112.9922417252242
 20
-142.0464545000787
 30
0.0
 10
113.1786213909762
 20
-141.8094319306935
 30
0.0
 10
113.4917805705854
 20
-141.8094319306935
 30
0.0
 10
113.8090738647769
 20
-141.8094319306935
 30
0.0
 10
114.0436848673224
 20
-142.0337076467833
 30
0.0
 10
114.0436848673224
 20
-142.3361870303882
 30
0.0
  0
HATCH
  5
A8
330
98
100
AcDbEntity
  8
_U+30EC_U+30A4_U+30E4_U+30FC 1
 62
   179
420
  2234388
100
AcDbHatch
 10
0.0
 20
0.0
 30
0.0
210
0.0
220
0.0
230
1.0
  2
SOLID
 70
     1
 71
     0
 91
        1
 92
        1
 93
        1
 72
     4
 94
        3
 73
     0
 74
     1
 95
       53
 96
       49
 40
0.0
 40
0.0
 40
0.0
 40
0.0
 40
1.0
 40
1.0
 40
1.0
 40
2.0
 40
2.0
 40
2.0
 40
3.0
 40
3.0
 40
3.0
 40
4.0
 40
4.0
 40
4.0
 40
5.0
 40
5.0
 40
5.0
 40
6.0
 40
6.0
 40
6.0
 40
7.0
 40
7.0
 40
7.0
 40
8.0
 40
8.0
 40
8.0
 40
9.0
 40
9.0
 40
9.0
 40
10.0
 40
10.0
 40
10.0
 40
11.0
 40
11.0
 40
11.0
 40
12.0
 40
12.0
 40
12.0
 40
13.0
 40
13.0
 40
13.0
 40
14.0
 40
14.0
 40
14.0
 40
15.0
 40
15.0
 40
15.0
 40
16.0
 40
16.0
 40
16.0
 40
16.0
 10
114.0436848673224
 20
-142.3361870303882
 10
114.0436848673224
 20
-142.4143906979033
 10
114.0268038994447
 20
-142.5160210147182
 10
113.9634141425161
 20
-142.6176513315331
 10
113.8535155965366
 20
-142.7909396344412
 10
113.7222574585486
 20
-142.8122992264497
 10
113.6144259698603
 20
-142.8312472516186
 10
113.6144259698603
 20
-142.8312472516186
 10
113.6144259698603
 20
-142.60903859282
 10
113.6144259698603
 20
-142.60903859282
 10
113.8132079793592
 20
-142.5542615746045
 10
113.8428358005324
 20
-142.4271375511988
 10
113.8428358005324
 20
-142.334119973097
 10
113.8428358005324
 20
-142.1945936059444
 10
113.7432725410086
 20
-142.0423203854964
 10
113.5107285957543
 20
-142.0423203854964
 10
113.2547580012002
 20
-142.0423203854964
 10
113.1848225628496
 20
-142.2221543698264
 10
113.1848225628496
 20
-142.3427327118102
 10
113.1848225628496
 20
-142.3744275902745
 10
113.1848225628496
 20
-142.5160210147182
 10
113.3140136435465
 20
-142.6049044782377
 10
113.3140136435465
 20
-142.6049044782377
 10
113.2950656183776
 20
-142.7806043479854
 10
113.2950656183776
 20
-142.7806043479854
 10
113.2950656183776
 20
-142.7806043479854
 10
112.4486056576517
 20
-142.6600260060017
 10
112.4486056576517
 20
-142.6600260060017
 10
112.4486056576517
 20
-142.6600260060017
 10
112.4486056576517
 20
-141.8814344263352
 10
112.4486056576517
 20
-141.8814344263352
 10
112.4486056576517
 20
-141.8814344263352
 10
112.6432535525684
 20
-141.8814344263352
 10
112.6432535525684
 20
-141.8814344263352
 10
112.6432535525684
 20
-141.8814344263352
 10
112.6432535525684
 20
-142.4970729895493
 10
112.6432535525684
 20
-142.4970729895493
 10
112.6432535525684
 20
-142.4970729895493
 10
113.066311278157
 20
-142.5625298037691
 10
113.066311278157
 20
-142.5625298037691
 10
113.0325493424016
 20
-142.5012071041317
 10
112.9922417252242
 20
-142.4188693220342
 10
112.9922417252242
 20
-142.3003580373416
 10
112.9922417252242
 20
-142.0464545000787
 10
113.1786213909762
 20
-141.8094319306935
 10
113.4917805705854
 20
-141.8094319306935
 10
113.8090738647769
 20
-141.8094319306935
 10
114.0436848673224
 20
-142.0337076467833
 10
114.0436848673224
 20
-142.3361870303882
 97
        0
 97
        0
 75
     2
 76
     1
 98
        0
  0
ENDBLK
  5
9B
330
98
100
AcDbEntity
  8
0
100
AcDbBlockEnd
  0
BLOCK
  5
B3
330
B1
100
AcDbEntity
  8
0
100
AcDbBlockBegin
  2
block 5
 70
     0
 10
0.0
 20
0.0
 30
0.0
  3
block 5
  1

  0
SPLINE
  5
B5
330
B1
100
AcDbEntity
  8
_U+30EC_U+30A4_U+30E4_U+30FC 1
370
     0
100
AcDbSpline
210
0.0
220
0.0
230
1.0
 70
    11
 71
     3
 72
    32
 73
    28
 74
     0
 42
0.0000000001
 43
0.0000000001
 12
1.0
 22
0.0
 32
0.0
 13
1.0
 23
0.0
 33
0.0
 40
0.0
 40
0.0
 40
0.0
 40
0.0
 40
1.0
 40
1.0
 40
1.0
 40
2.0
 40
2.0
 40
2.0
 40
3.0
 40
3.0
 40
3.0
 40
4.0
 40
4.0
 40
4.0
 40
5.0
 40
5.0
 40
5.0
 40
6.0
 40
6.0
 40
6.0
 40
7.0
 40
7.0
 40
7.0
 40
8.0
 40
8.0
 40
8.0
 40
9.0
 40
9.0
 40
9.0
 40
9.0
 10
69.46225448567263
 20
-116.8347289746976
 30
0.0
 10
69.2887939279903
 20
-116.8347289746976
 30
0.0
 10
69.04333087466625
 20
-116.764793536347
 30
0.0
 10
69.00526256955425
 20
-116.4326863315689
 30
0.0
 10
69.00526256955425
 20
-116.4326863315689
 30
0.0
 10
69.21885848963973
 20
-116.4326863315689
 30
0.0
 10
69.21885848963973
 20
-116.4326863315689
 30
0.0
 10
69.22953828564401
 20
-116.4919419739152
 30
0.0
 10
69.2612331641083
 20
-116.640081079781
 30
0.0
 10
69.46432154296379
 20
-116.640081079781
 30
0.0
 10
69.75629338533871
 20
-116.640081079781
 30
0.0
 10
69.79436169045071
 20
-116.310040932294
 30
0.0
 10
69.80693628897188
 20
-116.1048854961474
 30
0.0
 10
69.71598576816129
 20
-116.1851562209537
 30
0.0
 10
69.64828964187612
 20
-116.2423448060089
 30
0.0
 10
69.46638860025493
 20
-116.2423448060089
 30
0.0
 10
69.2865546159249
 20
-116.2423448060089
 30
0.0
 10
68.98407523231995
 20
-116.1365803746117
 30
0.0
 10
68.98407523231995
 20
-115.7304036169007
 30
0.0
 10
68.98407523231995
 20
-115.4108710106438
 30
0.0
 10
69.18285724181887
 20
-115.1909016639106
 30
0.0
 10
69.50032279078465
 20
-115.1909016639106
 30
0.0
 10
70.01433103718392
 20
-115.1909016639106
 30
0.0
 10
70.02483857841393
 20
-115.7452175274873
 30
0.0
 10
70.02483857841393
 20
-115.9588134475728
 30
0.0
 10
70.02483857841393
 20
-116.1894625903103
 30
0.0
 10
70.00589055324505
 20
-116.8347289746976
 30
0.0
 10
69.46225448567263
 20
-116.8347289746976
 30
0.0
  0
SPLINE
  5
B6
330
B1
100
AcDbEntity
  8
_U+30EC_U+30A4_U+30E4_U+30FC 1
370
     0
100
AcDbSpline
210
0.0
220
0.0
230
1.0
 70
    11
 71
     3
 72
    17
 73
    13
 74
     0
 42
0.0000000001
 43
0.0000000001
 12
1.0
 22
0.0
 32
0.0
 13
1.0
 23
0.0
 33
0.0
 40
0.0
 40
0.0
 40
0.0
 40
0.0
 40
1.0
 40
1.0
 40
1.0
 40
2.0
 40
2.0
 40
2.0
 40
3.0
 40
3.0
 40
3.0
 40
4.0
 40
4.0
 40
4.0
 40
4.0
 10
69.5023898480758
 20
-115.3834825015361
 30
0.0
 10
69.3838785633832
 20
-115.3834825015361
 30
0.0
 10
69.20835094840972
 20
-115.440498831817
 30
0.0
 10
69.20835094840972
 20
-115.7260972475442
 30
0.0
 10
69.20835094840972
 20
-115.9524400209251
 30
0.0
 10
69.34787731556234
 20
-116.0476969110922
 30
0.0
 10
69.48326956813266
 20
-116.0476969110922
 30
0.0
 10
69.74561358933444
 20
-116.0476969110922
 30
0.0
 10
69.78368189444645
 20
-115.8382351055891
 30
0.0
 10
69.78368189444645
 20
-115.7219631329619
 30
0.0
 10
69.78368189444645
 20
-115.5462632632141
 30
0.0
 10
69.68859725905355
 20
-115.3834825015361
 30
0.0
 10
69.5023898480758
 20
-115.3834825015361
 30
0.0
  0
HATCH
  5
B7
330
B1
100
AcDbEntity
  8
_U+30EC_U+30A4_U+30E4_U+30FC 1
 62
   179
420
  2234388
100
AcDbHatch
 10
0.0
 20
0.0
 30
0.0
210
0.0
220
0.0
230
1.0
  2
SOLID
 70
     1
 71
     0
 91
        2
 92
        1
 93
        1
 72
     4
 94
        3
 73
     0
 74
     1
 95
       32
 96
       28
 40
0.0
 40
0.0
 40
0.0
 40
0.0
 40
1.0
 40
1.0
 40
1.0
 40
2.0
 40
2.0
 40
2.0
 40
3.0
 40
3.0
 40
3.0
 40
4.0
 40
4.0
 40
4.0
 40
5.0
 40
5.0
 40
5.0
 40
6.0
 40
6.0
 40
6.0
 40
7.0
 40
7.0
 40
7.0
 40
8.0
 40
8.0
 40
8.0
 40
9.0
 40
9.0
 40
9.0
 40
9.0
 10
69.46225448567263
 20
-116.8347289746976
 10
69.2887939279903
 20
-116.8347289746976
 10
69.04333087466625
 20
-116.764793536347
 10
69.00526256955425
 20
-116.4326863315689
 10
69.00526256955425
 20
-116.4326863315689
 10
69.21885848963973
 20
-116.4326863315689
 10
69.21885848963973
 20
-116.4326863315689
 10
69.22953828564401
 20
-116.4919419739152
 10
69.2612331641083
 20
-116.640081079781
 10
69.46432154296379
 20
-116.640081079781
 10
69.75629338533871
 20
-116.640081079781
 10
69.79436169045071
 20
-116.310040932294
 10
69.80693628897188
 20
-116.1048854961474
 10
69.71598576816129
 20
-116.1851562209537
 10
69.64828964187612
 20
-116.2423448060089
 10
69.46638860025493
 20
-116.2423448060089
 10
69.2865546159249
 20
-116.2423448060089
 10
68.98407523231995
 20
-116.1365803746117
 10
68.98407523231995
 20
-115.7304036169007
 10
68.98407523231995
 20
-115.4108710106438
 10
69.18285724181887
 20
-115.1909016639106
 10
69.50032279078465
 20
-115.1909016639106
 10
70.01433103718392
 20
-115.1909016639106
 10
70.02483857841393
 20
-115.7452175274873
 10
70.02483857841393
 20
-115.9588134475728
 10
70.02483857841393
 20
-116.1894625903103
 10
70.00589055324505
 20
-116.8347289746976
 10
69.46225448567263
 20
-116.8347289746976
 97
        0
 97
        0
 92
        1
 93
        1
 72
     4
 94
        3
 73
     0
 74
     1
 95
       17
 96
       13
 40
0.0
 40
0.0
 40
0.0
 40
0.0
 40
1.0
 40
1.0
 40
1.0
 40
2.0
 40
2.0
 40
2.0
 40
3.0
 40
3.0
 40
3.0
 40
4.0
 40
4.0
 40
4.0
 40
4.0
 10
69.5023898480758
 20
-115.3834825015361
 10
69.3838785633832
 20
-115.3834825015361
 10
69.20835094840972
 20
-115.440498831817
 10
69.20835094840972
 20
-115.7260972475442
 10
69.20835094840972
 20
-115.9524400209251
 10
69.34787731556234
 20
-116.0476969110922
 10
69.48326956813266
 20
-116.0476969110922
 10
69.74561358933444
 20
-116.0476969110922
 10
69.78368189444645
 20
-115.8382351055891
 10
69.78368189444645
 20
-115.7219631329619
 10
69.78368189444645
 20
-115.5462632632141
 10
69.68859725905355
 20
-115.3834825015361
 10
69.5023898480758
 20
-115.3834825015361
 97
        0
 97
        0
 75
     2
 76
     1
 98
        0
  0
POLYLINE
  5
B8
330
B1
100
AcDbEntity
  8
_U+30EC_U+30A4_U+30E4_U+30FC 1
370
     0
100
AcDb2dPolyline
 66
     1
 10
0.0
 20
0.0
 30
0.0
  0
VERTEX
  5
B9
330
B8
100
AcDbEntity
  8
_U+30EC_U+30A4_U+30E4_U+30FC 1
370
     0
100
AcDbVertex
100
AcDb2dVertex
 10
70.24136282966188
 20
-116.7839138162901
 30
0.0
  0
VERTEX
  5
BA
330
B8
100
AcDbEntity
  8
_U+30EC_U+30A4_U+30E4_U+30FC 1
370
     0
100
AcDbVertex
100
AcDb2dVertex
 10
70.24136282966188
 20
-116.5322495910926
 30
0.0
  0
VERTEX
  5
BB
330
B8
100
AcDbEntity
  8
_U+30EC_U+30A4_U+30E4_U+30FC 1
370
     0
100
AcDbVertex
100
AcDb2dVertex
 10
70.49302705485938
 20
-116.5322495910926
 30
0.0
  0
VERTEX
  5
BC
330
B8
100
AcDbEntity
  8
_U+30EC_U+30A4_U+30E4_U+30FC 1
370
     0
100
AcDbVertex
100
AcDb2dVertex
 10
70.49302705485938
 20
-116.7839138162901
 30
0.0
  0
VERTEX
  5
BD
330
B8
100
AcDbEntity
  8
_U+30EC_U+30A4_U+30E4_U+30FC 1
370
     0
100
AcDbVertex
100
AcDb2dVertex
 10
70.24136282966188
 20
-116.7839138162901
 30
0.0
  0
SEQEND
  5
BE
330
B8
100
AcDbEntity
  8
_U+30EC_U+30A4_U+30E4_U+30FC 1
370
     0
  0
HATCH
  5
BF
330
B1
100
AcDbEntity
  8
_U+30EC_U+30A4_U+30E4_U+30FC 1
 62
   179
420
  2234388
100
AcDbHatch
 10
0.0
 20
0.0
 30
0.0
210
0.0
220
0.0
230
1.0
  2
SOLID
 70
     1
 71
     0
 91
        1
 92
        1
 93
        4
 72
     1
 10
70.24136282966188
 20
-116.7839138162901
 11
70.24136282966188
 21
-116.5322495910926
 72
     1
 10
70.24136282966188
 20
-116.5322495910926
 11
70.49302705485938
 21
-116.5322495910926
 72
     1
 10
70.49302705485938
 20
-116.5322495910926
 11
70.49302705485938
 21
-116.7839138162901
 72
     1
 10
70.49302705485938
 20
-116.7839138162901
 11
70.24136282966188
 21
-116.7839138162901
 97
        0
 75
     2
 76
     1
 98
        0
  0
SPLINE
  5
C0
330
B1
100
AcDbEntity
  8
_U+30EC_U+30A4_U+30E4_U+30FC 1
370
     0
100
AcDbSpline
210
0.0
220
0.0
230
1.0
 70
    11
 71
     3
 72
    53
 73
    49
 74
     0
 42
0.0000000001
 43
0.0000000001
 12
1.0
 22
0.0
 32
0.0
 13
1.0
 23
0.0
 33
0.0
 40
0.0
 40
0.0
 40
0.0
 40
0.0
 40
1.0
 40
1.0
 40
1.0
 40
2.0
 40
2.0
 40
2.0
 40
3.0
 40
3.0
 40
3.0
 40
4.0
 40
4.0
 40
4.0
 40
5.0
 40
5.0
 40
5.0
 40
6.0
 40
6.0
 40
6.0
 40
7.0
 40
7.0
 40
7.0
 40
8.0
 40
8.0
 40
8.0
 40
9.0
 40
9.0
 40
9.0
 40
10.0
 40
10.0
 40
10.0
 40
11.0
 40
11.0
 40
11.0
 40
12.0
 40
12.0
 40
12.0
 40
13.0
 40
13.0
 40
13.0
 40
14.0
 40
14.0
 40
14.0
 40
15.0
 40
15.0
 40
15.0
 40
16.0
 40
16.0
 40
16.0
 40
16.0
 10
71.21046818966266
 20
-116.8347289746976
 30
0.0
 10
71.13209226737322
 20
-116.8347289746976
 30
0.0
 10
71.03063420533262
 20
-116.8176757520456
 30
0.0
 10
70.92900388851776
 20
-116.754285995117
 30
0.0
 10
70.75554333083542
 20
-116.6442151943633
 30
0.0
 10
70.73435599360114
 20
-116.5131293111495
 30
0.0
 10
70.71540796843226
 20
-116.4052978224612
 30
0.0
 10
70.71540796843226
 20
-116.4052978224612
 30
0.0
 10
70.93744437245661
 20
-116.4052978224612
 30
0.0
 10
70.93744437245661
 20
-116.4052978224612
 30
0.0
 10
70.99256590022061
 20
-116.6040798319601
 30
0.0
 10
71.11951766885207
 20
-116.6337076531332
 30
0.0
 10
71.21253524695382
 20
-116.6337076531332
 30
0.0
 10
71.35206161410643
 20
-116.6337076531332
 30
0.0
 10
71.50450708932874
 20
-116.5343166483838
 30
0.0
 10
71.50450708932874
 20
-116.3016004483552
 30
0.0
 10
71.50450708932874
 20
-116.0456298538011
 30
0.0
 10
71.3246731049987
 20
-115.9758666702248
 30
0.0
 10
71.20409476301495
 20
-115.9758666702248
 30
0.0
 10
71.17239988455066
 20
-115.9758666702248
 30
0.0
 10
71.03063420533262
 20
-115.9758666702248
 30
0.0
 10
70.94175074181318
 20
-116.1048854961474
 30
0.0
 10
70.94175074181318
 20
-116.1048854961474
 30
0.0
 10
70.76622312683969
 20
-116.0857652162043
 30
0.0
 10
70.76622312683969
 20
-116.0857652162043
 30
0.0
 10
70.76622312683969
 20
-116.0857652162043
 30
0.0
 10
70.88680146882344
 20
-115.2396497650269
 30
0.0
 10
70.88680146882344
 20
-115.2396497650269
 30
0.0
 10
70.88680146882344
 20
-115.2396497650269
 30
0.0
 10
71.66522079371565
 20
-115.2396497650269
 30
0.0
 10
71.66522079371565
 20
-115.2396497650269
 30
0.0
 10
71.66522079371565
 20
-115.2396497650269
 30
0.0
 10
71.66522079371565
 20
-115.4342976599435
 30
0.0
 10
71.66522079371565
 20
-115.4342976599435
 30
0.0
 10
71.66522079371565
 20
-115.4342976599435
 30
0.0
 10
71.0495822305015
 20
-115.4342976599435
 30
0.0
 10
71.0495822305015
 20
-115.4342976599435
 30
0.0
 10
71.0495822305015
 20
-115.4342976599435
 30
0.0
 10
70.98412541628176
 20
-115.8573553855322
 30
0.0
 10
70.98412541628176
 20
-115.8573553855322
 30
0.0
 10
71.0454481159192
 20
-115.8234211950025
 30
0.0
 10
71.12795815279092
 20
-115.7832858325993
 30
0.0
 10
71.24629718270926
 20
-115.7832858325993
 30
0.0
 10
71.50020071997217
 20
-115.7832858325993
 30
0.0
 10
71.73722328935736
 20
-115.9694932435771
 30
0.0
 10
71.73722328935736
 20
-116.282480168412
 30
0.0
 10
71.73722328935736
 20
-116.5999457173778
 30
0.0
 10
71.5129475732676
 20
-116.8347289746976
 30
0.0
 10
71.21046818966266
 20
-116.8347289746976
 30
0.0
  0
HATCH
  5
C1
330
B1
100
AcDbEntity
  8
_U+30EC_U+30A4_U+30E4_U+30FC 1
 62
   179
420
  2234388
100
AcDbHatch
 10
0.0
 20
0.0
 30
0.0
210
0.0
220
0.0
230
1.0
  2
SOLID
 70
     1
 71
     0
 91
        1
 92
        1
 93
        1
 72
     4
 94
        3
 73
     0
 74
     1
 95
       53
 96
       49
 40
0.0
 40
0.0
 40
0.0
 40
0.0
 40
1.0
 40
1.0
 40
1.0
 40
2.0
 40
2.0
 40
2.0
 40
3.0
 40
3.0
 40
3.0
 40
4.0
 40
4.0
 40
4.0
 40
5.0
 40
5.0
 40
5.0
 40
6.0
 40
6.0
 40
6.0
 40
7.0
 40
7.0
 40
7.0
 40
8.0
 40
8.0
 40
8.0
 40
9.0
 40
9.0
 40
9.0
 40
10.0
 40
10.0
 40
10.0
 40
11.0
 40
11.0
 40
11.0
 40
12.0
 40
12.0
 40
12.0
 40
13.0
 40
13.0
 40
13.0
 40
14.0
 40
14.0
 40
14.0
 40
15.0
 40
15.0
 40
15.0
 40
16.0
 40
16.0
 40
16.0
 40
16.0
 10
71.21046818966266
 20
-116.8347289746976
 10
71.13209226737322
 20
-116.8347289746976
 10
71.03063420533262
 20
-116.8176757520456
 10
70.92900388851776
 20
-116.754285995117
 10
70.75554333083542
 20
-116.6442151943633
 10
70.73435599360114
 20
-116.5131293111495
 10
70.71540796843226
 20
-116.4052978224612
 10
70.71540796843226
 20
-116.4052978224612
 10
70.93744437245661
 20
-116.4052978224612
 10
70.93744437245661
 20
-116.4052978224612
 10
70.99256590022061
 20
-116.6040798319601
 10
71.11951766885207
 20
-116.6337076531332
 10
71.21253524695382
 20
-116.6337076531332
 10
71.35206161410643
 20
-116.6337076531332
 10
71.50450708932874
 20
-116.5343166483838
 10
71.50450708932874
 20
-116.3016004483552
 10
71.50450708932874
 20
-116.0456298538011
 10
71.3246731049987
 20
-115.9758666702248
 10
71.20409476301495
 20
-115.9758666702248
 10
71.17239988455066
 20
-115.9758666702248
 10
71.03063420533262
 20
-115.9758666702248
 10
70.94175074181318
 20
-116.1048854961474
 10
70.94175074181318
 20
-116.1048854961474
 10
70.76622312683969
 20
-116.0857652162043
 10
70.76622312683969
 20
-116.0857652162043
 10
70.76622312683969
 20
-116.0857652162043
 10
70.88680146882344
 20
-115.2396497650269
 10
70.88680146882344
 20
-115.2396497650269
 10
70.88680146882344
 20
-115.2396497650269
 10
71.66522079371565
 20
-115.2396497650269
 10
71.66522079371565
 20
-115.2396497650269
 10
71.66522079371565
 20
-115.2396497650269
 10
71.66522079371565
 20
-115.4342976599435
 10
71.66522079371565
 20
-115.4342976599435
 10
71.66522079371565
 20
-115.4342976599435
 10
71.0495822305015
 20
-115.4342976599435
 10
71.0495822305015
 20
-115.4342976599435
 10
71.0495822305015
 20
-115.4342976599435
 10
70.98412541628176
 20
-115.8573553855322
 10
70.98412541628176
 20
-115.8573553855322
 10
71.0454481159192
 20
-115.8234211950025
 10
71.12795815279092
 20
-115.7832858325993
 10
71.24629718270926
 20
-115.7832858325993
 10
71.50020071997217
 20
-115.7832858325993
 10
71.73722328935736
 20
-115.9694932435771
 10
71.73722328935736
 20
-116.282480168412
 10
71.73722328935736
 20
-116.5999457173778
 10
71.5129475732676
 20
-116.8347289746976
 10
71.21046818966266
 20
-116.8347289746976
 97
        0
 97
        0
 75
     2
 76
     1
 98
        0
  0
ENDBLK
  5
B4
330
B1
100
AcDbEntity
  8
0
100
AcDbBlockEnd
  0
BLOCK
  5
D0
330
CE
100
AcDbEntity
  8
0
100
AcDbBlockBegin
  2
block 6
 70
     0
 10
0.0
 20
0.0
 30
0.0
  3
block 6
  1

  0
SPLINE
  5
D2
330
CE
100
AcDbEntity
  8
_U+30EC_U+30A4_U+30E4_U+30FC 1
370
     0
100
AcDbSpline
210
0.0
220
0.0
230
1.0
 70
    11
 71
     3
 72
    44
 73
    40
 74
     0
 42
0.0000000001
 43
0.0000000001
 12
1.0
 22
0.0
 32
0.0
 13
1.0
 23
0.0
 33
0.0
 40
0.0
 40
0.0
 40
0.0
 40
0.0
 40
1.0
 40
1.0
 40
1.0
 40
2.0
 40
2.0
 40
2.0
 40
3.0
 40
3.0
 40
3.0
 40
4.0
 40
4.0
 40
4.0
 40
5.0
 40
5.0
 40
5.0
 40
6.0
 40
6.0
 40
6.0
 40
7.0
 40
7.0
 40
7.0
 40
8.0
 40
8.0
 40
8.0
 40
9.0
 40
9.0
 40
9.0
 40
10.0
 40
10.0
 40
10.0
 40
11.0
 40
11.0
 40
11.0
 40
12.0
 40
12.0
 40
12.0
 40
13.0
 40
13.0
 40
13.0
 40
13.0
 10
100.1217095018793
 20
-150.8045762426808
 30
0.0
 10
99.90397946721151
 20
-150.9633951445508
 30
0.0
 10
99.81096188910976
 20
-151.0374646974837
 30
0.0
 10
99.76204153321922
 20
-151.1811251792186
 30
0.0
 10
99.76204153321922
 20
-151.1811251792186
 30
0.0
 10
100.5406331128857
 20
-151.1811251792186
 30
0.0
 10
100.5406331128857
 20
-151.1811251792186
 30
0.0
 10
100.5406331128857
 20
-151.1811251792186
 30
0.0
 10
100.5406331128857
 20
-151.3864528701395
 30
0.0
 10
100.5406331128857
 20
-151.3864528701395
 30
0.0
 10
100.5406331128857
 20
-151.3864528701395
 30
0.0
 10
99.51261662008713
 20
-151.3864528701395
 30
0.0
 10
99.51261662008713
 20
-151.3864528701395
 30
0.0
 10
99.54431149855142
 20
-151.0288519587706
 30
0.0
 10
99.60976831277118
 20
-150.9506482912554
 30
0.0
 10
99.99492998802211
 20
-150.6523030222328
 30
0.0
 10
100.2509005825762
 20
-150.4535210127339
 30
0.0
 10
100.3163573967959
 20
-150.3856526316744
 30
0.0
 10
100.3163573967959
 20
-150.2481933218129
 30
0.0
 10
100.3163573967959
 20
-150.1296820371204
 30
0.0
 10
100.2443549011542
 20
-149.9987684086809
 30
0.0
 10
100.0476399489464
 20
-149.9987684086809
 30
0.0
 10
99.78753523981007
 20
-149.9987684086809
 30
0.0
 10
99.77926701064547
 20
-150.2292452966441
 30
0.0
 10
99.77478838651464
 20
-150.3456895240455
 30
0.0
 10
99.77478838651464
 20
-150.3456895240455
 30
0.0
 10
99.55051267042488
 20
-150.3456895240455
 30
0.0
 10
99.55051267042488
 20
-150.3456895240455
 30
0.0
 10
99.559125409138
 20
-150.2185655006398
 30
0.0
 10
99.56980520514227
 20
-150.1065998973692
 30
0.0
 10
99.6500759299486
 20
-149.9880886126766
 30
0.0
 10
99.75997447592806
 20
-149.8272026535154
 30
0.0
 10
99.94635414168009
 20
-149.79344071776
 30
0.0
 10
100.062453859533
 20
-149.79344071776
 30
0.0
 10
100.3397840460956
 20
-149.79344071776
 30
0.0
 10
100.5471787943077
 20
-149.9774088166723
 30
0.0
 10
100.5471787943077
 20
-150.2502603791041
 30
0.0
 10
100.5471787943077
 20
-150.4790147193247
 30
0.0
 10
100.4307345669062
 20
-150.5782334692999
 30
0.0
 10
100.1217095018793
 20
-150.8045762426808
 30
0.0
  0
HATCH
  5
D3
330
CE
100
AcDbEntity
  8
_U+30EC_U+30A4_U+30E4_U+30FC 1
 62
   179
420
  2234388
100
AcDbHatch
 10
0.0
 20
0.0
 30
0.0
210
0.0
220
0.0
230
1.0
  2
SOLID
 70
     1
 71
     0
 91
        1
 92
        1
 93
        1
 72
     4
 94
        3
 73
     0
 74
     1
 95
       44
 96
       40
 40
0.0
 40
0.0
 40
0.0
 40
0.0
 40
1.0
 40
1.0
 40
1.0
 40
2.0
 40
2.0
 40
2.0
 40
3.0
 40
3.0
 40
3.0
 40
4.0
 40
4.0
 40
4.0
 40
5.0
 40
5.0
 40
5.0
 40
6.0
 40
6.0
 40
6.0
 40
7.0
 40
7.0
 40
7.0
 40
8.0
 40
8.0
 40
8.0
 40
9.0
 40
9.0
 40
9.0
 40
10.0
 40
10.0
 40
10.0
 40
11.0
 40
11.0
 40
11.0
 40
12.0
 40
12.0
 40
12.0
 40
13.0
 40
13.0
 40
13.0
 40
13.0
 10
100.1217095018793
 20
-150.8045762426808
 10
99.90397946721151
 20
-150.9633951445508
 10
99.81096188910976
 20
-151.0374646974837
 10
99.76204153321922
 20
-151.1811251792186
 10
99.76204153321922
 20
-151.1811251792186
 10
100.5406331128857
 20
-151.1811251792186
 10
100.5406331128857
 20
-151.1811251792186
 10
100.5406331128857
 20
-151.1811251792186
 10
100.5406331128857
 20
-151.3864528701395
 10
100.5406331128857
 20
-151.3864528701395
 10
100.5406331128857
 20
-151.3864528701395
 10
99.51261662008713
 20
-151.3864528701395
 10
99.51261662008713
 20
-151.3864528701395
 10
99.54431149855142
 20
-151.0288519587706
 10
99.60976831277118
 20
-150.9506482912554
 10
99.99492998802211
 20
-150.6523030222328
 10
100.2509005825762
 20
-150.4535210127339
 10
100.3163573967959
 20
-150.3856526316744
 10
100.3163573967959
 20
-150.2481933218129
 10
100.3163573967959
 20
-150.1296820371204
 10
100.2443549011542
 20
-149.9987684086809
 10
100.0476399489464
 20
-149.9987684086809
 10
99.78753523981007
 20
-149.9987684086809
 10
99.77926701064547
 20
-150.2292452966441
 10
99.77478838651464
 20
-150.3456895240455
 10
99.77478838651464
 20
-150.3456895240455
 10
99.55051267042488
 20
-150.3456895240455
 10
99.55051267042488
 20
-150.3456895240455
 10
99.559125409138
 20
-150.2185655006398
 10
99.56980520514227
 20
-150.1065998973692
 10
99.6500759299486
 20
-149.9880886126766
 10
99.75997447592806
 20
-149.8272026535154
 10
99.94635414168009
 20
-149.79344071776
 10
100.062453859533
 20
-149.79344071776
 10
100.3397840460956
 20
-149.79344071776
 10
100.5471787943077
 20
-149.9774088166723
 10
100.5471787943077
 20
-150.2502603791041
 10
100.5471787943077
 20
-150.4790147193247
 10
100.4307345669062
 20
-150.5782334692999
 10
100.1217095018793
 20
-150.8045762426808
 97
        0
 97
        0
 75
     2
 76
     1
 98
        0
  0
SPLINE
  5
D4
330
CE
100
AcDbEntity
  8
_U+30EC_U+30A4_U+30E4_U+30FC 1
370
     0
100
AcDbSpline
210
0.0
220
0.0
230
1.0
 70
    11
 71
     3
 72
    29
 73
    25
 74
     0
 42
0.0000000001
 43
0.0000000001
 12
1.0
 22
0.0
 32
0.0
 13
1.0
 23
0.0
 33
0.0
 40
0.0
 40
0.0
 40
0.0
 40
0.0
 40
1.0
 40
1.0
 40
1.0
 40
2.0
 40
2.0
 40
2.0
 40
3.0
 40
3.0
 40
3.0
 40
4.0
 40
4.0
 40
4.0
 40
5.0
 40
5.0
 40
5.0
 40
6.0
 40
6.0
 40
6.0
 40
7.0
 40
7.0
 40
7.0
 40
8.0
 40
8.0
 40
8.0
 40
8.0
 10
101.6034450700853
 20
-151.2086859431006
 30
0.0
 10
101.4952690718484
 20
-151.4181477486038
 30
0.0
 10
101.3219807689403
 20
-151.4370957737727
 30
0.0
 10
101.2055365415389
 20
-151.4370957737727
 30
0.0
 10
101.0446505823777
 20
-151.4370957737727
 30
0.0
 10
100.903057157934
 20
-151.3905869847218
 30
0.0
 10
100.8079725225411
 20
-151.2086859431006
 30
0.0
 10
100.704275148435
 20
-151.014038048184
 30
0.0
 10
100.6853271232662
 20
-150.7773599883473
 30
0.0
 10
100.6853271232662
 20
-150.614406971895
 30
0.0
 10
100.6853271232662
 20
-150.4704019806116
 30
0.0
 10
100.7022080911439
 20
-150.2185655006398
 30
0.0
 10
100.8079725225411
 20
-150.0197834911409
 30
0.0
 10
100.9158040112294
 20
-149.8168673670597
 30
0.0
 10
101.0766899703906
 20
-149.79344071776
 30
0.0
 10
101.2055365415389
 20
-149.79344071776
 30
0.0
 10
101.3643554434089
 20
-149.79344071776
 30
0.0
 10
101.5080159251438
 20
-149.8378824495197
 30
0.0
 10
101.6034450700853
 20
-150.0197834911409
 30
0.0
 10
101.7026638200605
 20
-150.2123643287664
 30
0.0
 10
101.7260904693601
 20
-150.4407741594384
 30
0.0
 10
101.7260904693601
 20
-150.614406971895
 30
0.0
 10
101.7260904693601
 20
-150.7856282175119
 30
0.0
 10
101.7047308773516
 20
-151.0161051054751
 30
0.0
 10
101.6034450700853
 20
-151.2086859431006
 30
0.0
  0
SPLINE
  5
D5
330
CE
100
AcDbEntity
  8
_U+30EC_U+30A4_U+30E4_U+30FC 1
370
     0
100
AcDbSpline
210
0.0
220
0.0
230
1.0
 70
    11
 71
     3
 72
    17
 73
    13
 74
     0
 42
0.0000000001
 43
0.0000000001
 12
1.0
 22
0.0
 32
0.0
 13
1.0
 23
0.0
 33
0.0
 40
0.0
 40
0.0
 40
0.0
 40
0.0
 40
1.0
 40
1.0
 40
1.0
 40
2.0
 40
2.0
 40
2.0
 40
3.0
 40
3.0
 40
3.0
 40
4.0
 40
4.0
 40
4.0
 40
4.0
 10
101.2055365415389
 20
-149.9860215553854
 30
0.0
 10
100.9561116284068
 20
-149.9860215553854
 30
0.0
 10
100.9092583298074
 20
-150.2695529138215
 30
0.0
 10
100.9092583298074
 20
-150.614406971895
 30
0.0
 10
100.9092583298074
 20
-150.9337673233777
 30
0.0
 10
100.9454318324025
 20
-151.2424478788561
 30
0.0
 10
101.2055365415389
 20
-151.2424478788561
 30
0.0
 10
101.4532389069284
 20
-151.2424478788561
 30
0.0
 10
101.5018147532704
 20
-150.9613280872597
 30
0.0
 10
101.5018147532704
 20
-150.614406971895
 30
0.0
 10
101.5018147532704
 20
-150.2947021108638
 30
0.0
 10
101.4635741933841
 20
-149.9860215553854
 30
0.0
 10
101.2055365415389
 20
-149.9860215553854
 30
0.0
  0
HATCH
  5
D6
330
CE
100
AcDbEntity
  8
_U+30EC_U+30A4_U+30E4_U+30FC 1
 62
   179
420
  2234388
100
AcDbHatch
 10
0.0
 20
0.0
 30
0.0
210
0.0
220
0.0
230
1.0
  2
SOLID
 70
     1
 71
     0
 91
        2
 92
        1
 93
        1
 72
     4
 94
        3
 73
     0
 74
     1
 95
       29
 96
       25
 40
0.0
 40
0.0
 40
0.0
 40
0.0
 40
1.0
 40
1.0
 40
1.0
 40
2.0
 40
2.0
 40
2.0
 40
3.0
 40
3.0
 40
3.0
 40
4.0
 40
4.0
 40
4.0
 40
5.0
 40
5.0
 40
5.0
 40
6.0
 40
6.0
 40
6.0
 40
7.0
 40
7.0
 40
7.0
 40
8.0
 40
8.0
 40
8.0
 40
8.0
 10
101.6034450700853
 20
-151.2086859431006
 10
101.4952690718484
 20
-151.4181477486038
 10
101.3219807689403
 20
-151.4370957737727
 10
101.2055365415389
 20
-151.4370957737727
 10
101.0446505823777
 20
-151.4370957737727
 10
100.903057157934
 20
-151.3905869847218
 10
100.8079725225411
 20
-151.2086859431006
 10
100.704275148435
 20
-151.014038048184
 10
100.6853271232662
 20
-150.7773599883473
 10
100.6853271232662
 20
-150.614406971895
 10
100.6853271232662
 20
-150.4704019806116
 10
100.7022080911439
 20
-150.2185655006398
 10
100.8079725225411
 20
-150.0197834911409
 10
100.9158040112294
 20
-149.8168673670597
 10
101.0766899703906
 20
-149.79344071776
 10
101.2055365415389
 20
-149.79344071776
 10
101.3643554434089
 20
-149.79344071776
 10
101.5080159251438
 20
-149.8378824495197
 10
101.6034450700853
 20
-150.0197834911409
 10
101.7026638200605
 20
-150.2123643287664
 10
101.7260904693601
 20
-150.4407741594384
 10
101.7260904693601
 20
-150.614406971895
 10
101.7260904693601
 20
-150.7856282175119
 10
101.7047308773516
 20
-151.0161051054751
 10
101.6034450700853
 20
-151.2086859431006
 97
        0
 97
        0
 92
        1
 93
        1
 72
     4
 94
        3
 73
     0
 74
     1
 95
       17
 96
       13
 40
0.0
 40
0.0
 40
0.0
 40
0.0
 40
1.0
 40
1.0
 40
1.0
 40
2.0
 40
2.0
 40
2.0
 40
3.0
 40
3.0
 40
3.0
 40
4.0
 40
4.0
 40
4.0
 40
4.0
 10
101.2055365415389
 20
-149.9860215553854
 10
100.9561116284068
 20
-149.9860215553854
 10
100.9092583298074
 20
-150.2695529138215
 10
100.9092583298074
 20
-150.614406971895
 10
100.9092583298074
 20
-150.9337673233777
 10
100.9454318324025
 20
-151.2424478788561
 10
101.2055365415389
 20
-151.2424478788561
 10
101.4532389069284
 20
-151.2424478788561
 10
101.5018147532704
 20
-150.9613280872597
 10
101.5018147532704
 20
-150.614406971895
 10
101.5018147532704
 20
-150.2947021108638
 10
101.4635741933841
 20
-149.9860215553854
 10
101.2055365415389
 20
-149.9860215553854
 97
        0
 97
        0
 75
     2
 76
     1
 98
        0
  0
ENDBLK
  5
D1
330
CE
100
AcDbEntity
  8
0
100
AcDbBlockEnd
  0
ENDSEC
  0
SECTION
  2
ENTITIES
  0
POLYLINE
  5
41
330
1F
100
AcDbEntity
  8
_U+30EC_U+30A4_U+30E4_U+30FC 1
 62
   179
420
  2234388
370
     9
100
AcDb2dPolyline
 66
     1
 10
0.0
 20
0.0
 30
0.0
  0
VERTEX
  5
42
330
41
100
AcDbEntity
  8
_U+30EC_U+30A4_U+30E4_U+30FC 1
 62
   179
420
  2234388
370
     9
100
AcDbVertex
100
AcDb2dVertex
 10
75.85790945359238
 20
-137.6877202433556
 30
0.0
  0
VERTEX
  5
43
330
41
100
AcDbEntity
  8
_U+30EC_U+30A4_U+30E4_U+30FC 1
 62
   179
420
  2234388
370
     9
100
AcDbVertex
100
AcDb2dVertex
 10
72.93920258361035
 20
-140.6070974648481
 30
0.0
  0
SEQEND
  5
44
330
41
100
AcDbEntity
  8
_U+30EC_U+30A4_U+30E4_U+30FC 1
 62
   179
420
  2234388
370
     9
  0
POLYLINE
  5
45
330
1F
100
AcDbEntity
  8
_U+30EC_U+30A4_U+30E4_U+30FC 1
 62
   179
420
  2234388
370
     9
100
AcDb2dPolyline
 66
     1
 10
0.0
 20
0.0
 30
0.0
  0
VERTEX
  5
46
330
45
100
AcDbEntity
  8
_U+30EC_U+30A4_U+30E4_U+30FC 1
 62
   179
420
  2234388
370
     9
100
AcDbVertex
100
AcDb2dVertex
 10
75.85790945359238
 20
-137.6877202433556
 30
0.0
  0
VERTEX
  5
47
330
45
100
AcDbEntity
  8
_U+30EC_U+30A4_U+30E4_U+30FC 1
 62
   179
420
  2234388
370
     9
100
AcDbVertex
100
AcDb2dVertex
 10
80.48603627996349
 20
-137.6877202433556
 30
0.0
  0
SEQEND
  5
48
330
45
100
AcDbEntity
  8
_U+30EC_U+30A4_U+30E4_U+30FC 1
 62
   179
420
  2234388
370
     9
  0
POLYLINE
  5
49
330
1F
100
AcDbEntity
  8
_U+30EC_U+30A4_U+30E4_U+30FC 1
 62
   179
420
  2234388
370
     9
100
AcDb2dPolyline
 66
     1
 10
0.0
 20
0.0
 30
0.0
  0
VERTEX
  5
4A
330
49
100
AcDbEntity
  8
_U+30EC_U+30A4_U+30E4_U+30FC 1
 62
   179
420
  2234388
370
     9
100
AcDbVertex
100
AcDb2dVertex
 10
73.97823894599122
 20
-140.0069519094427
 30
0.0
  0
VERTEX
  5
4B
330
49
100
AcDbEntity
  8
_U+30EC_U+30A4_U+30E4_U+30FC 1
 62
   179
420
  2234388
370
     9
100
AcDbVertex
100
AcDb2dVertex
 10
72.93920258361035
 20
-140.6070974648481
 30
0.0
  0
SEQEND
  5
4C
330
49
100
AcDbEntity
  8
_U+30EC_U+30A4_U+30E4_U+30FC 1
 62
   179
420
  2234388
370
     9
  0
POLYLINE
  5
4D
330
1F
100
AcDbEntity
  8
_U+30EC_U+30A4_U+30E4_U+30FC 1
 62
   179
420
  2234388
370
     9
100
AcDb2dPolyline
 66
     1
 10
0.0
 20
0.0
 30
0.0
  0
VERTEX
  5
4E
330
4D
100
AcDbEntity
  8
_U+30EC_U+30A4_U+30E4_U+30FC 1
 62
   179
420
  2234388
370
     9
100
AcDbVertex
100
AcDb2dVertex
 10
73.5389972038376
 20
-139.5673555206637
 30
0.0
  0
VERTEX
  5
4F
330
4D
100
AcDbEntity
  8
_U+30EC_U+30A4_U+30E4_U+30FC 1
 62
   179
420
  2234388
370
     9
100
AcDbVertex
100
AcDb2dVertex
 10
72.93920258361035
 20
-140.6070974648481
 30
0.0
  0
SEQEND
  5
50
330
4D
100
AcDbEntity
  8
_U+30EC_U+30A4_U+30E4_U+30FC 1
 62
   179
420
  2234388
370
     9
  0
POLYLINE
  5
51
330
1F
100
AcDbEntity
  8
_U+30EC_U+30A4_U+30E4_U+30FC 1
 62
   179
420
  2234388
370
    25
100
AcDb2dPolyline
 66
     1
 10
0.0
 20
0.0
 30
0.0
  0
VERTEX
  5
52
330
51
100
AcDbEntity
  8
_U+30EC_U+30A4_U+30E4_U+30FC 1
 62
   179
420
  2234388
370
    25
100
AcDbVertex
100
AcDb2dVertex
 10
89.61659521369018
 20
-138.429118020948
 30
0.0
  0
VERTEX
  5
53
330
51
100
AcDbEntity
  8
_U+30EC_U+30A4_U+30E4_U+30FC 1
 62
   179
420
  2234388
370
    25
100
AcDbVertex
100
AcDb2dVertex
 10
110.616503289049
 20
-138.429118020948
 30
0.0
  0
SEQEND
  5
54
330
51
100
AcDbEntity
  8
_U+30EC_U+30A4_U+30E4_U+30FC 1
 62
   179
420
  2234388
370
    25
  0
POLYLINE
  5
55
330
1F
100
AcDbEntity
  8
_U+30EC_U+30A4_U+30E4_U+30FC 1
 62
   179
420
  2234388
370
    25
100
AcDb2dPolyline
 66
     1
 10
0.0
 20
0.0
 30
0.0
  0
VERTEX
  5
56
330
55
100
AcDbEntity
  8
_U+30EC_U+30A4_U+30E4_U+30FC 1
 62
   179
420
  2234388
370
    25
100
AcDbVertex
100
AcDb2dVertex
 10
88.5058744086937
 20
-137.4293457989761
 30
0.0
  0
VERTEX
  5
57
330
55
100
AcDbEntity
  8
_U+30EC_U+30A4_U+30E4_U+30FC 1
 62
   179
420
  2234388
370
    25
100
AcDbVertex
100
AcDb2dVertex
 10
110.616503289049
 20
-137.4293457989761
 30
0.0
  0
SEQEND
  5
58
330
55
100
AcDbEntity
  8
_U+30EC_U+30A4_U+30E4_U+30FC 1
 62
   179
420
  2234388
370
    25
  0
POLYLINE
  5
59
330
1F
100
AcDbEntity
  8
_U+30EC_U+30A4_U+30E4_U+30FC 1
 62
   179
420
  2234388
370
    25
100
AcDb2dPolyline
 66
     1
 10
0.0
 20
0.0
 30
0.0
  0
VERTEX
  5
5A
330
59
100
AcDbEntity
  8
_U+30EC_U+30A4_U+30E4_U+30FC 1
 62
   179
420
  2234388
370
    25
100
AcDbVertex
100
AcDb2dVertex
 10
110.616503289049
 20
-137.4293457989761
 30
0.0
  0
VERTEX
  5
5B
330
59
100
AcDbEntity
  8
_U+30EC_U+30A4_U+30E4_U+30FC 1
 62
   179
420
  2234388
370
    25
100
AcDbVertex
100
AcDb2dVertex
 10
110.616503289049
 20
-138.429118020948
 30
0.0
  0
SEQEND
  5
5C
330
59
100
AcDbEntity
  8
_U+30EC_U+30A4_U+30E4_U+30FC 1
 62
   179
420
  2234388
370
    25
  0
POLYLINE
  5
5D
330
1F
100
AcDbEntity
  8
_U+30EC_U+30A4_U+30E4_U+30FC 1
 62
   179
420
  2234388
370
    25
100
AcDb2dPolyline
 66
     1
 10
0.0
 20
0.0
 30
0.0
  0
VERTEX
  5
5E
330
5D
100
AcDbEntity
  8
_U+30EC_U+30A4_U+30E4_U+30FC 1
 62
   179
420
  2234388
370
    25
100
AcDbVertex
100
AcDb2dVertex
 10
89.61659521369018
 20
-138.429118020948
 30
0.0
  0
VERTEX
  5
5F
330
5D
100
AcDbEntity
  8
_U+30EC_U+30A4_U+30E4_U+30FC 1
 62
   179
420
  2234388
370
    25
100
AcDbVertex
100
AcDb2dVertex
 10
90.61668491039799
 20
-147.9292824630178
 30
0.0
  0
SEQEND
  5
60
330
5D
100
AcDbEntity
  8
_U+30EC_U+30A4_U+30E4_U+30FC 1
 62
   179
420
  2234388
370
    25
  0
POLYLINE
  5
61
330
1F
100
AcDbEntity
  8
_U+30EC_U+30A4_U+30E4_U+30FC 1
 62
   179
420
  2234388
370
    25
100
AcDb2dPolyline
 66
     1
 10
0.0
 20
0.0
 30
0.0
  0
VERTEX
  5
62
330
61
100
AcDbEntity
  8
_U+30EC_U+30A4_U+30E4_U+30FC 1
 62
   179
420
  2234388
370
    25
100
AcDbVertex
100
AcDb2dVertex
 10
88.5058744086937
 20
-137.4293457989761
 30
0.0
  0
VERTEX
  5
63
330
61
100
AcDbEntity
  8
_U+30EC_U+30A4_U+30E4_U+30FC 1
 62
   179
420
  2234388
370
    25
100
AcDbVertex
100
AcDb2dVertex
 10
89.50324997762421
 20
-146.903334129941
 30
0.0
  0
SEQEND
  5
64
330
61
100
AcDbEntity
  8
_U+30EC_U+30A4_U+30E4_U+30FC 1
 62
   179
420
  2234388
370
    25
  0
POLYLINE
  5
65
330
1F
100
AcDbEntity
  8
_U+30EC_U+30A4_U+30E4_U+30FC 1
 62
   179
420
  2234388
370
    25
100
AcDb2dPolyline
 66
     1
 10
0.0
 20
0.0
 30
0.0
  0
VERTEX
  5
66
330
65
100
AcDbEntity
  8
_U+30EC_U+30A4_U+30E4_U+30FC 1
 62
   179
420
  2234388
370
    25
100
AcDbVertex
100
AcDb2dVertex
 10
76.11663666921393
 20
-125.04007246874
 30
0.0
  0
VERTEX
  5
67
330
65
100
AcDbEntity
  8
_U+30EC_U+30A4_U+30E4_U+30FC 1
 62
   179
420
  2234388
370
    25
100
AcDbVertex
100
AcDb2dVertex
 10
76.11663666921393
 20
-102.9294783076011
 30
0.0
  0
SEQEND
  5
68
330
65
100
AcDbEntity
  8
_U+30EC_U+30A4_U+30E4_U+30FC 1
 62
   179
420
  2234388
370
    25
  0
POLYLINE
  5
69
330
1F
100
AcDbEntity
  8
_U+30EC_U+30A4_U+30E4_U+30FC 1
 62
   179
420
  2234388
370
    25
100
AcDb2dPolyline
 66
     1
 10
0.0
 20
0.0
 30
0.0
  0
VERTEX
  5
6A
330
69
100
AcDbEntity
  8
_U+30EC_U+30A4_U+30E4_U+30FC 1
 62
   179
420
  2234388
370
    25
100
AcDbVertex
100
AcDb2dVertex
 10
75.11651169472924
 20
-123.9293869134621
 30
0.0
  0
VERTEX
  5
6B
330
69
100
AcDbEntity
  8
_U+30EC_U+30A4_U+30E4_U+30FC 1
 62
   179
420
  2234388
370
    25
100
AcDbVertex
100
AcDb2dVertex
 10
75.11651169472924
 20
-102.9294783076011
 30
0.0
  0
SEQEND
  5
6C
330
69
100
AcDbEntity
  8
_U+30EC_U+30A4_U+30E4_U+30FC 1
 62
   179
420
  2234388
370
    25
  0
POLYLINE
  5
6D
330
1F
100
AcDbEntity
  8
_U+30EC_U+30A4_U+30E4_U+30FC 1
 62
   179
420
  2234388
370
    25
100
AcDb2dPolyline
 66
     1
 10
0.0
 20
0.0
 30
0.0
  0
VERTEX
  5
6E
330
6D
100
AcDbEntity
  8
_U+30EC_U+30A4_U+30E4_U+30FC 1
 62
   179
420
  2234388
370
    25
100
AcDbVertex
100
AcDb2dVertex
 10
75.11651169472924
 20
-123.9293869134621
 30
0.0
  0
VERTEX
  5
6F
330
6D
100
AcDbEntity
  8
_U+30EC_U+30A4_U+30E4_U+30FC 1
 62
   179
420
  2234388
370
    25
100
AcDbVertex
100
AcDb2dVertex
 10
65.6166666502625
 20
-122.9292619137122
 30
0.0
  0
SEQEND
  5
70
330
6D
100
AcDbEntity
  8
_U+30EC_U+30A4_U+30E4_U+30FC 1
 62
   179
420
  2234388
370
    25
  0
POLYLINE
  5
71
330
1F
100
AcDbEntity
  8
_U+30EC_U+30A4_U+30E4_U+30FC 1
 62
   179
420
  2234388
370
    25
100
AcDb2dPolyline
 66
     1
 10
0.0
 20
0.0
 30
0.0
  0
VERTEX
  5
72
330
71
100
AcDbEntity
  8
_U+30EC_U+30A4_U+30E4_U+30FC 1
 62
   179
420
  2234388
370
    25
100
AcDbVertex
100
AcDb2dVertex
 10
76.11663666921393
 20
-125.04007246874
 30
0.0
  0
VERTEX
  5
73
330
71
100
AcDbEntity
  8
_U+30EC_U+30A4_U+30E4_U+30FC 1
 62
   179
420
  2234388
370
    25
100
AcDbVertex
100
AcDb2dVertex
 10
66.64226052203651
 20
-124.0430871912114
 30
0.0
  0
SEQEND
  5
74
330
71
100
AcDbEntity
  8
_U+30EC_U+30A4_U+30E4_U+30FC 1
 62
   179
420
  2234388
370
    25
  0
SPLINE
  5
75
330
1F
100
AcDbEntity
  8
_U+30EC_U+30A4_U+30E4_U+30FC 1
 62
   179
420
  2234388
370
    25
100
AcDbSpline
210
0.0
220
0.0
230
1.0
 70
    11
 71
     3
 72
    17
 73
    13
 74
     0
 42
0.0000000001
 43
0.0000000001
 12
1.0
 22
0.0
 32
0.0
 13
1.0
 23
0.0
 33
0.0
 40
0.0
 40
0.0
 40
0.0
 40
0.0
 40
1.0
 40
1.0
 40
1.0
 40
2.0
 40
2.0
 40
2.0
 40
3.0
 40
3.0
 40
3.0
 40
4.0
 40
4.0
 40
4.0
 40
4.0
 10
75.21641835884708
 20
-117.2576183040188
 30
0.0
 10
75.21641835884708
 20
-117.202479137366
 30
0.0
 10
75.17165275898488
 20
-117.1577116373772
 30
0.0
 10
75.11651169472924
 20
-117.1577116373772
 30
0.0
 10
75.06140780724617
 20
-117.1577116373772
 30
0.0
 10
75.0166050306114
 20
-117.202479137366
 30
0.0
 10
75.0166050306114
 20
-117.2576183040188
 30
0.0
 10
75.0166050306114
 20
-117.312722192894
 30
0.0
 10
75.06140780724617
 20
-117.3575249706607
 30
0.0
 10
75.11651169472924
 20
-117.3575249706607
 30
0.0
 10
75.17165275898488
 20
-117.3575249706607
 30
0.0
 10
75.21641835884708
 20
-117.312722192894
 30
0.0
 10
75.21641835884708
 20
-117.2576183040188
 30
0.0
  0
SPLINE
  5
76
330
1F
100
AcDbEntity
  8
_U+30EC_U+30A4_U+30E4_U+30FC 1
 62
   179
420
  2234388
370
     9
100
AcDbSpline
210
0.0
220
0.0
230
1.0
 70
    11
 71
     3
 72
    17
 73
    13
 74
     0
 42
0.0000000001
 43
0.0000000001
 12
1.0
 22
0.0
 32
0.0
 13
1.0
 23
0.0
 33
0.0
 40
0.0
 40
0.0
 40
0.0
 40
0.0
 40
1.0
 40
1.0
 40
1.0
 40
2.0
 40
2.0
 40
2.0
 40
3.0
 40
3.0
 40
3.0
 40
4.0
 40
4.0
 40
4.0
 40
4.0
 10
65.71657165676392
 20
-117.2576183040188
 30
0.0
 10
65.71657165676392
 20
-117.202479137366
 30
0.0
 10
65.67212165789793
 20
-117.1577116373772
 30
0.0
 10
65.6166666502625
 20
-117.1577116373772
 30
0.0
 10
65.56120832739423
 20
-117.1577116373772
 30
0.0
 10
65.51640555075947
 20
-117.202479137366
 30
0.0
 10
65.51640555075947
 20
-117.2576183040188
 30
0.0
 10
65.51640555075947
 20
-117.312722192894
 30
0.0
 10
65.56120832739423
 20
-117.3575249706607
 30
0.0
 10
65.6166666502625
 20
-117.3575249706607
 30
0.0
 10
65.67212165789793
 20
-117.3575249706607
 30
0.0
 10
65.71657165676392
 20
-117.312722192894
 30
0.0
 10
65.71657165676392
 20
-117.2576183040188
 30
0.0
  0
SPLINE
  5
77
330
1F
100
AcDbEntity
  8
_U+30EC_U+30A4_U+30E4_U+30FC 1
 62
   179
420
  2234388
370
     9
100
AcDbSpline
210
0.0
220
0.0
230
1.0
 70
    11
 71
     3
 72
    17
 73
    13
 74
     0
 42
0.0000000001
 43
0.0000000001
 12
1.0
 22
0.0
 32
0.0
 13
1.0
 23
0.0
 33
0.0
 40
0.0
 40
0.0
 40
0.0
 40
0.0
 40
1.0
 40
1.0
 40
1.0
 40
2.0
 40
2.0
 40
2.0
 40
3.0
 40
3.0
 40
3.0
 40
4.0
 40
4.0
 40
4.0
 40
4.0
 10
110.7167627309356
 20
-151.9290416286847
 30
0.0
 10
110.7167627309356
 20
-151.8739377398092
 30
0.0
 10
110.6719599543009
 20
-151.8291349620424
 30
0.0
 10
110.616503289049
 20
-151.8291349620424
 30
0.0
 10
110.561364123789
 20
-151.8291349620424
 30
0.0
 10
110.5165966249312
 20
-151.8739377398092
 30
0.0
 10
110.5165966249312
 20
-151.9290416286847
 30
0.0
 10
110.5165966249312
 20
-151.9841807953372
 30
0.0
 10
110.561364123789
 20
-152.0289482953264
 30
0.0
 10
110.616503289049
 20
-152.0289482953264
 30
0.0
 10
110.6719599543009
 20
-152.0289482953264
 30
0.0
 10
110.7167627309356
 20
-151.9841807953372
 30
0.0
 10
110.7167627309356
 20
-151.9290416286847
 30
0.0
  0
SPLINE
  5
78
330
1F
100
AcDbEntity
  8
_U+30EC_U+30A4_U+30E4_U+30FC 1
 62
   179
420
  2234388
370
     9
100
AcDbSpline
210
0.0
220
0.0
230
1.0
 70
    11
 71
     3
 72
    17
 73
    13
 74
     0
 42
0.0000000001
 43
0.0000000001
 12
1.0
 22
0.0
 32
0.0
 13
1.0
 23
0.0
 33
0.0
 40
0.0
 40
0.0
 40
0.0
 40
0.0
 40
1.0
 40
1.0
 40
1.0
 40
2.0
 40
2.0
 40
2.0
 40
3.0
 40
3.0
 40
3.0
 40
4.0
 40
4.0
 40
4.0
 40
4.0
 10
90.71659157451583
 20
-151.9290416286847
 30
0.0
 10
90.71659157451583
 20
-151.8739377398092
 30
0.0
 10
90.67182407565794
 20
-151.8291349620424
 30
0.0
 10
90.61668491039799
 20
-151.8291349620424
 30
0.0
 10
90.56158331069295
 20
-151.8291349620424
 30
0.0
 10
90.51678053292623
 20
-151.8739377398092
 30
0.0
 10
90.51678053292623
 20
-151.9290416286847
 30
0.0
 10
90.51678053292623
 20
-151.9841807953372
 30
0.0
 10
90.56158331069295
 20
-152.0289482953264
 30
0.0
 10
90.61668491039799
 20
-152.0289482953264
 30
0.0
 10
90.67182407565794
 20
-152.0289482953264
 30
0.0
 10
90.71659157451583
 20
-151.9841807953372
 30
0.0
 10
90.71659157451583
 20
-151.9290416286847
 30
0.0
  0
SPLINE
  5
79
330
1F
100
AcDbEntity
  8
_U+30EC_U+30A4_U+30E4_U+30FC 1
 62
   179
420
  2234388
370
    25
100
AcDbSpline
210
0.0
220
0.0
230
1.0
 70
     8
 71
     3
 72
     8
 73
     4
 74
     0
 42
0.0000000001
 43
0.0000000001
 12
1.0
 22
0.0
 32
0.0
 13
1.0
 23
0.0
 33
0.0
 40
0.0
 40
0.0
 40
0.0
 40
0.0
 40
1.0
 40
1.0
 40
1.0
 40
1.0
 10
65.6166666502625
 20
-122.9292619137122
 30
0.0
 10
65.6166666502625
 20
-136.7361727435935
 30
0.0
 10
76.80942165153951
 20
-147.9292824630178
 30
0.0
 10
90.61668491039799
 20
-147.9292824630178
 30
0.0
  0
SPLINE
  5
7A
330
1F
100
AcDbEntity
  8
_U+30EC_U+30A4_U+30E4_U+30FC 1
 62
   179
420
  2234388
370
    25
100
AcDbSpline
210
0.0
220
0.0
230
1.0
 70
     8
 71
     3
 72
     8
 73
     4
 74
     0
 42
0.0000000001
 43
0.0000000001
 12
1.0
 22
0.0
 32
0.0
 13
1.0
 23
0.0
 33
0.0
 40
0.0
 40
0.0
 40
0.0
 40
0.0
 40
1.0
 40
1.0
 40
1.0
 40
1.0
 10
66.64226052203651
 20
-124.0430871912114
 30
0.0
 10
67.21760578513602
 20
-136.4219888547836
 30
0.0
 10
77.12364081018978
 20
-146.3286944078626
 30
0.0
 10
89.50324997762421
 20
-146.903334129941
 30
0.0
  0
INSERT
  5
7C
330
1F
100
AcDbEntity
  8
_U+30EC_U+30A4_U+30E4_U+30FC 1
100
AcDbBlockReference
  2
block 2
 10
0.0
 20
0.0
 30
0.0
  0
POLYLINE
  5
86
330
1F
100
AcDbEntity
  8
_U+30EC_U+30A4_U+30E4_U+30FC 1
 62
   179
420
  2234388
370
     9
100
AcDb2dPolyline
 66
     1
 10
0.0
 20
0.0
 30
0.0
  0
VERTEX
  5
87
330
86
100
AcDbEntity
  8
_U+30EC_U+30A4_U+30E4_U+30FC 1
 62
   179
420
  2234388
370
     9
100
AcDbVertex
100
AcDb2dVertex
 10
113.156573779802
 20
-138.429118020948
 30
0.0
  0
VERTEX
  5
88
330
86
100
AcDbEntity
  8
_U+30EC_U+30A4_U+30E4_U+30FC 1
 62
   179
420
  2234388
370
     9
100
AcDbVertex
100
AcDb2dVertex
 10
115.6167048281499
 20
-138.429118020948
 30
0.0
  0
SEQEND
  5
89
330
86
100
AcDbEntity
  8
_U+30EC_U+30A4_U+30E4_U+30FC 1
 62
   179
420
  2234388
370
     9
  0
POLYLINE
  5
8A
330
1F
100
AcDbEntity
  8
_U+30EC_U+30A4_U+30E4_U+30FC 1
 62
   179
420
  2234388
370
     9
100
AcDb2dPolyline
 66
     1
 10
0.0
 20
0.0
 30
0.0
  0
VERTEX
  5
8B
330
8A
100
AcDbEntity
  8
_U+30EC_U+30A4_U+30E4_U+30FC 1
 62
   179
420
  2234388
370
     9
100
AcDbVertex
100
AcDb2dVertex
 10
113.156573779802
 20
-137.4293457989761
 30
0.0
  0
VERTEX
  5
8C
330
8A
100
AcDbEntity
  8
_U+30EC_U+30A4_U+30E4_U+30FC 1
 62
   179
420
  2234388
370
     9
100
AcDbVertex
100
AcDb2dVertex
 10
115.6167048281499
 20
-137.4293457989761
 30
0.0
  0
SEQEND
  5
8D
330
8A
100
AcDbEntity
  8
_U+30EC_U+30A4_U+30E4_U+30FC 1
 62
   179
420
  2234388
370
     9
  0
INSERT
  5
8F
330
1F
100
AcDbEntity
  8
_U+30EC_U+30A4_U+30E4_U+30FC 1
100
AcDbBlockReference
  2
block 3
 10
0.0
 20
0.0
 30
0.0
  0
POLYLINE
  5
94
330
1F
100
AcDbEntity
  8
_U+30EC_U+30A4_U+30E4_U+30FC 1
 62
   179
420
  2234388
370
     9
100
AcDb2dPolyline
 66
     1
 10
0.0
 20
0.0
 30
0.0
  0
VERTEX
  5
95
330
94
100
AcDbEntity
  8
_U+30EC_U+30A4_U+30E4_U+30FC 1
 62
   179
420
  2234388
370
     9
100
AcDbVertex
100
AcDb2dVertex
 10
93.15640262338218
 20
-147.9292824630178
 30
0.0
  0
VERTEX
  5
96
330
94
100
AcDbEntity
  8
_U+30EC_U+30A4_U+30E4_U+30FC 1
 62
   179
420
  2234388
370
     9
100
AcDbVertex
100
AcDb2dVertex
 10
115.6167048281499
 20
-147.9292824630178
 30
0.0
  0
SEQEND
  5
97
330
94
100
AcDbEntity
  8
_U+30EC_U+30A4_U+30E4_U+30FC 1
 62
   179
420
  2234388
370
     9
  0
INSERT
  5
99
330
1F
100
AcDbEntity
  8
_U+30EC_U+30A4_U+30E4_U+30FC 1
100
AcDbBlockReference
  2
block 4
 10
0.0
 20
0.0
 30
0.0
  0
POLYLINE
  5
A9
330
1F
100
AcDbEntity
  8
_U+30EC_U+30A4_U+30E4_U+30FC 1
 62
   179
420
  2234388
370
     9
100
AcDb2dPolyline
 66
     1
 10
0.0
 20
0.0
 30
0.0
  0
VERTEX
  5
AA
330
A9
100
AcDbEntity
  8
_U+30EC_U+30A4_U+30E4_U+30FC 1
 62
   179
420
  2234388
370
     9
100
AcDbVertex
100
AcDb2dVertex
 10
65.6166666502625
 20
-117.2576183040188
 30
0.0
  0
VERTEX
  5
AB
330
A9
100
AcDbEntity
  8
_U+30EC_U+30A4_U+30E4_U+30FC 1
 62
   179
420
  2234388
370
     9
100
AcDbVertex
100
AcDb2dVertex
 10
75.11651169472924
 20
-117.2576183040188
 30
0.0
  0
SEQEND
  5
AC
330
A9
100
AcDbEntity
  8
_U+30EC_U+30A4_U+30E4_U+30FC 1
 62
   179
420
  2234388
370
     9
  0
POLYLINE
  5
AD
330
1F
100
AcDbEntity
  8
_U+30EC_U+30A4_U+30E4_U+30FC 1
 62
   179
420
  2234388
370
     9
100
AcDb2dPolyline
 66
     1
 10
0.0
 20
0.0
 30
0.0
  0
VERTEX
  5
AE
330
AD
100
AcDbEntity
  8
_U+30EC_U+30A4_U+30E4_U+30FC 1
 62
   179
420
  2234388
370
     9
100
AcDbVertex
100
AcDb2dVertex
 10
65.6166666502625
 20
-120.3891913587915
 30
0.0
  0
VERTEX
  5
AF
330
AD
100
AcDbEntity
  8
_U+30EC_U+30A4_U+30E4_U+30FC 1
 62
   179
420
  2234388
370
     9
100
AcDbVertex
100
AcDb2dVertex
 10
65.6166666502625
 20
-116.2574933042691
 30
0.0
  0
SEQEND
  5
B0
330
AD
100
AcDbEntity
  8
_U+30EC_U+30A4_U+30E4_U+30FC 1
 62
   179
420
  2234388
370
     9
  0
INSERT
  5
B2
330
1F
100
AcDbEntity
  8
_U+30EC_U+30A4_U+30E4_U+30FC 1
100
AcDbBlockReference
  2
block 5
 10
0.0
 20
0.0
 30
0.0
  0
POLYLINE
  5
C2
330
1F
100
AcDbEntity
  8
_U+30EC_U+30A4_U+30E4_U+30FC 1
 62
   179
420
  2234388
370
     9
100
AcDb2dPolyline
 66
     1
 10
0.0
 20
0.0
 30
0.0
  0
VERTEX
  5
C3
330
C2
100
AcDbEntity
  8
_U+30EC_U+30A4_U+30E4_U+30FC 1
 62
   179
420
  2234388
370
     9
100
AcDbVertex
100
AcDb2dVertex
 10
90.61668491039799
 20
-151.9290416286847
 30
0.0
  0
VERTEX
  5
C4
330
C2
100
AcDbEntity
  8
_U+30EC_U+30A4_U+30E4_U+30FC 1
 62
   179
420
  2234388
370
     9
100
AcDbVertex
100
AcDb2dVertex
 10
110.616503289049
 20
-151.9290416286847
 30
0.0
  0
SEQEND
  5
C5
330
C2
100
AcDbEntity
  8
_U+30EC_U+30A4_U+30E4_U+30FC 1
 62
   179
420
  2234388
370
     9
  0
POLYLINE
  5
C6
330
1F
100
AcDbEntity
  8
_U+30EC_U+30A4_U+30E4_U+30FC 1
 62
   179
420
  2234388
370
     9
100
AcDb2dPolyline
 66
     1
 10
0.0
 20
0.0
 30
0.0
  0
VERTEX
  5
C7
330
C6
100
AcDbEntity
  8
_U+30EC_U+30A4_U+30E4_U+30FC 1
 62
   179
420
  2234388
370
     9
100
AcDbVertex
100
AcDb2dVertex
 10
90.61668491039799
 20
-150.4690355179385
 30
0.0
  0
VERTEX
  5
C8
330
C6
100
AcDbEntity
  8
_U+30EC_U+30A4_U+30E4_U+30FC 1
 62
   179
420
  2234388
370
     9
100
AcDbVertex
100
AcDb2dVertex
 10
90.61668491039799
 20
-152.9295194062121
 30
0.0
  0
SEQEND
  5
C9
330
C6
100
AcDbEntity
  8
_U+30EC_U+30A4_U+30E4_U+30FC 1
 62
   179
420
  2234388
370
     9
  0
POLYLINE
  5
CA
330
1F
100
AcDbEntity
  8
_U+30EC_U+30A4_U+30E4_U+30FC 1
 62
   179
420
  2234388
370
     9
100
AcDb2dPolyline
 66
     1
 10
0.0
 20
0.0
 30
0.0
  0
VERTEX
  5
CB
330
CA
100
AcDbEntity
  8
_U+30EC_U+30A4_U+30E4_U+30FC 1
 62
   179
420
  2234388
370
     9
100
AcDbVertex
100
AcDb2dVertex
 10
110.616503289049
 20
-140.9695060758685
 30
0.0
  0
VERTEX
  5
CC
330
CA
100
AcDbEntity
  8
_U+30EC_U+30A4_U+30E4_U+30FC 1
 62
   179
420
  2234388
370
     9
100
AcDbVertex
100
AcDb2dVertex
 10
110.616503289049
 20
-152.9295194062121
 30
0.0
  0
SEQEND
  5
CD
330
CA
100
AcDbEntity
  8
_U+30EC_U+30A4_U+30E4_U+30FC 1
 62
   179
420
  2234388
370
     9
  0
INSERT
  5
CF
330
1F
100
AcDbEntity
  8
_U+30EC_U+30A4_U+30E4_U+30FC 1
100
AcDbBlockReference
  2
block 6
 10
0.0
 20
0.0
 30
0.0
  0
ENDSEC
  0
SECTION
  2
OBJECTS
  0
DICTIONARY
  5
C
330
0
100
AcDbDictionary
281
     1
  3
ACAD_GROUP
350
D
  3
ACAD_LAYOUT
350
1A
  3
ACAD_MATERIAL
350
3B
  3
ACAD_MLEADERSTYLE
350
D8
  3
ACAD_MLINESTYLE
350
17
  3
ACAD_PLOTSETTINGS
350
19
  3
ACAD_PLOTSTYLENAME
350
E
  3
ACAD_TABLESTYLE
350
D7
  3
ACAD_VISUALSTYLE
350
2A
  0
SUN
  5
3F
330
29
100
AcDbSun
 90
        1
290
     0
 63
     7
421
 16777215
 40
1.0
291
     1
 91
  2455826
 92
 54000000
292
     0
 70
     2
 71
   256
280
     1
  0
DICTIONARY
  5
D
102
{ACAD_REACTORS
330
C
102
}
330
C
100
AcDbDictionary
281
     1
  0
DICTIONARY
  5
1A
102
{ACAD_REACTORS
330
C
102
}
330
C
100
AcDbDictionary
281
     1
  3
Layout1
350
1E
  3
Layout2
350
26
  3
Model
350
22
  0
DICTIONARY
  5
3B
102
{ACAD_REACTORS
330
C
102
}
330
C
100
AcDbDictionary
281
     1
  3
ByBlock
350
3D
  3
ByLayer
350
3C
  3
Global
350
3E
  0
DICTIONARY
  5
D8
102
{ACAD_REACTORS
330
C
102
}
330
C
100
AcDbDictionary
281
     1
  0
DICTIONARY
  5
17
102
{ACAD_REACTORS
330
C
102
}
330
C
100
AcDbDictionary
281
     1
  3
Standard
350
18
  0
DICTIONARY
  5
19
102
{ACAD_REACTORS
330
C
102
}
330
C
100
AcDbDictionary
281
     1
  0
ACDBDICTIONARYWDFLT
  5
E
102
{ACAD_REACTORS
330
C
102
}
330
C
100
AcDbDictionary
281
     1
  3
Normal
350
F
100
AcDbDictionaryWithDefault
340
F
  0
DICTIONARY
  5
D7
102
{ACAD_REACTORS
330
C
102
}
330
C
100
AcDbDictionary
281
     1
  0
DICTIONARY
  5
2A
102
{ACAD_REACTORS
330
C
102
}
330
C
100
AcDbDictionary
281
     1
  3
2dWireframe
350
2F
  3
3D Hidden
350
31
  3
3dWireframe
350
30
  3
Basic
350
32
  3
Brighten
350
36
  3
ColorChange
350
3A
  3
Conceptual
350
34
  3
Dim
350
35
  3
Facepattern
350
39
  3
Flat
350
2B
  3
FlatWithEdges
350
2C
  3
Gouraud
350
2D
  3
GouraudWithEdges
350
2E
  3
Linepattern
350
38
  3
Realistic
350
33
  3
Thicken
350
37
  0
LAYOUT
  5
1E
102
{ACAD_REACTORS
330
1A
102
}
330
1A
100
AcDbPlotSettings
  1

  2
none_device
  4

  6

 40
0.0
 41
0.0
 42
0.0
 43
0.0
 44
0.0
 45
0.0
 46
0.0
 47
0.0
 48
0.0
 49
0.0
140
0.0
141
0.0
142
1.0
143
1.0
 70
   688
 72
     0
 73
     0
 74
     5
  7

 75
    16
 76
     0
 77
     2
 78
   300
147
1.0
148
0.0
149
0.0
100
AcDbLayout
  1
Layout1
 70
     1
 71
     1
 10
0.0
 20
0.0
 11
12.0
 21
9.0
 12
0.0
 22
0.0
 32
0.0
 14
1.000000000000000E+20
 24
1.000000000000000E+20
 34
1.000000000000000E+20
 15
-1.000000000000000E+20
 25
-1.000000000000000E+20
 35
-1.000000000000000E+20
146
0.0
 13
0.0
 23
0.0
 33
0.0
 16
1.0
 26
0.0
 36
0.0
 17
0.0
 27
1.0
 37
0.0
 76
     0
330
1B
  0
LAYOUT
  5
26
102
{ACAD_REACTORS
330
1A
102
}
330
1A
100
AcDbPlotSettings
  1

  2
none_device
  4

  6

 40
0.0
 41
0.0
 42
0.0
 43
0.0
 44
0.0
 45
0.0
 46
0.0
 47
0.0
 48
0.0
 49
0.0
140
0.0
141
0.0
142
1.0
143
1.0
 70
   688
 72
     0
 73
     0
 74
     5
  7

 75
    16
 76
     0
 77
     2
 78
   300
147
1.0
148
0.0
149
0.0
100
AcDbLayout
  1
Layout2
 70
     1
 71
     2
 10
0.0
 20
0.0
 11
0.0
 21
0.0
 12
0.0
 22
0.0
 32
0.0
 14
0.0
 24
0.0
 34
0.0
 15
0.0
 25
0.0
 35
0.0
146
0.0
 13
0.0
 23
0.0
 33
0.0
 16
1.0
 26
0.0
 36
0.0
 17
0.0
 27
1.0
 37
0.0
 76
     0
330
23
  0
LAYOUT
  5
22
102
{ACAD_REACTORS
330
1A
102
}
330
1A
100
AcDbPlotSettings
  1

  2
none_device
  4

  6

 40
0.0
 41
0.0
 42
0.0
 43
0.0
 44
0.0
 45
0.0
 46
0.0
 47
0.0
 48
0.0
 49
0.0
140
0.0
141
0.0
142
1.0
143
1.0
 70
  1712
 72
     0
 73
     0
 74
     0
  7

 75
     0
 76
     0
 77
     2
 78
   300
147
1.0
148
0.0
149
0.0
100
AcDbLayout
  1
Model
 70
     1
 71
     0
 10
0.0
 20
0.0
 11
12.0
 21
9.0
 12
0.0
 22
0.0
 32
0.0
 14
1.000000000000000E+20
 24
1.000000000000000E+20
 34
1.000000000000000E+20
 15
-1.000000000000000E+20
 25
-1.000000000000000E+20
 35
-1.000000000000000E+20
146
0.0
 13
0.0
 23
0.0
 33
0.0
 16
1.0
 26
0.0
 36
0.0
 17
0.0
 27
1.0
 37
0.0
 76
     0
330
1F
331
29
  0
MATERIAL
  5
3D
102
{ACAD_REACTORS
330
3B
102
}
330
3B
100
AcDbMaterial
  1
ByBlock
 72
     1
 94
      127
  0
MATERIAL
  5
3C
102
{ACAD_REACTORS
330
3B
102
}
330
3B
100
AcDbMaterial
  1
ByLayer
 72
     1
 94
      127
  0
MATERIAL
  5
3E
102
{ACAD_REACTORS
330
3B
102
}
330
3B
100
AcDbMaterial
  1
Global
 72
     1
 94
      127
  0
MLINESTYLE
  5
18
102
{ACAD_REACTORS
330
17
102
}
330
17
100
AcDbMlineStyle
  2
Standard
 70
     0
  3

 62
   256
 51
90.0
 52
90.0
 71
     2
 49
0.5
 62
   256
  6
BYLAYER
 49
-0.5
 62
   256
  6
BYLAYER
  0
ACDBPLACEHOLDER
  5
F
102
{ACAD_REACTORS
330
E
102
}
330
E
  0
VISUALSTYLE
  5
2F
102
{ACAD_REACTORS
330
2A
102
}
330
2A
100
AcDbVisualStyle
  2
2dWireframe
 70
     4
177
     2
291
     0
 71
     0
176
     1
 72
     2
176
     1
 73
     0
176
     1
 90
        0
176
     1
 40
-0.6
176
     1
 41
-30.0
176
     1
 62
     5
 63
     7
421
 16777215
176
     1
 74
     1
176
     1
 91
        4
176
     1
 64
     7
176
     1
 65
   257
176
     1
 75
     1
176
     1
175
     1
176
     1
 42
1.0
176
     1
 92
        0
176
     1
 66
   257
176
     1
 43
1.0
176
     1
 76
     1
176
     1
 77
     6
176
     1
 78
     2
176
     1
 67
     7
176
     1
 79
     5
176
     1
170
     0
176
     1
171
     0
176
     1
290
     0
176
     1
 93
        1
176
     1
 44
0.0
176
     1
173
     0
176
     1
  0
VISUALSTYLE
  5
31
102
{ACAD_REACTORS
330
2A
102
}
330
2A
100
AcDbVisualStyle
  2
3D Hidden
 70
     6
177
     2
291
     0
 71
     1
176
     1
 72
     2
176
     1
 73
     2
176
     1
 90
        0
176
     1
 40
-0.6
176
     1
 41
-30.0
176
     1
 62
     5
 63
     7
421
 16777215
176
     1
 74
     2
176
     1
 91
        2
176
     1
 64
     7
176
     1
 65
   257
176
     1
 75
     2
176
     1
175
     1
176
     1
 42
40.0
176
     1
 92
        0
176
     1
 66
   257
176
     1
 43
1.0
176
     1
 76
     1
176
     1
 77
     6
176
     1
 78
     2
176
     1
 67
     7
176
     1
 79
     3
176
     1
170
     0
176
     1
171
     0
176
     1
290
     0
176
     1
 93
        1
176
     1
 44
0.0
176
     1
173
     0
176
     1
  0
VISUALSTYLE
  5
30
102
{ACAD_REACTORS
330
2A
102
}
330
2A
100
AcDbVisualStyle
  2
3dWireframe
 70
     5
177
     2
291
     0
 71
     0
176
     1
 72
     2
176
     1
 73
     0
176
     1
 90
        0
176
     1
 40
-0.6
176
     1
 41
-30.0
176
     1
 62
     5
 63
     7
421
 16777215
176
     1
 74
     1
176
     1
 91
        4
176
     1
 64
     7
176
     1
 65
   257
176
     1
 75
     1
176
     1
175
     1
176
     1
 42
1.0
176
     1
 92
        0
176
     1
 66
   257
176
     1
 43
1.0
176
     1
 76
     1
176
     1
 77
     6
176
     1
 78
     2
176
     1
 67
     7
176
     1
 79
     5
176
     1
170
     0
176
     1
171
     0
176
     1
290
     0
176
     1
 93
        1
176
     1
 44
0.0
176
     1
173
     0
176
     1
  0
VISUALSTYLE
  5
32
102
{ACAD_REACTORS
330
2A
102
}
330
2A
100
AcDbVisualStyle
  2
Basic
 70
     7
177
     2
291
     1
 71
     1
176
     1
 72
     0
176
     1
 73
     1
176
     1
 90
        0
176
     1
 40
-0.6
176
     1
 41
-30.0
176
     1
 62
     5
 63
     7
421
 16777215
176
     1
 74
     0
176
     1
 91
        4
176
     1
 64
     7
176
     1
 65
   257
176
     1
 75
     1
176
     1
175
     1
176
     1
 42
1.0
176
     1
 92
        8
176
     1
 66
     7
176
     1
 43
1.0
176
     1
 76
     1
176
     1
 77
     6
176
     1
 78
     2
176
     1
 67
     7
176
     1
 79
     5
176
     1
170
     0
176
     1
171
     0
176
     1
290
     0
176
     1
 93
        1
176
     1
 44
0.0
176
     1
173
     0
176
     1
  0
VISUALSTYLE
  5
36
102
{ACAD_REACTORS
330
2A
102
}
330
2A
100
AcDbVisualStyle
  2
Brighten
 70
    12
177
     2
291
     1
 71
     2
176
     1
 72
     2
176
     1
 73
     0
176
     1
 90
        0
176
     1
 40
-0.6
176
     1
 41
-30.0
176
     1
 62
     5
 63
     7
421
 16777215
176
     1
 74
     1
176
     1
 91
        4
176
     1
 64
     7
176
     1
 65
   257
176
     1
 75
     1
176
     1
175
     1
176
     1
 42
1.0
176
     1
 92
        8
176
     1
 66
     7
176
     1
 43
1.0
176
     1
 76
     1
176
     1
 77
     6
176
     1
 78
     2
176
     1
 67
     7
176
     1
 79
     5
176
     1
170
     0
176
     1
171
     0
176
     1
290
     0
176
     1
 93
        1
176
     1
 44
50.0
176
     1
173
     0
176
     1
  0
VISUALSTYLE
  5
3A
102
{ACAD_REACTORS
330
2A
102
}
330
2A
100
AcDbVisualStyle
  2
ColorChange
 70
    16
177
     2
291
     1
 71
     2
176
     1
 72
     2
176
     1
 73
     3
176
     1
 90
        0
176
     1
 40
-0.6
176
     1
 41
-30.0
176
     1
 62
     5
 63
     8
421
  8421504
176
     1
 74
     1
176
     1
 91
        4
176
     1
 64
     7
176
     1
 65
   257
176
     1
 75
     1
176
     1
175
     1
176
     1
 42
1.0
176
     1
 92
        8
176
     1
 66
     8
424
  8421504
176
     1
 43
1.0
176
     1
 76
     1
176
     1
 77
     6
176
     1
 78
     2
176
     1
 67
     7
176
     1
 79
     5
176
     1
170
     0
176
     1
171
     0
176
     1
290
     0
176
     1
 93
        1
176
     1
 44
0.0
176
     1
173
     0
176
     1
  0
VISUALSTYLE
  5
34
102
{ACAD_REACTORS
330
2A
102
}
330
2A
100
AcDbVisualStyle
  2
Conceptual
 70
     9
177
     2
291
     0
 71
     3
176
     1
 72
     2
176
     1
 73
     0
176
     1
 90
        0
176
     1
 40
-0.6
176
     1
 41
-30.0
176
     1
 62
     5
 63
     7
421
 16777215
176
     1
 74
     2
176
     1
 91
        2
176
     1
 64
     7
176
     1
 65
   257
176
     1
 75
     1
176
     1
175
     1
176
     1
 42
40.0
176
     1
 92
        8
176
     1
 66
     7
176
     1
 43
1.0
176
     1
 76
     1
176
     1
 77
     6
176
     1
 78
     2
176
     1
 67
     7
176
     1
 79
     3
176
     1
170
     0
176
     1
171
     0
176
     1
290
     0
176
     1
 93
        1
176
     1
 44
0.0
176
     1
173
     0
176
     1
  0
VISUALSTYLE
  5
35
102
{ACAD_REACTORS
330
2A
102
}
330
2A
100
AcDbVisualStyle
  2
Dim
 70
    11
177
     2
291
     1
 71
     2
176
     1
 72
     2
176
     1
 73
     0
176
     1
 90
        0
176
     1
 40
-0.6
176
     1
 41
-30.0
176
     1
 62
     5
 63
     7
421
 16777215
176
     1
 74
     1
176
     1
 91
        4
176
     1
 64
     7
176
     1
 65
   257
176
     1
 75
     1
176
     1
175
     1
176
     1
 42
1.0
176
     1
 92
        8
176
     1
 66
     7
176
     1
 43
1.0
176
     1
 76
     1
176
     1
 77
     6
176
     1
 78
     2
176
     1
 67
     7
176
     1
 79
     5
176
     1
170
     0
176
     1
171
     0
176
     1
290
     0
176
     1
 93
        1
176
     1
 44
-50.0
176
     1
173
     0
176
     1
  0
VISUALSTYLE
  5
39
102
{ACAD_REACTORS
330
2A
102
}
330
2A
100
AcDbVisualStyle
  2
Facepattern
 70
    15
177
     2
291
     1
 71
     2
176
     1
 72
     2
176
     1
 73
     0
176
     1
 90
        0
176
     1
 40
-0.6
176
     1
 41
-30.0
176
     1
 62
     5
 63
     7
421
 16777215
176
     1
 74
     1
176
     1
 91
        4
176
     1
 64
     7
176
     1
 65
   257
176
     1
 75
     1
176
     1
175
     1
176
     1
 42
1.0
176
     1
 92
        8
176
     1
 66
     7
176
     1
 43
1.0
176
     1
 76
     1
176
     1
 77
     6
176
     1
 78
     2
176
     1
 67
     7
176
     1
 79
     5
176
     1
170
     0
176
     1
171
     0
176
     1
290
     0
176
     1
 93
        1
176
     1
 44
0.0
176
     1
173
     0
176
     1
  0
VISUALSTYLE
  5
2B
102
{ACAD_REACTORS
330
2A
102
}
330
2A
100
AcDbVisualStyle
  2
Flat
 70
     0
177
     2
291
     1
 71
     2
176
     1
 72
     1
176
     1
 73
     1
176
     1
 90
        2
176
     1
 40
-0.6
176
     1
 41
30.0
176
     1
 62
     5
 63
     7
421
 16777215
176
     1
 74
     0
176
     1
 91
        4
176
     1
 64
     7
176
     1
 65
   257
176
     1
 75
     1
176
     1
175
     1
176
     1
 42
1.0
176
     1
 92
        8
176
     1
 66
     7
176
     1
 43
1.0
176
     1
 76
     1
176
     1
 77
     6
176
     1
 78
     2
176
     1
 67
     7
176
     1
 79
     5
176
     1
170
     0
176
     1
171
     0
176
     1
290
     0
176
     1
 93
       13
176
     1
 44
0.0
176
     1
173
     0
176
     1
  0
VISUALSTYLE
  5
2C
102
{ACAD_REACTORS
330
2A
102
}
330
2A
100
AcDbVisualStyle
  2
FlatWithEdges
 70
     1
177
     2
291
     1
 71
     2
176
     1
 72
     1
176
     1
 73
     1
176
     1
 90
        2
176
     1
 40
-0.6
176
     1
 41
30.0
176
     1
 62
     5
 63
     7
421
 16777215
176
     1
 74
     1
176
     1
 91
        4
176
     1
 64
     7
176
     1
 65
   257
176
     1
 75
     1
176
     1
175
     1
176
     1
 42
1.0
176
     1
 92
        0
176
     1
 66
   257
176
     1
 43
1.0
176
     1
 76
     1
176
     1
 77
     6
176
     1
 78
     2
176
     1
 67
     7
176
     1
 79
     5
176
     1
170
     0
176
     1
171
     0
176
     1
290
     0
176
     1
 93
       13
176
     1
 44
0.0
176
     1
173
     0
176
     1
  0
VISUALSTYLE
  5
2D
102
{ACAD_REACTORS
330
2A
102
}
330
2A
100
AcDbVisualStyle
  2
Gouraud
 70
     2
177
     2
291
     1
 71
     2
176
     1
 72
     2
176
     1
 73
     1
176
     1
 90
        2
176
     1
 40
-0.6
176
     1
 41
30.0
176
     1
 62
     5
 63
     7
421
 16777215
176
     1
 74
     0
176
     1
 91
        4
176
     1
 64
     7
176
     1
 65
   257
176
     1
 75
     1
176
     1
175
     1
176
     1
 42
1.0
176
     1
 92
        0
176
     1
 66
     7
176
     1
 43
1.0
176
     1
 76
     1
176
     1
 77
     6
176
     1
 78
     2
176
     1
 67
     7
176
     1
 79
     5
176
     1
170
     0
176
     1
171
     0
176
     1
290
     0
176
     1
 93
       13
176
     1
 44
0.0
176
     1
173
     0
176
     1
  0
VISUALSTYLE
  5
2E
102
{ACAD_REACTORS
330
2A
102
}
330
2A
100
AcDbVisualStyle
  2
GouraudWithEdges
 70
     3
177
     2
291
     1
 71
     2
176
     1
 72
     2
176
     1
 73
     1
176
     1
 90
        2
176
     1
 40
-0.6
176
     1
 41
30.0
176
     1
 62
     5
 63
     7
421
 16777215
176
     1
 74
     1
176
     1
 91
        4
176
     1
 64
     7
176
     1
 65
   257
176
     1
 75
     1
176
     1
175
     1
176
     1
 42
1.0
176
     1
 92
        0
176
     1
 66
   257
176
     1
 43
1.0
176
     1
 76
     1
176
     1
 77
     6
176
     1
 78
     2
176
     1
 67
     7
176
     1
 79
     5
176
     1
170
     0
176
     1
171
     0
176
     1
290
     0
176
     1
 93
       13
176
     1
 44
0.0
176
     1
173
     0
176
     1
  0
VISUALSTYLE
  5
38
102
{ACAD_REACTORS
330
2A
102
}
330
2A
100
AcDbVisualStyle
  2
Linepattern
 70
    14
177
     2
291
     1
 71
     2
176
     1
 72
     2
176
     1
 73
     0
176
     1
 90
        0
176
     1
 40
-0.6
176
     1
 41
-30.0
176
     1
 62
     5
 63
     7
421
 16777215
176
     1
 74
     1
176
     1
 91
        4
176
     1
 64
     7
176
     1
 65
   257
176
     1
 75
     7
176
     1
175
     7
176
     1
 42
1.0
176
     1
 92
        8
176
     1
 66
     7
176
     1
 43
1.0
176
     1
 76
     1
176
     1
 77
     6
176
     1
 78
     2
176
     1
 67
     7
176
     1
 79
     5
176
     1
170
     0
176
     1
171
     0
176
     1
290
     0
176
     1
 93
        1
176
     1
 44
0.0
176
     1
173
     0
176
     1
  0
VISUALSTYLE
  5
33
102
{ACAD_REACTORS
330
2A
102
}
330
2A
100
AcDbVisualStyle
  2
Realistic
 70
     8
177
     2
291
     0
 71
     2
176
     1
 72
     2
176
     1
 73
     0
176
     1
 90
        0
176
     1
 40
-0.6
176
     1
 41
-30.0
176
     1
 62
     5
 63
     7
421
 16777215
176
     1
 74
     1
176
     1
 91
        0
176
     1
 64
     7
176
     1
 65
   257
176
     1
 75
     1
176
     1
175
     1
176
     1
 42
1.0
176
     1
 92
        8
176
     1
 66
     8
424
  7895160
176
     1
 43
1.0
176
     1
 76
     1
176
     1
 77
     6
176
     1
 78
     2
176
     1
 67
     7
176
     1
 79
     5
176
     1
170
     0
176
     1
171
     0
176
     1
290
     0
176
     1
 93
       13
176
     1
 44
0.0
176
     1
173
     0
176
     1
  0
VISUALSTYLE
  5
37
102
{ACAD_REACTORS
330
2A
102
}
330
2A
100
AcDbVisualStyle
  2
Thicken
 70
    13
177
     2
291
     1
 71
     2
176
     1
 72
     2
176
     1
 73
     0
176
     1
 90
        0
176
     1
 40
-0.6
176
     1
 41
-30.0
176
     1
 62
     5
 63
     7
421
 16777215
176
     1
 74
     1
176
     1
 91
        4
176
     1
 64
     7
176
     1
 65
   257
176
     1
 75
     1
176
     1
175
     1
176
     1
 42
1.0
176
     1
 92
       12
176
     1
 66
     7
176
     1
 43
1.0
176
     1
 76
     1
176
     1
 77
     6
176
     1
 78
     2
176
     1
 67
     7
176
     1
 79
     5
176
     1
170
     0
176
     1
171
     0
176
     1
290
     0
176
     1
 93
        1
176
     1
 44
0.0
176
     1
173
     0
176
     1
  0
ENDSEC
  0
EOF
