  0
SECTION
  2
HEADER
  9
$ACADVER
  1
AC1024
  9
$ACADMAINTVER
 70
     6
  9
$DWGCODEPAGE
  3
UNDEFINED
  9
$INSBASE
 10
0.0
 20
0.0
 30
0.0
  9
$EXTMIN
 10
1.000000000000000E+20
 20
1.000000000000000E+20
 30
1.000000000000000E+20
  9
$EXTMAX
 10
-1.000000000000000E+20
 20
-1.000000000000000E+20
 30
-1.000000000000000E+20
  9
$LIMMIN
 10
0.0
 20
0.0
  9
$LIMMAX
 10
12.0
 20
9.0
  9
$ORTHOMODE
 70
     0
  9
$REGENMODE
 70
     1
  9
$FILLMODE
 70
     1
  9
$QTEXTMODE
 70
     0
  9
$MIRRTEXT
 70
     1
  9
$LTSCALE
 40
1.0
  9
$ATTMODE
 70
     1
  9
$TEXTSIZE
 40
0.2
  9
$TRACEWID
 40
0.05
  9
$TEXTSTYLE
  7
Standard
  9
$CLAYER
  8
0
  9
$CELTYPE
  6
ByLayer
  9
$CECOLOR
 62
   256
  9
$CELTSCALE
 40
1.0
  9
$DISPSILH
 70
     0
  9
$DIMSCALE
 40
1.0
  9
$DIMASZ
 40
0.18
  9
$DIMEXO
 40
0.0625
  9
$DIMDLI
 40
0.38
  9
$DIMRND
 40
0.0
  9
$DIMDLE
 40
0.0
  9
$DIMEXE
 40
0.18
  9
$DIMTP
 40
0.0
  9
$DIMTM
 40
0.0
  9
$DIMTXT
 40
0.18
  9
$DIMCEN
 40
0.09
  9
$DIMTSZ
 40
0.0
  9
$DIMTOL
 70
     0
  9
$DIMLIM
 70
     0
  9
$DIMTIH
 70
     1
  9
$DIMTOH
 70
     1
  9
$DIMSE1
 70
     0
  9
$DIMSE2
 70
     0
  9
$DIMTAD
 70
     0
  9
$DIMZIN
 70
     0
  9
$DIMBLK
  1

  9
$DIMASO
 70
     1
  9
$DIMSHO
 70
     1
  9
$DIMPOST
  1

  9
$DIMAPOST
  1

  9
$DIMALT
 70
     0
  9
$DIMALTD
 70
     2
  9
$DIMALTF
 40
25.4
  9
$DIMLFAC
 40
1.0
  9
$DIMTOFL
 70
     0
  9
$DIMTVP
 40
0.0
  9
$DIMTIX
 70
     0
  9
$DIMSOXD
 70
     0
  9
$DIMSAH
 70
     0
  9
$DIMBLK1
  1

  9
$DIMBLK2
  1

  9
$DIMSTYLE
  2
Standard
  9
$DIMCLRD
 70
     0
  9
$DIMCLRE
 70
     0
  9
$DIMCLRT
 70
     0
  9
$DIMTFAC
 40
1.0
  9
$DIMGAP
 40
0.09
  9
$DIMJUST
 70
     0
  9
$DIMSD1
 70
     0
  9
$DIMSD2
 70
     0
  9
$DIMTOLJ
 70
     1
  9
$DIMTZIN
 70
     0
  9
$DIMALTZ
 70
     0
  9
$DIMALTTZ
 70
     0
  9
$DIMUPT
 70
     0
  9
$DIMDEC
 70
     4
  9
$DIMTDEC
 70
     4
  9
$DIMALTU
 70
     2
  9
$DIMALTTD
 70
     2
  9
$DIMTXSTY
  7
Standard
  9
$DIMAUNIT
 70
     0
  9
$DIMADEC
 70
     0
  9
$DIMALTRND
 40
0.0
  9
$DIMAZIN
 70
     0
  9
$DIMDSEP
 70
    46
  9
$DIMATFIT
 70
     3
  9
$DIMFRAC
 70
     0
  9
$DIMLDRBLK
  1

  9
$DIMLUNIT
 70
     2
  9
$DIMLWD
 70
    -2
  9
$DIMLWE
 70
    -2
  9
$DIMTMOVE
 70
     0
  9
$DIMFXL
 40
1.0
  9
$DIMFXLON
 70
     0
  9
$DIMJOGANG
 40
0.7853981633974483
  9
$DIMTFILL
 70
     0
  9
$DIMTFILLCLR
 70
     0
  9
$DIMARCSYM
 70
     0
  9
$DIMLTYPE
  6

  9
$DIMLTEX1
  6

  9
$DIMLTEX2
  6

  9
$DIMTXTDIRECTION
 70
     0
  9
$LUNITS
 70
     2
  9
$LUPREC
 70
     4
  9
$SKETCHINC
 40
0.1
  9
$FILLETRAD
 40
0.5
  9
$AUNITS
 70
     0
  9
$AUPREC
 70
     0
  9
$MENU
  1
.
  9
$ELEVATION
 40
0.0
  9
$PELEVATION
 40
0.0
  9
$THICKNESS
 40
0.0
  9
$LIMCHECK
 70
     0
  9
$CHAMFERA
 40
0.5
  9
$CHAMFERB
 40
0.5
  9
$CHAMFERC
 40
1.0
  9
$CHAMFERD
 40
0.0
  9
$SKPOLY
 70
     0
  9
$TDCREATE
 40
2457917.584178241
  9
$TDUCREATE
 40
2457917.209178241
  9
$TDUPDATE
 40
2457917.584178241
  9
$TDUUPDATE
 40
2457917.209178241
  9
$TDINDWG
 40
0.0000000116
  9
$TDUSRTIMER
 40
0.0000000116
  9
$USRTIMER
 70
     1
  9
$ANGBASE
 50
0.0
  9
$ANGDIR
 70
     0
  9
$PDMODE
 70
     0
  9
$PDSIZE
 40
0.0
  9
$PLINEWID
 40
0.0
  9
$SPLFRAME
 70
     0
  9
$SPLINETYPE
 70
     6
  9
$SPLINESEGS
 70
     8
  9
$HANDSEED
  5
DA
  9
$SURFTAB1
 70
     6
  9
$SURFTAB2
 70
     6
  9
$SURFTYPE
 70
     6
  9
$SURFU
 70
     6
  9
$SURFV
 70
     6
  9
$UCSBASE
  2

  9
$UCSNAME
  2

  9
$UCSORG
 10
0.0
 20
0.0
 30
0.0
  9
$UCSXDIR
 10
1.0
 20
0.0
 30
0.0
  9
$UCSYDIR
 10
0.0
 20
1.0
 30
0.0
  9
$UCSORTHOREF
  2

  9
$UCSORTHOVIEW
 70
     0
  9
$UCSORGTOP
 10
0.0
 20
0.0
 30
0.0
  9
$UCSORGBOTTOM
 10
0.0
 20
0.0
 30
0.0
  9
$UCSORGLEFT
 10
0.0
 20
0.0
 30
0.0
  9
$UCSORGRIGHT
 10
0.0
 20
0.0
 30
0.0
  9
$UCSORGFRONT
 10
0.0
 20
0.0
 30
0.0
  9
$UCSORGBACK
 10
0.0
 20
0.0
 30
0.0
  9
$PUCSBASE
  2

  9
$PUCSNAME
  2

  9
$PUCSORG
 10
0.0
 20
0.0
 30
0.0
  9
$PUCSXDIR
 10
1.0
 20
0.0
 30
0.0
  9
$PUCSYDIR
 10
0.0
 20
1.0
 30
0.0
  9
$PUCSORTHOREF
  2

  9
$PUCSORTHOVIEW
 70
     0
  9
$PUCSORGTOP
 10
0.0
 20
0.0
 30
0.0
  9
$PUCSORGBOTTOM
 10
0.0
 20
0.0
 30
0.0
  9
$PUCSORGLEFT
 10
0.0
 20
0.0
 30
0.0
  9
$PUCSORGRIGHT
 10
0.0
 20
0.0
 30
0.0
  9
$PUCSORGFRONT
 10
0.0
 20
0.0
 30
0.0
  9
$PUCSORGBACK
 10
0.0
 20
0.0
 30
0.0
  9
$USERI1
 70
     0
  9
$USERI2
 70
     0
  9
$USERI3
 70
     0
  9
$USERI4
 70
     0
  9
$USERI5
 70
     0
  9
$USERR1
 40
0.0
  9
$USERR2
 40
0.0
  9
$USERR3
 40
0.0
  9
$USERR4
 40
0.0
  9
$USERR5
 40
0.0
  9
$WORLDVIEW
 70
     1
  9
$SHADEDGE
 70
     3
  9
$SHADEDIF
 70
    70
  9
$TILEMODE
 70
     1
  9
$MAXACTVP
 70
    64
  9
$PINSBASE
 10
0.0
 20
0.0
 30
0.0
  9
$PLIMCHECK
 70
     0
  9
$PEXTMIN
 10
1.000000000000000E+20
 20
1.000000000000000E+20
 30
1.000000000000000E+20
  9
$PEXTMAX
 10
-1.000000000000000E+20
 20
-1.000000000000000E+20
 30
-1.000000000000000E+20
  9
$PLIMMIN
 10
0.0
 20
0.0
  9
$PLIMMAX
 10
12.0
 20
9.0
  9
$UNITMODE
 70
     0
  9
$VISRETAIN
 70
     1
  9
$PLINEGEN
 70
     0
  9
$PSLTSCALE
 70
     1
  9
$TREEDEPTH
 70
  3020
  9
$CMLSTYLE
  2
Standard
  9
$CMLJUST
 70
     0
  9
$CMLSCALE
 40
1.0
  9
$PROXYGRAPHICS
 70
     1
  9
$MEASUREMENT
 70
     0
  9
$CELWEIGHT
370
    -1
  9
$ENDCAPS
280
     0
  9
$JOINSTYLE
280
     0
  9
$LWDISPLAY
290
     1
  9
$INSUNITS
 70
     1
  9
$HYPERLINKBASE
  1

  9
$STYLESHEET
  1

  9
$XEDIT
290
     1
  9
$CEPSNTYPE
380
     0
  9
$PSTYLEMODE
290
     1
  9
$FINGERPRINTGUID
  2
{BCE0E338-2EED-16BE-B109-E1C19ACF5E46}
  9
$VERSIONGUID
  2
{FAEB1C32-E019-11D5-929B-00C0DF256EC4}
  9
$EXTNAMES
290
     1
  9
$PSVPSCALE
 40
0.0
  9
$OLESTARTUP
290
     0
  9
$SORTENTS
280
   127
  9
$INDEXCTL
280
     0
  9
$HIDETEXT
280
     1
  9
$XCLIPFRAME
280
     2
  9
$HALOGAP
280
     0
  9
$OBSCOLOR
 70
   257
  9
$OBSLTYPE
280
     0
  9
$INTERSECTIONDISPLAY
280
     0
  9
$INTERSECTIONCOLOR
 70
   257
  9
$DIMASSOC
280
     2
  9
$PROJECTNAME
  1

  9
$CAMERADISPLAY
290
     0
  9
$LENSLENGTH
 40
50.0
  9
$CAMERAHEIGHT
 40
0.0
  9
$STEPSPERSEC
 40
2.0
  9
$STEPSIZE
 40
6.0
  9
$3DDWFPREC
 40
2.0
  9
$PSOLWIDTH
 40
0.25
  9
$PSOLHEIGHT
 40
4.0
  9
$LOFTANG1
 40
1.570796326794897
  9
$LOFTANG2
 40
1.570796326794897
  9
$LOFTMAG1
 40
0.0
  9
$LOFTMAG2
 40
0.0
  9
$LOFTPARAM
 70
     7
  9
$LOFTNORMALS
280
     1
  9
$LATITUDE
 40
37.795
  9
$LONGITUDE
 40
-122.394
  9
$NORTHDIRECTION
 40
0.0
  9
$TIMEZONE
 70
 -8000
  9
$LIGHTGLYPHDISPLAY
280
     1
  9
$TILEMODELIGHTSYNCH
280
     1
  9
$CMATERIAL
347
3C
  9
$SOLIDHIST
280
     1
  9
$SHOWHIST
280
     1
  9
$DWFFRAME
280
     2
  9
$DGNFRAME
280
     2
  9
$REALWORLDSCALE
290
     1
  9
$INTERFERECOLOR
 62
   256
  9
$CSHADOW
280
     0
  9
$SHADOWPLANELOCATION
 40
0.0
  0
ENDSEC
  0
SECTION
  2
CLASSES
  0
CLASS
  1
ACDBDICTIONARYWDFLT
  2
AcDbDictionaryWithDefault
  3
ObjectDBX Classes
 90
        0
 91
        4
280
     0
281
     0
  0
CLASS
  1
VISUALSTYLE
  2
AcDbVisualStyle
  3
ObjectDBX Classes
 90
     4095
 91
        4
280
     0
281
     0
  0
CLASS
  1
MATERIAL
  2
AcDbMaterial
  3
ObjectDBX Classes
 90
     1153
 91
        4
280
     0
281
     0
  0
CLASS
  1
SUN
  2
AcDbSun
  3
SCENEOE
 90
     1024
 91
        4
280
     0
281
     0
  0
ENDSEC
  0
SECTION
  2
TABLES
  0
TABLE
  2
VPORT
  5
8
330
0
100
AcDbSymbolTable
 70
     1
  0
VPORT
  5
29
330
8
100
AcDbSymbolTableRecord
100
AcDbViewportTableRecord
  2
*Active
 70
     0
 10
0.0
 20
0.0
 11
1.0
 21
1.0
 12
0.0
 22
0.0
 13
0.0
 23
0.0
 14
0.5
 24
0.5
 15
0.5
 25
0.5
 16
0.0
 26
0.0
 36
1.0
 17
91.00082462281999
 27
-128.4993055234307
 37
0.0
 40
256.9986110468615
 41
0.7081814508812795
 42
50.0
 43
0.0
 44
0.0
 50
0.0
 51
0.0
 71
     0
 72
   100
 73
     1
 74
     3
 75
     0
 76
     0
 77
     0
 78
     0
281
     0
 65
     1
110
0.0
120
0.0
130
0.0
111
1.0
121
0.0
131
0.0
112
0.0
122
1.0
132
0.0
 79
     0
146
0.0
 60
     3
 61
     5
292
     1
282
     1
141
0.0
142
0.0
 63
   250
361
3F
  0
ENDTAB
  0
TABLE
  2
LTYPE
  5
5
330
0
100
AcDbSymbolTable
 70
     1
  0
LTYPE
  5
14
330
5
100
AcDbSymbolTableRecord
100
AcDbLinetypeTableRecord
  2
ByBlock
 70
     0
  3

 72
    65
 73
     0
 40
0.0
  0
LTYPE
  5
15
330
5
100
AcDbSymbolTableRecord
100
AcDbLinetypeTableRecord
  2
ByLayer
 70
     0
  3

 72
    65
 73
     0
 40
0.0
  0
LTYPE
  5
16
330
5
100
AcDbSymbolTableRecord
100
AcDbLinetypeTableRecord
  2
Continuous
 70
     0
  3
Solid line
 72
    65
 73
     0
 40
0.0
  0
ENDTAB
  0
TABLE
  2
LAYER
  5
2
330
0
100
AcDbSymbolTable
 70
     2
  0
LAYER
  5
10
330
2
100
AcDbSymbolTableRecord
100
AcDbLayerTableRecord
  2
0
 70
     0
 62
     7
  6
Continuous
370
    -3
390
F
347
3E
  0
LAYER
  5
40
330
2
100
AcDbSymbolTableRecord
100
AcDbLayerTableRecord
  2
_U+30EC_U+30A4_U+30E4_U+30FC 1
 70
     0
 62
     7
  6
Continuous
370
    -3
390
F
347
3E
  0
ENDTAB
  0
TABLE
  2
STYLE
  5
3
330
0
100
AcDbSymbolTable
 70
     1
  0
STYLE
  5
11
330
3
100
AcDbSymbolTableRecord
100
AcDbTextStyleTableRecord
  2
Standard
 70
     0
 40
0.0
 41
1.0
 50
0.0
 71
     0
 42
0.2
  3
txt
  4

  0
ENDTAB
  0
TABLE
  2
VIEW
  5
6
330
0
100
AcDbSymbolTable
 70
     0
  0
ENDTAB
  0
TABLE
  2
UCS
  5
7
330
0
100
AcDbSymbolTable
 70
     0
  0
ENDTAB
  0
TABLE
  2
APPID
  5
9
330
0
100
AcDbSymbolTable
 70
     1
  0
APPID
  5
12
330
9
100
AcDbSymbolTableRecord
100
AcDbRegAppTableRecord
  2
ACAD
 70
     0
  0
ENDTAB
  0
TABLE
  2
DIMSTYLE
  5
A
330
0
100
AcDbSymbolTable
 70
     1
100
AcDbDimStyleTable
  0
DIMSTYLE
105
27
330
A
100
AcDbSymbolTableRecord
100
AcDbDimStyleTableRecord
  2
Standard
 70
     0
178
     0
340
11
  0
ENDTAB
  0
TABLE
  2
BLOCK_RECORD
  5
1
330
0
100
AcDbSymbolTable
 70
     6
  0
BLOCK_RECORD
  5
1F
330
1
100
AcDbSymbolTableRecord
100
AcDbBlockTableRecord
  2
*Model_Space
340
22
 70
     0
280
     1
281
     0
  0
BLOCK_RECORD
  5
1B
330
1
100
AcDbSymbolTableRecord
100
AcDbBlockTableRecord
  2
*Paper_Space
340
1E
 70
     0
280
     1
281
     0
  0
BLOCK_RECORD
  5
23
330
1
100
AcDbSymbolTableRecord
100
AcDbBlockTableRecord
  2
*Paper_Space0
340
26
 70
     0
280
     1
281
     0
  0
BLOCK_RECORD
  5
82
330
1
100
AcDbSymbolTableRecord
100
AcDbBlockTableRecord
  2
block 2
340
0
102
{BLKREFS
331
83
102
}
 70
     0
280
     1
281
     0
  0
BLOCK_RECORD
  5
9E
330
1
100
AcDbSymbolTableRecord
100
AcDbBlockTableRecord
  2
block 3
340
0
102
{BLKREFS
331
9F
102
}
 70
     0
280
     1
281
     0
  0
BLOCK_RECORD
  5
AC
330
1
100
AcDbSymbolTableRecord
100
AcDbBlockTableRecord
  2
block 4
340
0
102
{BLKREFS
331
AD
102
}
 70
     0
280
     1
281
     0
  0
BLOCK_RECORD
  5
BC
330
1
100
AcDbSymbolTableRecord
100
AcDbBlockTableRecord
  2
block 5
340
0
102
{BLKREFS
331
BD
102
}
 70
     0
280
     1
281
     0
  0
BLOCK_RECORD
  5
D0
330
1
100
AcDbSymbolTableRecord
100
AcDbBlockTableRecord
  2
block 6
340
0
102
{BLKREFS
331
D1
102
}
 70
     0
280
     1
281
     0
  0
ENDTAB
  0
ENDSEC
  0
SECTION
  2
BLOCKS
  0
BLOCK
  5
20
330
1F
100
AcDbEntity
  8
0
100
AcDbBlockBegin
  2
*Model_Space
 70
     0
 10
0.0
 20
0.0
 30
0.0
  3
*Model_Space
  1

  0
ENDBLK
  5
21
330
1F
100
AcDbEntity
  8
0
100
AcDbBlockEnd
  0
BLOCK
  5
1C
330
1B
100
AcDbEntity
 67
     1
  8
0
100
AcDbBlockBegin
  2
*Paper_Space
 70
     0
 10
0.0
 20
0.0
 30
0.0
  3
*Paper_Space
  1

  0
ENDBLK
  5
1D
330
1B
100
AcDbEntity
 67
     1
  8
0
100
AcDbBlockEnd
  0
BLOCK
  5
24
330
23
100
AcDbEntity
  8
0
100
AcDbBlockBegin
  2
*Paper_Space0
 70
     0
 10
0.0
 20
0.0
 30
0.0
  3
*Paper_Space0
  1

  0
ENDBLK
  5
25
330
23
100
AcDbEntity
  8
0
100
AcDbBlockEnd
  0
BLOCK
  5
84
330
82
100
AcDbEntity
  8
0
100
AcDbBlockBegin
  2
block 2
 70
     0
 10
0.0
 20
0.0
 30
0.0
  3
block 2
  1

  0
SPLINE
  5
86
330
82
100
AcDbEntity
  8
_U+30EC_U+30A4_U+30E4_U+30FC 1
370
     0
100
AcDbSpline
210
0.0
220
0.0
230
1.0
 70
    11
 71
     3
 72
    44
 73
    40
 74
     0
 42
0.0000000001
 43
0.0000000001
 12
1.0
 22
0.0
 32
0.0
 13
1.0
 23
0.0
 33
0.0
 40
0.0
 40
0.0
 40
0.0
 40
0.0
 40
1.0
 40
1.0
 40
1.0
 40
2.0
 40
2.0
 40
2.0
 40
3.0
 40
3.0
 40
3.0
 40
4.0
 40
4.0
 40
4.0
 40
5.0
 40
5.0
 40
5.0
 40
6.0
 40
6.0
 40
6.0
 40
7.0
 40
7.0
 40
7.0
 40
8.0
 40
8.0
 40
8.0
 40
9.0
 40
9.0
 40
9.0
 40
10.0
 40
10.0
 40
10.0
 40
11.0
 40
11.0
 40
11.0
 40
12.0
 40
12.0
 40
12.0
 40
13.0
 40
13.0
 40
13.0
 40
13.0
 10
80.0728040706936
 20
-133.1288248365095
 30
0.0
 10
79.85490178125156
 20
-133.2876437383795
 30
0.0
 10
79.76171194837555
 20
-133.3617132913124
 30
0.0
 10
79.71313610203353
 20
-133.5053737730473
 30
0.0
 10
79.71313610203353
 20
-133.5053737730473
 30
0.0
 10
80.49155542692573
 20
-133.5053737730473
 30
0.0
 10
80.49155542692573
 20
-133.5053737730473
 30
0.0
 10
80.49155542692573
 20
-133.5053737730473
 30
0.0
 10
80.49155542692573
 20
-133.7107014639682
 30
0.0
 10
80.49155542692573
 20
-133.7107014639682
 30
0.0
 10
80.49155542692573
 20
-133.7107014639682
 30
0.0
 10
79.46353893412717
 20
-133.7107014639682
 30
0.0
 10
79.46353893412717
 20
-133.7107014639682
 30
0.0
 10
79.49523381259148
 20
-133.3531005525992
 30
0.0
 10
79.56069062681122
 20
-133.274896885084
 30
0.0
 10
79.94585230206215
 20
-132.9765516160614
 30
0.0
 10
80.20182289661622
 20
-132.7777696065625
 30
0.0
 10
80.26727971083596
 20
-132.7099012255031
 30
0.0
 10
80.26727971083596
 20
-132.5724419156416
 30
0.0
 10
80.26727971083596
 20
-132.453930630949
 30
0.0
 10
80.19544946996851
 20
-132.3230170025095
 30
0.0
 10
79.99873451776074
 20
-132.3230170025095
 30
0.0
 10
79.73845755385011
 20
-132.3230170025095
 30
0.0
 10
79.73001706991126
 20
-132.5534938904727
 30
0.0
 10
79.72571070055469
 20
-132.6699381178742
 30
0.0
 10
79.72571070055469
 20
-132.6699381178742
 30
0.0
 10
79.50160723923919
 20
-132.6699381178742
 30
0.0
 10
79.50160723923919
 20
-132.6699381178742
 30
0.0
 10
79.51004772317805
 20
-132.5428140944685
 30
0.0
 10
79.52055526440806
 20
-132.4308484911978
 30
0.0
 10
79.60099824398864
 20
-132.3123372065052
 30
0.0
 10
79.71089678996812
 20
-132.1514512473441
 30
0.0
 10
79.89710420094586
 20
-132.1176893115886
 30
0.0
 10
80.0135484283473
 20
-132.1176893115886
 30
0.0
 10
80.29070636013566
 20
-132.1176893115886
 30
0.0
 10
80.49792885357344
 20
-132.301657410501
 30
0.0
 10
80.49792885357344
 20
-132.5745089729328
 30
0.0
 10
80.49792885357344
 20
-132.8032633131534
 30
0.0
 10
80.38165688094625
 20
-132.9024820631286
 30
0.0
 10
80.0728040706936
 20
-133.1288248365095
 30
0.0
  0
HATCH
  5
87
330
82
100
AcDbEntity
  8
_U+30EC_U+30A4_U+30E4_U+30FC 1
 62
   179
420
  2234388
100
AcDbHatch
 10
0.0
 20
0.0
 30
0.0
210
0.0
220
0.0
230
1.0
  2
SOLID
 70
     1
 71
     0
 91
        1
 92
        1
 93
        1
 72
     4
 94
        3
 73
     0
 74
     1
 95
       44
 96
       40
 40
0.0
 40
0.0
 40
0.0
 40
0.0
 40
1.0
 40
1.0
 40
1.0
 40
2.0
 40
2.0
 40
2.0
 40
3.0
 40
3.0
 40
3.0
 40
4.0
 40
4.0
 40
4.0
 40
5.0
 40
5.0
 40
5.0
 40
6.0
 40
6.0
 40
6.0
 40
7.0
 40
7.0
 40
7.0
 40
8.0
 40
8.0
 40
8.0
 40
9.0
 40
9.0
 40
9.0
 40
10.0
 40
10.0
 40
10.0
 40
11.0
 40
11.0
 40
11.0
 40
12.0
 40
12.0
 40
12.0
 40
13.0
 40
13.0
 40
13.0
 40
13.0
 10
80.0728040706936
 20
-133.1288248365095
 10
79.85490178125156
 20
-133.2876437383795
 10
79.76171194837555
 20
-133.3617132913124
 10
79.71313610203353
 20
-133.5053737730473
 10
79.71313610203353
 20
-133.5053737730473
 10
80.49155542692573
 20
-133.5053737730473
 10
80.49155542692573
 20
-133.5053737730473
 10
80.49155542692573
 20
-133.5053737730473
 10
80.49155542692573
 20
-133.7107014639682
 10
80.49155542692573
 20
-133.7107014639682
 10
80.49155542692573
 20
-133.7107014639682
 10
79.46353893412717
 20
-133.7107014639682
 10
79.46353893412717
 20
-133.7107014639682
 10
79.49523381259148
 20
-133.3531005525992
 10
79.56069062681122
 20
-133.274896885084
 10
79.94585230206215
 20
-132.9765516160614
 10
80.20182289661622
 20
-132.7777696065625
 10
80.26727971083596
 20
-132.7099012255031
 10
80.26727971083596
 20
-132.5724419156416
 10
80.26727971083596
 20
-132.453930630949
 10
80.19544946996851
 20
-132.3230170025095
 10
79.99873451776074
 20
-132.3230170025095
 10
79.73845755385011
 20
-132.3230170025095
 10
79.73001706991126
 20
-132.5534938904727
 10
79.72571070055469
 20
-132.6699381178742
 10
79.72571070055469
 20
-132.6699381178742
 10
79.50160723923919
 20
-132.6699381178742
 10
79.50160723923919
 20
-132.6699381178742
 10
79.51004772317805
 20
-132.5428140944685
 10
79.52055526440806
 20
-132.4308484911978
 10
79.60099824398864
 20
-132.3123372065052
 10
79.71089678996812
 20
-132.1514512473441
 10
79.89710420094586
 20
-132.1176893115886
 10
80.0135484283473
 20
-132.1176893115886
 10
80.29070636013566
 20
-132.1176893115886
 10
80.49792885357344
 20
-132.301657410501
 10
80.49792885357344
 20
-132.5745089729328
 10
80.49792885357344
 20
-132.8032633131534
 10
80.38165688094625
 20
-132.9024820631286
 10
80.0728040706936
 20
-133.1288248365095
 97
        0
 97
        0
 75
     2
 76
     1
 98
        0
  0
SPLINE
  5
88
330
82
100
AcDbEntity
  8
_U+30EC_U+30A4_U+30E4_U+30FC 1
370
     0
100
AcDbSpline
210
0.0
220
0.0
230
1.0
 70
    11
 71
     3
 72
    29
 73
    25
 74
     0
 42
0.0000000001
 43
0.0000000001
 12
1.0
 22
0.0
 32
0.0
 13
1.0
 23
0.0
 33
0.0
 40
0.0
 40
0.0
 40
0.0
 40
0.0
 40
1.0
 40
1.0
 40
1.0
 40
2.0
 40
2.0
 40
2.0
 40
3.0
 40
3.0
 40
3.0
 40
4.0
 40
4.0
 40
4.0
 40
5.0
 40
5.0
 40
5.0
 40
6.0
 40
6.0
 40
6.0
 40
7.0
 40
7.0
 40
7.0
 40
8.0
 40
8.0
 40
8.0
 40
8.0
 10
81.55419512935104
 20
-133.5329345369293
 30
0.0
 10
81.44636364066272
 20
-133.7423963424325
 30
0.0
 10
81.27290308298039
 20
-133.7613443676013
 30
0.0
 10
81.15645885557895
 20
-133.7613443676013
 30
0.0
 10
80.99574515119204
 20
-133.7613443676013
 30
0.0
 10
80.85397947197401
 20
-133.7148355785505
 30
0.0
 10
80.75872258180685
 20
-133.5329345369293
 30
0.0
 10
80.65519746247509
 20
-133.3382866420127
 30
0.0
 10
80.63607718253196
 20
-133.1012640726275
 30
0.0
 10
80.63607718253196
 20
-132.9386555657237
 30
0.0
 10
80.63607718253196
 20
-132.7946505744402
 30
0.0
 10
80.65295815040967
 20
-132.5428140944685
 30
0.0
 10
80.75872258180685
 20
-132.3440320849695
 30
0.0
 10
80.86672632526944
 20
-132.1411159608883
 30
0.0
 10
81.02744002965633
 20
-132.1176893115886
 30
0.0
 10
81.15645885557895
 20
-132.1176893115886
 30
0.0
 10
81.3151055026747
 20
-132.1176893115886
 30
0.0
 10
81.45893823918388
 20
-132.1621310433484
 30
0.0
 10
81.55419512935104
 20
-132.3440320849695
 30
0.0
 10
81.6535861341005
 20
-132.536612922595
 30
0.0
 10
81.67684052862593
 20
-132.7650227532671
 30
0.0
 10
81.67684052862593
 20
-132.9386555657237
 30
0.0
 10
81.67684052862593
 20
-133.1098768113406
 30
0.0
 10
81.6558254461659
 20
-133.3403536993038
 30
0.0
 10
81.55419512935104
 20
-133.5329345369293
 30
0.0
  0
SPLINE
  5
89
330
82
100
AcDbEntity
  8
_U+30EC_U+30A4_U+30E4_U+30FC 1
370
     0
100
AcDbSpline
210
0.0
220
0.0
230
1.0
 70
    11
 71
     3
 72
    17
 73
    13
 74
     0
 42
0.0000000001
 43
0.0000000001
 12
1.0
 22
0.0
 32
0.0
 13
1.0
 23
0.0
 33
0.0
 40
0.0
 40
0.0
 40
0.0
 40
0.0
 40
1.0
 40
1.0
 40
1.0
 40
2.0
 40
2.0
 40
2.0
 40
3.0
 40
3.0
 40
3.0
 40
4.0
 40
4.0
 40
4.0
 40
4.0
 10
81.15645885557895
 20
-132.3102701492141
 30
0.0
 10
80.90686168767259
 20
-132.3102701492141
 30
0.0
 10
80.86035289862173
 20
-132.5938015076502
 30
0.0
 10
80.86035289862173
 20
-132.9386555657237
 30
0.0
 10
80.86035289862173
 20
-133.2580159172063
 30
0.0
 10
80.89635414644258
 20
-133.5666964726847
 30
0.0
 10
81.15645885557895
 20
-133.5666964726847
 30
0.0
 10
81.40398896619415
 20
-133.5666964726847
 30
0.0
 10
81.45273706731044
 20
-133.2855766810883
 30
0.0
 10
81.45273706731044
 20
-132.9386555657237
 30
0.0
 10
81.45273706731044
 20
-132.6189507046925
 30
0.0
 10
81.41449650742416
 20
-132.3102701492141
 30
0.0
 10
81.15645885557895
 20
-132.3102701492141
 30
0.0
  0
HATCH
  5
8A
330
82
100
AcDbEntity
  8
_U+30EC_U+30A4_U+30E4_U+30FC 1
 62
   179
420
  2234388
100
AcDbHatch
 10
0.0
 20
0.0
 30
0.0
210
0.0
220
0.0
230
1.0
  2
SOLID
 70
     1
 71
     0
 91
        2
 92
        1
 93
        1
 72
     4
 94
        3
 73
     0
 74
     1
 95
       29
 96
       25
 40
0.0
 40
0.0
 40
0.0
 40
0.0
 40
1.0
 40
1.0
 40
1.0
 40
2.0
 40
2.0
 40
2.0
 40
3.0
 40
3.0
 40
3.0
 40
4.0
 40
4.0
 40
4.0
 40
5.0
 40
5.0
 40
5.0
 40
6.0
 40
6.0
 40
6.0
 40
7.0
 40
7.0
 40
7.0
 40
8.0
 40
8.0
 40
8.0
 40
8.0
 10
81.55419512935104
 20
-133.5329345369293
 10
81.44636364066272
 20
-133.7423963424325
 10
81.27290308298039
 20
-133.7613443676013
 10
81.15645885557895
 20
-133.7613443676013
 10
80.99574515119204
 20
-133.7613443676013
 10
80.85397947197401
 20
-133.7148355785505
 10
80.75872258180685
 20
-133.5329345369293
 10
80.65519746247509
 20
-133.3382866420127
 10
80.63607718253196
 20
-133.1012640726275
 10
80.63607718253196
 20
-132.9386555657237
 10
80.63607718253196
 20
-132.7946505744402
 10
80.65295815040967
 20
-132.5428140944685
 10
80.75872258180685
 20
-132.3440320849695
 10
80.86672632526944
 20
-132.1411159608883
 10
81.02744002965633
 20
-132.1176893115886
 10
81.15645885557895
 20
-132.1176893115886
 10
81.3151055026747
 20
-132.1176893115886
 10
81.45893823918388
 20
-132.1621310433484
 10
81.55419512935104
 20
-132.3440320849695
 10
81.6535861341005
 20
-132.536612922595
 10
81.67684052862593
 20
-132.7650227532671
 10
81.67684052862593
 20
-132.9386555657237
 10
81.67684052862593
 20
-133.1098768113406
 10
81.6558254461659
 20
-133.3403536993038
 10
81.55419512935104
 20
-133.5329345369293
 97
        0
 97
        0
 92
        1
 93
        1
 72
     4
 94
        3
 73
     0
 74
     1
 95
       17
 96
       13
 40
0.0
 40
0.0
 40
0.0
 40
0.0
 40
1.0
 40
1.0
 40
1.0
 40
2.0
 40
2.0
 40
2.0
 40
3.0
 40
3.0
 40
3.0
 40
4.0
 40
4.0
 40
4.0
 40
4.0
 10
81.15645885557895
 20
-132.3102701492141
 10
80.90686168767259
 20
-132.3102701492141
 10
80.86035289862173
 20
-132.5938015076502
 10
80.86035289862173
 20
-132.9386555657237
 10
80.86035289862173
 20
-133.2580159172063
 10
80.89635414644258
 20
-133.5666964726847
 10
81.15645885557895
 20
-133.5666964726847
 10
81.40398896619415
 20
-133.5666964726847
 10
81.45273706731044
 20
-133.2855766810883
 10
81.45273706731044
 20
-132.9386555657237
 10
81.45273706731044
 20
-132.6189507046925
 10
81.41449650742416
 20
-132.3102701492141
 10
81.15645885557895
 20
-132.3102701492141
 97
        0
 97
        0
 75
     2
 76
     1
 98
        0
  0
SPLINE
  5
8B
330
82
100
AcDbEntity
  8
_U+30EC_U+30A4_U+30E4_U+30FC 1
370
     0
100
AcDbSpline
210
0.0
220
0.0
230
1.0
 70
    11
 71
     3
 72
    44
 73
    40
 74
     0
 42
0.0000000001
 43
0.0000000001
 12
1.0
 22
0.0
 32
0.0
 13
1.0
 23
0.0
 33
0.0
 40
0.0
 40
0.0
 40
0.0
 40
0.0
 40
1.0
 40
1.0
 40
1.0
 40
2.0
 40
2.0
 40
2.0
 40
3.0
 40
3.0
 40
3.0
 40
4.0
 40
4.0
 40
4.0
 40
5.0
 40
5.0
 40
5.0
 40
6.0
 40
6.0
 40
6.0
 40
7.0
 40
7.0
 40
7.0
 40
8.0
 40
8.0
 40
8.0
 40
9.0
 40
9.0
 40
9.0
 40
10.0
 40
10.0
 40
10.0
 40
11.0
 40
11.0
 40
11.0
 40
12.0
 40
12.0
 40
12.0
 40
13.0
 40
13.0
 40
13.0
 40
13.0
 10
82.84748397451382
 20
-133.7107014639682
 30
0.0
 10
82.82405732521413
 20
-133.6662597322084
 30
0.0
 10
82.8030422427541
 20
-133.6135497712841
 30
0.0
 10
82.80080293068869
 20
-133.3827283737724
 30
0.0
 10
82.79666881610639
 20
-133.1395046325137
 30
0.0
 10
82.73741317376009
 20
-133.0695691941632
 30
0.0
 10
82.5596462467212
 20
-133.0695691941632
 30
0.0
 10
82.5596462467212
 20
-133.0695691941632
 30
0.0
 10
82.15140243171909
 20
-133.0695691941632
 30
0.0
 10
82.15140243171909
 20
-133.0695691941632
 30
0.0
 10
82.15140243171909
 20
-133.0695691941632
 30
0.0
 10
82.15140243171909
 20
-133.7107014639682
 30
0.0
 10
82.15140243171909
 20
-133.7107014639682
 30
0.0
 10
82.15140243171909
 20
-133.7107014639682
 30
0.0
 10
81.91661917439932
 20
-133.7107014639682
 30
0.0
 10
81.91661917439932
 20
-133.7107014639682
 30
0.0
 10
81.91661917439932
 20
-133.7107014639682
 30
0.0
 10
81.91661917439932
 20
-132.1662651579307
 30
0.0
 10
81.91661917439932
 20
-132.1662651579307
 30
0.0
 10
81.91661917439932
 20
-132.1662651579307
 30
0.0
 10
82.59134112518551
 20
-132.1662651579307
 30
0.0
 10
82.59134112518551
 20
-132.1662651579307
 30
0.0
 10
82.898126878147
 20
-132.1662651579307
 30
0.0
 10
83.06538626395587
 20
-132.3378309130961
 30
0.0
 10
83.06538626395587
 20
-132.5938015076502
 30
0.0
 10
83.06538626395587
 20
-132.6444444112833
 30
0.0
 10
83.05677352524276
 20
-132.7271267029293
 30
0.0
 10
83.01233179348303
 20
-132.8073974277357
 30
0.0
 10
82.953248405911
 20
-132.9110948018417
 30
0.0
 10
82.88761933691698
 20
-132.9300428270105
 30
0.0
 10
82.82629663727954
 20
-132.9469237948883
 30
0.0
 10
82.96375594714101
 20
-132.9892984693568
 30
0.0
 10
83.03145207342617
 20
-133.0378743156989
 30
0.0
 10
83.03575844278274
 20
-133.3531005525992
 30
0.0
 10
83.03989255736504
 20
-133.6238850577399
 30
0.0
 10
83.07589380518588
 20
-133.6555799362042
 30
0.0
 10
83.14358993147106
 20
-133.7107014639682
 30
0.0
 10
83.14358993147106
 20
-133.7107014639682
 30
0.0
 10
82.84748397451382
 20
-133.7107014639682
 30
0.0
 10
82.84748397451382
 20
-133.7107014639682
 30
0.0
  0
SPLINE
  5
8C
330
82
100
AcDbEntity
  8
_U+30EC_U+30A4_U+30E4_U+30FC 1
370
     0
100
AcDbSpline
210
0.0
220
0.0
230
1.0
 70
    11
 71
     3
 72
    20
 73
    16
 74
     0
 42
0.0000000001
 43
0.0000000001
 12
1.0
 22
0.0
 32
0.0
 13
1.0
 23
0.0
 33
0.0
 40
0.0
 40
0.0
 40
0.0
 40
0.0
 40
1.0
 40
1.0
 40
1.0
 40
2.0
 40
2.0
 40
2.0
 40
3.0
 40
3.0
 40
3.0
 40
4.0
 40
4.0
 40
4.0
 40
5.0
 40
5.0
 40
5.0
 40
5.0
 10
82.59564749454206
 20
-132.377794020725
 30
0.0
 10
82.59564749454206
 20
-132.377794020725
 30
0.0
 10
82.15140243171909
 20
-132.377794020725
 30
0.0
 10
82.15140243171909
 20
-132.377794020725
 30
0.0
 10
82.15140243171909
 20
-132.377794020725
 30
0.0
 10
82.15140243171909
 20
-132.8580403313688
 30
0.0
 10
82.15140243171909
 20
-132.8580403313688
 30
0.0
 10
82.15140243171909
 20
-132.8580403313688
 30
0.0
 10
82.59358043725092
 20
-132.8580403313688
 30
0.0
 10
82.59358043725092
 20
-132.8580403313688
 30
0.0
 10
82.69297144200037
 20
-132.8580403313688
 30
0.0
 10
82.8283636945707
 20
-132.7819037211448
 30
0.0
 10
82.8283636945707
 20
-132.6106824755279
 30
0.0
 10
82.8283636945707
 20
-132.5324788080127
 30
0.0
 10
82.79460175881525
 20
-132.377794020725
 30
0.0
 10
82.59564749454206
 20
-132.377794020725
 30
0.0
  0
HATCH
  5
8D
330
82
100
AcDbEntity
  8
_U+30EC_U+30A4_U+30E4_U+30FC 1
 62
   179
420
  2234388
100
AcDbHatch
 10
0.0
 20
0.0
 30
0.0
210
0.0
220
0.0
230
1.0
  2
SOLID
 70
     1
 71
     0
 91
        2
 92
        1
 93
        1
 72
     4
 94
        3
 73
     0
 74
     1
 95
       44
 96
       40
 40
0.0
 40
0.0
 40
0.0
 40
0.0
 40
1.0
 40
1.0
 40
1.0
 40
2.0
 40
2.0
 40
2.0
 40
3.0
 40
3.0
 40
3.0
 40
4.0
 40
4.0
 40
4.0
 40
5.0
 40
5.0
 40
5.0
 40
6.0
 40
6.0
 40
6.0
 40
7.0
 40
7.0
 40
7.0
 40
8.0
 40
8.0
 40
8.0
 40
9.0
 40
9.0
 40
9.0
 40
10.0
 40
10.0
 40
10.0
 40
11.0
 40
11.0
 40
11.0
 40
12.0
 40
12.0
 40
12.0
 40
13.0
 40
13.0
 40
13.0
 40
13.0
 10
82.84748397451382
 20
-133.7107014639682
 10
82.82405732521413
 20
-133.6662597322084
 10
82.8030422427541
 20
-133.6135497712841
 10
82.80080293068869
 20
-133.3827283737724
 10
82.79666881610639
 20
-133.1395046325137
 10
82.73741317376009
 20
-133.0695691941632
 10
82.5596462467212
 20
-133.0695691941632
 10
82.5596462467212
 20
-133.0695691941632
 10
82.15140243171909
 20
-133.0695691941632
 10
82.15140243171909
 20
-133.0695691941632
 10
82.15140243171909
 20
-133.0695691941632
 10
82.15140243171909
 20
-133.7107014639682
 10
82.15140243171909
 20
-133.7107014639682
 10
82.15140243171909
 20
-133.7107014639682
 10
81.91661917439932
 20
-133.7107014639682
 10
81.91661917439932
 20
-133.7107014639682
 10
81.91661917439932
 20
-133.7107014639682
 10
81.91661917439932
 20
-132.1662651579307
 10
81.91661917439932
 20
-132.1662651579307
 10
81.91661917439932
 20
-132.1662651579307
 10
82.59134112518551
 20
-132.1662651579307
 10
82.59134112518551
 20
-132.1662651579307
 10
82.898126878147
 20
-132.1662651579307
 10
83.06538626395587
 20
-132.3378309130961
 10
83.06538626395587
 20
-132.5938015076502
 10
83.06538626395587
 20
-132.6444444112833
 10
83.05677352524276
 20
-132.7271267029293
 10
83.01233179348303
 20
-132.8073974277357
 10
82.953248405911
 20
-132.9110948018417
 10
82.88761933691698
 20
-132.9300428270105
 10
82.82629663727954
 20
-132.9469237948883
 10
82.96375594714101
 20
-132.9892984693568
 10
83.03145207342617
 20
-133.0378743156989
 10
83.03575844278274
 20
-133.3531005525992
 10
83.03989255736504
 20
-133.6238850577399
 10
83.07589380518588
 20
-133.6555799362042
 10
83.14358993147106
 20
-133.7107014639682
 10
83.14358993147106
 20
-133.7107014639682
 10
82.84748397451382
 20
-133.7107014639682
 10
82.84748397451382
 20
-133.7107014639682
 97
        0
 97
        0
 92
        1
 93
        1
 72
     4
 94
        3
 73
     0
 74
     1
 95
       20
 96
       16
 40
0.0
 40
0.0
 40
0.0
 40
0.0
 40
1.0
 40
1.0
 40
1.0
 40
2.0
 40
2.0
 40
2.0
 40
3.0
 40
3.0
 40
3.0
 40
4.0
 40
4.0
 40
4.0
 40
5.0
 40
5.0
 40
5.0
 40
5.0
 10
82.59564749454206
 20
-132.377794020725
 10
82.59564749454206
 20
-132.377794020725
 10
82.15140243171909
 20
-132.377794020725
 10
82.15140243171909
 20
-132.377794020725
 10
82.15140243171909
 20
-132.377794020725
 10
82.15140243171909
 20
-132.8580403313688
 10
82.15140243171909
 20
-132.8580403313688
 10
82.15140243171909
 20
-132.8580403313688
 10
82.59358043725092
 20
-132.8580403313688
 10
82.59358043725092
 20
-132.8580403313688
 10
82.69297144200037
 20
-132.8580403313688
 10
82.8283636945707
 20
-132.7819037211448
 10
82.8283636945707
 20
-132.6106824755279
 10
82.8283636945707
 20
-132.5324788080127
 10
82.79460175881525
 20
-132.377794020725
 10
82.59564749454206
 20
-132.377794020725
 97
        0
 97
        0
 75
     2
 76
     1
 98
        0
  0
ENDBLK
  5
85
330
82
100
AcDbEntity
  8
0
100
AcDbBlockEnd
  0
BLOCK
  5
A0
330
9E
100
AcDbEntity
  8
0
100
AcDbBlockBegin
  2
block 3
 70
     0
 10
0.0
 20
0.0
 30
0.0
  3
block 3
  1

  0
SPLINE
  5
A2
330
9E
100
AcDbEntity
  8
_U+30EC_U+30A4_U+30E4_U+30FC 1
370
     0
100
AcDbSpline
210
0.0
220
0.0
230
1.0
 70
    11
 71
     3
 72
    26
 73
    22
 74
     0
 42
0.0000000001
 43
0.0000000001
 12
1.0
 22
0.0
 32
0.0
 13
1.0
 23
0.0
 33
0.0
 40
0.0
 40
0.0
 40
0.0
 40
0.0
 40
1.0
 40
1.0
 40
1.0
 40
2.0
 40
2.0
 40
2.0
 40
3.0
 40
3.0
 40
3.0
 40
4.0
 40
4.0
 40
4.0
 40
5.0
 40
5.0
 40
5.0
 40
6.0
 40
6.0
 40
6.0
 40
7.0
 40
7.0
 40
7.0
 40
7.0
 10
108.9938639050432
 20
-125.0979627508436
 30
0.0
 10
108.9938639050432
 20
-125.0979627508436
 30
0.0
 10
107.8897108020206
 20
-125.0979627508436
 30
0.0
 10
107.8897108020206
 20
-125.0979627508436
 30
0.0
 10
107.8897108020206
 20
-125.0979627508436
 30
0.0
 10
107.8897108020206
 20
-125.4280028983305
 30
0.0
 10
107.8897108020206
 20
-125.4280028983305
 30
0.0
 10
107.8897108020206
 20
-125.4280028983305
 30
0.0
 10
107.7415716961549
 20
-125.4280028983305
 30
0.0
 10
107.7415716961549
 20
-125.4280028983305
 30
0.0
 10
107.7267577855683
 20
-125.0958956935524
 30
0.0
 10
107.563804769116
 20
-125.0493869045015
 30
0.0
 10
107.4494275990057
 20
-125.0197590833284
 30
0.0
 10
107.4494275990057
 20
-125.0197590833284
 30
0.0
 10
107.4494275990057
 20
-124.8736870347538
 30
0.0
 10
107.4494275990057
 20
-124.8736870347538
 30
0.0
 10
107.4494275990057
 20
-124.8736870347538
 30
0.0
 10
108.9938639050432
 20
-124.8736870347538
 30
0.0
 10
108.9938639050432
 20
-124.8736870347538
 30
0.0
 10
108.9938639050432
 20
-124.8736870347538
 30
0.0
 10
108.9938639050432
 20
-125.0979627508436
 30
0.0
 10
108.9938639050432
 20
-125.0979627508436
 30
0.0
  0
HATCH
  5
A3
330
9E
100
AcDbEntity
  8
_U+30EC_U+30A4_U+30E4_U+30FC 1
 62
   179
420
  2234388
100
AcDbHatch
 10
0.0
 20
0.0
 30
0.0
210
0.0
220
0.0
230
1.0
  2
SOLID
 70
     1
 71
     0
 91
        1
 92
        1
 93
        1
 72
     4
 94
        3
 73
     0
 74
     1
 95
       26
 96
       22
 40
0.0
 40
0.0
 40
0.0
 40
0.0
 40
1.0
 40
1.0
 40
1.0
 40
2.0
 40
2.0
 40
2.0
 40
3.0
 40
3.0
 40
3.0
 40
4.0
 40
4.0
 40
4.0
 40
5.0
 40
5.0
 40
5.0
 40
6.0
 40
6.0
 40
6.0
 40
7.0
 40
7.0
 40
7.0
 40
7.0
 10
108.9938639050432
 20
-125.0979627508436
 10
108.9938639050432
 20
-125.0979627508436
 10
107.8897108020206
 20
-125.0979627508436
 10
107.8897108020206
 20
-125.0979627508436
 10
107.8897108020206
 20
-125.0979627508436
 10
107.8897108020206
 20
-125.4280028983305
 10
107.8897108020206
 20
-125.4280028983305
 10
107.8897108020206
 20
-125.4280028983305
 10
107.7415716961549
 20
-125.4280028983305
 10
107.7415716961549
 20
-125.4280028983305
 10
107.7267577855683
 20
-125.0958956935524
 10
107.563804769116
 20
-125.0493869045015
 10
107.4494275990057
 20
-125.0197590833284
 10
107.4494275990057
 20
-125.0197590833284
 10
107.4494275990057
 20
-124.8736870347538
 10
107.4494275990057
 20
-124.8736870347538
 10
107.4494275990057
 20
-124.8736870347538
 10
108.9938639050432
 20
-124.8736870347538
 10
108.9938639050432
 20
-124.8736870347538
 10
108.9938639050432
 20
-124.8736870347538
 10
108.9938639050432
 20
-125.0979627508436
 10
108.9938639050432
 20
-125.0979627508436
 97
        0
 97
        0
 75
     2
 76
     1
 98
        0
  0
ENDBLK
  5
A1
330
9E
100
AcDbEntity
  8
0
100
AcDbBlockEnd
  0
BLOCK
  5
AE
330
AC
100
AcDbEntity
  8
0
100
AcDbBlockBegin
  2
block 4
 70
     0
 10
0.0
 20
0.0
 30
0.0
  3
block 4
  1

  0
SPLINE
  5
B0
330
AC
100
AcDbEntity
  8
_U+30EC_U+30A4_U+30E4_U+30FC 1
370
     0
100
AcDbSpline
210
0.0
220
0.0
230
1.0
 70
    11
 71
     3
 72
    26
 73
    22
 74
     0
 42
0.0000000001
 43
0.0000000001
 12
1.0
 22
0.0
 32
0.0
 13
1.0
 23
0.0
 33
0.0
 40
0.0
 40
0.0
 40
0.0
 40
0.0
 40
1.0
 40
1.0
 40
1.0
 40
2.0
 40
2.0
 40
2.0
 40
3.0
 40
3.0
 40
3.0
 40
4.0
 40
4.0
 40
4.0
 40
5.0
 40
5.0
 40
5.0
 40
6.0
 40
6.0
 40
6.0
 40
7.0
 40
7.0
 40
7.0
 40
7.0
 10
108.5797634277162
 20
-136.1866915892172
 30
0.0
 10
108.5797634277162
 20
-136.1866915892172
 30
0.0
 10
107.4756103246936
 20
-136.1866915892172
 30
0.0
 10
107.4756103246936
 20
-136.1866915892172
 30
0.0
 10
107.4756103246936
 20
-136.1866915892172
 30
0.0
 10
107.4756103246936
 20
-136.5167317367041
 30
0.0
 10
107.4756103246936
 20
-136.5167317367041
 30
0.0
 10
107.4756103246936
 20
-136.5167317367041
 30
0.0
 10
107.3274712188279
 20
-136.5167317367041
 30
0.0
 10
107.3274712188279
 20
-136.5167317367041
 30
0.0
 10
107.3126573082413
 20
-136.1846245319261
 30
0.0
 10
107.149704291789
 20
-136.1381157428752
 30
0.0
 10
107.0353271216787
 20
-136.1084879217021
 30
0.0
 10
107.0353271216787
 20
-136.1084879217021
 30
0.0
 10
107.0353271216787
 20
-135.9624158731275
 30
0.0
 10
107.0353271216787
 20
-135.9624158731275
 30
0.0
 10
107.0353271216787
 20
-135.9624158731275
 30
0.0
 10
108.5797634277162
 20
-135.9624158731275
 30
0.0
 10
108.5797634277162
 20
-135.9624158731275
 30
0.0
 10
108.5797634277162
 20
-135.9624158731275
 30
0.0
 10
108.5797634277162
 20
-136.1866915892172
 30
0.0
 10
108.5797634277162
 20
-136.1866915892172
 30
0.0
  0
HATCH
  5
B1
330
AC
100
AcDbEntity
  8
_U+30EC_U+30A4_U+30E4_U+30FC 1
 62
   179
420
  2234388
100
AcDbHatch
 10
0.0
 20
0.0
 30
0.0
210
0.0
220
0.0
230
1.0
  2
SOLID
 70
     1
 71
     0
 91
        1
 92
        1
 93
        1
 72
     4
 94
        3
 73
     0
 74
     1
 95
       26
 96
       22
 40
0.0
 40
0.0
 40
0.0
 40
0.0
 40
1.0
 40
1.0
 40
1.0
 40
2.0
 40
2.0
 40
2.0
 40
3.0
 40
3.0
 40
3.0
 40
4.0
 40
4.0
 40
4.0
 40
5.0
 40
5.0
 40
5.0
 40
6.0
 40
6.0
 40
6.0
 40
7.0
 40
7.0
 40
7.0
 40
7.0
 10
108.5797634277162
 20
-136.1866915892172
 10
108.5797634277162
 20
-136.1866915892172
 10
107.4756103246936
 20
-136.1866915892172
 10
107.4756103246936
 20
-136.1866915892172
 10
107.4756103246936
 20
-136.1866915892172
 10
107.4756103246936
 20
-136.5167317367041
 10
107.4756103246936
 20
-136.5167317367041
 10
107.4756103246936
 20
-136.5167317367041
 10
107.3274712188279
 20
-136.5167317367041
 10
107.3274712188279
 20
-136.5167317367041
 10
107.3126573082413
 20
-136.1846245319261
 10
107.149704291789
 20
-136.1381157428752
 10
107.0353271216787
 20
-136.1084879217021
 10
107.0353271216787
 20
-136.1084879217021
 10
107.0353271216787
 20
-135.9624158731275
 10
107.0353271216787
 20
-135.9624158731275
 10
107.0353271216787
 20
-135.9624158731275
 10
108.5797634277162
 20
-135.9624158731275
 10
108.5797634277162
 20
-135.9624158731275
 10
108.5797634277162
 20
-135.9624158731275
 10
108.5797634277162
 20
-136.1866915892172
 10
108.5797634277162
 20
-136.1866915892172
 97
        0
 97
        0
 75
     2
 76
     1
 98
        0
  0
SPLINE
  5
B2
330
AC
100
AcDbEntity
  8
_U+30EC_U+30A4_U+30E4_U+30FC 1
370
     0
100
AcDbSpline
210
0.0
220
0.0
230
1.0
 70
    11
 71
     3
 72
    53
 73
    49
 74
     0
 42
0.0000000001
 43
0.0000000001
 12
1.0
 22
0.0
 32
0.0
 13
1.0
 23
0.0
 33
0.0
 40
0.0
 40
0.0
 40
0.0
 40
0.0
 40
1.0
 40
1.0
 40
1.0
 40
2.0
 40
2.0
 40
2.0
 40
3.0
 40
3.0
 40
3.0
 40
4.0
 40
4.0
 40
4.0
 40
5.0
 40
5.0
 40
5.0
 40
6.0
 40
6.0
 40
6.0
 40
7.0
 40
7.0
 40
7.0
 40
8.0
 40
8.0
 40
8.0
 40
9.0
 40
9.0
 40
9.0
 40
10.0
 40
10.0
 40
10.0
 40
11.0
 40
11.0
 40
11.0
 40
12.0
 40
12.0
 40
12.0
 40
13.0
 40
13.0
 40
13.0
 40
14.0
 40
14.0
 40
14.0
 40
15.0
 40
15.0
 40
15.0
 40
16.0
 40
16.0
 40
16.0
 40
16.0
 10
108.6304063313493
 20
-134.9802191502827
 30
0.0
 10
108.6304063313493
 20
-135.0584228177979
 30
0.0
 10
108.6135253634716
 20
-135.1600531346128
 30
0.0
 10
108.550135606543
 20
-135.2616834514276
 30
0.0
 10
108.4402370605636
 20
-135.4349717543357
 30
0.0
 10
108.3089789225755
 20
-135.4563313463443
 30
0.0
 10
108.2011474338872
 20
-135.4752793715131
 30
0.0
 10
108.2011474338872
 20
-135.4752793715131
 30
0.0
 10
108.2011474338872
 20
-135.2530707127145
 30
0.0
 10
108.2011474338872
 20
-135.2530707127145
 30
0.0
 10
108.3999294433861
 20
-135.1982936944991
 30
0.0
 10
108.4295572645593
 20
-135.0711696710933
 30
0.0
 10
108.4295572645593
 20
-134.9781520929916
 30
0.0
 10
108.4295572645593
 20
-134.838625725839
 30
0.0
 10
108.3299940050356
 20
-134.6863525053909
 30
0.0
 10
108.0974500597812
 20
-134.6863525053909
 30
0.0
 10
107.8414794652271
 20
-134.6863525053909
 30
0.0
 10
107.7715440268766
 20
-134.8661864897209
 30
0.0
 10
107.7715440268766
 20
-134.9867648317047
 30
0.0
 10
107.7715440268766
 20
-135.018459710169
 30
0.0
 10
107.7715440268766
 20
-135.1600531346128
 30
0.0
 10
107.9007351075734
 20
-135.2489365981322
 30
0.0
 10
107.9007351075734
 20
-135.2489365981322
 30
0.0
 10
107.8817870824046
 20
-135.42463646788
 30
0.0
 10
107.8817870824046
 20
-135.42463646788
 30
0.0
 10
107.8817870824046
 20
-135.42463646788
 30
0.0
 10
107.0353271216787
 20
-135.3040581258962
 30
0.0
 10
107.0353271216787
 20
-135.3040581258962
 30
0.0
 10
107.0353271216787
 20
-135.3040581258962
 30
0.0
 10
107.0353271216787
 20
-134.5254665462298
 30
0.0
 10
107.0353271216787
 20
-134.5254665462298
 30
0.0
 10
107.0353271216787
 20
-134.5254665462298
 30
0.0
 10
107.2299750165953
 20
-134.5254665462298
 30
0.0
 10
107.2299750165953
 20
-134.5254665462298
 30
0.0
 10
107.2299750165953
 20
-134.5254665462298
 30
0.0
 10
107.2299750165953
 20
-135.1411051094439
 30
0.0
 10
107.2299750165953
 20
-135.1411051094439
 30
0.0
 10
107.2299750165953
 20
-135.1411051094439
 30
0.0
 10
107.653032742184
 20
-135.2065619236637
 30
0.0
 10
107.653032742184
 20
-135.2065619236637
 30
0.0
 10
107.6192708064285
 20
-135.1452392240262
 30
0.0
 10
107.5789631892511
 20
-135.0629014419287
 30
0.0
 10
107.5789631892511
 20
-134.9443901572361
 30
0.0
 10
107.5789631892511
 20
-134.6904866199732
 30
0.0
 10
107.7653428550031
 20
-134.453464050588
 30
0.0
 10
108.0785020346123
 20
-134.453464050588
 30
0.0
 10
108.3957953288038
 20
-134.453464050588
 30
0.0
 10
108.6304063313493
 20
-134.6777397666778
 30
0.0
 10
108.6304063313493
 20
-134.9802191502827
 30
0.0
  0
HATCH
  5
B3
330
AC
100
AcDbEntity
  8
_U+30EC_U+30A4_U+30E4_U+30FC 1
 62
   179
420
  2234388
100
AcDbHatch
 10
0.0
 20
0.0
 30
0.0
210
0.0
220
0.0
230
1.0
  2
SOLID
 70
     1
 71
     0
 91
        1
 92
        1
 93
        1
 72
     4
 94
        3
 73
     0
 74
     1
 95
       53
 96
       49
 40
0.0
 40
0.0
 40
0.0
 40
0.0
 40
1.0
 40
1.0
 40
1.0
 40
2.0
 40
2.0
 40
2.0
 40
3.0
 40
3.0
 40
3.0
 40
4.0
 40
4.0
 40
4.0
 40
5.0
 40
5.0
 40
5.0
 40
6.0
 40
6.0
 40
6.0
 40
7.0
 40
7.0
 40
7.0
 40
8.0
 40
8.0
 40
8.0
 40
9.0
 40
9.0
 40
9.0
 40
10.0
 40
10.0
 40
10.0
 40
11.0
 40
11.0
 40
11.0
 40
12.0
 40
12.0
 40
12.0
 40
13.0
 40
13.0
 40
13.0
 40
14.0
 40
14.0
 40
14.0
 40
15.0
 40
15.0
 40
15.0
 40
16.0
 40
16.0
 40
16.0
 40
16.0
 10
108.6304063313493
 20
-134.9802191502827
 10
108.6304063313493
 20
-135.0584228177979
 10
108.6135253634716
 20
-135.1600531346128
 10
108.550135606543
 20
-135.2616834514276
 10
108.4402370605636
 20
-135.4349717543357
 10
108.3089789225755
 20
-135.4563313463443
 10
108.2011474338872
 20
-135.4752793715131
 10
108.2011474338872
 20
-135.4752793715131
 10
108.2011474338872
 20
-135.2530707127145
 10
108.2011474338872
 20
-135.2530707127145
 10
108.3999294433861
 20
-135.1982936944991
 10
108.4295572645593
 20
-135.0711696710933
 10
108.4295572645593
 20
-134.9781520929916
 10
108.4295572645593
 20
-134.838625725839
 10
108.3299940050356
 20
-134.6863525053909
 10
108.0974500597812
 20
-134.6863525053909
 10
107.8414794652271
 20
-134.6863525053909
 10
107.7715440268766
 20
-134.8661864897209
 10
107.7715440268766
 20
-134.9867648317047
 10
107.7715440268766
 20
-135.018459710169
 10
107.7715440268766
 20
-135.1600531346128
 10
107.9007351075734
 20
-135.2489365981322
 10
107.9007351075734
 20
-135.2489365981322
 10
107.8817870824046
 20
-135.42463646788
 10
107.8817870824046
 20
-135.42463646788
 10
107.8817870824046
 20
-135.42463646788
 10
107.0353271216787
 20
-135.3040581258962
 10
107.0353271216787
 20
-135.3040581258962
 10
107.0353271216787
 20
-135.3040581258962
 10
107.0353271216787
 20
-134.5254665462298
 10
107.0353271216787
 20
-134.5254665462298
 10
107.0353271216787
 20
-134.5254665462298
 10
107.2299750165953
 20
-134.5254665462298
 10
107.2299750165953
 20
-134.5254665462298
 10
107.2299750165953
 20
-134.5254665462298
 10
107.2299750165953
 20
-135.1411051094439
 10
107.2299750165953
 20
-135.1411051094439
 10
107.2299750165953
 20
-135.1411051094439
 10
107.653032742184
 20
-135.2065619236637
 10
107.653032742184
 20
-135.2065619236637
 10
107.6192708064285
 20
-135.1452392240262
 10
107.5789631892511
 20
-135.0629014419287
 10
107.5789631892511
 20
-134.9443901572361
 10
107.5789631892511
 20
-134.6904866199732
 10
107.7653428550031
 20
-134.453464050588
 10
108.0785020346123
 20
-134.453464050588
 10
108.3957953288038
 20
-134.453464050588
 10
108.6304063313493
 20
-134.6777397666778
 10
108.6304063313493
 20
-134.9802191502827
 97
        0
 97
        0
 75
     2
 76
     1
 98
        0
  0
ENDBLK
  5
AF
330
AC
100
AcDbEntity
  8
0
100
AcDbBlockEnd
  0
BLOCK
  5
BE
330
BC
100
AcDbEntity
  8
0
100
AcDbBlockBegin
  2
block 5
 70
     0
 10
0.0
 20
0.0
 30
0.0
  3
block 5
  1

  0
SPLINE
  5
C0
330
BC
100
AcDbEntity
  8
_U+30EC_U+30A4_U+30E4_U+30FC 1
370
     0
100
AcDbSpline
210
0.0
220
0.0
230
1.0
 70
    11
 71
     3
 72
    26
 73
    22
 74
     0
 42
0.0000000001
 43
0.0000000001
 12
1.0
 22
0.0
 32
0.0
 13
1.0
 23
0.0
 33
0.0
 40
0.0
 40
0.0
 40
0.0
 40
0.0
 40
1.0
 40
1.0
 40
1.0
 40
2.0
 40
2.0
 40
2.0
 40
3.0
 40
3.0
 40
3.0
 40
4.0
 40
4.0
 40
4.0
 40
5.0
 40
5.0
 40
5.0
 40
6.0
 40
6.0
 40
6.0
 40
7.0
 40
7.0
 40
7.0
 40
7.0
 10
77.30983749152324
 20
-116.8479925923158
 30
0.0
 10
77.30983749152324
 20
-116.8479925923158
 30
0.0
 10
77.30983749152324
 20
-115.743667234519
 30
0.0
 10
77.30983749152324
 20
-115.743667234519
 30
0.0
 10
77.30983749152324
 20
-115.743667234519
 30
0.0
 10
76.9797973440363
 20
-115.743667234519
 30
0.0
 10
76.9797973440363
 20
-115.743667234519
 30
0.0
 10
76.9797973440363
 20
-115.743667234519
 30
0.0
 10
76.9797973440363
 20
-115.5957003834275
 30
0.0
 10
76.9797973440363
 20
-115.5957003834275
 30
0.0
 10
77.31190454881438
 20
-115.5808864728409
 30
0.0
 10
77.35841333786526
 20
-115.4179334563886
 30
0.0
 10
77.38804115903841
 20
-115.3037285410525
 30
0.0
 10
77.38804115903841
 20
-115.3037285410525
 30
0.0
 10
77.534113207613
 20
-115.3037285410525
 30
0.0
 10
77.534113207613
 20
-115.3037285410525
 30
0.0
 10
77.534113207613
 20
-115.3037285410525
 30
0.0
 10
77.534113207613
 20
-116.8479925923158
 30
0.0
 10
77.534113207613
 20
-116.8479925923158
 30
0.0
 10
77.534113207613
 20
-116.8479925923158
 30
0.0
 10
77.30983749152324
 20
-116.8479925923158
 30
0.0
 10
77.30983749152324
 20
-116.8479925923158
 30
0.0
  0
HATCH
  5
C1
330
BC
100
AcDbEntity
  8
_U+30EC_U+30A4_U+30E4_U+30FC 1
 62
   179
420
  2234388
100
AcDbHatch
 10
0.0
 20
0.0
 30
0.0
210
0.0
220
0.0
230
1.0
  2
SOLID
 70
     1
 71
     0
 91
        1
 92
        1
 93
        1
 72
     4
 94
        3
 73
     0
 74
     1
 95
       26
 96
       22
 40
0.0
 40
0.0
 40
0.0
 40
0.0
 40
1.0
 40
1.0
 40
1.0
 40
2.0
 40
2.0
 40
2.0
 40
3.0
 40
3.0
 40
3.0
 40
4.0
 40
4.0
 40
4.0
 40
5.0
 40
5.0
 40
5.0
 40
6.0
 40
6.0
 40
6.0
 40
7.0
 40
7.0
 40
7.0
 40
7.0
 10
77.30983749152324
 20
-116.8479925923158
 10
77.30983749152324
 20
-116.8479925923158
 10
77.30983749152324
 20
-115.743667234519
 10
77.30983749152324
 20
-115.743667234519
 10
77.30983749152324
 20
-115.743667234519
 10
76.9797973440363
 20
-115.743667234519
 10
76.9797973440363
 20
-115.743667234519
 10
76.9797973440363
 20
-115.743667234519
 10
76.9797973440363
 20
-115.5957003834275
 10
76.9797973440363
 20
-115.5957003834275
 10
77.31190454881438
 20
-115.5808864728409
 10
77.35841333786526
 20
-115.4179334563886
 10
77.38804115903841
 20
-115.3037285410525
 10
77.38804115903841
 20
-115.3037285410525
 10
77.534113207613
 20
-115.3037285410525
 10
77.534113207613
 20
-115.3037285410525
 10
77.534113207613
 20
-115.3037285410525
 10
77.534113207613
 20
-116.8479925923158
 10
77.534113207613
 20
-116.8479925923158
 10
77.534113207613
 20
-116.8479925923158
 10
77.30983749152324
 20
-116.8479925923158
 10
77.30983749152324
 20
-116.8479925923158
 97
        0
 97
        0
 75
     2
 76
     1
 98
        0
  0
SPLINE
  5
C2
330
BC
100
AcDbEntity
  8
_U+30EC_U+30A4_U+30E4_U+30FC 1
370
     0
100
AcDbSpline
210
0.0
220
0.0
230
1.0
 70
    11
 71
     3
 72
    53
 73
    49
 74
     0
 42
0.0000000001
 43
0.0000000001
 12
1.0
 22
0.0
 32
0.0
 13
1.0
 23
0.0
 33
0.0
 40
0.0
 40
0.0
 40
0.0
 40
0.0
 40
1.0
 40
1.0
 40
1.0
 40
2.0
 40
2.0
 40
2.0
 40
3.0
 40
3.0
 40
3.0
 40
4.0
 40
4.0
 40
4.0
 40
5.0
 40
5.0
 40
5.0
 40
6.0
 40
6.0
 40
6.0
 40
7.0
 40
7.0
 40
7.0
 40
8.0
 40
8.0
 40
8.0
 40
9.0
 40
9.0
 40
9.0
 40
10.0
 40
10.0
 40
10.0
 40
11.0
 40
11.0
 40
11.0
 40
12.0
 40
12.0
 40
12.0
 40
13.0
 40
13.0
 40
13.0
 40
14.0
 40
14.0
 40
14.0
 40
15.0
 40
15.0
 40
15.0
 40
16.0
 40
16.0
 40
16.0
 40
16.0
 10
78.51630993045774
 20
-116.8988077507232
 30
0.0
 10
78.4379340081683
 20
-116.8988077507232
 30
0.0
 10
78.33647594612769
 20
-116.8817545280712
 30
0.0
 10
78.23484562931282
 20
-116.8183647711426
 30
0.0
 10
78.0613850716305
 20
-116.7082939703889
 30
0.0
 10
78.0401977343962
 20
-116.5772080871752
 30
0.0
 10
78.02124970922733
 20
-116.4693765984868
 30
0.0
 10
78.02124970922733
 20
-116.4693765984868
 30
0.0
 10
78.24328611325168
 20
-116.4693765984868
 30
0.0
 10
78.24328611325168
 20
-116.4693765984868
 30
0.0
 10
78.29840764101569
 20
-116.6681586079857
 30
0.0
 10
78.42535940964713
 20
-116.6977864291589
 30
0.0
 10
78.51837698774888
 20
-116.6977864291589
 30
0.0
 10
78.65807560967576
 20
-116.6977864291589
 30
0.0
 10
78.8103488301238
 20
-116.5983954244094
 30
0.0
 10
78.8103488301238
 20
-116.3656792243808
 30
0.0
 10
78.8103488301238
 20
-116.1097086298267
 30
0.0
 10
78.63051484579377
 20
-116.0399454462504
 30
0.0
 10
78.50993650381002
 20
-116.0399454462504
 30
0.0
 10
78.47824162534572
 20
-116.0399454462504
 30
0.0
 10
78.33647594612769
 20
-116.0399454462504
 30
0.0
 10
78.24759248260824
 20
-116.168964272173
 30
0.0
 10
78.24759248260824
 20
-116.168964272173
 30
0.0
 10
78.07206486763477
 20
-116.1498439922299
 30
0.0
 10
78.07206486763477
 20
-116.1498439922299
 30
0.0
 10
78.07206486763477
 20
-116.1498439922299
 30
0.0
 10
78.19264320961851
 20
-115.3037285410525
 30
0.0
 10
78.19264320961851
 20
-115.3037285410525
 30
0.0
 10
78.19264320961851
 20
-115.3037285410525
 30
0.0
 10
78.97106253451071
 20
-115.3037285410525
 30
0.0
 10
78.97106253451071
 20
-115.3037285410525
 30
0.0
 10
78.97106253451071
 20
-115.3037285410525
 30
0.0
 10
78.97106253451071
 20
-115.4983764359692
 30
0.0
 10
78.97106253451071
 20
-115.4983764359692
 30
0.0
 10
78.97106253451071
 20
-115.4983764359692
 30
0.0
 10
78.35542397129656
 20
-115.4983764359692
 30
0.0
 10
78.35542397129656
 20
-115.4983764359692
 30
0.0
 10
78.35542397129656
 20
-115.4983764359692
 30
0.0
 10
78.28996715707682
 20
-115.9214341615578
 30
0.0
 10
78.28996715707682
 20
-115.9214341615578
 30
0.0
 10
78.35128985671426
 20
-115.8874999710281
 30
0.0
 10
78.433799893586
 20
-115.847364608625
 30
0.0
 10
78.55213892350433
 20
-115.847364608625
 30
0.0
 10
78.80604246076724
 20
-115.847364608625
 30
0.0
 10
79.04306503015243
 20
-116.0335720196027
 30
0.0
 10
79.04306503015243
 20
-116.3465589444377
 30
0.0
 10
79.04306503015243
 20
-116.6640244934034
 30
0.0
 10
78.81878931406267
 20
-116.8988077507232
 30
0.0
 10
78.51630993045774
 20
-116.8988077507232
 30
0.0
  0
HATCH
  5
C3
330
BC
100
AcDbEntity
  8
_U+30EC_U+30A4_U+30E4_U+30FC 1
 62
   179
420
  2234388
100
AcDbHatch
 10
0.0
 20
0.0
 30
0.0
210
0.0
220
0.0
230
1.0
  2
SOLID
 70
     1
 71
     0
 91
        1
 92
        1
 93
        1
 72
     4
 94
        3
 73
     0
 74
     1
 95
       53
 96
       49
 40
0.0
 40
0.0
 40
0.0
 40
0.0
 40
1.0
 40
1.0
 40
1.0
 40
2.0
 40
2.0
 40
2.0
 40
3.0
 40
3.0
 40
3.0
 40
4.0
 40
4.0
 40
4.0
 40
5.0
 40
5.0
 40
5.0
 40
6.0
 40
6.0
 40
6.0
 40
7.0
 40
7.0
 40
7.0
 40
8.0
 40
8.0
 40
8.0
 40
9.0
 40
9.0
 40
9.0
 40
10.0
 40
10.0
 40
10.0
 40
11.0
 40
11.0
 40
11.0
 40
12.0
 40
12.0
 40
12.0
 40
13.0
 40
13.0
 40
13.0
 40
14.0
 40
14.0
 40
14.0
 40
15.0
 40
15.0
 40
15.0
 40
16.0
 40
16.0
 40
16.0
 40
16.0
 10
78.51630993045774
 20
-116.8988077507232
 10
78.4379340081683
 20
-116.8988077507232
 10
78.33647594612769
 20
-116.8817545280712
 10
78.23484562931282
 20
-116.8183647711426
 10
78.0613850716305
 20
-116.7082939703889
 10
78.0401977343962
 20
-116.5772080871752
 10
78.02124970922733
 20
-116.4693765984868
 10
78.02124970922733
 20
-116.4693765984868
 10
78.24328611325168
 20
-116.4693765984868
 10
78.24328611325168
 20
-116.4693765984868
 10
78.29840764101569
 20
-116.6681586079857
 10
78.42535940964713
 20
-116.6977864291589
 10
78.51837698774888
 20
-116.6977864291589
 10
78.65807560967576
 20
-116.6977864291589
 10
78.8103488301238
 20
-116.5983954244094
 10
78.8103488301238
 20
-116.3656792243808
 10
78.8103488301238
 20
-116.1097086298267
 10
78.63051484579377
 20
-116.0399454462504
 10
78.50993650381002
 20
-116.0399454462504
 10
78.47824162534572
 20
-116.0399454462504
 10
78.33647594612769
 20
-116.0399454462504
 10
78.24759248260824
 20
-116.168964272173
 10
78.24759248260824
 20
-116.168964272173
 10
78.07206486763477
 20
-116.1498439922299
 10
78.07206486763477
 20
-116.1498439922299
 10
78.07206486763477
 20
-116.1498439922299
 10
78.19264320961851
 20
-115.3037285410525
 10
78.19264320961851
 20
-115.3037285410525
 10
78.19264320961851
 20
-115.3037285410525
 10
78.97106253451071
 20
-115.3037285410525
 10
78.97106253451071
 20
-115.3037285410525
 10
78.97106253451071
 20
-115.3037285410525
 10
78.97106253451071
 20
-115.4983764359692
 10
78.97106253451071
 20
-115.4983764359692
 10
78.97106253451071
 20
-115.4983764359692
 10
78.35542397129656
 20
-115.4983764359692
 10
78.35542397129656
 20
-115.4983764359692
 10
78.35542397129656
 20
-115.4983764359692
 10
78.28996715707682
 20
-115.9214341615578
 10
78.28996715707682
 20
-115.9214341615578
 10
78.35128985671426
 20
-115.8874999710281
 10
78.433799893586
 20
-115.847364608625
 10
78.55213892350433
 20
-115.847364608625
 10
78.80604246076724
 20
-115.847364608625
 10
79.04306503015243
 20
-116.0335720196027
 10
79.04306503015243
 20
-116.3465589444377
 10
79.04306503015243
 20
-116.6640244934034
 10
78.81878931406267
 20
-116.8988077507232
 10
78.51630993045774
 20
-116.8988077507232
 97
        0
 97
        0
 75
     2
 76
     1
 98
        0
  0
ENDBLK
  5
BF
330
BC
100
AcDbEntity
  8
0
100
AcDbBlockEnd
  0
BLOCK
  5
D2
330
D0
100
AcDbEntity
  8
0
100
AcDbBlockBegin
  2
block 6
 70
     0
 10
0.0
 20
0.0
 30
0.0
  3
block 6
  1

  0
SPLINE
  5
D4
330
D0
100
AcDbEntity
  8
_U+30EC_U+30A4_U+30E4_U+30FC 1
370
     0
100
AcDbSpline
210
0.0
220
0.0
230
1.0
 70
    11
 71
     3
 72
    26
 73
    22
 74
     0
 42
0.0000000001
 43
0.0000000001
 12
1.0
 22
0.0
 32
0.0
 13
1.0
 23
0.0
 33
0.0
 40
0.0
 40
0.0
 40
0.0
 40
0.0
 40
1.0
 40
1.0
 40
1.0
 40
2.0
 40
2.0
 40
2.0
 40
3.0
 40
3.0
 40
3.0
 40
4.0
 40
4.0
 40
4.0
 40
5.0
 40
5.0
 40
5.0
 40
6.0
 40
6.0
 40
6.0
 40
7.0
 40
7.0
 40
7.0
 40
7.0
 10
97.30982256681838
 20
-146.2770317559655
 30
0.0
 10
97.30982256681838
 20
-146.2770317559655
 30
0.0
 10
97.30982256681838
 20
-145.1728786529429
 30
0.0
 10
97.30982256681838
 20
-145.1728786529429
 30
0.0
 10
97.30982256681838
 20
-145.1728786529429
 30
0.0
 10
96.97978241933144
 20
-145.1728786529429
 30
0.0
 10
96.97978241933144
 20
-145.1728786529429
 30
0.0
 10
96.97978241933144
 20
-145.1728786529429
 30
0.0
 10
96.97978241933144
 20
-145.0247395470772
 30
0.0
 10
96.97978241933144
 20
-145.0247395470772
 30
0.0
 10
97.31188962410953
 20
-145.0099256364906
 30
0.0
 10
97.3583984131604
 20
-144.8469726200383
 30
0.0
 10
97.38802623433355
 20
-144.732595449928
 30
0.0
 10
97.38802623433355
 20
-144.732595449928
 30
0.0
 10
97.53409828290815
 20
-144.732595449928
 30
0.0
 10
97.53409828290815
 20
-144.732595449928
 30
0.0
 10
97.53409828290815
 20
-144.732595449928
 30
0.0
 10
97.53409828290815
 20
-146.2770317559655
 30
0.0
 10
97.53409828290815
 20
-146.2770317559655
 30
0.0
 10
97.53409828290815
 20
-146.2770317559655
 30
0.0
 10
97.30982256681838
 20
-146.2770317559655
 30
0.0
 10
97.30982256681838
 20
-146.2770317559655
 30
0.0
  0
HATCH
  5
D5
330
D0
100
AcDbEntity
  8
_U+30EC_U+30A4_U+30E4_U+30FC 1
 62
   179
420
  2234388
100
AcDbHatch
 10
0.0
 20
0.0
 30
0.0
210
0.0
220
0.0
230
1.0
  2
SOLID
 70
     1
 71
     0
 91
        1
 92
        1
 93
        1
 72
     4
 94
        3
 73
     0
 74
     1
 95
       26
 96
       22
 40
0.0
 40
0.0
 40
0.0
 40
0.0
 40
1.0
 40
1.0
 40
1.0
 40
2.0
 40
2.0
 40
2.0
 40
3.0
 40
3.0
 40
3.0
 40
4.0
 40
4.0
 40
4.0
 40
5.0
 40
5.0
 40
5.0
 40
6.0
 40
6.0
 40
6.0
 40
7.0
 40
7.0
 40
7.0
 40
7.0
 10
97.30982256681838
 20
-146.2770317559655
 10
97.30982256681838
 20
-146.2770317559655
 10
97.30982256681838
 20
-145.1728786529429
 10
97.30982256681838
 20
-145.1728786529429
 10
97.30982256681838
 20
-145.1728786529429
 10
96.97978241933144
 20
-145.1728786529429
 10
96.97978241933144
 20
-145.1728786529429
 10
96.97978241933144
 20
-145.1728786529429
 10
96.97978241933144
 20
-145.0247395470772
 10
96.97978241933144
 20
-145.0247395470772
 10
97.31188962410953
 20
-145.0099256364906
 10
97.3583984131604
 20
-144.8469726200383
 10
97.38802623433355
 20
-144.732595449928
 10
97.38802623433355
 20
-144.732595449928
 10
97.53409828290815
 20
-144.732595449928
 10
97.53409828290815
 20
-144.732595449928
 10
97.53409828290815
 20
-144.732595449928
 10
97.53409828290815
 20
-146.2770317559655
 10
97.53409828290815
 20
-146.2770317559655
 10
97.53409828290815
 20
-146.2770317559655
 10
97.30982256681838
 20
-146.2770317559655
 10
97.30982256681838
 20
-146.2770317559655
 97
        0
 97
        0
 75
     2
 76
     1
 98
        0
  0
SPLINE
  5
D6
330
D0
100
AcDbEntity
  8
_U+30EC_U+30A4_U+30E4_U+30FC 1
370
     0
100
AcDbSpline
210
0.0
220
0.0
230
1.0
 70
    11
 71
     3
 72
    53
 73
    49
 74
     0
 42
0.0000000001
 43
0.0000000001
 12
1.0
 22
0.0
 32
0.0
 13
1.0
 23
0.0
 33
0.0
 40
0.0
 40
0.0
 40
0.0
 40
0.0
 40
1.0
 40
1.0
 40
1.0
 40
2.0
 40
2.0
 40
2.0
 40
3.0
 40
3.0
 40
3.0
 40
4.0
 40
4.0
 40
4.0
 40
5.0
 40
5.0
 40
5.0
 40
6.0
 40
6.0
 40
6.0
 40
7.0
 40
7.0
 40
7.0
 40
8.0
 40
8.0
 40
8.0
 40
9.0
 40
9.0
 40
9.0
 40
10.0
 40
10.0
 40
10.0
 40
11.0
 40
11.0
 40
11.0
 40
12.0
 40
12.0
 40
12.0
 40
13.0
 40
13.0
 40
13.0
 40
14.0
 40
14.0
 40
14.0
 40
15.0
 40
15.0
 40
15.0
 40
16.0
 40
16.0
 40
16.0
 40
16.0
 10
98.51629500575288
 20
-146.3276746595986
 30
0.0
 10
98.4380913382377
 20
-146.3276746595986
 30
0.0
 10
98.33646102142283
 20
-146.3107936917209
 30
0.0
 10
98.23483070460796
 20
-146.2474039347923
 30
0.0
 10
98.0615424016999
 20
-146.1375053888129
 30
0.0
 10
98.04018280969134
 20
-146.0062472508248
 30
0.0
 10
98.02123478452248
 20
-145.8984157621365
 30
0.0
 10
98.02123478452248
 20
-145.8984157621365
 30
0.0
 10
98.24344344332108
 20
-145.8984157621365
 30
0.0
 10
98.24344344332108
 20
-145.8984157621365
 30
0.0
 10
98.29822046153656
 20
-146.0971977716354
 30
0.0
 10
98.42534448494229
 20
-146.1268255928086
 30
0.0
 10
98.51836206304402
 20
-146.1268255928086
 30
0.0
 10
98.65788843019665
 20
-146.1268255928086
 30
0.0
 10
98.81016165064469
 20
-146.0272623332849
 30
0.0
 10
98.81016165064469
 20
-145.7947183880305
 30
0.0
 10
98.81016165064469
 20
-145.5387477934764
 30
0.0
 10
98.63032766631464
 20
-145.4688123551259
 30
0.0
 10
98.5097493243309
 20
-145.4688123551259
 30
0.0
 10
98.4780544458666
 20
-145.4688123551259
 30
0.0
 10
98.33646102142283
 20
-145.4688123551259
 30
0.0
 10
98.24757755790338
 20
-145.5980034358227
 30
0.0
 10
98.24757755790338
 20
-145.5980034358227
 30
0.0
 10
98.07187768815565
 20
-145.5790554106539
 30
0.0
 10
98.07187768815565
 20
-145.5790554106539
 30
0.0
 10
98.07187768815565
 20
-145.5790554106539
 30
0.0
 10
98.1924560301394
 20
-144.732595449928
 30
0.0
 10
98.1924560301394
 20
-144.732595449928
 30
0.0
 10
98.1924560301394
 20
-144.732595449928
 30
0.0
 10
98.97104760980585
 20
-144.732595449928
 30
0.0
 10
98.97104760980585
 20
-144.732595449928
 30
0.0
 10
98.97104760980585
 20
-144.732595449928
 30
0.0
 10
98.97104760980585
 20
-144.9272433448446
 30
0.0
 10
98.97104760980585
 20
-144.9272433448446
 30
0.0
 10
98.97104760980585
 20
-144.9272433448446
 30
0.0
 10
98.3554090465917
 20
-144.9272433448446
 30
0.0
 10
98.3554090465917
 20
-144.9272433448446
 30
0.0
 10
98.3554090465917
 20
-144.9272433448446
 30
0.0
 10
98.28995223237196
 20
-145.3503010704333
 30
0.0
 10
98.28995223237196
 20
-145.3503010704333
 30
0.0
 10
98.3512749320094
 20
-145.3165391346778
 30
0.0
 10
98.43361271410689
 20
-145.2762315175004
 30
0.0
 10
98.55212399879947
 20
-145.2762315175004
 30
0.0
 10
98.80602753606239
 20
-145.2762315175004
 30
0.0
 10
99.04305010544758
 20
-145.4626111832524
 30
0.0
 10
99.04305010544758
 20
-145.7757703628616
 30
0.0
 10
99.04305010544758
 20
-146.0930636570531
 30
0.0
 10
98.81877438935781
 20
-146.3276746595986
 30
0.0
 10
98.51629500575288
 20
-146.3276746595986
 30
0.0
  0
HATCH
  5
D7
330
D0
100
AcDbEntity
  8
_U+30EC_U+30A4_U+30E4_U+30FC 1
 62
   179
420
  2234388
100
AcDbHatch
 10
0.0
 20
0.0
 30
0.0
210
0.0
220
0.0
230
1.0
  2
SOLID
 70
     1
 71
     0
 91
        1
 92
        1
 93
        1
 72
     4
 94
        3
 73
     0
 74
     1
 95
       53
 96
       49
 40
0.0
 40
0.0
 40
0.0
 40
0.0
 40
1.0
 40
1.0
 40
1.0
 40
2.0
 40
2.0
 40
2.0
 40
3.0
 40
3.0
 40
3.0
 40
4.0
 40
4.0
 40
4.0
 40
5.0
 40
5.0
 40
5.0
 40
6.0
 40
6.0
 40
6.0
 40
7.0
 40
7.0
 40
7.0
 40
8.0
 40
8.0
 40
8.0
 40
9.0
 40
9.0
 40
9.0
 40
10.0
 40
10.0
 40
10.0
 40
11.0
 40
11.0
 40
11.0
 40
12.0
 40
12.0
 40
12.0
 40
13.0
 40
13.0
 40
13.0
 40
14.0
 40
14.0
 40
14.0
 40
15.0
 40
15.0
 40
15.0
 40
16.0
 40
16.0
 40
16.0
 40
16.0
 10
98.51629500575288
 20
-146.3276746595986
 10
98.4380913382377
 20
-146.3276746595986
 10
98.33646102142283
 20
-146.3107936917209
 10
98.23483070460796
 20
-146.2474039347923
 10
98.0615424016999
 20
-146.1375053888129
 10
98.04018280969134
 20
-146.0062472508248
 10
98.02123478452248
 20
-145.8984157621365
 10
98.02123478452248
 20
-145.8984157621365
 10
98.24344344332108
 20
-145.8984157621365
 10
98.24344344332108
 20
-145.8984157621365
 10
98.29822046153656
 20
-146.0971977716354
 10
98.42534448494229
 20
-146.1268255928086
 10
98.51836206304402
 20
-146.1268255928086
 10
98.65788843019665
 20
-146.1268255928086
 10
98.81016165064469
 20
-146.0272623332849
 10
98.81016165064469
 20
-145.7947183880305
 10
98.81016165064469
 20
-145.5387477934764
 10
98.63032766631464
 20
-145.4688123551259
 10
98.5097493243309
 20
-145.4688123551259
 10
98.4780544458666
 20
-145.4688123551259
 10
98.33646102142283
 20
-145.4688123551259
 10
98.24757755790338
 20
-145.5980034358227
 10
98.24757755790338
 20
-145.5980034358227
 10
98.07187768815565
 20
-145.5790554106539
 10
98.07187768815565
 20
-145.5790554106539
 10
98.07187768815565
 20
-145.5790554106539
 10
98.1924560301394
 20
-144.732595449928
 10
98.1924560301394
 20
-144.732595449928
 10
98.1924560301394
 20
-144.732595449928
 10
98.97104760980585
 20
-144.732595449928
 10
98.97104760980585
 20
-144.732595449928
 10
98.97104760980585
 20
-144.732595449928
 10
98.97104760980585
 20
-144.9272433448446
 10
98.97104760980585
 20
-144.9272433448446
 10
98.97104760980585
 20
-144.9272433448446
 10
98.3554090465917
 20
-144.9272433448446
 10
98.3554090465917
 20
-144.9272433448446
 10
98.3554090465917
 20
-144.9272433448446
 10
98.28995223237196
 20
-145.3503010704333
 10
98.28995223237196
 20
-145.3503010704333
 10
98.3512749320094
 20
-145.3165391346778
 10
98.43361271410689
 20
-145.2762315175004
 10
98.55212399879947
 20
-145.2762315175004
 10
98.80602753606239
 20
-145.2762315175004
 10
99.04305010544758
 20
-145.4626111832524
 10
99.04305010544758
 20
-145.7757703628616
 10
99.04305010544758
 20
-146.0930636570531
 10
98.81877438935781
 20
-146.3276746595986
 10
98.51629500575288
 20
-146.3276746595986
 97
        0
 97
        0
 75
     2
 76
     1
 98
        0
  0
ENDBLK
  5
D3
330
D0
100
AcDbEntity
  8
0
100
AcDbBlockEnd
  0
ENDSEC
  0
SECTION
  2
ENTITIES
  0
POLYLINE
  5
41
330
1F
100
AcDbEntity
  8
_U+30EC_U+30A4_U+30E4_U+30FC 1
 62
   179
420
  2234388
370
     9
100
AcDb2dPolyline
 66
     1
 10
0.0
 20
0.0
 30
0.0
  0
VERTEX
  5
42
330
41
100
AcDbEntity
  8
_U+30EC_U+30A4_U+30E4_U+30FC 1
 62
   179
420
  2234388
370
     9
100
AcDbVertex
100
AcDb2dVertex
 10
79.22288020107817
 20
-134.271914133099
 30
0.0
  0
VERTEX
  5
43
330
41
100
AcDbEntity
  8
_U+30EC_U+30A4_U+30E4_U+30FC 1
 62
   179
420
  2234388
370
     9
100
AcDbVertex
100
AcDb2dVertex
 10
76.30403221998863
 20
-137.1905857990354
 30
0.0
  0
SEQEND
  5
44
330
41
100
AcDbEntity
  8
_U+30EC_U+30A4_U+30E4_U+30FC 1
 62
   179
420
  2234388
370
     9
  0
POLYLINE
  5
45
330
1F
100
AcDbEntity
  8
_U+30EC_U+30A4_U+30E4_U+30FC 1
 62
   179
420
  2234388
370
     9
100
AcDb2dPolyline
 66
     1
 10
0.0
 20
0.0
 30
0.0
  0
VERTEX
  5
46
330
45
100
AcDbEntity
  8
_U+30EC_U+30A4_U+30E4_U+30FC 1
 62
   179
420
  2234388
370
     9
100
AcDbVertex
100
AcDb2dVertex
 10
79.22288020107817
 20
-134.271914133099
 30
0.0
  0
VERTEX
  5
47
330
45
100
AcDbEntity
  8
_U+30EC_U+30A4_U+30E4_U+30FC 1
 62
   179
420
  2234388
370
     9
100
AcDbVertex
100
AcDb2dVertex
 10
83.85121869411053
 20
-134.271914133099
 30
0.0
  0
SEQEND
  5
48
330
45
100
AcDbEntity
  8
_U+30EC_U+30A4_U+30E4_U+30FC 1
 62
   179
420
  2234388
370
     9
  0
POLYLINE
  5
49
330
1F
100
AcDbEntity
  8
_U+30EC_U+30A4_U+30E4_U+30FC 1
 62
   179
420
  2234388
370
     9
100
AcDb2dPolyline
 66
     1
 10
0.0
 20
0.0
 30
0.0
  0
VERTEX
  5
4A
330
49
100
AcDbEntity
  8
_U+30EC_U+30A4_U+30E4_U+30FC 1
 62
   179
420
  2234388
370
     9
100
AcDbVertex
100
AcDb2dVertex
 10
77.34324497125388
 20
-136.59044024363
 30
0.0
  0
VERTEX
  5
4B
330
49
100
AcDbEntity
  8
_U+30EC_U+30A4_U+30E4_U+30FC 1
 62
   179
420
  2234388
370
     9
100
AcDbVertex
100
AcDb2dVertex
 10
76.30403221998863
 20
-137.1905857990354
 30
0.0
  0
SEQEND
  5
4C
330
49
100
AcDbEntity
  8
_U+30EC_U+30A4_U+30E4_U+30FC 1
 62
   179
420
  2234388
370
     9
  0
POLYLINE
  5
4D
330
1F
100
AcDbEntity
  8
_U+30EC_U+30A4_U+30E4_U+30FC 1
 62
   179
420
  2234388
370
     9
100
AcDb2dPolyline
 66
     1
 10
0.0
 20
0.0
 30
0.0
  0
VERTEX
  5
4E
330
4D
100
AcDbEntity
  8
_U+30EC_U+30A4_U+30E4_U+30FC 1
 62
   179
420
  2234388
370
     9
100
AcDbVertex
100
AcDb2dVertex
 10
76.9040013713488
 20
-136.1515494104065
 30
0.0
  0
VERTEX
  5
4F
330
4D
100
AcDbEntity
  8
_U+30EC_U+30A4_U+30E4_U+30FC 1
 62
   179
420
  2234388
370
     9
100
AcDbVertex
100
AcDb2dVertex
 10
76.30403221998863
 20
-137.1905857990354
 30
0.0
  0
SEQEND
  5
50
330
4D
100
AcDbEntity
  8
_U+30EC_U+30A4_U+30E4_U+30FC 1
 62
   179
420
  2234388
370
     9
  0
POLYLINE
  5
51
330
1F
100
AcDbEntity
  8
_U+30EC_U+30A4_U+30E4_U+30FC 1
 62
   179
420
  2234388
370
    25
100
AcDb2dPolyline
 66
     1
 10
0.0
 20
0.0
 30
0.0
  0
VERTEX
  5
52
330
51
100
AcDbEntity
  8
_U+30EC_U+30A4_U+30E4_U+30FC 1
 62
   179
420
  2234388
370
    25
100
AcDbVertex
100
AcDb2dVertex
 10
89.55697577076675
 20
-128.048526079099
 30
0.0
  0
VERTEX
  5
53
330
51
100
AcDbEntity
  8
_U+30EC_U+30A4_U+30E4_U+30FC 1
 62
   179
420
  2234388
370
    25
100
AcDbVertex
100
AcDb2dVertex
 10
105.4464392542817
 20
-128.048526079099
 30
0.0
  0
SEQEND
  5
54
330
51
100
AcDbEntity
  8
_U+30EC_U+30A4_U+30E4_U+30FC 1
 62
   179
420
  2234388
370
    25
  0
POLYLINE
  5
55
330
1F
100
AcDbEntity
  8
_U+30EC_U+30A4_U+30E4_U+30FC 1
 62
   179
420
  2234388
370
    25
100
AcDb2dPolyline
 66
     1
 10
0.0
 20
0.0
 30
0.0
  0
VERTEX
  5
56
330
55
100
AcDbEntity
  8
_U+30EC_U+30A4_U+30E4_U+30FC 1
 62
   179
420
  2234388
370
    25
100
AcDbVertex
100
AcDb2dVertex
 10
88.44629024354715
 20
-127.0484010793491
 30
0.0
  0
VERTEX
  5
57
330
55
100
AcDbEntity
  8
_U+30EC_U+30A4_U+30E4_U+30FC 1
 62
   179
420
  2234388
370
    25
100
AcDbVertex
100
AcDb2dVertex
 10
105.4464392542817
 20
-127.0484010793491
 30
0.0
  0
SEQEND
  5
58
330
55
100
AcDbEntity
  8
_U+30EC_U+30A4_U+30E4_U+30FC 1
 62
   179
420
  2234388
370
    25
  0
POLYLINE
  5
59
330
1F
100
AcDbEntity
  8
_U+30EC_U+30A4_U+30E4_U+30FC 1
 62
   179
420
  2234388
370
    25
100
AcDb2dPolyline
 66
     1
 10
0.0
 20
0.0
 30
0.0
  0
VERTEX
  5
5A
330
59
100
AcDbEntity
  8
_U+30EC_U+30A4_U+30E4_U+30FC 1
 62
   179
420
  2234388
370
    25
100
AcDbVertex
100
AcDb2dVertex
 10
105.4464392542817
 20
-127.0484010793491
 30
0.0
  0
VERTEX
  5
5B
330
59
100
AcDbEntity
  8
_U+30EC_U+30A4_U+30E4_U+30FC 1
 62
   179
420
  2234388
370
    25
100
AcDbVertex
100
AcDb2dVertex
 10
105.4464392542817
 20
-128.048526079099
 30
0.0
  0
SEQEND
  5
5C
330
59
100
AcDbEntity
  8
_U+30EC_U+30A4_U+30E4_U+30FC 1
 62
   179
420
  2234388
370
    25
  0
POLYLINE
  5
5D
330
1F
100
AcDbEntity
  8
_U+30EC_U+30A4_U+30E4_U+30FC 1
 62
   179
420
  2234388
370
    25
100
AcDb2dPolyline
 66
     1
 10
0.0
 20
0.0
 30
0.0
  0
VERTEX
  5
5E
330
5D
100
AcDbEntity
  8
_U+30EC_U+30A4_U+30E4_U+30FC 1
 62
   179
420
  2234388
370
    25
100
AcDbVertex
100
AcDb2dVertex
 10
89.55697577076675
 20
-128.048526079099
 30
0.0
  0
VERTEX
  5
5F
330
5D
100
AcDbEntity
  8
_U+30EC_U+30A4_U+30E4_U+30FC 1
 62
   179
420
  2234388
370
    25
100
AcDbVertex
100
AcDb2dVertex
 10
90.44615213697087
 20
-143.0486371864603
 30
0.0
  0
SEQEND
  5
60
330
5D
100
AcDbEntity
  8
_U+30EC_U+30A4_U+30E4_U+30FC 1
 62
   179
420
  2234388
370
    25
  0
POLYLINE
  5
61
330
1F
100
AcDbEntity
  8
_U+30EC_U+30A4_U+30E4_U+30FC 1
 62
   179
420
  2234388
370
    25
100
AcDb2dPolyline
 66
     1
 10
0.0
 20
0.0
 30
0.0
  0
VERTEX
  5
62
330
61
100
AcDbEntity
  8
_U+30EC_U+30A4_U+30E4_U+30FC 1
 62
   179
420
  2234388
370
    25
100
AcDbVertex
100
AcDb2dVertex
 10
88.44629024354715
 20
-127.0484010793491
 30
0.0
  0
VERTEX
  5
63
330
61
100
AcDbEntity
  8
_U+30EC_U+30A4_U+30E4_U+30FC 1
 62
   179
420
  2234388
370
    25
100
AcDbVertex
100
AcDb2dVertex
 10
89.33200938761723
 20
-142.0158096867184
 30
0.0
  0
SEQEND
  5
64
330
61
100
AcDbEntity
  8
_U+30EC_U+30A4_U+30E4_U+30FC 1
 62
   179
420
  2234388
370
    25
  0
POLYLINE
  5
65
330
1F
100
AcDbEntity
  8
_U+30EC_U+30A4_U+30E4_U+30FC 1
 62
   179
420
  2234388
370
    25
100
AcDb2dPolyline
 66
     1
 10
0.0
 20
0.0
 30
0.0
  0
VERTEX
  5
66
330
65
100
AcDbEntity
  8
_U+30EC_U+30A4_U+30E4_U+30FC 1
 62
   179
420
  2234388
370
    25
100
AcDbVertex
100
AcDb2dVertex
 10
86.44639307234655
 20
-125.0485391354047
 30
0.0
  0
VERTEX
  5
67
330
65
100
AcDbEntity
  8
_U+30EC_U+30A4_U+30E4_U+30FC 1
 62
   179
420
  2234388
370
    25
100
AcDbVertex
100
AcDb2dVertex
 10
86.44639307234655
 20
-108.0487071952101
 30
0.0
  0
SEQEND
  5
68
330
65
100
AcDbEntity
  8
_U+30EC_U+30A4_U+30E4_U+30FC 1
 62
   179
420
  2234388
370
    25
  0
POLYLINE
  5
69
330
1F
100
AcDbEntity
  8
_U+30EC_U+30A4_U+30E4_U+30FC 1
 62
   179
420
  2234388
370
    25
100
AcDb2dPolyline
 66
     1
 10
0.0
 20
0.0
 30
0.0
  0
VERTEX
  5
6A
330
69
100
AcDbEntity
  8
_U+30EC_U+30A4_U+30E4_U+30FC 1
 62
   179
420
  2234388
370
    25
100
AcDbVertex
100
AcDb2dVertex
 10
86.44639307234655
 20
-108.0487071952101
 30
0.0
  0
VERTEX
  5
6B
330
69
100
AcDbEntity
  8
_U+30EC_U+30A4_U+30E4_U+30FC 1
 62
   179
420
  2234388
370
    25
100
AcDbVertex
100
AcDb2dVertex
 10
85.44644448674626
 20
-108.0487071952101
 30
0.0
  0
SEQEND
  5
6C
330
69
100
AcDbEntity
  8
_U+30EC_U+30A4_U+30E4_U+30FC 1
 62
   179
420
  2234388
370
    25
  0
POLYLINE
  5
6D
330
1F
100
AcDbEntity
  8
_U+30EC_U+30A4_U+30E4_U+30FC 1
 62
   179
420
  2234388
370
    25
100
AcDb2dPolyline
 66
     1
 10
0.0
 20
0.0
 30
0.0
  0
VERTEX
  5
6E
330
6D
100
AcDbEntity
  8
_U+30EC_U+30A4_U+30E4_U+30FC 1
 62
   179
420
  2234388
370
    25
100
AcDbVertex
100
AcDb2dVertex
 10
85.44644448674626
 20
-123.9374655245712
 30
0.0
  0
VERTEX
  5
6F
330
6D
100
AcDbEntity
  8
_U+30EC_U+30A4_U+30E4_U+30FC 1
 62
   179
420
  2234388
370
    25
100
AcDbVertex
100
AcDb2dVertex
 10
85.44644448674626
 20
-108.0487071952101
 30
0.0
  0
SEQEND
  5
70
330
6D
100
AcDbEntity
  8
_U+30EC_U+30A4_U+30E4_U+30FC 1
 62
   179
420
  2234388
370
    25
  0
POLYLINE
  5
71
330
1F
100
AcDbEntity
  8
_U+30EC_U+30A4_U+30E4_U+30FC 1
 62
   179
420
  2234388
370
    25
100
AcDb2dPolyline
 66
     1
 10
0.0
 20
0.0
 30
0.0
  0
VERTEX
  5
72
330
71
100
AcDbEntity
  8
_U+30EC_U+30A4_U+30E4_U+30FC 1
 62
   179
420
  2234388
370
    25
100
AcDbVertex
100
AcDb2dVertex
 10
85.44644448674626
 20
-123.9374655245712
 30
0.0
  0
VERTEX
  5
73
330
71
100
AcDbEntity
  8
_U+30EC_U+30A4_U+30E4_U+30FC 1
 62
   179
420
  2234388
370
    25
100
AcDbVertex
100
AcDb2dVertex
 10
70.44615736943547
 20
-123.0482891359047
 30
0.0
  0
SEQEND
  5
74
330
71
100
AcDbEntity
  8
_U+30EC_U+30A4_U+30E4_U+30FC 1
 62
   179
420
  2234388
370
    25
  0
POLYLINE
  5
75
330
1F
100
AcDbEntity
  8
_U+30EC_U+30A4_U+30E4_U+30FC 1
 62
   179
420
  2234388
370
    25
100
AcDb2dPolyline
 66
     1
 10
0.0
 20
0.0
 30
0.0
  0
VERTEX
  5
76
330
75
100
AcDbEntity
  8
_U+30EC_U+30A4_U+30E4_U+30FC 1
 62
   179
420
  2234388
370
    25
100
AcDbVertex
100
AcDb2dVertex
 10
86.44639307234655
 20
-125.0485391354047
 30
0.0
  0
VERTEX
  5
77
330
75
100
AcDbEntity
  8
_U+30EC_U+30A4_U+30E4_U+30FC 1
 62
   179
420
  2234388
370
    25
100
AcDbVertex
100
AcDb2dVertex
 10
71.47884373197833
 20
-124.1627846911817
 30
0.0
  0
SEQEND
  5
78
330
75
100
AcDbEntity
  8
_U+30EC_U+30A4_U+30E4_U+30FC 1
 62
   179
420
  2234388
370
    25
  0
SPLINE
  5
79
330
1F
100
AcDbEntity
  8
_U+30EC_U+30A4_U+30E4_U+30FC 1
 62
   179
420
  2234388
370
     9
100
AcDbSpline
210
0.0
220
0.0
230
1.0
 70
    11
 71
     3
 72
    17
 73
    13
 74
     0
 42
0.0000000001
 43
0.0000000001
 12
1.0
 22
0.0
 32
0.0
 13
1.0
 23
0.0
 33
0.0
 40
0.0
 40
0.0
 40
0.0
 40
0.0
 40
1.0
 40
1.0
 40
1.0
 40
2.0
 40
2.0
 40
2.0
 40
3.0
 40
3.0
 40
3.0
 40
4.0
 40
4.0
 40
4.0
 40
4.0
 10
109.5464577607926
 20
-128.048526079099
 30
0.0
 10
109.5464577607926
 20
-127.993386912446
 30
0.0
 10
109.5016549841578
 20
-127.9486194124574
 30
0.0
 10
109.4465510966748
 20
-127.9486194124574
 30
0.0
 10
109.3914119314148
 20
-127.9486194124574
 30
0.0
 10
109.3466471948858
 20
-127.993386912446
 30
0.0
 10
109.3466471948858
 20
-128.048526079099
 30
0.0
 10
109.3466471948858
 20
-128.1036299679739
 30
0.0
 10
109.3914119314148
 20
-128.1484327457407
 30
0.0
 10
109.4465510966748
 20
-128.1484327457407
 30
0.0
 10
109.5016549841578
 20
-128.1484327457407
 30
0.0
 10
109.5464577607926
 20
-128.1036299679739
 30
0.0
 10
109.5464577607926
 20
-128.048526079099
 30
0.0
  0
SPLINE
  5
7A
330
1F
100
AcDbEntity
  8
_U+30EC_U+30A4_U+30E4_U+30FC 1
 62
   179
420
  2234388
370
     9
100
AcDbSpline
210
0.0
220
0.0
230
1.0
 70
    11
 71
     3
 72
    17
 73
    13
 74
     0
 42
0.0000000001
 43
0.0000000001
 12
1.0
 22
0.0
 32
0.0
 13
1.0
 23
0.0
 33
0.0
 40
0.0
 40
0.0
 40
0.0
 40
0.0
 40
1.0
 40
1.0
 40
1.0
 40
2.0
 40
2.0
 40
2.0
 40
3.0
 40
3.0
 40
3.0
 40
4.0
 40
4.0
 40
4.0
 40
4.0
 10
109.5464577607926
 20
-127.0484010793491
 30
0.0
 10
109.5464577607926
 20
-126.9932971904738
 30
0.0
 10
109.5016549841578
 20
-126.9484944127074
 30
0.0
 10
109.4465510966748
 20
-126.9484944127074
 30
0.0
 10
109.3914119314148
 20
-126.9484944127074
 30
0.0
 10
109.3466471948858
 20
-126.9932971904738
 30
0.0
 10
109.3466471948858
 20
-127.0484010793491
 30
0.0
 10
109.3466471948858
 20
-127.1035402460018
 30
0.0
 10
109.3914119314148
 20
-127.1483077459907
 30
0.0
 10
109.4465510966748
 20
-127.1483077459907
 30
0.0
 10
109.5016549841578
 20
-127.1483077459907
 30
0.0
 10
109.5464577607926
 20
-127.1035402460018
 30
0.0
 10
109.5464577607926
 20
-127.0484010793491
 30
0.0
  0
SPLINE
  5
7B
330
1F
100
AcDbEntity
  8
_U+30EC_U+30A4_U+30E4_U+30FC 1
 62
   179
420
  2234388
370
    25
100
AcDbSpline
210
0.0
220
0.0
230
1.0
 70
     8
 71
     3
 72
     8
 73
     4
 74
     0
 42
0.0000000001
 43
0.0000000001
 12
1.0
 22
0.0
 32
0.0
 13
1.0
 23
0.0
 33
0.0
 40
0.0
 40
0.0
 40
0.0
 40
0.0
 40
1.0
 40
1.0
 40
1.0
 40
1.0
 10
70.44615736943547
 20
-123.0482891359047
 30
0.0
 10
70.44615736943547
 20
-134.0941494109207
 30
0.0
 10
79.40050380765771
 20
-143.0486371864603
 30
0.0
 10
90.44615213697087
 20
-143.0486371864603
 30
0.0
  0
SPLINE
  5
7C
330
1F
100
AcDbEntity
  8
_U+30EC_U+30A4_U+30E4_U+30FC 1
 62
   179
420
  2234388
370
    25
100
AcDbSpline
210
0.0
220
0.0
230
1.0
 70
     8
 71
     3
 72
     8
 73
     4
 74
     0
 42
0.0000000001
 43
0.0000000001
 12
1.0
 22
0.0
 32
0.0
 13
1.0
 23
0.0
 33
0.0
 40
0.0
 40
0.0
 40
0.0
 40
0.0
 40
1.0
 40
1.0
 40
1.0
 40
1.0
 10
71.47884373197833
 20
-124.1627846911817
 30
0.0
 10
72.04367621756825
 20
-133.7792599665552
 30
0.0
 10
79.71553435517617
 20
-141.4508007979708
 30
0.0
 10
89.33200938761723
 20
-142.0158096867184
 30
0.0
  0
SPLINE
  5
7D
330
1F
100
AcDbEntity
  8
_U+30EC_U+30A4_U+30E4_U+30FC 1
 62
   179
420
  2234388
370
     9
100
AcDbSpline
210
0.0
220
0.0
230
1.0
 70
    11
 71
     3
 72
    17
 73
    13
 74
     0
 42
0.0000000001
 43
0.0000000001
 12
1.0
 22
0.0
 32
0.0
 13
1.0
 23
0.0
 33
0.0
 40
0.0
 40
0.0
 40
0.0
 40
0.0
 40
1.0
 40
1.0
 40
1.0
 40
2.0
 40
2.0
 40
2.0
 40
3.0
 40
3.0
 40
3.0
 40
4.0
 40
4.0
 40
4.0
 40
4.0
 10
109.5464577607926
 20
-143.0486371864603
 30
0.0
 10
109.5464577607926
 20
-142.9934980198072
 30
0.0
 10
109.5016549841578
 20
-142.9487305198186
 30
0.0
 10
109.4465510966748
 20
-142.9487305198186
 30
0.0
 10
109.3914119314148
 20
-142.9487305198186
 30
0.0
 10
109.3466471948858
 20
-142.9934980198072
 30
0.0
 10
109.3466471948858
 20
-143.0486371864603
 30
0.0
 10
109.3466471948858
 20
-143.1037410753352
 30
0.0
 10
109.3914119314148
 20
-143.1485438531019
 30
0.0
 10
109.4465510966748
 20
-143.1485438531019
 30
0.0
 10
109.5016549841578
 20
-143.1485438531019
 30
0.0
 10
109.5464577607926
 20
-143.1037410753352
 30
0.0
 10
109.5464577607926
 20
-143.0486371864603
 30
0.0
  0
SPLINE
  5
7E
330
1F
100
AcDbEntity
  8
_U+30EC_U+30A4_U+30E4_U+30FC 1
 62
   179
420
  2234388
370
     9
100
AcDbSpline
210
0.0
220
0.0
230
1.0
 70
    11
 71
     3
 72
    17
 73
    13
 74
     0
 42
0.0000000001
 43
0.0000000001
 12
1.0
 22
0.0
 32
0.0
 13
1.0
 23
0.0
 33
0.0
 40
0.0
 40
0.0
 40
0.0
 40
0.0
 40
1.0
 40
1.0
 40
1.0
 40
2.0
 40
2.0
 40
2.0
 40
3.0
 40
3.0
 40
3.0
 40
4.0
 40
4.0
 40
4.0
 40
4.0
 10
85.54652753974848
 20
-117.3766455262114
 30
0.0
 10
85.54652753974848
 20
-117.3215063595586
 30
0.0
 10
85.5017600408906
 20
-117.2767388595697
 30
0.0
 10
85.44662087563064
 20
-117.2767388595697
 30
0.0
 10
85.39134059926319
 20
-117.2767388595697
 30
0.0
 10
85.34653782262842
 20
-117.3215063595586
 30
0.0
 10
85.34653782262842
 20
-117.3766455262114
 30
0.0
 10
85.34653782262842
 20
-117.4321021928641
 30
0.0
 10
85.39134059926319
 20
-117.4769049706308
 30
0.0
 10
85.44662087563064
 20
-117.4769049706308
 30
0.0
 10
85.5017600408906
 20
-117.4769049706308
 30
0.0
 10
85.54652753974848
 20
-117.4321021928641
 30
0.0
 10
85.54652753974848
 20
-117.3766455262114
 30
0.0
  0
SPLINE
  5
7F
330
1F
100
AcDbEntity
  8
_U+30EC_U+30A4_U+30E4_U+30FC 1
 62
   179
420
  2234388
370
     9
100
AcDbSpline
210
0.0
220
0.0
230
1.0
 70
    11
 71
     3
 72
    17
 73
    13
 74
     0
 42
0.0000000001
 43
0.0000000001
 12
1.0
 22
0.0
 32
0.0
 13
1.0
 23
0.0
 33
0.0
 40
0.0
 40
0.0
 40
0.0
 40
0.0
 40
1.0
 40
1.0
 40
1.0
 40
2.0
 40
2.0
 40
2.0
 40
3.0
 40
3.0
 40
3.0
 40
4.0
 40
4.0
 40
4.0
 40
4.0
 10
70.5460640335533
 20
-117.3766455262114
 30
0.0
 10
70.5460640335533
 20
-117.3215063595586
 30
0.0
 10
70.50129653469541
 20
-117.2767388595697
 30
0.0
 10
70.44615736943547
 20
-117.2767388595697
 30
0.0
 10
70.390877093068
 20
-117.2767388595697
 30
0.0
 10
70.34610959421012
 20
-117.3215063595586
 30
0.0
 10
70.34610959421012
 20
-117.3766455262114
 30
0.0
 10
70.34610959421012
 20
-117.4321021928641
 30
0.0
 10
70.390877093068
 20
-117.4769049706308
 30
0.0
 10
70.44615736943547
 20
-117.4769049706308
 30
0.0
 10
70.50129653469541
 20
-117.4769049706308
 30
0.0
 10
70.5460640335533
 20
-117.4321021928641
 30
0.0
 10
70.5460640335533
 20
-117.3766455262114
 30
0.0
  0
SPLINE
  5
80
330
1F
100
AcDbEntity
  8
_U+30EC_U+30A4_U+30E4_U+30FC 1
 62
   179
420
  2234388
370
     9
100
AcDbSpline
210
0.0
220
0.0
230
1.0
 70
    11
 71
     3
 72
    17
 73
    13
 74
     0
 42
0.0000000001
 43
0.0000000001
 12
1.0
 22
0.0
 32
0.0
 13
1.0
 23
0.0
 33
0.0
 40
0.0
 40
0.0
 40
0.0
 40
0.0
 40
1.0
 40
1.0
 40
1.0
 40
2.0
 40
2.0
 40
2.0
 40
3.0
 40
3.0
 40
3.0
 40
4.0
 40
4.0
 40
4.0
 40
4.0
 10
105.5466986961683
 20
-147.0483963521265
 30
0.0
 10
105.5466986961683
 20
-146.9932571854741
 30
0.0
 10
105.5018959195335
 20
-146.9484896854849
 30
0.0
 10
105.4464392542817
 20
-146.9484896854849
 30
0.0
 10
105.3913353667986
 20
-146.9484896854849
 30
0.0
 10
105.3465325901638
 20
-146.9932571854741
 30
0.0
 10
105.3465325901638
 20
-147.0483963521265
 30
0.0
 10
105.3465325901638
 20
-147.1035002410021
 30
0.0
 10
105.3913353667986
 20
-147.1483030187688
 30
0.0
 10
105.4464392542817
 20
-147.1483030187688
 30
0.0
 10
105.5018959195335
 20
-147.1483030187688
 30
0.0
 10
105.5466986961683
 20
-147.1035002410021
 30
0.0
 10
105.5466986961683
 20
-147.0483963521265
 30
0.0
  0
SPLINE
  5
81
330
1F
100
AcDbEntity
  8
_U+30EC_U+30A4_U+30E4_U+30FC 1
 62
   179
420
  2234388
370
     9
100
AcDbSpline
210
0.0
220
0.0
230
1.0
 70
    11
 71
     3
 72
    17
 73
    13
 74
     0
 42
0.0000000001
 43
0.0000000001
 12
1.0
 22
0.0
 32
0.0
 13
1.0
 23
0.0
 33
0.0
 40
0.0
 40
0.0
 40
0.0
 40
0.0
 40
1.0
 40
1.0
 40
1.0
 40
2.0
 40
2.0
 40
2.0
 40
3.0
 40
3.0
 40
3.0
 40
4.0
 40
4.0
 40
4.0
 40
4.0
 10
90.54606108847466
 20
-147.0483963521265
 30
0.0
 10
90.54606108847466
 20
-146.9932571854741
 30
0.0
 10
90.50129130223081
 20
-146.9484896854849
 30
0.0
 10
90.44615213697087
 20
-146.9484896854849
 30
0.0
 10
90.3910482494878
 20
-146.9484896854849
 30
0.0
 10
90.34624547285303
 20
-146.9932571854741
 30
0.0
 10
90.34624547285303
 20
-147.0483963521265
 30
0.0
 10
90.34624547285303
 20
-147.1035002410021
 30
0.0
 10
90.3910482494878
 20
-147.1483030187688
 30
0.0
 10
90.44615213697087
 20
-147.1483030187688
 30
0.0
 10
90.50129130223081
 20
-147.1483030187688
 30
0.0
 10
90.54606108847466
 20
-147.1035002410021
 30
0.0
 10
90.54606108847466
 20
-147.0483963521265
 30
0.0
  0
INSERT
  5
83
330
1F
100
AcDbEntity
  8
_U+30EC_U+30A4_U+30E4_U+30FC 1
100
AcDbBlockReference
  2
block 2
 10
0.0
 20
0.0
 30
0.0
  0
POLYLINE
  5
8E
330
1F
100
AcDbEntity
  8
_U+30EC_U+30A4_U+30E4_U+30FC 1
 62
   179
420
  2234388
370
     9
100
AcDb2dPolyline
 66
     1
 10
0.0
 20
0.0
 30
0.0
  0
VERTEX
  5
8F
330
8E
100
AcDbEntity
  8
_U+30EC_U+30A4_U+30E4_U+30FC 1
 62
   179
420
  2234388
370
     9
100
AcDbVertex
100
AcDb2dVertex
 10
109.4465510966748
 20
-127.0484010793491
 30
0.0
  0
VERTEX
  5
90
330
8E
100
AcDbEntity
  8
_U+30EC_U+30A4_U+30E4_U+30FC 1
 62
   179
420
  2234388
370
     9
100
AcDbVertex
100
AcDb2dVertex
 10
109.4465510966748
 20
-124.2782135800416
 30
0.0
  0
SEQEND
  5
91
330
8E
100
AcDbEntity
  8
_U+30EC_U+30A4_U+30E4_U+30FC 1
 62
   179
420
  2234388
370
     9
  0
POLYLINE
  5
92
330
1F
100
AcDbEntity
  8
_U+30EC_U+30A4_U+30E4_U+30FC 1
 62
   179
420
  2234388
370
     9
100
AcDb2dPolyline
 66
     1
 10
0.0
 20
0.0
 30
0.0
  0
VERTEX
  5
93
330
92
100
AcDbEntity
  8
_U+30EC_U+30A4_U+30E4_U+30FC 1
 62
   179
420
  2234388
370
     9
100
AcDbVertex
100
AcDb2dVertex
 10
109.4465510966748
 20
-128.048526079099
 30
0.0
  0
VERTEX
  5
94
330
92
100
AcDbEntity
  8
_U+30EC_U+30A4_U+30E4_U+30FC 1
 62
   179
420
  2234388
370
     9
100
AcDbVertex
100
AcDb2dVertex
 10
109.4465510966748
 20
-127.0484010793491
 30
0.0
  0
SEQEND
  5
95
330
92
100
AcDbEntity
  8
_U+30EC_U+30A4_U+30E4_U+30FC 1
 62
   179
420
  2234388
370
     9
  0
POLYLINE
  5
96
330
1F
100
AcDbEntity
  8
_U+30EC_U+30A4_U+30E4_U+30FC 1
 62
   179
420
  2234388
370
     9
100
AcDb2dPolyline
 66
     1
 10
0.0
 20
0.0
 30
0.0
  0
VERTEX
  5
97
330
96
100
AcDbEntity
  8
_U+30EC_U+30A4_U+30E4_U+30FC 1
 62
   179
420
  2234388
370
     9
100
AcDbVertex
100
AcDb2dVertex
 10
107.9865097450346
 20
-128.048526079099
 30
0.0
  0
VERTEX
  5
98
330
96
100
AcDbEntity
  8
_U+30EC_U+30A4_U+30E4_U+30FC 1
 62
   179
420
  2234388
370
     9
100
AcDbVertex
100
AcDb2dVertex
 10
110.4466407933826
 20
-128.048526079099
 30
0.0
  0
SEQEND
  5
99
330
96
100
AcDbEntity
  8
_U+30EC_U+30A4_U+30E4_U+30FC 1
 62
   179
420
  2234388
370
     9
  0
POLYLINE
  5
9A
330
1F
100
AcDbEntity
  8
_U+30EC_U+30A4_U+30E4_U+30FC 1
 62
   179
420
  2234388
370
     9
100
AcDb2dPolyline
 66
     1
 10
0.0
 20
0.0
 30
0.0
  0
VERTEX
  5
9B
330
9A
100
AcDbEntity
  8
_U+30EC_U+30A4_U+30E4_U+30FC 1
 62
   179
420
  2234388
370
     9
100
AcDbVertex
100
AcDb2dVertex
 10
107.9865097450346
 20
-127.0484010793491
 30
0.0
  0
VERTEX
  5
9C
330
9A
100
AcDbEntity
  8
_U+30EC_U+30A4_U+30E4_U+30FC 1
 62
   179
420
  2234388
370
     9
100
AcDbVertex
100
AcDb2dVertex
 10
110.4466407933826
 20
-127.0484010793491
 30
0.0
  0
SEQEND
  5
9D
330
9A
100
AcDbEntity
  8
_U+30EC_U+30A4_U+30E4_U+30FC 1
 62
   179
420
  2234388
370
     9
  0
INSERT
  5
9F
330
1F
100
AcDbEntity
  8
_U+30EC_U+30A4_U+30E4_U+30FC 1
100
AcDbBlockReference
  2
block 3
 10
0.0
 20
0.0
 30
0.0
  0
POLYLINE
  5
A4
330
1F
100
AcDbEntity
  8
_U+30EC_U+30A4_U+30E4_U+30FC 1
 62
   179
420
  2234388
370
     9
100
AcDb2dPolyline
 66
     1
 10
0.0
 20
0.0
 30
0.0
  0
VERTEX
  5
A5
330
A4
100
AcDbEntity
  8
_U+30EC_U+30A4_U+30E4_U+30FC 1
 62
   179
420
  2234388
370
     9
100
AcDbVertex
100
AcDb2dVertex
 10
109.4465510966748
 20
-128.048526079099
 30
0.0
  0
VERTEX
  5
A6
330
A4
100
AcDbEntity
  8
_U+30EC_U+30A4_U+30E4_U+30FC 1
 62
   179
420
  2234388
370
     9
100
AcDbVertex
100
AcDb2dVertex
 10
109.4465510966748
 20
-143.0486371864603
 30
0.0
  0
SEQEND
  5
A7
330
A4
100
AcDbEntity
  8
_U+30EC_U+30A4_U+30E4_U+30FC 1
 62
   179
420
  2234388
370
     9
  0
POLYLINE
  5
A8
330
1F
100
AcDbEntity
  8
_U+30EC_U+30A4_U+30E4_U+30FC 1
 62
   179
420
  2234388
370
     9
100
AcDb2dPolyline
 66
     1
 10
0.0
 20
0.0
 30
0.0
  0
VERTEX
  5
A9
330
A8
100
AcDbEntity
  8
_U+30EC_U+30A4_U+30E4_U+30FC 1
 62
   179
420
  2234388
370
     9
100
AcDbVertex
100
AcDb2dVertex
 10
92.98587219897588
 20
-143.0486371864603
 30
0.0
  0
VERTEX
  5
AA
330
A8
100
AcDbEntity
  8
_U+30EC_U+30A4_U+30E4_U+30FC 1
 62
   179
420
  2234388
370
     9
100
AcDbVertex
100
AcDb2dVertex
 10
110.4466407933826
 20
-143.0486371864603
 30
0.0
  0
SEQEND
  5
AB
330
A8
100
AcDbEntity
  8
_U+30EC_U+30A4_U+30E4_U+30FC 1
 62
   179
420
  2234388
370
     9
  0
INSERT
  5
AD
330
1F
100
AcDbEntity
  8
_U+30EC_U+30A4_U+30E4_U+30FC 1
100
AcDbBlockReference
  2
block 4
 10
0.0
 20
0.0
 30
0.0
  0
POLYLINE
  5
B4
330
1F
100
AcDbEntity
  8
_U+30EC_U+30A4_U+30E4_U+30FC 1
 62
   179
420
  2234388
370
     9
100
AcDb2dPolyline
 66
     1
 10
0.0
 20
0.0
 30
0.0
  0
VERTEX
  5
B5
330
B4
100
AcDbEntity
  8
_U+30EC_U+30A4_U+30E4_U+30FC 1
 62
   179
420
  2234388
370
     9
100
AcDbVertex
100
AcDb2dVertex
 10
70.44615736943547
 20
-117.3766455262114
 30
0.0
  0
VERTEX
  5
B6
330
B4
100
AcDbEntity
  8
_U+30EC_U+30A4_U+30E4_U+30FC 1
 62
   179
420
  2234388
370
     9
100
AcDbVertex
100
AcDb2dVertex
 10
85.44662087563064
 20
-117.3766455262114
 30
0.0
  0
SEQEND
  5
B7
330
B4
100
AcDbEntity
  8
_U+30EC_U+30A4_U+30E4_U+30FC 1
 62
   179
420
  2234388
370
     9
  0
POLYLINE
  5
B8
330
1F
100
AcDbEntity
  8
_U+30EC_U+30A4_U+30E4_U+30FC 1
 62
   179
420
  2234388
370
     9
100
AcDb2dPolyline
 66
     1
 10
0.0
 20
0.0
 30
0.0
  0
VERTEX
  5
B9
330
B8
100
AcDbEntity
  8
_U+30EC_U+30A4_U+30E4_U+30FC 1
 62
   179
420
  2234388
370
     9
100
AcDbVertex
100
AcDb2dVertex
 10
70.44615736943547
 20
-120.5085713587619
 30
0.0
  0
VERTEX
  5
BA
330
B8
100
AcDbEntity
  8
_U+30EC_U+30A4_U+30E4_U+30FC 1
 62
   179
420
  2234388
370
     9
100
AcDbVertex
100
AcDb2dVertex
 10
70.44615736943547
 20
-116.3768733042392
 30
0.0
  0
SEQEND
  5
BB
330
B8
100
AcDbEntity
  8
_U+30EC_U+30A4_U+30E4_U+30FC 1
 62
   179
420
  2234388
370
     9
  0
INSERT
  5
BD
330
1F
100
AcDbEntity
  8
_U+30EC_U+30A4_U+30E4_U+30FC 1
100
AcDbBlockReference
  2
block 5
 10
0.0
 20
0.0
 30
0.0
  0
POLYLINE
  5
C4
330
1F
100
AcDbEntity
  8
_U+30EC_U+30A4_U+30E4_U+30FC 1
 62
   179
420
  2234388
370
     9
100
AcDb2dPolyline
 66
     1
 10
0.0
 20
0.0
 30
0.0
  0
VERTEX
  5
C5
330
C4
100
AcDbEntity
  8
_U+30EC_U+30A4_U+30E4_U+30FC 1
 62
   179
420
  2234388
370
     9
100
AcDbVertex
100
AcDb2dVertex
 10
90.44615213697087
 20
-147.0483963521265
 30
0.0
  0
VERTEX
  5
C6
330
C4
100
AcDbEntity
  8
_U+30EC_U+30A4_U+30E4_U+30FC 1
 62
   179
420
  2234388
370
     9
100
AcDbVertex
100
AcDb2dVertex
 10
105.4464392542817
 20
-147.0483963521265
 30
0.0
  0
SEQEND
  5
C7
330
C4
100
AcDbEntity
  8
_U+30EC_U+30A4_U+30E4_U+30FC 1
 62
   179
420
  2234388
370
     9
  0
POLYLINE
  5
C8
330
1F
100
AcDbEntity
  8
_U+30EC_U+30A4_U+30E4_U+30FC 1
 62
   179
420
  2234388
370
     9
100
AcDb2dPolyline
 66
     1
 10
0.0
 20
0.0
 30
0.0
  0
VERTEX
  5
C9
330
C8
100
AcDbEntity
  8
_U+30EC_U+30A4_U+30E4_U+30FC 1
 62
   179
420
  2234388
370
     9
100
AcDbVertex
100
AcDb2dVertex
 10
90.44615213697087
 20
-145.5883549636028
 30
0.0
  0
VERTEX
  5
CA
330
C8
100
AcDbEntity
  8
_U+30EC_U+30A4_U+30E4_U+30FC 1
 62
   179
420
  2234388
370
     9
100
AcDbVertex
100
AcDb2dVertex
 10
90.44615213697087
 20
-148.0488388518764
 30
0.0
  0
SEQEND
  5
CB
330
C8
100
AcDbEntity
  8
_U+30EC_U+30A4_U+30E4_U+30FC 1
 62
   179
420
  2234388
370
     9
  0
POLYLINE
  5
CC
330
1F
100
AcDbEntity
  8
_U+30EC_U+30A4_U+30E4_U+30FC 1
 62
   179
420
  2234388
370
     9
100
AcDb2dPolyline
 66
     1
 10
0.0
 20
0.0
 30
0.0
  0
VERTEX
  5
CD
330
CC
100
AcDbEntity
  8
_U+30EC_U+30A4_U+30E4_U+30FC 1
 62
   179
420
  2234388
370
     9
100
AcDbVertex
100
AcDb2dVertex
 10
105.4464392542817
 20
-130.5884202451305
 30
0.0
  0
VERTEX
  5
CE
330
CC
100
AcDbEntity
  8
_U+30EC_U+30A4_U+30E4_U+30FC 1
 62
   179
420
  2234388
370
     9
100
AcDbVertex
100
AcDb2dVertex
 10
105.4464392542817
 20
-148.0488388518764
 30
0.0
  0
SEQEND
  5
CF
330
CC
100
AcDbEntity
  8
_U+30EC_U+30A4_U+30E4_U+30FC 1
 62
   179
420
  2234388
370
     9
  0
INSERT
  5
D1
330
1F
100
AcDbEntity
  8
_U+30EC_U+30A4_U+30E4_U+30FC 1
100
AcDbBlockReference
  2
block 6
 10
0.0
 20
0.0
 30
0.0
  0
ENDSEC
  0
SECTION
  2
OBJECTS
  0
DICTIONARY
  5
C
330
0
100
AcDbDictionary
281
     1
  3
ACAD_GROUP
350
D
  3
ACAD_LAYOUT
350
1A
  3
ACAD_MATERIAL
350
3B
  3
ACAD_MLEADERSTYLE
350
D9
  3
ACAD_MLINESTYLE
350
17
  3
ACAD_PLOTSETTINGS
350
19
  3
ACAD_PLOTSTYLENAME
350
E
  3
ACAD_TABLESTYLE
350
D8
  3
ACAD_VISUALSTYLE
350
2A
  0
SUN
  5
3F
330
29
100
AcDbSun
 90
        1
290
     0
 63
     7
421
 16777215
 40
1.0
291
     1
 91
  2455826
 92
 54000000
292
     0
 70
     2
 71
   256
280
     1
  0
DICTIONARY
  5
D
102
{ACAD_REACTORS
330
C
102
}
330
C
100
AcDbDictionary
281
     1
  0
DICTIONARY
  5
1A
102
{ACAD_REACTORS
330
C
102
}
330
C
100
AcDbDictionary
281
     1
  3
Layout1
350
1E
  3
Layout2
350
26
  3
Model
350
22
  0
DICTIONARY
  5
3B
102
{ACAD_REACTORS
330
C
102
}
330
C
100
AcDbDictionary
281
     1
  3
ByBlock
350
3D
  3
ByLayer
350
3C
  3
Global
350
3E
  0
DICTIONARY
  5
D9
102
{ACAD_REACTORS
330
C
102
}
330
C
100
AcDbDictionary
281
     1
  0
DICTIONARY
  5
17
102
{ACAD_REACTORS
330
C
102
}
330
C
100
AcDbDictionary
281
     1
  3
Standard
350
18
  0
DICTIONARY
  5
19
102
{ACAD_REACTORS
330
C
102
}
330
C
100
AcDbDictionary
281
     1
  0
ACDBDICTIONARYWDFLT
  5
E
102
{ACAD_REACTORS
330
C
102
}
330
C
100
AcDbDictionary
281
     1
  3
Normal
350
F
100
AcDbDictionaryWithDefault
340
F
  0
DICTIONARY
  5
D8
102
{ACAD_REACTORS
330
C
102
}
330
C
100
AcDbDictionary
281
     1
  0
DICTIONARY
  5
2A
102
{ACAD_REACTORS
330
C
102
}
330
C
100
AcDbDictionary
281
     1
  3
2dWireframe
350
2F
  3
3D Hidden
350
31
  3
3dWireframe
350
30
  3
Basic
350
32
  3
Brighten
350
36
  3
ColorChange
350
3A
  3
Conceptual
350
34
  3
Dim
350
35
  3
Facepattern
350
39
  3
Flat
350
2B
  3
FlatWithEdges
350
2C
  3
Gouraud
350
2D
  3
GouraudWithEdges
350
2E
  3
Linepattern
350
38
  3
Realistic
350
33
  3
Thicken
350
37
  0
LAYOUT
  5
1E
102
{ACAD_REACTORS
330
1A
102
}
330
1A
100
AcDbPlotSettings
  1

  2
none_device
  4

  6

 40
0.0
 41
0.0
 42
0.0
 43
0.0
 44
0.0
 45
0.0
 46
0.0
 47
0.0
 48
0.0
 49
0.0
140
0.0
141
0.0
142
1.0
143
1.0
 70
   688
 72
     0
 73
     0
 74
     5
  7

 75
    16
 76
     0
 77
     2
 78
   300
147
1.0
148
0.0
149
0.0
100
AcDbLayout
  1
Layout1
 70
     1
 71
     1
 10
0.0
 20
0.0
 11
12.0
 21
9.0
 12
0.0
 22
0.0
 32
0.0
 14
1.000000000000000E+20
 24
1.000000000000000E+20
 34
1.000000000000000E+20
 15
-1.000000000000000E+20
 25
-1.000000000000000E+20
 35
-1.000000000000000E+20
146
0.0
 13
0.0
 23
0.0
 33
0.0
 16
1.0
 26
0.0
 36
0.0
 17
0.0
 27
1.0
 37
0.0
 76
     0
330
1B
  0
LAYOUT
  5
26
102
{ACAD_REACTORS
330
1A
102
}
330
1A
100
AcDbPlotSettings
  1

  2
none_device
  4

  6

 40
0.0
 41
0.0
 42
0.0
 43
0.0
 44
0.0
 45
0.0
 46
0.0
 47
0.0
 48
0.0
 49
0.0
140
0.0
141
0.0
142
1.0
143
1.0
 70
   688
 72
     0
 73
     0
 74
     5
  7

 75
    16
 76
     0
 77
     2
 78
   300
147
1.0
148
0.0
149
0.0
100
AcDbLayout
  1
Layout2
 70
     1
 71
     2
 10
0.0
 20
0.0
 11
0.0
 21
0.0
 12
0.0
 22
0.0
 32
0.0
 14
0.0
 24
0.0
 34
0.0
 15
0.0
 25
0.0
 35
0.0
146
0.0
 13
0.0
 23
0.0
 33
0.0
 16
1.0
 26
0.0
 36
0.0
 17
0.0
 27
1.0
 37
0.0
 76
     0
330
23
  0
LAYOUT
  5
22
102
{ACAD_REACTORS
330
1A
102
}
330
1A
100
AcDbPlotSettings
  1

  2
none_device
  4

  6

 40
0.0
 41
0.0
 42
0.0
 43
0.0
 44
0.0
 45
0.0
 46
0.0
 47
0.0
 48
0.0
 49
0.0
140
0.0
141
0.0
142
1.0
143
1.0
 70
  1712
 72
     0
 73
     0
 74
     0
  7

 75
     0
 76
     0
 77
     2
 78
   300
147
1.0
148
0.0
149
0.0
100
AcDbLayout
  1
Model
 70
     1
 71
     0
 10
0.0
 20
0.0
 11
12.0
 21
9.0
 12
0.0
 22
0.0
 32
0.0
 14
1.000000000000000E+20
 24
1.000000000000000E+20
 34
1.000000000000000E+20
 15
-1.000000000000000E+20
 25
-1.000000000000000E+20
 35
-1.000000000000000E+20
146
0.0
 13
0.0
 23
0.0
 33
0.0
 16
1.0
 26
0.0
 36
0.0
 17
0.0
 27
1.0
 37
0.0
 76
     0
330
1F
331
29
  0
MATERIAL
  5
3D
102
{ACAD_REACTORS
330
3B
102
}
330
3B
100
AcDbMaterial
  1
ByBlock
 72
     1
 94
      127
  0
MATERIAL
  5
3C
102
{ACAD_REACTORS
330
3B
102
}
330
3B
100
AcDbMaterial
  1
ByLayer
 72
     1
 94
      127
  0
MATERIAL
  5
3E
102
{ACAD_REACTORS
330
3B
102
}
330
3B
100
AcDbMaterial
  1
Global
 72
     1
 94
      127
  0
MLINESTYLE
  5
18
102
{ACAD_REACTORS
330
17
102
}
330
17
100
AcDbMlineStyle
  2
Standard
 70
     0
  3

 62
   256
 51
90.0
 52
90.0
 71
     2
 49
0.5
 62
   256
  6
BYLAYER
 49
-0.5
 62
   256
  6
BYLAYER
  0
ACDBPLACEHOLDER
  5
F
102
{ACAD_REACTORS
330
E
102
}
330
E
  0
VISUALSTYLE
  5
2F
102
{ACAD_REACTORS
330
2A
102
}
330
2A
100
AcDbVisualStyle
  2
2dWireframe
 70
     4
177
     2
291
     0
 71
     0
176
     1
 72
     2
176
     1
 73
     0
176
     1
 90
        0
176
     1
 40
-0.6
176
     1
 41
-30.0
176
     1
 62
     5
 63
     7
421
 16777215
176
     1
 74
     1
176
     1
 91
        4
176
     1
 64
     7
176
     1
 65
   257
176
     1
 75
     1
176
     1
175
     1
176
     1
 42
1.0
176
     1
 92
        0
176
     1
 66
   257
176
     1
 43
1.0
176
     1
 76
     1
176
     1
 77
     6
176
     1
 78
     2
176
     1
 67
     7
176
     1
 79
     5
176
     1
170
     0
176
     1
171
     0
176
     1
290
     0
176
     1
 93
        1
176
     1
 44
0.0
176
     1
173
     0
176
     1
  0
VISUALSTYLE
  5
31
102
{ACAD_REACTORS
330
2A
102
}
330
2A
100
AcDbVisualStyle
  2
3D Hidden
 70
     6
177
     2
291
     0
 71
     1
176
     1
 72
     2
176
     1
 73
     2
176
     1
 90
        0
176
     1
 40
-0.6
176
     1
 41
-30.0
176
     1
 62
     5
 63
     7
421
 16777215
176
     1
 74
     2
176
     1
 91
        2
176
     1
 64
     7
176
     1
 65
   257
176
     1
 75
     2
176
     1
175
     1
176
     1
 42
40.0
176
     1
 92
        0
176
     1
 66
   257
176
     1
 43
1.0
176
     1
 76
     1
176
     1
 77
     6
176
     1
 78
     2
176
     1
 67
     7
176
     1
 79
     3
176
     1
170
     0
176
     1
171
     0
176
     1
290
     0
176
     1
 93
        1
176
     1
 44
0.0
176
     1
173
     0
176
     1
  0
VISUALSTYLE
  5
30
102
{ACAD_REACTORS
330
2A
102
}
330
2A
100
AcDbVisualStyle
  2
3dWireframe
 70
     5
177
     2
291
     0
 71
     0
176
     1
 72
     2
176
     1
 73
     0
176
     1
 90
        0
176
     1
 40
-0.6
176
     1
 41
-30.0
176
     1
 62
     5
 63
     7
421
 16777215
176
     1
 74
     1
176
     1
 91
        4
176
     1
 64
     7
176
     1
 65
   257
176
     1
 75
     1
176
     1
175
     1
176
     1
 42
1.0
176
     1
 92
        0
176
     1
 66
   257
176
     1
 43
1.0
176
     1
 76
     1
176
     1
 77
     6
176
     1
 78
     2
176
     1
 67
     7
176
     1
 79
     5
176
     1
170
     0
176
     1
171
     0
176
     1
290
     0
176
     1
 93
        1
176
     1
 44
0.0
176
     1
173
     0
176
     1
  0
VISUALSTYLE
  5
32
102
{ACAD_REACTORS
330
2A
102
}
330
2A
100
AcDbVisualStyle
  2
Basic
 70
     7
177
     2
291
     1
 71
     1
176
     1
 72
     0
176
     1
 73
     1
176
     1
 90
        0
176
     1
 40
-0.6
176
     1
 41
-30.0
176
     1
 62
     5
 63
     7
421
 16777215
176
     1
 74
     0
176
     1
 91
        4
176
     1
 64
     7
176
     1
 65
   257
176
     1
 75
     1
176
     1
175
     1
176
     1
 42
1.0
176
     1
 92
        8
176
     1
 66
     7
176
     1
 43
1.0
176
     1
 76
     1
176
     1
 77
     6
176
     1
 78
     2
176
     1
 67
     7
176
     1
 79
     5
176
     1
170
     0
176
     1
171
     0
176
     1
290
     0
176
     1
 93
        1
176
     1
 44
0.0
176
     1
173
     0
176
     1
  0
VISUALSTYLE
  5
36
102
{ACAD_REACTORS
330
2A
102
}
330
2A
100
AcDbVisualStyle
  2
Brighten
 70
    12
177
     2
291
     1
 71
     2
176
     1
 72
     2
176
     1
 73
     0
176
     1
 90
        0
176
     1
 40
-0.6
176
     1
 41
-30.0
176
     1
 62
     5
 63
     7
421
 16777215
176
     1
 74
     1
176
     1
 91
        4
176
     1
 64
     7
176
     1
 65
   257
176
     1
 75
     1
176
     1
175
     1
176
     1
 42
1.0
176
     1
 92
        8
176
     1
 66
     7
176
     1
 43
1.0
176
     1
 76
     1
176
     1
 77
     6
176
     1
 78
     2
176
     1
 67
     7
176
     1
 79
     5
176
     1
170
     0
176
     1
171
     0
176
     1
290
     0
176
     1
 93
        1
176
     1
 44
50.0
176
     1
173
     0
176
     1
  0
VISUALSTYLE
  5
3A
102
{ACAD_REACTORS
330
2A
102
}
330
2A
100
AcDbVisualStyle
  2
ColorChange
 70
    16
177
     2
291
     1
 71
     2
176
     1
 72
     2
176
     1
 73
     3
176
     1
 90
        0
176
     1
 40
-0.6
176
     1
 41
-30.0
176
     1
 62
     5
 63
     8
421
  8421504
176
     1
 74
     1
176
     1
 91
        4
176
     1
 64
     7
176
     1
 65
   257
176
     1
 75
     1
176
     1
175
     1
176
     1
 42
1.0
176
     1
 92
        8
176
     1
 66
     8
424
  8421504
176
     1
 43
1.0
176
     1
 76
     1
176
     1
 77
     6
176
     1
 78
     2
176
     1
 67
     7
176
     1
 79
     5
176
     1
170
     0
176
     1
171
     0
176
     1
290
     0
176
     1
 93
        1
176
     1
 44
0.0
176
     1
173
     0
176
     1
  0
VISUALSTYLE
  5
34
102
{ACAD_REACTORS
330
2A
102
}
330
2A
100
AcDbVisualStyle
  2
Conceptual
 70
     9
177
     2
291
     0
 71
     3
176
     1
 72
     2
176
     1
 73
     0
176
     1
 90
        0
176
     1
 40
-0.6
176
     1
 41
-30.0
176
     1
 62
     5
 63
     7
421
 16777215
176
     1
 74
     2
176
     1
 91
        2
176
     1
 64
     7
176
     1
 65
   257
176
     1
 75
     1
176
     1
175
     1
176
     1
 42
40.0
176
     1
 92
        8
176
     1
 66
     7
176
     1
 43
1.0
176
     1
 76
     1
176
     1
 77
     6
176
     1
 78
     2
176
     1
 67
     7
176
     1
 79
     3
176
     1
170
     0
176
     1
171
     0
176
     1
290
     0
176
     1
 93
        1
176
     1
 44
0.0
176
     1
173
     0
176
     1
  0
VISUALSTYLE
  5
35
102
{ACAD_REACTORS
330
2A
102
}
330
2A
100
AcDbVisualStyle
  2
Dim
 70
    11
177
     2
291
     1
 71
     2
176
     1
 72
     2
176
     1
 73
     0
176
     1
 90
        0
176
     1
 40
-0.6
176
     1
 41
-30.0
176
     1
 62
     5
 63
     7
421
 16777215
176
     1
 74
     1
176
     1
 91
        4
176
     1
 64
     7
176
     1
 65
   257
176
     1
 75
     1
176
     1
175
     1
176
     1
 42
1.0
176
     1
 92
        8
176
     1
 66
     7
176
     1
 43
1.0
176
     1
 76
     1
176
     1
 77
     6
176
     1
 78
     2
176
     1
 67
     7
176
     1
 79
     5
176
     1
170
     0
176
     1
171
     0
176
     1
290
     0
176
     1
 93
        1
176
     1
 44
-50.0
176
     1
173
     0
176
     1
  0
VISUALSTYLE
  5
39
102
{ACAD_REACTORS
330
2A
102
}
330
2A
100
AcDbVisualStyle
  2
Facepattern
 70
    15
177
     2
291
     1
 71
     2
176
     1
 72
     2
176
     1
 73
     0
176
     1
 90
        0
176
     1
 40
-0.6
176
     1
 41
-30.0
176
     1
 62
     5
 63
     7
421
 16777215
176
     1
 74
     1
176
     1
 91
        4
176
     1
 64
     7
176
     1
 65
   257
176
     1
 75
     1
176
     1
175
     1
176
     1
 42
1.0
176
     1
 92
        8
176
     1
 66
     7
176
     1
 43
1.0
176
     1
 76
     1
176
     1
 77
     6
176
     1
 78
     2
176
     1
 67
     7
176
     1
 79
     5
176
     1
170
     0
176
     1
171
     0
176
     1
290
     0
176
     1
 93
        1
176
     1
 44
0.0
176
     1
173
     0
176
     1
  0
VISUALSTYLE
  5
2B
102
{ACAD_REACTORS
330
2A
102
}
330
2A
100
AcDbVisualStyle
  2
Flat
 70
     0
177
     2
291
     1
 71
     2
176
     1
 72
     1
176
     1
 73
     1
176
     1
 90
        2
176
     1
 40
-0.6
176
     1
 41
30.0
176
     1
 62
     5
 63
     7
421
 16777215
176
     1
 74
     0
176
     1
 91
        4
176
     1
 64
     7
176
     1
 65
   257
176
     1
 75
     1
176
     1
175
     1
176
     1
 42
1.0
176
     1
 92
        8
176
     1
 66
     7
176
     1
 43
1.0
176
     1
 76
     1
176
     1
 77
     6
176
     1
 78
     2
176
     1
 67
     7
176
     1
 79
     5
176
     1
170
     0
176
     1
171
     0
176
     1
290
     0
176
     1
 93
       13
176
     1
 44
0.0
176
     1
173
     0
176
     1
  0
VISUALSTYLE
  5
2C
102
{ACAD_REACTORS
330
2A
102
}
330
2A
100
AcDbVisualStyle
  2
FlatWithEdges
 70
     1
177
     2
291
     1
 71
     2
176
     1
 72
     1
176
     1
 73
     1
176
     1
 90
        2
176
     1
 40
-0.6
176
     1
 41
30.0
176
     1
 62
     5
 63
     7
421
 16777215
176
     1
 74
     1
176
     1
 91
        4
176
     1
 64
     7
176
     1
 65
   257
176
     1
 75
     1
176
     1
175
     1
176
     1
 42
1.0
176
     1
 92
        0
176
     1
 66
   257
176
     1
 43
1.0
176
     1
 76
     1
176
     1
 77
     6
176
     1
 78
     2
176
     1
 67
     7
176
     1
 79
     5
176
     1
170
     0
176
     1
171
     0
176
     1
290
     0
176
     1
 93
       13
176
     1
 44
0.0
176
     1
173
     0
176
     1
  0
VISUALSTYLE
  5
2D
102
{ACAD_REACTORS
330
2A
102
}
330
2A
100
AcDbVisualStyle
  2
Gouraud
 70
     2
177
     2
291
     1
 71
     2
176
     1
 72
     2
176
     1
 73
     1
176
     1
 90
        2
176
     1
 40
-0.6
176
     1
 41
30.0
176
     1
 62
     5
 63
     7
421
 16777215
176
     1
 74
     0
176
     1
 91
        4
176
     1
 64
     7
176
     1
 65
   257
176
     1
 75
     1
176
     1
175
     1
176
     1
 42
1.0
176
     1
 92
        0
176
     1
 66
     7
176
     1
 43
1.0
176
     1
 76
     1
176
     1
 77
     6
176
     1
 78
     2
176
     1
 67
     7
176
     1
 79
     5
176
     1
170
     0
176
     1
171
     0
176
     1
290
     0
176
     1
 93
       13
176
     1
 44
0.0
176
     1
173
     0
176
     1
  0
VISUALSTYLE
  5
2E
102
{ACAD_REACTORS
330
2A
102
}
330
2A
100
AcDbVisualStyle
  2
GouraudWithEdges
 70
     3
177
     2
291
     1
 71
     2
176
     1
 72
     2
176
     1
 73
     1
176
     1
 90
        2
176
     1
 40
-0.6
176
     1
 41
30.0
176
     1
 62
     5
 63
     7
421
 16777215
176
     1
 74
     1
176
     1
 91
        4
176
     1
 64
     7
176
     1
 65
   257
176
     1
 75
     1
176
     1
175
     1
176
     1
 42
1.0
176
     1
 92
        0
176
     1
 66
   257
176
     1
 43
1.0
176
     1
 76
     1
176
     1
 77
     6
176
     1
 78
     2
176
     1
 67
     7
176
     1
 79
     5
176
     1
170
     0
176
     1
171
     0
176
     1
290
     0
176
     1
 93
       13
176
     1
 44
0.0
176
     1
173
     0
176
     1
  0
VISUALSTYLE
  5
38
102
{ACAD_REACTORS
330
2A
102
}
330
2A
100
AcDbVisualStyle
  2
Linepattern
 70
    14
177
     2
291
     1
 71
     2
176
     1
 72
     2
176
     1
 73
     0
176
     1
 90
        0
176
     1
 40
-0.6
176
     1
 41
-30.0
176
     1
 62
     5
 63
     7
421
 16777215
176
     1
 74
     1
176
     1
 91
        4
176
     1
 64
     7
176
     1
 65
   257
176
     1
 75
     7
176
     1
175
     7
176
     1
 42
1.0
176
     1
 92
        8
176
     1
 66
     7
176
     1
 43
1.0
176
     1
 76
     1
176
     1
 77
     6
176
     1
 78
     2
176
     1
 67
     7
176
     1
 79
     5
176
     1
170
     0
176
     1
171
     0
176
     1
290
     0
176
     1
 93
        1
176
     1
 44
0.0
176
     1
173
     0
176
     1
  0
VISUALSTYLE
  5
33
102
{ACAD_REACTORS
330
2A
102
}
330
2A
100
AcDbVisualStyle
  2
Realistic
 70
     8
177
     2
291
     0
 71
     2
176
     1
 72
     2
176
     1
 73
     0
176
     1
 90
        0
176
     1
 40
-0.6
176
     1
 41
-30.0
176
     1
 62
     5
 63
     7
421
 16777215
176
     1
 74
     1
176
     1
 91
        0
176
     1
 64
     7
176
     1
 65
   257
176
     1
 75
     1
176
     1
175
     1
176
     1
 42
1.0
176
     1
 92
        8
176
     1
 66
     8
424
  7895160
176
     1
 43
1.0
176
     1
 76
     1
176
     1
 77
     6
176
     1
 78
     2
176
     1
 67
     7
176
     1
 79
     5
176
     1
170
     0
176
     1
171
     0
176
     1
290
     0
176
     1
 93
       13
176
     1
 44
0.0
176
     1
173
     0
176
     1
  0
VISUALSTYLE
  5
37
102
{ACAD_REACTORS
330
2A
102
}
330
2A
100
AcDbVisualStyle
  2
Thicken
 70
    13
177
     2
291
     1
 71
     2
176
     1
 72
     2
176
     1
 73
     0
176
     1
 90
        0
176
     1
 40
-0.6
176
     1
 41
-30.0
176
     1
 62
     5
 63
     7
421
 16777215
176
     1
 74
     1
176
     1
 91
        4
176
     1
 64
     7
176
     1
 65
   257
176
     1
 75
     1
176
     1
175
     1
176
     1
 42
1.0
176
     1
 92
       12
176
     1
 66
     7
176
     1
 43
1.0
176
     1
 76
     1
176
     1
 77
     6
176
     1
 78
     2
176
     1
 67
     7
176
     1
 79
     5
176
     1
170
     0
176
     1
171
     0
176
     1
290
     0
176
     1
 93
        1
176
     1
 44
0.0
176
     1
173
     0
176
     1
  0
ENDSEC
  0
EOF
