  0
SECTION
  2
HEADER
  9
$ACADVER
  1
AC1024
  9
$ACADMAINTVER
 70
     6
  9
$DWGCODEPAGE
  3
UNDEFINED
  9
$INSBASE
 10
0.0
 20
0.0
 30
0.0
  9
$EXTMIN
 10
1.000000000000000E+20
 20
1.000000000000000E+20
 30
1.000000000000000E+20
  9
$EXTMAX
 10
-1.000000000000000E+20
 20
-1.000000000000000E+20
 30
-1.000000000000000E+20
  9
$LIMMIN
 10
0.0
 20
0.0
  9
$LIMMAX
 10
12.0
 20
9.0
  9
$ORTHOMODE
 70
     0
  9
$REGENMODE
 70
     1
  9
$FILLMODE
 70
     1
  9
$QTEXTMODE
 70
     0
  9
$MIRRTEXT
 70
     1
  9
$LTSCALE
 40
1.0
  9
$ATTMODE
 70
     1
  9
$TEXTSIZE
 40
0.2
  9
$TRACEWID
 40
0.05
  9
$TEXTSTYLE
  7
Standard
  9
$CLAYER
  8
0
  9
$CELTYPE
  6
ByLayer
  9
$CECOLOR
 62
   256
  9
$CELTSCALE
 40
1.0
  9
$DISPSILH
 70
     0
  9
$DIMSCALE
 40
1.0
  9
$DIMASZ
 40
0.18
  9
$DIMEXO
 40
0.0625
  9
$DIMDLI
 40
0.38
  9
$DIMRND
 40
0.0
  9
$DIMDLE
 40
0.0
  9
$DIMEXE
 40
0.18
  9
$DIMTP
 40
0.0
  9
$DIMTM
 40
0.0
  9
$DIMTXT
 40
0.18
  9
$DIMCEN
 40
0.09
  9
$DIMTSZ
 40
0.0
  9
$DIMTOL
 70
     0
  9
$DIMLIM
 70
     0
  9
$DIMTIH
 70
     1
  9
$DIMTOH
 70
     1
  9
$DIMSE1
 70
     0
  9
$DIMSE2
 70
     0
  9
$DIMTAD
 70
     0
  9
$DIMZIN
 70
     0
  9
$DIMBLK
  1

  9
$DIMASO
 70
     1
  9
$DIMSHO
 70
     1
  9
$DIMPOST
  1

  9
$DIMAPOST
  1

  9
$DIMALT
 70
     0
  9
$DIMALTD
 70
     2
  9
$DIMALTF
 40
25.4
  9
$DIMLFAC
 40
1.0
  9
$DIMTOFL
 70
     0
  9
$DIMTVP
 40
0.0
  9
$DIMTIX
 70
     0
  9
$DIMSOXD
 70
     0
  9
$DIMSAH
 70
     0
  9
$DIMBLK1
  1

  9
$DIMBLK2
  1

  9
$DIMSTYLE
  2
Standard
  9
$DIMCLRD
 70
     0
  9
$DIMCLRE
 70
     0
  9
$DIMCLRT
 70
     0
  9
$DIMTFAC
 40
1.0
  9
$DIMGAP
 40
0.09
  9
$DIMJUST
 70
     0
  9
$DIMSD1
 70
     0
  9
$DIMSD2
 70
     0
  9
$DIMTOLJ
 70
     1
  9
$DIMTZIN
 70
     0
  9
$DIMALTZ
 70
     0
  9
$DIMALTTZ
 70
     0
  9
$DIMUPT
 70
     0
  9
$DIMDEC
 70
     4
  9
$DIMTDEC
 70
     4
  9
$DIMALTU
 70
     2
  9
$DIMALTTD
 70
     2
  9
$DIMTXSTY
  7
Standard
  9
$DIMAUNIT
 70
     0
  9
$DIMADEC
 70
     0
  9
$DIMALTRND
 40
0.0
  9
$DIMAZIN
 70
     0
  9
$DIMDSEP
 70
    46
  9
$DIMATFIT
 70
     3
  9
$DIMFRAC
 70
     0
  9
$DIMLDRBLK
  1

  9
$DIMLUNIT
 70
     2
  9
$DIMLWD
 70
    -2
  9
$DIMLWE
 70
    -2
  9
$DIMTMOVE
 70
     0
  9
$DIMFXL
 40
1.0
  9
$DIMFXLON
 70
     0
  9
$DIMJOGANG
 40
0.7853981633974483
  9
$DIMTFILL
 70
     0
  9
$DIMTFILLCLR
 70
     0
  9
$DIMARCSYM
 70
     0
  9
$DIMLTYPE
  6

  9
$DIMLTEX1
  6

  9
$DIMLTEX2
  6

  9
$DIMTXTDIRECTION
 70
     0
  9
$LUNITS
 70
     2
  9
$LUPREC
 70
     4
  9
$SKETCHINC
 40
0.1
  9
$FILLETRAD
 40
0.5
  9
$AUNITS
 70
     0
  9
$AUPREC
 70
     0
  9
$MENU
  1
.
  9
$ELEVATION
 40
0.0
  9
$PELEVATION
 40
0.0
  9
$THICKNESS
 40
0.0
  9
$LIMCHECK
 70
     0
  9
$CHAMFERA
 40
0.5
  9
$CHAMFERB
 40
0.5
  9
$CHAMFERC
 40
1.0
  9
$CHAMFERD
 40
0.0
  9
$SKPOLY
 70
     0
  9
$TDCREATE
 40
2457917.584108796
  9
$TDUCREATE
 40
2457917.209108796
  9
$TDUPDATE
 40
2457917.584108796
  9
$TDUUPDATE
 40
2457917.209108796
  9
$TDINDWG
 40
0.0000000116
  9
$TDUSRTIMER
 40
0.0000000116
  9
$USRTIMER
 70
     1
  9
$ANGBASE
 50
0.0
  9
$ANGDIR
 70
     0
  9
$PDMODE
 70
     0
  9
$PDSIZE
 40
0.0
  9
$PLINEWID
 40
0.0
  9
$SPLFRAME
 70
     0
  9
$SPLINETYPE
 70
     6
  9
$SPLINESEGS
 70
     8
  9
$HANDSEED
  5
C3
  9
$SURFTAB1
 70
     6
  9
$SURFTAB2
 70
     6
  9
$SURFTYPE
 70
     6
  9
$SURFU
 70
     6
  9
$SURFV
 70
     6
  9
$UCSBASE
  2

  9
$UCSNAME
  2

  9
$UCSORG
 10
0.0
 20
0.0
 30
0.0
  9
$UCSXDIR
 10
1.0
 20
0.0
 30
0.0
  9
$UCSYDIR
 10
0.0
 20
1.0
 30
0.0
  9
$UCSORTHOREF
  2

  9
$UCSORTHOVIEW
 70
     0
  9
$UCSORGTOP
 10
0.0
 20
0.0
 30
0.0
  9
$UCSORGBOTTOM
 10
0.0
 20
0.0
 30
0.0
  9
$UCSORGLEFT
 10
0.0
 20
0.0
 30
0.0
  9
$UCSORGRIGHT
 10
0.0
 20
0.0
 30
0.0
  9
$UCSORGFRONT
 10
0.0
 20
0.0
 30
0.0
  9
$UCSORGBACK
 10
0.0
 20
0.0
 30
0.0
  9
$PUCSBASE
  2

  9
$PUCSNAME
  2

  9
$PUCSORG
 10
0.0
 20
0.0
 30
0.0
  9
$PUCSXDIR
 10
1.0
 20
0.0
 30
0.0
  9
$PUCSYDIR
 10
0.0
 20
1.0
 30
0.0
  9
$PUCSORTHOREF
  2

  9
$PUCSORTHOVIEW
 70
     0
  9
$PUCSORGTOP
 10
0.0
 20
0.0
 30
0.0
  9
$PUCSORGBOTTOM
 10
0.0
 20
0.0
 30
0.0
  9
$PUCSORGLEFT
 10
0.0
 20
0.0
 30
0.0
  9
$PUCSORGRIGHT
 10
0.0
 20
0.0
 30
0.0
  9
$PUCSORGFRONT
 10
0.0
 20
0.0
 30
0.0
  9
$PUCSORGBACK
 10
0.0
 20
0.0
 30
0.0
  9
$USERI1
 70
     0
  9
$USERI2
 70
     0
  9
$USERI3
 70
     0
  9
$USERI4
 70
     0
  9
$USERI5
 70
     0
  9
$USERR1
 40
0.0
  9
$USERR2
 40
0.0
  9
$USERR3
 40
0.0
  9
$USERR4
 40
0.0
  9
$USERR5
 40
0.0
  9
$WORLDVIEW
 70
     1
  9
$SHADEDGE
 70
     3
  9
$SHADEDIF
 70
    70
  9
$TILEMODE
 70
     1
  9
$MAXACTVP
 70
    64
  9
$PINSBASE
 10
0.0
 20
0.0
 30
0.0
  9
$PLIMCHECK
 70
     0
  9
$PEXTMIN
 10
1.000000000000000E+20
 20
1.000000000000000E+20
 30
1.000000000000000E+20
  9
$PEXTMAX
 10
-1.000000000000000E+20
 20
-1.000000000000000E+20
 30
-1.000000000000000E+20
  9
$PLIMMIN
 10
0.0
 20
0.0
  9
$PLIMMAX
 10
12.0
 20
9.0
  9
$UNITMODE
 70
     0
  9
$VISRETAIN
 70
     1
  9
$PLINEGEN
 70
     0
  9
$PSLTSCALE
 70
     1
  9
$TREEDEPTH
 70
  3020
  9
$CMLSTYLE
  2
Standard
  9
$CMLJUST
 70
     0
  9
$CMLSCALE
 40
1.0
  9
$PROXYGRAPHICS
 70
     1
  9
$MEASUREMENT
 70
     0
  9
$CELWEIGHT
370
    -1
  9
$ENDCAPS
280
     0
  9
$JOINSTYLE
280
     0
  9
$LWDISPLAY
290
     1
  9
$INSUNITS
 70
     1
  9
$HYPERLINKBASE
  1

  9
$STYLESHEET
  1

  9
$XEDIT
290
     1
  9
$CEPSNTYPE
380
     0
  9
$PSTYLEMODE
290
     1
  9
$FINGERPRINTGUID
  2
{5999D7CE-7824-2F8B-F1DD-A60D1AAA8C2D}
  9
$VERSIONGUID
  2
{FAEB1C32-E019-11D5-929B-00C0DF256EC4}
  9
$EXTNAMES
290
     1
  9
$PSVPSCALE
 40
0.0
  9
$OLESTARTUP
290
     0
  9
$SORTENTS
280
   127
  9
$INDEXCTL
280
     0
  9
$HIDETEXT
280
     1
  9
$XCLIPFRAME
280
     2
  9
$HALOGAP
280
     0
  9
$OBSCOLOR
 70
   257
  9
$OBSLTYPE
280
     0
  9
$INTERSECTIONDISPLAY
280
     0
  9
$INTERSECTIONCOLOR
 70
   257
  9
$DIMASSOC
280
     2
  9
$PROJECTNAME
  1

  9
$CAMERADISPLAY
290
     0
  9
$LENSLENGTH
 40
50.0
  9
$CAMERAHEIGHT
 40
0.0
  9
$STEPSPERSEC
 40
2.0
  9
$STEPSIZE
 40
6.0
  9
$3DDWFPREC
 40
2.0
  9
$PSOLWIDTH
 40
0.25
  9
$PSOLHEIGHT
 40
4.0
  9
$LOFTANG1
 40
1.570796326794897
  9
$LOFTANG2
 40
1.570796326794897
  9
$LOFTMAG1
 40
0.0
  9
$LOFTMAG2
 40
0.0
  9
$LOFTPARAM
 70
     7
  9
$LOFTNORMALS
280
     1
  9
$LATITUDE
 40
37.795
  9
$LONGITUDE
 40
-122.394
  9
$NORTHDIRECTION
 40
0.0
  9
$TIMEZONE
 70
 -8000
  9
$LIGHTGLYPHDISPLAY
280
     1
  9
$TILEMODELIGHTSYNCH
280
     1
  9
$CMATERIAL
347
3C
  9
$SOLIDHIST
280
     1
  9
$SHOWHIST
280
     1
  9
$DWFFRAME
280
     2
  9
$DGNFRAME
280
     2
  9
$REALWORLDSCALE
290
     1
  9
$INTERFERECOLOR
 62
   256
  9
$CSHADOW
280
     0
  9
$SHADOWPLANELOCATION
 40
0.0
  0
ENDSEC
  0
SECTION
  2
CLASSES
  0
CLASS
  1
ACDBDICTIONARYWDFLT
  2
AcDbDictionaryWithDefault
  3
ObjectDBX Classes
 90
        0
 91
        4
280
     0
281
     0
  0
CLASS
  1
VISUALSTYLE
  2
AcDbVisualStyle
  3
ObjectDBX Classes
 90
     4095
 91
        4
280
     0
281
     0
  0
CLASS
  1
MATERIAL
  2
AcDbMaterial
  3
ObjectDBX Classes
 90
     1153
 91
        4
280
     0
281
     0
  0
CLASS
  1
SUN
  2
AcDbSun
  3
SCENEOE
 90
     1024
 91
        4
280
     0
281
     0
  0
ENDSEC
  0
SECTION
  2
TABLES
  0
TABLE
  2
VPORT
  5
8
330
0
100
AcDbSymbolTable
 70
     1
  0
VPORT
  5
29
330
8
100
AcDbSymbolTableRecord
100
AcDbViewportTableRecord
  2
*Active
 70
     0
 10
0.0
 20
0.0
 11
1.0
 21
1.0
 12
0.0
 22
0.0
 13
0.0
 23
0.0
 14
0.5
 24
0.5
 15
0.5
 25
0.5
 16
0.0
 26
0.0
 36
1.0
 17
91.00082462281999
 27
-128.4993055234307
 37
0.0
 40
256.9986110468615
 41
0.7081814508812795
 42
50.0
 43
0.0
 44
0.0
 50
0.0
 51
0.0
 71
     0
 72
   100
 73
     1
 74
     3
 75
     0
 76
     0
 77
     0
 78
     0
281
     0
 65
     1
110
0.0
120
0.0
130
0.0
111
1.0
121
0.0
131
0.0
112
0.0
122
1.0
132
0.0
 79
     0
146
0.0
 60
     3
 61
     5
292
     1
282
     1
141
0.0
142
0.0
 63
   250
361
3F
  0
ENDTAB
  0
TABLE
  2
LTYPE
  5
5
330
0
100
AcDbSymbolTable
 70
     1
  0
LTYPE
  5
14
330
5
100
AcDbSymbolTableRecord
100
AcDbLinetypeTableRecord
  2
ByBlock
 70
     0
  3

 72
    65
 73
     0
 40
0.0
  0
LTYPE
  5
15
330
5
100
AcDbSymbolTableRecord
100
AcDbLinetypeTableRecord
  2
ByLayer
 70
     0
  3

 72
    65
 73
     0
 40
0.0
  0
LTYPE
  5
16
330
5
100
AcDbSymbolTableRecord
100
AcDbLinetypeTableRecord
  2
Continuous
 70
     0
  3
Solid line
 72
    65
 73
     0
 40
0.0
  0
ENDTAB
  0
TABLE
  2
LAYER
  5
2
330
0
100
AcDbSymbolTable
 70
     2
  0
LAYER
  5
10
330
2
100
AcDbSymbolTableRecord
100
AcDbLayerTableRecord
  2
0
 70
     0
 62
     7
  6
Continuous
370
    -3
390
F
347
3E
  0
LAYER
  5
40
330
2
100
AcDbSymbolTableRecord
100
AcDbLayerTableRecord
  2
_U+30EC_U+30A4_U+30E4_U+30FC 1
 70
     0
 62
     7
  6
Continuous
370
    -3
390
F
347
3E
  0
ENDTAB
  0
TABLE
  2
STYLE
  5
3
330
0
100
AcDbSymbolTable
 70
     1
  0
STYLE
  5
11
330
3
100
AcDbSymbolTableRecord
100
AcDbTextStyleTableRecord
  2
Standard
 70
     0
 40
0.0
 41
1.0
 50
0.0
 71
     0
 42
0.2
  3
txt
  4

  0
ENDTAB
  0
TABLE
  2
VIEW
  5
6
330
0
100
AcDbSymbolTable
 70
     0
  0
ENDTAB
  0
TABLE
  2
UCS
  5
7
330
0
100
AcDbSymbolTable
 70
     0
  0
ENDTAB
  0
TABLE
  2
APPID
  5
9
330
0
100
AcDbSymbolTable
 70
     1
  0
APPID
  5
12
330
9
100
AcDbSymbolTableRecord
100
AcDbRegAppTableRecord
  2
ACAD
 70
     0
  0
ENDTAB
  0
TABLE
  2
DIMSTYLE
  5
A
330
0
100
AcDbSymbolTable
 70
     1
100
AcDbDimStyleTable
  0
DIMSTYLE
105
27
330
A
100
AcDbSymbolTableRecord
100
AcDbDimStyleTableRecord
  2
Standard
 70
     0
178
     0
340
11
  0
ENDTAB
  0
TABLE
  2
BLOCK_RECORD
  5
1
330
0
100
AcDbSymbolTable
 70
     6
  0
BLOCK_RECORD
  5
1F
330
1
100
AcDbSymbolTableRecord
100
AcDbBlockTableRecord
  2
*Model_Space
340
22
 70
     0
280
     1
281
     0
  0
BLOCK_RECORD
  5
1B
330
1
100
AcDbSymbolTableRecord
100
AcDbBlockTableRecord
  2
*Paper_Space
340
1E
 70
     0
280
     1
281
     0
  0
BLOCK_RECORD
  5
23
330
1
100
AcDbSymbolTableRecord
100
AcDbBlockTableRecord
  2
*Paper_Space0
340
26
 70
     0
280
     1
281
     0
  0
BLOCK_RECORD
  5
58
330
1
100
AcDbSymbolTableRecord
100
AcDbBlockTableRecord
  2
block 2
340
0
102
{BLKREFS
331
59
102
}
 70
     0
280
     1
281
     0
  0
BLOCK_RECORD
  5
74
330
1
100
AcDbSymbolTableRecord
100
AcDbBlockTableRecord
  2
block 3
340
0
102
{BLKREFS
331
75
102
}
 70
     0
280
     1
281
     0
  0
BLOCK_RECORD
  5
82
330
1
100
AcDbSymbolTableRecord
100
AcDbBlockTableRecord
  2
block 4
340
0
102
{BLKREFS
331
83
102
}
 70
     0
280
     1
281
     0
  0
BLOCK_RECORD
  5
9B
330
1
100
AcDbSymbolTableRecord
100
AcDbBlockTableRecord
  2
block 5
340
0
102
{BLKREFS
331
9C
102
}
 70
     0
280
     1
281
     0
  0
BLOCK_RECORD
  5
B8
330
1
100
AcDbSymbolTableRecord
100
AcDbBlockTableRecord
  2
block 6
340
0
102
{BLKREFS
331
B9
102
}
 70
     0
280
     1
281
     0
  0
ENDTAB
  0
ENDSEC
  0
SECTION
  2
BLOCKS
  0
BLOCK
  5
20
330
1F
100
AcDbEntity
  8
0
100
AcDbBlockBegin
  2
*Model_Space
 70
     0
 10
0.0
 20
0.0
 30
0.0
  3
*Model_Space
  1

  0
ENDBLK
  5
21
330
1F
100
AcDbEntity
  8
0
100
AcDbBlockEnd
  0
BLOCK
  5
1C
330
1B
100
AcDbEntity
 67
     1
  8
0
100
AcDbBlockBegin
  2
*Paper_Space
 70
     0
 10
0.0
 20
0.0
 30
0.0
  3
*Paper_Space
  1

  0
ENDBLK
  5
1D
330
1B
100
AcDbEntity
 67
     1
  8
0
100
AcDbBlockEnd
  0
BLOCK
  5
24
330
23
100
AcDbEntity
  8
0
100
AcDbBlockBegin
  2
*Paper_Space0
 70
     0
 10
0.0
 20
0.0
 30
0.0
  3
*Paper_Space0
  1

  0
ENDBLK
  5
25
330
23
100
AcDbEntity
  8
0
100
AcDbBlockEnd
  0
BLOCK
  5
5A
330
58
100
AcDbEntity
  8
0
100
AcDbBlockBegin
  2
block 2
 70
     0
 10
0.0
 20
0.0
 30
0.0
  3
block 2
  1

  0
SPLINE
  5
5C
330
58
100
AcDbEntity
  8
_U+30EC_U+30A4_U+30E4_U+30FC 1
370
     0
100
AcDbSpline
210
0.0
220
0.0
230
1.0
 70
    11
 71
     3
 72
    62
 73
    58
 74
     0
 42
0.0000000001
 43
0.0000000001
 12
1.0
 22
0.0
 32
0.0
 13
1.0
 23
0.0
 33
0.0
 40
0.0
 40
0.0
 40
0.0
 40
0.0
 40
1.0
 40
1.0
 40
1.0
 40
2.0
 40
2.0
 40
2.0
 40
3.0
 40
3.0
 40
3.0
 40
4.0
 40
4.0
 40
4.0
 40
5.0
 40
5.0
 40
5.0
 40
6.0
 40
6.0
 40
6.0
 40
7.0
 40
7.0
 40
7.0
 40
8.0
 40
8.0
 40
8.0
 40
9.0
 40
9.0
 40
9.0
 40
10.0
 40
10.0
 40
10.0
 40
11.0
 40
11.0
 40
11.0
 40
12.0
 40
12.0
 40
12.0
 40
13.0
 40
13.0
 40
13.0
 40
14.0
 40
14.0
 40
14.0
 40
15.0
 40
15.0
 40
15.0
 40
16.0
 40
16.0
 40
16.0
 40
17.0
 40
17.0
 40
17.0
 40
18.0
 40
18.0
 40
18.0
 40
19.0
 40
19.0
 40
19.0
 40
19.0
 10
77.99868433379895
 20
-136.0606010944571
 30
0.0
 10
77.90342744363178
 20
-136.0606010944571
 30
0.0
 10
77.68552515418973
 20
-136.039586011997
 30
0.0
 10
77.56081269762369
 20
-135.8535508557936
 30
0.0
 10
77.48674314469082
 20
-135.7412407429744
 30
0.0
 10
77.48243677533425
 20
-135.6420219929992
 30
0.0
 10
77.47830266075195
 20
-135.5572726440621
 30
0.0
 10
77.47830266075195
 20
-135.5572726440621
 30
0.0
 10
77.69827200748516
 20
-135.5572726440621
 30
0.0
 10
77.69827200748516
 20
-135.5572726440621
 30
0.0
 10
77.7003390647763
 20
-135.631342196995
 30
0.0
 10
77.71101886078058
 20
-135.8659531995405
 30
0.0
 10
77.99437796444238
 20
-135.8659531995405
 30
0.0
 10
78.13200952907812
 20
-135.8659531995405
 30
0.0
 10
78.28428274952616
 20
-135.7963622707384
 30
0.0
 10
78.28428274952616
 20
-135.5679524400664
 30
0.0
 10
78.28428274952616
 20
-135.4515082126649
 30
0.0
 10
78.24621444441415
 20
-135.4029323663229
 30
0.0
 10
78.21451956594984
 20
-135.3712374878586
 30
0.0
 10
78.14045001301697
 20
-135.2971679349257
 30
0.0
 10
78.02400578561553
 20
-135.2844210816303
 30
0.0
 10
77.9690565126258
 20
-135.2844210816303
 30
0.0
 10
77.95010848745692
 20
-135.2844210816303
 30
0.0
 10
77.91410723963607
 20
-135.2864881389214
 30
0.0
 10
77.88654647575406
 20
-135.2906222535037
 30
0.0
 10
77.88654647575406
 20
-135.2906222535037
 30
0.0
 10
77.88654647575406
 20
-135.0959743585871
 30
0.0
 10
77.88654647575406
 20
-135.0959743585871
 30
0.0
 10
77.92461478086607
 20
-135.1025200400091
 30
0.0
 10
77.96698945533464
 20
-135.1045870973003
 30
0.0
 10
77.97336288198235
 20
-135.1045870973003
 30
0.0
 10
78.03881969620211
 20
-135.1045870973003
 30
0.0
 10
78.23777396047528
 20
-135.0832275052917
 30
0.0
 10
78.23777396047528
 20
-134.846549445455
 30
0.0
 10
78.23777396047528
 20
-134.6687825184162
 30
0.0
 10
78.10651582248727
 20
-134.6136609906521
 30
0.0
 10
77.99661727650779
 20
-134.6136609906521
 30
0.0
 10
77.73220619801486
 20
-134.6136609906521
 30
0.0
 10
77.72359345930174
 20
-134.846549445455
 30
0.0
 10
77.71945934471944
 20
-134.9182074315482
 30
0.0
 10
77.71945934471944
 20
-134.9182074315482
 30
0.0
 10
77.51637096586397
 20
-134.9182074315482
 30
0.0
 10
77.51637096586397
 20
-134.9182074315482
 30
0.0
 10
77.52481144980283
 20
-134.7934949749822
 30
0.0
 10
77.55237221368483
 20
-134.4169460384444
 30
0.0
 10
78.00919187502896
 20
-134.4169460384444
 30
0.0
 10
78.23346759111872
 20
-134.4169460384444
 30
0.0
 10
78.47462427508621
 20
-134.5440700618501
 30
0.0
 10
78.47462427508621
 20
-134.8400037640331
 30
0.0
 10
78.47462427508621
 20
-135.0263834297851
 30
0.0
 10
78.37953963969332
 20
-135.1087212118825
 30
0.0
 10
78.27997638016959
 20
-135.17004391152
 30
0.0
 10
78.3414713345813
 20
-135.197604675402
 30
0.0
 10
78.52337237620249
 20
-135.2778754002083
 30
0.0
 10
78.52337237620249
 20
-135.5552055867709
 30
0.0
 10
78.52337237620249
 20
-135.8935139634225
 30
0.0
 10
78.27584226558729
 20
-136.0606010944571
 30
0.0
 10
77.99868433379895
 20
-136.0606010944571
 30
0.0
  0
HATCH
  5
5D
330
58
100
AcDbEntity
  8
_U+30EC_U+30A4_U+30E4_U+30FC 1
 62
     7
420
 16777215
100
AcDbHatch
 10
0.0
 20
0.0
 30
0.0
210
0.0
220
0.0
230
1.0
  2
SOLID
 70
     1
 71
     0
 91
        1
 92
        1
 93
        1
 72
     4
 94
        3
 73
     0
 74
     1
 95
       62
 96
       58
 40
0.0
 40
0.0
 40
0.0
 40
0.0
 40
1.0
 40
1.0
 40
1.0
 40
2.0
 40
2.0
 40
2.0
 40
3.0
 40
3.0
 40
3.0
 40
4.0
 40
4.0
 40
4.0
 40
5.0
 40
5.0
 40
5.0
 40
6.0
 40
6.0
 40
6.0
 40
7.0
 40
7.0
 40
7.0
 40
8.0
 40
8.0
 40
8.0
 40
9.0
 40
9.0
 40
9.0
 40
10.0
 40
10.0
 40
10.0
 40
11.0
 40
11.0
 40
11.0
 40
12.0
 40
12.0
 40
12.0
 40
13.0
 40
13.0
 40
13.0
 40
14.0
 40
14.0
 40
14.0
 40
15.0
 40
15.0
 40
15.0
 40
16.0
 40
16.0
 40
16.0
 40
17.0
 40
17.0
 40
17.0
 40
18.0
 40
18.0
 40
18.0
 40
19.0
 40
19.0
 40
19.0
 40
19.0
 10
77.99868433379895
 20
-136.0606010944571
 10
77.90342744363178
 20
-136.0606010944571
 10
77.68552515418973
 20
-136.039586011997
 10
77.56081269762369
 20
-135.8535508557936
 10
77.48674314469082
 20
-135.7412407429744
 10
77.48243677533425
 20
-135.6420219929992
 10
77.47830266075195
 20
-135.5572726440621
 10
77.47830266075195
 20
-135.5572726440621
 10
77.69827200748516
 20
-135.5572726440621
 10
77.69827200748516
 20
-135.5572726440621
 10
77.7003390647763
 20
-135.631342196995
 10
77.71101886078058
 20
-135.8659531995405
 10
77.99437796444238
 20
-135.8659531995405
 10
78.13200952907812
 20
-135.8659531995405
 10
78.28428274952616
 20
-135.7963622707384
 10
78.28428274952616
 20
-135.5679524400664
 10
78.28428274952616
 20
-135.4515082126649
 10
78.24621444441415
 20
-135.4029323663229
 10
78.21451956594984
 20
-135.3712374878586
 10
78.14045001301697
 20
-135.2971679349257
 10
78.02400578561553
 20
-135.2844210816303
 10
77.9690565126258
 20
-135.2844210816303
 10
77.95010848745692
 20
-135.2844210816303
 10
77.91410723963607
 20
-135.2864881389214
 10
77.88654647575406
 20
-135.2906222535037
 10
77.88654647575406
 20
-135.2906222535037
 10
77.88654647575406
 20
-135.0959743585871
 10
77.88654647575406
 20
-135.0959743585871
 10
77.92461478086607
 20
-135.1025200400091
 10
77.96698945533464
 20
-135.1045870973003
 10
77.97336288198235
 20
-135.1045870973003
 10
78.03881969620211
 20
-135.1045870973003
 10
78.23777396047528
 20
-135.0832275052917
 10
78.23777396047528
 20
-134.846549445455
 10
78.23777396047528
 20
-134.6687825184162
 10
78.10651582248727
 20
-134.6136609906521
 10
77.99661727650779
 20
-134.6136609906521
 10
77.73220619801486
 20
-134.6136609906521
 10
77.72359345930174
 20
-134.846549445455
 10
77.71945934471944
 20
-134.9182074315482
 10
77.71945934471944
 20
-134.9182074315482
 10
77.51637096586397
 20
-134.9182074315482
 10
77.51637096586397
 20
-134.9182074315482
 10
77.52481144980283
 20
-134.7934949749822
 10
77.55237221368483
 20
-134.4169460384444
 10
78.00919187502896
 20
-134.4169460384444
 10
78.23346759111872
 20
-134.4169460384444
 10
78.47462427508621
 20
-134.5440700618501
 10
78.47462427508621
 20
-134.8400037640331
 10
78.47462427508621
 20
-135.0263834297851
 10
78.37953963969332
 20
-135.1087212118825
 10
78.27997638016959
 20
-135.17004391152
 10
78.3414713345813
 20
-135.197604675402
 10
78.52337237620249
 20
-135.2778754002083
 10
78.52337237620249
 20
-135.5552055867709
 10
78.52337237620249
 20
-135.8935139634225
 10
78.27584226558729
 20
-136.0606010944571
 10
77.99868433379895
 20
-136.0606010944571
 97
        0
 97
        0
 75
     2
 76
     1
 98
        0
  0
SPLINE
  5
5E
330
58
100
AcDbEntity
  8
_U+30EC_U+30A4_U+30E4_U+30FC 1
370
     0
100
AcDbSpline
210
0.0
220
0.0
230
1.0
 70
    11
 71
     3
 72
    29
 73
    25
 74
     0
 42
0.0000000001
 43
0.0000000001
 12
1.0
 22
0.0
 32
0.0
 13
1.0
 23
0.0
 33
0.0
 40
0.0
 40
0.0
 40
0.0
 40
0.0
 40
1.0
 40
1.0
 40
1.0
 40
2.0
 40
2.0
 40
2.0
 40
3.0
 40
3.0
 40
3.0
 40
4.0
 40
4.0
 40
4.0
 40
5.0
 40
5.0
 40
5.0
 40
6.0
 40
6.0
 40
6.0
 40
7.0
 40
7.0
 40
7.0
 40
8.0
 40
8.0
 40
8.0
 40
8.0
 10
79.58170570927125
 20
-135.832191263785
 30
0.0
 10
79.47387422058293
 20
-136.0416530692882
 30
0.0
 10
79.3004136629006
 20
-136.0606010944571
 30
0.0
 10
79.18396943549915
 20
-136.0606010944571
 30
0.0
 10
79.02325573111224
 20
-136.0606010944571
 30
0.0
 10
78.88149005189422
 20
-136.0140923054062
 30
0.0
 10
78.78623316172705
 20
-135.832191263785
 30
0.0
 10
78.6827080423953
 20
-135.6375433688684
 30
0.0
 10
78.66358776245217
 20
-135.4005207994832
 30
0.0
 10
78.66358776245217
 20
-135.2379122925794
 30
0.0
 10
78.66358776245217
 20
-135.093907301296
 30
0.0
 10
78.68046873032989
 20
-134.8420708213242
 30
0.0
 10
78.78623316172705
 20
-134.6432888118253
 30
0.0
 10
78.89423690518964
 20
-134.4403726877441
 30
0.0
 10
79.05495060957654
 20
-134.4169460384444
 30
0.0
 10
79.18396943549915
 20
-134.4169460384444
 30
0.0
 10
79.3426160825949
 20
-134.4169460384444
 30
0.0
 10
79.48644881910408
 20
-134.4613877702041
 30
0.0
 10
79.58170570927125
 20
-134.6432888118253
 30
0.0
 10
79.6810967140207
 20
-134.8358696494508
 30
0.0
 10
79.70435110854613
 20
-135.0642794801228
 30
0.0
 10
79.70435110854613
 20
-135.2379122925794
 30
0.0
 10
79.70435110854613
 20
-135.4091335381963
 30
0.0
 10
79.68333602608611
 20
-135.6396104261595
 30
0.0
 10
79.58170570927125
 20
-135.832191263785
 30
0.0
  0
SPLINE
  5
5F
330
58
100
AcDbEntity
  8
_U+30EC_U+30A4_U+30E4_U+30FC 1
370
     0
100
AcDbSpline
210
0.0
220
0.0
230
1.0
 70
    11
 71
     3
 72
    17
 73
    13
 74
     0
 42
0.0000000001
 43
0.0000000001
 12
1.0
 22
0.0
 32
0.0
 13
1.0
 23
0.0
 33
0.0
 40
0.0
 40
0.0
 40
0.0
 40
0.0
 40
1.0
 40
1.0
 40
1.0
 40
2.0
 40
2.0
 40
2.0
 40
3.0
 40
3.0
 40
3.0
 40
4.0
 40
4.0
 40
4.0
 40
4.0
 10
79.18396943549915
 20
-134.6095268760699
 30
0.0
 10
78.9343722675928
 20
-134.6095268760699
 30
0.0
 10
78.88786347854193
 20
-134.8930582345059
 30
0.0
 10
78.88786347854193
 20
-135.2379122925794
 30
0.0
 10
78.88786347854193
 20
-135.5572726440621
 30
0.0
 10
78.9238647263628
 20
-135.8659531995405
 30
0.0
 10
79.18396943549915
 20
-135.8659531995405
 30
0.0
 10
79.43149954611435
 20
-135.8659531995405
 30
0.0
 10
79.48024764723064
 20
-135.5848334079441
 30
0.0
 10
79.48024764723064
 20
-135.2379122925794
 30
0.0
 10
79.48024764723064
 20
-134.9182074315482
 30
0.0
 10
79.44200708734436
 20
-134.6095268760699
 30
0.0
 10
79.18396943549915
 20
-134.6095268760699
 30
0.0
  0
HATCH
  5
60
330
58
100
AcDbEntity
  8
_U+30EC_U+30A4_U+30E4_U+30FC 1
 62
     7
420
 16777215
100
AcDbHatch
 10
0.0
 20
0.0
 30
0.0
210
0.0
220
0.0
230
1.0
  2
SOLID
 70
     1
 71
     0
 91
        2
 92
        1
 93
        1
 72
     4
 94
        3
 73
     0
 74
     1
 95
       29
 96
       25
 40
0.0
 40
0.0
 40
0.0
 40
0.0
 40
1.0
 40
1.0
 40
1.0
 40
2.0
 40
2.0
 40
2.0
 40
3.0
 40
3.0
 40
3.0
 40
4.0
 40
4.0
 40
4.0
 40
5.0
 40
5.0
 40
5.0
 40
6.0
 40
6.0
 40
6.0
 40
7.0
 40
7.0
 40
7.0
 40
8.0
 40
8.0
 40
8.0
 40
8.0
 10
79.58170570927125
 20
-135.832191263785
 10
79.47387422058293
 20
-136.0416530692882
 10
79.3004136629006
 20
-136.0606010944571
 10
79.18396943549915
 20
-136.0606010944571
 10
79.02325573111224
 20
-136.0606010944571
 10
78.88149005189422
 20
-136.0140923054062
 10
78.78623316172705
 20
-135.832191263785
 10
78.6827080423953
 20
-135.6375433688684
 10
78.66358776245217
 20
-135.4005207994832
 10
78.66358776245217
 20
-135.2379122925794
 10
78.66358776245217
 20
-135.093907301296
 10
78.68046873032989
 20
-134.8420708213242
 10
78.78623316172705
 20
-134.6432888118253
 10
78.89423690518964
 20
-134.4403726877441
 10
79.05495060957654
 20
-134.4169460384444
 10
79.18396943549915
 20
-134.4169460384444
 10
79.3426160825949
 20
-134.4169460384444
 10
79.48644881910408
 20
-134.4613877702041
 10
79.58170570927125
 20
-134.6432888118253
 10
79.6810967140207
 20
-134.8358696494508
 10
79.70435110854613
 20
-135.0642794801228
 10
79.70435110854613
 20
-135.2379122925794
 10
79.70435110854613
 20
-135.4091335381963
 10
79.68333602608611
 20
-135.6396104261595
 10
79.58170570927125
 20
-135.832191263785
 97
        0
 97
        0
 92
        1
 93
        1
 72
     4
 94
        3
 73
     0
 74
     1
 95
       17
 96
       13
 40
0.0
 40
0.0
 40
0.0
 40
0.0
 40
1.0
 40
1.0
 40
1.0
 40
2.0
 40
2.0
 40
2.0
 40
3.0
 40
3.0
 40
3.0
 40
4.0
 40
4.0
 40
4.0
 40
4.0
 10
79.18396943549915
 20
-134.6095268760699
 10
78.9343722675928
 20
-134.6095268760699
 10
78.88786347854193
 20
-134.8930582345059
 10
78.88786347854193
 20
-135.2379122925794
 10
78.88786347854193
 20
-135.5572726440621
 10
78.9238647263628
 20
-135.8659531995405
 10
79.18396943549915
 20
-135.8659531995405
 10
79.43149954611435
 20
-135.8659531995405
 10
79.48024764723064
 20
-135.5848334079441
 10
79.48024764723064
 20
-135.2379122925794
 10
79.48024764723064
 20
-134.9182074315482
 10
79.44200708734436
 20
-134.6095268760699
 10
79.18396943549915
 20
-134.6095268760699
 97
        0
 97
        0
 75
     2
 76
     1
 98
        0
  0
SPLINE
  5
61
330
58
100
AcDbEntity
  8
_U+30EC_U+30A4_U+30E4_U+30FC 1
370
     0
100
AcDbSpline
210
0.0
220
0.0
230
1.0
 70
    11
 71
     3
 72
    44
 73
    40
 74
     0
 42
0.0000000001
 43
0.0000000001
 12
1.0
 22
0.0
 32
0.0
 13
1.0
 23
0.0
 33
0.0
 40
0.0
 40
0.0
 40
0.0
 40
0.0
 40
1.0
 40
1.0
 40
1.0
 40
2.0
 40
2.0
 40
2.0
 40
3.0
 40
3.0
 40
3.0
 40
4.0
 40
4.0
 40
4.0
 40
5.0
 40
5.0
 40
5.0
 40
6.0
 40
6.0
 40
6.0
 40
7.0
 40
7.0
 40
7.0
 40
8.0
 40
8.0
 40
8.0
 40
9.0
 40
9.0
 40
9.0
 40
10.0
 40
10.0
 40
10.0
 40
11.0
 40
11.0
 40
11.0
 40
12.0
 40
12.0
 40
12.0
 40
13.0
 40
13.0
 40
13.0
 40
13.0
 10
80.87499455443404
 20
-136.0099581908239
 30
0.0
 10
80.85156790513433
 20
-135.9655164590642
 30
0.0
 10
80.8305528226743
 20
-135.9128064981399
 30
0.0
 10
80.8283135106089
 20
-135.6819851006281
 30
0.0
 10
80.8241793960266
 20
-135.4387613593695
 30
0.0
 10
80.7649237536803
 20
-135.3688259210189
 30
0.0
 10
80.5871568266414
 20
-135.3688259210189
 30
0.0
 10
80.5871568266414
 20
-135.3688259210189
 30
0.0
 10
80.17891301163931
 20
-135.3688259210189
 30
0.0
 10
80.17891301163931
 20
-135.3688259210189
 30
0.0
 10
80.17891301163931
 20
-135.3688259210189
 30
0.0
 10
80.17891301163931
 20
-136.0099581908239
 30
0.0
 10
80.17891301163931
 20
-136.0099581908239
 30
0.0
 10
80.17891301163931
 20
-136.0099581908239
 30
0.0
 10
79.94412975431953
 20
-136.0099581908239
 30
0.0
 10
79.94412975431953
 20
-136.0099581908239
 30
0.0
 10
79.94412975431953
 20
-136.0099581908239
 30
0.0
 10
79.94412975431953
 20
-134.4655218847864
 30
0.0
 10
79.94412975431953
 20
-134.4655218847864
 30
0.0
 10
79.94412975431953
 20
-134.4655218847864
 30
0.0
 10
80.61885170510571
 20
-134.4655218847864
 30
0.0
 10
80.61885170510571
 20
-134.4655218847864
 30
0.0
 10
80.9256374580672
 20
-134.4655218847864
 30
0.0
 10
81.09289684387609
 20
-134.6370876399519
 30
0.0
 10
81.09289684387609
 20
-134.8930582345059
 30
0.0
 10
81.09289684387609
 20
-134.9437011381391
 30
0.0
 10
81.08428410516296
 20
-135.0263834297851
 30
0.0
 10
81.03984237340323
 20
-135.1066541545914
 30
0.0
 10
80.9807589858312
 20
-135.2103515286974
 30
0.0
 10
80.91512991683719
 20
-135.2292995538663
 30
0.0
 10
80.85380721719974
 20
-135.246180521744
 30
0.0
 10
80.99126652706121
 20
-135.2885551962126
 30
0.0
 10
81.05896265334637
 20
-135.3371310425546
 30
0.0
 10
81.06326902270294
 20
-135.652357279455
 30
0.0
 10
81.06740313728524
 20
-135.9231417845956
 30
0.0
 10
81.1034043851061
 20
-135.9548366630599
 30
0.0
 10
81.17110051139126
 20
-136.0099581908239
 30
0.0
 10
81.17110051139126
 20
-136.0099581908239
 30
0.0
 10
80.87499455443404
 20
-136.0099581908239
 30
0.0
 10
80.87499455443404
 20
-136.0099581908239
 30
0.0
  0
SPLINE
  5
62
330
58
100
AcDbEntity
  8
_U+30EC_U+30A4_U+30E4_U+30FC 1
370
     0
100
AcDbSpline
210
0.0
220
0.0
230
1.0
 70
    11
 71
     3
 72
    20
 73
    16
 74
     0
 42
0.0000000001
 43
0.0000000001
 12
1.0
 22
0.0
 32
0.0
 13
1.0
 23
0.0
 33
0.0
 40
0.0
 40
0.0
 40
0.0
 40
0.0
 40
1.0
 40
1.0
 40
1.0
 40
2.0
 40
2.0
 40
2.0
 40
3.0
 40
3.0
 40
3.0
 40
4.0
 40
4.0
 40
4.0
 40
5.0
 40
5.0
 40
5.0
 40
5.0
 10
80.62315807446227
 20
-134.6770507475808
 30
0.0
 10
80.62315807446227
 20
-134.6770507475808
 30
0.0
 10
80.17891301163931
 20
-134.6770507475808
 30
0.0
 10
80.17891301163931
 20
-134.6770507475808
 30
0.0
 10
80.17891301163931
 20
-134.6770507475808
 30
0.0
 10
80.17891301163931
 20
-135.1572970582246
 30
0.0
 10
80.17891301163931
 20
-135.1572970582246
 30
0.0
 10
80.17891301163931
 20
-135.1572970582246
 30
0.0
 10
80.62109101717112
 20
-135.1572970582246
 30
0.0
 10
80.62109101717112
 20
-135.1572970582246
 30
0.0
 10
80.72048202192057
 20
-135.1572970582246
 30
0.0
 10
80.8558742744909
 20
-135.0811604480006
 30
0.0
 10
80.8558742744909
 20
-134.9099392023836
 30
0.0
 10
80.8558742744909
 20
-134.8317355348685
 30
0.0
 10
80.82211233873545
 20
-134.6770507475808
 30
0.0
 10
80.62315807446227
 20
-134.6770507475808
 30
0.0
  0
HATCH
  5
63
330
58
100
AcDbEntity
  8
_U+30EC_U+30A4_U+30E4_U+30FC 1
 62
     7
420
 16777215
100
AcDbHatch
 10
0.0
 20
0.0
 30
0.0
210
0.0
220
0.0
230
1.0
  2
SOLID
 70
     1
 71
     0
 91
        2
 92
        1
 93
        1
 72
     4
 94
        3
 73
     0
 74
     1
 95
       44
 96
       40
 40
0.0
 40
0.0
 40
0.0
 40
0.0
 40
1.0
 40
1.0
 40
1.0
 40
2.0
 40
2.0
 40
2.0
 40
3.0
 40
3.0
 40
3.0
 40
4.0
 40
4.0
 40
4.0
 40
5.0
 40
5.0
 40
5.0
 40
6.0
 40
6.0
 40
6.0
 40
7.0
 40
7.0
 40
7.0
 40
8.0
 40
8.0
 40
8.0
 40
9.0
 40
9.0
 40
9.0
 40
10.0
 40
10.0
 40
10.0
 40
11.0
 40
11.0
 40
11.0
 40
12.0
 40
12.0
 40
12.0
 40
13.0
 40
13.0
 40
13.0
 40
13.0
 10
80.87499455443404
 20
-136.0099581908239
 10
80.85156790513433
 20
-135.9655164590642
 10
80.8305528226743
 20
-135.9128064981399
 10
80.8283135106089
 20
-135.6819851006281
 10
80.8241793960266
 20
-135.4387613593695
 10
80.7649237536803
 20
-135.3688259210189
 10
80.5871568266414
 20
-135.3688259210189
 10
80.5871568266414
 20
-135.3688259210189
 10
80.17891301163931
 20
-135.3688259210189
 10
80.17891301163931
 20
-135.3688259210189
 10
80.17891301163931
 20
-135.3688259210189
 10
80.17891301163931
 20
-136.0099581908239
 10
80.17891301163931
 20
-136.0099581908239
 10
80.17891301163931
 20
-136.0099581908239
 10
79.94412975431953
 20
-136.0099581908239
 10
79.94412975431953
 20
-136.0099581908239
 10
79.94412975431953
 20
-136.0099581908239
 10
79.94412975431953
 20
-134.4655218847864
 10
79.94412975431953
 20
-134.4655218847864
 10
79.94412975431953
 20
-134.4655218847864
 10
80.61885170510571
 20
-134.4655218847864
 10
80.61885170510571
 20
-134.4655218847864
 10
80.9256374580672
 20
-134.4655218847864
 10
81.09289684387609
 20
-134.6370876399519
 10
81.09289684387609
 20
-134.8930582345059
 10
81.09289684387609
 20
-134.9437011381391
 10
81.08428410516296
 20
-135.0263834297851
 10
81.03984237340323
 20
-135.1066541545914
 10
80.9807589858312
 20
-135.2103515286974
 10
80.91512991683719
 20
-135.2292995538663
 10
80.85380721719974
 20
-135.246180521744
 10
80.99126652706121
 20
-135.2885551962126
 10
81.05896265334637
 20
-135.3371310425546
 10
81.06326902270294
 20
-135.652357279455
 10
81.06740313728524
 20
-135.9231417845956
 10
81.1034043851061
 20
-135.9548366630599
 10
81.17110051139126
 20
-136.0099581908239
 10
81.17110051139126
 20
-136.0099581908239
 10
80.87499455443404
 20
-136.0099581908239
 10
80.87499455443404
 20
-136.0099581908239
 97
        0
 97
        0
 92
        1
 93
        1
 72
     4
 94
        3
 73
     0
 74
     1
 95
       20
 96
       16
 40
0.0
 40
0.0
 40
0.0
 40
0.0
 40
1.0
 40
1.0
 40
1.0
 40
2.0
 40
2.0
 40
2.0
 40
3.0
 40
3.0
 40
3.0
 40
4.0
 40
4.0
 40
4.0
 40
5.0
 40
5.0
 40
5.0
 40
5.0
 10
80.62315807446227
 20
-134.6770507475808
 10
80.62315807446227
 20
-134.6770507475808
 10
80.17891301163931
 20
-134.6770507475808
 10
80.17891301163931
 20
-134.6770507475808
 10
80.17891301163931
 20
-134.6770507475808
 10
80.17891301163931
 20
-135.1572970582246
 10
80.17891301163931
 20
-135.1572970582246
 10
80.17891301163931
 20
-135.1572970582246
 10
80.62109101717112
 20
-135.1572970582246
 10
80.62109101717112
 20
-135.1572970582246
 10
80.72048202192057
 20
-135.1572970582246
 10
80.8558742744909
 20
-135.0811604480006
 10
80.8558742744909
 20
-134.9099392023836
 10
80.8558742744909
 20
-134.8317355348685
 10
80.82211233873545
 20
-134.6770507475808
 10
80.62315807446227
 20
-134.6770507475808
 97
        0
 97
        0
 75
     2
 76
     1
 98
        0
  0
ENDBLK
  5
5B
330
58
100
AcDbEntity
  8
0
100
AcDbBlockEnd
  0
BLOCK
  5
76
330
74
100
AcDbEntity
  8
0
100
AcDbBlockBegin
  2
block 3
 70
     0
 10
0.0
 20
0.0
 30
0.0
  3
block 3
  1

  0
SPLINE
  5
78
330
74
100
AcDbEntity
  8
_U+30EC_U+30A4_U+30E4_U+30FC 1
370
     0
100
AcDbSpline
210
0.0
220
0.0
230
1.0
 70
    11
 71
     3
 72
    26
 73
    22
 74
     0
 42
0.0000000001
 43
0.0000000001
 12
1.0
 22
0.0
 32
0.0
 13
1.0
 23
0.0
 33
0.0
 40
0.0
 40
0.0
 40
0.0
 40
0.0
 40
1.0
 40
1.0
 40
1.0
 40
2.0
 40
2.0
 40
2.0
 40
3.0
 40
3.0
 40
3.0
 40
4.0
 40
4.0
 40
4.0
 40
5.0
 40
5.0
 40
5.0
 40
6.0
 40
6.0
 40
6.0
 40
7.0
 40
7.0
 40
7.0
 40
7.0
 10
114.0553981919723
 20
-135.8411485120467
 30
0.0
 10
114.0553981919723
 20
-135.8411485120467
 30
0.0
 10
112.9512450889497
 20
-135.8411485120467
 30
0.0
 10
112.9512450889497
 20
-135.8411485120467
 30
0.0
 10
112.9512450889497
 20
-135.8411485120467
 30
0.0
 10
112.9512450889497
 20
-136.1711886595336
 30
0.0
 10
112.9512450889497
 20
-136.1711886595336
 30
0.0
 10
112.9512450889497
 20
-136.1711886595336
 30
0.0
 10
112.803105983084
 20
-136.1711886595336
 30
0.0
 10
112.803105983084
 20
-136.1711886595336
 30
0.0
 10
112.7882920724974
 20
-135.8390814547555
 30
0.0
 10
112.6253390560451
 20
-135.7925726657047
 30
0.0
 10
112.5109618859348
 20
-135.7629448445315
 30
0.0
 10
112.5109618859348
 20
-135.7629448445315
 30
0.0
 10
112.5109618859348
 20
-135.6168727959569
 30
0.0
 10
112.5109618859348
 20
-135.6168727959569
 30
0.0
 10
112.5109618859348
 20
-135.6168727959569
 30
0.0
 10
114.0553981919723
 20
-135.6168727959569
 30
0.0
 10
114.0553981919723
 20
-135.6168727959569
 30
0.0
 10
114.0553981919723
 20
-135.6168727959569
 30
0.0
 10
114.0553981919723
 20
-135.8411485120467
 30
0.0
 10
114.0553981919723
 20
-135.8411485120467
 30
0.0
  0
HATCH
  5
79
330
74
100
AcDbEntity
  8
_U+30EC_U+30A4_U+30E4_U+30FC 1
 62
     7
420
 16777215
100
AcDbHatch
 10
0.0
 20
0.0
 30
0.0
210
0.0
220
0.0
230
1.0
  2
SOLID
 70
     1
 71
     0
 91
        1
 92
        1
 93
        1
 72
     4
 94
        3
 73
     0
 74
     1
 95
       26
 96
       22
 40
0.0
 40
0.0
 40
0.0
 40
0.0
 40
1.0
 40
1.0
 40
1.0
 40
2.0
 40
2.0
 40
2.0
 40
3.0
 40
3.0
 40
3.0
 40
4.0
 40
4.0
 40
4.0
 40
5.0
 40
5.0
 40
5.0
 40
6.0
 40
6.0
 40
6.0
 40
7.0
 40
7.0
 40
7.0
 40
7.0
 10
114.0553981919723
 20
-135.8411485120467
 10
114.0553981919723
 20
-135.8411485120467
 10
112.9512450889497
 20
-135.8411485120467
 10
112.9512450889497
 20
-135.8411485120467
 10
112.9512450889497
 20
-135.8411485120467
 10
112.9512450889497
 20
-136.1711886595336
 10
112.9512450889497
 20
-136.1711886595336
 10
112.9512450889497
 20
-136.1711886595336
 10
112.803105983084
 20
-136.1711886595336
 10
112.803105983084
 20
-136.1711886595336
 10
112.7882920724974
 20
-135.8390814547555
 10
112.6253390560451
 20
-135.7925726657047
 10
112.5109618859348
 20
-135.7629448445315
 10
112.5109618859348
 20
-135.7629448445315
 10
112.5109618859348
 20
-135.6168727959569
 10
112.5109618859348
 20
-135.6168727959569
 10
112.5109618859348
 20
-135.6168727959569
 10
114.0553981919723
 20
-135.6168727959569
 10
114.0553981919723
 20
-135.6168727959569
 10
114.0553981919723
 20
-135.6168727959569
 10
114.0553981919723
 20
-135.8411485120467
 10
114.0553981919723
 20
-135.8411485120467
 97
        0
 97
        0
 75
     2
 76
     1
 98
        0
  0
ENDBLK
  5
77
330
74
100
AcDbEntity
  8
0
100
AcDbBlockEnd
  0
BLOCK
  5
84
330
82
100
AcDbEntity
  8
0
100
AcDbBlockBegin
  2
block 4
 70
     0
 10
0.0
 20
0.0
 30
0.0
  3
block 4
  1

  0
SPLINE
  5
86
330
82
100
AcDbEntity
  8
_U+30EC_U+30A4_U+30E4_U+30FC 1
370
     0
100
AcDbSpline
210
0.0
220
0.0
230
1.0
 70
    11
 71
     3
 72
    32
 73
    28
 74
     0
 42
0.0000000001
 43
0.0000000001
 12
1.0
 22
0.0
 32
0.0
 13
1.0
 23
0.0
 33
0.0
 40
0.0
 40
0.0
 40
0.0
 40
0.0
 40
1.0
 40
1.0
 40
1.0
 40
2.0
 40
2.0
 40
2.0
 40
3.0
 40
3.0
 40
3.0
 40
4.0
 40
4.0
 40
4.0
 40
5.0
 40
5.0
 40
5.0
 40
6.0
 40
6.0
 40
6.0
 40
7.0
 40
7.0
 40
7.0
 40
8.0
 40
8.0
 40
8.0
 40
9.0
 40
9.0
 40
9.0
 40
9.0
 10
113.6922851278269
 20
-144.4483750723949
 30
0.0
 10
113.6922851278269
 20
-144.6216633753029
 30
0.0
 10
113.6226941990249
 20
-144.8672986834012
 30
0.0
 10
113.2905869942468
 20
-144.905194733739
 30
0.0
 10
113.2905869942468
 20
-144.905194733739
 30
0.0
 10
113.2905869942468
 20
-144.6915988136535
 30
0.0
 10
113.2905869942468
 20
-144.6915988136535
 30
0.0
 10
113.3498426365931
 20
-144.6809190176492
 30
0.0
 10
113.4976372329103
 20
-144.6492241391849
 30
0.0
 10
113.4976372329103
 20
-144.4463080151037
 30
0.0
 10
113.4976372329103
 20
-144.1541639179545
 30
0.0
 10
113.1675970854234
 20
-144.1162678676168
 30
0.0
 10
112.962613904051
 20
-144.1035210143214
 30
0.0
 10
113.0428846288573
 20
-144.194471535132
 30
0.0
 10
113.1000732139125
 20
-144.2619954066429
 30
0.0
 10
113.1000732139125
 20
-144.443896448264
 30
0.0
 10
113.1000732139125
 20
-144.6237304325941
 30
0.0
 10
112.9943087825153
 20
-144.926209816199
 30
0.0
 10
112.5881320248044
 20
-144.926209816199
 30
0.0
 10
112.2687716733217
 20
-144.926209816199
 30
0.0
 10
112.0486300718142
 20
-144.7274278067001
 30
0.0
 10
112.0486300718142
 20
-144.4101345125086
 30
0.0
 10
112.0486300718142
 20
-143.8961262661093
 30
0.0
 10
112.6029459353909
 20
-143.885446470105
 30
0.0
 10
112.8165418554764
 20
-143.885446470105
 30
0.0
 10
113.0470187434396
 20
-143.885446470105
 30
0.0
 10
113.6922851278269
 20
-143.9047390048224
 30
0.0
 10
113.6922851278269
 20
-144.4483750723949
 30
0.0
  0
SPLINE
  5
87
330
82
100
AcDbEntity
  8
_U+30EC_U+30A4_U+30E4_U+30FC 1
370
     0
100
AcDbSpline
210
0.0
220
0.0
230
1.0
 70
    11
 71
     3
 72
    17
 73
    13
 74
     0
 42
0.0000000001
 43
0.0000000001
 12
1.0
 22
0.0
 32
0.0
 13
1.0
 23
0.0
 33
0.0
 40
0.0
 40
0.0
 40
0.0
 40
0.0
 40
1.0
 40
1.0
 40
1.0
 40
2.0
 40
2.0
 40
2.0
 40
3.0
 40
3.0
 40
3.0
 40
4.0
 40
4.0
 40
4.0
 40
4.0
 10
112.2412109094397
 20
-144.4080674552174
 30
0.0
 10
112.2412109094397
 20
-144.52657873991
 30
0.0
 10
112.2983994944948
 20
-144.7022786096578
 30
0.0
 10
112.5839979102221
 20
-144.7022786096578
 30
0.0
 10
112.810340683603
 20
-144.7022786096578
 30
0.0
 10
112.9054253189959
 20
-144.5624077329566
 30
0.0
 10
112.9054253189959
 20
-144.4270154803863
 30
0.0
 10
112.9054253189959
 20
-144.1648437139588
 30
0.0
 10
112.6959635134927
 20
-144.1266031540725
 30
0.0
 10
112.5795192860912
 20
-144.1266031540725
 30
0.0
 10
112.404163925892
 20
-144.1266031540725
 30
0.0
 10
112.2412109094397
 20
-144.2220322990139
 30
0.0
 10
112.2412109094397
 20
-144.4080674552174
 30
0.0
  0
HATCH
  5
88
330
82
100
AcDbEntity
  8
_U+30EC_U+30A4_U+30E4_U+30FC 1
 62
     7
420
 16777215
100
AcDbHatch
 10
0.0
 20
0.0
 30
0.0
210
0.0
220
0.0
230
1.0
  2
SOLID
 70
     1
 71
     0
 91
        2
 92
        1
 93
        1
 72
     4
 94
        3
 73
     0
 74
     1
 95
       32
 96
       28
 40
0.0
 40
0.0
 40
0.0
 40
0.0
 40
1.0
 40
1.0
 40
1.0
 40
2.0
 40
2.0
 40
2.0
 40
3.0
 40
3.0
 40
3.0
 40
4.0
 40
4.0
 40
4.0
 40
5.0
 40
5.0
 40
5.0
 40
6.0
 40
6.0
 40
6.0
 40
7.0
 40
7.0
 40
7.0
 40
8.0
 40
8.0
 40
8.0
 40
9.0
 40
9.0
 40
9.0
 40
9.0
 10
113.6922851278269
 20
-144.4483750723949
 10
113.6922851278269
 20
-144.6216633753029
 10
113.6226941990249
 20
-144.8672986834012
 10
113.2905869942468
 20
-144.905194733739
 10
113.2905869942468
 20
-144.905194733739
 10
113.2905869942468
 20
-144.6915988136535
 10
113.2905869942468
 20
-144.6915988136535
 10
113.3498426365931
 20
-144.6809190176492
 10
113.4976372329103
 20
-144.6492241391849
 10
113.4976372329103
 20
-144.4463080151037
 10
113.4976372329103
 20
-144.1541639179545
 10
113.1675970854234
 20
-144.1162678676168
 10
112.962613904051
 20
-144.1035210143214
 10
113.0428846288573
 20
-144.194471535132
 10
113.1000732139125
 20
-144.2619954066429
 10
113.1000732139125
 20
-144.443896448264
 10
113.1000732139125
 20
-144.6237304325941
 10
112.9943087825153
 20
-144.926209816199
 10
112.5881320248044
 20
-144.926209816199
 10
112.2687716733217
 20
-144.926209816199
 10
112.0486300718142
 20
-144.7274278067001
 10
112.0486300718142
 20
-144.4101345125086
 10
112.0486300718142
 20
-143.8961262661093
 10
112.6029459353909
 20
-143.885446470105
 10
112.8165418554764
 20
-143.885446470105
 10
113.0470187434396
 20
-143.885446470105
 10
113.6922851278269
 20
-143.9047390048224
 10
113.6922851278269
 20
-144.4483750723949
 97
        0
 97
        0
 92
        1
 93
        1
 72
     4
 94
        3
 73
     0
 74
     1
 95
       17
 96
       13
 40
0.0
 40
0.0
 40
0.0
 40
0.0
 40
1.0
 40
1.0
 40
1.0
 40
2.0
 40
2.0
 40
2.0
 40
3.0
 40
3.0
 40
3.0
 40
4.0
 40
4.0
 40
4.0
 40
4.0
 10
112.2412109094397
 20
-144.4080674552174
 10
112.2412109094397
 20
-144.52657873991
 10
112.2983994944948
 20
-144.7022786096578
 10
112.5839979102221
 20
-144.7022786096578
 10
112.810340683603
 20
-144.7022786096578
 10
112.9054253189959
 20
-144.5624077329566
 10
112.9054253189959
 20
-144.4270154803863
 10
112.9054253189959
 20
-144.1648437139588
 10
112.6959635134927
 20
-144.1266031540725
 10
112.5795192860912
 20
-144.1266031540725
 10
112.404163925892
 20
-144.1266031540725
 10
112.2412109094397
 20
-144.2220322990139
 10
112.2412109094397
 20
-144.4080674552174
 97
        0
 97
        0
 75
     2
 76
     1
 98
        0
  0
POLYLINE
  5
89
330
82
100
AcDbEntity
  8
_U+30EC_U+30A4_U+30E4_U+30FC 1
370
     0
100
AcDb2dPolyline
 66
     1
 10
0.0
 20
0.0
 30
0.0
  0
VERTEX
  5
8A
330
89
100
AcDbEntity
  8
_U+30EC_U+30A4_U+30E4_U+30FC 1
370
     0
100
AcDbVertex
100
AcDb2dVertex
 10
113.6416422241938
 20
-143.6690944736313
 30
0.0
  0
VERTEX
  5
8B
330
89
100
AcDbEntity
  8
_U+30EC_U+30A4_U+30E4_U+30FC 1
370
     0
100
AcDbVertex
100
AcDb2dVertex
 10
113.389805744222
 20
-143.6690944736313
 30
0.0
  0
VERTEX
  5
8C
330
89
100
AcDbEntity
  8
_U+30EC_U+30A4_U+30E4_U+30FC 1
370
     0
100
AcDbVertex
100
AcDb2dVertex
 10
113.389805744222
 20
-143.4172579936596
 30
0.0
  0
VERTEX
  5
8D
330
89
100
AcDbEntity
  8
_U+30EC_U+30A4_U+30E4_U+30FC 1
370
     0
100
AcDbVertex
100
AcDb2dVertex
 10
113.6416422241938
 20
-143.4172579936596
 30
0.0
  0
VERTEX
  5
8E
330
89
100
AcDbEntity
  8
_U+30EC_U+30A4_U+30E4_U+30FC 1
370
     0
100
AcDbVertex
100
AcDb2dVertex
 10
113.6416422241938
 20
-143.6690944736313
 30
0.0
  0
SEQEND
  5
8F
330
89
100
AcDbEntity
  8
_U+30EC_U+30A4_U+30E4_U+30FC 1
370
     0
  0
HATCH
  5
90
330
82
100
AcDbEntity
  8
_U+30EC_U+30A4_U+30E4_U+30FC 1
 62
     7
420
 16777215
100
AcDbHatch
 10
0.0
 20
0.0
 30
0.0
210
0.0
220
0.0
230
1.0
  2
SOLID
 70
     1
 71
     0
 91
        1
 92
        1
 93
        4
 72
     1
 10
113.6416422241938
 20
-143.6690944736313
 11
113.389805744222
 21
-143.6690944736313
 72
     1
 10
113.389805744222
 20
-143.6690944736313
 11
113.389805744222
 21
-143.4172579936596
 72
     1
 10
113.389805744222
 20
-143.4172579936596
 11
113.6416422241938
 21
-143.4172579936596
 72
     1
 10
113.6416422241938
 20
-143.4172579936596
 11
113.6416422241938
 21
-143.6690944736313
 97
        0
 75
     2
 76
     1
 98
        0
  0
SPLINE
  5
91
330
82
100
AcDbEntity
  8
_U+30EC_U+30A4_U+30E4_U+30FC 1
370
     0
100
AcDbSpline
210
0.0
220
0.0
230
1.0
 70
    11
 71
     3
 72
    53
 73
    49
 74
     0
 42
0.0000000001
 43
0.0000000001
 12
1.0
 22
0.0
 32
0.0
 13
1.0
 23
0.0
 33
0.0
 40
0.0
 40
0.0
 40
0.0
 40
0.0
 40
1.0
 40
1.0
 40
1.0
 40
2.0
 40
2.0
 40
2.0
 40
3.0
 40
3.0
 40
3.0
 40
4.0
 40
4.0
 40
4.0
 40
5.0
 40
5.0
 40
5.0
 40
6.0
 40
6.0
 40
6.0
 40
7.0
 40
7.0
 40
7.0
 40
8.0
 40
8.0
 40
8.0
 40
9.0
 40
9.0
 40
9.0
 40
10.0
 40
10.0
 40
10.0
 40
11.0
 40
11.0
 40
11.0
 40
12.0
 40
12.0
 40
12.0
 40
13.0
 40
13.0
 40
13.0
 40
14.0
 40
14.0
 40
14.0
 40
15.0
 40
15.0
 40
15.0
 40
16.0
 40
16.0
 40
16.0
 40
16.0
 10
113.6922851278269
 20
-142.6999891136306
 30
0.0
 10
113.6922851278269
 20
-142.7781927811457
 30
0.0
 10
113.6754041599492
 20
-142.8798230979606
 30
0.0
 10
113.6120144030206
 20
-142.9814534147755
 30
0.0
 10
113.5021158570411
 20
-143.1547417176835
 30
0.0
 10
113.3708577190531
 20
-143.1761013096921
 30
0.0
 10
113.2630262303648
 20
-143.195049334861
 30
0.0
 10
113.2630262303648
 20
-143.195049334861
 30
0.0
 10
113.2630262303648
 20
-142.9728406760624
 30
0.0
 10
113.2630262303648
 20
-142.9728406760624
 30
0.0
 10
113.4618082398637
 20
-142.9180636578469
 30
0.0
 10
113.4914360610369
 20
-142.7909396344412
 30
0.0
 10
113.4914360610369
 20
-142.6979220563394
 30
0.0
 10
113.4914360610369
 20
-142.5583956891868
 30
0.0
 10
113.3918728015131
 20
-142.4061224687387
 30
0.0
 10
113.1593288562588
 20
-142.4061224687387
 30
0.0
 10
112.9033582617047
 20
-142.4061224687387
 30
0.0
 10
112.8334228233542
 20
-142.5859564530688
 30
0.0
 10
112.8334228233542
 20
-142.7065347950525
 30
0.0
 10
112.8334228233542
 20
-142.7382296735168
 30
0.0
 10
112.8334228233542
 20
-142.8798230979606
 30
0.0
 10
112.962613904051
 20
-142.96870656148
 30
0.0
 10
112.962613904051
 20
-142.96870656148
 30
0.0
 10
112.9436658788821
 20
-143.1444064312278
 30
0.0
 10
112.9436658788821
 20
-143.1444064312278
 30
0.0
 10
112.9436658788821
 20
-143.1444064312278
 30
0.0
 10
112.0972059181563
 20
-143.0238280892441
 30
0.0
 10
112.0972059181563
 20
-143.0238280892441
 30
0.0
 10
112.0972059181563
 20
-143.0238280892441
 30
0.0
 10
112.0972059181563
 20
-142.2452365095776
 30
0.0
 10
112.0972059181563
 20
-142.2452365095776
 30
0.0
 10
112.0972059181563
 20
-142.2452365095776
 30
0.0
 10
112.2918538130729
 20
-142.2452365095776
 30
0.0
 10
112.2918538130729
 20
-142.2452365095776
 30
0.0
 10
112.2918538130729
 20
-142.2452365095776
 30
0.0
 10
112.2918538130729
 20
-142.8608750727917
 30
0.0
 10
112.2918538130729
 20
-142.8608750727917
 30
0.0
 10
112.2918538130729
 20
-142.8608750727917
 30
0.0
 10
112.7149115386616
 20
-142.9263318870115
 30
0.0
 10
112.7149115386616
 20
-142.9263318870115
 30
0.0
 10
112.6811496029061
 20
-142.865009187374
 30
0.0
 10
112.6408419857287
 20
-142.7826714052766
 30
0.0
 10
112.6408419857287
 20
-142.664160120584
 30
0.0
 10
112.6408419857287
 20
-142.4102565833211
 30
0.0
 10
112.8272216514807
 20
-142.1732340139359
 30
0.0
 10
113.1403808310899
 20
-142.1732340139359
 30
0.0
 10
113.4576741252814
 20
-142.1732340139359
 30
0.0
 10
113.6922851278269
 20
-142.3975097300256
 30
0.0
 10
113.6922851278269
 20
-142.6999891136306
 30
0.0
  0
HATCH
  5
92
330
82
100
AcDbEntity
  8
_U+30EC_U+30A4_U+30E4_U+30FC 1
 62
     7
420
 16777215
100
AcDbHatch
 10
0.0
 20
0.0
 30
0.0
210
0.0
220
0.0
230
1.0
  2
SOLID
 70
     1
 71
     0
 91
        1
 92
        1
 93
        1
 72
     4
 94
        3
 73
     0
 74
     1
 95
       53
 96
       49
 40
0.0
 40
0.0
 40
0.0
 40
0.0
 40
1.0
 40
1.0
 40
1.0
 40
2.0
 40
2.0
 40
2.0
 40
3.0
 40
3.0
 40
3.0
 40
4.0
 40
4.0
 40
4.0
 40
5.0
 40
5.0
 40
5.0
 40
6.0
 40
6.0
 40
6.0
 40
7.0
 40
7.0
 40
7.0
 40
8.0
 40
8.0
 40
8.0
 40
9.0
 40
9.0
 40
9.0
 40
10.0
 40
10.0
 40
10.0
 40
11.0
 40
11.0
 40
11.0
 40
12.0
 40
12.0
 40
12.0
 40
13.0
 40
13.0
 40
13.0
 40
14.0
 40
14.0
 40
14.0
 40
15.0
 40
15.0
 40
15.0
 40
16.0
 40
16.0
 40
16.0
 40
16.0
 10
113.6922851278269
 20
-142.6999891136306
 10
113.6922851278269
 20
-142.7781927811457
 10
113.6754041599492
 20
-142.8798230979606
 10
113.6120144030206
 20
-142.9814534147755
 10
113.5021158570411
 20
-143.1547417176835
 10
113.3708577190531
 20
-143.1761013096921
 10
113.2630262303648
 20
-143.195049334861
 10
113.2630262303648
 20
-143.195049334861
 10
113.2630262303648
 20
-142.9728406760624
 10
113.2630262303648
 20
-142.9728406760624
 10
113.4618082398637
 20
-142.9180636578469
 10
113.4914360610369
 20
-142.7909396344412
 10
113.4914360610369
 20
-142.6979220563394
 10
113.4914360610369
 20
-142.5583956891868
 10
113.3918728015131
 20
-142.4061224687387
 10
113.1593288562588
 20
-142.4061224687387
 10
112.9033582617047
 20
-142.4061224687387
 10
112.8334228233542
 20
-142.5859564530688
 10
112.8334228233542
 20
-142.7065347950525
 10
112.8334228233542
 20
-142.7382296735168
 10
112.8334228233542
 20
-142.8798230979606
 10
112.962613904051
 20
-142.96870656148
 10
112.962613904051
 20
-142.96870656148
 10
112.9436658788821
 20
-143.1444064312278
 10
112.9436658788821
 20
-143.1444064312278
 10
112.9436658788821
 20
-143.1444064312278
 10
112.0972059181563
 20
-143.0238280892441
 10
112.0972059181563
 20
-143.0238280892441
 10
112.0972059181563
 20
-143.0238280892441
 10
112.0972059181563
 20
-142.2452365095776
 10
112.0972059181563
 20
-142.2452365095776
 10
112.0972059181563
 20
-142.2452365095776
 10
112.2918538130729
 20
-142.2452365095776
 10
112.2918538130729
 20
-142.2452365095776
 10
112.2918538130729
 20
-142.2452365095776
 10
112.2918538130729
 20
-142.8608750727917
 10
112.2918538130729
 20
-142.8608750727917
 10
112.2918538130729
 20
-142.8608750727917
 10
112.7149115386616
 20
-142.9263318870115
 10
112.7149115386616
 20
-142.9263318870115
 10
112.6811496029061
 20
-142.865009187374
 10
112.6408419857287
 20
-142.7826714052766
 10
112.6408419857287
 20
-142.664160120584
 10
112.6408419857287
 20
-142.4102565833211
 10
112.8272216514807
 20
-142.1732340139359
 10
113.1403808310899
 20
-142.1732340139359
 10
113.4576741252814
 20
-142.1732340139359
 10
113.6922851278269
 20
-142.3975097300256
 10
113.6922851278269
 20
-142.6999891136306
 97
        0
 97
        0
 75
     2
 76
     1
 98
        0
  0
ENDBLK
  5
85
330
82
100
AcDbEntity
  8
0
100
AcDbBlockEnd
  0
BLOCK
  5
9D
330
9B
100
AcDbEntity
  8
0
100
AcDbBlockBegin
  2
block 5
 70
     0
 10
0.0
 20
0.0
 30
0.0
  3
block 5
  1

  0
SPLINE
  5
9F
330
9B
100
AcDbEntity
  8
_U+30EC_U+30A4_U+30E4_U+30FC 1
370
     0
100
AcDbSpline
210
0.0
220
0.0
230
1.0
 70
    11
 71
     3
 72
    32
 73
    28
 74
     0
 42
0.0000000001
 43
0.0000000001
 12
1.0
 22
0.0
 32
0.0
 13
1.0
 23
0.0
 33
0.0
 40
0.0
 40
0.0
 40
0.0
 40
0.0
 40
1.0
 40
1.0
 40
1.0
 40
2.0
 40
2.0
 40
2.0
 40
3.0
 40
3.0
 40
3.0
 40
4.0
 40
4.0
 40
4.0
 40
5.0
 40
5.0
 40
5.0
 40
6.0
 40
6.0
 40
6.0
 40
7.0
 40
7.0
 40
7.0
 40
8.0
 40
8.0
 40
8.0
 40
9.0
 40
9.0
 40
9.0
 40
9.0
 10
69.35252819446742
 20
-112.1438869619814
 30
0.0
 10
69.17906763678509
 20
-112.1438869619814
 30
0.0
 10
68.93360458346105
 20
-112.0739515236308
 30
0.0
 10
68.89553627834904
 20
-111.7418443188527
 30
0.0
 10
68.89553627834904
 20
-111.7418443188527
 30
0.0
 10
69.10913219843452
 20
-111.7418443188527
 30
0.0
 10
69.10913219843452
 20
-111.7418443188527
 30
0.0
 10
69.1198119944388
 20
-111.801099961199
 30
0.0
 10
69.1515068729031
 20
-111.9492390670648
 30
0.0
 10
69.35459525175858
 20
-111.9492390670648
 30
0.0
 10
69.6465670941335
 20
-111.9492390670648
 30
0.0
 10
69.68463539924551
 20
-111.6191989195778
 30
0.0
 10
69.69720999776668
 20
-111.4140434834312
 30
0.0
 10
69.60625947695608
 20
-111.4943142082375
 30
0.0
 10
69.53856335067091
 20
-111.5515027932927
 30
0.0
 10
69.35666230904972
 20
-111.5515027932927
 30
0.0
 10
69.17682832471968
 20
-111.5515027932927
 30
0.0
 10
68.87434894111475
 20
-111.4457383618955
 30
0.0
 10
68.87434894111475
 20
-111.0395616041846
 30
0.0
 10
68.87434894111475
 20
-110.7200289979276
 30
0.0
 10
69.07313095061366
 20
-110.5000596511944
 30
0.0
 10
69.39059649957943
 20
-110.5000596511944
 30
0.0
 10
69.90460474597872
 20
-110.5000596511944
 30
0.0
 10
69.91511228720873
 20
-111.0543755147711
 30
0.0
 10
69.91511228720873
 20
-111.2679714348566
 30
0.0
 10
69.91511228720873
 20
-111.4986205775941
 30
0.0
 10
69.89616426203985
 20
-112.1438869619814
 30
0.0
 10
69.35252819446742
 20
-112.1438869619814
 30
0.0
  0
SPLINE
  5
A0
330
9B
100
AcDbEntity
  8
_U+30EC_U+30A4_U+30E4_U+30FC 1
370
     0
100
AcDbSpline
210
0.0
220
0.0
230
1.0
 70
    11
 71
     3
 72
    17
 73
    13
 74
     0
 42
0.0000000001
 43
0.0000000001
 12
1.0
 22
0.0
 32
0.0
 13
1.0
 23
0.0
 33
0.0
 40
0.0
 40
0.0
 40
0.0
 40
0.0
 40
1.0
 40
1.0
 40
1.0
 40
2.0
 40
2.0
 40
2.0
 40
3.0
 40
3.0
 40
3.0
 40
4.0
 40
4.0
 40
4.0
 40
4.0
 10
69.39266355687059
 20
-110.6926404888199
 30
0.0
 10
69.27415227217799
 20
-110.6926404888199
 30
0.0
 10
69.09862465720451
 20
-110.7496568191008
 30
0.0
 10
69.09862465720451
 20
-111.035255234828
 30
0.0
 10
69.09862465720451
 20
-111.2615980082089
 30
0.0
 10
69.23815102435714
 20
-111.3568548983761
 30
0.0
 10
69.37354327692745
 20
-111.3568548983761
 30
0.0
 10
69.63588729812922
 20
-111.3568548983761
 30
0.0
 10
69.67395560324124
 20
-111.1473930928729
 30
0.0
 10
69.67395560324124
 20
-111.0311211202457
 30
0.0
 10
69.67395560324124
 20
-110.855421250498
 30
0.0
 10
69.57887096784835
 20
-110.6926404888199
 30
0.0
 10
69.39266355687059
 20
-110.6926404888199
 30
0.0
  0
HATCH
  5
A1
330
9B
100
AcDbEntity
  8
_U+30EC_U+30A4_U+30E4_U+30FC 1
 62
     7
420
 16777215
100
AcDbHatch
 10
0.0
 20
0.0
 30
0.0
210
0.0
220
0.0
230
1.0
  2
SOLID
 70
     1
 71
     0
 91
        2
 92
        1
 93
        1
 72
     4
 94
        3
 73
     0
 74
     1
 95
       32
 96
       28
 40
0.0
 40
0.0
 40
0.0
 40
0.0
 40
1.0
 40
1.0
 40
1.0
 40
2.0
 40
2.0
 40
2.0
 40
3.0
 40
3.0
 40
3.0
 40
4.0
 40
4.0
 40
4.0
 40
5.0
 40
5.0
 40
5.0
 40
6.0
 40
6.0
 40
6.0
 40
7.0
 40
7.0
 40
7.0
 40
8.0
 40
8.0
 40
8.0
 40
9.0
 40
9.0
 40
9.0
 40
9.0
 10
69.35252819446742
 20
-112.1438869619814
 10
69.17906763678509
 20
-112.1438869619814
 10
68.93360458346105
 20
-112.0739515236308
 10
68.89553627834904
 20
-111.7418443188527
 10
68.89553627834904
 20
-111.7418443188527
 10
69.10913219843452
 20
-111.7418443188527
 10
69.10913219843452
 20
-111.7418443188527
 10
69.1198119944388
 20
-111.801099961199
 10
69.1515068729031
 20
-111.9492390670648
 10
69.35459525175858
 20
-111.9492390670648
 10
69.6465670941335
 20
-111.9492390670648
 10
69.68463539924551
 20
-111.6191989195778
 10
69.69720999776668
 20
-111.4140434834312
 10
69.60625947695608
 20
-111.4943142082375
 10
69.53856335067091
 20
-111.5515027932927
 10
69.35666230904972
 20
-111.5515027932927
 10
69.17682832471968
 20
-111.5515027932927
 10
68.87434894111475
 20
-111.4457383618955
 10
68.87434894111475
 20
-111.0395616041846
 10
68.87434894111475
 20
-110.7200289979276
 10
69.07313095061366
 20
-110.5000596511944
 10
69.39059649957943
 20
-110.5000596511944
 10
69.90460474597872
 20
-110.5000596511944
 10
69.91511228720873
 20
-111.0543755147711
 10
69.91511228720873
 20
-111.2679714348566
 10
69.91511228720873
 20
-111.4986205775941
 10
69.89616426203985
 20
-112.1438869619814
 10
69.35252819446742
 20
-112.1438869619814
 97
        0
 97
        0
 92
        1
 93
        1
 72
     4
 94
        3
 73
     0
 74
     1
 95
       17
 96
       13
 40
0.0
 40
0.0
 40
0.0
 40
0.0
 40
1.0
 40
1.0
 40
1.0
 40
2.0
 40
2.0
 40
2.0
 40
3.0
 40
3.0
 40
3.0
 40
4.0
 40
4.0
 40
4.0
 40
4.0
 10
69.39266355687059
 20
-110.6926404888199
 10
69.27415227217799
 20
-110.6926404888199
 10
69.09862465720451
 20
-110.7496568191008
 10
69.09862465720451
 20
-111.035255234828
 10
69.09862465720451
 20
-111.2615980082089
 10
69.23815102435714
 20
-111.3568548983761
 10
69.37354327692745
 20
-111.3568548983761
 10
69.63588729812922
 20
-111.3568548983761
 10
69.67395560324124
 20
-111.1473930928729
 10
69.67395560324124
 20
-111.0311211202457
 10
69.67395560324124
 20
-110.855421250498
 10
69.57887096784835
 20
-110.6926404888199
 10
69.39266355687059
 20
-110.6926404888199
 97
        0
 97
        0
 75
     2
 76
     1
 98
        0
  0
POLYLINE
  5
A2
330
9B
100
AcDbEntity
  8
_U+30EC_U+30A4_U+30E4_U+30FC 1
370
     0
100
AcDb2dPolyline
 66
     1
 10
0.0
 20
0.0
 30
0.0
  0
VERTEX
  5
A3
330
A2
100
AcDbEntity
  8
_U+30EC_U+30A4_U+30E4_U+30FC 1
370
     0
100
AcDbVertex
100
AcDb2dVertex
 10
70.13163653845668
 20
-112.093071803574
 30
0.0
  0
VERTEX
  5
A4
330
A2
100
AcDbEntity
  8
_U+30EC_U+30A4_U+30E4_U+30FC 1
370
     0
100
AcDbVertex
100
AcDb2dVertex
 10
70.13163653845668
 20
-111.8414075783765
 30
0.0
  0
VERTEX
  5
A5
330
A2
100
AcDbEntity
  8
_U+30EC_U+30A4_U+30E4_U+30FC 1
370
     0
100
AcDbVertex
100
AcDb2dVertex
 10
70.38330076365418
 20
-111.8414075783765
 30
0.0
  0
VERTEX
  5
A6
330
A2
100
AcDbEntity
  8
_U+30EC_U+30A4_U+30E4_U+30FC 1
370
     0
100
AcDbVertex
100
AcDb2dVertex
 10
70.38330076365418
 20
-112.093071803574
 30
0.0
  0
VERTEX
  5
A7
330
A2
100
AcDbEntity
  8
_U+30EC_U+30A4_U+30E4_U+30FC 1
370
     0
100
AcDbVertex
100
AcDb2dVertex
 10
70.13163653845668
 20
-112.093071803574
 30
0.0
  0
SEQEND
  5
A8
330
A2
100
AcDbEntity
  8
_U+30EC_U+30A4_U+30E4_U+30FC 1
370
     0
  0
HATCH
  5
A9
330
9B
100
AcDbEntity
  8
_U+30EC_U+30A4_U+30E4_U+30FC 1
 62
     7
420
 16777215
100
AcDbHatch
 10
0.0
 20
0.0
 30
0.0
210
0.0
220
0.0
230
1.0
  2
SOLID
 70
     1
 71
     0
 91
        1
 92
        1
 93
        4
 72
     1
 10
70.13163653845668
 20
-112.093071803574
 11
70.13163653845668
 21
-111.8414075783765
 72
     1
 10
70.13163653845668
 20
-111.8414075783765
 11
70.38330076365418
 21
-111.8414075783765
 72
     1
 10
70.38330076365418
 20
-111.8414075783765
 11
70.38330076365418
 21
-112.093071803574
 72
     1
 10
70.38330076365418
 20
-112.093071803574
 11
70.13163653845668
 21
-112.093071803574
 97
        0
 75
     2
 76
     1
 98
        0
  0
SPLINE
  5
AA
330
9B
100
AcDbEntity
  8
_U+30EC_U+30A4_U+30E4_U+30FC 1
370
     0
100
AcDbSpline
210
0.0
220
0.0
230
1.0
 70
    11
 71
     3
 72
    53
 73
    49
 74
     0
 42
0.0000000001
 43
0.0000000001
 12
1.0
 22
0.0
 32
0.0
 13
1.0
 23
0.0
 33
0.0
 40
0.0
 40
0.0
 40
0.0
 40
0.0
 40
1.0
 40
1.0
 40
1.0
 40
2.0
 40
2.0
 40
2.0
 40
3.0
 40
3.0
 40
3.0
 40
4.0
 40
4.0
 40
4.0
 40
5.0
 40
5.0
 40
5.0
 40
6.0
 40
6.0
 40
6.0
 40
7.0
 40
7.0
 40
7.0
 40
8.0
 40
8.0
 40
8.0
 40
9.0
 40
9.0
 40
9.0
 40
10.0
 40
10.0
 40
10.0
 40
11.0
 40
11.0
 40
11.0
 40
12.0
 40
12.0
 40
12.0
 40
13.0
 40
13.0
 40
13.0
 40
14.0
 40
14.0
 40
14.0
 40
15.0
 40
15.0
 40
15.0
 40
16.0
 40
16.0
 40
16.0
 40
16.0
 10
71.10074189845746
 20
-112.1438869619814
 30
0.0
 10
71.02236597616802
 20
-112.1438869619814
 30
0.0
 10
70.92090791412741
 20
-112.1268337393294
 30
0.0
 10
70.81927759731255
 20
-112.0634439824008
 30
0.0
 10
70.64581703963022
 20
-111.9533731816471
 30
0.0
 10
70.62462970239594
 20
-111.8222872984333
 30
0.0
 10
70.60568167722705
 20
-111.714455809745
 30
0.0
 10
70.60568167722705
 20
-111.714455809745
 30
0.0
 10
70.8277180812514
 20
-111.714455809745
 30
0.0
 10
70.8277180812514
 20
-111.714455809745
 30
0.0
 10
70.8828396090154
 20
-111.9132378192439
 30
0.0
 10
71.00979137764686
 20
-111.9428656404171
 30
0.0
 10
71.1028089557486
 20
-111.9428656404171
 30
0.0
 10
71.24233532290123
 20
-111.9428656404171
 30
0.0
 10
71.39478079812353
 20
-111.8434746356676
 30
0.0
 10
71.39478079812353
 20
-111.610758435639
 30
0.0
 10
71.39478079812353
 20
-111.3547878410849
 30
0.0
 10
71.21494681379349
 20
-111.2850246575086
 30
0.0
 10
71.09436847180974
 20
-111.2850246575086
 30
0.0
 10
71.06267359334545
 20
-111.2850246575086
 30
0.0
 10
70.92090791412741
 20
-111.2850246575086
 30
0.0
 10
70.83202445060797
 20
-111.4140434834312
 30
0.0
 10
70.83202445060797
 20
-111.4140434834312
 30
0.0
 10
70.65649683563448
 20
-111.3949232034881
 30
0.0
 10
70.65649683563448
 20
-111.3949232034881
 30
0.0
 10
70.65649683563448
 20
-111.3949232034881
 30
0.0
 10
70.77707517761823
 20
-110.5488077523107
 30
0.0
 10
70.77707517761823
 20
-110.5488077523107
 30
0.0
 10
70.77707517761823
 20
-110.5488077523107
 30
0.0
 10
71.55549450251044
 20
-110.5488077523107
 30
0.0
 10
71.55549450251044
 20
-110.5488077523107
 30
0.0
 10
71.55549450251044
 20
-110.5488077523107
 30
0.0
 10
71.55549450251044
 20
-110.7434556472273
 30
0.0
 10
71.55549450251044
 20
-110.7434556472273
 30
0.0
 10
71.55549450251044
 20
-110.7434556472273
 30
0.0
 10
70.9398559392963
 20
-110.7434556472273
 30
0.0
 10
70.9398559392963
 20
-110.7434556472273
 30
0.0
 10
70.9398559392963
 20
-110.7434556472273
 30
0.0
 10
70.87439912507654
 20
-111.166513372816
 30
0.0
 10
70.87439912507654
 20
-111.166513372816
 30
0.0
 10
70.935721824714
 20
-111.1325791822863
 30
0.0
 10
71.01823186158572
 20
-111.0924438198831
 30
0.0
 10
71.13657089150405
 20
-111.0924438198831
 30
0.0
 10
71.39047442876696
 20
-111.0924438198831
 30
0.0
 10
71.62749699815215
 20
-111.2786512308609
 30
0.0
 10
71.62749699815215
 20
-111.5916381556958
 30
0.0
 10
71.62749699815215
 20
-111.9091037046616
 30
0.0
 10
71.40322128206239
 20
-112.1438869619814
 30
0.0
 10
71.10074189845746
 20
-112.1438869619814
 30
0.0
  0
HATCH
  5
AB
330
9B
100
AcDbEntity
  8
_U+30EC_U+30A4_U+30E4_U+30FC 1
 62
     7
420
 16777215
100
AcDbHatch
 10
0.0
 20
0.0
 30
0.0
210
0.0
220
0.0
230
1.0
  2
SOLID
 70
     1
 71
     0
 91
        1
 92
        1
 93
        1
 72
     4
 94
        3
 73
     0
 74
     1
 95
       53
 96
       49
 40
0.0
 40
0.0
 40
0.0
 40
0.0
 40
1.0
 40
1.0
 40
1.0
 40
2.0
 40
2.0
 40
2.0
 40
3.0
 40
3.0
 40
3.0
 40
4.0
 40
4.0
 40
4.0
 40
5.0
 40
5.0
 40
5.0
 40
6.0
 40
6.0
 40
6.0
 40
7.0
 40
7.0
 40
7.0
 40
8.0
 40
8.0
 40
8.0
 40
9.0
 40
9.0
 40
9.0
 40
10.0
 40
10.0
 40
10.0
 40
11.0
 40
11.0
 40
11.0
 40
12.0
 40
12.0
 40
12.0
 40
13.0
 40
13.0
 40
13.0
 40
14.0
 40
14.0
 40
14.0
 40
15.0
 40
15.0
 40
15.0
 40
16.0
 40
16.0
 40
16.0
 40
16.0
 10
71.10074189845746
 20
-112.1438869619814
 10
71.02236597616802
 20
-112.1438869619814
 10
70.92090791412741
 20
-112.1268337393294
 10
70.81927759731255
 20
-112.0634439824008
 10
70.64581703963022
 20
-111.9533731816471
 10
70.62462970239594
 20
-111.8222872984333
 10
70.60568167722705
 20
-111.714455809745
 10
70.60568167722705
 20
-111.714455809745
 10
70.8277180812514
 20
-111.714455809745
 10
70.8277180812514
 20
-111.714455809745
 10
70.8828396090154
 20
-111.9132378192439
 10
71.00979137764686
 20
-111.9428656404171
 10
71.1028089557486
 20
-111.9428656404171
 10
71.24233532290123
 20
-111.9428656404171
 10
71.39478079812353
 20
-111.8434746356676
 10
71.39478079812353
 20
-111.610758435639
 10
71.39478079812353
 20
-111.3547878410849
 10
71.21494681379349
 20
-111.2850246575086
 10
71.09436847180974
 20
-111.2850246575086
 10
71.06267359334545
 20
-111.2850246575086
 10
70.92090791412741
 20
-111.2850246575086
 10
70.83202445060797
 20
-111.4140434834312
 10
70.83202445060797
 20
-111.4140434834312
 10
70.65649683563448
 20
-111.3949232034881
 10
70.65649683563448
 20
-111.3949232034881
 10
70.65649683563448
 20
-111.3949232034881
 10
70.77707517761823
 20
-110.5488077523107
 10
70.77707517761823
 20
-110.5488077523107
 10
70.77707517761823
 20
-110.5488077523107
 10
71.55549450251044
 20
-110.5488077523107
 10
71.55549450251044
 20
-110.5488077523107
 10
71.55549450251044
 20
-110.5488077523107
 10
71.55549450251044
 20
-110.7434556472273
 10
71.55549450251044
 20
-110.7434556472273
 10
71.55549450251044
 20
-110.7434556472273
 10
70.9398559392963
 20
-110.7434556472273
 10
70.9398559392963
 20
-110.7434556472273
 10
70.9398559392963
 20
-110.7434556472273
 10
70.87439912507654
 20
-111.166513372816
 10
70.87439912507654
 20
-111.166513372816
 10
70.935721824714
 20
-111.1325791822863
 10
71.01823186158572
 20
-111.0924438198831
 10
71.13657089150405
 20
-111.0924438198831
 10
71.39047442876696
 20
-111.0924438198831
 10
71.62749699815215
 20
-111.2786512308609
 10
71.62749699815215
 20
-111.5916381556958
 10
71.62749699815215
 20
-111.9091037046616
 10
71.40322128206239
 20
-112.1438869619814
 10
71.10074189845746
 20
-112.1438869619814
 97
        0
 97
        0
 75
     2
 76
     1
 98
        0
  0
ENDBLK
  5
9E
330
9B
100
AcDbEntity
  8
0
100
AcDbBlockEnd
  0
BLOCK
  5
BA
330
B8
100
AcDbEntity
  8
0
100
AcDbBlockBegin
  2
block 6
 70
     0
 10
0.0
 20
0.0
 30
0.0
  3
block 6
  1

  0
SPLINE
  5
BC
330
B8
100
AcDbEntity
  8
_U+30EC_U+30A4_U+30E4_U+30FC 1
370
     0
100
AcDbSpline
210
0.0
220
0.0
230
1.0
 70
    11
 71
     3
 72
    26
 73
    22
 74
     0
 42
0.0000000001
 43
0.0000000001
 12
1.0
 22
0.0
 32
0.0
 13
1.0
 23
0.0
 33
0.0
 40
0.0
 40
0.0
 40
0.0
 40
0.0
 40
1.0
 40
1.0
 40
1.0
 40
2.0
 40
2.0
 40
2.0
 40
3.0
 40
3.0
 40
3.0
 40
4.0
 40
4.0
 40
4.0
 40
5.0
 40
5.0
 40
5.0
 40
6.0
 40
6.0
 40
6.0
 40
7.0
 40
7.0
 40
7.0
 40
7.0
 10
102.3706678346504
 20
-151.5218451227098
 30
0.0
 10
102.3706678346504
 20
-151.5218451227098
 30
0.0
 10
102.3706678346504
 20
-150.4176920196873
 30
0.0
 10
102.3706678346504
 20
-150.4176920196873
 30
0.0
 10
102.3706678346504
 20
-150.4176920196873
 30
0.0
 10
102.0406276871635
 20
-150.4176920196873
 30
0.0
 10
102.0406276871635
 20
-150.4176920196873
 30
0.0
 10
102.0406276871635
 20
-150.4176920196873
 30
0.0
 10
102.0406276871635
 20
-150.2695529138215
 30
0.0
 10
102.0406276871635
 20
-150.2695529138215
 30
0.0
 10
102.3727348919415
 20
-150.2547390032349
 30
0.0
 10
102.4192436809924
 20
-150.0917859867826
 30
0.0
 10
102.4488715021656
 20
-149.9774088166723
 30
0.0
 10
102.4488715021656
 20
-149.9774088166723
 30
0.0
 10
102.5949435507402
 20
-149.9774088166723
 30
0.0
 10
102.5949435507402
 20
-149.9774088166723
 30
0.0
 10
102.5949435507402
 20
-149.9774088166723
 30
0.0
 10
102.5949435507402
 20
-151.5218451227098
 30
0.0
 10
102.5949435507402
 20
-151.5218451227098
 30
0.0
 10
102.5949435507402
 20
-151.5218451227098
 30
0.0
 10
102.3706678346504
 20
-151.5218451227098
 30
0.0
 10
102.3706678346504
 20
-151.5218451227098
 30
0.0
  0
HATCH
  5
BD
330
B8
100
AcDbEntity
  8
_U+30EC_U+30A4_U+30E4_U+30FC 1
 62
     7
420
 16777215
100
AcDbHatch
 10
0.0
 20
0.0
 30
0.0
210
0.0
220
0.0
230
1.0
  2
SOLID
 70
     1
 71
     0
 91
        1
 92
        1
 93
        1
 72
     4
 94
        3
 73
     0
 74
     1
 95
       26
 96
       22
 40
0.0
 40
0.0
 40
0.0
 40
0.0
 40
1.0
 40
1.0
 40
1.0
 40
2.0
 40
2.0
 40
2.0
 40
3.0
 40
3.0
 40
3.0
 40
4.0
 40
4.0
 40
4.0
 40
5.0
 40
5.0
 40
5.0
 40
6.0
 40
6.0
 40
6.0
 40
7.0
 40
7.0
 40
7.0
 40
7.0
 10
102.3706678346504
 20
-151.5218451227098
 10
102.3706678346504
 20
-151.5218451227098
 10
102.3706678346504
 20
-150.4176920196873
 10
102.3706678346504
 20
-150.4176920196873
 10
102.3706678346504
 20
-150.4176920196873
 10
102.0406276871635
 20
-150.4176920196873
 10
102.0406276871635
 20
-150.4176920196873
 10
102.0406276871635
 20
-150.4176920196873
 10
102.0406276871635
 20
-150.2695529138215
 10
102.0406276871635
 20
-150.2695529138215
 10
102.3727348919415
 20
-150.2547390032349
 10
102.4192436809924
 20
-150.0917859867826
 10
102.4488715021656
 20
-149.9774088166723
 10
102.4488715021656
 20
-149.9774088166723
 10
102.5949435507402
 20
-149.9774088166723
 10
102.5949435507402
 20
-149.9774088166723
 10
102.5949435507402
 20
-149.9774088166723
 10
102.5949435507402
 20
-151.5218451227098
 10
102.5949435507402
 20
-151.5218451227098
 10
102.5949435507402
 20
-151.5218451227098
 10
102.3706678346504
 20
-151.5218451227098
 10
102.3706678346504
 20
-151.5218451227098
 97
        0
 97
        0
 75
     2
 76
     1
 98
        0
  0
SPLINE
  5
BE
330
B8
100
AcDbEntity
  8
_U+30EC_U+30A4_U+30E4_U+30FC 1
370
     0
100
AcDbSpline
210
0.0
220
0.0
230
1.0
 70
    11
 71
     3
 72
    53
 73
    49
 74
     0
 42
0.0000000001
 43
0.0000000001
 12
1.0
 22
0.0
 32
0.0
 13
1.0
 23
0.0
 33
0.0
 40
0.0
 40
0.0
 40
0.0
 40
0.0
 40
1.0
 40
1.0
 40
1.0
 40
2.0
 40
2.0
 40
2.0
 40
3.0
 40
3.0
 40
3.0
 40
4.0
 40
4.0
 40
4.0
 40
5.0
 40
5.0
 40
5.0
 40
6.0
 40
6.0
 40
6.0
 40
7.0
 40
7.0
 40
7.0
 40
8.0
 40
8.0
 40
8.0
 40
9.0
 40
9.0
 40
9.0
 40
10.0
 40
10.0
 40
10.0
 40
11.0
 40
11.0
 40
11.0
 40
12.0
 40
12.0
 40
12.0
 40
13.0
 40
13.0
 40
13.0
 40
14.0
 40
14.0
 40
14.0
 40
15.0
 40
15.0
 40
15.0
 40
16.0
 40
16.0
 40
16.0
 40
16.0
 10
103.5771402735849
 20
-151.572488026343
 30
0.0
 10
103.4989366060697
 20
-151.572488026343
 30
0.0
 10
103.3973062892548
 20
-151.5556070584653
 30
0.0
 10
103.29567597244
 20
-151.4922173015367
 30
0.0
 10
103.1223876695319
 20
-151.3823187555572
 30
0.0
 10
103.1010280775234
 20
-151.2510606175692
 30
0.0
 10
103.0820800523545
 20
-151.1432291288809
 30
0.0
 10
103.0820800523545
 20
-151.1432291288809
 30
0.0
 10
103.3042887111531
 20
-151.1432291288809
 30
0.0
 10
103.3042887111531
 20
-151.1432291288809
 30
0.0
 10
103.3590657293686
 20
-151.3420111383798
 30
0.0
 10
103.4861897527743
 20
-151.3716389595529
 30
0.0
 10
103.579207330876
 20
-151.3716389595529
 30
0.0
 10
103.7187336980287
 20
-151.3716389595529
 30
0.0
 10
103.8710069184767
 20
-151.2720757000292
 30
0.0
 10
103.8710069184767
 20
-151.0395317547749
 30
0.0
 10
103.8710069184767
 20
-150.7835611602208
 30
0.0
 10
103.6911729341466
 20
-150.7136257218702
 30
0.0
 10
103.5705945921629
 20
-150.7136257218702
 30
0.0
 10
103.5388997136986
 20
-150.7136257218702
 30
0.0
 10
103.3973062892548
 20
-150.7136257218702
 30
0.0
 10
103.3084228257354
 20
-150.8428168025671
 30
0.0
 10
103.3084228257354
 20
-150.8428168025671
 30
0.0
 10
103.1327229559877
 20
-150.8238687773982
 30
0.0
 10
103.1327229559877
 20
-150.8238687773982
 30
0.0
 10
103.1327229559877
 20
-150.8238687773982
 30
0.0
 10
103.2533012979714
 20
-149.9774088166723
 30
0.0
 10
103.2533012979714
 20
-149.9774088166723
 30
0.0
 10
103.2533012979714
 20
-149.9774088166723
 30
0.0
 10
104.0318928776379
 20
-149.9774088166723
 30
0.0
 10
104.0318928776379
 20
-149.9774088166723
 30
0.0
 10
104.0318928776379
 20
-149.9774088166723
 30
0.0
 10
104.0318928776379
 20
-150.1720567115889
 30
0.0
 10
104.0318928776379
 20
-150.1720567115889
 30
0.0
 10
104.0318928776379
 20
-150.1720567115889
 30
0.0
 10
103.4162543144237
 20
-150.1720567115889
 30
0.0
 10
103.4162543144237
 20
-150.1720567115889
 30
0.0
 10
103.4162543144237
 20
-150.1720567115889
 30
0.0
 10
103.350797500204
 20
-150.5951144371776
 30
0.0
 10
103.350797500204
 20
-150.5951144371776
 30
0.0
 10
103.4121201998414
 20
-150.5613525014222
 30
0.0
 10
103.4944579819389
 20
-150.5210448842448
 30
0.0
 10
103.6129692666315
 20
-150.5210448842448
 30
0.0
 10
103.8668728038944
 20
-150.5210448842448
 30
0.0
 10
104.1038953732796
 20
-150.7074245499968
 30
0.0
 10
104.1038953732796
 20
-151.020583729606
 30
0.0
 10
104.1038953732796
 20
-151.3378770237975
 30
0.0
 10
103.8796196571898
 20
-151.572488026343
 30
0.0
 10
103.5771402735849
 20
-151.572488026343
 30
0.0
  0
HATCH
  5
BF
330
B8
100
AcDbEntity
  8
_U+30EC_U+30A4_U+30E4_U+30FC 1
 62
     7
420
 16777215
100
AcDbHatch
 10
0.0
 20
0.0
 30
0.0
210
0.0
220
0.0
230
1.0
  2
SOLID
 70
     1
 71
     0
 91
        1
 92
        1
 93
        1
 72
     4
 94
        3
 73
     0
 74
     1
 95
       53
 96
       49
 40
0.0
 40
0.0
 40
0.0
 40
0.0
 40
1.0
 40
1.0
 40
1.0
 40
2.0
 40
2.0
 40
2.0
 40
3.0
 40
3.0
 40
3.0
 40
4.0
 40
4.0
 40
4.0
 40
5.0
 40
5.0
 40
5.0
 40
6.0
 40
6.0
 40
6.0
 40
7.0
 40
7.0
 40
7.0
 40
8.0
 40
8.0
 40
8.0
 40
9.0
 40
9.0
 40
9.0
 40
10.0
 40
10.0
 40
10.0
 40
11.0
 40
11.0
 40
11.0
 40
12.0
 40
12.0
 40
12.0
 40
13.0
 40
13.0
 40
13.0
 40
14.0
 40
14.0
 40
14.0
 40
15.0
 40
15.0
 40
15.0
 40
16.0
 40
16.0
 40
16.0
 40
16.0
 10
103.5771402735849
 20
-151.572488026343
 10
103.4989366060697
 20
-151.572488026343
 10
103.3973062892548
 20
-151.5556070584653
 10
103.29567597244
 20
-151.4922173015367
 10
103.1223876695319
 20
-151.3823187555572
 10
103.1010280775234
 20
-151.2510606175692
 10
103.0820800523545
 20
-151.1432291288809
 10
103.0820800523545
 20
-151.1432291288809
 10
103.3042887111531
 20
-151.1432291288809
 10
103.3042887111531
 20
-151.1432291288809
 10
103.3590657293686
 20
-151.3420111383798
 10
103.4861897527743
 20
-151.3716389595529
 10
103.579207330876
 20
-151.3716389595529
 10
103.7187336980287
 20
-151.3716389595529
 10
103.8710069184767
 20
-151.2720757000292
 10
103.8710069184767
 20
-151.0395317547749
 10
103.8710069184767
 20
-150.7835611602208
 10
103.6911729341466
 20
-150.7136257218702
 10
103.5705945921629
 20
-150.7136257218702
 10
103.5388997136986
 20
-150.7136257218702
 10
103.3973062892548
 20
-150.7136257218702
 10
103.3084228257354
 20
-150.8428168025671
 10
103.3084228257354
 20
-150.8428168025671
 10
103.1327229559877
 20
-150.8238687773982
 10
103.1327229559877
 20
-150.8238687773982
 10
103.1327229559877
 20
-150.8238687773982
 10
103.2533012979714
 20
-149.9774088166723
 10
103.2533012979714
 20
-149.9774088166723
 10
103.2533012979714
 20
-149.9774088166723
 10
104.0318928776379
 20
-149.9774088166723
 10
104.0318928776379
 20
-149.9774088166723
 10
104.0318928776379
 20
-149.9774088166723
 10
104.0318928776379
 20
-150.1720567115889
 10
104.0318928776379
 20
-150.1720567115889
 10
104.0318928776379
 20
-150.1720567115889
 10
103.4162543144237
 20
-150.1720567115889
 10
103.4162543144237
 20
-150.1720567115889
 10
103.4162543144237
 20
-150.1720567115889
 10
103.350797500204
 20
-150.5951144371776
 10
103.350797500204
 20
-150.5951144371776
 10
103.4121201998414
 20
-150.5613525014222
 10
103.4944579819389
 20
-150.5210448842448
 10
103.6129692666315
 20
-150.5210448842448
 10
103.8668728038944
 20
-150.5210448842448
 10
104.1038953732796
 20
-150.7074245499968
 10
104.1038953732796
 20
-151.020583729606
 10
104.1038953732796
 20
-151.3378770237975
 10
103.8796196571898
 20
-151.572488026343
 10
103.5771402735849
 20
-151.572488026343
 97
        0
 97
        0
 75
     2
 76
     1
 98
        0
  0
ENDBLK
  5
BB
330
B8
100
AcDbEntity
  8
0
100
AcDbBlockEnd
  0
ENDSEC
  0
SECTION
  2
ENTITIES
  0
POLYLINE
  5
41
330
1F
100
AcDbEntity
  8
_U+30EC_U+30A4_U+30E4_U+30FC 1
 62
     7
420
 16777215
370
     9
100
AcDb2dPolyline
 66
     1
 10
0.0
 20
0.0
 30
0.0
  0
VERTEX
  5
42
330
41
100
AcDbEntity
  8
_U+30EC_U+30A4_U+30E4_U+30FC 1
 62
     7
420
 16777215
370
     9
100
AcDbVertex
100
AcDb2dVertex
 10
77.25127775846481
 20
-136.5704730214129
 30
0.0
  0
VERTEX
  5
43
330
41
100
AcDbEntity
  8
_U+30EC_U+30A4_U+30E4_U+30FC 1
 62
     7
420
 16777215
370
     9
100
AcDbVertex
100
AcDb2dVertex
 10
74.33189865919083
 20
-139.4898502429054
 30
0.0
  0
SEQEND
  5
44
330
41
100
AcDbEntity
  8
_U+30EC_U+30A4_U+30E4_U+30FC 1
 62
     7
420
 16777215
370
     9
  0
POLYLINE
  5
45
330
1F
100
AcDbEntity
  8
_U+30EC_U+30A4_U+30E4_U+30FC 1
 62
     7
420
 16777215
370
     9
100
AcDb2dPolyline
 66
     1
 10
0.0
 20
0.0
 30
0.0
  0
VERTEX
  5
46
330
45
100
AcDbEntity
  8
_U+30EC_U+30A4_U+30E4_U+30FC 1
 62
     7
420
 16777215
370
     9
100
AcDbVertex
100
AcDb2dVertex
 10
77.25127775846481
 20
-136.5704730214129
 30
0.0
  0
VERTEX
  5
47
330
45
100
AcDbEntity
  8
_U+30EC_U+30A4_U+30E4_U+30FC 1
 62
     7
420
 16777215
370
     9
100
AcDbVertex
100
AcDb2dVertex
 10
81.87904985553585
 20
-136.5704730214129
 30
0.0
  0
SEQEND
  5
48
330
45
100
AcDbEntity
  8
_U+30EC_U+30A4_U+30E4_U+30FC 1
 62
     7
420
 16777215
370
     9
  0
POLYLINE
  5
49
330
1F
100
AcDbEntity
  8
_U+30EC_U+30A4_U+30E4_U+30FC 1
 62
     7
420
 16777215
370
     9
100
AcDb2dPolyline
 66
     1
 10
0.0
 20
0.0
 30
0.0
  0
VERTEX
  5
4A
330
49
100
AcDbEntity
  8
_U+30EC_U+30A4_U+30E4_U+30FC 1
 62
     7
420
 16777215
370
     9
100
AcDbVertex
100
AcDb2dVertex
 10
75.37164057710925
 20
-138.8897046875
 30
0.0
  0
VERTEX
  5
4B
330
49
100
AcDbEntity
  8
_U+30EC_U+30A4_U+30E4_U+30FC 1
 62
     7
420
 16777215
370
     9
100
AcDbVertex
100
AcDb2dVertex
 10
74.33189865919083
 20
-139.4898502429054
 30
0.0
  0
SEQEND
  5
4C
330
49
100
AcDbEntity
  8
_U+30EC_U+30A4_U+30E4_U+30FC 1
 62
     7
420
 16777215
370
     9
  0
POLYLINE
  5
4D
330
1F
100
AcDbEntity
  8
_U+30EC_U+30A4_U+30E4_U+30FC 1
 62
     7
420
 16777215
370
     9
100
AcDb2dPolyline
 66
     1
 10
0.0
 20
0.0
 30
0.0
  0
VERTEX
  5
4E
330
4D
100
AcDbEntity
  8
_U+30EC_U+30A4_U+30E4_U+30FC 1
 62
     7
420
 16777215
370
     9
100
AcDbVertex
100
AcDb2dVertex
 10
74.9320441994354
 20
-138.4501082987209
 30
0.0
  0
VERTEX
  5
4F
330
4D
100
AcDbEntity
  8
_U+30EC_U+30A4_U+30E4_U+30FC 1
 62
     7
420
 16777215
370
     9
100
AcDbVertex
100
AcDb2dVertex
 10
74.33189865919083
 20
-139.4898502429054
 30
0.0
  0
SEQEND
  5
50
330
4D
100
AcDbEntity
  8
_U+30EC_U+30A4_U+30E4_U+30FC 1
 62
     7
420
 16777215
370
     9
  0
SPLINE
  5
51
330
1F
100
AcDbEntity
  8
_U+30EC_U+30A4_U+30E4_U+30FC 1
 62
     7
420
 16777215
370
     9
100
AcDbSpline
210
0.0
220
0.0
230
1.0
 70
    11
 71
     3
 72
    17
 73
    13
 74
     0
 42
0.0000000001
 43
0.0000000001
 12
1.0
 22
0.0
 32
0.0
 13
1.0
 23
0.0
 33
0.0
 40
0.0
 40
0.0
 40
0.0
 40
0.0
 40
1.0
 40
1.0
 40
1.0
 40
2.0
 40
2.0
 40
2.0
 40
3.0
 40
3.0
 40
3.0
 40
4.0
 40
4.0
 40
4.0
 40
4.0
 10
114.6079749713479
 20
-138.7932552430797
 30
0.0
 10
114.6079749713479
 20
-138.7381160764266
 30
0.0
 10
114.5632045772492
 20
-138.693348576438
 30
0.0
 10
114.5080654119892
 20
-138.693348576438
 30
0.0
 10
114.4529615245061
 20
-138.693348576438
 30
0.0
 10
114.4081587478714
 20
-138.7381160764266
 30
0.0
 10
114.4081587478714
 20
-138.7932552430797
 30
0.0
 10
114.4081587478714
 20
-138.8483591319546
 30
0.0
 10
114.4529615245061
 20
-138.8931619097213
 30
0.0
 10
114.5080654119892
 20
-138.8931619097213
 30
0.0
 10
114.5632045772492
 20
-138.8931619097213
 30
0.0
 10
114.6079749713479
 20
-138.8483591319546
 30
0.0
 10
114.6079749713479
 20
-138.7932552430797
 30
0.0
  0
SPLINE
  5
52
330
1F
100
AcDbEntity
  8
_U+30EC_U+30A4_U+30E4_U+30FC 1
 62
     7
420
 16777215
370
     9
100
AcDbSpline
210
0.0
220
0.0
230
1.0
 70
    11
 71
     3
 72
    17
 73
    13
 74
     0
 42
0.0000000001
 43
0.0000000001
 12
1.0
 22
0.0
 32
0.0
 13
1.0
 23
0.0
 33
0.0
 40
0.0
 40
0.0
 40
0.0
 40
0.0
 40
1.0
 40
1.0
 40
1.0
 40
2.0
 40
2.0
 40
2.0
 40
3.0
 40
3.0
 40
3.0
 40
4.0
 40
4.0
 40
4.0
 40
4.0
 10
114.6079749713479
 20
-137.7928127433298
 30
0.0
 10
114.6079749713479
 20
-137.7376735766767
 30
0.0
 10
114.5632045772492
 20
-137.69287079891
 30
0.0
 10
114.5080654119892
 20
-137.69287079891
 30
0.0
 10
114.4529615245061
 20
-137.69287079891
 30
0.0
 10
114.4081587478714
 20
-137.7376735766767
 30
0.0
 10
114.4081587478714
 20
-137.7928127433298
 30
0.0
 10
114.4081587478714
 20
-137.8479166322047
 30
0.0
 10
114.4529615245061
 20
-137.8927194099714
 30
0.0
 10
114.5080654119892
 20
-137.8927194099714
 30
0.0
 10
114.5632045772492
 20
-137.8927194099714
 30
0.0
 10
114.6079749713479
 20
-137.8479166322047
 30
0.0
 10
114.6079749713479
 20
-137.7928127433298
 30
0.0
  0
SPLINE
  5
53
330
1F
100
AcDbEntity
  8
_U+30EC_U+30A4_U+30E4_U+30FC 1
 62
     7
420
 16777215
370
     9
100
AcDbSpline
210
0.0
220
0.0
230
1.0
 70
    11
 71
     3
 72
    17
 73
    13
 74
     0
 42
0.0000000001
 43
0.0000000001
 12
1.0
 22
0.0
 32
0.0
 13
1.0
 23
0.0
 33
0.0
 40
0.0
 40
0.0
 40
0.0
 40
0.0
 40
1.0
 40
1.0
 40
1.0
 40
2.0
 40
2.0
 40
2.0
 40
3.0
 40
3.0
 40
3.0
 40
4.0
 40
4.0
 40
4.0
 40
4.0
 10
114.6079749713479
 20
-148.2927494073715
 30
0.0
 10
114.6079749713479
 20
-148.237645518496
 30
0.0
 10
114.5632045772492
 20
-148.1928427407292
 30
0.0
 10
114.5080654119892
 20
-148.1928427407292
 30
0.0
 10
114.4529615245061
 20
-148.1928427407292
 30
0.0
 10
114.4081587478714
 20
-148.237645518496
 30
0.0
 10
114.4081587478714
 20
-148.2927494073715
 30
0.0
 10
114.4081587478714
 20
-148.347888574024
 30
0.0
 10
114.4529615245061
 20
-148.3926560740132
 30
0.0
 10
114.5080654119892
 20
-148.3926560740132
 30
0.0
 10
114.5632045772492
 20
-148.3926560740132
 30
0.0
 10
114.6079749713479
 20
-148.347888574024
 30
0.0
 10
114.6079749713479
 20
-148.2927494073715
 30
0.0
  0
SPLINE
  5
54
330
1F
100
AcDbEntity
  8
_U+30EC_U+30A4_U+30E4_U+30FC 1
 62
     7
420
 16777215
370
     9
100
AcDbSpline
210
0.0
220
0.0
230
1.0
 70
    11
 71
     3
 72
    17
 73
    13
 74
     0
 42
0.0000000001
 43
0.0000000001
 12
1.0
 22
0.0
 32
0.0
 13
1.0
 23
0.0
 33
0.0
 40
0.0
 40
0.0
 40
0.0
 40
0.0
 40
1.0
 40
1.0
 40
1.0
 40
2.0
 40
2.0
 40
2.0
 40
3.0
 40
3.0
 40
3.0
 40
4.0
 40
4.0
 40
4.0
 40
4.0
 10
75.107057250526
 20
-112.6208483051782
 30
0.0
 10
75.107057250526
 20
-112.5657444163029
 30
0.0
 10
75.06225447389124
 20
-112.5209416385366
 30
0.0
 10
75.00715058640816
 20
-112.5209416385366
 30
0.0
 10
74.95201142114821
 20
-112.5209416385366
 30
0.0
 10
74.90720864451345
 20
-112.5657444163029
 30
0.0
 10
74.90720864451345
 20
-112.6208483051782
 30
0.0
 10
74.90720864451345
 20
-112.6761638607198
 30
0.0
 10
74.95201142114821
 20
-112.7209313607087
 30
0.0
 10
75.00715058640816
 20
-112.7209313607087
 30
0.0
 10
75.06225447389124
 20
-112.7209313607087
 30
0.0
 10
75.107057250526
 20
-112.6761638607198
 30
0.0
 10
75.107057250526
 20
-112.6208483051782
 30
0.0
  0
SPLINE
  5
55
330
1F
100
AcDbEntity
  8
_U+30EC_U+30A4_U+30E4_U+30FC 1
 62
     7
420
 16777215
370
     9
100
AcDbSpline
210
0.0
220
0.0
230
1.0
 70
    11
 71
     3
 72
    17
 73
    13
 74
     0
 42
0.0000000001
 43
0.0000000001
 12
1.0
 22
0.0
 32
0.0
 13
1.0
 23
0.0
 33
0.0
 40
0.0
 40
0.0
 40
0.0
 40
0.0
 40
1.0
 40
1.0
 40
1.0
 40
2.0
 40
2.0
 40
2.0
 40
3.0
 40
3.0
 40
3.0
 40
4.0
 40
4.0
 40
4.0
 40
4.0
 10
65.60717527066596
 20
-112.6208483051782
 30
0.0
 10
65.60717527066596
 20
-112.5657444163029
 30
0.0
 10
65.56240777180807
 20
-112.5209416385366
 30
0.0
 10
65.50726860654812
 20
-112.5209416385366
 30
0.0
 10
65.45181194129627
 20
-112.5209416385366
 30
0.0
 10
65.40704444243839
 20
-112.5657444163029
 30
0.0
 10
65.40704444243839
 20
-112.6208483051782
 30
0.0
 10
65.40704444243839
 20
-112.6761638607198
 30
0.0
 10
65.45181194129627
 20
-112.7209313607087
 30
0.0
 10
65.50726860654812
 20
-112.7209313607087
 30
0.0
 10
65.56240777180807
 20
-112.7209313607087
 30
0.0
 10
65.60717527066596
 20
-112.6761638607198
 30
0.0
 10
65.60717527066596
 20
-112.6208483051782
 30
0.0
  0
SPLINE
  5
56
330
1F
100
AcDbEntity
  8
_U+30EC_U+30A4_U+30E4_U+30FC 1
 62
     7
420
 16777215
370
     9
100
AcDbSpline
210
0.0
220
0.0
230
1.0
 70
    11
 71
     3
 72
    17
 73
    13
 74
     0
 42
0.0000000001
 43
0.0000000001
 12
1.0
 22
0.0
 32
0.0
 13
1.0
 23
0.0
 33
0.0
 40
0.0
 40
0.0
 40
0.0
 40
0.0
 40
1.0
 40
1.0
 40
1.0
 40
2.0
 40
2.0
 40
2.0
 40
3.0
 40
3.0
 40
3.0
 40
4.0
 40
4.0
 40
4.0
 40
4.0
 10
110.6082482892596
 20
-152.2925085730378
 30
0.0
 10
110.6082482892596
 20
-152.2374046841629
 30
0.0
 10
110.5634455126248
 20
-152.1926019063961
 30
0.0
 10
110.5083444168175
 20
-152.1926019063961
 30
0.0
 10
110.4532024598818
 20
-152.1926019063961
 30
0.0
 10
110.4084349610239
 20
-152.2374046841629
 30
0.0
 10
110.4084349610239
 20
-152.2925085730378
 30
0.0
 10
110.4084349610239
 20
-152.3476477396909
 30
0.0
 10
110.4532024598818
 20
-152.3924152396794
 30
0.0
 10
110.5083444168175
 20
-152.3924152396794
 30
0.0
 10
110.5634455126248
 20
-152.3924152396794
 30
0.0
 10
110.6082482892596
 20
-152.3476477396909
 30
0.0
 10
110.6082482892596
 20
-152.2925085730378
 30
0.0
  0
SPLINE
  5
57
330
1F
100
AcDbEntity
  8
_U+30EC_U+30A4_U+30E4_U+30FC 1
 62
     7
420
 16777215
370
     9
100
AcDbSpline
210
0.0
220
0.0
230
1.0
 70
    11
 71
     3
 72
    17
 73
    13
 74
     0
 42
0.0000000001
 43
0.0000000001
 12
1.0
 22
0.0
 32
0.0
 13
1.0
 23
0.0
 33
0.0
 40
0.0
 40
0.0
 40
0.0
 40
0.0
 40
1.0
 40
1.0
 40
1.0
 40
2.0
 40
2.0
 40
2.0
 40
3.0
 40
3.0
 40
3.0
 40
4.0
 40
4.0
 40
4.0
 40
4.0
 10
95.60760839418003
 20
-152.2925085730378
 30
0.0
 10
95.60760839418003
 20
-152.2374046841629
 30
0.0
 10
95.56280561754527
 20
-152.1926019063961
 30
0.0
 10
95.5077017300622
 20
-152.1926019063961
 30
0.0
 10
95.45256256480225
 20
-152.1926019063961
 30
0.0
 10
95.40779506594437
 20
-152.2374046841629
 30
0.0
 10
95.40779506594437
 20
-152.2925085730378
 30
0.0
 10
95.40779506594437
 20
-152.3476477396909
 30
0.0
 10
95.45256256480225
 20
-152.3924152396794
 30
0.0
 10
95.5077017300622
 20
-152.3924152396794
 30
0.0
 10
95.56280561754527
 20
-152.3924152396794
 30
0.0
 10
95.60760839418003
 20
-152.3476477396909
 30
0.0
 10
95.60760839418003
 20
-152.2925085730378
 30
0.0
  0
INSERT
  5
59
330
1F
100
AcDbEntity
  8
_U+30EC_U+30A4_U+30E4_U+30FC 1
100
AcDbBlockReference
  2
block 2
 10
0.0
 20
0.0
 30
0.0
  0
POLYLINE
  5
64
330
1F
100
AcDbEntity
  8
_U+30EC_U+30A4_U+30E4_U+30FC 1
 62
     7
420
 16777215
370
     9
100
AcDb2dPolyline
 66
     1
 10
0.0
 20
0.0
 30
0.0
  0
VERTEX
  5
65
330
64
100
AcDbEntity
  8
_U+30EC_U+30A4_U+30E4_U+30FC 1
 62
     7
420
 16777215
370
     9
100
AcDbVertex
100
AcDb2dVertex
 10
114.5080654119892
 20
-137.7928127433298
 30
0.0
  0
VERTEX
  5
66
330
64
100
AcDbEntity
  8
_U+30EC_U+30A4_U+30E4_U+30FC 1
 62
     7
420
 16777215
370
     9
100
AcDbVertex
100
AcDb2dVertex
 10
114.5080654119892
 20
-135.0229427440223
 30
0.0
  0
SEQEND
  5
67
330
64
100
AcDbEntity
  8
_U+30EC_U+30A4_U+30E4_U+30FC 1
 62
     7
420
 16777215
370
     9
  0
POLYLINE
  5
68
330
1F
100
AcDbEntity
  8
_U+30EC_U+30A4_U+30E4_U+30FC 1
 62
     7
420
 16777215
370
     9
100
AcDb2dPolyline
 66
     1
 10
0.0
 20
0.0
 30
0.0
  0
VERTEX
  5
69
330
68
100
AcDbEntity
  8
_U+30EC_U+30A4_U+30E4_U+30FC 1
 62
     7
420
 16777215
370
     9
100
AcDbVertex
100
AcDb2dVertex
 10
114.5080654119892
 20
-138.7932552430797
 30
0.0
  0
VERTEX
  5
6A
330
68
100
AcDbEntity
  8
_U+30EC_U+30A4_U+30E4_U+30FC 1
 62
     7
420
 16777215
370
     9
100
AcDbVertex
100
AcDb2dVertex
 10
114.5080654119892
 20
-137.7928127433298
 30
0.0
  0
SEQEND
  5
6B
330
68
100
AcDbEntity
  8
_U+30EC_U+30A4_U+30E4_U+30FC 1
 62
     7
420
 16777215
370
     9
  0
POLYLINE
  5
6C
330
1F
100
AcDbEntity
  8
_U+30EC_U+30A4_U+30E4_U+30FC 1
 62
     7
420
 16777215
370
     9
100
AcDb2dPolyline
 66
     1
 10
0.0
 20
0.0
 30
0.0
  0
VERTEX
  5
6D
330
6C
100
AcDbEntity
  8
_U+30EC_U+30A4_U+30E4_U+30FC 1
 62
     7
420
 16777215
370
     9
100
AcDbVertex
100
AcDb2dVertex
 10
113.048059338126
 20
-138.7932552430797
 30
0.0
  0
VERTEX
  5
6E
330
6C
100
AcDbEntity
  8
_U+30EC_U+30A4_U+30E4_U+30FC 1
 62
     7
420
 16777215
370
     9
100
AcDbVertex
100
AcDb2dVertex
 10
115.5085431642427
 20
-138.7932552430797
 30
0.0
  0
SEQEND
  5
6F
330
6C
100
AcDbEntity
  8
_U+30EC_U+30A4_U+30E4_U+30FC 1
 62
     7
420
 16777215
370
     9
  0
POLYLINE
  5
70
330
1F
100
AcDbEntity
  8
_U+30EC_U+30A4_U+30E4_U+30FC 1
 62
     7
420
 16777215
370
     9
100
AcDb2dPolyline
 66
     1
 10
0.0
 20
0.0
 30
0.0
  0
VERTEX
  5
71
330
70
100
AcDbEntity
  8
_U+30EC_U+30A4_U+30E4_U+30FC 1
 62
     7
420
 16777215
370
     9
100
AcDbVertex
100
AcDb2dVertex
 10
113.048059338126
 20
-137.7928127433298
 30
0.0
  0
VERTEX
  5
72
330
70
100
AcDbEntity
  8
_U+30EC_U+30A4_U+30E4_U+30FC 1
 62
     7
420
 16777215
370
     9
100
AcDbVertex
100
AcDb2dVertex
 10
115.5085431642427
 20
-137.7928127433298
 30
0.0
  0
SEQEND
  5
73
330
70
100
AcDbEntity
  8
_U+30EC_U+30A4_U+30E4_U+30FC 1
 62
     7
420
 16777215
370
     9
  0
INSERT
  5
75
330
1F
100
AcDbEntity
  8
_U+30EC_U+30A4_U+30E4_U+30FC 1
100
AcDbBlockReference
  2
block 3
 10
0.0
 20
0.0
 30
0.0
  0
POLYLINE
  5
7A
330
1F
100
AcDbEntity
  8
_U+30EC_U+30A4_U+30E4_U+30FC 1
 62
     7
420
 16777215
370
     9
100
AcDb2dPolyline
 66
     1
 10
0.0
 20
0.0
 30
0.0
  0
VERTEX
  5
7B
330
7A
100
AcDbEntity
  8
_U+30EC_U+30A4_U+30E4_U+30FC 1
 62
     7
420
 16777215
370
     9
100
AcDbVertex
100
AcDb2dVertex
 10
114.5080654119892
 20
-138.7932552430797
 30
0.0
  0
VERTEX
  5
7C
330
7A
100
AcDbEntity
  8
_U+30EC_U+30A4_U+30E4_U+30FC 1
 62
     7
420
 16777215
370
     9
100
AcDbVertex
100
AcDb2dVertex
 10
114.5080654119892
 20
-148.2927494073715
 30
0.0
  0
SEQEND
  5
7D
330
7A
100
AcDbEntity
  8
_U+30EC_U+30A4_U+30E4_U+30FC 1
 62
     7
420
 16777215
370
     9
  0
POLYLINE
  5
7E
330
1F
100
AcDbEntity
  8
_U+30EC_U+30A4_U+30E4_U+30FC 1
 62
     7
420
 16777215
370
     9
100
AcDb2dPolyline
 66
     1
 10
0.0
 20
0.0
 30
0.0
  0
VERTEX
  5
7F
330
7E
100
AcDbEntity
  8
_U+30EC_U+30A4_U+30E4_U+30FC 1
 62
     7
420
 16777215
370
     9
100
AcDbVertex
100
AcDb2dVertex
 10
98.04741944304638
 20
-148.2927494073715
 30
0.0
  0
VERTEX
  5
80
330
7E
100
AcDbEntity
  8
_U+30EC_U+30A4_U+30E4_U+30FC 1
 62
     7
420
 16777215
370
     9
100
AcDbVertex
100
AcDb2dVertex
 10
115.5085431642427
 20
-148.2927494073715
 30
0.0
  0
SEQEND
  5
81
330
7E
100
AcDbEntity
  8
_U+30EC_U+30A4_U+30E4_U+30FC 1
 62
     7
420
 16777215
370
     9
  0
INSERT
  5
83
330
1F
100
AcDbEntity
  8
_U+30EC_U+30A4_U+30E4_U+30FC 1
100
AcDbBlockReference
  2
block 4
 10
0.0
 20
0.0
 30
0.0
  0
POLYLINE
  5
93
330
1F
100
AcDbEntity
  8
_U+30EC_U+30A4_U+30E4_U+30FC 1
 62
     7
420
 16777215
370
     9
100
AcDb2dPolyline
 66
     1
 10
0.0
 20
0.0
 30
0.0
  0
VERTEX
  5
94
330
93
100
AcDbEntity
  8
_U+30EC_U+30A4_U+30E4_U+30FC 1
 62
     7
420
 16777215
370
     9
100
AcDbVertex
100
AcDb2dVertex
 10
65.50726860654812
 20
-112.6208483051782
 30
0.0
  0
VERTEX
  5
95
330
93
100
AcDbEntity
  8
_U+30EC_U+30A4_U+30E4_U+30FC 1
 62
     7
420
 16777215
370
     9
100
AcDbVertex
100
AcDb2dVertex
 10
75.00715058640816
 20
-112.6208483051782
 30
0.0
  0
SEQEND
  5
96
330
93
100
AcDbEntity
  8
_U+30EC_U+30A4_U+30E4_U+30FC 1
 62
     7
420
 16777215
370
     9
  0
POLYLINE
  5
97
330
1F
100
AcDbEntity
  8
_U+30EC_U+30A4_U+30E4_U+30FC 1
 62
     7
420
 16777215
370
     9
100
AcDb2dPolyline
 66
     1
 10
0.0
 20
0.0
 30
0.0
  0
VERTEX
  5
98
330
97
100
AcDbEntity
  8
_U+30EC_U+30A4_U+30E4_U+30FC 1
 62
     7
420
 16777215
370
     9
100
AcDbVertex
100
AcDb2dVertex
 10
65.50726860654812
 20
-115.7526330266173
 30
0.0
  0
VERTEX
  5
99
330
97
100
AcDbEntity
  8
_U+30EC_U+30A4_U+30E4_U+30FC 1
 62
     7
420
 16777215
370
     9
100
AcDbVertex
100
AcDb2dVertex
 10
65.50726860654812
 20
-111.6209349720949
 30
0.0
  0
SEQEND
  5
9A
330
97
100
AcDbEntity
  8
_U+30EC_U+30A4_U+30E4_U+30FC 1
 62
     7
420
 16777215
370
     9
  0
INSERT
  5
9C
330
1F
100
AcDbEntity
  8
_U+30EC_U+30A4_U+30E4_U+30FC 1
100
AcDbBlockReference
  2
block 5
 10
0.0
 20
0.0
 30
0.0
  0
POLYLINE
  5
AC
330
1F
100
AcDbEntity
  8
_U+30EC_U+30A4_U+30E4_U+30FC 1
 62
     7
420
 16777215
370
     9
100
AcDb2dPolyline
 66
     1
 10
0.0
 20
0.0
 30
0.0
  0
VERTEX
  5
AD
330
AC
100
AcDbEntity
  8
_U+30EC_U+30A4_U+30E4_U+30FC 1
 62
     7
420
 16777215
370
     9
100
AcDbVertex
100
AcDb2dVertex
 10
95.5077017300622
 20
-152.2925085730378
 30
0.0
  0
VERTEX
  5
AE
330
AC
100
AcDbEntity
  8
_U+30EC_U+30A4_U+30E4_U+30FC 1
 62
     7
420
 16777215
370
     9
100
AcDbVertex
100
AcDb2dVertex
 10
110.5083444168175
 20
-152.2925085730378
 30
0.0
  0
SEQEND
  5
AF
330
AC
100
AcDbEntity
  8
_U+30EC_U+30A4_U+30E4_U+30FC 1
 62
     7
420
 16777215
370
     9
  0
POLYLINE
  5
B0
330
1F
100
AcDbEntity
  8
_U+30EC_U+30A4_U+30E4_U+30FC 1
 62
     7
420
 16777215
370
     9
100
AcDb2dPolyline
 66
     1
 10
0.0
 20
0.0
 30
0.0
  0
VERTEX
  5
B1
330
B0
100
AcDbEntity
  8
_U+30EC_U+30A4_U+30E4_U+30FC 1
 62
     7
420
 16777215
370
     9
100
AcDbVertex
100
AcDb2dVertex
 10
95.5077017300622
 20
-150.8324671845141
 30
0.0
  0
VERTEX
  5
B2
330
B0
100
AcDbEntity
  8
_U+30EC_U+30A4_U+30E4_U+30FC 1
 62
     7
420
 16777215
370
     9
100
AcDbVertex
100
AcDb2dVertex
 10
95.5077017300622
 20
-153.2929863505659
 30
0.0
  0
SEQEND
  5
B3
330
B0
100
AcDbEntity
  8
_U+30EC_U+30A4_U+30E4_U+30FC 1
 62
     7
420
 16777215
370
     9
  0
POLYLINE
  5
B4
330
1F
100
AcDbEntity
  8
_U+30EC_U+30A4_U+30E4_U+30FC 1
 62
     7
420
 16777215
370
     9
100
AcDb2dPolyline
 66
     1
 10
0.0
 20
0.0
 30
0.0
  0
VERTEX
  5
B5
330
B4
100
AcDbEntity
  8
_U+30EC_U+30A4_U+30E4_U+30FC 1
 62
     7
420
 16777215
370
     9
100
AcDbVertex
100
AcDb2dVertex
 10
110.5083444168175
 20
-141.2930032980103
 30
0.0
  0
VERTEX
  5
B6
330
B4
100
AcDbEntity
  8
_U+30EC_U+30A4_U+30E4_U+30FC 1
 62
     7
420
 16777215
370
     9
100
AcDbVertex
100
AcDb2dVertex
 10
110.5083444168175
 20
-153.2929863505659
 30
0.0
  0
SEQEND
  5
B7
330
B4
100
AcDbEntity
  8
_U+30EC_U+30A4_U+30E4_U+30FC 1
 62
     7
420
 16777215
370
     9
  0
INSERT
  5
B9
330
1F
100
AcDbEntity
  8
_U+30EC_U+30A4_U+30E4_U+30FC 1
100
AcDbBlockReference
  2
block 6
 10
0.0
 20
0.0
 30
0.0
  0
SPLINE
  5
C0
330
1F
100
AcDbEntity
  8
_U+30EC_U+30A4_U+30E4_U+30FC 1
 62
     7
420
 16777215
370
    25
100
AcDbSpline
210
0.0
220
0.0
230
1.0
 70
    11
 71
     3
 72
    50
 73
    46
 74
     0
 42
0.0000000001
 43
0.0000000001
 12
1.0
 22
0.0
 32
0.0
 13
1.0
 23
0.0
 33
0.0
 40
0.0
 40
0.0
 40
0.0
 40
0.0
 40
1.0
 40
1.0
 40
1.0
 40
2.0
 40
2.0
 40
2.0
 40
3.0
 40
3.0
 40
3.0
 40
4.0
 40
4.0
 40
4.0
 40
5.0
 40
5.0
 40
5.0
 40
6.0
 40
6.0
 40
6.0
 40
7.0
 40
7.0
 40
7.0
 40
8.0
 40
8.0
 40
8.0
 40
9.0
 40
9.0
 40
9.0
 40
10.0
 40
10.0
 40
10.0
 40
11.0
 40
11.0
 40
11.0
 40
12.0
 40
12.0
 40
12.0
 40
13.0
 40
13.0
 40
13.0
 40
14.0
 40
14.0
 40
14.0
 40
15.0
 40
15.0
 40
15.0
 40
15.0
 10
95.5077017300622
 20
-148.2920791295935
 30
0.0
 10
78.93903520831965
 20
-148.2920791295935
 30
0.0
 10
65.5076213843169
 20
-134.861723299618
 30
0.0
 10
65.50726860654812
 20
-118.2923508037602
 30
0.0
 10
65.50726860654812
 20
-118.2923508037602
 30
0.0
 10
74.98714998125318
 20
-118.9700016369241
 30
0.0
 10
74.98714998125318
 20
-118.9700016369241
 30
0.0
 10
74.98714998125318
 20
-118.9700016369241
 30
0.0
 10
74.98714998125318
 20
-103.2925924741767
 30
0.0
 10
74.98714998125318
 20
-103.2925924741767
 30
0.0
 10
74.98714998125318
 20
-103.2925924741767
 30
0.0
 10
75.9869222032254
 20
-103.2925924741767
 30
0.0
 10
75.9869222032254
 20
-103.2925924741767
 30
0.0
 10
75.9869222032254
 20
-103.2925924741767
 30
0.0
 10
75.9869222032254
 20
-120.0810399699798
 30
0.0
 10
75.9869222032254
 20
-120.0810399699798
 30
0.0
 10
75.9869222032254
 20
-120.0810399699798
 30
0.0
 10
66.5397785802066
 20
-119.4068463590371
 30
0.0
 10
66.5397785802066
 20
-119.4068463590371
 30
0.0
 10
66.5397785802066
 20
-119.4068463590371
 30
0.0
 10
66.53632135807258
 20
-119.4068463590371
 30
0.0
 10
66.53632135807258
 20
-119.4068463590371
 30
0.0
 10
67.10958523233629
 20
-134.5337457996998
 30
0.0
 10
79.26217964452
 20
-146.6873282966615
 30
0.0
 10
94.389396203037
 20
-147.2626735742955
 30
0.0
 10
94.389396203037
 20
-147.2626735742955
 30
0.0
 10
94.39355898070858
 20
-147.2599219076297
 30
0.0
 10
94.39355898070858
 20
-147.2599219076297
 30
0.0
 10
94.39355898070858
 20
-147.2599219076297
 30
0.0
 10
93.716931220193
 20
-137.7928127433298
 30
0.0
 10
93.716931220193
 20
-137.7928127433298
 30
0.0
 10
93.716931220193
 20
-137.7928127433298
 30
0.0
 10
110.5083444168175
 20
-137.7928127433298
 30
0.0
 10
110.5083444168175
 20
-137.7928127433298
 30
0.0
 10
110.5083444168175
 20
-137.7928127433298
 30
0.0
 10
110.5083444168175
 20
-138.7932552430797
 30
0.0
 10
110.5083444168175
 20
-138.7932552430797
 30
0.0
 10
110.5083444168175
 20
-138.7932552430797
 30
0.0
 10
94.82761674741262
 20
-138.7932552430797
 30
0.0
 10
94.82761674741262
 20
-138.7932552430797
 30
0.0
 10
94.82761674741262
 20
-138.7932552430797
 30
0.0
 10
95.5077017300622
 20
-148.2927494073715
 30
0.0
 10
95.5077017300622
 20
-148.2927494073715
 30
0.0
 10
95.5077017300622
 20
-148.2927494073715
 30
0.0
 10
95.5077017300622
 20
-148.2920791295935
 30
0.0
 10
95.5077017300622
 20
-148.2920791295935
 30
0.0
  0
ENDSEC
  0
SECTION
  2
OBJECTS
  0
DICTIONARY
  5
C
330
0
100
AcDbDictionary
281
     1
  3
ACAD_GROUP
350
D
  3
ACAD_LAYOUT
350
1A
  3
ACAD_MATERIAL
350
3B
  3
ACAD_MLEADERSTYLE
350
C2
  3
ACAD_MLINESTYLE
350
17
  3
ACAD_PLOTSETTINGS
350
19
  3
ACAD_PLOTSTYLENAME
350
E
  3
ACAD_TABLESTYLE
350
C1
  3
ACAD_VISUALSTYLE
350
2A
  0
SUN
  5
3F
330
29
100
AcDbSun
 90
        1
290
     0
 63
     7
421
 16777215
 40
1.0
291
     1
 91
  2455826
 92
 54000000
292
     0
 70
     2
 71
   256
280
     1
  0
DICTIONARY
  5
D
102
{ACAD_REACTORS
330
C
102
}
330
C
100
AcDbDictionary
281
     1
  0
DICTIONARY
  5
1A
102
{ACAD_REACTORS
330
C
102
}
330
C
100
AcDbDictionary
281
     1
  3
Layout1
350
1E
  3
Layout2
350
26
  3
Model
350
22
  0
DICTIONARY
  5
3B
102
{ACAD_REACTORS
330
C
102
}
330
C
100
AcDbDictionary
281
     1
  3
ByBlock
350
3D
  3
ByLayer
350
3C
  3
Global
350
3E
  0
DICTIONARY
  5
C2
102
{ACAD_REACTORS
330
C
102
}
330
C
100
AcDbDictionary
281
     1
  0
DICTIONARY
  5
17
102
{ACAD_REACTORS
330
C
102
}
330
C
100
AcDbDictionary
281
     1
  3
Standard
350
18
  0
DICTIONARY
  5
19
102
{ACAD_REACTORS
330
C
102
}
330
C
100
AcDbDictionary
281
     1
  0
ACDBDICTIONARYWDFLT
  5
E
102
{ACAD_REACTORS
330
C
102
}
330
C
100
AcDbDictionary
281
     1
  3
Normal
350
F
100
AcDbDictionaryWithDefault
340
F
  0
DICTIONARY
  5
C1
102
{ACAD_REACTORS
330
C
102
}
330
C
100
AcDbDictionary
281
     1
  0
DICTIONARY
  5
2A
102
{ACAD_REACTORS
330
C
102
}
330
C
100
AcDbDictionary
281
     1
  3
2dWireframe
350
2F
  3
3D Hidden
350
31
  3
3dWireframe
350
30
  3
Basic
350
32
  3
Brighten
350
36
  3
ColorChange
350
3A
  3
Conceptual
350
34
  3
Dim
350
35
  3
Facepattern
350
39
  3
Flat
350
2B
  3
FlatWithEdges
350
2C
  3
Gouraud
350
2D
  3
GouraudWithEdges
350
2E
  3
Linepattern
350
38
  3
Realistic
350
33
  3
Thicken
350
37
  0
LAYOUT
  5
1E
102
{ACAD_REACTORS
330
1A
102
}
330
1A
100
AcDbPlotSettings
  1

  2
none_device
  4

  6

 40
0.0
 41
0.0
 42
0.0
 43
0.0
 44
0.0
 45
0.0
 46
0.0
 47
0.0
 48
0.0
 49
0.0
140
0.0
141
0.0
142
1.0
143
1.0
 70
   688
 72
     0
 73
     0
 74
     5
  7

 75
    16
 76
     0
 77
     2
 78
   300
147
1.0
148
0.0
149
0.0
100
AcDbLayout
  1
Layout1
 70
     1
 71
     1
 10
0.0
 20
0.0
 11
12.0
 21
9.0
 12
0.0
 22
0.0
 32
0.0
 14
1.000000000000000E+20
 24
1.000000000000000E+20
 34
1.000000000000000E+20
 15
-1.000000000000000E+20
 25
-1.000000000000000E+20
 35
-1.000000000000000E+20
146
0.0
 13
0.0
 23
0.0
 33
0.0
 16
1.0
 26
0.0
 36
0.0
 17
0.0
 27
1.0
 37
0.0
 76
     0
330
1B
  0
LAYOUT
  5
26
102
{ACAD_REACTORS
330
1A
102
}
330
1A
100
AcDbPlotSettings
  1

  2
none_device
  4

  6

 40
0.0
 41
0.0
 42
0.0
 43
0.0
 44
0.0
 45
0.0
 46
0.0
 47
0.0
 48
0.0
 49
0.0
140
0.0
141
0.0
142
1.0
143
1.0
 70
   688
 72
     0
 73
     0
 74
     5
  7

 75
    16
 76
     0
 77
     2
 78
   300
147
1.0
148
0.0
149
0.0
100
AcDbLayout
  1
Layout2
 70
     1
 71
     2
 10
0.0
 20
0.0
 11
0.0
 21
0.0
 12
0.0
 22
0.0
 32
0.0
 14
0.0
 24
0.0
 34
0.0
 15
0.0
 25
0.0
 35
0.0
146
0.0
 13
0.0
 23
0.0
 33
0.0
 16
1.0
 26
0.0
 36
0.0
 17
0.0
 27
1.0
 37
0.0
 76
     0
330
23
  0
LAYOUT
  5
22
102
{ACAD_REACTORS
330
1A
102
}
330
1A
100
AcDbPlotSettings
  1

  2
none_device
  4

  6

 40
0.0
 41
0.0
 42
0.0
 43
0.0
 44
0.0
 45
0.0
 46
0.0
 47
0.0
 48
0.0
 49
0.0
140
0.0
141
0.0
142
1.0
143
1.0
 70
  1712
 72
     0
 73
     0
 74
     0
  7

 75
     0
 76
     0
 77
     2
 78
   300
147
1.0
148
0.0
149
0.0
100
AcDbLayout
  1
Model
 70
     1
 71
     0
 10
0.0
 20
0.0
 11
12.0
 21
9.0
 12
0.0
 22
0.0
 32
0.0
 14
1.000000000000000E+20
 24
1.000000000000000E+20
 34
1.000000000000000E+20
 15
-1.000000000000000E+20
 25
-1.000000000000000E+20
 35
-1.000000000000000E+20
146
0.0
 13
0.0
 23
0.0
 33
0.0
 16
1.0
 26
0.0
 36
0.0
 17
0.0
 27
1.0
 37
0.0
 76
     0
330
1F
331
29
  0
MATERIAL
  5
3D
102
{ACAD_REACTORS
330
3B
102
}
330
3B
100
AcDbMaterial
  1
ByBlock
 72
     1
 94
      127
  0
MATERIAL
  5
3C
102
{ACAD_REACTORS
330
3B
102
}
330
3B
100
AcDbMaterial
  1
ByLayer
 72
     1
 94
      127
  0
MATERIAL
  5
3E
102
{ACAD_REACTORS
330
3B
102
}
330
3B
100
AcDbMaterial
  1
Global
 72
     1
 94
      127
  0
MLINESTYLE
  5
18
102
{ACAD_REACTORS
330
17
102
}
330
17
100
AcDbMlineStyle
  2
Standard
 70
     0
  3

 62
   256
 51
90.0
 52
90.0
 71
     2
 49
0.5
 62
   256
  6
BYLAYER
 49
-0.5
 62
   256
  6
BYLAYER
  0
ACDBPLACEHOLDER
  5
F
102
{ACAD_REACTORS
330
E
102
}
330
E
  0
VISUALSTYLE
  5
2F
102
{ACAD_REACTORS
330
2A
102
}
330
2A
100
AcDbVisualStyle
  2
2dWireframe
 70
     4
177
     2
291
     0
 71
     0
176
     1
 72
     2
176
     1
 73
     0
176
     1
 90
        0
176
     1
 40
-0.6
176
     1
 41
-30.0
176
     1
 62
     5
 63
     7
421
 16777215
176
     1
 74
     1
176
     1
 91
        4
176
     1
 64
     7
176
     1
 65
   257
176
     1
 75
     1
176
     1
175
     1
176
     1
 42
1.0
176
     1
 92
        0
176
     1
 66
   257
176
     1
 43
1.0
176
     1
 76
     1
176
     1
 77
     6
176
     1
 78
     2
176
     1
 67
     7
176
     1
 79
     5
176
     1
170
     0
176
     1
171
     0
176
     1
290
     0
176
     1
 93
        1
176
     1
 44
0.0
176
     1
173
     0
176
     1
  0
VISUALSTYLE
  5
31
102
{ACAD_REACTORS
330
2A
102
}
330
2A
100
AcDbVisualStyle
  2
3D Hidden
 70
     6
177
     2
291
     0
 71
     1
176
     1
 72
     2
176
     1
 73
     2
176
     1
 90
        0
176
     1
 40
-0.6
176
     1
 41
-30.0
176
     1
 62
     5
 63
     7
421
 16777215
176
     1
 74
     2
176
     1
 91
        2
176
     1
 64
     7
176
     1
 65
   257
176
     1
 75
     2
176
     1
175
     1
176
     1
 42
40.0
176
     1
 92
        0
176
     1
 66
   257
176
     1
 43
1.0
176
     1
 76
     1
176
     1
 77
     6
176
     1
 78
     2
176
     1
 67
     7
176
     1
 79
     3
176
     1
170
     0
176
     1
171
     0
176
     1
290
     0
176
     1
 93
        1
176
     1
 44
0.0
176
     1
173
     0
176
     1
  0
VISUALSTYLE
  5
30
102
{ACAD_REACTORS
330
2A
102
}
330
2A
100
AcDbVisualStyle
  2
3dWireframe
 70
     5
177
     2
291
     0
 71
     0
176
     1
 72
     2
176
     1
 73
     0
176
     1
 90
        0
176
     1
 40
-0.6
176
     1
 41
-30.0
176
     1
 62
     5
 63
     7
421
 16777215
176
     1
 74
     1
176
     1
 91
        4
176
     1
 64
     7
176
     1
 65
   257
176
     1
 75
     1
176
     1
175
     1
176
     1
 42
1.0
176
     1
 92
        0
176
     1
 66
   257
176
     1
 43
1.0
176
     1
 76
     1
176
     1
 77
     6
176
     1
 78
     2
176
     1
 67
     7
176
     1
 79
     5
176
     1
170
     0
176
     1
171
     0
176
     1
290
     0
176
     1
 93
        1
176
     1
 44
0.0
176
     1
173
     0
176
     1
  0
VISUALSTYLE
  5
32
102
{ACAD_REACTORS
330
2A
102
}
330
2A
100
AcDbVisualStyle
  2
Basic
 70
     7
177
     2
291
     1
 71
     1
176
     1
 72
     0
176
     1
 73
     1
176
     1
 90
        0
176
     1
 40
-0.6
176
     1
 41
-30.0
176
     1
 62
     5
 63
     7
421
 16777215
176
     1
 74
     0
176
     1
 91
        4
176
     1
 64
     7
176
     1
 65
   257
176
     1
 75
     1
176
     1
175
     1
176
     1
 42
1.0
176
     1
 92
        8
176
     1
 66
     7
176
     1
 43
1.0
176
     1
 76
     1
176
     1
 77
     6
176
     1
 78
     2
176
     1
 67
     7
176
     1
 79
     5
176
     1
170
     0
176
     1
171
     0
176
     1
290
     0
176
     1
 93
        1
176
     1
 44
0.0
176
     1
173
     0
176
     1
  0
VISUALSTYLE
  5
36
102
{ACAD_REACTORS
330
2A
102
}
330
2A
100
AcDbVisualStyle
  2
Brighten
 70
    12
177
     2
291
     1
 71
     2
176
     1
 72
     2
176
     1
 73
     0
176
     1
 90
        0
176
     1
 40
-0.6
176
     1
 41
-30.0
176
     1
 62
     5
 63
     7
421
 16777215
176
     1
 74
     1
176
     1
 91
        4
176
     1
 64
     7
176
     1
 65
   257
176
     1
 75
     1
176
     1
175
     1
176
     1
 42
1.0
176
     1
 92
        8
176
     1
 66
     7
176
     1
 43
1.0
176
     1
 76
     1
176
     1
 77
     6
176
     1
 78
     2
176
     1
 67
     7
176
     1
 79
     5
176
     1
170
     0
176
     1
171
     0
176
     1
290
     0
176
     1
 93
        1
176
     1
 44
50.0
176
     1
173
     0
176
     1
  0
VISUALSTYLE
  5
3A
102
{ACAD_REACTORS
330
2A
102
}
330
2A
100
AcDbVisualStyle
  2
ColorChange
 70
    16
177
     2
291
     1
 71
     2
176
     1
 72
     2
176
     1
 73
     3
176
     1
 90
        0
176
     1
 40
-0.6
176
     1
 41
-30.0
176
     1
 62
     5
 63
     8
421
  8421504
176
     1
 74
     1
176
     1
 91
        4
176
     1
 64
     7
176
     1
 65
   257
176
     1
 75
     1
176
     1
175
     1
176
     1
 42
1.0
176
     1
 92
        8
176
     1
 66
     8
424
  8421504
176
     1
 43
1.0
176
     1
 76
     1
176
     1
 77
     6
176
     1
 78
     2
176
     1
 67
     7
176
     1
 79
     5
176
     1
170
     0
176
     1
171
     0
176
     1
290
     0
176
     1
 93
        1
176
     1
 44
0.0
176
     1
173
     0
176
     1
  0
VISUALSTYLE
  5
34
102
{ACAD_REACTORS
330
2A
102
}
330
2A
100
AcDbVisualStyle
  2
Conceptual
 70
     9
177
     2
291
     0
 71
     3
176
     1
 72
     2
176
     1
 73
     0
176
     1
 90
        0
176
     1
 40
-0.6
176
     1
 41
-30.0
176
     1
 62
     5
 63
     7
421
 16777215
176
     1
 74
     2
176
     1
 91
        2
176
     1
 64
     7
176
     1
 65
   257
176
     1
 75
     1
176
     1
175
     1
176
     1
 42
40.0
176
     1
 92
        8
176
     1
 66
     7
176
     1
 43
1.0
176
     1
 76
     1
176
     1
 77
     6
176
     1
 78
     2
176
     1
 67
     7
176
     1
 79
     3
176
     1
170
     0
176
     1
171
     0
176
     1
290
     0
176
     1
 93
        1
176
     1
 44
0.0
176
     1
173
     0
176
     1
  0
VISUALSTYLE
  5
35
102
{ACAD_REACTORS
330
2A
102
}
330
2A
100
AcDbVisualStyle
  2
Dim
 70
    11
177
     2
291
     1
 71
     2
176
     1
 72
     2
176
     1
 73
     0
176
     1
 90
        0
176
     1
 40
-0.6
176
     1
 41
-30.0
176
     1
 62
     5
 63
     7
421
 16777215
176
     1
 74
     1
176
     1
 91
        4
176
     1
 64
     7
176
     1
 65
   257
176
     1
 75
     1
176
     1
175
     1
176
     1
 42
1.0
176
     1
 92
        8
176
     1
 66
     7
176
     1
 43
1.0
176
     1
 76
     1
176
     1
 77
     6
176
     1
 78
     2
176
     1
 67
     7
176
     1
 79
     5
176
     1
170
     0
176
     1
171
     0
176
     1
290
     0
176
     1
 93
        1
176
     1
 44
-50.0
176
     1
173
     0
176
     1
  0
VISUALSTYLE
  5
39
102
{ACAD_REACTORS
330
2A
102
}
330
2A
100
AcDbVisualStyle
  2
Facepattern
 70
    15
177
     2
291
     1
 71
     2
176
     1
 72
     2
176
     1
 73
     0
176
     1
 90
        0
176
     1
 40
-0.6
176
     1
 41
-30.0
176
     1
 62
     5
 63
     7
421
 16777215
176
     1
 74
     1
176
     1
 91
        4
176
     1
 64
     7
176
     1
 65
   257
176
     1
 75
     1
176
     1
175
     1
176
     1
 42
1.0
176
     1
 92
        8
176
     1
 66
     7
176
     1
 43
1.0
176
     1
 76
     1
176
     1
 77
     6
176
     1
 78
     2
176
     1
 67
     7
176
     1
 79
     5
176
     1
170
     0
176
     1
171
     0
176
     1
290
     0
176
     1
 93
        1
176
     1
 44
0.0
176
     1
173
     0
176
     1
  0
VISUALSTYLE
  5
2B
102
{ACAD_REACTORS
330
2A
102
}
330
2A
100
AcDbVisualStyle
  2
Flat
 70
     0
177
     2
291
     1
 71
     2
176
     1
 72
     1
176
     1
 73
     1
176
     1
 90
        2
176
     1
 40
-0.6
176
     1
 41
30.0
176
     1
 62
     5
 63
     7
421
 16777215
176
     1
 74
     0
176
     1
 91
        4
176
     1
 64
     7
176
     1
 65
   257
176
     1
 75
     1
176
     1
175
     1
176
     1
 42
1.0
176
     1
 92
        8
176
     1
 66
     7
176
     1
 43
1.0
176
     1
 76
     1
176
     1
 77
     6
176
     1
 78
     2
176
     1
 67
     7
176
     1
 79
     5
176
     1
170
     0
176
     1
171
     0
176
     1
290
     0
176
     1
 93
       13
176
     1
 44
0.0
176
     1
173
     0
176
     1
  0
VISUALSTYLE
  5
2C
102
{ACAD_REACTORS
330
2A
102
}
330
2A
100
AcDbVisualStyle
  2
FlatWithEdges
 70
     1
177
     2
291
     1
 71
     2
176
     1
 72
     1
176
     1
 73
     1
176
     1
 90
        2
176
     1
 40
-0.6
176
     1
 41
30.0
176
     1
 62
     5
 63
     7
421
 16777215
176
     1
 74
     1
176
     1
 91
        4
176
     1
 64
     7
176
     1
 65
   257
176
     1
 75
     1
176
     1
175
     1
176
     1
 42
1.0
176
     1
 92
        0
176
     1
 66
   257
176
     1
 43
1.0
176
     1
 76
     1
176
     1
 77
     6
176
     1
 78
     2
176
     1
 67
     7
176
     1
 79
     5
176
     1
170
     0
176
     1
171
     0
176
     1
290
     0
176
     1
 93
       13
176
     1
 44
0.0
176
     1
173
     0
176
     1
  0
VISUALSTYLE
  5
2D
102
{ACAD_REACTORS
330
2A
102
}
330
2A
100
AcDbVisualStyle
  2
Gouraud
 70
     2
177
     2
291
     1
 71
     2
176
     1
 72
     2
176
     1
 73
     1
176
     1
 90
        2
176
     1
 40
-0.6
176
     1
 41
30.0
176
     1
 62
     5
 63
     7
421
 16777215
176
     1
 74
     0
176
     1
 91
        4
176
     1
 64
     7
176
     1
 65
   257
176
     1
 75
     1
176
     1
175
     1
176
     1
 42
1.0
176
     1
 92
        0
176
     1
 66
     7
176
     1
 43
1.0
176
     1
 76
     1
176
     1
 77
     6
176
     1
 78
     2
176
     1
 67
     7
176
     1
 79
     5
176
     1
170
     0
176
     1
171
     0
176
     1
290
     0
176
     1
 93
       13
176
     1
 44
0.0
176
     1
173
     0
176
     1
  0
VISUALSTYLE
  5
2E
102
{ACAD_REACTORS
330
2A
102
}
330
2A
100
AcDbVisualStyle
  2
GouraudWithEdges
 70
     3
177
     2
291
     1
 71
     2
176
     1
 72
     2
176
     1
 73
     1
176
     1
 90
        2
176
     1
 40
-0.6
176
     1
 41
30.0
176
     1
 62
     5
 63
     7
421
 16777215
176
     1
 74
     1
176
     1
 91
        4
176
     1
 64
     7
176
     1
 65
   257
176
     1
 75
     1
176
     1
175
     1
176
     1
 42
1.0
176
     1
 92
        0
176
     1
 66
   257
176
     1
 43
1.0
176
     1
 76
     1
176
     1
 77
     6
176
     1
 78
     2
176
     1
 67
     7
176
     1
 79
     5
176
     1
170
     0
176
     1
171
     0
176
     1
290
     0
176
     1
 93
       13
176
     1
 44
0.0
176
     1
173
     0
176
     1
  0
VISUALSTYLE
  5
38
102
{ACAD_REACTORS
330
2A
102
}
330
2A
100
AcDbVisualStyle
  2
Linepattern
 70
    14
177
     2
291
     1
 71
     2
176
     1
 72
     2
176
     1
 73
     0
176
     1
 90
        0
176
     1
 40
-0.6
176
     1
 41
-30.0
176
     1
 62
     5
 63
     7
421
 16777215
176
     1
 74
     1
176
     1
 91
        4
176
     1
 64
     7
176
     1
 65
   257
176
     1
 75
     7
176
     1
175
     7
176
     1
 42
1.0
176
     1
 92
        8
176
     1
 66
     7
176
     1
 43
1.0
176
     1
 76
     1
176
     1
 77
     6
176
     1
 78
     2
176
     1
 67
     7
176
     1
 79
     5
176
     1
170
     0
176
     1
171
     0
176
     1
290
     0
176
     1
 93
        1
176
     1
 44
0.0
176
     1
173
     0
176
     1
  0
VISUALSTYLE
  5
33
102
{ACAD_REACTORS
330
2A
102
}
330
2A
100
AcDbVisualStyle
  2
Realistic
 70
     8
177
     2
291
     0
 71
     2
176
     1
 72
     2
176
     1
 73
     0
176
     1
 90
        0
176
     1
 40
-0.6
176
     1
 41
-30.0
176
     1
 62
     5
 63
     7
421
 16777215
176
     1
 74
     1
176
     1
 91
        0
176
     1
 64
     7
176
     1
 65
   257
176
     1
 75
     1
176
     1
175
     1
176
     1
 42
1.0
176
     1
 92
        8
176
     1
 66
     8
424
  7895160
176
     1
 43
1.0
176
     1
 76
     1
176
     1
 77
     6
176
     1
 78
     2
176
     1
 67
     7
176
     1
 79
     5
176
     1
170
     0
176
     1
171
     0
176
     1
290
     0
176
     1
 93
       13
176
     1
 44
0.0
176
     1
173
     0
176
     1
  0
VISUALSTYLE
  5
37
102
{ACAD_REACTORS
330
2A
102
}
330
2A
100
AcDbVisualStyle
  2
Thicken
 70
    13
177
     2
291
     1
 71
     2
176
     1
 72
     2
176
     1
 73
     0
176
     1
 90
        0
176
     1
 40
-0.6
176
     1
 41
-30.0
176
     1
 62
     5
 63
     7
421
 16777215
176
     1
 74
     1
176
     1
 91
        4
176
     1
 64
     7
176
     1
 65
   257
176
     1
 75
     1
176
     1
175
     1
176
     1
 42
1.0
176
     1
 92
       12
176
     1
 66
     7
176
     1
 43
1.0
176
     1
 76
     1
176
     1
 77
     6
176
     1
 78
     2
176
     1
 67
     7
176
     1
 79
     5
176
     1
170
     0
176
     1
171
     0
176
     1
290
     0
176
     1
 93
        1
176
     1
 44
0.0
176
     1
173
     0
176
     1
  0
ENDSEC
  0
EOF
