  0
SECTION
  2
HEADER
  9
$ACADVER
  1
AC1024
  9
$ACADMAINTVER
 70
     6
  9
$DWGCODEPAGE
  3
UNDEFINED
  9
$INSBASE
 10
0.0
 20
0.0
 30
0.0
  9
$EXTMIN
 10
1.000000000000000E+20
 20
1.000000000000000E+20
 30
1.000000000000000E+20
  9
$EXTMAX
 10
-1.000000000000000E+20
 20
-1.000000000000000E+20
 30
-1.000000000000000E+20
  9
$LIMMIN
 10
0.0
 20
0.0
  9
$LIMMAX
 10
12.0
 20
9.0
  9
$ORTHOMODE
 70
     0
  9
$REGENMODE
 70
     1
  9
$FILLMODE
 70
     1
  9
$QTEXTMODE
 70
     0
  9
$MIRRTEXT
 70
     1
  9
$LTSCALE
 40
1.0
  9
$ATTMODE
 70
     1
  9
$TEXTSIZE
 40
0.2
  9
$TRACEWID
 40
0.05
  9
$TEXTSTYLE
  7
Standard
  9
$CLAYER
  8
0
  9
$CELTYPE
  6
ByLayer
  9
$CECOLOR
 62
   256
  9
$CELTSCALE
 40
1.0
  9
$DISPSILH
 70
     0
  9
$DIMSCALE
 40
1.0
  9
$DIMASZ
 40
0.18
  9
$DIMEXO
 40
0.0625
  9
$DIMDLI
 40
0.38
  9
$DIMRND
 40
0.0
  9
$DIMDLE
 40
0.0
  9
$DIMEXE
 40
0.18
  9
$DIMTP
 40
0.0
  9
$DIMTM
 40
0.0
  9
$DIMTXT
 40
0.18
  9
$DIMCEN
 40
0.09
  9
$DIMTSZ
 40
0.0
  9
$DIMTOL
 70
     0
  9
$DIMLIM
 70
     0
  9
$DIMTIH
 70
     1
  9
$DIMTOH
 70
     1
  9
$DIMSE1
 70
     0
  9
$DIMSE2
 70
     0
  9
$DIMTAD
 70
     0
  9
$DIMZIN
 70
     0
  9
$DIMBLK
  1

  9
$DIMASO
 70
     1
  9
$DIMSHO
 70
     1
  9
$DIMPOST
  1

  9
$DIMAPOST
  1

  9
$DIMALT
 70
     0
  9
$DIMALTD
 70
     2
  9
$DIMALTF
 40
25.4
  9
$DIMLFAC
 40
1.0
  9
$DIMTOFL
 70
     0
  9
$DIMTVP
 40
0.0
  9
$DIMTIX
 70
     0
  9
$DIMSOXD
 70
     0
  9
$DIMSAH
 70
     0
  9
$DIMBLK1
  1

  9
$DIMBLK2
  1

  9
$DIMSTYLE
  2
Standard
  9
$DIMCLRD
 70
     0
  9
$DIMCLRE
 70
     0
  9
$DIMCLRT
 70
     0
  9
$DIMTFAC
 40
1.0
  9
$DIMGAP
 40
0.09
  9
$DIMJUST
 70
     0
  9
$DIMSD1
 70
     0
  9
$DIMSD2
 70
     0
  9
$DIMTOLJ
 70
     1
  9
$DIMTZIN
 70
     0
  9
$DIMALTZ
 70
     0
  9
$DIMALTTZ
 70
     0
  9
$DIMUPT
 70
     0
  9
$DIMDEC
 70
     4
  9
$DIMTDEC
 70
     4
  9
$DIMALTU
 70
     2
  9
$DIMALTTD
 70
     2
  9
$DIMTXSTY
  7
Standard
  9
$DIMAUNIT
 70
     0
  9
$DIMADEC
 70
     0
  9
$DIMALTRND
 40
0.0
  9
$DIMAZIN
 70
     0
  9
$DIMDSEP
 70
    46
  9
$DIMATFIT
 70
     3
  9
$DIMFRAC
 70
     0
  9
$DIMLDRBLK
  1

  9
$DIMLUNIT
 70
     2
  9
$DIMLWD
 70
    -2
  9
$DIMLWE
 70
    -2
  9
$DIMTMOVE
 70
     0
  9
$DIMFXL
 40
1.0
  9
$DIMFXLON
 70
     0
  9
$DIMJOGANG
 40
0.7853981633974483
  9
$DIMTFILL
 70
     0
  9
$DIMTFILLCLR
 70
     0
  9
$DIMARCSYM
 70
     0
  9
$DIMLTYPE
  6

  9
$DIMLTEX1
  6

  9
$DIMLTEX2
  6

  9
$DIMTXTDIRECTION
 70
     0
  9
$LUNITS
 70
     2
  9
$LUPREC
 70
     4
  9
$SKETCHINC
 40
0.1
  9
$FILLETRAD
 40
0.5
  9
$AUNITS
 70
     0
  9
$AUPREC
 70
     0
  9
$MENU
  1
.
  9
$ELEVATION
 40
0.0
  9
$PELEVATION
 40
0.0
  9
$THICKNESS
 40
0.0
  9
$LIMCHECK
 70
     0
  9
$CHAMFERA
 40
0.5
  9
$CHAMFERB
 40
0.5
  9
$CHAMFERC
 40
1.0
  9
$CHAMFERD
 40
0.0
  9
$SKPOLY
 70
     0
  9
$TDCREATE
 40
2457917.584085637
  9
$TDUCREATE
 40
2457917.209085648
  9
$TDUPDATE
 40
2457917.584085637
  9
$TDUUPDATE
 40
2457917.209085648
  9
$TDINDWG
 40
0.0000000116
  9
$TDUSRTIMER
 40
0.0000000116
  9
$USRTIMER
 70
     1
  9
$ANGBASE
 50
0.0
  9
$ANGDIR
 70
     0
  9
$PDMODE
 70
     0
  9
$PDSIZE
 40
0.0
  9
$PLINEWID
 40
0.0
  9
$SPLFRAME
 70
     0
  9
$SPLINETYPE
 70
     6
  9
$SPLINESEGS
 70
     8
  9
$HANDSEED
  5
143
  9
$SURFTAB1
 70
     6
  9
$SURFTAB2
 70
     6
  9
$SURFTYPE
 70
     6
  9
$SURFU
 70
     6
  9
$SURFV
 70
     6
  9
$UCSBASE
  2

  9
$UCSNAME
  2

  9
$UCSORG
 10
0.0
 20
0.0
 30
0.0
  9
$UCSXDIR
 10
1.0
 20
0.0
 30
0.0
  9
$UCSYDIR
 10
0.0
 20
1.0
 30
0.0
  9
$UCSORTHOREF
  2

  9
$UCSORTHOVIEW
 70
     0
  9
$UCSORGTOP
 10
0.0
 20
0.0
 30
0.0
  9
$UCSORGBOTTOM
 10
0.0
 20
0.0
 30
0.0
  9
$UCSORGLEFT
 10
0.0
 20
0.0
 30
0.0
  9
$UCSORGRIGHT
 10
0.0
 20
0.0
 30
0.0
  9
$UCSORGFRONT
 10
0.0
 20
0.0
 30
0.0
  9
$UCSORGBACK
 10
0.0
 20
0.0
 30
0.0
  9
$PUCSBASE
  2

  9
$PUCSNAME
  2

  9
$PUCSORG
 10
0.0
 20
0.0
 30
0.0
  9
$PUCSXDIR
 10
1.0
 20
0.0
 30
0.0
  9
$PUCSYDIR
 10
0.0
 20
1.0
 30
0.0
  9
$PUCSORTHOREF
  2

  9
$PUCSORTHOVIEW
 70
     0
  9
$PUCSORGTOP
 10
0.0
 20
0.0
 30
0.0
  9
$PUCSORGBOTTOM
 10
0.0
 20
0.0
 30
0.0
  9
$PUCSORGLEFT
 10
0.0
 20
0.0
 30
0.0
  9
$PUCSORGRIGHT
 10
0.0
 20
0.0
 30
0.0
  9
$PUCSORGFRONT
 10
0.0
 20
0.0
 30
0.0
  9
$PUCSORGBACK
 10
0.0
 20
0.0
 30
0.0
  9
$USERI1
 70
     0
  9
$USERI2
 70
     0
  9
$USERI3
 70
     0
  9
$USERI4
 70
     0
  9
$USERI5
 70
     0
  9
$USERR1
 40
0.0
  9
$USERR2
 40
0.0
  9
$USERR3
 40
0.0
  9
$USERR4
 40
0.0
  9
$USERR5
 40
0.0
  9
$WORLDVIEW
 70
     1
  9
$SHADEDGE
 70
     3
  9
$SHADEDIF
 70
    70
  9
$TILEMODE
 70
     1
  9
$MAXACTVP
 70
    64
  9
$PINSBASE
 10
0.0
 20
0.0
 30
0.0
  9
$PLIMCHECK
 70
     0
  9
$PEXTMIN
 10
1.000000000000000E+20
 20
1.000000000000000E+20
 30
1.000000000000000E+20
  9
$PEXTMAX
 10
-1.000000000000000E+20
 20
-1.000000000000000E+20
 30
-1.000000000000000E+20
  9
$PLIMMIN
 10
0.0
 20
0.0
  9
$PLIMMAX
 10
12.0
 20
9.0
  9
$UNITMODE
 70
     0
  9
$VISRETAIN
 70
     1
  9
$PLINEGEN
 70
     0
  9
$PSLTSCALE
 70
     1
  9
$TREEDEPTH
 70
  3020
  9
$CMLSTYLE
  2
Standard
  9
$CMLJUST
 70
     0
  9
$CMLSCALE
 40
1.0
  9
$PROXYGRAPHICS
 70
     1
  9
$MEASUREMENT
 70
     0
  9
$CELWEIGHT
370
    -1
  9
$ENDCAPS
280
     0
  9
$JOINSTYLE
280
     0
  9
$LWDISPLAY
290
     1
  9
$INSUNITS
 70
     1
  9
$HYPERLINKBASE
  1

  9
$STYLESHEET
  1

  9
$XEDIT
290
     1
  9
$CEPSNTYPE
380
     0
  9
$PSTYLEMODE
290
     1
  9
$FINGERPRINTGUID
  2
{EE35A168-4316-EB2D-B632-4BBD1688BF14}
  9
$VERSIONGUID
  2
{FAEB1C32-E019-11D5-929B-00C0DF256EC4}
  9
$EXTNAMES
290
     1
  9
$PSVPSCALE
 40
0.0
  9
$OLESTARTUP
290
     0
  9
$SORTENTS
280
   127
  9
$INDEXCTL
280
     0
  9
$HIDETEXT
280
     1
  9
$XCLIPFRAME
280
     2
  9
$HALOGAP
280
     0
  9
$OBSCOLOR
 70
   257
  9
$OBSLTYPE
280
     0
  9
$INTERSECTIONDISPLAY
280
     0
  9
$INTERSECTIONCOLOR
 70
   257
  9
$DIMASSOC
280
     2
  9
$PROJECTNAME
  1

  9
$CAMERADISPLAY
290
     0
  9
$LENSLENGTH
 40
50.0
  9
$CAMERAHEIGHT
 40
0.0
  9
$STEPSPERSEC
 40
2.0
  9
$STEPSIZE
 40
6.0
  9
$3DDWFPREC
 40
2.0
  9
$PSOLWIDTH
 40
0.25
  9
$PSOLHEIGHT
 40
4.0
  9
$LOFTANG1
 40
1.570796326794897
  9
$LOFTANG2
 40
1.570796326794897
  9
$LOFTMAG1
 40
0.0
  9
$LOFTMAG2
 40
0.0
  9
$LOFTPARAM
 70
     7
  9
$LOFTNORMALS
280
     1
  9
$LATITUDE
 40
37.795
  9
$LONGITUDE
 40
-122.394
  9
$NORTHDIRECTION
 40
0.0
  9
$TIMEZONE
 70
 -8000
  9
$LIGHTGLYPHDISPLAY
280
     1
  9
$TILEMODELIGHTSYNCH
280
     1
  9
$CMATERIAL
347
3C
  9
$SOLIDHIST
280
     1
  9
$SHOWHIST
280
     1
  9
$DWFFRAME
280
     2
  9
$DGNFRAME
280
     2
  9
$REALWORLDSCALE
290
     1
  9
$INTERFERECOLOR
 62
   256
  9
$CSHADOW
280
     0
  9
$SHADOWPLANELOCATION
 40
0.0
  0
ENDSEC
  0
SECTION
  2
CLASSES
  0
CLASS
  1
ACDBDICTIONARYWDFLT
  2
AcDbDictionaryWithDefault
  3
ObjectDBX Classes
 90
        0
 91
        4
280
     0
281
     0
  0
CLASS
  1
VISUALSTYLE
  2
AcDbVisualStyle
  3
ObjectDBX Classes
 90
     4095
 91
        4
280
     0
281
     0
  0
CLASS
  1
MATERIAL
  2
AcDbMaterial
  3
ObjectDBX Classes
 90
     1153
 91
        4
280
     0
281
     0
  0
CLASS
  1
SUN
  2
AcDbSun
  3
SCENEOE
 90
     1024
 91
        4
280
     0
281
     0
  0
ENDSEC
  0
SECTION
  2
TABLES
  0
TABLE
  2
VPORT
  5
8
330
0
100
AcDbSymbolTable
 70
     1
  0
VPORT
  5
29
330
8
100
AcDbSymbolTableRecord
100
AcDbViewportTableRecord
  2
*Active
 70
     0
 10
0.0
 20
0.0
 11
1.0
 21
1.0
 12
0.0
 22
0.0
 13
0.0
 23
0.0
 14
0.5
 24
0.5
 15
0.5
 25
0.5
 16
0.0
 26
0.0
 36
1.0
 17
91.00082462281999
 27
-128.4993055234307
 37
0.0
 40
256.9986110468615
 41
0.7081814508812795
 42
50.0
 43
0.0
 44
0.0
 50
0.0
 51
0.0
 71
     0
 72
   100
 73
     1
 74
     3
 75
     0
 76
     0
 77
     0
 78
     0
281
     0
 65
     1
110
0.0
120
0.0
130
0.0
111
1.0
121
0.0
131
0.0
112
0.0
122
1.0
132
0.0
 79
     0
146
0.0
 60
     3
 61
     5
292
     1
282
     1
141
0.0
142
0.0
 63
   250
361
3F
  0
ENDTAB
  0
TABLE
  2
LTYPE
  5
5
330
0
100
AcDbSymbolTable
 70
     2
  0
LTYPE
  5
14
330
5
100
AcDbSymbolTableRecord
100
AcDbLinetypeTableRecord
  2
ByBlock
 70
     0
  3

 72
    65
 73
     0
 40
0.0
  0
LTYPE
  5
15
330
5
100
AcDbSymbolTableRecord
100
AcDbLinetypeTableRecord
  2
ByLayer
 70
     0
  3

 72
    65
 73
     0
 40
0.0
  0
LTYPE
  5
16
330
5
100
AcDbSymbolTableRecord
100
AcDbLinetypeTableRecord
  2
Continuous
 70
     0
  3
Solid line
 72
    65
 73
     0
 40
0.0
  0
LTYPE
  5
FB
330
5
100
AcDbSymbolTableRecord
100
AcDbLinetypeTableRecord
  2
AI-Linetype-1
 70
     0
  3
Adobe Illustrator Linetype No. 1
 72
    65
 73
     2
 40
1.411111110758333
 49
0.7055555553791667
 74
     0
 49
-0.7055555553791667
 74
     0
  0
ENDTAB
  0
TABLE
  2
LAYER
  5
2
330
0
100
AcDbSymbolTable
 70
     2
  0
LAYER
  5
10
330
2
100
AcDbSymbolTableRecord
100
AcDbLayerTableRecord
  2
0
 70
     0
 62
     7
  6
Continuous
370
    -3
390
F
347
3E
  0
LAYER
  5
40
330
2
100
AcDbSymbolTableRecord
100
AcDbLayerTableRecord
  2
_U+30EC_U+30A4_U+30E4_U+30FC 1
 70
     0
 62
     7
  6
Continuous
370
    -3
390
F
347
3E
  0
ENDTAB
  0
TABLE
  2
STYLE
  5
3
330
0
100
AcDbSymbolTable
 70
     1
  0
STYLE
  5
11
330
3
100
AcDbSymbolTableRecord
100
AcDbTextStyleTableRecord
  2
Standard
 70
     0
 40
0.0
 41
1.0
 50
0.0
 71
     0
 42
0.2
  3
txt
  4

  0
ENDTAB
  0
TABLE
  2
VIEW
  5
6
330
0
100
AcDbSymbolTable
 70
     0
  0
ENDTAB
  0
TABLE
  2
UCS
  5
7
330
0
100
AcDbSymbolTable
 70
     0
  0
ENDTAB
  0
TABLE
  2
APPID
  5
9
330
0
100
AcDbSymbolTable
 70
     1
  0
APPID
  5
12
330
9
100
AcDbSymbolTableRecord
100
AcDbRegAppTableRecord
  2
ACAD
 70
     0
  0
ENDTAB
  0
TABLE
  2
DIMSTYLE
  5
A
330
0
100
AcDbSymbolTable
 70
     1
100
AcDbDimStyleTable
  0
DIMSTYLE
105
27
330
A
100
AcDbSymbolTableRecord
100
AcDbDimStyleTableRecord
  2
Standard
 70
     0
178
     0
340
11
  0
ENDTAB
  0
TABLE
  2
BLOCK_RECORD
  5
1
330
0
100
AcDbSymbolTable
 70
     9
  0
BLOCK_RECORD
  5
1F
330
1
100
AcDbSymbolTableRecord
100
AcDbBlockTableRecord
  2
*Model_Space
340
22
 70
     0
280
     1
281
     0
  0
BLOCK_RECORD
  5
1B
330
1
100
AcDbSymbolTableRecord
100
AcDbBlockTableRecord
  2
*Paper_Space
340
1E
 70
     0
280
     1
281
     0
  0
BLOCK_RECORD
  5
23
330
1
100
AcDbSymbolTableRecord
100
AcDbBlockTableRecord
  2
*Paper_Space0
340
26
 70
     0
280
     1
281
     0
  0
BLOCK_RECORD
  5
41
330
1
100
AcDbSymbolTableRecord
100
AcDbBlockTableRecord
  2
block 2
340
0
102
{BLKREFS
331
42
102
}
 70
     0
280
     1
281
     0
  0
BLOCK_RECORD
  5
55
330
1
100
AcDbSymbolTableRecord
100
AcDbBlockTableRecord
  2
block 3
340
0
102
{BLKREFS
331
56
102
}
 70
     0
280
     1
281
     0
  0
BLOCK_RECORD
  5
6B
330
1
100
AcDbSymbolTableRecord
100
AcDbBlockTableRecord
  2
block 4
340
0
102
{BLKREFS
331
6C
102
}
 70
     0
280
     1
281
     0
  0
BLOCK_RECORD
  5
A0
330
1
100
AcDbSymbolTableRecord
100
AcDbBlockTableRecord
  2
block 5
340
0
102
{BLKREFS
331
A1
102
}
 70
     0
280
     1
281
     0
  0
BLOCK_RECORD
  5
A8
330
1
100
AcDbSymbolTableRecord
100
AcDbBlockTableRecord
  2
block 6
340
0
102
{BLKREFS
331
A9
102
}
 70
     0
280
     1
281
     0
  0
BLOCK_RECORD
  5
BA
330
1
100
AcDbSymbolTableRecord
100
AcDbBlockTableRecord
  2
block 7
340
0
102
{BLKREFS
331
BB
102
}
 70
     0
280
     1
281
     0
  0
BLOCK_RECORD
  5
CC
330
1
100
AcDbSymbolTableRecord
100
AcDbBlockTableRecord
  2
block 8
340
0
102
{BLKREFS
331
CD
102
}
 70
     0
280
     1
281
     0
  0
BLOCK_RECORD
  5
FC
330
1
100
AcDbSymbolTableRecord
100
AcDbBlockTableRecord
  2
block 9
340
0
102
{BLKREFS
331
FD
102
}
 70
     0
280
     1
281
     0
  0
ENDTAB
  0
ENDSEC
  0
SECTION
  2
BLOCKS
  0
BLOCK
  5
20
330
1F
100
AcDbEntity
  8
0
100
AcDbBlockBegin
  2
*Model_Space
 70
     0
 10
0.0
 20
0.0
 30
0.0
  3
*Model_Space
  1

  0
ENDBLK
  5
21
330
1F
100
AcDbEntity
  8
0
100
AcDbBlockEnd
  0
BLOCK
  5
1C
330
1B
100
AcDbEntity
 67
     1
  8
0
100
AcDbBlockBegin
  2
*Paper_Space
 70
     0
 10
0.0
 20
0.0
 30
0.0
  3
*Paper_Space
  1

  0
ENDBLK
  5
1D
330
1B
100
AcDbEntity
 67
     1
  8
0
100
AcDbBlockEnd
  0
BLOCK
  5
24
330
23
100
AcDbEntity
  8
0
100
AcDbBlockBegin
  2
*Paper_Space0
 70
     0
 10
0.0
 20
0.0
 30
0.0
  3
*Paper_Space0
  1

  0
ENDBLK
  5
25
330
23
100
AcDbEntity
  8
0
100
AcDbBlockEnd
  0
BLOCK
  5
43
330
41
100
AcDbEntity
  8
0
100
AcDbBlockBegin
  2
block 2
 70
     0
 10
0.0
 20
0.0
 30
0.0
  3
block 2
  1

  0
SPLINE
  5
45
330
41
100
AcDbEntity
  8
_U+30EC_U+30A4_U+30E4_U+30FC 1
 62
     7
420
 16777215
370
     9
100
AcDbSpline
210
0.0
220
0.0
230
1.0
 70
    11
 71
     3
 72
    17
 73
    13
 74
     0
 42
0.0000000001
 43
0.0000000001
 12
1.0
 22
0.0
 32
0.0
 13
1.0
 23
0.0
 33
0.0
 40
0.0
 40
0.0
 40
0.0
 40
0.0
 40
1.0
 40
1.0
 40
1.0
 40
2.0
 40
2.0
 40
2.0
 40
3.0
 40
3.0
 40
3.0
 40
4.0
 40
4.0
 40
4.0
 40
4.0
 10
106.2326045120027
 20
-149.405869129315
 30
0.0
 10
106.2326045120027
 20
-149.3507299626625
 30
0.0
 10
106.1878370131448
 20
-149.3059624626733
 30
0.0
 10
106.1326978478849
 20
-149.3059624626733
 30
0.0
 10
106.0775939604018
 20
-149.3059624626733
 30
0.0
 10
106.032791183767
 20
-149.3507299626625
 30
0.0
 10
106.032791183767
 20
-149.405869129315
 30
0.0
 10
106.032791183767
 20
-149.4609730181905
 30
0.0
 10
106.0775939604018
 20
-149.5057757959566
 30
0.0
 10
106.1326978478849
 20
-149.5057757959566
 30
0.0
 10
106.1878370131448
 20
-149.5057757959566
 30
0.0
 10
106.2326045120027
 20
-149.4609730181905
 30
0.0
 10
106.2326045120027
 20
-149.405869129315
 30
0.0
  0
SPLINE
  5
46
330
41
100
AcDbEntity
  8
_U+30EC_U+30A4_U+30E4_U+30FC 1
 62
     7
420
 16777215
370
     9
100
AcDbSpline
210
0.0
220
0.0
230
1.0
 70
    11
 71
     3
 72
    17
 73
    13
 74
     0
 42
0.0000000001
 43
0.0000000001
 12
1.0
 22
0.0
 32
0.0
 13
1.0
 23
0.0
 33
0.0
 40
0.0
 40
0.0
 40
0.0
 40
0.0
 40
1.0
 40
1.0
 40
1.0
 40
2.0
 40
2.0
 40
2.0
 40
3.0
 40
3.0
 40
3.0
 40
4.0
 40
4.0
 40
4.0
 40
4.0
 10
64.73281557075052
 20
-132.9055705223292
 30
0.0
 10
64.73281557075052
 20
-132.8504666334543
 30
0.0
 10
64.68804807189262
 20
-132.8056638556876
 30
0.0
 10
64.63290890663268
 20
-132.8056638556876
 30
0.0
 10
64.57780501914961
 20
-132.8056638556876
 30
0.0
 10
64.53300224251484
 20
-132.8504666334543
 30
0.0
 10
64.53300224251484
 20
-132.9055705223292
 30
0.0
 10
64.53300224251484
 20
-132.9607096889823
 30
0.0
 10
64.57780501914961
 20
-133.0054771889709
 30
0.0
 10
64.63290890663268
 20
-133.0054771889709
 30
0.0
 10
64.68804807189262
 20
-133.0054771889709
 30
0.0
 10
64.73281557075052
 20
-132.9607096889823
 30
0.0
 10
64.73281557075052
 20
-132.9055705223292
 30
0.0
  0
SPLINE
  5
47
330
41
100
AcDbEntity
  8
_U+30EC_U+30A4_U+30E4_U+30FC 1
 62
     7
420
 16777215
370
     9
100
AcDbSpline
210
0.0
220
0.0
230
1.0
 70
    11
 71
     3
 72
    17
 73
    13
 74
     0
 42
0.0000000001
 43
0.0000000001
 12
1.0
 22
0.0
 32
0.0
 13
1.0
 23
0.0
 33
0.0
 40
0.0
 40
0.0
 40
0.0
 40
0.0
 40
1.0
 40
1.0
 40
1.0
 40
2.0
 40
2.0
 40
2.0
 40
3.0
 40
3.0
 40
3.0
 40
4.0
 40
4.0
 40
4.0
 40
4.0
 10
81.23276098313517
 20
-149.405869129315
 30
0.0
 10
81.23276098313517
 20
-149.3507299626625
 30
0.0
 10
81.18799348427729
 20
-149.3059624626733
 30
0.0
 10
81.13250154124856
 20
-149.3059624626733
 30
0.0
 10
81.07739765376549
 20
-149.3059624626733
 30
0.0
 10
81.03259487713072
 20
-149.3507299626625
 30
0.0
 10
81.03259487713072
 20
-149.405869129315
 30
0.0
 10
81.03259487713072
 20
-149.4609730181905
 30
0.0
 10
81.07739765376549
 20
-149.5057757959566
 30
0.0
 10
81.13250154124856
 20
-149.5057757959566
 30
0.0
 10
81.18799348427729
 20
-149.5057757959566
 30
0.0
 10
81.23276098313517
 20
-149.4609730181905
 30
0.0
 10
81.23276098313517
 20
-149.405869129315
 30
0.0
  0
SPLINE
  5
48
330
41
100
AcDbEntity
  8
_U+30EC_U+30A4_U+30E4_U+30FC 1
 62
     7
420
 16777215
370
     9
100
AcDbSpline
210
0.0
220
0.0
230
1.0
 70
    11
 71
     3
 72
    17
 73
    13
 74
     0
 42
0.0000000001
 43
0.0000000001
 12
1.0
 22
0.0
 32
0.0
 13
1.0
 23
0.0
 33
0.0
 40
0.0
 40
0.0
 40
0.0
 40
0.0
 40
1.0
 40
1.0
 40
1.0
 40
2.0
 40
2.0
 40
2.0
 40
3.0
 40
3.0
 40
3.0
 40
4.0
 40
4.0
 40
4.0
 40
4.0
 10
64.73281557075052
 20
-107.9055499730235
 30
0.0
 10
64.73281557075052
 20
-107.8502696952598
 30
0.0
 10
64.68804807189262
 20
-107.805466917493
 30
0.0
 10
64.63290890663268
 20
-107.805466917493
 30
0.0
 10
64.57780501914961
 20
-107.805466917493
 30
0.0
 10
64.53300224251484
 20
-107.8502696952598
 30
0.0
 10
64.53300224251484
 20
-107.9055499730235
 30
0.0
 10
64.53300224251484
 20
-107.9606891396766
 30
0.0
 10
64.57780501914961
 20
-108.0054566396652
 30
0.0
 10
64.63290890663268
 20
-108.0054566396652
 30
0.0
 10
64.68804807189262
 20
-108.0054566396652
 30
0.0
 10
64.73281557075052
 20
-107.9606891396766
 30
0.0
 10
64.73281557075052
 20
-107.9055499730235
 30
0.0
  0
POLYLINE
  5
49
330
41
100
AcDbEntity
  8
_U+30EC_U+30A4_U+30E4_U+30FC 1
 62
     7
420
 16777215
370
     9
100
AcDb2dPolyline
 66
     1
 10
0.0
 20
0.0
 30
0.0
  0
VERTEX
  5
4A
330
49
100
AcDbEntity
  8
_U+30EC_U+30A4_U+30E4_U+30FC 1
 62
     7
420
 16777215
370
     9
100
AcDbVertex
100
AcDb2dVertex
 10
81.13250154124856
 20
-149.405869129315
 30
0.0
  0
VERTEX
  5
4B
330
49
100
AcDbEntity
  8
_U+30EC_U+30A4_U+30E4_U+30FC 1
 62
     7
420
 16777215
370
     9
100
AcDbVertex
100
AcDb2dVertex
 10
106.1326978478849
 20
-149.405869129315
 30
0.0
  0
SEQEND
  5
4C
330
49
100
AcDbEntity
  8
_U+30EC_U+30A4_U+30E4_U+30FC 1
 62
     7
420
 16777215
370
     9
  0
POLYLINE
  5
4D
330
41
100
AcDbEntity
  8
_U+30EC_U+30A4_U+30E4_U+30FC 1
 62
     7
420
 16777215
370
     9
100
AcDb2dPolyline
 66
     1
 10
0.0
 20
0.0
 30
0.0
  0
VERTEX
  5
4E
330
4D
100
AcDbEntity
  8
_U+30EC_U+30A4_U+30E4_U+30FC 1
 62
     7
420
 16777215
370
     9
100
AcDbVertex
100
AcDb2dVertex
 10
81.13250154124856
 20
-147.1458688521026
 30
0.0
  0
VERTEX
  5
4F
330
4D
100
AcDbEntity
  8
_U+30EC_U+30A4_U+30E4_U+30FC 1
 62
     7
420
 16777215
370
     9
100
AcDbVertex
100
AcDb2dVertex
 10
81.13250154124856
 20
-150.4059941290653
 30
0.0
  0
SEQEND
  5
50
330
4D
100
AcDbEntity
  8
_U+30EC_U+30A4_U+30E4_U+30FC 1
 62
     7
420
 16777215
370
     9
  0
POLYLINE
  5
51
330
41
100
AcDbEntity
  8
_U+30EC_U+30A4_U+30E4_U+30FC 1
 62
     7
420
 16777215
370
     9
100
AcDb2dPolyline
 66
     1
 10
0.0
 20
0.0
 30
0.0
  0
VERTEX
  5
52
330
51
100
AcDbEntity
  8
_U+30EC_U+30A4_U+30E4_U+30FC 1
 62
     7
420
 16777215
370
     9
100
AcDbVertex
100
AcDb2dVertex
 10
106.1326978478849
 20
-147.3457174631634
 30
0.0
  0
VERTEX
  5
53
330
51
100
AcDbEntity
  8
_U+30EC_U+30A4_U+30E4_U+30FC 1
 62
     7
420
 16777215
370
     9
100
AcDbVertex
100
AcDb2dVertex
 10
106.1326978478849
 20
-150.4059941290653
 30
0.0
  0
SEQEND
  5
54
330
51
100
AcDbEntity
  8
_U+30EC_U+30A4_U+30E4_U+30FC 1
 62
     7
420
 16777215
370
     9
  0
INSERT
  5
56
330
41
100
AcDbEntity
  8
_U+30EC_U+30A4_U+30E4_U+30FC 1
100
AcDbBlockReference
  2
block 3
 10
0.0
 20
0.0
 30
0.0
  0
SPLINE
  5
5D
330
41
100
AcDbEntity
  8
_U+30EC_U+30A4_U+30E4_U+30FC 1
 62
     7
420
 16777215
370
     9
100
AcDbSpline
210
0.0
220
0.0
230
1.0
 70
    11
 71
     3
 72
    17
 73
    13
 74
     0
 42
0.0000000001
 43
0.0000000001
 12
1.0
 22
0.0
 32
0.0
 13
1.0
 23
0.0
 33
0.0
 40
0.0
 40
0.0
 40
0.0
 40
0.0
 40
1.0
 40
1.0
 40
1.0
 40
2.0
 40
2.0
 40
2.0
 40
3.0
 40
3.0
 40
3.0
 40
4.0
 40
4.0
 40
4.0
 40
4.0
 10
81.23346653867273
 20
-149.405869129315
 30
0.0
 10
81.23346653867273
 20
-149.3507299626625
 30
0.0
 10
81.18866376203796
 20
-149.3059624626733
 30
0.0
 10
81.13355987455489
 20
-149.3059624626733
 30
0.0
 10
81.07842070929493
 20
-149.3059624626733
 30
0.0
 10
81.03365321043705
 20
-149.3507299626625
 30
0.0
 10
81.03365321043705
 20
-149.405869129315
 30
0.0
 10
81.03365321043705
 20
-149.4609730181905
 30
0.0
 10
81.07842070929493
 20
-149.5057757959566
 30
0.0
 10
81.13355987455489
 20
-149.5057757959566
 30
0.0
 10
81.18866376203796
 20
-149.5057757959566
 30
0.0
 10
81.23346653867273
 20
-149.4609730181905
 30
0.0
 10
81.23346653867273
 20
-149.405869129315
 30
0.0
  0
SPLINE
  5
5E
330
41
100
AcDbEntity
  8
_U+30EC_U+30A4_U+30E4_U+30FC 1
 62
     7
420
 16777215
370
     9
100
AcDbSpline
210
0.0
220
0.0
230
1.0
 70
    11
 71
     3
 72
    17
 73
    13
 74
     0
 42
0.0000000001
 43
0.0000000001
 12
1.0
 22
0.0
 32
0.0
 13
1.0
 23
0.0
 33
0.0
 40
0.0
 40
0.0
 40
0.0
 40
0.0
 40
1.0
 40
1.0
 40
1.0
 40
2.0
 40
2.0
 40
2.0
 40
3.0
 40
3.0
 40
3.0
 40
4.0
 40
4.0
 40
4.0
 40
4.0
 10
68.73359769090428
 20
-149.405869129315
 30
0.0
 10
68.73359769090428
 20
-149.3507299626625
 30
0.0
 10
68.6888301920464
 20
-149.3059624626733
 30
0.0
 10
68.63337352679454
 20
-149.3059624626733
 30
0.0
 10
68.57823609396671
 20
-149.3059624626733
 30
0.0
 10
68.5334668626767
 20
-149.3507299626625
 30
0.0
 10
68.5334668626767
 20
-149.405869129315
 30
0.0
 10
68.5334668626767
 20
-149.4609730181905
 30
0.0
 10
68.57823609396671
 20
-149.5057757959566
 30
0.0
 10
68.63337352679454
 20
-149.5057757959566
 30
0.0
 10
68.6888301920464
 20
-149.5057757959566
 30
0.0
 10
68.73359769090428
 20
-149.4609730181905
 30
0.0
 10
68.73359769090428
 20
-149.405869129315
 30
0.0
  0
POLYLINE
  5
5F
330
41
100
AcDbEntity
  8
_U+30EC_U+30A4_U+30E4_U+30FC 1
 62
     7
420
 16777215
370
     9
100
AcDb2dPolyline
 66
     1
 10
0.0
 20
0.0
 30
0.0
  0
VERTEX
  5
60
330
5F
100
AcDbEntity
  8
_U+30EC_U+30A4_U+30E4_U+30FC 1
 62
     7
420
 16777215
370
     9
100
AcDbVertex
100
AcDb2dVertex
 10
68.63337352679454
 20
-149.405869129315
 30
0.0
  0
VERTEX
  5
61
330
5F
100
AcDbEntity
  8
_U+30EC_U+30A4_U+30E4_U+30FC 1
 62
     7
420
 16777215
370
     9
100
AcDbVertex
100
AcDb2dVertex
 10
81.13320709678611
 20
-149.405869129315
 30
0.0
  0
SEQEND
  5
62
330
5F
100
AcDbEntity
  8
_U+30EC_U+30A4_U+30E4_U+30FC 1
 62
     7
420
 16777215
370
     9
  0
POLYLINE
  5
63
330
41
100
AcDbEntity
  8
_U+30EC_U+30A4_U+30E4_U+30FC 1
 62
     7
420
 16777215
370
     9
100
AcDb2dPolyline
 66
     1
 10
0.0
 20
0.0
 30
0.0
  0
VERTEX
  5
64
330
63
100
AcDbEntity
  8
_U+30EC_U+30A4_U+30E4_U+30FC 1
 62
     7
420
 16777215
370
     9
100
AcDbVertex
100
AcDb2dVertex
 10
68.63337352679454
 20
-147.1458688521026
 30
0.0
  0
VERTEX
  5
65
330
63
100
AcDbEntity
  8
_U+30EC_U+30A4_U+30E4_U+30FC 1
 62
     7
420
 16777215
370
     9
100
AcDbVertex
100
AcDb2dVertex
 10
68.63337352679454
 20
-150.4059941290653
 30
0.0
  0
SEQEND
  5
66
330
63
100
AcDbEntity
  8
_U+30EC_U+30A4_U+30E4_U+30FC 1
 62
     7
420
 16777215
370
     9
  0
POLYLINE
  5
67
330
41
100
AcDbEntity
  8
_U+30EC_U+30A4_U+30E4_U+30FC 1
 62
     7
420
 16777215
370
     9
100
AcDb2dPolyline
 66
     1
 10
0.0
 20
0.0
 30
0.0
  0
VERTEX
  5
68
330
67
100
AcDbEntity
  8
_U+30EC_U+30A4_U+30E4_U+30FC 1
 62
     7
420
 16777215
370
     9
100
AcDbVertex
100
AcDb2dVertex
 10
81.13355987455489
 20
-147.3457174631634
 30
0.0
  0
VERTEX
  5
69
330
67
100
AcDbEntity
  8
_U+30EC_U+30A4_U+30E4_U+30FC 1
 62
     7
420
 16777215
370
     9
100
AcDbVertex
100
AcDb2dVertex
 10
81.13355987455489
 20
-150.4059941290653
 30
0.0
  0
SEQEND
  5
6A
330
67
100
AcDbEntity
  8
_U+30EC_U+30A4_U+30E4_U+30FC 1
 62
     7
420
 16777215
370
     9
  0
INSERT
  5
6C
330
41
100
AcDbEntity
  8
_U+30EC_U+30A4_U+30E4_U+30FC 1
100
AcDbBlockReference
  2
block 4
 10
0.0
 20
0.0
 30
0.0
  0
POLYLINE
  5
7D
330
41
100
AcDbEntity
  8
_U+30EC_U+30A4_U+30E4_U+30FC 1
 62
     7
420
 16777215
370
     9
100
AcDb2dPolyline
 66
     1
 10
0.0
 20
0.0
 30
0.0
  0
VERTEX
  5
7E
330
7D
100
AcDbEntity
  8
_U+30EC_U+30A4_U+30E4_U+30FC 1
 62
     7
420
 16777215
370
     9
100
AcDbVertex
100
AcDb2dVertex
 10
64.63290890663268
 20
-132.9055705223292
 30
0.0
  0
VERTEX
  5
7F
330
7D
100
AcDbEntity
  8
_U+30EC_U+30A4_U+30E4_U+30FC 1
 62
     7
420
 16777215
370
     9
100
AcDbVertex
100
AcDb2dVertex
 10
64.63290890663268
 20
-107.9055499730235
 30
0.0
  0
SEQEND
  5
80
330
7D
100
AcDbEntity
  8
_U+30EC_U+30A4_U+30E4_U+30FC 1
 62
     7
420
 16777215
370
     9
  0
POLYLINE
  5
81
330
41
100
AcDbEntity
  8
_U+30EC_U+30A4_U+30E4_U+30FC 1
 62
     7
420
 16777215
370
     9
100
AcDb2dPolyline
 66
     1
 10
0.0
 20
0.0
 30
0.0
  0
VERTEX
  5
82
330
81
100
AcDbEntity
  8
_U+30EC_U+30A4_U+30E4_U+30FC 1
 62
     7
420
 16777215
370
     9
100
AcDbVertex
100
AcDb2dVertex
 10
64.63290890663268
 20
-145.4054396858707
 30
0.0
  0
VERTEX
  5
83
330
81
100
AcDbEntity
  8
_U+30EC_U+30A4_U+30E4_U+30FC 1
 62
     7
420
 16777215
370
     9
100
AcDbVertex
100
AcDb2dVertex
 10
64.63290890663268
 20
-132.9055705223292
 30
0.0
  0
SEQEND
  5
84
330
81
100
AcDbEntity
  8
_U+30EC_U+30A4_U+30E4_U+30FC 1
 62
     7
420
 16777215
370
     9
  0
POLYLINE
  5
85
330
41
100
AcDbEntity
  8
_U+30EC_U+30A4_U+30E4_U+30FC 1
 62
     7
420
 16777215
370
     9
100
AcDb2dPolyline
 66
     1
 10
0.0
 20
0.0
 30
0.0
  0
VERTEX
  5
86
330
85
100
AcDbEntity
  8
_U+30EC_U+30A4_U+30E4_U+30FC 1
 62
     7
420
 16777215
370
     9
100
AcDbVertex
100
AcDb2dVertex
 10
66.89290912675304
 20
-132.9055705223292
 30
0.0
  0
VERTEX
  5
87
330
85
100
AcDbEntity
  8
_U+30EC_U+30A4_U+30E4_U+30FC 1
 62
     7
420
 16777215
370
     9
100
AcDbVertex
100
AcDb2dVertex
 10
63.63313670991677
 20
-132.9055705223292
 30
0.0
  0
SEQEND
  5
88
330
85
100
AcDbEntity
  8
_U+30EC_U+30A4_U+30E4_U+30FC 1
 62
     7
420
 16777215
370
     9
  0
SPLINE
  5
89
330
41
100
AcDbEntity
  8
_U+30EC_U+30A4_U+30E4_U+30FC 1
 62
     7
420
 16777215
370
     9
100
AcDbSpline
210
0.0
220
0.0
230
1.0
 70
    11
 71
     3
 72
    17
 73
    13
 74
     0
 42
0.0000000001
 43
0.0000000001
 12
1.0
 22
0.0
 32
0.0
 13
1.0
 23
0.0
 33
0.0
 40
0.0
 40
0.0
 40
0.0
 40
0.0
 40
1.0
 40
1.0
 40
1.0
 40
2.0
 40
2.0
 40
2.0
 40
3.0
 40
3.0
 40
3.0
 40
4.0
 40
4.0
 40
4.0
 40
4.0
 10
64.73281557075052
 20
-145.4054396858707
 30
0.0
 10
64.73281557075052
 20
-145.3503005192183
 30
0.0
 10
64.68804807189262
 20
-145.3054977414516
 30
0.0
 10
64.63290890663268
 20
-145.3054977414516
 30
0.0
 10
64.57780501914961
 20
-145.3054977414516
 30
0.0
 10
64.53300224251484
 20
-145.3503005192183
 30
0.0
 10
64.53300224251484
 20
-145.4054396858707
 30
0.0
 10
64.53300224251484
 20
-145.4608963525234
 30
0.0
 10
64.57780501914961
 20
-145.5053463525124
 30
0.0
 10
64.63290890663268
 20
-145.5053463525124
 30
0.0
 10
64.68804807189262
 20
-145.5053463525124
 30
0.0
 10
64.73281557075052
 20
-145.4608963525234
 30
0.0
 10
64.73281557075052
 20
-145.4054396858707
 30
0.0
  0
POLYLINE
  5
8A
330
41
100
AcDbEntity
  8
_U+30EC_U+30A4_U+30E4_U+30FC 1
 62
     7
420
 16777215
370
     9
100
AcDb2dPolyline
 66
     1
 10
0.0
 20
0.0
 30
0.0
  0
VERTEX
  5
8B
330
8A
100
AcDbEntity
  8
_U+30EC_U+30A4_U+30E4_U+30FC 1
 62
     7
420
 16777215
370
     9
100
AcDbVertex
100
AcDb2dVertex
 10
66.89290912675304
 20
-145.4054396858707
 30
0.0
  0
VERTEX
  5
8C
330
8A
100
AcDbEntity
  8
_U+30EC_U+30A4_U+30E4_U+30FC 1
 62
     7
420
 16777215
370
     9
100
AcDbVertex
100
AcDb2dVertex
 10
63.63313670991677
 20
-145.4054396858707
 30
0.0
  0
SEQEND
  5
8D
330
8A
100
AcDbEntity
  8
_U+30EC_U+30A4_U+30E4_U+30FC 1
 62
     7
420
 16777215
370
     9
  0
POLYLINE
  5
8E
330
41
100
AcDbEntity
  8
_U+30EC_U+30A4_U+30E4_U+30FC 1
 62
     7
420
 16777215
370
     9
100
AcDb2dPolyline
 66
     1
 10
0.0
 20
0.0
 30
0.0
  0
VERTEX
  5
8F
330
8E
100
AcDbEntity
  8
_U+30EC_U+30A4_U+30E4_U+30FC 1
 62
     7
420
 16777215
370
     9
100
AcDbVertex
100
AcDb2dVertex
 10
67.99325826534746
 20
-107.9055499730235
 30
0.0
  0
VERTEX
  5
90
330
8E
100
AcDbEntity
  8
_U+30EC_U+30A4_U+30E4_U+30FC 1
 62
     7
420
 16777215
370
     9
100
AcDbVertex
100
AcDb2dVertex
 10
63.63313670991677
 20
-107.9055499730235
 30
0.0
  0
SEQEND
  5
91
330
8E
100
AcDbEntity
  8
_U+30EC_U+30A4_U+30E4_U+30FC 1
 62
     7
420
 16777215
370
     9
  0
SPLINE
  5
92
330
41
100
AcDbEntity
  8
_U+30EC_U+30A4_U+30E4_U+30FC 1
 62
     7
420
 16777215
370
     9
100
AcDbSpline
210
0.0
220
0.0
230
1.0
 70
    11
 71
     3
 72
    17
 73
    13
 74
     0
 42
0.0000000001
 43
0.0000000001
 12
1.0
 22
0.0
 32
0.0
 13
1.0
 23
0.0
 33
0.0
 40
0.0
 40
0.0
 40
0.0
 40
0.0
 40
1.0
 40
1.0
 40
1.0
 40
2.0
 40
2.0
 40
2.0
 40
3.0
 40
3.0
 40
3.0
 40
4.0
 40
4.0
 40
4.0
 40
4.0
 10
69.63314572351045
 20
-104.0048508073321
 30
0.0
 10
69.57800831593893
 20
-104.0048508073321
 30
0.0
 10
69.53323905939261
 20
-103.9600480295657
 30
0.0
 10
69.53323905939261
 20
-103.9049441406904
 30
0.0
 10
69.53323905939261
 20
-103.8498049740377
 30
0.0
 10
69.57800831593893
 20
-103.8050374740488
 30
0.0
 10
69.63314572351045
 20
-103.8050374740488
 30
0.0
 10
69.68824961099352
 20
-103.8050374740488
 30
0.0
 10
69.73305238762829
 20
-103.8498049740377
 30
0.0
 10
69.73305238762829
 20
-103.9049441406904
 30
0.0
 10
69.73305238762829
 20
-103.9600480295657
 30
0.0
 10
69.68824961099352
 20
-104.0048508073321
 30
0.0
 10
69.63314572351045
 20
-104.0048508073321
 30
0.0
  0
POLYLINE
  5
93
330
41
100
AcDbEntity
  8
_U+30EC_U+30A4_U+30E4_U+30FC 1
 62
     7
420
 16777215
370
     9
100
AcDb2dPolyline
 66
     1
 10
0.0
 20
0.0
 30
0.0
  0
VERTEX
  5
94
330
93
100
AcDbEntity
  8
_U+30EC_U+30A4_U+30E4_U+30FC 1
 62
     7
420
 16777215
370
     9
100
AcDbVertex
100
AcDb2dVertex
 10
82.13297929350202
 20
-103.9049441406904
 30
0.0
  0
VERTEX
  5
95
330
93
100
AcDbEntity
  8
_U+30EC_U+30A4_U+30E4_U+30FC 1
 62
     7
420
 16777215
370
     9
100
AcDbVertex
100
AcDb2dVertex
 10
69.63314572351045
 20
-103.9049441406904
 30
0.0
  0
SEQEND
  5
96
330
93
100
AcDbEntity
  8
_U+30EC_U+30A4_U+30E4_U+30FC 1
 62
     7
420
 16777215
370
     9
  0
POLYLINE
  5
97
330
41
100
AcDbEntity
  8
_U+30EC_U+30A4_U+30E4_U+30FC 1
 62
     7
420
 16777215
370
     9
100
AcDb2dPolyline
 66
     1
 10
0.0
 20
0.0
 30
0.0
  0
VERTEX
  5
98
330
97
100
AcDbEntity
  8
_U+30EC_U+30A4_U+30E4_U+30FC 1
 62
     7
420
 16777215
370
     9
100
AcDbVertex
100
AcDb2dVertex
 10
69.63314572351045
 20
-106.165261917903
 30
0.0
  0
VERTEX
  5
99
330
97
100
AcDbEntity
  8
_U+30EC_U+30A4_U+30E4_U+30FC 1
 62
     7
420
 16777215
370
     9
100
AcDbVertex
100
AcDb2dVertex
 10
69.63314572351045
 20
-102.9051719187182
 30
0.0
  0
SEQEND
  5
9A
330
97
100
AcDbEntity
  8
_U+30EC_U+30A4_U+30E4_U+30FC 1
 62
     7
420
 16777215
370
     9
  0
SPLINE
  5
9B
330
41
100
AcDbEntity
  8
_U+30EC_U+30A4_U+30E4_U+30FC 1
 62
     7
420
 16777215
370
     9
100
AcDbSpline
210
0.0
220
0.0
230
1.0
 70
    11
 71
     3
 72
    17
 73
    13
 74
     0
 42
0.0000000001
 43
0.0000000001
 12
1.0
 22
0.0
 32
0.0
 13
1.0
 23
0.0
 33
0.0
 40
0.0
 40
0.0
 40
0.0
 40
0.0
 40
1.0
 40
1.0
 40
1.0
 40
2.0
 40
2.0
 40
2.0
 40
3.0
 40
3.0
 40
3.0
 40
4.0
 40
4.0
 40
4.0
 40
4.0
 10
82.1336495712627
 20
-104.0048508073321
 30
0.0
 10
82.07854568377962
 20
-104.0048508073321
 30
0.0
 10
82.03374290714486
 20
-103.9600480295657
 30
0.0
 10
82.03374290714486
 20
-103.9049441406904
 30
0.0
 10
82.03374290714486
 20
-103.8498049740377
 30
0.0
 10
82.07854568377962
 20
-103.8050374740488
 30
0.0
 10
82.1336495712627
 20
-103.8050374740488
 30
0.0
 10
82.18878873652264
 20
-103.8050374740488
 30
0.0
 10
82.23355831277497
 20
-103.8498049740377
 30
0.0
 10
82.23355831277497
 20
-103.9049441406904
 30
0.0
 10
82.23355831277497
 20
-103.9600480295657
 30
0.0
 10
82.18878873652264
 20
-104.0048508073321
 30
0.0
 10
82.1336495712627
 20
-104.0048508073321
 30
0.0
  0
POLYLINE
  5
9C
330
41
100
AcDbEntity
  8
_U+30EC_U+30A4_U+30E4_U+30FC 1
 62
     7
420
 16777215
370
     9
100
AcDb2dPolyline
 66
     1
 10
0.0
 20
0.0
 30
0.0
  0
VERTEX
  5
9D
330
9C
100
AcDbEntity
  8
_U+30EC_U+30A4_U+30E4_U+30FC 1
 62
     7
420
 16777215
370
     9
100
AcDbVertex
100
AcDb2dVertex
 10
82.1336495712627
 20
-130.1653691341254
 30
0.0
  0
VERTEX
  5
9E
330
9C
100
AcDbEntity
  8
_U+30EC_U+30A4_U+30E4_U+30FC 1
 62
     7
420
 16777215
370
     9
100
AcDbVertex
100
AcDb2dVertex
 10
82.1336495712627
 20
-102.9051719187182
 30
0.0
  0
SEQEND
  5
9F
330
9C
100
AcDbEntity
  8
_U+30EC_U+30A4_U+30E4_U+30FC 1
 62
     7
420
 16777215
370
     9
  0
INSERT
  5
A1
330
41
100
AcDbEntity
  8
_U+30EC_U+30A4_U+30E4_U+30FC 1
100
AcDbBlockReference
  2
block 5
 10
0.0
 20
0.0
 30
0.0
  0
INSERT
  5
A9
330
41
100
AcDbEntity
  8
_U+30EC_U+30A4_U+30E4_U+30FC 1
100
AcDbBlockReference
  2
block 6
 10
0.0
 20
0.0
 30
0.0
  0
INSERT
  5
BB
330
41
100
AcDbEntity
  8
_U+30EC_U+30A4_U+30E4_U+30FC 1
100
AcDbBlockReference
  2
block 7
 10
0.0
 20
0.0
 30
0.0
  0
INSERT
  5
CD
330
41
100
AcDbEntity
  8
_U+30EC_U+30A4_U+30E4_U+30FC 1
100
AcDbBlockReference
  2
block 8
 10
0.0
 20
0.0
 30
0.0
  0
POLYLINE
  5
DE
330
41
100
AcDbEntity
  8
_U+30EC_U+30A4_U+30E4_U+30FC 1
 62
     7
420
 16777215
370
    25
100
AcDb2dPolyline
 66
     1
 10
0.0
 20
0.0
 30
0.0
  0
VERTEX
  5
DF
330
DE
100
AcDbEntity
  8
_U+30EC_U+30A4_U+30E4_U+30FC 1
 62
     7
420
 16777215
370
    25
100
AcDbVertex
100
AcDb2dVertex
 10
82.13262651573324
 20
-144.4059849638984
 30
0.0
  0
VERTEX
  5
E0
330
DE
100
AcDbEntity
  8
_U+30EC_U+30A4_U+30E4_U+30FC 1
 62
     7
420
 16777215
370
    25
100
AcDbVertex
100
AcDb2dVertex
 10
106.1326978478849
 20
-144.4059849638984
 30
0.0
  0
VERTEX
  5
E1
330
DE
100
AcDbEntity
  8
_U+30EC_U+30A4_U+30E4_U+30FC 1
 62
     7
420
 16777215
370
    25
100
AcDbVertex
100
AcDb2dVertex
 10
106.1326978478849
 20
-144.9062238526621
 30
0.0
  0
VERTEX
  5
E2
330
DE
100
AcDbEntity
  8
_U+30EC_U+30A4_U+30E4_U+30FC 1
 62
     7
420
 16777215
370
    25
100
AcDbVertex
100
AcDb2dVertex
 10
106.1337561811912
 20
-144.9062238526621
 30
0.0
  0
VERTEX
  5
E3
330
DE
100
AcDbEntity
  8
_U+30EC_U+30A4_U+30E4_U+30FC 1
 62
     7
420
 16777215
370
    25
100
AcDbVertex
100
AcDb2dVertex
 10
81.13355987455489
 20
-145.405757185871
 30
0.0
  0
VERTEX
  5
E4
330
DE
100
AcDbEntity
  8
_U+30EC_U+30A4_U+30E4_U+30FC 1
 62
     7
420
 16777215
370
    25
100
AcDbVertex
100
AcDb2dVertex
 10
81.13355987455489
 20
-132.9055705223292
 30
0.0
  0
VERTEX
  5
E5
330
DE
100
AcDbEntity
  8
_U+30EC_U+30A4_U+30E4_U+30FC 1
 62
     7
420
 16777215
370
    25
100
AcDbVertex
100
AcDb2dVertex
 10
68.63337352679454
 20
-132.9055705223292
 30
0.0
  0
VERTEX
  5
E6
330
DE
100
AcDbEntity
  8
_U+30EC_U+30A4_U+30E4_U+30FC 1
 62
     7
420
 16777215
370
    25
100
AcDbVertex
100
AcDb2dVertex
 10
69.1332596251525
 20
-107.9055499730235
 30
0.0
  0
VERTEX
  5
E7
330
DE
100
AcDbEntity
  8
_U+30EC_U+30A4_U+30E4_U+30FC 1
 62
     7
420
 16777215
370
    25
100
AcDbVertex
100
AcDb2dVertex
 10
69.63314572351045
 20
-107.9055499730235
 30
0.0
  0
VERTEX
  5
E8
330
DE
100
AcDbEntity
  8
_U+30EC_U+30A4_U+30E4_U+30FC 1
 62
     7
420
 16777215
370
    25
100
AcDbVertex
100
AcDb2dVertex
 10
69.63314572351045
 20
-131.9051280225793
 30
0.0
  0
VERTEX
  5
E9
330
DE
100
AcDbEntity
  8
_U+30EC_U+30A4_U+30E4_U+30FC 1
 62
     7
420
 16777215
370
    25
100
AcDbVertex
100
AcDb2dVertex
 10
82.13329679349391
 20
-131.9051280225793
 30
0.0
  0
VERTEX
  5
EA
330
DE
100
AcDbEntity
  8
_U+30EC_U+30A4_U+30E4_U+30FC 1
 62
     7
420
 16777215
370
    25
100
AcDbVertex
100
AcDb2dVertex
 10
82.13329679349391
 20
-144.405314686121
 30
0.0
  0
SEQEND
  5
EB
330
DE
100
AcDbEntity
  8
_U+30EC_U+30A4_U+30E4_U+30FC 1
 62
     7
420
 16777215
370
    25
  0
SPLINE
  5
EC
330
41
100
AcDbEntity
  8
_U+30EC_U+30A4_U+30E4_U+30FC 1
 62
     7
420
 16777215
370
     9
100
AcDbSpline
210
0.0
220
0.0
230
1.0
 70
    11
 71
     3
 72
    17
 73
    13
 74
     0
 42
0.0000000001
 43
0.0000000001
 12
1.0
 22
0.0
 32
0.0
 13
1.0
 23
0.0
 33
0.0
 40
0.0
 40
0.0
 40
0.0
 40
0.0
 40
1.0
 40
1.0
 40
1.0
 40
2.0
 40
2.0
 40
2.0
 40
3.0
 40
3.0
 40
3.0
 40
4.0
 40
4.0
 40
4.0
 40
4.0
 10
110.161067189557
 20
-144.405314686121
 30
0.0
 10
110.161067189557
 20
-144.460418574996
 30
0.0
 10
110.203788577356
 20
-144.5052213527627
 30
0.0
 10
110.2564935760114
 20
-144.5052213527627
 30
0.0
 10
110.308845796898
 20
-144.5052213527627
 30
0.0
 10
110.351567184697
 20
-144.460418574996
 30
0.0
 10
110.351567184697
 20
-144.405314686121
 30
0.0
 10
110.351567184697
 20
-144.350175519468
 30
0.0
 10
110.308845796898
 20
-144.3054080194794
 30
0.0
 10
110.2564935760114
 20
-144.3054080194794
 30
0.0
 10
110.203788577356
 20
-144.3054080194794
 30
0.0
 10
110.161067189557
 20
-144.350175519468
 30
0.0
 10
110.161067189557
 20
-144.405314686121
 30
0.0
  0
POLYLINE
  5
ED
330
41
100
AcDbEntity
  8
_U+30EC_U+30A4_U+30E4_U+30FC 1
 62
     7
420
 16777215
370
     9
100
AcDb2dPolyline
 66
     1
 10
0.0
 20
0.0
 30
0.0
  0
VERTEX
  5
EE
330
ED
100
AcDbEntity
  8
_U+30EC_U+30A4_U+30E4_U+30FC 1
 62
     7
420
 16777215
370
     9
100
AcDbVertex
100
AcDb2dVertex
 10
110.2564935760114
 20
-131.9058335781349
 30
0.0
  0
VERTEX
  5
EF
330
ED
100
AcDbEntity
  8
_U+30EC_U+30A4_U+30E4_U+30FC 1
 62
     7
420
 16777215
370
     9
100
AcDbVertex
100
AcDb2dVertex
 10
110.2564935760114
 20
-144.405314686121
 30
0.0
  0
SEQEND
  5
F0
330
ED
100
AcDbEntity
  8
_U+30EC_U+30A4_U+30E4_U+30FC 1
 62
     7
420
 16777215
370
     9
  0
POLYLINE
  5
F1
330
41
100
AcDbEntity
  8
_U+30EC_U+30A4_U+30E4_U+30FC 1
 62
     7
420
 16777215
370
     9
100
AcDb2dPolyline
 66
     1
 10
0.0
 20
0.0
 30
0.0
  0
VERTEX
  5
F2
330
F1
100
AcDbEntity
  8
_U+30EC_U+30A4_U+30E4_U+30FC 1
 62
     7
420
 16777215
370
     9
100
AcDbVertex
100
AcDb2dVertex
 10
108.1050430753439
 20
-144.405314686121
 30
0.0
  0
VERTEX
  5
F3
330
F1
100
AcDbEntity
  8
_U+30EC_U+30A4_U+30E4_U+30FC 1
 62
     7
420
 16777215
370
     9
100
AcDbVertex
100
AcDb2dVertex
 10
111.2080410517354
 20
-144.405314686121
 30
0.0
  0
SEQEND
  5
F4
330
F1
100
AcDbEntity
  8
_U+30EC_U+30A4_U+30E4_U+30FC 1
 62
     7
420
 16777215
370
     9
  0
SPLINE
  5
F5
330
41
100
AcDbEntity
  8
_U+30EC_U+30A4_U+30E4_U+30FC 1
 62
     7
420
 16777215
370
     9
100
AcDbSpline
210
0.0
220
0.0
230
1.0
 70
    11
 71
     3
 72
    17
 73
    13
 74
     0
 42
0.0000000001
 43
0.0000000001
 12
1.0
 22
0.0
 32
0.0
 13
1.0
 23
0.0
 33
0.0
 40
0.0
 40
0.0
 40
0.0
 40
0.0
 40
1.0
 40
1.0
 40
1.0
 40
2.0
 40
2.0
 40
2.0
 40
3.0
 40
3.0
 40
3.0
 40
4.0
 40
4.0
 40
4.0
 40
4.0
 10
110.161067189557
 20
-131.9058335781349
 30
0.0
 10
110.161067189557
 20
-131.9609374670098
 30
0.0
 10
110.203788577356
 20
-132.0057402447765
 30
0.0
 10
110.2564935760114
 20
-132.0057402447765
 30
0.0
 10
110.308845796898
 20
-132.0057402447765
 30
0.0
 10
110.351567184697
 20
-131.9609374670098
 30
0.0
 10
110.351567184697
 20
-131.9058335781349
 30
0.0
 10
110.351567184697
 20
-131.8499888559263
 30
0.0
 10
110.308845796898
 20
-131.805891633715
 30
0.0
 10
110.2564935760114
 20
-131.805891633715
 30
0.0
 10
110.203788577356
 20
-131.805891633715
 30
0.0
 10
110.161067189557
 20
-131.8499888559263
 30
0.0
 10
110.161067189557
 20
-131.9058335781349
 30
0.0
  0
POLYLINE
  5
F6
330
41
100
AcDbEntity
  8
_U+30EC_U+30A4_U+30E4_U+30FC 1
 62
     7
420
 16777215
370
     9
100
AcDb2dPolyline
 66
     1
 10
0.0
 20
0.0
 30
0.0
  0
VERTEX
  5
F7
330
F6
100
AcDbEntity
  8
_U+30EC_U+30A4_U+30E4_U+30FC 1
 62
     7
420
 16777215
370
     9
100
AcDbVertex
100
AcDb2dVertex
 10
83.60349814487485
 20
-131.9058335781349
 30
0.0
  0
VERTEX
  5
F8
330
F6
100
AcDbEntity
  8
_U+30EC_U+30A4_U+30E4_U+30FC 1
 62
     7
420
 16777215
370
     9
100
AcDbVertex
100
AcDb2dVertex
 10
111.2080410517354
 20
-131.9058335781349
 30
0.0
  0
SEQEND
  5
F9
330
F6
100
AcDbEntity
  8
_U+30EC_U+30A4_U+30E4_U+30FC 1
 62
     7
420
 16777215
370
     9
  0
SPLINE
  5
FA
330
41
100
AcDbEntity
  8
_U+30EC_U+30A4_U+30E4_U+30FC 1
  6
AI-Linetype-1
 62
   154
420
    23468
370
    25
100
AcDbSpline
210
0.0
220
0.0
230
1.0
 70
     8
 71
     3
 72
    23
 73
    19
 74
     0
 42
0.0000000001
 43
0.0000000001
 12
1.0
 22
0.0
 32
0.0
 13
1.0
 23
0.0
 33
0.0
 40
0.0
 40
0.0
 40
0.0
 40
0.0
 40
1.0
 40
1.0
 40
1.0
 40
2.0
 40
2.0
 40
2.0
 40
3.0
 40
3.0
 40
3.0
 40
4.0
 40
4.0
 40
4.0
 40
5.0
 40
5.0
 40
5.0
 40
6.0
 40
6.0
 40
6.0
 40
6.0
 10
106.1337561811912
 20
-145.4381421858629
 30
0.0
 10
106.1337561811912
 20
-145.4381421858629
 30
0.0
 10
80.60439322138839
 20
-145.9376755190711
 30
0.0
 10
80.60439322138839
 20
-145.9376755190711
 30
0.0
 10
80.60439322138839
 20
-145.9376755190711
 30
0.0
 10
80.60439322138839
 20
-133.9277441331845
 30
0.0
 10
80.60439322138839
 20
-133.9277441331845
 30
0.0
 10
80.60439322138839
 20
-133.9277441331845
 30
0.0
 10
80.6064393324473
 20
-133.9277441331845
 30
0.0
 10
80.6064393324473
 20
-133.9277441331845
 30
0.0
 10
80.6064393324473
 20
-133.6518013554758
 30
0.0
 10
80.38253331323762
 20
-133.4278580221985
 30
0.0
 10
80.10623573409744
 20
-133.4278580221985
 30
0.0
 10
80.10623573409744
 20
-133.4278580221985
 30
0.0
 10
68.10420687362804
 20
-133.4344196888634
 30
0.0
 10
68.10420687362804
 20
-133.4344196888634
 30
0.0
 10
68.10420687362804
 20
-133.4344196888634
 30
0.0
 10
68.60409297198599
 20
-107.9055499730235
 30
0.0
 10
68.60409297198599
 20
-107.9055499730235
 30
0.0
  0
INSERT
  5
FD
330
41
100
AcDbEntity
  8
_U+30EC_U+30A4_U+30E4_U+30FC 1
100
AcDbBlockReference
  2
block 9
 10
0.0
 20
0.0
 30
0.0
  0
POLYLINE
  5
13C
330
41
100
AcDbEntity
  8
_U+30EC_U+30A4_U+30E4_U+30FC 1
 62
   179
420
  2234388
370
     9
100
AcDb2dPolyline
 66
     1
 10
0.0
 20
0.0
 30
0.0
  0
VERTEX
  5
13D
330
13C
100
AcDbEntity
  8
_U+30EC_U+30A4_U+30E4_U+30FC 1
 62
   179
420
  2234388
370
     9
100
AcDbVertex
100
AcDb2dVertex
 10
101.6020787968039
 20
-145.7065355191291
 30
0.0
  0
VERTEX
  5
13E
330
13C
100
AcDbEntity
  8
_U+30EC_U+30A4_U+30E4_U+30FC 1
 62
   179
420
  2234388
370
     9
100
AcDbVertex
100
AcDb2dVertex
 10
107.1293656002355
 20
-155.7858552388314
 30
0.0
  0
VERTEX
  5
13F
330
13C
100
AcDbEntity
  8
_U+30EC_U+30A4_U+30E4_U+30FC 1
 62
   179
420
  2234388
370
     9
100
AcDbVertex
100
AcDb2dVertex
 10
117.7719653287202
 20
-155.7858552388314
 30
0.0
  0
SEQEND
  5
140
330
13C
100
AcDbEntity
  8
_U+30EC_U+30A4_U+30E4_U+30FC 1
 62
   179
420
  2234388
370
     9
  0
ENDBLK
  5
44
330
41
100
AcDbEntity
  8
0
100
AcDbBlockEnd
  0
BLOCK
  5
57
330
55
100
AcDbEntity
  8
0
100
AcDbBlockBegin
  2
block 3
 70
     0
 10
0.0
 20
0.0
 30
0.0
  3
block 3
  1

  0
SPLINE
  5
59
330
55
100
AcDbEntity
  8
_U+30EC_U+30A4_U+30E4_U+30FC 1
370
     0
100
AcDbSpline
210
0.0
220
0.0
230
1.0
 70
    11
 71
     3
 72
    44
 73
    40
 74
     0
 42
0.0000000001
 43
0.0000000001
 12
1.0
 22
0.0
 32
0.0
 13
1.0
 23
0.0
 33
0.0
 40
0.0
 40
0.0
 40
0.0
 40
0.0
 40
1.0
 40
1.0
 40
1.0
 40
2.0
 40
2.0
 40
2.0
 40
3.0
 40
3.0
 40
3.0
 40
4.0
 40
4.0
 40
4.0
 40
5.0
 40
5.0
 40
5.0
 40
6.0
 40
6.0
 40
6.0
 40
7.0
 40
7.0
 40
7.0
 40
8.0
 40
8.0
 40
8.0
 40
9.0
 40
9.0
 40
9.0
 40
10.0
 40
10.0
 40
10.0
 40
11.0
 40
11.0
 40
11.0
 40
12.0
 40
12.0
 40
12.0
 40
13.0
 40
13.0
 40
13.0
 40
13.0
 10
93.0561631711804
 20
-148.110856082764
 30
0.0
 10
92.83843313651262
 20
-148.269674984634
 30
0.0
 10
92.74541555841087
 20
-148.3437445375668
 30
0.0
 10
92.69649520252032
 20
-148.4874050193018
 30
0.0
 10
92.69649520252032
 20
-148.4874050193018
 30
0.0
 10
93.47508678218679
 20
-148.4874050193018
 30
0.0
 10
93.47508678218679
 20
-148.4874050193018
 30
0.0
 10
93.47508678218679
 20
-148.4874050193018
 30
0.0
 10
93.47508678218679
 20
-148.6927327102227
 30
0.0
 10
93.47508678218679
 20
-148.6927327102227
 30
0.0
 10
93.47508678218679
 20
-148.6927327102227
 30
0.0
 10
92.44707028938824
 20
-148.6927327102227
 30
0.0
 10
92.44707028938824
 20
-148.6927327102227
 30
0.0
 10
92.47876516785253
 20
-148.3351317988537
 30
0.0
 10
92.54422198207229
 20
-148.2569281313386
 30
0.0
 10
92.92938365732321
 20
-147.9585828623159
 30
0.0
 10
93.18535425187727
 20
-147.759800852817
 30
0.0
 10
93.25081106609703
 20
-147.6919324717576
 30
0.0
 10
93.25081106609703
 20
-147.5544731618961
 30
0.0
 10
93.25081106609703
 20
-147.4359618772035
 30
0.0
 10
93.1788085704553
 20
-147.305048248764
 30
0.0
 10
92.98209361824753
 20
-147.305048248764
 30
0.0
 10
92.72198890911118
 20
-147.305048248764
 30
0.0
 10
92.71337617039805
 20
-147.5355251367272
 30
0.0
 10
92.70924205581575
 20
-147.6519693641287
 30
0.0
 10
92.70924205581575
 20
-147.6519693641287
 30
0.0
 10
92.48496633972599
 20
-147.6519693641287
 30
0.0
 10
92.48496633972599
 20
-147.6519693641287
 30
0.0
 10
92.49357907843911
 20
-147.524845340723
 30
0.0
 10
92.50425887444338
 20
-147.4128797374523
 30
0.0
 10
92.5845295992497
 20
-147.2943684527598
 30
0.0
 10
92.69442814522918
 20
-147.1334824935986
 30
0.0
 10
92.8808078109812
 20
-147.0997205578431
 30
0.0
 10
92.99690752883411
 20
-147.0997205578431
 30
0.0
 10
93.27423771539672
 20
-147.0997205578431
 30
0.0
 10
93.48163246360876
 20
-147.2836886567555
 30
0.0
 10
93.48163246360876
 20
-147.5565402191873
 30
0.0
 10
93.48163246360876
 20
-147.7852945594078
 30
0.0
 10
93.36518823620732
 20
-147.884513309383
 30
0.0
 10
93.0561631711804
 20
-148.110856082764
 30
0.0
  0
HATCH
  5
5A
330
55
100
AcDbEntity
  8
_U+30EC_U+30A4_U+30E4_U+30FC 1
 62
     7
420
 16777215
100
AcDbHatch
 10
0.0
 20
0.0
 30
0.0
210
0.0
220
0.0
230
1.0
  2
SOLID
 70
     1
 71
     0
 91
        1
 92
        1
 93
        1
 72
     4
 94
        3
 73
     0
 74
     1
 95
       44
 96
       40
 40
0.0
 40
0.0
 40
0.0
 40
0.0
 40
1.0
 40
1.0
 40
1.0
 40
2.0
 40
2.0
 40
2.0
 40
3.0
 40
3.0
 40
3.0
 40
4.0
 40
4.0
 40
4.0
 40
5.0
 40
5.0
 40
5.0
 40
6.0
 40
6.0
 40
6.0
 40
7.0
 40
7.0
 40
7.0
 40
8.0
 40
8.0
 40
8.0
 40
9.0
 40
9.0
 40
9.0
 40
10.0
 40
10.0
 40
10.0
 40
11.0
 40
11.0
 40
11.0
 40
12.0
 40
12.0
 40
12.0
 40
13.0
 40
13.0
 40
13.0
 40
13.0
 10
93.0561631711804
 20
-148.110856082764
 10
92.83843313651262
 20
-148.269674984634
 10
92.74541555841087
 20
-148.3437445375668
 10
92.69649520252032
 20
-148.4874050193018
 10
92.69649520252032
 20
-148.4874050193018
 10
93.47508678218679
 20
-148.4874050193018
 10
93.47508678218679
 20
-148.4874050193018
 10
93.47508678218679
 20
-148.4874050193018
 10
93.47508678218679
 20
-148.6927327102227
 10
93.47508678218679
 20
-148.6927327102227
 10
93.47508678218679
 20
-148.6927327102227
 10
92.44707028938824
 20
-148.6927327102227
 10
92.44707028938824
 20
-148.6927327102227
 10
92.47876516785253
 20
-148.3351317988537
 10
92.54422198207229
 20
-148.2569281313386
 10
92.92938365732321
 20
-147.9585828623159
 10
93.18535425187727
 20
-147.759800852817
 10
93.25081106609703
 20
-147.6919324717576
 10
93.25081106609703
 20
-147.5544731618961
 10
93.25081106609703
 20
-147.4359618772035
 10
93.1788085704553
 20
-147.305048248764
 10
92.98209361824753
 20
-147.305048248764
 10
92.72198890911118
 20
-147.305048248764
 10
92.71337617039805
 20
-147.5355251367272
 10
92.70924205581575
 20
-147.6519693641287
 10
92.70924205581575
 20
-147.6519693641287
 10
92.48496633972599
 20
-147.6519693641287
 10
92.48496633972599
 20
-147.6519693641287
 10
92.49357907843911
 20
-147.524845340723
 10
92.50425887444338
 20
-147.4128797374523
 10
92.5845295992497
 20
-147.2943684527598
 10
92.69442814522918
 20
-147.1334824935986
 10
92.8808078109812
 20
-147.0997205578431
 10
92.99690752883411
 20
-147.0997205578431
 10
93.27423771539672
 20
-147.0997205578431
 10
93.48163246360876
 20
-147.2836886567555
 10
93.48163246360876
 20
-147.5565402191873
 10
93.48163246360876
 20
-147.7852945594078
 10
93.36518823620732
 20
-147.884513309383
 10
93.0561631711804
 20
-148.110856082764
 97
        0
 97
        0
 75
     2
 76
     1
 98
        0
  0
SPLINE
  5
5B
330
55
100
AcDbEntity
  8
_U+30EC_U+30A4_U+30E4_U+30FC 1
370
     0
100
AcDbSpline
210
0.0
220
0.0
230
1.0
 70
    11
 71
     3
 72
    53
 73
    49
 74
     0
 42
0.0000000001
 43
0.0000000001
 12
1.0
 22
0.0
 32
0.0
 13
1.0
 23
0.0
 33
0.0
 40
0.0
 40
0.0
 40
0.0
 40
0.0
 40
1.0
 40
1.0
 40
1.0
 40
2.0
 40
2.0
 40
2.0
 40
3.0
 40
3.0
 40
3.0
 40
4.0
 40
4.0
 40
4.0
 40
5.0
 40
5.0
 40
5.0
 40
6.0
 40
6.0
 40
6.0
 40
7.0
 40
7.0
 40
7.0
 40
8.0
 40
8.0
 40
8.0
 40
9.0
 40
9.0
 40
9.0
 40
10.0
 40
10.0
 40
10.0
 40
11.0
 40
11.0
 40
11.0
 40
12.0
 40
12.0
 40
12.0
 40
13.0
 40
13.0
 40
13.0
 40
14.0
 40
14.0
 40
14.0
 40
15.0
 40
15.0
 40
15.0
 40
16.0
 40
16.0
 40
16.0
 40
16.0
 10
94.12104218567113
 20
-148.7433756138558
 30
0.0
 10
94.04283851815596
 20
-148.7433756138558
 30
0.0
 10
93.9412082013411
 20
-148.7264946459781
 30
0.0
 10
93.83957788452622
 20
-148.6631048890495
 30
0.0
 10
93.66628958161816
 20
-148.55320634307
 30
0.0
 10
93.64492998960961
 20
-148.421948205082
 30
0.0
 10
93.62598196444073
 20
-148.3141167163937
 30
0.0
 10
93.62598196444073
 20
-148.3141167163937
 30
0.0
 10
93.84819062323935
 20
-148.3141167163937
 30
0.0
 10
93.84819062323935
 20
-148.3141167163937
 30
0.0
 10
93.90296764145482
 20
-148.5128987258926
 30
0.0
 10
94.03009166486054
 20
-148.5425265470658
 30
0.0
 10
94.12310924296229
 20
-148.5425265470658
 30
0.0
 10
94.2626356101149
 20
-148.5425265470658
 30
0.0
 10
94.41490883056295
 20
-148.4429632875421
 30
0.0
 10
94.41490883056295
 20
-148.2104193422877
 30
0.0
 10
94.41490883056295
 20
-147.9544487477336
 30
0.0
 10
94.2350748462329
 20
-147.884513309383
 30
0.0
 10
94.11449650424916
 20
-147.884513309383
 30
0.0
 10
94.08280162578485
 20
-147.884513309383
 30
0.0
 10
93.9412082013411
 20
-147.884513309383
 30
0.0
 10
93.85232473782165
 20
-148.0137043900799
 30
0.0
 10
93.85232473782165
 20
-148.0137043900799
 30
0.0
 10
93.6766248680739
 20
-147.994756364911
 30
0.0
 10
93.6766248680739
 20
-147.994756364911
 30
0.0
 10
93.6766248680739
 20
-147.994756364911
 30
0.0
 10
93.79720321005765
 20
-147.1482964041851
 30
0.0
 10
93.79720321005765
 20
-147.1482964041851
 30
0.0
 10
93.79720321005765
 20
-147.1482964041851
 30
0.0
 10
94.57579478972411
 20
-147.1482964041851
 30
0.0
 10
94.57579478972411
 20
-147.1482964041851
 30
0.0
 10
94.57579478972411
 20
-147.1482964041851
 30
0.0
 10
94.57579478972411
 20
-147.3429442991018
 30
0.0
 10
94.57579478972411
 20
-147.3429442991018
 30
0.0
 10
94.57579478972411
 20
-147.3429442991018
 30
0.0
 10
93.96015622650997
 20
-147.3429442991018
 30
0.0
 10
93.96015622650997
 20
-147.3429442991018
 30
0.0
 10
93.96015622650997
 20
-147.3429442991018
 30
0.0
 10
93.89469941229022
 20
-147.7660020246904
 30
0.0
 10
93.89469941229022
 20
-147.7660020246904
 30
0.0
 10
93.95602211192767
 20
-147.732240088935
 30
0.0
 10
94.03835989402513
 20
-147.6919324717576
 30
0.0
 10
94.15687117871774
 20
-147.6919324717576
 30
0.0
 10
94.41077471598065
 20
-147.6919324717576
 30
0.0
 10
94.64779728536583
 20
-147.8783121375096
 30
0.0
 10
94.64779728536583
 20
-148.1914713171188
 30
0.0
 10
94.64779728536583
 20
-148.5087646113103
 30
0.0
 10
94.42352156927606
 20
-148.7433756138558
 30
0.0
 10
94.12104218567113
 20
-148.7433756138558
 30
0.0
  0
HATCH
  5
5C
330
55
100
AcDbEntity
  8
_U+30EC_U+30A4_U+30E4_U+30FC 1
 62
     7
420
 16777215
100
AcDbHatch
 10
0.0
 20
0.0
 30
0.0
210
0.0
220
0.0
230
1.0
  2
SOLID
 70
     1
 71
     0
 91
        1
 92
        1
 93
        1
 72
     4
 94
        3
 73
     0
 74
     1
 95
       53
 96
       49
 40
0.0
 40
0.0
 40
0.0
 40
0.0
 40
1.0
 40
1.0
 40
1.0
 40
2.0
 40
2.0
 40
2.0
 40
3.0
 40
3.0
 40
3.0
 40
4.0
 40
4.0
 40
4.0
 40
5.0
 40
5.0
 40
5.0
 40
6.0
 40
6.0
 40
6.0
 40
7.0
 40
7.0
 40
7.0
 40
8.0
 40
8.0
 40
8.0
 40
9.0
 40
9.0
 40
9.0
 40
10.0
 40
10.0
 40
10.0
 40
11.0
 40
11.0
 40
11.0
 40
12.0
 40
12.0
 40
12.0
 40
13.0
 40
13.0
 40
13.0
 40
14.0
 40
14.0
 40
14.0
 40
15.0
 40
15.0
 40
15.0
 40
16.0
 40
16.0
 40
16.0
 40
16.0
 10
94.12104218567113
 20
-148.7433756138558
 10
94.04283851815596
 20
-148.7433756138558
 10
93.9412082013411
 20
-148.7264946459781
 10
93.83957788452622
 20
-148.6631048890495
 10
93.66628958161816
 20
-148.55320634307
 10
93.64492998960961
 20
-148.421948205082
 10
93.62598196444073
 20
-148.3141167163937
 10
93.62598196444073
 20
-148.3141167163937
 10
93.84819062323935
 20
-148.3141167163937
 10
93.84819062323935
 20
-148.3141167163937
 10
93.90296764145482
 20
-148.5128987258926
 10
94.03009166486054
 20
-148.5425265470658
 10
94.12310924296229
 20
-148.5425265470658
 10
94.2626356101149
 20
-148.5425265470658
 10
94.41490883056295
 20
-148.4429632875421
 10
94.41490883056295
 20
-148.2104193422877
 10
94.41490883056295
 20
-147.9544487477336
 10
94.2350748462329
 20
-147.884513309383
 10
94.11449650424916
 20
-147.884513309383
 10
94.08280162578485
 20
-147.884513309383
 10
93.9412082013411
 20
-147.884513309383
 10
93.85232473782165
 20
-148.0137043900799
 10
93.85232473782165
 20
-148.0137043900799
 10
93.6766248680739
 20
-147.994756364911
 10
93.6766248680739
 20
-147.994756364911
 10
93.6766248680739
 20
-147.994756364911
 10
93.79720321005765
 20
-147.1482964041851
 10
93.79720321005765
 20
-147.1482964041851
 10
93.79720321005765
 20
-147.1482964041851
 10
94.57579478972411
 20
-147.1482964041851
 10
94.57579478972411
 20
-147.1482964041851
 10
94.57579478972411
 20
-147.1482964041851
 10
94.57579478972411
 20
-147.3429442991018
 10
94.57579478972411
 20
-147.3429442991018
 10
94.57579478972411
 20
-147.3429442991018
 10
93.96015622650997
 20
-147.3429442991018
 10
93.96015622650997
 20
-147.3429442991018
 10
93.96015622650997
 20
-147.3429442991018
 10
93.89469941229022
 20
-147.7660020246904
 10
93.89469941229022
 20
-147.7660020246904
 10
93.95602211192767
 20
-147.732240088935
 10
94.03835989402513
 20
-147.6919324717576
 10
94.15687117871774
 20
-147.6919324717576
 10
94.41077471598065
 20
-147.6919324717576
 10
94.64779728536583
 20
-147.8783121375096
 10
94.64779728536583
 20
-148.1914713171188
 10
94.64779728536583
 20
-148.5087646113103
 10
94.42352156927606
 20
-148.7433756138558
 10
94.12104218567113
 20
-148.7433756138558
 97
        0
 97
        0
 75
     2
 76
     1
 98
        0
  0
ENDBLK
  5
58
330
55
100
AcDbEntity
  8
0
100
AcDbBlockEnd
  0
BLOCK
  5
6D
330
6B
100
AcDbEntity
  8
0
100
AcDbBlockBegin
  2
block 4
 70
     0
 10
0.0
 20
0.0
 30
0.0
  3
block 4
  1

  0
SPLINE
  5
6F
330
6B
100
AcDbEntity
  8
_U+30EC_U+30A4_U+30E4_U+30FC 1
370
     0
100
AcDbSpline
210
0.0
220
0.0
230
1.0
 70
    11
 71
     3
 72
    26
 73
    22
 74
     0
 42
0.0000000001
 43
0.0000000001
 12
1.0
 22
0.0
 32
0.0
 13
1.0
 23
0.0
 33
0.0
 40
0.0
 40
0.0
 40
0.0
 40
0.0
 40
1.0
 40
1.0
 40
1.0
 40
2.0
 40
2.0
 40
2.0
 40
3.0
 40
3.0
 40
3.0
 40
4.0
 40
4.0
 40
4.0
 40
5.0
 40
5.0
 40
5.0
 40
6.0
 40
6.0
 40
6.0
 40
7.0
 40
7.0
 40
7.0
 40
7.0
 10
73.38380667653253
 20
-148.6927327102227
 30
0.0
 10
73.38380667653253
 20
-148.6927327102227
 30
0.0
 10
73.38380667653253
 20
-147.5885796072001
 30
0.0
 10
73.38380667653253
 20
-147.5885796072001
 30
0.0
 10
73.38380667653253
 20
-147.5885796072001
 30
0.0
 10
73.05376652904559
 20
-147.5885796072001
 30
0.0
 10
73.05376652904559
 20
-147.5885796072001
 30
0.0
 10
73.05376652904559
 20
-147.5885796072001
 30
0.0
 10
73.05376652904559
 20
-147.4404405013343
 30
0.0
 10
73.05376652904559
 20
-147.4404405013343
 30
0.0
 10
73.38587373382367
 20
-147.4256265907478
 30
0.0
 10
73.43238252287455
 20
-147.2626735742955
 30
0.0
 10
73.4620103440477
 20
-147.1482964041851
 30
0.0
 10
73.4620103440477
 20
-147.1482964041851
 30
0.0
 10
73.6080823926223
 20
-147.1482964041851
 30
0.0
 10
73.6080823926223
 20
-147.1482964041851
 30
0.0
 10
73.6080823926223
 20
-147.1482964041851
 30
0.0
 10
73.6080823926223
 20
-148.6927327102227
 30
0.0
 10
73.6080823926223
 20
-148.6927327102227
 30
0.0
 10
73.6080823926223
 20
-148.6927327102227
 30
0.0
 10
73.38380667653253
 20
-148.6927327102227
 30
0.0
 10
73.38380667653253
 20
-148.6927327102227
 30
0.0
  0
HATCH
  5
70
330
6B
100
AcDbEntity
  8
_U+30EC_U+30A4_U+30E4_U+30FC 1
 62
     7
420
 16777215
100
AcDbHatch
 10
0.0
 20
0.0
 30
0.0
210
0.0
220
0.0
230
1.0
  2
SOLID
 70
     1
 71
     0
 91
        1
 92
        1
 93
        1
 72
     4
 94
        3
 73
     0
 74
     1
 95
       26
 96
       22
 40
0.0
 40
0.0
 40
0.0
 40
0.0
 40
1.0
 40
1.0
 40
1.0
 40
2.0
 40
2.0
 40
2.0
 40
3.0
 40
3.0
 40
3.0
 40
4.0
 40
4.0
 40
4.0
 40
5.0
 40
5.0
 40
5.0
 40
6.0
 40
6.0
 40
6.0
 40
7.0
 40
7.0
 40
7.0
 40
7.0
 10
73.38380667653253
 20
-148.6927327102227
 10
73.38380667653253
 20
-148.6927327102227
 10
73.38380667653253
 20
-147.5885796072001
 10
73.38380667653253
 20
-147.5885796072001
 10
73.38380667653253
 20
-147.5885796072001
 10
73.05376652904559
 20
-147.5885796072001
 10
73.05376652904559
 20
-147.5885796072001
 10
73.05376652904559
 20
-147.5885796072001
 10
73.05376652904559
 20
-147.4404405013343
 10
73.05376652904559
 20
-147.4404405013343
 10
73.38587373382367
 20
-147.4256265907478
 10
73.43238252287455
 20
-147.2626735742955
 10
73.4620103440477
 20
-147.1482964041851
 10
73.4620103440477
 20
-147.1482964041851
 10
73.6080823926223
 20
-147.1482964041851
 10
73.6080823926223
 20
-147.1482964041851
 10
73.6080823926223
 20
-147.1482964041851
 10
73.6080823926223
 20
-148.6927327102227
 10
73.6080823926223
 20
-148.6927327102227
 10
73.6080823926223
 20
-148.6927327102227
 10
73.38380667653253
 20
-148.6927327102227
 10
73.38380667653253
 20
-148.6927327102227
 97
        0
 97
        0
 75
     2
 76
     1
 98
        0
  0
SPLINE
  5
71
330
6B
100
AcDbEntity
  8
_U+30EC_U+30A4_U+30E4_U+30FC 1
370
     0
100
AcDbSpline
210
0.0
220
0.0
230
1.0
 70
    11
 71
     3
 72
    44
 73
    40
 74
     0
 42
0.0000000001
 43
0.0000000001
 12
1.0
 22
0.0
 32
0.0
 13
1.0
 23
0.0
 33
0.0
 40
0.0
 40
0.0
 40
0.0
 40
0.0
 40
1.0
 40
1.0
 40
1.0
 40
2.0
 40
2.0
 40
2.0
 40
3.0
 40
3.0
 40
3.0
 40
4.0
 40
4.0
 40
4.0
 40
5.0
 40
5.0
 40
5.0
 40
6.0
 40
6.0
 40
6.0
 40
7.0
 40
7.0
 40
7.0
 40
8.0
 40
8.0
 40
8.0
 40
9.0
 40
9.0
 40
9.0
 40
10.0
 40
10.0
 40
10.0
 40
11.0
 40
11.0
 40
11.0
 40
12.0
 40
12.0
 40
12.0
 40
13.0
 40
13.0
 40
13.0
 40
13.0
 10
74.70224471873763
 20
-148.110856082764
 30
0.0
 10
74.48451468406985
 20
-148.269674984634
 30
0.0
 10
74.3914971059681
 20
-148.3437445375668
 30
0.0
 10
74.34257675007755
 20
-148.4874050193018
 30
0.0
 10
74.34257675007755
 20
-148.4874050193018
 30
0.0
 10
75.12116832974402
 20
-148.4874050193018
 30
0.0
 10
75.12116832974402
 20
-148.4874050193018
 30
0.0
 10
75.12116832974402
 20
-148.4874050193018
 30
0.0
 10
75.12116832974402
 20
-148.6927327102227
 30
0.0
 10
75.12116832974402
 20
-148.6927327102227
 30
0.0
 10
75.12116832974402
 20
-148.6927327102227
 30
0.0
 10
74.09315183694547
 20
-148.6927327102227
 30
0.0
 10
74.09315183694547
 20
-148.6927327102227
 30
0.0
 10
74.12484671540976
 20
-148.3351317988537
 30
0.0
 10
74.19030352962952
 20
-148.2569281313386
 30
0.0
 10
74.57546520488044
 20
-147.9585828623159
 30
0.0
 10
74.8314357994345
 20
-147.759800852817
 30
0.0
 10
74.89689261365426
 20
-147.6919324717576
 30
0.0
 10
74.89689261365426
 20
-147.5544731618961
 30
0.0
 10
74.89689261365426
 20
-147.4359618772035
 30
0.0
 10
74.82489011801253
 20
-147.305048248764
 30
0.0
 10
74.62817516580476
 20
-147.305048248764
 30
0.0
 10
74.3680704566684
 20
-147.305048248764
 30
0.0
 10
74.35945771795528
 20
-147.5355251367272
 30
0.0
 10
74.35532360337298
 20
-147.6519693641287
 30
0.0
 10
74.35532360337298
 20
-147.6519693641287
 30
0.0
 10
74.13104788728322
 20
-147.6519693641287
 30
0.0
 10
74.13104788728322
 20
-147.6519693641287
 30
0.0
 10
74.13966062599634
 20
-147.524845340723
 30
0.0
 10
74.15034042200061
 20
-147.4128797374523
 30
0.0
 10
74.23061114680694
 20
-147.2943684527598
 30
0.0
 10
74.3405096927864
 20
-147.1334824935986
 30
0.0
 10
74.52688935853843
 20
-147.0997205578431
 30
0.0
 10
74.64298907639134
 20
-147.0997205578431
 30
0.0
 10
74.92031926295395
 20
-147.0997205578431
 30
0.0
 10
75.12771401116599
 20
-147.2836886567555
 30
0.0
 10
75.12771401116599
 20
-147.5565402191873
 30
0.0
 10
75.12771401116599
 20
-147.7852945594078
 30
0.0
 10
75.01126978376455
 20
-147.884513309383
 30
0.0
 10
74.70224471873763
 20
-148.110856082764
 30
0.0
  0
HATCH
  5
72
330
6B
100
AcDbEntity
  8
_U+30EC_U+30A4_U+30E4_U+30FC 1
 62
     7
420
 16777215
100
AcDbHatch
 10
0.0
 20
0.0
 30
0.0
210
0.0
220
0.0
230
1.0
  2
SOLID
 70
     1
 71
     0
 91
        1
 92
        1
 93
        1
 72
     4
 94
        3
 73
     0
 74
     1
 95
       44
 96
       40
 40
0.0
 40
0.0
 40
0.0
 40
0.0
 40
1.0
 40
1.0
 40
1.0
 40
2.0
 40
2.0
 40
2.0
 40
3.0
 40
3.0
 40
3.0
 40
4.0
 40
4.0
 40
4.0
 40
5.0
 40
5.0
 40
5.0
 40
6.0
 40
6.0
 40
6.0
 40
7.0
 40
7.0
 40
7.0
 40
8.0
 40
8.0
 40
8.0
 40
9.0
 40
9.0
 40
9.0
 40
10.0
 40
10.0
 40
10.0
 40
11.0
 40
11.0
 40
11.0
 40
12.0
 40
12.0
 40
12.0
 40
13.0
 40
13.0
 40
13.0
 40
13.0
 10
74.70224471873763
 20
-148.110856082764
 10
74.48451468406985
 20
-148.269674984634
 10
74.3914971059681
 20
-148.3437445375668
 10
74.34257675007755
 20
-148.4874050193018
 10
74.34257675007755
 20
-148.4874050193018
 10
75.12116832974402
 20
-148.4874050193018
 10
75.12116832974402
 20
-148.4874050193018
 10
75.12116832974402
 20
-148.4874050193018
 10
75.12116832974402
 20
-148.6927327102227
 10
75.12116832974402
 20
-148.6927327102227
 10
75.12116832974402
 20
-148.6927327102227
 10
74.09315183694547
 20
-148.6927327102227
 10
74.09315183694547
 20
-148.6927327102227
 10
74.12484671540976
 20
-148.3351317988537
 10
74.19030352962952
 20
-148.2569281313386
 10
74.57546520488044
 20
-147.9585828623159
 10
74.8314357994345
 20
-147.759800852817
 10
74.89689261365426
 20
-147.6919324717576
 10
74.89689261365426
 20
-147.5544731618961
 10
74.89689261365426
 20
-147.4359618772035
 10
74.82489011801253
 20
-147.305048248764
 10
74.62817516580476
 20
-147.305048248764
 10
74.3680704566684
 20
-147.305048248764
 10
74.35945771795528
 20
-147.5355251367272
 10
74.35532360337298
 20
-147.6519693641287
 10
74.35532360337298
 20
-147.6519693641287
 10
74.13104788728322
 20
-147.6519693641287
 10
74.13104788728322
 20
-147.6519693641287
 10
74.13966062599634
 20
-147.524845340723
 10
74.15034042200061
 20
-147.4128797374523
 10
74.23061114680694
 20
-147.2943684527598
 10
74.3405096927864
 20
-147.1334824935986
 10
74.52688935853843
 20
-147.0997205578431
 10
74.64298907639134
 20
-147.0997205578431
 10
74.92031926295395
 20
-147.0997205578431
 10
75.12771401116599
 20
-147.2836886567555
 10
75.12771401116599
 20
-147.5565402191873
 10
75.12771401116599
 20
-147.7852945594078
 10
75.01126978376455
 20
-147.884513309383
 10
74.70224471873763
 20
-148.110856082764
 97
        0
 97
        0
 75
     2
 76
     1
 98
        0
  0
POLYLINE
  5
73
330
6B
100
AcDbEntity
  8
_U+30EC_U+30A4_U+30E4_U+30FC 1
370
     0
100
AcDb2dPolyline
 66
     1
 10
0.0
 20
0.0
 30
0.0
  0
VERTEX
  5
74
330
73
100
AcDbEntity
  8
_U+30EC_U+30A4_U+30E4_U+30FC 1
370
     0
100
AcDbVertex
100
AcDb2dVertex
 10
75.34613306493083
 20
-148.6927327102227
 30
0.0
  0
VERTEX
  5
75
330
73
100
AcDbEntity
  8
_U+30EC_U+30A4_U+30E4_U+30FC 1
370
     0
100
AcDbVertex
100
AcDb2dVertex
 10
75.34613306493083
 20
-148.4408962302509
 30
0.0
  0
VERTEX
  5
76
330
73
100
AcDbEntity
  8
_U+30EC_U+30A4_U+30E4_U+30FC 1
370
     0
100
AcDbVertex
100
AcDb2dVertex
 10
75.5979695449026
 20
-148.4408962302509
 30
0.0
  0
VERTEX
  5
77
330
73
100
AcDbEntity
  8
_U+30EC_U+30A4_U+30E4_U+30FC 1
370
     0
100
AcDbVertex
100
AcDb2dVertex
 10
75.5979695449026
 20
-148.6927327102227
 30
0.0
  0
VERTEX
  5
78
330
73
100
AcDbEntity
  8
_U+30EC_U+30A4_U+30E4_U+30FC 1
370
     0
100
AcDbVertex
100
AcDb2dVertex
 10
75.34613306493083
 20
-148.6927327102227
 30
0.0
  0
SEQEND
  5
79
330
73
100
AcDbEntity
  8
_U+30EC_U+30A4_U+30E4_U+30FC 1
370
     0
  0
HATCH
  5
7A
330
6B
100
AcDbEntity
  8
_U+30EC_U+30A4_U+30E4_U+30FC 1
 62
     7
420
 16777215
100
AcDbHatch
 10
0.0
 20
0.0
 30
0.0
210
0.0
220
0.0
230
1.0
  2
SOLID
 70
     1
 71
     0
 91
        1
 92
        1
 93
        4
 72
     1
 10
75.34613306493083
 20
-148.6927327102227
 11
75.34613306493083
 21
-148.4408962302509
 72
     1
 10
75.34613306493083
 20
-148.4408962302509
 11
75.5979695449026
 21
-148.4408962302509
 72
     1
 10
75.5979695449026
 20
-148.4408962302509
 11
75.5979695449026
 21
-148.6927327102227
 72
     1
 10
75.5979695449026
 20
-148.6927327102227
 11
75.34613306493083
 21
-148.6927327102227
 97
        0
 75
     2
 76
     1
 98
        0
  0
SPLINE
  5
7B
330
6B
100
AcDbEntity
  8
_U+30EC_U+30A4_U+30E4_U+30FC 1
370
     0
100
AcDbSpline
210
0.0
220
0.0
230
1.0
 70
    11
 71
     3
 72
    53
 73
    49
 74
     0
 42
0.0000000001
 43
0.0000000001
 12
1.0
 22
0.0
 32
0.0
 13
1.0
 23
0.0
 33
0.0
 40
0.0
 40
0.0
 40
0.0
 40
0.0
 40
1.0
 40
1.0
 40
1.0
 40
2.0
 40
2.0
 40
2.0
 40
3.0
 40
3.0
 40
3.0
 40
4.0
 40
4.0
 40
4.0
 40
5.0
 40
5.0
 40
5.0
 40
6.0
 40
6.0
 40
6.0
 40
7.0
 40
7.0
 40
7.0
 40
8.0
 40
8.0
 40
8.0
 40
9.0
 40
9.0
 40
9.0
 40
10.0
 40
10.0
 40
10.0
 40
11.0
 40
11.0
 40
11.0
 40
12.0
 40
12.0
 40
12.0
 40
13.0
 40
13.0
 40
13.0
 40
14.0
 40
14.0
 40
14.0
 40
15.0
 40
15.0
 40
15.0
 40
16.0
 40
16.0
 40
16.0
 40
16.0
 10
76.31523842493161
 20
-148.7433756138558
 30
0.0
 10
76.23703475741644
 20
-148.7433756138558
 30
0.0
 10
76.13540444060158
 20
-148.7264946459781
 30
0.0
 10
76.0337741237867
 20
-148.6631048890495
 30
0.0
 10
75.86048582087864
 20
-148.55320634307
 30
0.0
 10
75.83912622887009
 20
-148.421948205082
 30
0.0
 10
75.8201782037012
 20
-148.3141167163937
 30
0.0
 10
75.8201782037012
 20
-148.3141167163937
 30
0.0
 10
76.04238686249982
 20
-148.3141167163937
 30
0.0
 10
76.04238686249982
 20
-148.3141167163937
 30
0.0
 10
76.0971638807153
 20
-148.5128987258926
 30
0.0
 10
76.22428790412101
 20
-148.5425265470658
 30
0.0
 10
76.31730548222276
 20
-148.5425265470658
 30
0.0
 10
76.45683184937538
 20
-148.5425265470658
 30
0.0
 10
76.60910506982343
 20
-148.4429632875421
 30
0.0
 10
76.60910506982343
 20
-148.2104193422877
 30
0.0
 10
76.60910506982343
 20
-147.9544487477336
 30
0.0
 10
76.42927108549338
 20
-147.884513309383
 30
0.0
 10
76.30869274350964
 20
-147.884513309383
 30
0.0
 10
76.27699786504533
 20
-147.884513309383
 30
0.0
 10
76.13540444060158
 20
-147.884513309383
 30
0.0
 10
76.04652097708212
 20
-148.0137043900799
 30
0.0
 10
76.04652097708212
 20
-148.0137043900799
 30
0.0
 10
75.87082110733438
 20
-147.994756364911
 30
0.0
 10
75.87082110733438
 20
-147.994756364911
 30
0.0
 10
75.87082110733438
 20
-147.994756364911
 30
0.0
 10
75.99139944931812
 20
-147.1482964041851
 30
0.0
 10
75.99139944931812
 20
-147.1482964041851
 30
0.0
 10
75.99139944931812
 20
-147.1482964041851
 30
0.0
 10
76.76999102898459
 20
-147.1482964041851
 30
0.0
 10
76.76999102898459
 20
-147.1482964041851
 30
0.0
 10
76.76999102898459
 20
-147.1482964041851
 30
0.0
 10
76.76999102898459
 20
-147.3429442991018
 30
0.0
 10
76.76999102898459
 20
-147.3429442991018
 30
0.0
 10
76.76999102898459
 20
-147.3429442991018
 30
0.0
 10
76.15435246577044
 20
-147.3429442991018
 30
0.0
 10
76.15435246577044
 20
-147.3429442991018
 30
0.0
 10
76.15435246577044
 20
-147.3429442991018
 30
0.0
 10
76.0888956515507
 20
-147.7660020246904
 30
0.0
 10
76.0888956515507
 20
-147.7660020246904
 30
0.0
 10
76.15021835118814
 20
-147.732240088935
 30
0.0
 10
76.23255613328561
 20
-147.6919324717576
 30
0.0
 10
76.35106741797821
 20
-147.6919324717576
 30
0.0
 10
76.60497095524113
 20
-147.6919324717576
 30
0.0
 10
76.8419935246263
 20
-147.8783121375096
 30
0.0
 10
76.8419935246263
 20
-148.1914713171188
 30
0.0
 10
76.8419935246263
 20
-148.5087646113103
 30
0.0
 10
76.61771780853654
 20
-148.7433756138558
 30
0.0
 10
76.31523842493161
 20
-148.7433756138558
 30
0.0
  0
HATCH
  5
7C
330
6B
100
AcDbEntity
  8
_U+30EC_U+30A4_U+30E4_U+30FC 1
 62
     7
420
 16777215
100
AcDbHatch
 10
0.0
 20
0.0
 30
0.0
210
0.0
220
0.0
230
1.0
  2
SOLID
 70
     1
 71
     0
 91
        1
 92
        1
 93
        1
 72
     4
 94
        3
 73
     0
 74
     1
 95
       53
 96
       49
 40
0.0
 40
0.0
 40
0.0
 40
0.0
 40
1.0
 40
1.0
 40
1.0
 40
2.0
 40
2.0
 40
2.0
 40
3.0
 40
3.0
 40
3.0
 40
4.0
 40
4.0
 40
4.0
 40
5.0
 40
5.0
 40
5.0
 40
6.0
 40
6.0
 40
6.0
 40
7.0
 40
7.0
 40
7.0
 40
8.0
 40
8.0
 40
8.0
 40
9.0
 40
9.0
 40
9.0
 40
10.0
 40
10.0
 40
10.0
 40
11.0
 40
11.0
 40
11.0
 40
12.0
 40
12.0
 40
12.0
 40
13.0
 40
13.0
 40
13.0
 40
14.0
 40
14.0
 40
14.0
 40
15.0
 40
15.0
 40
15.0
 40
16.0
 40
16.0
 40
16.0
 40
16.0
 10
76.31523842493161
 20
-148.7433756138558
 10
76.23703475741644
 20
-148.7433756138558
 10
76.13540444060158
 20
-148.7264946459781
 10
76.0337741237867
 20
-148.6631048890495
 10
75.86048582087864
 20
-148.55320634307
 10
75.83912622887009
 20
-148.421948205082
 10
75.8201782037012
 20
-148.3141167163937
 10
75.8201782037012
 20
-148.3141167163937
 10
76.04238686249982
 20
-148.3141167163937
 10
76.04238686249982
 20
-148.3141167163937
 10
76.0971638807153
 20
-148.5128987258926
 10
76.22428790412101
 20
-148.5425265470658
 10
76.31730548222276
 20
-148.5425265470658
 10
76.45683184937538
 20
-148.5425265470658
 10
76.60910506982343
 20
-148.4429632875421
 10
76.60910506982343
 20
-148.2104193422877
 10
76.60910506982343
 20
-147.9544487477336
 10
76.42927108549338
 20
-147.884513309383
 10
76.30869274350964
 20
-147.884513309383
 10
76.27699786504533
 20
-147.884513309383
 10
76.13540444060158
 20
-147.884513309383
 10
76.04652097708212
 20
-148.0137043900799
 10
76.04652097708212
 20
-148.0137043900799
 10
75.87082110733438
 20
-147.994756364911
 10
75.87082110733438
 20
-147.994756364911
 10
75.87082110733438
 20
-147.994756364911
 10
75.99139944931812
 20
-147.1482964041851
 10
75.99139944931812
 20
-147.1482964041851
 10
75.99139944931812
 20
-147.1482964041851
 10
76.76999102898459
 20
-147.1482964041851
 10
76.76999102898459
 20
-147.1482964041851
 10
76.76999102898459
 20
-147.1482964041851
 10
76.76999102898459
 20
-147.3429442991018
 10
76.76999102898459
 20
-147.3429442991018
 10
76.76999102898459
 20
-147.3429442991018
 10
76.15435246577044
 20
-147.3429442991018
 10
76.15435246577044
 20
-147.3429442991018
 10
76.15435246577044
 20
-147.3429442991018
 10
76.0888956515507
 20
-147.7660020246904
 10
76.0888956515507
 20
-147.7660020246904
 10
76.15021835118814
 20
-147.732240088935
 10
76.23255613328561
 20
-147.6919324717576
 10
76.35106741797821
 20
-147.6919324717576
 10
76.60497095524113
 20
-147.6919324717576
 10
76.8419935246263
 20
-147.8783121375096
 10
76.8419935246263
 20
-148.1914713171188
 10
76.8419935246263
 20
-148.5087646113103
 10
76.61771780853654
 20
-148.7433756138558
 10
76.31523842493161
 20
-148.7433756138558
 97
        0
 97
        0
 75
     2
 76
     1
 98
        0
  0
ENDBLK
  5
6E
330
6B
100
AcDbEntity
  8
0
100
AcDbBlockEnd
  0
BLOCK
  5
A2
330
A0
100
AcDbEntity
  8
0
100
AcDbBlockBegin
  2
block 5
 70
     0
 10
0.0
 20
0.0
 30
0.0
  3
block 5
  1

  0
SPLINE
  5
A4
330
A0
100
AcDbEntity
  8
_U+30EC_U+30A4_U+30E4_U+30FC 1
370
     0
100
AcDbSpline
210
0.0
220
0.0
230
1.0
 70
    11
 71
     3
 72
    44
 73
    40
 74
     0
 42
0.0000000001
 43
0.0000000001
 12
1.0
 22
0.0
 32
0.0
 13
1.0
 23
0.0
 33
0.0
 40
0.0
 40
0.0
 40
0.0
 40
0.0
 40
1.0
 40
1.0
 40
1.0
 40
2.0
 40
2.0
 40
2.0
 40
3.0
 40
3.0
 40
3.0
 40
4.0
 40
4.0
 40
4.0
 40
5.0
 40
5.0
 40
5.0
 40
6.0
 40
6.0
 40
6.0
 40
7.0
 40
7.0
 40
7.0
 40
8.0
 40
8.0
 40
8.0
 40
9.0
 40
9.0
 40
9.0
 40
10.0
 40
10.0
 40
10.0
 40
11.0
 40
11.0
 40
11.0
 40
12.0
 40
12.0
 40
12.0
 40
13.0
 40
13.0
 40
13.0
 40
13.0
 10
63.33825275109253
 20
-120.9764227670649
 30
0.0
 10
63.49689939818828
 20
-121.1941528017327
 30
0.0
 10
63.57096895112115
 20
-121.2871703798345
 30
0.0
 10
63.71480168763033
 20
-121.336090735725
 30
0.0
 10
63.71480168763033
 20
-121.336090735725
 30
0.0
 10
63.71480168763033
 20
-120.5574991560586
 30
0.0
 10
63.71480168763033
 20
-120.5574991560586
 30
0.0
 10
63.71480168763033
 20
-120.5574991560586
 30
0.0
 10
63.91995712377696
 20
-120.5574991560586
 30
0.0
 10
63.91995712377696
 20
-120.5574991560586
 30
0.0
 10
63.91995712377696
 20
-120.5574991560586
 30
0.0
 10
63.91995712377696
 20
-121.5855156488571
 30
0.0
 10
63.91995712377696
 20
-121.5855156488571
 30
0.0
 10
63.56235621240803
 20
-121.5538207703928
 30
0.0
 10
63.48415254489285
 20
-121.4883639561731
 30
0.0
 10
63.18580727587022
 20
-121.1032022809221
 30
0.0
 10
62.9870252663713
 20
-120.8472316863681
 30
0.0
 10
62.91932914008614
 20
-120.7817748721483
 30
0.0
 10
62.78186983022467
 20
-120.7817748721483
 30
0.0
 10
62.66335854553208
 20
-120.7817748721483
 30
0.0
 10
62.53227266231832
 20
-120.85377736779
 30
0.0
 10
62.53227266231832
 20
-121.0504923199978
 30
0.0
 10
62.53227266231832
 20
-121.3105970291342
 30
0.0
 10
62.76274955028154
 20
-121.3192097678473
 30
0.0
 10
62.87919377768299
 20
-121.3233438824296
 30
0.0
 10
62.87919377768299
 20
-121.3233438824296
 30
0.0
 10
62.87919377768299
 20
-121.5476195985193
 30
0.0
 10
62.87919377768299
 20
-121.5476195985193
 30
0.0
 10
62.75224200905153
 20
-121.5390068598062
 30
0.0
 10
62.64010415100665
 20
-121.528327063802
 30
0.0
 10
62.52159286631405
 20
-121.4480563389956
 30
0.0
 10
62.36087916192714
 20
-121.3381577930162
 30
0.0
 10
62.32694497139743
 20
-121.1517781272642
 30
0.0
 10
62.32694497139743
 20
-121.0356784094112
 30
0.0
 10
62.32694497139743
 20
-120.7583482228486
 30
0.0
 10
62.51108532508404
 20
-120.5509534746366
 30
0.0
 10
62.78393688751582
 20
-120.5509534746366
 30
0.0
 10
63.01234671818789
 20
-120.5509534746366
 30
0.0
 10
63.11190997771161
 20
-120.667397702038
 30
0.0
 10
63.33825275109253
 20
-120.9764227670649
 30
0.0
  0
HATCH
  5
A5
330
A0
100
AcDbEntity
  8
_U+30EC_U+30A4_U+30E4_U+30FC 1
 62
     7
420
 16777215
100
AcDbHatch
 10
0.0
 20
0.0
 30
0.0
210
0.0
220
0.0
230
1.0
  2
SOLID
 70
     1
 71
     0
 91
        1
 92
        1
 93
        1
 72
     4
 94
        3
 73
     0
 74
     1
 95
       44
 96
       40
 40
0.0
 40
0.0
 40
0.0
 40
0.0
 40
1.0
 40
1.0
 40
1.0
 40
2.0
 40
2.0
 40
2.0
 40
3.0
 40
3.0
 40
3.0
 40
4.0
 40
4.0
 40
4.0
 40
5.0
 40
5.0
 40
5.0
 40
6.0
 40
6.0
 40
6.0
 40
7.0
 40
7.0
 40
7.0
 40
8.0
 40
8.0
 40
8.0
 40
9.0
 40
9.0
 40
9.0
 40
10.0
 40
10.0
 40
10.0
 40
11.0
 40
11.0
 40
11.0
 40
12.0
 40
12.0
 40
12.0
 40
13.0
 40
13.0
 40
13.0
 40
13.0
 10
63.33825275109253
 20
-120.9764227670649
 10
63.49689939818828
 20
-121.1941528017327
 10
63.57096895112115
 20
-121.2871703798345
 10
63.71480168763033
 20
-121.336090735725
 10
63.71480168763033
 20
-121.336090735725
 10
63.71480168763033
 20
-120.5574991560586
 10
63.71480168763033
 20
-120.5574991560586
 10
63.71480168763033
 20
-120.5574991560586
 10
63.91995712377696
 20
-120.5574991560586
 10
63.91995712377696
 20
-120.5574991560586
 10
63.91995712377696
 20
-120.5574991560586
 10
63.91995712377696
 20
-121.5855156488571
 10
63.91995712377696
 20
-121.5855156488571
 10
63.56235621240803
 20
-121.5538207703928
 10
63.48415254489285
 20
-121.4883639561731
 10
63.18580727587022
 20
-121.1032022809221
 10
62.9870252663713
 20
-120.8472316863681
 10
62.91932914008614
 20
-120.7817748721483
 10
62.78186983022467
 20
-120.7817748721483
 10
62.66335854553208
 20
-120.7817748721483
 10
62.53227266231832
 20
-120.85377736779
 10
62.53227266231832
 20
-121.0504923199978
 10
62.53227266231832
 20
-121.3105970291342
 10
62.76274955028154
 20
-121.3192097678473
 10
62.87919377768299
 20
-121.3233438824296
 10
62.87919377768299
 20
-121.3233438824296
 10
62.87919377768299
 20
-121.5476195985193
 10
62.87919377768299
 20
-121.5476195985193
 10
62.75224200905153
 20
-121.5390068598062
 10
62.64010415100665
 20
-121.528327063802
 10
62.52159286631405
 20
-121.4480563389956
 10
62.36087916192714
 20
-121.3381577930162
 10
62.32694497139743
 20
-121.1517781272642
 10
62.32694497139743
 20
-121.0356784094112
 10
62.32694497139743
 20
-120.7583482228486
 10
62.51108532508404
 20
-120.5509534746366
 10
62.78393688751582
 20
-120.5509534746366
 10
63.01234671818789
 20
-120.5509534746366
 10
63.11190997771161
 20
-120.667397702038
 10
63.33825275109253
 20
-120.9764227670649
 97
        0
 97
        0
 75
     2
 76
     1
 98
        0
  0
SPLINE
  5
A6
330
A0
100
AcDbEntity
  8
_U+30EC_U+30A4_U+30E4_U+30FC 1
370
     0
100
AcDbSpline
210
0.0
220
0.0
230
1.0
 70
    11
 71
     3
 72
    53
 73
    49
 74
     0
 42
0.0000000001
 43
0.0000000001
 12
1.0
 22
0.0
 32
0.0
 13
1.0
 23
0.0
 33
0.0
 40
0.0
 40
0.0
 40
0.0
 40
0.0
 40
1.0
 40
1.0
 40
1.0
 40
2.0
 40
2.0
 40
2.0
 40
3.0
 40
3.0
 40
3.0
 40
4.0
 40
4.0
 40
4.0
 40
5.0
 40
5.0
 40
5.0
 40
6.0
 40
6.0
 40
6.0
 40
7.0
 40
7.0
 40
7.0
 40
8.0
 40
8.0
 40
8.0
 40
9.0
 40
9.0
 40
9.0
 40
10.0
 40
10.0
 40
10.0
 40
11.0
 40
11.0
 40
11.0
 40
12.0
 40
12.0
 40
12.0
 40
13.0
 40
13.0
 40
13.0
 40
14.0
 40
14.0
 40
14.0
 40
15.0
 40
15.0
 40
15.0
 40
16.0
 40
16.0
 40
16.0
 40
16.0
 10
63.97077228218439
 20
-119.9115437525742
 30
0.0
 10
63.97077228218439
 20
-119.9897474200894
 30
0.0
 10
63.9537190595324
 20
-120.0913777369042
 30
0.0
 10
63.89032930260381
 20
-120.1930080537191
 30
0.0
 10
63.78025850185008
 20
-120.3662963566272
 30
0.0
 10
63.64917261863632
 20
-120.3876559486357
 30
0.0
 10
63.541341129948
 20
-120.4066039738046
 30
0.0
 10
63.541341129948
 20
-120.4066039738046
 30
0.0
 10
63.541341129948
 20
-120.184395315006
 30
0.0
 10
63.541341129948
 20
-120.184395315006
 30
0.0
 10
63.74012313944691
 20
-120.1296182967905
 30
0.0
 10
63.76975096062007
 20
-120.0024942733848
 30
0.0
 10
63.76975096062007
 20
-119.909476695283
 30
0.0
 10
63.76975096062007
 20
-119.7699503281304
 30
0.0
 10
63.67035995587061
 20
-119.6176771076824
 30
0.0
 10
63.43764375584198
 20
-119.6176771076824
 30
0.0
 10
63.18167316128792
 20
-119.6176771076824
 30
0.0
 10
63.11190997771161
 20
-119.7975110920124
 30
0.0
 10
63.11190997771161
 20
-119.9180894339962
 30
0.0
 10
63.11190997771161
 20
-119.9497843124605
 30
0.0
 10
63.11190997771161
 20
-120.0913777369042
 30
0.0
 10
63.24092880363421
 20
-120.1802612004237
 30
0.0
 10
63.24092880363421
 20
-120.1802612004237
 30
0.0
 10
63.22180852369108
 20
-120.3559610701714
 30
0.0
 10
63.22180852369108
 20
-120.3559610701714
 30
0.0
 10
63.22180852369108
 20
-120.3559610701714
 30
0.0
 10
62.37569307251372
 20
-120.2353827281877
 30
0.0
 10
62.37569307251372
 20
-120.2353827281877
 30
0.0
 10
62.37569307251372
 20
-120.2353827281877
 30
0.0
 10
62.37569307251372
 20
-119.4567911485212
 30
0.0
 10
62.37569307251372
 20
-119.4567911485212
 30
0.0
 10
62.37569307251372
 20
-119.4567911485212
 30
0.0
 10
62.57034096743033
 20
-119.4567911485212
 30
0.0
 10
62.57034096743033
 20
-119.4567911485212
 30
0.0
 10
62.57034096743033
 20
-119.4567911485212
 30
0.0
 10
62.57034096743033
 20
-120.0724297117354
 30
0.0
 10
62.57034096743033
 20
-120.0724297117354
 30
0.0
 10
62.57034096743033
 20
-120.0724297117354
 30
0.0
 10
62.99339869301902
 20
-120.1378865259551
 30
0.0
 10
62.99339869301902
 20
-120.1378865259551
 30
0.0
 10
62.9594645024893
 20
-120.0765638263177
 30
0.0
 10
62.91932914008614
 20
-119.9942260442202
 30
0.0
 10
62.91932914008614
 20
-119.8757147595276
 30
0.0
 10
62.91932914008614
 20
-119.6218112222647
 30
0.0
 10
63.1055365510639
 20
-119.3847886528795
 30
0.0
 10
63.41852347589884
 20
-119.3847886528795
 30
0.0
 10
63.73598902486462
 20
-119.3847886528795
 30
0.0
 10
63.97077228218439
 20
-119.6090643689693
 30
0.0
 10
63.97077228218439
 20
-119.9115437525742
 30
0.0
  0
HATCH
  5
A7
330
A0
100
AcDbEntity
  8
_U+30EC_U+30A4_U+30E4_U+30FC 1
 62
     7
420
 16777215
100
AcDbHatch
 10
0.0
 20
0.0
 30
0.0
210
0.0
220
0.0
230
1.0
  2
SOLID
 70
     1
 71
     0
 91
        1
 92
        1
 93
        1
 72
     4
 94
        3
 73
     0
 74
     1
 95
       53
 96
       49
 40
0.0
 40
0.0
 40
0.0
 40
0.0
 40
1.0
 40
1.0
 40
1.0
 40
2.0
 40
2.0
 40
2.0
 40
3.0
 40
3.0
 40
3.0
 40
4.0
 40
4.0
 40
4.0
 40
5.0
 40
5.0
 40
5.0
 40
6.0
 40
6.0
 40
6.0
 40
7.0
 40
7.0
 40
7.0
 40
8.0
 40
8.0
 40
8.0
 40
9.0
 40
9.0
 40
9.0
 40
10.0
 40
10.0
 40
10.0
 40
11.0
 40
11.0
 40
11.0
 40
12.0
 40
12.0
 40
12.0
 40
13.0
 40
13.0
 40
13.0
 40
14.0
 40
14.0
 40
14.0
 40
15.0
 40
15.0
 40
15.0
 40
16.0
 40
16.0
 40
16.0
 40
16.0
 10
63.97077228218439
 20
-119.9115437525742
 10
63.97077228218439
 20
-119.9897474200894
 10
63.9537190595324
 20
-120.0913777369042
 10
63.89032930260381
 20
-120.1930080537191
 10
63.78025850185008
 20
-120.3662963566272
 10
63.64917261863632
 20
-120.3876559486357
 10
63.541341129948
 20
-120.4066039738046
 10
63.541341129948
 20
-120.4066039738046
 10
63.541341129948
 20
-120.184395315006
 10
63.541341129948
 20
-120.184395315006
 10
63.74012313944691
 20
-120.1296182967905
 10
63.76975096062007
 20
-120.0024942733848
 10
63.76975096062007
 20
-119.909476695283
 10
63.76975096062007
 20
-119.7699503281304
 10
63.67035995587061
 20
-119.6176771076824
 10
63.43764375584198
 20
-119.6176771076824
 10
63.18167316128792
 20
-119.6176771076824
 10
63.11190997771161
 20
-119.7975110920124
 10
63.11190997771161
 20
-119.9180894339962
 10
63.11190997771161
 20
-119.9497843124605
 10
63.11190997771161
 20
-120.0913777369042
 10
63.24092880363421
 20
-120.1802612004237
 10
63.24092880363421
 20
-120.1802612004237
 10
63.22180852369108
 20
-120.3559610701714
 10
63.22180852369108
 20
-120.3559610701714
 10
63.22180852369108
 20
-120.3559610701714
 10
62.37569307251372
 20
-120.2353827281877
 10
62.37569307251372
 20
-120.2353827281877
 10
62.37569307251372
 20
-120.2353827281877
 10
62.37569307251372
 20
-119.4567911485212
 10
62.37569307251372
 20
-119.4567911485212
 10
62.37569307251372
 20
-119.4567911485212
 10
62.57034096743033
 20
-119.4567911485212
 10
62.57034096743033
 20
-119.4567911485212
 10
62.57034096743033
 20
-119.4567911485212
 10
62.57034096743033
 20
-120.0724297117354
 10
62.57034096743033
 20
-120.0724297117354
 10
62.57034096743033
 20
-120.0724297117354
 10
62.99339869301902
 20
-120.1378865259551
 10
62.99339869301902
 20
-120.1378865259551
 10
62.9594645024893
 20
-120.0765638263177
 10
62.91932914008614
 20
-119.9942260442202
 10
62.91932914008614
 20
-119.8757147595276
 10
62.91932914008614
 20
-119.6218112222647
 10
63.1055365510639
 20
-119.3847886528795
 10
63.41852347589884
 20
-119.3847886528795
 10
63.73598902486462
 20
-119.3847886528795
 10
63.97077228218439
 20
-119.6090643689693
 10
63.97077228218439
 20
-119.9115437525742
 97
        0
 97
        0
 75
     2
 76
     1
 98
        0
  0
ENDBLK
  5
A3
330
A0
100
AcDbEntity
  8
0
100
AcDbBlockEnd
  0
BLOCK
  5
AA
330
A8
100
AcDbEntity
  8
0
100
AcDbBlockBegin
  2
block 6
 70
     0
 10
0.0
 20
0.0
 30
0.0
  3
block 6
  1

  0
SPLINE
  5
AC
330
A8
100
AcDbEntity
  8
_U+30EC_U+30A4_U+30E4_U+30FC 1
370
     0
100
AcDbSpline
210
0.0
220
0.0
230
1.0
 70
    11
 71
     3
 72
    26
 73
    22
 74
     0
 42
0.0000000001
 43
0.0000000001
 12
1.0
 22
0.0
 32
0.0
 13
1.0
 23
0.0
 33
0.0
 40
0.0
 40
0.0
 40
0.0
 40
0.0
 40
1.0
 40
1.0
 40
1.0
 40
2.0
 40
2.0
 40
2.0
 40
3.0
 40
3.0
 40
3.0
 40
4.0
 40
4.0
 40
4.0
 40
5.0
 40
5.0
 40
5.0
 40
6.0
 40
6.0
 40
6.0
 40
7.0
 40
7.0
 40
7.0
 40
7.0
 10
63.91995712377696
 20
-140.6553249431348
 30
0.0
 10
63.91995712377696
 20
-140.6553249431348
 30
0.0
 10
62.81563176598012
 20
-140.6553249431348
 30
0.0
 10
62.81563176598012
 20
-140.6553249431348
 30
0.0
 10
62.81563176598012
 20
-140.6553249431348
 30
0.0
 10
62.81563176598012
 20
-140.9853650906217
 30
0.0
 10
62.81563176598012
 20
-140.9853650906217
 30
0.0
 10
62.81563176598012
 20
-140.9853650906217
 30
0.0
 10
62.66766491488864
 20
-140.9853650906217
 30
0.0
 10
62.66766491488864
 20
-140.9853650906217
 30
0.0
 10
62.65285100430206
 20
-140.6532578858436
 30
0.0
 10
62.48989798784975
 20
-140.6067490967928
 30
0.0
 10
62.37569307251372
 20
-140.5771212756196
 30
0.0
 10
62.37569307251372
 20
-140.5771212756196
 30
0.0
 10
62.37569307251372
 20
-140.431049227045
 30
0.0
 10
62.37569307251372
 20
-140.431049227045
 30
0.0
 10
62.37569307251372
 20
-140.431049227045
 30
0.0
 10
63.91995712377696
 20
-140.431049227045
 30
0.0
 10
63.91995712377696
 20
-140.431049227045
 30
0.0
 10
63.91995712377696
 20
-140.431049227045
 30
0.0
 10
63.91995712377696
 20
-140.6553249431348
 30
0.0
 10
63.91995712377696
 20
-140.6553249431348
 30
0.0
  0
HATCH
  5
AD
330
A8
100
AcDbEntity
  8
_U+30EC_U+30A4_U+30E4_U+30FC 1
 62
     7
420
 16777215
100
AcDbHatch
 10
0.0
 20
0.0
 30
0.0
210
0.0
220
0.0
230
1.0
  2
SOLID
 70
     1
 71
     0
 91
        1
 92
        1
 93
        1
 72
     4
 94
        3
 73
     0
 74
     1
 95
       26
 96
       22
 40
0.0
 40
0.0
 40
0.0
 40
0.0
 40
1.0
 40
1.0
 40
1.0
 40
2.0
 40
2.0
 40
2.0
 40
3.0
 40
3.0
 40
3.0
 40
4.0
 40
4.0
 40
4.0
 40
5.0
 40
5.0
 40
5.0
 40
6.0
 40
6.0
 40
6.0
 40
7.0
 40
7.0
 40
7.0
 40
7.0
 10
63.91995712377696
 20
-140.6553249431348
 10
63.91995712377696
 20
-140.6553249431348
 10
62.81563176598012
 20
-140.6553249431348
 10
62.81563176598012
 20
-140.6553249431348
 10
62.81563176598012
 20
-140.6553249431348
 10
62.81563176598012
 20
-140.9853650906217
 10
62.81563176598012
 20
-140.9853650906217
 10
62.81563176598012
 20
-140.9853650906217
 10
62.66766491488864
 20
-140.9853650906217
 10
62.66766491488864
 20
-140.9853650906217
 10
62.65285100430206
 20
-140.6532578858436
 10
62.48989798784975
 20
-140.6067490967928
 10
62.37569307251372
 20
-140.5771212756196
 10
62.37569307251372
 20
-140.5771212756196
 10
62.37569307251372
 20
-140.431049227045
 10
62.37569307251372
 20
-140.431049227045
 10
62.37569307251372
 20
-140.431049227045
 10
63.91995712377696
 20
-140.431049227045
 10
63.91995712377696
 20
-140.431049227045
 10
63.91995712377696
 20
-140.431049227045
 10
63.91995712377696
 20
-140.6553249431348
 10
63.91995712377696
 20
-140.6553249431348
 97
        0
 97
        0
 75
     2
 76
     1
 98
        0
  0
SPLINE
  5
AE
330
A8
100
AcDbEntity
  8
_U+30EC_U+30A4_U+30E4_U+30FC 1
370
     0
100
AcDbSpline
210
0.0
220
0.0
230
1.0
 70
    11
 71
     3
 72
    44
 73
    40
 74
     0
 42
0.0000000001
 43
0.0000000001
 12
1.0
 22
0.0
 32
0.0
 13
1.0
 23
0.0
 33
0.0
 40
0.0
 40
0.0
 40
0.0
 40
0.0
 40
1.0
 40
1.0
 40
1.0
 40
2.0
 40
2.0
 40
2.0
 40
3.0
 40
3.0
 40
3.0
 40
4.0
 40
4.0
 40
4.0
 40
5.0
 40
5.0
 40
5.0
 40
6.0
 40
6.0
 40
6.0
 40
7.0
 40
7.0
 40
7.0
 40
8.0
 40
8.0
 40
8.0
 40
9.0
 40
9.0
 40
9.0
 40
10.0
 40
10.0
 40
10.0
 40
11.0
 40
11.0
 40
11.0
 40
12.0
 40
12.0
 40
12.0
 40
13.0
 40
13.0
 40
13.0
 40
13.0
 10
63.33825275109253
 20
-139.3368869009297
 30
0.0
 10
63.49689939818828
 20
-139.5546169355975
 30
0.0
 10
63.57096895112115
 20
-139.6476345136992
 30
0.0
 10
63.71480168763033
 20
-139.6965548695898
 30
0.0
 10
63.71480168763033
 20
-139.6965548695898
 30
0.0
 10
63.71480168763033
 20
-138.9179632899233
 30
0.0
 10
63.71480168763033
 20
-138.9179632899233
 30
0.0
 10
63.71480168763033
 20
-138.9179632899233
 30
0.0
 10
63.91995712377696
 20
-138.9179632899233
 30
0.0
 10
63.91995712377696
 20
-138.9179632899233
 30
0.0
 10
63.91995712377696
 20
-138.9179632899233
 30
0.0
 10
63.91995712377696
 20
-139.9459797827218
 30
0.0
 10
63.91995712377696
 20
-139.9459797827218
 30
0.0
 10
63.56235621240803
 20
-139.9142849042576
 30
0.0
 10
63.48415254489285
 20
-139.8488280900378
 30
0.0
 10
63.18580727587022
 20
-139.4636664147869
 30
0.0
 10
62.9870252663713
 20
-139.2076958202328
 30
0.0
 10
62.91932914008614
 20
-139.1422390060131
 30
0.0
 10
62.78186983022467
 20
-139.1422390060131
 30
0.0
 10
62.66335854553208
 20
-139.1422390060131
 30
0.0
 10
62.53227266231832
 20
-139.2142415016548
 30
0.0
 10
62.53227266231832
 20
-139.4109564538626
 30
0.0
 10
62.53227266231832
 20
-139.6710611629989
 30
0.0
 10
62.76274955028154
 20
-139.679673901712
 30
0.0
 10
62.87919377768299
 20
-139.6838080162943
 30
0.0
 10
62.87919377768299
 20
-139.6838080162943
 30
0.0
 10
62.87919377768299
 20
-139.9080837323841
 30
0.0
 10
62.87919377768299
 20
-139.9080837323841
 30
0.0
 10
62.75224200905153
 20
-139.899470993671
 30
0.0
 10
62.64010415100665
 20
-139.8887911976667
 30
0.0
 10
62.52159286631405
 20
-139.8085204728604
 30
0.0
 10
62.36087916192714
 20
-139.6986219268809
 30
0.0
 10
62.32694497139743
 20
-139.5122422611289
 30
0.0
 10
62.32694497139743
 20
-139.396142543276
 30
0.0
 10
62.32694497139743
 20
-139.1188123567134
 30
0.0
 10
62.51108532508404
 20
-138.9114176085013
 30
0.0
 10
62.78393688751582
 20
-138.9114176085013
 30
0.0
 10
63.01234671818789
 20
-138.9114176085013
 30
0.0
 10
63.11190997771161
 20
-139.0278618359028
 30
0.0
 10
63.33825275109253
 20
-139.3368869009297
 30
0.0
  0
HATCH
  5
AF
330
A8
100
AcDbEntity
  8
_U+30EC_U+30A4_U+30E4_U+30FC 1
 62
     7
420
 16777215
100
AcDbHatch
 10
0.0
 20
0.0
 30
0.0
210
0.0
220
0.0
230
1.0
  2
SOLID
 70
     1
 71
     0
 91
        1
 92
        1
 93
        1
 72
     4
 94
        3
 73
     0
 74
     1
 95
       44
 96
       40
 40
0.0
 40
0.0
 40
0.0
 40
0.0
 40
1.0
 40
1.0
 40
1.0
 40
2.0
 40
2.0
 40
2.0
 40
3.0
 40
3.0
 40
3.0
 40
4.0
 40
4.0
 40
4.0
 40
5.0
 40
5.0
 40
5.0
 40
6.0
 40
6.0
 40
6.0
 40
7.0
 40
7.0
 40
7.0
 40
8.0
 40
8.0
 40
8.0
 40
9.0
 40
9.0
 40
9.0
 40
10.0
 40
10.0
 40
10.0
 40
11.0
 40
11.0
 40
11.0
 40
12.0
 40
12.0
 40
12.0
 40
13.0
 40
13.0
 40
13.0
 40
13.0
 10
63.33825275109253
 20
-139.3368869009297
 10
63.49689939818828
 20
-139.5546169355975
 10
63.57096895112115
 20
-139.6476345136992
 10
63.71480168763033
 20
-139.6965548695898
 10
63.71480168763033
 20
-139.6965548695898
 10
63.71480168763033
 20
-138.9179632899233
 10
63.71480168763033
 20
-138.9179632899233
 10
63.71480168763033
 20
-138.9179632899233
 10
63.91995712377696
 20
-138.9179632899233
 10
63.91995712377696
 20
-138.9179632899233
 10
63.91995712377696
 20
-138.9179632899233
 10
63.91995712377696
 20
-139.9459797827218
 10
63.91995712377696
 20
-139.9459797827218
 10
63.56235621240803
 20
-139.9142849042576
 10
63.48415254489285
 20
-139.8488280900378
 10
63.18580727587022
 20
-139.4636664147869
 10
62.9870252663713
 20
-139.2076958202328
 10
62.91932914008614
 20
-139.1422390060131
 10
62.78186983022467
 20
-139.1422390060131
 10
62.66335854553208
 20
-139.1422390060131
 10
62.53227266231832
 20
-139.2142415016548
 10
62.53227266231832
 20
-139.4109564538626
 10
62.53227266231832
 20
-139.6710611629989
 10
62.76274955028154
 20
-139.679673901712
 10
62.87919377768299
 20
-139.6838080162943
 10
62.87919377768299
 20
-139.6838080162943
 10
62.87919377768299
 20
-139.9080837323841
 10
62.87919377768299
 20
-139.9080837323841
 10
62.75224200905153
 20
-139.899470993671
 10
62.64010415100665
 20
-139.8887911976667
 10
62.52159286631405
 20
-139.8085204728604
 10
62.36087916192714
 20
-139.6986219268809
 10
62.32694497139743
 20
-139.5122422611289
 10
62.32694497139743
 20
-139.396142543276
 10
62.32694497139743
 20
-139.1188123567134
 10
62.51108532508404
 20
-138.9114176085013
 10
62.78393688751582
 20
-138.9114176085013
 10
63.01234671818789
 20
-138.9114176085013
 10
63.11190997771161
 20
-139.0278618359028
 10
63.33825275109253
 20
-139.3368869009297
 97
        0
 97
        0
 75
     2
 76
     1
 98
        0
  0
POLYLINE
  5
B0
330
A8
100
AcDbEntity
  8
_U+30EC_U+30A4_U+30E4_U+30FC 1
370
     0
100
AcDb2dPolyline
 66
     1
 10
0.0
 20
0.0
 30
0.0
  0
VERTEX
  5
B1
330
B0
100
AcDbEntity
  8
_U+30EC_U+30A4_U+30E4_U+30FC 1
370
     0
100
AcDbVertex
100
AcDb2dVertex
 10
63.91995712377696
 20
-138.6929985547365
 30
0.0
  0
VERTEX
  5
B2
330
B0
100
AcDbEntity
  8
_U+30EC_U+30A4_U+30E4_U+30FC 1
370
     0
100
AcDbVertex
100
AcDb2dVertex
 10
63.66829289857946
 20
-138.6929985547365
 30
0.0
  0
VERTEX
  5
B3
330
B0
100
AcDbEntity
  8
_U+30EC_U+30A4_U+30E4_U+30FC 1
370
     0
100
AcDbVertex
100
AcDb2dVertex
 10
63.66829289857946
 20
-138.4411620747647
 30
0.0
  0
VERTEX
  5
B4
330
B0
100
AcDbEntity
  8
_U+30EC_U+30A4_U+30E4_U+30FC 1
370
     0
100
AcDbVertex
100
AcDb2dVertex
 10
63.91995712377696
 20
-138.4411620747647
 30
0.0
  0
VERTEX
  5
B5
330
B0
100
AcDbEntity
  8
_U+30EC_U+30A4_U+30E4_U+30FC 1
370
     0
100
AcDbVertex
100
AcDb2dVertex
 10
63.91995712377696
 20
-138.6929985547365
 30
0.0
  0
SEQEND
  5
B6
330
B0
100
AcDbEntity
  8
_U+30EC_U+30A4_U+30E4_U+30FC 1
370
     0
  0
HATCH
  5
B7
330
A8
100
AcDbEntity
  8
_U+30EC_U+30A4_U+30E4_U+30FC 1
 62
     7
420
 16777215
100
AcDbHatch
 10
0.0
 20
0.0
 30
0.0
210
0.0
220
0.0
230
1.0
  2
SOLID
 70
     1
 71
     0
 91
        1
 92
        1
 93
        4
 72
     1
 10
63.91995712377696
 20
-138.6929985547365
 11
63.66829289857946
 21
-138.6929985547365
 72
     1
 10
63.66829289857946
 20
-138.6929985547365
 11
63.66829289857946
 21
-138.4411620747647
 72
     1
 10
63.66829289857946
 20
-138.4411620747647
 11
63.91995712377696
 21
-138.4411620747647
 72
     1
 10
63.91995712377696
 20
-138.4411620747647
 11
63.91995712377696
 21
-138.6929985547365
 97
        0
 75
     2
 76
     1
 98
        0
  0
SPLINE
  5
B8
330
A8
100
AcDbEntity
  8
_U+30EC_U+30A4_U+30E4_U+30FC 1
370
     0
100
AcDbSpline
210
0.0
220
0.0
230
1.0
 70
    11
 71
     3
 72
    53
 73
    49
 74
     0
 42
0.0000000001
 43
0.0000000001
 12
1.0
 22
0.0
 32
0.0
 13
1.0
 23
0.0
 33
0.0
 40
0.0
 40
0.0
 40
0.0
 40
0.0
 40
1.0
 40
1.0
 40
1.0
 40
2.0
 40
2.0
 40
2.0
 40
3.0
 40
3.0
 40
3.0
 40
4.0
 40
4.0
 40
4.0
 40
5.0
 40
5.0
 40
5.0
 40
6.0
 40
6.0
 40
6.0
 40
7.0
 40
7.0
 40
7.0
 40
8.0
 40
8.0
 40
8.0
 40
9.0
 40
9.0
 40
9.0
 40
10.0
 40
10.0
 40
10.0
 40
11.0
 40
11.0
 40
11.0
 40
12.0
 40
12.0
 40
12.0
 40
13.0
 40
13.0
 40
13.0
 40
14.0
 40
14.0
 40
14.0
 40
15.0
 40
15.0
 40
15.0
 40
16.0
 40
16.0
 40
16.0
 40
16.0
 10
63.97077228218439
 20
-137.7238931947357
 30
0.0
 10
63.97077228218439
 20
-137.8020968622509
 30
0.0
 10
63.9537190595324
 20
-137.9037271790658
 30
0.0
 10
63.89032930260381
 20
-138.0053574958806
 30
0.0
 10
63.78025850185008
 20
-138.1786457987887
 30
0.0
 10
63.64917261863632
 20
-138.2000053907972
 30
0.0
 10
63.541341129948
 20
-138.2189534159661
 30
0.0
 10
63.541341129948
 20
-138.2189534159661
 30
0.0
 10
63.541341129948
 20
-137.9967447571675
 30
0.0
 10
63.541341129948
 20
-137.9967447571675
 30
0.0
 10
63.74012313944691
 20
-137.941967738952
 30
0.0
 10
63.76975096062007
 20
-137.8148437155463
 30
0.0
 10
63.76975096062007
 20
-137.7218261374445
 30
0.0
 10
63.76975096062007
 20
-137.5822997702919
 30
0.0
 10
63.67035995587061
 20
-137.4300265498439
 30
0.0
 10
63.43764375584198
 20
-137.4300265498439
 30
0.0
 10
63.18167316128792
 20
-137.4300265498439
 30
0.0
 10
63.11190997771161
 20
-137.6098605341739
 30
0.0
 10
63.11190997771161
 20
-137.7304388761577
 30
0.0
 10
63.11190997771161
 20
-137.762133754622
 30
0.0
 10
63.11190997771161
 20
-137.9037271790658
 30
0.0
 10
63.24092880363421
 20
-137.9926106425852
 30
0.0
 10
63.24092880363421
 20
-137.9926106425852
 30
0.0
 10
63.22180852369108
 20
-138.1683105123329
 30
0.0
 10
63.22180852369108
 20
-138.1683105123329
 30
0.0
 10
63.22180852369108
 20
-138.1683105123329
 30
0.0
 10
62.37569307251372
 20
-138.0477321703492
 30
0.0
 10
62.37569307251372
 20
-138.0477321703492
 30
0.0
 10
62.37569307251372
 20
-138.0477321703492
 30
0.0
 10
62.37569307251372
 20
-137.2691405906827
 30
0.0
 10
62.37569307251372
 20
-137.2691405906827
 30
0.0
 10
62.37569307251372
 20
-137.2691405906827
 30
0.0
 10
62.57034096743033
 20
-137.2691405906827
 30
0.0
 10
62.57034096743033
 20
-137.2691405906827
 30
0.0
 10
62.57034096743033
 20
-137.2691405906827
 30
0.0
 10
62.57034096743033
 20
-137.8847791538969
 30
0.0
 10
62.57034096743033
 20
-137.8847791538969
 30
0.0
 10
62.57034096743033
 20
-137.8847791538969
 30
0.0
 10
62.99339869301902
 20
-137.9502359681166
 30
0.0
 10
62.99339869301902
 20
-137.9502359681166
 30
0.0
 10
62.9594645024893
 20
-137.8889132684792
 30
0.0
 10
62.91932914008614
 20
-137.8065754863817
 30
0.0
 10
62.91932914008614
 20
-137.6880642016891
 30
0.0
 10
62.91932914008614
 20
-137.4341606644262
 30
0.0
 10
63.1055365510639
 20
-137.197138095041
 30
0.0
 10
63.41852347589884
 20
-137.197138095041
 30
0.0
 10
63.73598902486462
 20
-137.197138095041
 30
0.0
 10
63.97077228218439
 20
-137.4214138111308
 30
0.0
 10
63.97077228218439
 20
-137.7238931947357
 30
0.0
  0
HATCH
  5
B9
330
A8
100
AcDbEntity
  8
_U+30EC_U+30A4_U+30E4_U+30FC 1
 62
     7
420
 16777215
100
AcDbHatch
 10
0.0
 20
0.0
 30
0.0
210
0.0
220
0.0
230
1.0
  2
SOLID
 70
     1
 71
     0
 91
        1
 92
        1
 93
        1
 72
     4
 94
        3
 73
     0
 74
     1
 95
       53
 96
       49
 40
0.0
 40
0.0
 40
0.0
 40
0.0
 40
1.0
 40
1.0
 40
1.0
 40
2.0
 40
2.0
 40
2.0
 40
3.0
 40
3.0
 40
3.0
 40
4.0
 40
4.0
 40
4.0
 40
5.0
 40
5.0
 40
5.0
 40
6.0
 40
6.0
 40
6.0
 40
7.0
 40
7.0
 40
7.0
 40
8.0
 40
8.0
 40
8.0
 40
9.0
 40
9.0
 40
9.0
 40
10.0
 40
10.0
 40
10.0
 40
11.0
 40
11.0
 40
11.0
 40
12.0
 40
12.0
 40
12.0
 40
13.0
 40
13.0
 40
13.0
 40
14.0
 40
14.0
 40
14.0
 40
15.0
 40
15.0
 40
15.0
 40
16.0
 40
16.0
 40
16.0
 40
16.0
 10
63.97077228218439
 20
-137.7238931947357
 10
63.97077228218439
 20
-137.8020968622509
 10
63.9537190595324
 20
-137.9037271790658
 10
63.89032930260381
 20
-138.0053574958806
 10
63.78025850185008
 20
-138.1786457987887
 10
63.64917261863632
 20
-138.2000053907972
 10
63.541341129948
 20
-138.2189534159661
 10
63.541341129948
 20
-138.2189534159661
 10
63.541341129948
 20
-137.9967447571675
 10
63.541341129948
 20
-137.9967447571675
 10
63.74012313944691
 20
-137.941967738952
 10
63.76975096062007
 20
-137.8148437155463
 10
63.76975096062007
 20
-137.7218261374445
 10
63.76975096062007
 20
-137.5822997702919
 10
63.67035995587061
 20
-137.4300265498439
 10
63.43764375584198
 20
-137.4300265498439
 10
63.18167316128792
 20
-137.4300265498439
 10
63.11190997771161
 20
-137.6098605341739
 10
63.11190997771161
 20
-137.7304388761577
 10
63.11190997771161
 20
-137.762133754622
 10
63.11190997771161
 20
-137.9037271790658
 10
63.24092880363421
 20
-137.9926106425852
 10
63.24092880363421
 20
-137.9926106425852
 10
63.22180852369108
 20
-138.1683105123329
 10
63.22180852369108
 20
-138.1683105123329
 10
63.22180852369108
 20
-138.1683105123329
 10
62.37569307251372
 20
-138.0477321703492
 10
62.37569307251372
 20
-138.0477321703492
 10
62.37569307251372
 20
-138.0477321703492
 10
62.37569307251372
 20
-137.2691405906827
 10
62.37569307251372
 20
-137.2691405906827
 10
62.37569307251372
 20
-137.2691405906827
 10
62.57034096743033
 20
-137.2691405906827
 10
62.57034096743033
 20
-137.2691405906827
 10
62.57034096743033
 20
-137.2691405906827
 10
62.57034096743033
 20
-137.8847791538969
 10
62.57034096743033
 20
-137.8847791538969
 10
62.57034096743033
 20
-137.8847791538969
 10
62.99339869301902
 20
-137.9502359681166
 10
62.99339869301902
 20
-137.9502359681166
 10
62.9594645024893
 20
-137.8889132684792
 10
62.91932914008614
 20
-137.8065754863817
 10
62.91932914008614
 20
-137.6880642016891
 10
62.91932914008614
 20
-137.4341606644262
 10
63.1055365510639
 20
-137.197138095041
 10
63.41852347589884
 20
-137.197138095041
 10
63.73598902486462
 20
-137.197138095041
 10
63.97077228218439
 20
-137.4214138111308
 10
63.97077228218439
 20
-137.7238931947357
 97
        0
 97
        0
 75
     2
 76
     1
 98
        0
  0
ENDBLK
  5
AB
330
A8
100
AcDbEntity
  8
0
100
AcDbBlockEnd
  0
BLOCK
  5
BC
330
BA
100
AcDbEntity
  8
0
100
AcDbBlockBegin
  2
block 7
 70
     0
 10
0.0
 20
0.0
 30
0.0
  3
block 7
  1

  0
SPLINE
  5
BE
330
BA
100
AcDbEntity
  8
_U+30EC_U+30A4_U+30E4_U+30FC 1
370
     0
100
AcDbSpline
210
0.0
220
0.0
230
1.0
 70
    11
 71
     3
 72
    26
 73
    22
 74
     0
 42
0.0000000001
 43
0.0000000001
 12
1.0
 22
0.0
 32
0.0
 13
1.0
 23
0.0
 33
0.0
 40
0.0
 40
0.0
 40
0.0
 40
0.0
 40
1.0
 40
1.0
 40
1.0
 40
2.0
 40
2.0
 40
2.0
 40
3.0
 40
3.0
 40
3.0
 40
4.0
 40
4.0
 40
4.0
 40
5.0
 40
5.0
 40
5.0
 40
6.0
 40
6.0
 40
6.0
 40
7.0
 40
7.0
 40
7.0
 40
7.0
 10
109.4654974769739
 20
-139.6552137237668
 30
0.0
 10
109.4654974769739
 20
-139.6552137237668
 30
0.0
 10
108.3613443739513
 20
-139.6552137237668
 30
0.0
 10
108.3613443739513
 20
-139.6552137237668
 30
0.0
 10
108.3613443739513
 20
-139.6552137237668
 30
0.0
 10
108.3613443739513
 20
-139.9852538712537
 30
0.0
 10
108.3613443739513
 20
-139.9852538712537
 30
0.0
 10
108.3613443739513
 20
-139.9852538712537
 30
0.0
 10
108.2132052680856
 20
-139.9852538712537
 30
0.0
 10
108.2132052680856
 20
-139.9852538712537
 30
0.0
 10
108.198391357499
 20
-139.6531466664756
 30
0.0
 10
108.0354383410467
 20
-139.6066378774247
 30
0.0
 10
107.9214056804849
 20
-139.5770100562516
 30
0.0
 10
107.9214056804849
 20
-139.5770100562516
 30
0.0
 10
107.9214056804849
 20
-139.430938007677
 30
0.0
 10
107.9214056804849
 20
-139.430938007677
 30
0.0
 10
107.9214056804849
 20
-139.430938007677
 30
0.0
 10
109.4654974769739
 20
-139.430938007677
 30
0.0
 10
109.4654974769739
 20
-139.430938007677
 30
0.0
 10
109.4654974769739
 20
-139.430938007677
 30
0.0
 10
109.4654974769739
 20
-139.6552137237668
 30
0.0
 10
109.4654974769739
 20
-139.6552137237668
 30
0.0
  0
HATCH
  5
BF
330
BA
100
AcDbEntity
  8
_U+30EC_U+30A4_U+30E4_U+30FC 1
 62
     7
420
 16777215
100
AcDbHatch
 10
0.0
 20
0.0
 30
0.0
210
0.0
220
0.0
230
1.0
  2
SOLID
 70
     1
 71
     0
 91
        1
 92
        1
 93
        1
 72
     4
 94
        3
 73
     0
 74
     1
 95
       26
 96
       22
 40
0.0
 40
0.0
 40
0.0
 40
0.0
 40
1.0
 40
1.0
 40
1.0
 40
2.0
 40
2.0
 40
2.0
 40
3.0
 40
3.0
 40
3.0
 40
4.0
 40
4.0
 40
4.0
 40
5.0
 40
5.0
 40
5.0
 40
6.0
 40
6.0
 40
6.0
 40
7.0
 40
7.0
 40
7.0
 40
7.0
 10
109.4654974769739
 20
-139.6552137237668
 10
109.4654974769739
 20
-139.6552137237668
 10
108.3613443739513
 20
-139.6552137237668
 10
108.3613443739513
 20
-139.6552137237668
 10
108.3613443739513
 20
-139.6552137237668
 10
108.3613443739513
 20
-139.9852538712537
 10
108.3613443739513
 20
-139.9852538712537
 10
108.3613443739513
 20
-139.9852538712537
 10
108.2132052680856
 20
-139.9852538712537
 10
108.2132052680856
 20
-139.9852538712537
 10
108.198391357499
 20
-139.6531466664756
 10
108.0354383410467
 20
-139.6066378774247
 10
107.9214056804849
 20
-139.5770100562516
 10
107.9214056804849
 20
-139.5770100562516
 10
107.9214056804849
 20
-139.430938007677
 10
107.9214056804849
 20
-139.430938007677
 10
107.9214056804849
 20
-139.430938007677
 10
109.4654974769739
 20
-139.430938007677
 10
109.4654974769739
 20
-139.430938007677
 10
109.4654974769739
 20
-139.430938007677
 10
109.4654974769739
 20
-139.6552137237668
 10
109.4654974769739
 20
-139.6552137237668
 97
        0
 97
        0
 75
     2
 76
     1
 98
        0
  0
SPLINE
  5
C0
330
BA
100
AcDbEntity
  8
_U+30EC_U+30A4_U+30E4_U+30FC 1
370
     0
100
AcDbSpline
210
0.0
220
0.0
230
1.0
 70
    11
 71
     3
 72
    44
 73
    40
 74
     0
 42
0.0000000001
 43
0.0000000001
 12
1.0
 22
0.0
 32
0.0
 13
1.0
 23
0.0
 33
0.0
 40
0.0
 40
0.0
 40
0.0
 40
0.0
 40
1.0
 40
1.0
 40
1.0
 40
2.0
 40
2.0
 40
2.0
 40
3.0
 40
3.0
 40
3.0
 40
4.0
 40
4.0
 40
4.0
 40
5.0
 40
5.0
 40
5.0
 40
6.0
 40
6.0
 40
6.0
 40
7.0
 40
7.0
 40
7.0
 40
8.0
 40
8.0
 40
8.0
 40
9.0
 40
9.0
 40
9.0
 40
10.0
 40
10.0
 40
10.0
 40
11.0
 40
11.0
 40
11.0
 40
12.0
 40
12.0
 40
12.0
 40
13.0
 40
13.0
 40
13.0
 40
13.0
 10
108.8839653590637
 20
-138.3367756815616
 30
0.0
 10
109.0424397513852
 20
-138.5545057162294
 30
0.0
 10
109.1165093043181
 20
-138.6475232943312
 30
0.0
 10
109.2605142956015
 20
-138.6964436502217
 30
0.0
 10
109.2605142956015
 20
-138.6964436502217
 30
0.0
 10
109.2605142956015
 20
-137.9178520705553
 30
0.0
 10
109.2605142956015
 20
-137.9178520705553
 30
0.0
 10
109.2605142956015
 20
-137.9178520705553
 30
0.0
 10
109.4654974769739
 20
-137.9178520705553
 30
0.0
 10
109.4654974769739
 20
-137.9178520705553
 30
0.0
 10
109.4654974769739
 20
-137.9178520705553
 30
0.0
 10
109.4654974769739
 20
-138.9458685633538
 30
0.0
 10
109.4654974769739
 20
-138.9458685633538
 30
0.0
 10
109.107896565605
 20
-138.9141736848895
 30
0.0
 10
109.0296928980898
 20
-138.8487168706698
 30
0.0
 10
108.7313476290672
 20
-138.4635551954188
 30
0.0
 10
108.5325656195682
 20
-138.2075846008648
 30
0.0
 10
108.4650417480574
 20
-138.142127786645
 30
0.0
 10
108.3275824381959
 20
-138.142127786645
 30
0.0
 10
108.2090711535033
 20
-138.142127786645
 30
0.0
 10
108.0778130155153
 20
-138.2141302822868
 30
0.0
 10
108.0778130155153
 20
-138.4108452344945
 30
0.0
 10
108.0778130155153
 20
-138.6709499436309
 30
0.0
 10
108.3082899034785
 20
-138.679562682344
 30
0.0
 10
108.4247341308799
 20
-138.6836967969263
 30
0.0
 10
108.4247341308799
 20
-138.6836967969263
 30
0.0
 10
108.4247341308799
 20
-138.9079725130161
 30
0.0
 10
108.4247341308799
 20
-138.9079725130161
 30
0.0
 10
108.2979546170227
 20
-138.899359774303
 30
0.0
 10
108.1856445042036
 20
-138.8886799782987
 30
0.0
 10
108.067133219511
 20
-138.8084092534924
 30
0.0
 10
107.9065917698984
 20
-138.6985107075129
 30
0.0
 10
107.8724853245944
 20
-138.5121310417609
 30
0.0
 10
107.8724853245944
 20
-138.3960313239079
 30
0.0
 10
107.8724853245944
 20
-138.1187011373453
 30
0.0
 10
108.0567979330553
 20
-137.9113063891333
 30
0.0
 10
108.329649495487
 20
-137.9113063891333
 30
0.0
 10
108.5580593261591
 20
-137.9113063891333
 30
0.0
 10
108.6576225856828
 20
-138.0277506165347
 30
0.0
 10
108.8839653590637
 20
-138.3367756815616
 30
0.0
  0
HATCH
  5
C1
330
BA
100
AcDbEntity
  8
_U+30EC_U+30A4_U+30E4_U+30FC 1
 62
     7
420
 16777215
100
AcDbHatch
 10
0.0
 20
0.0
 30
0.0
210
0.0
220
0.0
230
1.0
  2
SOLID
 70
     1
 71
     0
 91
        1
 92
        1
 93
        1
 72
     4
 94
        3
 73
     0
 74
     1
 95
       44
 96
       40
 40
0.0
 40
0.0
 40
0.0
 40
0.0
 40
1.0
 40
1.0
 40
1.0
 40
2.0
 40
2.0
 40
2.0
 40
3.0
 40
3.0
 40
3.0
 40
4.0
 40
4.0
 40
4.0
 40
5.0
 40
5.0
 40
5.0
 40
6.0
 40
6.0
 40
6.0
 40
7.0
 40
7.0
 40
7.0
 40
8.0
 40
8.0
 40
8.0
 40
9.0
 40
9.0
 40
9.0
 40
10.0
 40
10.0
 40
10.0
 40
11.0
 40
11.0
 40
11.0
 40
12.0
 40
12.0
 40
12.0
 40
13.0
 40
13.0
 40
13.0
 40
13.0
 10
108.8839653590637
 20
-138.3367756815616
 10
109.0424397513852
 20
-138.5545057162294
 10
109.1165093043181
 20
-138.6475232943312
 10
109.2605142956015
 20
-138.6964436502217
 10
109.2605142956015
 20
-138.6964436502217
 10
109.2605142956015
 20
-137.9178520705553
 10
109.2605142956015
 20
-137.9178520705553
 10
109.2605142956015
 20
-137.9178520705553
 10
109.4654974769739
 20
-137.9178520705553
 10
109.4654974769739
 20
-137.9178520705553
 10
109.4654974769739
 20
-137.9178520705553
 10
109.4654974769739
 20
-138.9458685633538
 10
109.4654974769739
 20
-138.9458685633538
 10
109.107896565605
 20
-138.9141736848895
 10
109.0296928980898
 20
-138.8487168706698
 10
108.7313476290672
 20
-138.4635551954188
 10
108.5325656195682
 20
-138.2075846008648
 10
108.4650417480574
 20
-138.142127786645
 10
108.3275824381959
 20
-138.142127786645
 10
108.2090711535033
 20
-138.142127786645
 10
108.0778130155153
 20
-138.2141302822868
 10
108.0778130155153
 20
-138.4108452344945
 10
108.0778130155153
 20
-138.6709499436309
 10
108.3082899034785
 20
-138.679562682344
 10
108.4247341308799
 20
-138.6836967969263
 10
108.4247341308799
 20
-138.6836967969263
 10
108.4247341308799
 20
-138.9079725130161
 10
108.4247341308799
 20
-138.9079725130161
 10
108.2979546170227
 20
-138.899359774303
 10
108.1856445042036
 20
-138.8886799782987
 10
108.067133219511
 20
-138.8084092534924
 10
107.9065917698984
 20
-138.6985107075129
 10
107.8724853245944
 20
-138.5121310417609
 10
107.8724853245944
 20
-138.3960313239079
 10
107.8724853245944
 20
-138.1187011373453
 10
108.0567979330553
 20
-137.9113063891333
 10
108.329649495487
 20
-137.9113063891333
 10
108.5580593261591
 20
-137.9113063891333
 10
108.6576225856828
 20
-138.0277506165347
 10
108.8839653590637
 20
-138.3367756815616
 97
        0
 97
        0
 75
     2
 76
     1
 98
        0
  0
POLYLINE
  5
C2
330
BA
100
AcDbEntity
  8
_U+30EC_U+30A4_U+30E4_U+30FC 1
370
     0
100
AcDb2dPolyline
 66
     1
 10
0.0
 20
0.0
 30
0.0
  0
VERTEX
  5
C3
330
C2
100
AcDbEntity
  8
_U+30EC_U+30A4_U+30E4_U+30FC 1
370
     0
100
AcDbVertex
100
AcDb2dVertex
 10
109.4654974769739
 20
-137.6928873353685
 30
0.0
  0
VERTEX
  5
C4
330
C2
100
AcDbEntity
  8
_U+30EC_U+30A4_U+30E4_U+30FC 1
370
     0
100
AcDbVertex
100
AcDb2dVertex
 10
109.2140055065507
 20
-137.6928873353685
 30
0.0
  0
VERTEX
  5
C5
330
C2
100
AcDbEntity
  8
_U+30EC_U+30A4_U+30E4_U+30FC 1
370
     0
100
AcDbVertex
100
AcDb2dVertex
 10
109.2140055065507
 20
-137.4410508553967
 30
0.0
  0
VERTEX
  5
C6
330
C2
100
AcDbEntity
  8
_U+30EC_U+30A4_U+30E4_U+30FC 1
370
     0
100
AcDbVertex
100
AcDb2dVertex
 10
109.4654974769739
 20
-137.4410508553967
 30
0.0
  0
VERTEX
  5
C7
330
C2
100
AcDbEntity
  8
_U+30EC_U+30A4_U+30E4_U+30FC 1
370
     0
100
AcDbVertex
100
AcDb2dVertex
 10
109.4654974769739
 20
-137.6928873353685
 30
0.0
  0
SEQEND
  5
C8
330
C2
100
AcDbEntity
  8
_U+30EC_U+30A4_U+30E4_U+30FC 1
370
     0
  0
HATCH
  5
C9
330
BA
100
AcDbEntity
  8
_U+30EC_U+30A4_U+30E4_U+30FC 1
 62
     7
420
 16777215
100
AcDbHatch
 10
0.0
 20
0.0
 30
0.0
210
0.0
220
0.0
230
1.0
  2
SOLID
 70
     1
 71
     0
 91
        1
 92
        1
 93
        4
 72
     1
 10
109.4654974769739
 20
-137.6928873353685
 11
109.2140055065507
 21
-137.6928873353685
 72
     1
 10
109.2140055065507
 20
-137.6928873353685
 11
109.2140055065507
 21
-137.4410508553967
 72
     1
 10
109.2140055065507
 20
-137.4410508553967
 11
109.4654974769739
 21
-137.4410508553967
 72
     1
 10
109.4654974769739
 20
-137.4410508553967
 11
109.4654974769739
 21
-137.6928873353685
 97
        0
 75
     2
 76
     1
 98
        0
  0
SPLINE
  5
CA
330
BA
100
AcDbEntity
  8
_U+30EC_U+30A4_U+30E4_U+30FC 1
370
     0
100
AcDbSpline
210
0.0
220
0.0
230
1.0
 70
    11
 71
     3
 72
    53
 73
    49
 74
     0
 42
0.0000000001
 43
0.0000000001
 12
1.0
 22
0.0
 32
0.0
 13
1.0
 23
0.0
 33
0.0
 40
0.0
 40
0.0
 40
0.0
 40
0.0
 40
1.0
 40
1.0
 40
1.0
 40
2.0
 40
2.0
 40
2.0
 40
3.0
 40
3.0
 40
3.0
 40
4.0
 40
4.0
 40
4.0
 40
5.0
 40
5.0
 40
5.0
 40
6.0
 40
6.0
 40
6.0
 40
7.0
 40
7.0
 40
7.0
 40
8.0
 40
8.0
 40
8.0
 40
9.0
 40
9.0
 40
9.0
 40
10.0
 40
10.0
 40
10.0
 40
11.0
 40
11.0
 40
11.0
 40
12.0
 40
12.0
 40
12.0
 40
13.0
 40
13.0
 40
13.0
 40
14.0
 40
14.0
 40
14.0
 40
15.0
 40
15.0
 40
15.0
 40
16.0
 40
16.0
 40
16.0
 40
16.0
 10
109.5164848901556
 20
-136.7237819753677
 30
0.0
 10
109.5164848901556
 20
-136.8019856428828
 30
0.0
 10
109.4992594127294
 20
-136.9036159596977
 30
0.0
 10
109.4358696558008
 20
-137.0052462765126
 30
0.0
 10
109.3259711098213
 20
-137.1785345794206
 30
0.0
 10
109.1947129718333
 20
-137.1998941714292
 30
0.0
 10
109.0868814831449
 20
-137.2188421965981
 30
0.0
 10
109.0868814831449
 20
-137.2188421965981
 30
0.0
 10
109.0868814831449
 20
-136.9966335377995
 30
0.0
 10
109.0868814831449
 20
-136.9966335377995
 30
0.0
 10
109.2856634926439
 20
-136.941856519584
 30
0.0
 10
109.315291313817
 20
-136.8147324961783
 30
0.0
 10
109.315291313817
 20
-136.7217149180765
 30
0.0
 10
109.315291313817
 20
-136.5821885509239
 30
0.0
 10
109.2160725638418
 20
-136.4299153304759
 30
0.0
 10
108.9831841090389
 20
-136.4299153304759
 30
0.0
 10
108.7272135144849
 20
-136.4299153304759
 30
0.0
 10
108.6576225856828
 20
-136.6097493148059
 30
0.0
 10
108.6576225856828
 20
-136.7303276567897
 30
0.0
 10
108.6576225856828
 20
-136.7620225352539
 30
0.0
 10
108.6576225856828
 20
-136.9036159596977
 30
0.0
 10
108.7864691568312
 20
-136.9924994232172
 30
0.0
 10
108.7864691568312
 20
-136.9924994232172
 30
0.0
 10
108.7675211316623
 20
-137.1681992929649
 30
0.0
 10
108.7675211316623
 20
-137.1681992929649
 30
0.0
 10
108.7675211316623
 20
-137.1681992929649
 30
0.0
 10
107.9214056804849
 20
-137.0476209509812
 30
0.0
 10
107.9214056804849
 20
-137.0476209509812
 30
0.0
 10
107.9214056804849
 20
-137.0476209509812
 30
0.0
 10
107.9214056804849
 20
-136.2690293713147
 30
0.0
 10
107.9214056804849
 20
-136.2690293713147
 30
0.0
 10
107.9214056804849
 20
-136.2690293713147
 30
0.0
 10
108.1160535754016
 20
-136.2690293713147
 30
0.0
 10
108.1160535754016
 20
-136.2690293713147
 30
0.0
 10
108.1160535754016
 20
-136.2690293713147
 30
0.0
 10
108.1160535754016
 20
-136.8846679345288
 30
0.0
 10
108.1160535754016
 20
-136.8846679345288
 30
0.0
 10
108.1160535754016
 20
-136.8846679345288
 30
0.0
 10
108.5391113009902
 20
-136.9501247487486
 30
0.0
 10
108.5391113009902
 20
-136.9501247487486
 30
0.0
 10
108.5050048556863
 20
-136.8888020491111
 30
0.0
 10
108.4650417480574
 20
-136.8064642670137
 30
0.0
 10
108.4650417480574
 20
-136.6879529823211
 30
0.0
 10
108.4650417480574
 20
-136.4340494450582
 30
0.0
 10
108.6510769042608
 20
-136.197026875673
 30
0.0
 10
108.9642360838701
 20
-136.197026875673
 30
0.0
 10
109.2815293780616
 20
-136.197026875673
 30
0.0
 10
109.5164848901556
 20
-136.4213025917627
 30
0.0
 10
109.5164848901556
 20
-136.7237819753677
 30
0.0
  0
HATCH
  5
CB
330
BA
100
AcDbEntity
  8
_U+30EC_U+30A4_U+30E4_U+30FC 1
 62
     7
420
 16777215
100
AcDbHatch
 10
0.0
 20
0.0
 30
0.0
210
0.0
220
0.0
230
1.0
  2
SOLID
 70
     1
 71
     0
 91
        1
 92
        1
 93
        1
 72
     4
 94
        3
 73
     0
 74
     1
 95
       53
 96
       49
 40
0.0
 40
0.0
 40
0.0
 40
0.0
 40
1.0
 40
1.0
 40
1.0
 40
2.0
 40
2.0
 40
2.0
 40
3.0
 40
3.0
 40
3.0
 40
4.0
 40
4.0
 40
4.0
 40
5.0
 40
5.0
 40
5.0
 40
6.0
 40
6.0
 40
6.0
 40
7.0
 40
7.0
 40
7.0
 40
8.0
 40
8.0
 40
8.0
 40
9.0
 40
9.0
 40
9.0
 40
10.0
 40
10.0
 40
10.0
 40
11.0
 40
11.0
 40
11.0
 40
12.0
 40
12.0
 40
12.0
 40
13.0
 40
13.0
 40
13.0
 40
14.0
 40
14.0
 40
14.0
 40
15.0
 40
15.0
 40
15.0
 40
16.0
 40
16.0
 40
16.0
 40
16.0
 10
109.5164848901556
 20
-136.7237819753677
 10
109.5164848901556
 20
-136.8019856428828
 10
109.4992594127294
 20
-136.9036159596977
 10
109.4358696558008
 20
-137.0052462765126
 10
109.3259711098213
 20
-137.1785345794206
 10
109.1947129718333
 20
-137.1998941714292
 10
109.0868814831449
 20
-137.2188421965981
 10
109.0868814831449
 20
-137.2188421965981
 10
109.0868814831449
 20
-136.9966335377995
 10
109.0868814831449
 20
-136.9966335377995
 10
109.2856634926439
 20
-136.941856519584
 10
109.315291313817
 20
-136.8147324961783
 10
109.315291313817
 20
-136.7217149180765
 10
109.315291313817
 20
-136.5821885509239
 10
109.2160725638418
 20
-136.4299153304759
 10
108.9831841090389
 20
-136.4299153304759
 10
108.7272135144849
 20
-136.4299153304759
 10
108.6576225856828
 20
-136.6097493148059
 10
108.6576225856828
 20
-136.7303276567897
 10
108.6576225856828
 20
-136.7620225352539
 10
108.6576225856828
 20
-136.9036159596977
 10
108.7864691568312
 20
-136.9924994232172
 10
108.7864691568312
 20
-136.9924994232172
 10
108.7675211316623
 20
-137.1681992929649
 10
108.7675211316623
 20
-137.1681992929649
 10
108.7675211316623
 20
-137.1681992929649
 10
107.9214056804849
 20
-137.0476209509812
 10
107.9214056804849
 20
-137.0476209509812
 10
107.9214056804849
 20
-137.0476209509812
 10
107.9214056804849
 20
-136.2690293713147
 10
107.9214056804849
 20
-136.2690293713147
 10
107.9214056804849
 20
-136.2690293713147
 10
108.1160535754016
 20
-136.2690293713147
 10
108.1160535754016
 20
-136.2690293713147
 10
108.1160535754016
 20
-136.2690293713147
 10
108.1160535754016
 20
-136.8846679345288
 10
108.1160535754016
 20
-136.8846679345288
 10
108.1160535754016
 20
-136.8846679345288
 10
108.5391113009902
 20
-136.9501247487486
 10
108.5391113009902
 20
-136.9501247487486
 10
108.5050048556863
 20
-136.8888020491111
 10
108.4650417480574
 20
-136.8064642670137
 10
108.4650417480574
 20
-136.6879529823211
 10
108.4650417480574
 20
-136.4340494450582
 10
108.6510769042608
 20
-136.197026875673
 10
108.9642360838701
 20
-136.197026875673
 10
109.2815293780616
 20
-136.197026875673
 10
109.5164848901556
 20
-136.4213025917627
 10
109.5164848901556
 20
-136.7237819753677
 97
        0
 97
        0
 75
     2
 76
     1
 98
        0
  0
ENDBLK
  5
BD
330
BA
100
AcDbEntity
  8
0
100
AcDbBlockEnd
  0
BLOCK
  5
CE
330
CC
100
AcDbEntity
  8
0
100
AcDbBlockBegin
  2
block 8
 70
     0
 10
0.0
 20
0.0
 30
0.0
  3
block 8
  1

  0
SPLINE
  5
D0
330
CC
100
AcDbEntity
  8
_U+30EC_U+30A4_U+30E4_U+30FC 1
370
     0
100
AcDbSpline
210
0.0
220
0.0
230
1.0
 70
    11
 71
     3
 72
    26
 73
    22
 74
     0
 42
0.0000000001
 43
0.0000000001
 12
1.0
 22
0.0
 32
0.0
 13
1.0
 23
0.0
 33
0.0
 40
0.0
 40
0.0
 40
0.0
 40
0.0
 40
1.0
 40
1.0
 40
1.0
 40
2.0
 40
2.0
 40
2.0
 40
3.0
 40
3.0
 40
3.0
 40
4.0
 40
4.0
 40
4.0
 40
5.0
 40
5.0
 40
5.0
 40
6.0
 40
6.0
 40
6.0
 40
7.0
 40
7.0
 40
7.0
 40
7.0
 10
74.38340113157777
 20
-103.182160076201
 30
0.0
 10
74.38340113157777
 20
-103.182160076201
 30
0.0
 10
74.38340113157777
 20
-102.0778347184042
 30
0.0
 10
74.38340113157777
 20
-102.0778347184042
 30
0.0
 10
74.38340113157777
 20
-102.0778347184042
 30
0.0
 10
74.05336098409083
 20
-102.0778347184042
 30
0.0
 10
74.05336098409083
 20
-102.0778347184042
 30
0.0
 10
74.05336098409083
 20
-102.0778347184042
 30
0.0
 10
74.05336098409083
 20
-101.9298678673127
 30
0.0
 10
74.05336098409083
 20
-101.9298678673127
 30
0.0
 10
74.38546818886891
 20
-101.9150539567261
 30
0.0
 10
74.43197697791979
 20
-101.7521009402738
 30
0.0
 10
74.46160479909294
 20
-101.6378960249378
 30
0.0
 10
74.46160479909294
 20
-101.6378960249378
 30
0.0
 10
74.60767684766753
 20
-101.6378960249378
 30
0.0
 10
74.60767684766753
 20
-101.6378960249378
 30
0.0
 10
74.60767684766753
 20
-101.6378960249378
 30
0.0
 10
74.60767684766753
 20
-103.182160076201
 30
0.0
 10
74.60767684766753
 20
-103.182160076201
 30
0.0
 10
74.60767684766753
 20
-103.182160076201
 30
0.0
 10
74.38340113157777
 20
-103.182160076201
 30
0.0
 10
74.38340113157777
 20
-103.182160076201
 30
0.0
  0
HATCH
  5
D1
330
CC
100
AcDbEntity
  8
_U+30EC_U+30A4_U+30E4_U+30FC 1
 62
     7
420
 16777215
100
AcDbHatch
 10
0.0
 20
0.0
 30
0.0
210
0.0
220
0.0
230
1.0
  2
SOLID
 70
     1
 71
     0
 91
        1
 92
        1
 93
        1
 72
     4
 94
        3
 73
     0
 74
     1
 95
       26
 96
       22
 40
0.0
 40
0.0
 40
0.0
 40
0.0
 40
1.0
 40
1.0
 40
1.0
 40
2.0
 40
2.0
 40
2.0
 40
3.0
 40
3.0
 40
3.0
 40
4.0
 40
4.0
 40
4.0
 40
5.0
 40
5.0
 40
5.0
 40
6.0
 40
6.0
 40
6.0
 40
7.0
 40
7.0
 40
7.0
 40
7.0
 10
74.38340113157777
 20
-103.182160076201
 10
74.38340113157777
 20
-103.182160076201
 10
74.38340113157777
 20
-102.0778347184042
 10
74.38340113157777
 20
-102.0778347184042
 10
74.38340113157777
 20
-102.0778347184042
 10
74.05336098409083
 20
-102.0778347184042
 10
74.05336098409083
 20
-102.0778347184042
 10
74.05336098409083
 20
-102.0778347184042
 10
74.05336098409083
 20
-101.9298678673127
 10
74.05336098409083
 20
-101.9298678673127
 10
74.38546818886891
 20
-101.9150539567261
 10
74.43197697791979
 20
-101.7521009402738
 10
74.46160479909294
 20
-101.6378960249378
 10
74.46160479909294
 20
-101.6378960249378
 10
74.60767684766753
 20
-101.6378960249378
 10
74.60767684766753
 20
-101.6378960249378
 10
74.60767684766753
 20
-101.6378960249378
 10
74.60767684766753
 20
-103.182160076201
 10
74.60767684766753
 20
-103.182160076201
 10
74.60767684766753
 20
-103.182160076201
 10
74.38340113157777
 20
-103.182160076201
 10
74.38340113157777
 20
-103.182160076201
 97
        0
 97
        0
 75
     2
 76
     1
 98
        0
  0
SPLINE
  5
D2
330
CC
100
AcDbEntity
  8
_U+30EC_U+30A4_U+30E4_U+30FC 1
370
     0
100
AcDbSpline
210
0.0
220
0.0
230
1.0
 70
    11
 71
     3
 72
    44
 73
    40
 74
     0
 42
0.0000000001
 43
0.0000000001
 12
1.0
 22
0.0
 32
0.0
 13
1.0
 23
0.0
 33
0.0
 40
0.0
 40
0.0
 40
0.0
 40
0.0
 40
1.0
 40
1.0
 40
1.0
 40
2.0
 40
2.0
 40
2.0
 40
3.0
 40
3.0
 40
3.0
 40
4.0
 40
4.0
 40
4.0
 40
5.0
 40
5.0
 40
5.0
 40
6.0
 40
6.0
 40
6.0
 40
7.0
 40
7.0
 40
7.0
 40
8.0
 40
8.0
 40
8.0
 40
9.0
 40
9.0
 40
9.0
 40
10.0
 40
10.0
 40
10.0
 40
11.0
 40
11.0
 40
11.0
 40
12.0
 40
12.0
 40
12.0
 40
13.0
 40
13.0
 40
13.0
 40
13.0
 10
75.70183917378287
 20
-102.6004557035166
 30
0.0
 10
75.48410913911509
 20
-102.7591023506123
 30
0.0
 10
75.39109156101334
 20
-102.8331719035452
 30
0.0
 10
75.3421712051228
 20
-102.9770046400544
 30
0.0
 10
75.3421712051228
 20
-102.9770046400544
 30
0.0
 10
76.12076278478926
 20
-102.9770046400544
 30
0.0
 10
76.12076278478926
 20
-102.9770046400544
 30
0.0
 10
76.12076278478926
 20
-102.9770046400544
 30
0.0
 10
76.12076278478926
 20
-103.182160076201
 30
0.0
 10
76.12076278478926
 20
-103.182160076201
 30
0.0
 10
76.12076278478926
 20
-103.182160076201
 30
0.0
 10
75.09274629199071
 20
-103.182160076201
 30
0.0
 10
75.09274629199071
 20
-103.182160076201
 30
0.0
 10
75.124441170455
 20
-102.8245591648321
 30
0.0
 10
75.18989798467476
 20
-102.7463554973169
 30
0.0
 10
75.57505965992569
 20
-102.4480102282943
 30
0.0
 10
75.83103025447974
 20
-102.2492282187953
 30
0.0
 10
75.8964870686995
 20
-102.1815320925102
 30
0.0
 10
75.8964870686995
 20
-102.0440727826487
 30
0.0
 10
75.8964870686995
 20
-101.9255614979561
 30
0.0
 10
75.82448457305777
 20
-101.7944756147424
 30
0.0
 10
75.62776962085
 20
-101.7944756147424
 30
0.0
 10
75.36766491171365
 20
-101.7944756147424
 30
0.0
 10
75.35905217300052
 20
-102.0249525027056
 30
0.0
 10
75.35491805841822
 20
-102.141396730107
 30
0.0
 10
75.35491805841822
 20
-102.141396730107
 30
0.0
 10
75.13064234232846
 20
-102.141396730107
 30
0.0
 10
75.13064234232846
 20
-102.141396730107
 30
0.0
 10
75.13925508104158
 20
-102.0144449614756
 30
0.0
 10
75.14993487704585
 20
-101.9023071034307
 30
0.0
 10
75.23020560185218
 20
-101.7837958187381
 30
0.0
 10
75.34010414783164
 20
-101.6230821143512
 30
0.0
 10
75.52648381358367
 20
-101.5891479238215
 30
0.0
 10
75.64258353143659
 20
-101.5891479238215
 30
0.0
 10
75.9199137179992
 20
-101.5891479238215
 30
0.0
 10
76.12730846621123
 20
-101.7732882775081
 30
0.0
 10
76.12730846621123
 20
-102.0461398399399
 30
0.0
 10
76.12730846621123
 20
-102.2745496706119
 30
0.0
 10
76.01086423880979
 20
-102.3741129301356
 30
0.0
 10
75.70183917378287
 20
-102.6004557035166
 30
0.0
  0
HATCH
  5
D3
330
CC
100
AcDbEntity
  8
_U+30EC_U+30A4_U+30E4_U+30FC 1
 62
     7
420
 16777215
100
AcDbHatch
 10
0.0
 20
0.0
 30
0.0
210
0.0
220
0.0
230
1.0
  2
SOLID
 70
     1
 71
     0
 91
        1
 92
        1
 93
        1
 72
     4
 94
        3
 73
     0
 74
     1
 95
       44
 96
       40
 40
0.0
 40
0.0
 40
0.0
 40
0.0
 40
1.0
 40
1.0
 40
1.0
 40
2.0
 40
2.0
 40
2.0
 40
3.0
 40
3.0
 40
3.0
 40
4.0
 40
4.0
 40
4.0
 40
5.0
 40
5.0
 40
5.0
 40
6.0
 40
6.0
 40
6.0
 40
7.0
 40
7.0
 40
7.0
 40
8.0
 40
8.0
 40
8.0
 40
9.0
 40
9.0
 40
9.0
 40
10.0
 40
10.0
 40
10.0
 40
11.0
 40
11.0
 40
11.0
 40
12.0
 40
12.0
 40
12.0
 40
13.0
 40
13.0
 40
13.0
 40
13.0
 10
75.70183917378287
 20
-102.6004557035166
 10
75.48410913911509
 20
-102.7591023506123
 10
75.39109156101334
 20
-102.8331719035452
 10
75.3421712051228
 20
-102.9770046400544
 10
75.3421712051228
 20
-102.9770046400544
 10
76.12076278478926
 20
-102.9770046400544
 10
76.12076278478926
 20
-102.9770046400544
 10
76.12076278478926
 20
-102.9770046400544
 10
76.12076278478926
 20
-103.182160076201
 10
76.12076278478926
 20
-103.182160076201
 10
76.12076278478926
 20
-103.182160076201
 10
75.09274629199071
 20
-103.182160076201
 10
75.09274629199071
 20
-103.182160076201
 10
75.124441170455
 20
-102.8245591648321
 10
75.18989798467476
 20
-102.7463554973169
 10
75.57505965992569
 20
-102.4480102282943
 10
75.83103025447974
 20
-102.2492282187953
 10
75.8964870686995
 20
-102.1815320925102
 10
75.8964870686995
 20
-102.0440727826487
 10
75.8964870686995
 20
-101.9255614979561
 10
75.82448457305777
 20
-101.7944756147424
 10
75.62776962085
 20
-101.7944756147424
 10
75.36766491171365
 20
-101.7944756147424
 10
75.35905217300052
 20
-102.0249525027056
 10
75.35491805841822
 20
-102.141396730107
 10
75.35491805841822
 20
-102.141396730107
 10
75.13064234232846
 20
-102.141396730107
 10
75.13064234232846
 20
-102.141396730107
 10
75.13925508104158
 20
-102.0144449614756
 10
75.14993487704585
 20
-101.9023071034307
 10
75.23020560185218
 20
-101.7837958187381
 10
75.34010414783164
 20
-101.6230821143512
 10
75.52648381358367
 20
-101.5891479238215
 10
75.64258353143659
 20
-101.5891479238215
 10
75.9199137179992
 20
-101.5891479238215
 10
76.12730846621123
 20
-101.7732882775081
 10
76.12730846621123
 20
-102.0461398399399
 10
76.12730846621123
 20
-102.2745496706119
 10
76.01086423880979
 20
-102.3741129301356
 10
75.70183917378287
 20
-102.6004557035166
 97
        0
 97
        0
 75
     2
 76
     1
 98
        0
  0
POLYLINE
  5
D4
330
CC
100
AcDbEntity
  8
_U+30EC_U+30A4_U+30E4_U+30FC 1
370
     0
100
AcDb2dPolyline
 66
     1
 10
0.0
 20
0.0
 30
0.0
  0
VERTEX
  5
D5
330
D4
100
AcDbEntity
  8
_U+30EC_U+30A4_U+30E4_U+30FC 1
370
     0
100
AcDbVertex
100
AcDb2dVertex
 10
76.34572751997607
 20
-103.182160076201
 30
0.0
  0
VERTEX
  5
D6
330
D4
100
AcDbEntity
  8
_U+30EC_U+30A4_U+30E4_U+30FC 1
370
     0
100
AcDbVertex
100
AcDb2dVertex
 10
76.34572751997607
 20
-102.9304958510035
 30
0.0
  0
VERTEX
  5
D7
330
D4
100
AcDbEntity
  8
_U+30EC_U+30A4_U+30E4_U+30FC 1
370
     0
100
AcDbVertex
100
AcDb2dVertex
 10
76.59756399994784
 20
-102.9304958510035
 30
0.0
  0
VERTEX
  5
D8
330
D4
100
AcDbEntity
  8
_U+30EC_U+30A4_U+30E4_U+30FC 1
370
     0
100
AcDbVertex
100
AcDb2dVertex
 10
76.59756399994784
 20
-103.182160076201
 30
0.0
  0
VERTEX
  5
D9
330
D4
100
AcDbEntity
  8
_U+30EC_U+30A4_U+30E4_U+30FC 1
370
     0
100
AcDbVertex
100
AcDb2dVertex
 10
76.34572751997607
 20
-103.182160076201
 30
0.0
  0
SEQEND
  5
DA
330
D4
100
AcDbEntity
  8
_U+30EC_U+30A4_U+30E4_U+30FC 1
370
     0
  0
HATCH
  5
DB
330
CC
100
AcDbEntity
  8
_U+30EC_U+30A4_U+30E4_U+30FC 1
 62
     7
420
 16777215
100
AcDbHatch
 10
0.0
 20
0.0
 30
0.0
210
0.0
220
0.0
230
1.0
  2
SOLID
 70
     1
 71
     0
 91
        1
 92
        1
 93
        4
 72
     1
 10
76.34572751997607
 20
-103.182160076201
 11
76.34572751997607
 21
-102.9304958510035
 72
     1
 10
76.34572751997607
 20
-102.9304958510035
 11
76.59756399994784
 21
-102.9304958510035
 72
     1
 10
76.59756399994784
 20
-102.9304958510035
 11
76.59756399994784
 21
-103.182160076201
 72
     1
 10
76.59756399994784
 20
-103.182160076201
 11
76.34572751997607
 21
-103.182160076201
 97
        0
 75
     2
 76
     1
 98
        0
  0
SPLINE
  5
DC
330
CC
100
AcDbEntity
  8
_U+30EC_U+30A4_U+30E4_U+30FC 1
370
     0
100
AcDbSpline
210
0.0
220
0.0
230
1.0
 70
    11
 71
     3
 72
    53
 73
    49
 74
     0
 42
0.0000000001
 43
0.0000000001
 12
1.0
 22
0.0
 32
0.0
 13
1.0
 23
0.0
 33
0.0
 40
0.0
 40
0.0
 40
0.0
 40
0.0
 40
1.0
 40
1.0
 40
1.0
 40
2.0
 40
2.0
 40
2.0
 40
3.0
 40
3.0
 40
3.0
 40
4.0
 40
4.0
 40
4.0
 40
5.0
 40
5.0
 40
5.0
 40
6.0
 40
6.0
 40
6.0
 40
7.0
 40
7.0
 40
7.0
 40
8.0
 40
8.0
 40
8.0
 40
9.0
 40
9.0
 40
9.0
 40
10.0
 40
10.0
 40
10.0
 40
11.0
 40
11.0
 40
11.0
 40
12.0
 40
12.0
 40
12.0
 40
13.0
 40
13.0
 40
13.0
 40
14.0
 40
14.0
 40
14.0
 40
15.0
 40
15.0
 40
15.0
 40
16.0
 40
16.0
 40
16.0
 40
16.0
 10
77.31483287997685
 20
-103.2329752346084
 30
0.0
 10
77.23662921246168
 20
-103.2329752346084
 30
0.0
 10
77.1349988956468
 20
-103.2159220119564
 30
0.0
 10
77.03336857883194
 20
-103.1525322550279
 30
0.0
 10
76.86008027592388
 20
-103.0424614542741
 30
0.0
 10
76.83872068391533
 20
-102.9113755710604
 30
0.0
 10
76.81977265874644
 20
-102.803544082372
 30
0.0
 10
76.81977265874644
 20
-102.803544082372
 30
0.0
 10
77.04198131754507
 20
-102.803544082372
 30
0.0
 10
77.04198131754507
 20
-102.803544082372
 30
0.0
 10
77.09675833576054
 20
-103.002326091871
 30
0.0
 10
77.22388235916625
 20
-103.0319539130441
 30
0.0
 10
77.316899937268
 20
-103.0319539130441
 30
0.0
 10
77.45642630442062
 20
-103.0319539130441
 30
0.0
 10
77.60869952486867
 20
-102.9325629082946
 30
0.0
 10
77.60869952486867
 20
-102.699846708266
 30
0.0
 10
77.60869952486867
 20
-102.443876113712
 30
0.0
 10
77.42886554053862
 20
-102.3741129301356
 30
0.0
 10
77.30828719855488
 20
-102.3741129301356
 30
0.0
 10
77.27659232009057
 20
-102.3741129301356
 30
0.0
 10
77.1349988956468
 20
-102.3741129301356
 30
0.0
 10
77.04611543212737
 20
-102.5031317560583
 30
0.0
 10
77.04611543212737
 20
-102.5031317560583
 30
0.0
 10
76.87041556237962
 20
-102.4840114761151
 30
0.0
 10
76.87041556237962
 20
-102.4840114761151
 30
0.0
 10
76.87041556237962
 20
-102.4840114761151
 30
0.0
 10
76.99099390436336
 20
-101.6378960249378
 30
0.0
 10
76.99099390436336
 20
-101.6378960249378
 30
0.0
 10
76.99099390436336
 20
-101.6378960249378
 30
0.0
 10
77.76958548402983
 20
-101.6378960249378
 30
0.0
 10
77.76958548402983
 20
-101.6378960249378
 30
0.0
 10
77.76958548402983
 20
-101.6378960249378
 30
0.0
 10
77.76958548402983
 20
-101.8325439198544
 30
0.0
 10
77.76958548402983
 20
-101.8325439198544
 30
0.0
 10
77.76958548402983
 20
-101.8325439198544
 30
0.0
 10
77.15394692081568
 20
-101.8325439198544
 30
0.0
 10
77.15394692081568
 20
-101.8325439198544
 30
0.0
 10
77.15394692081568
 20
-101.8325439198544
 30
0.0
 10
77.08849010659594
 20
-102.2556016454431
 30
0.0
 10
77.08849010659594
 20
-102.2556016454431
 30
0.0
 10
77.14981280623338
 20
-102.2216674549133
 30
0.0
 10
77.23215058833085
 20
-102.1815320925102
 30
0.0
 10
77.35066187302345
 20
-102.1815320925102
 30
0.0
 10
77.60456541028636
 20
-102.1815320925102
 30
0.0
 10
77.84158797967154
 20
-102.3677395034879
 30
0.0
 10
77.84158797967154
 20
-102.6807264283229
 30
0.0
 10
77.84158797967154
 20
-102.9981919772887
 30
0.0
 10
77.61731226358178
 20
-103.2329752346084
 30
0.0
 10
77.31483287997685
 20
-103.2329752346084
 30
0.0
  0
HATCH
  5
DD
330
CC
100
AcDbEntity
  8
_U+30EC_U+30A4_U+30E4_U+30FC 1
 62
     7
420
 16777215
100
AcDbHatch
 10
0.0
 20
0.0
 30
0.0
210
0.0
220
0.0
230
1.0
  2
SOLID
 70
     1
 71
     0
 91
        1
 92
        1
 93
        1
 72
     4
 94
        3
 73
     0
 74
     1
 95
       53
 96
       49
 40
0.0
 40
0.0
 40
0.0
 40
0.0
 40
1.0
 40
1.0
 40
1.0
 40
2.0
 40
2.0
 40
2.0
 40
3.0
 40
3.0
 40
3.0
 40
4.0
 40
4.0
 40
4.0
 40
5.0
 40
5.0
 40
5.0
 40
6.0
 40
6.0
 40
6.0
 40
7.0
 40
7.0
 40
7.0
 40
8.0
 40
8.0
 40
8.0
 40
9.0
 40
9.0
 40
9.0
 40
10.0
 40
10.0
 40
10.0
 40
11.0
 40
11.0
 40
11.0
 40
12.0
 40
12.0
 40
12.0
 40
13.0
 40
13.0
 40
13.0
 40
14.0
 40
14.0
 40
14.0
 40
15.0
 40
15.0
 40
15.0
 40
16.0
 40
16.0
 40
16.0
 40
16.0
 10
77.31483287997685
 20
-103.2329752346084
 10
77.23662921246168
 20
-103.2329752346084
 10
77.1349988956468
 20
-103.2159220119564
 10
77.03336857883194
 20
-103.1525322550279
 10
76.86008027592388
 20
-103.0424614542741
 10
76.83872068391533
 20
-102.9113755710604
 10
76.81977265874644
 20
-102.803544082372
 10
76.81977265874644
 20
-102.803544082372
 10
77.04198131754507
 20
-102.803544082372
 10
77.04198131754507
 20
-102.803544082372
 10
77.09675833576054
 20
-103.002326091871
 10
77.22388235916625
 20
-103.0319539130441
 10
77.316899937268
 20
-103.0319539130441
 10
77.45642630442062
 20
-103.0319539130441
 10
77.60869952486867
 20
-102.9325629082946
 10
77.60869952486867
 20
-102.699846708266
 10
77.60869952486867
 20
-102.443876113712
 10
77.42886554053862
 20
-102.3741129301356
 10
77.30828719855488
 20
-102.3741129301356
 10
77.27659232009057
 20
-102.3741129301356
 10
77.1349988956468
 20
-102.3741129301356
 10
77.04611543212737
 20
-102.5031317560583
 10
77.04611543212737
 20
-102.5031317560583
 10
76.87041556237962
 20
-102.4840114761151
 10
76.87041556237962
 20
-102.4840114761151
 10
76.87041556237962
 20
-102.4840114761151
 10
76.99099390436336
 20
-101.6378960249378
 10
76.99099390436336
 20
-101.6378960249378
 10
76.99099390436336
 20
-101.6378960249378
 10
77.76958548402983
 20
-101.6378960249378
 10
77.76958548402983
 20
-101.6378960249378
 10
77.76958548402983
 20
-101.6378960249378
 10
77.76958548402983
 20
-101.8325439198544
 10
77.76958548402983
 20
-101.8325439198544
 10
77.76958548402983
 20
-101.8325439198544
 10
77.15394692081568
 20
-101.8325439198544
 10
77.15394692081568
 20
-101.8325439198544
 10
77.15394692081568
 20
-101.8325439198544
 10
77.08849010659594
 20
-102.2556016454431
 10
77.08849010659594
 20
-102.2556016454431
 10
77.14981280623338
 20
-102.2216674549133
 10
77.23215058833085
 20
-102.1815320925102
 10
77.35066187302345
 20
-102.1815320925102
 10
77.60456541028636
 20
-102.1815320925102
 10
77.84158797967154
 20
-102.3677395034879
 10
77.84158797967154
 20
-102.6807264283229
 10
77.84158797967154
 20
-102.9981919772887
 10
77.61731226358178
 20
-103.2329752346084
 10
77.31483287997685
 20
-103.2329752346084
 97
        0
 97
        0
 75
     2
 76
     1
 98
        0
  0
ENDBLK
  5
CF
330
CC
100
AcDbEntity
  8
0
100
AcDbBlockEnd
  0
BLOCK
  5
FE
330
FC
100
AcDbEntity
  8
0
100
AcDbBlockBegin
  2
block 9
 70
     0
 10
0.0
 20
0.0
 30
0.0
  3
block 9
  1

  0
SPLINE
  5
100
330
FC
100
AcDbEntity
  8
_U+30EC_U+30A4_U+30E4_U+30FC 1
370
     0
100
AcDbSpline
210
0.0
220
0.0
230
1.0
 70
    11
 71
     3
 72
    59
 73
    55
 74
     0
 42
0.0000000001
 43
0.0000000001
 12
1.0
 22
0.0
 32
0.0
 13
1.0
 23
0.0
 33
0.0
 40
0.0
 40
0.0
 40
0.0
 40
0.0
 40
1.0
 40
1.0
 40
1.0
 40
2.0
 40
2.0
 40
2.0
 40
3.0
 40
3.0
 40
3.0
 40
4.0
 40
4.0
 40
4.0
 40
5.0
 40
5.0
 40
5.0
 40
6.0
 40
6.0
 40
6.0
 40
7.0
 40
7.0
 40
7.0
 40
8.0
 40
8.0
 40
8.0
 40
9.0
 40
9.0
 40
9.0
 40
10.0
 40
10.0
 40
10.0
 40
11.0
 40
11.0
 40
11.0
 40
12.0
 40
12.0
 40
12.0
 40
13.0
 40
13.0
 40
13.0
 40
14.0
 40
14.0
 40
14.0
 40
15.0
 40
15.0
 40
15.0
 40
16.0
 40
16.0
 40
16.0
 40
17.0
 40
17.0
 40
17.0
 40
18.0
 40
18.0
 40
18.0
 40
18.0
 10
108.6820827636281
 20
-151.4029893284687
 30
0.0
 10
108.5149956325935
 20
-151.8897813205345
 30
0.0
 10
108.2655707194614
 20
-152.4124023056469
 30
0.0
 10
107.666813124125
 20
-152.7293510902899
 30
0.0
 10
107.666813124125
 20
-152.7293510902899
 30
0.0
 10
107.4783664010818
 20
-152.5770778698418
 30
0.0
 10
107.4783664010818
 20
-152.5770778698418
 30
0.0
 10
107.639252360243
 20
-152.5074869410398
 30
0.0
 10
107.8845431587928
 20
-152.3972438855118
 30
0.0
 10
108.1363796387645
 20
-152.0672037380249
 30
0.0
 10
108.3734022081497
 20
-151.7543890679642
 30
0.0
 10
108.4305907932049
 20
-151.4984184734101
 30
0.0
 10
108.4578070475383
 20
-151.3712944500044
 30
0.0
 10
108.4578070475383
 20
-151.3712944500044
 30
0.0
 10
107.8104736058599
 20
-151.3712944500044
 30
0.0
 10
107.8104736058599
 20
-151.3712944500044
 30
0.0
 10
107.7067762317539
 20
-151.5321804091656
 30
0.0
 10
107.5861978897701
 20
-151.6992675402002
 30
0.0
 10
107.3939615616932
 20
-151.8708332953656
 30
0.0
 10
107.3939615616932
 20
-151.8708332953656
 30
0.0
 10
107.2203287492366
 20
-151.7481878960907
 30
0.0
 10
107.2203287492366
 20
-151.7481878960907
 30
0.0
 10
107.2795843915829
 20
-151.7013345974914
 30
0.0
 10
107.4277234974486
 20
-151.5893689942207
 30
0.0
 10
107.5927435711921
 20
-151.3395995715401
 30
0.0
 10
107.6688801814161
 20
-151.2210882868475
 30
0.0
 10
107.7725775555221
 20
-151.0519340985217
 30
0.0
 10
107.798071262113
 20
-150.9292886992469
 30
0.0
 10
107.798071262113
 20
-150.9292886992469
 30
0.0
 10
108.0285481500762
 20
-151.0309190160617
 30
0.0
 10
108.0285481500762
 20
-151.0309190160617
 30
0.0
 10
108.0433620606628
 20
-151.0371201879352
 30
0.0
 10
108.0581759712494
 20
-151.0453884170998
 30
0.0
 10
108.0581759712494
 20
-151.0605468372349
 30
0.0
 10
108.0581759712494
 20
-151.0815619196949
 30
0.0
 10
108.0326822646585
 20
-151.0943087729903
 30
0.0
 10
108.0244140354939
 20
-151.0963758302815
 30
0.0
 10
107.9968532716119
 20
-151.1046440594461
 30
0.0
 10
107.9882405328988
 20
-151.1025770021549
 30
0.0
 10
107.9627468263079
 20
-151.1280707087458
 30
0.0
 10
107.9375976292656
 20
-151.1535644153366
 30
0.0
 10
107.9396646865568
 20
-151.1618326445012
 30
0.0
 10
107.9079698080925
 20
-151.2148871149741
 30
0.0
 10
107.9079698080925
 20
-151.2148871149741
 30
0.0
 10
108.2421440701617
 20
-151.2148871149741
 30
0.0
 10
108.2421440701617
 20
-151.2148871149741
 30
0.0
 10
108.4981146647158
 20
-151.2148871149741
 30
0.0
 10
108.5298095431801
 20
-151.2021402616786
 30
0.0
 10
108.5869981282352
 20
-151.1725124405055
 30
0.0
 10
108.5869981282352
 20
-151.1725124405055
 30
0.0
 10
108.7434054632655
 20
-151.3375325142489
 30
0.0
 10
108.7434054632655
 20
-151.3375325142489
 30
0.0
 10
108.7096435275101
 20
-151.3733615072956
 30
0.0
 10
108.7075764702189
 20
-151.3754285645867
 30
0.0
 10
108.6820827636281
 20
-151.4029893284687
 30
0.0
  0
HATCH
  5
101
330
FC
100
AcDbEntity
  8
_U+30EC_U+30A4_U+30E4_U+30FC 1
 62
   179
420
  2234388
100
AcDbHatch
 10
0.0
 20
0.0
 30
0.0
210
0.0
220
0.0
230
1.0
  2
SOLID
 70
     1
 71
     0
 91
        1
 92
        1
 93
        1
 72
     4
 94
        3
 73
     0
 74
     1
 95
       59
 96
       55
 40
0.0
 40
0.0
 40
0.0
 40
0.0
 40
1.0
 40
1.0
 40
1.0
 40
2.0
 40
2.0
 40
2.0
 40
3.0
 40
3.0
 40
3.0
 40
4.0
 40
4.0
 40
4.0
 40
5.0
 40
5.0
 40
5.0
 40
6.0
 40
6.0
 40
6.0
 40
7.0
 40
7.0
 40
7.0
 40
8.0
 40
8.0
 40
8.0
 40
9.0
 40
9.0
 40
9.0
 40
10.0
 40
10.0
 40
10.0
 40
11.0
 40
11.0
 40
11.0
 40
12.0
 40
12.0
 40
12.0
 40
13.0
 40
13.0
 40
13.0
 40
14.0
 40
14.0
 40
14.0
 40
15.0
 40
15.0
 40
15.0
 40
16.0
 40
16.0
 40
16.0
 40
17.0
 40
17.0
 40
17.0
 40
18.0
 40
18.0
 40
18.0
 40
18.0
 10
108.6820827636281
 20
-151.4029893284687
 10
108.5149956325935
 20
-151.8897813205345
 10
108.2655707194614
 20
-152.4124023056469
 10
107.666813124125
 20
-152.7293510902899
 10
107.666813124125
 20
-152.7293510902899
 10
107.4783664010818
 20
-152.5770778698418
 10
107.4783664010818
 20
-152.5770778698418
 10
107.639252360243
 20
-152.5074869410398
 10
107.8845431587928
 20
-152.3972438855118
 10
108.1363796387645
 20
-152.0672037380249
 10
108.3734022081497
 20
-151.7543890679642
 10
108.4305907932049
 20
-151.4984184734101
 10
108.4578070475383
 20
-151.3712944500044
 10
108.4578070475383
 20
-151.3712944500044
 10
107.8104736058599
 20
-151.3712944500044
 10
107.8104736058599
 20
-151.3712944500044
 10
107.7067762317539
 20
-151.5321804091656
 10
107.5861978897701
 20
-151.6992675402002
 10
107.3939615616932
 20
-151.8708332953656
 10
107.3939615616932
 20
-151.8708332953656
 10
107.2203287492366
 20
-151.7481878960907
 10
107.2203287492366
 20
-151.7481878960907
 10
107.2795843915829
 20
-151.7013345974914
 10
107.4277234974486
 20
-151.5893689942207
 10
107.5927435711921
 20
-151.3395995715401
 10
107.6688801814161
 20
-151.2210882868475
 10
107.7725775555221
 20
-151.0519340985217
 10
107.798071262113
 20
-150.9292886992469
 10
107.798071262113
 20
-150.9292886992469
 10
108.0285481500762
 20
-151.0309190160617
 10
108.0285481500762
 20
-151.0309190160617
 10
108.0433620606628
 20
-151.0371201879352
 10
108.0581759712494
 20
-151.0453884170998
 10
108.0581759712494
 20
-151.0605468372349
 10
108.0581759712494
 20
-151.0815619196949
 10
108.0326822646585
 20
-151.0943087729903
 10
108.0244140354939
 20
-151.0963758302815
 10
107.9968532716119
 20
-151.1046440594461
 10
107.9882405328988
 20
-151.1025770021549
 10
107.9627468263079
 20
-151.1280707087458
 10
107.9375976292656
 20
-151.1535644153366
 10
107.9396646865568
 20
-151.1618326445012
 10
107.9079698080925
 20
-151.2148871149741
 10
107.9079698080925
 20
-151.2148871149741
 10
108.2421440701617
 20
-151.2148871149741
 10
108.2421440701617
 20
-151.2148871149741
 10
108.4981146647158
 20
-151.2148871149741
 10
108.5298095431801
 20
-151.2021402616786
 10
108.5869981282352
 20
-151.1725124405055
 10
108.5869981282352
 20
-151.1725124405055
 10
108.7434054632655
 20
-151.3375325142489
 10
108.7434054632655
 20
-151.3375325142489
 10
108.7096435275101
 20
-151.3733615072956
 10
108.7075764702189
 20
-151.3754285645867
 10
108.6820827636281
 20
-151.4029893284687
 97
        0
 97
        0
 75
     2
 76
     1
 98
        0
  0
SPLINE
  5
102
330
FC
100
AcDbEntity
  8
_U+30EC_U+30A4_U+30E4_U+30FC 1
370
     0
100
AcDbSpline
210
0.0
220
0.0
230
1.0
 70
    11
 71
     3
 72
    53
 73
    49
 74
     0
 42
0.0000000001
 43
0.0000000001
 12
1.0
 22
0.0
 32
0.0
 13
1.0
 23
0.0
 33
0.0
 40
0.0
 40
0.0
 40
0.0
 40
0.0
 40
1.0
 40
1.0
 40
1.0
 40
2.0
 40
2.0
 40
2.0
 40
3.0
 40
3.0
 40
3.0
 40
4.0
 40
4.0
 40
4.0
 40
5.0
 40
5.0
 40
5.0
 40
6.0
 40
6.0
 40
6.0
 40
7.0
 40
7.0
 40
7.0
 40
8.0
 40
8.0
 40
8.0
 40
9.0
 40
9.0
 40
9.0
 40
10.0
 40
10.0
 40
10.0
 40
11.0
 40
11.0
 40
11.0
 40
12.0
 40
12.0
 40
12.0
 40
13.0
 40
13.0
 40
13.0
 40
14.0
 40
14.0
 40
14.0
 40
15.0
 40
15.0
 40
15.0
 40
16.0
 40
16.0
 40
16.0
 40
16.0
 10
110.301622151244
 20
-152.5157551702044
 30
0.0
 10
110.3098903804086
 20
-152.4716579479932
 30
0.0
 10
110.3098903804086
 20
-152.4630452092801
 30
0.0
 10
110.3164360618306
 20
-152.3889756563472
 30
0.0
 10
110.3164360618306
 20
-152.3889756563472
 30
0.0
 10
109.2860080021924
 20
-152.3889756563472
 30
0.0
 10
109.2860080021924
 20
-152.3889756563472
 30
0.0
 10
109.2860080021924
 20
-152.4206705348115
 30
0.0
 10
109.2860080021924
 20
-152.4757920625755
 30
0.0
 10
109.2904866263232
 20
-152.5116210556221
 30
0.0
 10
109.2904866263232
 20
-152.5116210556221
 30
0.0
 10
109.0493299423557
 20
-152.5116210556221
 30
0.0
 10
109.0493299423557
 20
-152.5116210556221
 30
0.0
 10
109.0555311142292
 20
-152.4564995278581
 30
0.0
 10
109.0662109102335
 20
-152.3655490070475
 30
0.0
 10
109.0662109102335
 20
-152.2367024358992
 30
0.0
 10
109.0682779675246
 20
-152.0313747449783
 30
0.0
 10
109.0682779675246
 20
-152.0079480956786
 30
0.0
 10
109.0682779675246
 20
-151.9848659559274
 30
0.0
 10
109.0682779675246
 20
-151.9848659559274
 30
0.0
 10
109.0682779675246
 20
-151.544927262461
 30
0.0
 10
109.0682779675246
 20
-151.544927262461
 30
0.0
 10
109.0682779675246
 20
-151.4794704482412
 30
0.0
 10
109.0617322861026
 20
-151.1556314726278
 30
0.0
 10
109.0575981715203
 20
-151.1005099448638
 30
0.0
 10
109.1823106280864
 20
-151.1132567981592
 30
0.0
 10
109.4468939613536
 20
-151.11773542229
 30
0.0
 10
109.5781520993416
 20
-151.11773542229
 30
0.0
 10
109.5781520993416
 20
-151.11773542229
 30
0.0
 10
110.0329047033945
 20
-151.11773542229
 30
0.0
 10
110.0329047033945
 20
-151.11773542229
 30
0.0
 10
110.1831108665514
 20
-151.11773542229
 30
0.0
 10
110.4073865826412
 20
-151.1156683649989
 30
0.0
 10
110.5534586312158
 20
-151.1070556262858
 30
0.0
 10
110.5448458925027
 20
-151.2169541722652
 30
0.0
 10
110.5407117779204
 20
-151.4663790853973
 30
0.0
 10
110.5407117779204
 20
-151.5848903700899
 30
0.0
 10
110.5407117779204
 20
-151.5848903700899
 30
0.0
 10
110.5407117779204
 20
-152.0038139810963
 30
0.0
 10
110.5407117779204
 20
-152.0038139810963
 30
0.0
 10
110.5407117779204
 20
-152.0465331651134
 30
0.0
 10
110.5469129497938
 20
-152.2284342067346
 30
0.0
 10
110.5469129497938
 20
-152.2663302570723
 30
0.0
 10
110.548980007085
 20
-152.4165364202292
 30
0.0
 10
110.5575927457981
 20
-152.4671793238624
 30
0.0
 10
110.5658609749627
 20
-152.5157551702044
 30
0.0
 10
110.5658609749627
 20
-152.5157551702044
 30
0.0
 10
110.301622151244
 20
-152.5157551702044
 30
0.0
 10
110.301622151244
 20
-152.5157551702044
 30
0.0
  0
POLYLINE
  5
103
330
FC
100
AcDbEntity
  8
_U+30EC_U+30A4_U+30E4_U+30FC 1
370
     0
100
AcDb2dPolyline
 66
     1
 10
0.0
 20
0.0
 30
0.0
  0
VERTEX
  5
104
330
103
100
AcDbEntity
  8
_U+30EC_U+30A4_U+30E4_U+30FC 1
370
     0
100
AcDbVertex
100
AcDb2dVertex
 10
110.3247042909952
 20
-151.3120388076581
 30
0.0
  0
VERTEX
  5
105
330
103
100
AcDbEntity
  8
_U+30EC_U+30A4_U+30E4_U+30FC 1
370
     0
100
AcDbVertex
100
AcDb2dVertex
 10
109.2839409449012
 20
-151.3120388076581
 30
0.0
  0
VERTEX
  5
106
330
103
100
AcDbEntity
  8
_U+30EC_U+30A4_U+30E4_U+30FC 1
370
     0
100
AcDbVertex
100
AcDb2dVertex
 10
109.2839409449012
 20
-152.2008734428526
 30
0.0
  0
VERTEX
  5
107
330
103
100
AcDbEntity
  8
_U+30EC_U+30A4_U+30E4_U+30FC 1
370
     0
100
AcDbVertex
100
AcDb2dVertex
 10
110.3247042909952
 20
-152.2008734428526
 30
0.0
  0
VERTEX
  5
108
330
103
100
AcDbEntity
  8
_U+30EC_U+30A4_U+30E4_U+30FC 1
370
     0
100
AcDbVertex
100
AcDb2dVertex
 10
110.3247042909952
 20
-151.3120388076581
 30
0.0
  0
SEQEND
  5
109
330
103
100
AcDbEntity
  8
_U+30EC_U+30A4_U+30E4_U+30FC 1
370
     0
  0
HATCH
  5
10A
330
FC
100
AcDbEntity
  8
_U+30EC_U+30A4_U+30E4_U+30FC 1
 62
   179
420
  2234388
100
AcDbHatch
 10
0.0
 20
0.0
 30
0.0
210
0.0
220
0.0
230
1.0
  2
SOLID
 70
     1
 71
     0
 91
        2
 92
        1
 93
        1
 72
     4
 94
        3
 73
     0
 74
     1
 95
       53
 96
       49
 40
0.0
 40
0.0
 40
0.0
 40
0.0
 40
1.0
 40
1.0
 40
1.0
 40
2.0
 40
2.0
 40
2.0
 40
3.0
 40
3.0
 40
3.0
 40
4.0
 40
4.0
 40
4.0
 40
5.0
 40
5.0
 40
5.0
 40
6.0
 40
6.0
 40
6.0
 40
7.0
 40
7.0
 40
7.0
 40
8.0
 40
8.0
 40
8.0
 40
9.0
 40
9.0
 40
9.0
 40
10.0
 40
10.0
 40
10.0
 40
11.0
 40
11.0
 40
11.0
 40
12.0
 40
12.0
 40
12.0
 40
13.0
 40
13.0
 40
13.0
 40
14.0
 40
14.0
 40
14.0
 40
15.0
 40
15.0
 40
15.0
 40
16.0
 40
16.0
 40
16.0
 40
16.0
 10
110.301622151244
 20
-152.5157551702044
 10
110.3098903804086
 20
-152.4716579479932
 10
110.3098903804086
 20
-152.4630452092801
 10
110.3164360618306
 20
-152.3889756563472
 10
110.3164360618306
 20
-152.3889756563472
 10
109.2860080021924
 20
-152.3889756563472
 10
109.2860080021924
 20
-152.3889756563472
 10
109.2860080021924
 20
-152.4206705348115
 10
109.2860080021924
 20
-152.4757920625755
 10
109.2904866263232
 20
-152.5116210556221
 10
109.2904866263232
 20
-152.5116210556221
 10
109.0493299423557
 20
-152.5116210556221
 10
109.0493299423557
 20
-152.5116210556221
 10
109.0555311142292
 20
-152.4564995278581
 10
109.0662109102335
 20
-152.3655490070475
 10
109.0662109102335
 20
-152.2367024358992
 10
109.0682779675246
 20
-152.0313747449783
 10
109.0682779675246
 20
-152.0079480956786
 10
109.0682779675246
 20
-151.9848659559274
 10
109.0682779675246
 20
-151.9848659559274
 10
109.0682779675246
 20
-151.544927262461
 10
109.0682779675246
 20
-151.544927262461
 10
109.0682779675246
 20
-151.4794704482412
 10
109.0617322861026
 20
-151.1556314726278
 10
109.0575981715203
 20
-151.1005099448638
 10
109.1823106280864
 20
-151.1132567981592
 10
109.4468939613536
 20
-151.11773542229
 10
109.5781520993416
 20
-151.11773542229
 10
109.5781520993416
 20
-151.11773542229
 10
110.0329047033945
 20
-151.11773542229
 10
110.0329047033945
 20
-151.11773542229
 10
110.1831108665514
 20
-151.11773542229
 10
110.4073865826412
 20
-151.1156683649989
 10
110.5534586312158
 20
-151.1070556262858
 10
110.5448458925027
 20
-151.2169541722652
 10
110.5407117779204
 20
-151.4663790853973
 10
110.5407117779204
 20
-151.5848903700899
 10
110.5407117779204
 20
-151.5848903700899
 10
110.5407117779204
 20
-152.0038139810963
 10
110.5407117779204
 20
-152.0038139810963
 10
110.5407117779204
 20
-152.0465331651134
 10
110.5469129497938
 20
-152.2284342067346
 10
110.5469129497938
 20
-152.2663302570723
 10
110.548980007085
 20
-152.4165364202292
 10
110.5575927457981
 20
-152.4671793238624
 10
110.5658609749627
 20
-152.5157551702044
 10
110.5658609749627
 20
-152.5157551702044
 10
110.301622151244
 20
-152.5157551702044
 10
110.301622151244
 20
-152.5157551702044
 97
        0
 97
        0
 92
        1
 93
        4
 72
     1
 10
110.3247042909952
 20
-151.3120388076581
 11
109.2839409449012
 21
-151.3120388076581
 72
     1
 10
109.2839409449012
 20
-151.3120388076581
 11
109.2839409449012
 21
-152.2008734428526
 72
     1
 10
109.2839409449012
 20
-152.2008734428526
 11
110.3247042909952
 21
-152.2008734428526
 72
     1
 10
110.3247042909952
 20
-152.2008734428526
 11
110.3247042909952
 21
-151.3120388076581
 97
        0
 75
     2
 76
     1
 98
        0
  0
SPLINE
  5
10B
330
FC
100
AcDbEntity
  8
_U+30EC_U+30A4_U+30E4_U+30FC 1
370
     0
100
AcDbSpline
210
0.0
220
0.0
230
1.0
 70
    11
 71
     3
 72
    56
 73
    52
 74
     0
 42
0.0000000001
 43
0.0000000001
 12
1.0
 22
0.0
 32
0.0
 13
1.0
 23
0.0
 33
0.0
 40
0.0
 40
0.0
 40
0.0
 40
0.0
 40
1.0
 40
1.0
 40
1.0
 40
2.0
 40
2.0
 40
2.0
 40
3.0
 40
3.0
 40
3.0
 40
4.0
 40
4.0
 40
4.0
 40
5.0
 40
5.0
 40
5.0
 40
6.0
 40
6.0
 40
6.0
 40
7.0
 40
7.0
 40
7.0
 40
8.0
 40
8.0
 40
8.0
 40
9.0
 40
9.0
 40
9.0
 40
10.0
 40
10.0
 40
10.0
 40
11.0
 40
11.0
 40
11.0
 40
12.0
 40
12.0
 40
12.0
 40
13.0
 40
13.0
 40
13.0
 40
14.0
 40
14.0
 40
14.0
 40
15.0
 40
15.0
 40
15.0
 40
16.0
 40
16.0
 40
16.0
 40
17.0
 40
17.0
 40
17.0
 40
17.0
 10
112.3125243859844
 20
-152.5815564939727
 30
0.0
 10
112.1199435483589
 20
-152.2725314289458
 30
0.0
 10
111.8619058965137
 20
-152.0672037380249
 30
0.0
 10
111.7709553757031
 20
-152.0017469238051
 30
0.0
 10
111.4767442212628
 20
-152.3403998100052
 30
0.0
 10
111.1870116909533
 20
-152.4926730304532
 30
0.0
 10
110.9882296814543
 20
-152.585690608555
 30
0.0
 10
110.9882296814543
 20
-152.585690608555
 30
0.0
 10
110.8294107795843
 20
-152.3972438855118
 30
0.0
 10
110.8294107795843
 20
-152.3972438855118
 30
0.0
 10
110.9331081536903
 20
-152.3614148924652
 30
0.0
 10
111.1467040737758
 20
-152.2852782822412
 30
0.0
 10
111.3795925285787
 20
-152.0992431260377
 30
0.0
 10
111.6438313522974
 20
-151.8873697536948
 30
0.0
 10
111.8302110180494
 20
-151.600048790225
 30
0.0
 10
111.9528564173243
 20
-151.2868896106158
 30
0.0
 10
111.9528564173243
 20
-151.2868896106158
 30
0.0
 10
111.5763074807865
 20
-151.2868896106158
 30
0.0
 10
111.5763074807865
 20
-151.2868896106158
 30
0.0
 10
111.4240342603384
 20
-151.2868896106158
 30
0.0
 10
111.2145724548352
 20
-151.2910237251981
 30
0.0
 10
111.0643662916784
 20
-151.309971750367
 30
0.0
 10
111.0643662916784
 20
-151.309971750367
 30
0.0
 10
111.0643662916784
 20
-151.0984428875726
 30
0.0
 10
111.0643662916784
 20
-151.0984428875726
 30
0.0
 10
111.1318901631893
 20
-151.1046440594461
 30
0.0
 10
111.3923393818741
 20
-151.1156683649989
 30
0.0
 10
111.4788112785539
 20
-151.1156683649989
 30
0.0
 10
111.4788112785539
 20
-151.1156683649989
 30
0.0
 10
111.789903400872
 20
-151.1156683649989
 30
0.0
 10
111.789903400872
 20
-151.1156683649989
 30
0.0
 10
111.997298149084
 20
-151.1156683649989
 30
0.0
 10
112.0203802888352
 20
-151.1091226835769
 30
0.0
 10
112.0438069381349
 20
-151.1046440594461
 30
0.0
 10
112.0882486698946
 20
-151.0984428875726
 30
0.0
 10
112.1261447202324
 20
-151.0729491809818
 30
0.0
 10
112.1475043122409
 20
-151.0564127226526
 30
0.0
 10
112.1475043122409
 20
-151.0564127226526
 30
0.0
 10
112.3039116472712
 20
-151.2297010255606
 30
0.0
 10
112.3039116472712
 20
-151.2297010255606
 30
0.0
 10
112.2639485396424
 20
-151.2572617894426
 30
0.0
 10
112.2512016863469
 20
-151.2679415854469
 30
0.0
 10
112.2022813304564
 20
-151.3037705784935
 30
0.0
 10
112.073434759308
 20
-151.5511284343345
 30
0.0
 10
111.9931640345017
 20
-151.7013345974914
 30
0.0
 10
111.8894666603957
 20
-151.8474066460659
 30
0.0
 10
112.2022813304564
 20
-152.0651366807337
 30
0.0
 10
112.431035670677
 20
-152.3510796060094
 30
0.0
 10
112.4837456316013
 20
-152.4289387639761
 30
0.0
 10
112.4837456316013
 20
-152.4289387639761
 30
0.0
 10
112.3125243859844
 20
-152.5815564939727
 30
0.0
 10
112.3125243859844
 20
-152.5815564939727
 30
0.0
  0
HATCH
  5
10C
330
FC
100
AcDbEntity
  8
_U+30EC_U+30A4_U+30E4_U+30FC 1
 62
   179
420
  2234388
100
AcDbHatch
 10
0.0
 20
0.0
 30
0.0
210
0.0
220
0.0
230
1.0
  2
SOLID
 70
     1
 71
     0
 91
        1
 92
        1
 93
        1
 72
     4
 94
        3
 73
     0
 74
     1
 95
       56
 96
       52
 40
0.0
 40
0.0
 40
0.0
 40
0.0
 40
1.0
 40
1.0
 40
1.0
 40
2.0
 40
2.0
 40
2.0
 40
3.0
 40
3.0
 40
3.0
 40
4.0
 40
4.0
 40
4.0
 40
5.0
 40
5.0
 40
5.0
 40
6.0
 40
6.0
 40
6.0
 40
7.0
 40
7.0
 40
7.0
 40
8.0
 40
8.0
 40
8.0
 40
9.0
 40
9.0
 40
9.0
 40
10.0
 40
10.0
 40
10.0
 40
11.0
 40
11.0
 40
11.0
 40
12.0
 40
12.0
 40
12.0
 40
13.0
 40
13.0
 40
13.0
 40
14.0
 40
14.0
 40
14.0
 40
15.0
 40
15.0
 40
15.0
 40
16.0
 40
16.0
 40
16.0
 40
17.0
 40
17.0
 40
17.0
 40
17.0
 10
112.3125243859844
 20
-152.5815564939727
 10
112.1199435483589
 20
-152.2725314289458
 10
111.8619058965137
 20
-152.0672037380249
 10
111.7709553757031
 20
-152.0017469238051
 10
111.4767442212628
 20
-152.3403998100052
 10
111.1870116909533
 20
-152.4926730304532
 10
110.9882296814543
 20
-152.585690608555
 10
110.9882296814543
 20
-152.585690608555
 10
110.8294107795843
 20
-152.3972438855118
 10
110.8294107795843
 20
-152.3972438855118
 10
110.9331081536903
 20
-152.3614148924652
 10
111.1467040737758
 20
-152.2852782822412
 10
111.3795925285787
 20
-152.0992431260377
 10
111.6438313522974
 20
-151.8873697536948
 10
111.8302110180494
 20
-151.600048790225
 10
111.9528564173243
 20
-151.2868896106158
 10
111.9528564173243
 20
-151.2868896106158
 10
111.5763074807865
 20
-151.2868896106158
 10
111.5763074807865
 20
-151.2868896106158
 10
111.4240342603384
 20
-151.2868896106158
 10
111.2145724548352
 20
-151.2910237251981
 10
111.0643662916784
 20
-151.309971750367
 10
111.0643662916784
 20
-151.309971750367
 10
111.0643662916784
 20
-151.0984428875726
 10
111.0643662916784
 20
-151.0984428875726
 10
111.1318901631893
 20
-151.1046440594461
 10
111.3923393818741
 20
-151.1156683649989
 10
111.4788112785539
 20
-151.1156683649989
 10
111.4788112785539
 20
-151.1156683649989
 10
111.789903400872
 20
-151.1156683649989
 10
111.789903400872
 20
-151.1156683649989
 10
111.997298149084
 20
-151.1156683649989
 10
112.0203802888352
 20
-151.1091226835769
 10
112.0438069381349
 20
-151.1046440594461
 10
112.0882486698946
 20
-151.0984428875726
 10
112.1261447202324
 20
-151.0729491809818
 10
112.1475043122409
 20
-151.0564127226526
 10
112.1475043122409
 20
-151.0564127226526
 10
112.3039116472712
 20
-151.2297010255606
 10
112.3039116472712
 20
-151.2297010255606
 10
112.2639485396424
 20
-151.2572617894426
 10
112.2512016863469
 20
-151.2679415854469
 10
112.2022813304564
 20
-151.3037705784935
 10
112.073434759308
 20
-151.5511284343345
 10
111.9931640345017
 20
-151.7013345974914
 10
111.8894666603957
 20
-151.8474066460659
 10
112.2022813304564
 20
-152.0651366807337
 10
112.431035670677
 20
-152.3510796060094
 10
112.4837456316013
 20
-152.4289387639761
 10
112.4837456316013
 20
-152.4289387639761
 10
112.3125243859844
 20
-152.5815564939727
 10
112.3125243859844
 20
-152.5815564939727
 97
        0
 97
        0
 75
     2
 76
     1
 98
        0
  0
SPLINE
  5
10D
330
FC
100
AcDbEntity
  8
_U+30EC_U+30A4_U+30E4_U+30FC 1
370
     0
100
AcDbSpline
210
0.0
220
0.0
230
1.0
 70
    11
 71
     3
 72
    77
 73
    73
 74
     0
 42
0.0000000001
 43
0.0000000001
 12
1.0
 22
0.0
 32
0.0
 13
1.0
 23
0.0
 33
0.0
 40
0.0
 40
0.0
 40
0.0
 40
0.0
 40
1.0
 40
1.0
 40
1.0
 40
2.0
 40
2.0
 40
2.0
 40
3.0
 40
3.0
 40
3.0
 40
4.0
 40
4.0
 40
4.0
 40
5.0
 40
5.0
 40
5.0
 40
6.0
 40
6.0
 40
6.0
 40
7.0
 40
7.0
 40
7.0
 40
8.0
 40
8.0
 40
8.0
 40
9.0
 40
9.0
 40
9.0
 40
10.0
 40
10.0
 40
10.0
 40
11.0
 40
11.0
 40
11.0
 40
12.0
 40
12.0
 40
12.0
 40
13.0
 40
13.0
 40
13.0
 40
14.0
 40
14.0
 40
14.0
 40
15.0
 40
15.0
 40
15.0
 40
16.0
 40
16.0
 40
16.0
 40
17.0
 40
17.0
 40
17.0
 40
18.0
 40
18.0
 40
18.0
 40
19.0
 40
19.0
 40
19.0
 40
20.0
 40
20.0
 40
20.0
 40
21.0
 40
21.0
 40
21.0
 40
22.0
 40
22.0
 40
22.0
 40
23.0
 40
23.0
 40
23.0
 40
24.0
 40
24.0
 40
24.0
 40
24.0
 10
114.3296277925982
 20
-152.7190158038341
 30
0.0
 10
114.2831190035473
 20
-152.744509510425
 30
0.0
 10
114.1584065469812
 20
-152.7569118541719
 30
0.0
 10
114.0798583699175
 20
-152.7569118541719
 30
0.0
 10
114.0674560261706
 20
-152.7569118541719
 30
0.0
 10
114.0419623195798
 20
-152.7569118541719
 30
0.0
 10
114.0082003838243
 20
-152.7527777395896
 30
0.0
 10
114.0082003838243
 20
-152.7527777395896
 30
0.0
 10
113.9107041815918
 20
-152.5264349662087
 30
0.0
 10
113.9107041815918
 20
-152.5264349662087
 30
0.0
 10
113.9403320027649
 20
-152.5329806476306
 30
0.0
 10
113.9975205878201
 20
-152.5412488767952
 30
0.0
 10
114.1139648152215
 20
-152.5412488767952
 30
0.0
 10
114.1921684827367
 20
-152.5412488767952
 30
0.0
 10
114.1942355400278
 20
-152.4992187118752
 30
0.0
 10
114.1942355400278
 20
-152.44203012682
 30
0.0
 10
114.1942355400278
 20
-152.44203012682
 30
0.0
 10
114.1942355400278
 20
-152.0926974446157
 30
0.0
 10
114.1942355400278
 20
-152.0926974446157
 30
0.0
 10
114.1942355400278
 20
-152.0926974446157
 30
0.0
 10
113.735004311844
 20
-152.0926974446157
 30
0.0
 10
113.735004311844
 20
-152.0926974446157
 30
0.0
 10
113.7374158786837
 20
-152.2305012640257
 30
0.0
 10
113.7394829359749
 20
-152.4289387639761
 30
0.0
 10
113.7456841078483
 20
-152.5626084688038
 30
0.0
 10
113.7477511651395
 20
-152.5901692326858
 30
0.0
 10
113.7477511651395
 20
-152.634266454897
 30
0.0
 10
113.7604980184349
 20
-152.6955891545344
 30
0.0
 10
113.7604980184349
 20
-152.6955891545344
 30
0.0
 10
113.5193413344674
 20
-152.6955891545344
 30
0.0
 10
113.5193413344674
 20
-152.6955891545344
 30
0.0
 10
113.5448350410582
 20
-152.5708766979684
 30
0.0
 10
113.5448350410582
 20
-152.2305012640257
 30
0.0
 10
113.5448350410582
 20
-152.0926974446157
 30
0.0
 10
113.5448350410582
 20
-152.0926974446157
 30
0.0
 10
113.1024847807522
 20
-152.0926974446157
 30
0.0
 10
113.1024847807522
 20
-152.0926974446157
 30
0.0
 10
113.079402641001
 20
-152.3000921928277
 30
0.0
 10
113.0139458267812
 20
-152.5688096406772
 30
0.0
 10
112.816886365025
 20
-152.7527777395896
 30
0.0
 10
112.816886365025
 20
-152.7527777395896
 30
0.0
 10
112.6287841515303
 20
-152.6301323403147
 30
0.0
 10
112.6287841515303
 20
-152.6301323403147
 30
0.0
 10
112.8826876887932
 20
-152.4103352483558
 30
0.0
 10
112.9143825672575
 20
-152.0782280435777
 30
0.0
 10
112.9143825672575
 20
-151.7461208387996
 30
0.0
 10
112.9143825672575
 20
-151.7461208387996
 30
0.0
 10
112.9143825672575
 20
-151.309971750367
 30
0.0
 10
112.9143825672575
 20
-151.309971750367
 30
0.0
 10
112.9143825672575
 20
-151.2741427573204
 30
0.0
 10
112.9123155099664
 20
-151.0412543025175
 30
0.0
 10
112.9037027712533
 20
-150.9399684952511
 30
0.0
 10
113.0435736479544
 20
-150.9503037817069
 30
0.0
 10
113.2847303319219
 20
-150.9503037817069
 30
0.0
 10
113.4283908136568
 20
-150.9503037817069
 30
0.0
 10
113.4283908136568
 20
-150.9503037817069
 30
0.0
 10
113.8876220418406
 20
-150.9503037817069
 30
0.0
 10
113.8876220418406
 20
-150.9503037817069
 30
0.0
 10
113.9024359524272
 20
-150.9503037817069
 30
0.0
 10
114.251424125083
 20
-150.9503037817069
 30
0.0
 10
114.4098985174045
 20
-150.9399684952511
 30
0.0
 10
114.4078314601133
 20
-150.9926784561754
 30
0.0
 10
114.4016302882399
 20
-151.1535644153366
 30
0.0
 10
114.4016302882399
 20
-151.2045518285183
 30
0.0
 10
114.4016302882399
 20
-151.2045518285183
 30
0.0
 10
114.4016302882399
 20
-151.8115776530193
 30
0.0
 10
114.4016302882399
 20
-151.8115776530193
 30
0.0
 10
114.4016302882399
 20
-151.8305256781882
 30
0.0
 10
114.4119655746956
 20
-152.4017225096426
 30
0.0
 10
114.4119655746956
 20
-152.5136881129133
 30
0.0
 10
114.4119655746956
 20
-152.5708766979684
 30
0.0
 10
114.4119655746956
 20
-152.6725070147833
 30
0.0
 10
114.3296277925982
 20
-152.7190158038341
 30
0.0
  0
POLYLINE
  5
10E
330
FC
100
AcDbEntity
  8
_U+30EC_U+30A4_U+30E4_U+30FC 1
370
     0
100
AcDb2dPolyline
 66
     1
 10
0.0
 20
0.0
 30
0.0
  0
VERTEX
  5
10F
330
10E
100
AcDbEntity
  8
_U+30EC_U+30A4_U+30E4_U+30FC 1
370
     0
100
AcDbVertex
100
AcDb2dVertex
 10
113.5448350410582
 20
-151.1322048233281
 30
0.0
  0
VERTEX
  5
110
330
10E
100
AcDbEntity
  8
_U+30EC_U+30A4_U+30E4_U+30FC 1
370
     0
100
AcDbVertex
100
AcDb2dVertex
 10
113.106963404883
 20
-151.1322048233281
 30
0.0
  0
VERTEX
  5
111
330
10E
100
AcDbEntity
  8
_U+30EC_U+30A4_U+30E4_U+30FC 1
370
     0
100
AcDbVertex
100
AcDb2dVertex
 10
113.106963404883
 20
-151.4367512642241
 30
0.0
  0
VERTEX
  5
112
330
10E
100
AcDbEntity
  8
_U+30EC_U+30A4_U+30E4_U+30FC 1
370
     0
100
AcDbVertex
100
AcDb2dVertex
 10
113.5448350410582
 20
-151.4367512642241
 30
0.0
  0
VERTEX
  5
113
330
10E
100
AcDbEntity
  8
_U+30EC_U+30A4_U+30E4_U+30FC 1
370
     0
100
AcDbVertex
100
AcDb2dVertex
 10
113.5448350410582
 20
-151.1322048233281
 30
0.0
  0
SEQEND
  5
114
330
10E
100
AcDbEntity
  8
_U+30EC_U+30A4_U+30E4_U+30FC 1
370
     0
  0
POLYLINE
  5
115
330
FC
100
AcDbEntity
  8
_U+30EC_U+30A4_U+30E4_U+30FC 1
370
     0
100
AcDb2dPolyline
 66
     1
 10
0.0
 20
0.0
 30
0.0
  0
VERTEX
  5
116
330
115
100
AcDbEntity
  8
_U+30EC_U+30A4_U+30E4_U+30FC 1
370
     0
100
AcDbVertex
100
AcDb2dVertex
 10
113.5448350410582
 20
-151.6041829048073
 30
0.0
  0
VERTEX
  5
117
330
115
100
AcDbEntity
  8
_U+30EC_U+30A4_U+30E4_U+30FC 1
370
     0
100
AcDbVertex
100
AcDb2dVertex
 10
113.106963404883
 20
-151.6041829048073
 30
0.0
  0
VERTEX
  5
118
330
115
100
AcDbEntity
  8
_U+30EC_U+30A4_U+30E4_U+30FC 1
370
     0
100
AcDbVertex
100
AcDb2dVertex
 10
113.106963404883
 20
-151.9128634602857
 30
0.0
  0
VERTEX
  5
119
330
115
100
AcDbEntity
  8
_U+30EC_U+30A4_U+30E4_U+30FC 1
370
     0
100
AcDbVertex
100
AcDb2dVertex
 10
113.5448350410582
 20
-151.9128634602857
 30
0.0
  0
VERTEX
  5
11A
330
115
100
AcDbEntity
  8
_U+30EC_U+30A4_U+30E4_U+30FC 1
370
     0
100
AcDbVertex
100
AcDb2dVertex
 10
113.5448350410582
 20
-151.6041829048073
 30
0.0
  0
SEQEND
  5
11B
330
115
100
AcDbEntity
  8
_U+30EC_U+30A4_U+30E4_U+30FC 1
370
     0
  0
POLYLINE
  5
11C
330
FC
100
AcDbEntity
  8
_U+30EC_U+30A4_U+30E4_U+30FC 1
370
     0
100
AcDb2dPolyline
 66
     1
 10
0.0
 20
0.0
 30
0.0
  0
VERTEX
  5
11D
330
11C
100
AcDbEntity
  8
_U+30EC_U+30A4_U+30E4_U+30FC 1
370
     0
100
AcDbVertex
100
AcDb2dVertex
 10
114.1942355400278
 20
-151.1322048233281
 30
0.0
  0
VERTEX
  5
11E
330
11C
100
AcDbEntity
  8
_U+30EC_U+30A4_U+30E4_U+30FC 1
370
     0
100
AcDbVertex
100
AcDb2dVertex
 10
113.735004311844
 20
-151.1322048233281
 30
0.0
  0
VERTEX
  5
11F
330
11C
100
AcDbEntity
  8
_U+30EC_U+30A4_U+30E4_U+30FC 1
370
     0
100
AcDbVertex
100
AcDb2dVertex
 10
113.735004311844
 20
-151.4367512642241
 30
0.0
  0
VERTEX
  5
120
330
11C
100
AcDbEntity
  8
_U+30EC_U+30A4_U+30E4_U+30FC 1
370
     0
100
AcDbVertex
100
AcDb2dVertex
 10
114.1942355400278
 20
-151.4367512642241
 30
0.0
  0
VERTEX
  5
121
330
11C
100
AcDbEntity
  8
_U+30EC_U+30A4_U+30E4_U+30FC 1
370
     0
100
AcDbVertex
100
AcDb2dVertex
 10
114.1942355400278
 20
-151.1322048233281
 30
0.0
  0
SEQEND
  5
122
330
11C
100
AcDbEntity
  8
_U+30EC_U+30A4_U+30E4_U+30FC 1
370
     0
  0
POLYLINE
  5
123
330
FC
100
AcDbEntity
  8
_U+30EC_U+30A4_U+30E4_U+30FC 1
370
     0
100
AcDb2dPolyline
 66
     1
 10
0.0
 20
0.0
 30
0.0
  0
VERTEX
  5
124
330
123
100
AcDbEntity
  8
_U+30EC_U+30A4_U+30E4_U+30FC 1
370
     0
100
AcDbVertex
100
AcDb2dVertex
 10
114.1942355400278
 20
-151.6041829048073
 30
0.0
  0
VERTEX
  5
125
330
123
100
AcDbEntity
  8
_U+30EC_U+30A4_U+30E4_U+30FC 1
370
     0
100
AcDbVertex
100
AcDb2dVertex
 10
113.735004311844
 20
-151.6041829048073
 30
0.0
  0
VERTEX
  5
126
330
123
100
AcDbEntity
  8
_U+30EC_U+30A4_U+30E4_U+30FC 1
370
     0
100
AcDbVertex
100
AcDb2dVertex
 10
113.735004311844
 20
-151.9128634602857
 30
0.0
  0
VERTEX
  5
127
330
123
100
AcDbEntity
  8
_U+30EC_U+30A4_U+30E4_U+30FC 1
370
     0
100
AcDbVertex
100
AcDb2dVertex
 10
114.1942355400278
 20
-151.9128634602857
 30
0.0
  0
VERTEX
  5
128
330
123
100
AcDbEntity
  8
_U+30EC_U+30A4_U+30E4_U+30FC 1
370
     0
100
AcDbVertex
100
AcDb2dVertex
 10
114.1942355400278
 20
-151.6041829048073
 30
0.0
  0
SEQEND
  5
129
330
123
100
AcDbEntity
  8
_U+30EC_U+30A4_U+30E4_U+30FC 1
370
     0
  0
HATCH
  5
12A
330
FC
100
AcDbEntity
  8
_U+30EC_U+30A4_U+30E4_U+30FC 1
 62
   179
420
  2234388
100
AcDbHatch
 10
0.0
 20
0.0
 30
0.0
210
0.0
220
0.0
230
1.0
  2
SOLID
 70
     1
 71
     0
 91
        5
 92
        1
 93
        1
 72
     4
 94
        3
 73
     0
 74
     1
 95
       77
 96
       73
 40
0.0
 40
0.0
 40
0.0
 40
0.0
 40
1.0
 40
1.0
 40
1.0
 40
2.0
 40
2.0
 40
2.0
 40
3.0
 40
3.0
 40
3.0
 40
4.0
 40
4.0
 40
4.0
 40
5.0
 40
5.0
 40
5.0
 40
6.0
 40
6.0
 40
6.0
 40
7.0
 40
7.0
 40
7.0
 40
8.0
 40
8.0
 40
8.0
 40
9.0
 40
9.0
 40
9.0
 40
10.0
 40
10.0
 40
10.0
 40
11.0
 40
11.0
 40
11.0
 40
12.0
 40
12.0
 40
12.0
 40
13.0
 40
13.0
 40
13.0
 40
14.0
 40
14.0
 40
14.0
 40
15.0
 40
15.0
 40
15.0
 40
16.0
 40
16.0
 40
16.0
 40
17.0
 40
17.0
 40
17.0
 40
18.0
 40
18.0
 40
18.0
 40
19.0
 40
19.0
 40
19.0
 40
20.0
 40
20.0
 40
20.0
 40
21.0
 40
21.0
 40
21.0
 40
22.0
 40
22.0
 40
22.0
 40
23.0
 40
23.0
 40
23.0
 40
24.0
 40
24.0
 40
24.0
 40
24.0
 10
114.3296277925982
 20
-152.7190158038341
 10
114.2831190035473
 20
-152.744509510425
 10
114.1584065469812
 20
-152.7569118541719
 10
114.0798583699175
 20
-152.7569118541719
 10
114.0674560261706
 20
-152.7569118541719
 10
114.0419623195798
 20
-152.7569118541719
 10
114.0082003838243
 20
-152.7527777395896
 10
114.0082003838243
 20
-152.7527777395896
 10
113.9107041815918
 20
-152.5264349662087
 10
113.9107041815918
 20
-152.5264349662087
 10
113.9403320027649
 20
-152.5329806476306
 10
113.9975205878201
 20
-152.5412488767952
 10
114.1139648152215
 20
-152.5412488767952
 10
114.1921684827367
 20
-152.5412488767952
 10
114.1942355400278
 20
-152.4992187118752
 10
114.1942355400278
 20
-152.44203012682
 10
114.1942355400278
 20
-152.44203012682
 10
114.1942355400278
 20
-152.0926974446157
 10
114.1942355400278
 20
-152.0926974446157
 10
114.1942355400278
 20
-152.0926974446157
 10
113.735004311844
 20
-152.0926974446157
 10
113.735004311844
 20
-152.0926974446157
 10
113.7374158786837
 20
-152.2305012640257
 10
113.7394829359749
 20
-152.4289387639761
 10
113.7456841078483
 20
-152.5626084688038
 10
113.7477511651395
 20
-152.5901692326858
 10
113.7477511651395
 20
-152.634266454897
 10
113.7604980184349
 20
-152.6955891545344
 10
113.7604980184349
 20
-152.6955891545344
 10
113.5193413344674
 20
-152.6955891545344
 10
113.5193413344674
 20
-152.6955891545344
 10
113.5448350410582
 20
-152.5708766979684
 10
113.5448350410582
 20
-152.2305012640257
 10
113.5448350410582
 20
-152.0926974446157
 10
113.5448350410582
 20
-152.0926974446157
 10
113.1024847807522
 20
-152.0926974446157
 10
113.1024847807522
 20
-152.0926974446157
 10
113.079402641001
 20
-152.3000921928277
 10
113.0139458267812
 20
-152.5688096406772
 10
112.816886365025
 20
-152.7527777395896
 10
112.816886365025
 20
-152.7527777395896
 10
112.6287841515303
 20
-152.6301323403147
 10
112.6287841515303
 20
-152.6301323403147
 10
112.8826876887932
 20
-152.4103352483558
 10
112.9143825672575
 20
-152.0782280435777
 10
112.9143825672575
 20
-151.7461208387996
 10
112.9143825672575
 20
-151.7461208387996
 10
112.9143825672575
 20
-151.309971750367
 10
112.9143825672575
 20
-151.309971750367
 10
112.9143825672575
 20
-151.2741427573204
 10
112.9123155099664
 20
-151.0412543025175
 10
112.9037027712533
 20
-150.9399684952511
 10
113.0435736479544
 20
-150.9503037817069
 10
113.2847303319219
 20
-150.9503037817069
 10
113.4283908136568
 20
-150.9503037817069
 10
113.4283908136568
 20
-150.9503037817069
 10
113.8876220418406
 20
-150.9503037817069
 10
113.8876220418406
 20
-150.9503037817069
 10
113.9024359524272
 20
-150.9503037817069
 10
114.251424125083
 20
-150.9503037817069
 10
114.4098985174045
 20
-150.9399684952511
 10
114.4078314601133
 20
-150.9926784561754
 10
114.4016302882399
 20
-151.1535644153366
 10
114.4016302882399
 20
-151.2045518285183
 10
114.4016302882399
 20
-151.2045518285183
 10
114.4016302882399
 20
-151.8115776530193
 10
114.4016302882399
 20
-151.8115776530193
 10
114.4016302882399
 20
-151.8305256781882
 10
114.4119655746956
 20
-152.4017225096426
 10
114.4119655746956
 20
-152.5136881129133
 10
114.4119655746956
 20
-152.5708766979684
 10
114.4119655746956
 20
-152.6725070147833
 10
114.3296277925982
 20
-152.7190158038341
 97
        0
 97
        0
 92
        1
 93
        4
 72
     1
 10
113.5448350410582
 20
-151.1322048233281
 11
113.106963404883
 21
-151.1322048233281
 72
     1
 10
113.106963404883
 20
-151.1322048233281
 11
113.106963404883
 21
-151.4367512642241
 72
     1
 10
113.106963404883
 20
-151.4367512642241
 11
113.5448350410582
 21
-151.4367512642241
 72
     1
 10
113.5448350410582
 20
-151.4367512642241
 11
113.5448350410582
 21
-151.1322048233281
 97
        0
 92
        1
 93
        4
 72
     1
 10
113.5448350410582
 20
-151.6041829048073
 11
113.106963404883
 21
-151.6041829048073
 72
     1
 10
113.106963404883
 20
-151.6041829048073
 11
113.106963404883
 21
-151.9128634602857
 72
     1
 10
113.106963404883
 20
-151.9128634602857
 11
113.5448350410582
 21
-151.9128634602857
 72
     1
 10
113.5448350410582
 20
-151.9128634602857
 11
113.5448350410582
 21
-151.6041829048073
 97
        0
 92
        1
 93
        4
 72
     1
 10
114.1942355400278
 20
-151.1322048233281
 11
113.735004311844
 21
-151.1322048233281
 72
     1
 10
113.735004311844
 20
-151.1322048233281
 11
113.735004311844
 21
-151.4367512642241
 72
     1
 10
113.735004311844
 20
-151.4367512642241
 11
114.1942355400278
 21
-151.4367512642241
 72
     1
 10
114.1942355400278
 20
-151.4367512642241
 11
114.1942355400278
 21
-151.1322048233281
 97
        0
 92
        1
 93
        4
 72
     1
 10
114.1942355400278
 20
-151.6041829048073
 11
113.735004311844
 21
-151.6041829048073
 72
     1
 10
113.735004311844
 20
-151.6041829048073
 11
113.735004311844
 21
-151.9128634602857
 72
     1
 10
113.735004311844
 20
-151.9128634602857
 11
114.1942355400278
 21
-151.9128634602857
 72
     1
 10
114.1942355400278
 20
-151.9128634602857
 11
114.1942355400278
 21
-151.6041829048073
 97
        0
 75
     2
 76
     1
 98
        0
  0
SPLINE
  5
12B
330
FC
100
AcDbEntity
  8
_U+30EC_U+30A4_U+30E4_U+30FC 1
370
     0
100
AcDbSpline
210
0.0
220
0.0
230
1.0
 70
    11
 71
     3
 72
    44
 73
    40
 74
     0
 42
0.0000000001
 43
0.0000000001
 12
1.0
 22
0.0
 32
0.0
 13
1.0
 23
0.0
 33
0.0
 40
0.0
 40
0.0
 40
0.0
 40
0.0
 40
1.0
 40
1.0
 40
1.0
 40
2.0
 40
2.0
 40
2.0
 40
3.0
 40
3.0
 40
3.0
 40
4.0
 40
4.0
 40
4.0
 40
5.0
 40
5.0
 40
5.0
 40
6.0
 40
6.0
 40
6.0
 40
7.0
 40
7.0
 40
7.0
 40
8.0
 40
8.0
 40
8.0
 40
9.0
 40
9.0
 40
9.0
 40
10.0
 40
10.0
 40
10.0
 40
11.0
 40
11.0
 40
11.0
 40
12.0
 40
12.0
 40
12.0
 40
13.0
 40
13.0
 40
13.0
 40
13.0
 10
108.6672688530415
 20
-154.0088595535117
 30
0.0
 10
108.5553032497709
 20
-154.3767957513364
 30
0.0
 10
108.5046603461377
 20
-154.5356146532064
 30
0.0
 10
108.30794539393
 20
-154.785384075887
 30
0.0
 10
108.1236327854691
 20
-155.0158609638502
 30
0.0
 10
107.8869547256324
 20
-155.2018961200537
 30
0.0
 10
107.6075574817787
 20
-155.295258207704
 30
0.0
 10
107.6075574817787
 20
-155.295258207704
 30
0.0
 10
107.4149766441532
 20
-155.1154242233739
 30
0.0
 10
107.4149766441532
 20
-155.1154242233739
 30
0.0
 10
108.0561089139582
 20
-154.9631510029259
 30
0.0
 10
108.3861490614451
 20
-154.4064235725095
 30
0.0
 10
108.4495388183737
 20
-153.9664848790431
 30
0.0
 10
108.4495388183737
 20
-153.9664848790431
 30
0.0
 10
107.6836940920027
 20
-153.9664848790431
 30
0.0
 10
107.6836940920027
 20
-153.9664848790431
 30
0.0
 10
107.5906765139009
 20
-153.9664848790431
 30
0.0
 10
107.4067084149886
 20
-153.9709635031739
 30
0.0
 10
107.2499565704097
 20
-153.9895670187943
 30
0.0
 10
107.2499565704097
 20
-153.9895670187943
 30
0.0
 10
107.2499565704097
 20
-153.7697699268354
 30
0.0
 10
107.2499565704097
 20
-153.7697699268354
 30
0.0
 10
107.336772976638
 20
-153.7911295188439
 30
0.0
 10
107.5886094566098
 20
-153.7911295188439
 30
0.0
 10
107.687828206585
 20
-153.7911295188439
 30
0.0
 10
107.687828206585
 20
-153.7911295188439
 30
0.0
 10
108.1194986708868
 20
-153.7911295188439
 30
0.0
 10
108.1194986708868
 20
-153.7911295188439
 30
0.0
 10
108.1618733453554
 20
-153.7911295188439
 30
0.0
 10
108.3964843479009
 20
-153.7887179520042
 30
0.0
 10
108.4347249077872
 20
-153.7825167801308
 30
0.0
 10
108.4770995822557
 20
-153.7759710987088
 30
0.0
 10
108.4791666395469
 20
-153.7739040414176
 30
0.0
 10
108.5404893391843
 20
-153.7339409337887
 30
0.0
 10
108.5404893391843
 20
-153.7339409337887
 30
0.0
 10
108.7289360622275
 20
-153.8882812115279
 30
0.0
 10
108.7289360622275
 20
-153.8882812115279
 30
0.0
 10
108.6993082410543
 20
-153.9179090327011
 30
0.0
 10
108.6844943304678
 20
-153.9496039111654
 30
0.0
 10
108.6672688530415
 20
-154.0088595535117
 30
0.0
  0
SPLINE
  5
12C
330
FC
100
AcDbEntity
  8
_U+30EC_U+30A4_U+30E4_U+30FC 1
370
     0
100
AcDbSpline
210
0.0
220
0.0
230
1.0
 70
    11
 71
     3
 72
    17
 73
    13
 74
     0
 42
0.0000000001
 43
0.0000000001
 12
1.0
 22
0.0
 32
0.0
 13
1.0
 23
0.0
 33
0.0
 40
0.0
 40
0.0
 40
0.0
 40
0.0
 40
1.0
 40
1.0
 40
1.0
 40
2.0
 40
2.0
 40
2.0
 40
3.0
 40
3.0
 40
3.0
 40
4.0
 40
4.0
 40
4.0
 40
4.0
 10
108.8767306585447
 20
-153.8097330344642
 30
0.0
 10
108.7499511446875
 20
-153.8097330344642
 30
0.0
 10
108.6483208278727
 20
-153.7084472271979
 30
0.0
 10
108.6483208278727
 20
-153.5816677133407
 30
0.0
 10
108.6483208278727
 20
-153.454543689935
 30
0.0
 10
108.7499511446875
 20
-153.350846315829
 30
0.0
 10
108.8767306585447
 20
-153.350846315829
 30
0.0
 10
109.0038546819504
 20
-153.350846315829
 30
0.0
 10
109.1075520560564
 20
-153.454543689935
 30
0.0
 10
109.1075520560564
 20
-153.5816677133407
 30
0.0
 10
109.1075520560564
 20
-153.7084472271979
 30
0.0
 10
109.0038546819504
 20
-153.8097330344642
 30
0.0
 10
108.8767306585447
 20
-153.8097330344642
 30
0.0
  0
SPLINE
  5
12D
330
FC
100
AcDbEntity
  8
_U+30EC_U+30A4_U+30E4_U+30FC 1
370
     0
100
AcDbSpline
210
0.0
220
0.0
230
1.0
 70
    11
 71
     3
 72
    17
 73
    13
 74
     0
 42
0.0000000001
 43
0.0000000001
 12
1.0
 22
0.0
 32
0.0
 13
1.0
 23
0.0
 33
0.0
 40
0.0
 40
0.0
 40
0.0
 40
0.0
 40
1.0
 40
1.0
 40
1.0
 40
2.0
 40
2.0
 40
2.0
 40
3.0
 40
3.0
 40
3.0
 40
4.0
 40
4.0
 40
4.0
 40
4.0
 10
108.8746636012536
 20
-153.4796928869773
 30
0.0
 10
108.8198865830381
 20
-153.4796928869773
 30
0.0
 10
108.7754448512784
 20
-153.5244791282855
 30
0.0
 10
108.7754448512784
 20
-153.5796006560496
 30
0.0
 10
108.7754448512784
 20
-153.6364447315562
 30
0.0
 10
108.8198865830381
 20
-153.6850205778982
 30
0.0
 10
108.8787977158359
 20
-153.6850205778982
 30
0.0
 10
108.9380533581822
 20
-153.6850205778982
 30
0.0
 10
108.9783609753596
 20
-153.634377674265
 30
0.0
 10
108.9783609753596
 20
-153.5816677133407
 30
0.0
 10
108.9783609753596
 20
-153.5244791282855
 30
0.0
 10
108.9318521863087
 20
-153.4796928869773
 30
0.0
 10
108.8746636012536
 20
-153.4796928869773
 30
0.0
  0
HATCH
  5
12E
330
FC
100
AcDbEntity
  8
_U+30EC_U+30A4_U+30E4_U+30FC 1
 62
   179
420
  2234388
100
AcDbHatch
 10
0.0
 20
0.0
 30
0.0
210
0.0
220
0.0
230
1.0
  2
SOLID
 70
     1
 71
     0
 91
        3
 92
        1
 93
        1
 72
     4
 94
        3
 73
     0
 74
     1
 95
       44
 96
       40
 40
0.0
 40
0.0
 40
0.0
 40
0.0
 40
1.0
 40
1.0
 40
1.0
 40
2.0
 40
2.0
 40
2.0
 40
3.0
 40
3.0
 40
3.0
 40
4.0
 40
4.0
 40
4.0
 40
5.0
 40
5.0
 40
5.0
 40
6.0
 40
6.0
 40
6.0
 40
7.0
 40
7.0
 40
7.0
 40
8.0
 40
8.0
 40
8.0
 40
9.0
 40
9.0
 40
9.0
 40
10.0
 40
10.0
 40
10.0
 40
11.0
 40
11.0
 40
11.0
 40
12.0
 40
12.0
 40
12.0
 40
13.0
 40
13.0
 40
13.0
 40
13.0
 10
108.6672688530415
 20
-154.0088595535117
 10
108.5553032497709
 20
-154.3767957513364
 10
108.5046603461377
 20
-154.5356146532064
 10
108.30794539393
 20
-154.785384075887
 10
108.1236327854691
 20
-155.0158609638502
 10
107.8869547256324
 20
-155.2018961200537
 10
107.6075574817787
 20
-155.295258207704
 10
107.6075574817787
 20
-155.295258207704
 10
107.4149766441532
 20
-155.1154242233739
 10
107.4149766441532
 20
-155.1154242233739
 10
108.0561089139582
 20
-154.9631510029259
 10
108.3861490614451
 20
-154.4064235725095
 10
108.4495388183737
 20
-153.9664848790431
 10
108.4495388183737
 20
-153.9664848790431
 10
107.6836940920027
 20
-153.9664848790431
 10
107.6836940920027
 20
-153.9664848790431
 10
107.5906765139009
 20
-153.9664848790431
 10
107.4067084149886
 20
-153.9709635031739
 10
107.2499565704097
 20
-153.9895670187943
 10
107.2499565704097
 20
-153.9895670187943
 10
107.2499565704097
 20
-153.7697699268354
 10
107.2499565704097
 20
-153.7697699268354
 10
107.336772976638
 20
-153.7911295188439
 10
107.5886094566098
 20
-153.7911295188439
 10
107.687828206585
 20
-153.7911295188439
 10
107.687828206585
 20
-153.7911295188439
 10
108.1194986708868
 20
-153.7911295188439
 10
108.1194986708868
 20
-153.7911295188439
 10
108.1618733453554
 20
-153.7911295188439
 10
108.3964843479009
 20
-153.7887179520042
 10
108.4347249077872
 20
-153.7825167801308
 10
108.4770995822557
 20
-153.7759710987088
 10
108.4791666395469
 20
-153.7739040414176
 10
108.5404893391843
 20
-153.7339409337887
 10
108.5404893391843
 20
-153.7339409337887
 10
108.7289360622275
 20
-153.8882812115279
 10
108.7289360622275
 20
-153.8882812115279
 10
108.6993082410543
 20
-153.9179090327011
 10
108.6844943304678
 20
-153.9496039111654
 10
108.6672688530415
 20
-154.0088595535117
 97
        0
 97
        0
 92
        1
 93
        1
 72
     4
 94
        3
 73
     0
 74
     1
 95
       17
 96
       13
 40
0.0
 40
0.0
 40
0.0
 40
0.0
 40
1.0
 40
1.0
 40
1.0
 40
2.0
 40
2.0
 40
2.0
 40
3.0
 40
3.0
 40
3.0
 40
4.0
 40
4.0
 40
4.0
 40
4.0
 10
108.8767306585447
 20
-153.8097330344642
 10
108.7499511446875
 20
-153.8097330344642
 10
108.6483208278727
 20
-153.7084472271979
 10
108.6483208278727
 20
-153.5816677133407
 10
108.6483208278727
 20
-153.454543689935
 10
108.7499511446875
 20
-153.350846315829
 10
108.8767306585447
 20
-153.350846315829
 10
109.0038546819504
 20
-153.350846315829
 10
109.1075520560564
 20
-153.454543689935
 10
109.1075520560564
 20
-153.5816677133407
 10
109.1075520560564
 20
-153.7084472271979
 10
109.0038546819504
 20
-153.8097330344642
 10
108.8767306585447
 20
-153.8097330344642
 97
        0
 97
        0
 92
        1
 93
        1
 72
     4
 94
        3
 73
     0
 74
     1
 95
       17
 96
       13
 40
0.0
 40
0.0
 40
0.0
 40
0.0
 40
1.0
 40
1.0
 40
1.0
 40
2.0
 40
2.0
 40
2.0
 40
3.0
 40
3.0
 40
3.0
 40
4.0
 40
4.0
 40
4.0
 40
4.0
 10
108.8746636012536
 20
-153.4796928869773
 10
108.8198865830381
 20
-153.4796928869773
 10
108.7754448512784
 20
-153.5244791282855
 10
108.7754448512784
 20
-153.5796006560496
 10
108.7754448512784
 20
-153.6364447315562
 10
108.8198865830381
 20
-153.6850205778982
 10
108.8787977158359
 20
-153.6850205778982
 10
108.9380533581822
 20
-153.6850205778982
 10
108.9783609753596
 20
-153.634377674265
 10
108.9783609753596
 20
-153.5816677133407
 10
108.9783609753596
 20
-153.5244791282855
 10
108.9318521863087
 20
-153.4796928869773
 10
108.8746636012536
 20
-153.4796928869773
 97
        0
 97
        0
 75
     2
 76
     1
 98
        0
  0
SPLINE
  5
12F
330
FC
100
AcDbEntity
  8
_U+30EC_U+30A4_U+30E4_U+30FC 1
370
     0
100
AcDbSpline
210
0.0
220
0.0
230
1.0
 70
    11
 71
     3
 72
    50
 73
    46
 74
     0
 42
0.0000000001
 43
0.0000000001
 12
1.0
 22
0.0
 32
0.0
 13
1.0
 23
0.0
 33
0.0
 40
0.0
 40
0.0
 40
0.0
 40
0.0
 40
1.0
 40
1.0
 40
1.0
 40
2.0
 40
2.0
 40
2.0
 40
3.0
 40
3.0
 40
3.0
 40
4.0
 40
4.0
 40
4.0
 40
5.0
 40
5.0
 40
5.0
 40
6.0
 40
6.0
 40
6.0
 40
7.0
 40
7.0
 40
7.0
 40
8.0
 40
8.0
 40
8.0
 40
9.0
 40
9.0
 40
9.0
 40
10.0
 40
10.0
 40
10.0
 40
11.0
 40
11.0
 40
11.0
 40
12.0
 40
12.0
 40
12.0
 40
13.0
 40
13.0
 40
13.0
 40
14.0
 40
14.0
 40
14.0
 40
15.0
 40
15.0
 40
15.0
 40
15.0
 10
110.6719699159084
 20
-154.3175401089901
 30
0.0
 10
110.5934217388447
 20
-154.4953070360289
 30
0.0
 10
110.4580294862744
 20
-154.702701784241
 30
0.0
 10
110.3205701764129
 20
-154.8425726609422
 30
0.0
 10
110.1514159880872
 20
-155.0134493970105
 30
0.0
 10
109.9884629716348
 20
-155.10233286053
 30
0.0
 10
109.6691026201522
 20
-155.2442707945223
 30
0.0
 10
109.6691026201522
 20
-155.2442707945223
 30
0.0
 10
109.4999484318264
 20
-155.0561685810276
 30
0.0
 10
109.4999484318264
 20
-155.0561685810276
 30
0.0
 10
109.6859835880299
 20
-155.0327419317279
 30
0.0
 10
109.8572048336468
 20
-154.9459255254996
 30
0.0
 10
110.0098225636434
 20
-154.8401610941025
 30
0.0
 10
110.2719943300709
 20
-154.6582600524813
 30
0.0
 10
110.4625081104052
 20
-154.3451008728721
 30
0.0
 10
110.5110839567472
 20
-154.1631998312509
 30
0.0
 10
110.5110839567472
 20
-154.1631998312509
 30
0.0
 10
109.8403238657691
 20
-154.1631998312509
 30
0.0
 10
109.8403238657691
 20
-154.1631998312509
 30
0.0
 10
109.6818494734476
 20
-154.1631998312509
 30
0.0
 10
109.3897053762984
 20
-154.1714680604155
 30
0.0
 10
109.2374321558504
 20
-154.1886935378417
 30
0.0
 10
109.2374321558504
 20
-154.1886935378417
 30
0.0
 10
109.2374321558504
 20
-153.9599391976211
 30
0.0
 10
109.2374321558504
 20
-153.9599391976211
 30
0.0
 10
109.2715386011543
 20
-153.9664848790431
 30
0.0
 10
109.2966877981967
 20
-153.9730305604651
 30
0.0
 10
109.3497422686695
 20
-153.9771646750474
 30
0.0
 10
109.4510280759359
 20
-153.9833658469208
 30
0.0
 10
109.6480875376921
 20
-153.985432904212
 30
0.0
 10
109.7324923770808
 20
-153.985432904212
 30
0.0
 10
109.7324923770808
 20
-153.985432904212
 30
0.0
 10
110.2382323943154
 20
-153.985432904212
 30
0.0
 10
110.2382323943154
 20
-153.985432904212
 30
0.0
 10
110.3057562658263
 20
-153.985432904212
 30
0.0
 10
110.4518283144009
 20
-153.9812987896297
 30
0.0
 10
110.5131510140384
 20
-153.9750976177562
 30
0.0
 10
110.5851535096801
 20
-153.9664848790431
 30
0.0
 10
110.6127142735621
 20
-153.9516709684565
 30
0.0
 10
110.6464762093176
 20
-153.9282443191568
 30
0.0
 10
110.6464762093176
 20
-153.9282443191568
 30
0.0
 10
110.811496283061
 20
-154.09567595974
 30
0.0
 10
110.811496283061
 20
-154.09567595974
 30
0.0
 10
110.7415608447104
 20
-154.1631998312509
 30
0.0
 10
110.6950520556596
 20
-154.2668972053569
 30
0.0
 10
110.6719699159084
 20
-154.3175401089901
 30
0.0
  0
SPLINE
  5
130
330
FC
100
AcDbEntity
  8
_U+30EC_U+30A4_U+30E4_U+30FC 1
370
     0
100
AcDbSpline
210
0.0
220
0.0
230
1.0
 70
    11
 71
     3
 72
    29
 73
    25
 74
     0
 42
0.0000000001
 43
0.0000000001
 12
1.0
 22
0.0
 32
0.0
 13
1.0
 23
0.0
 33
0.0
 40
0.0
 40
0.0
 40
0.0
 40
0.0
 40
1.0
 40
1.0
 40
1.0
 40
2.0
 40
2.0
 40
2.0
 40
3.0
 40
3.0
 40
3.0
 40
4.0
 40
4.0
 40
4.0
 40
5.0
 40
5.0
 40
5.0
 40
6.0
 40
6.0
 40
6.0
 40
7.0
 40
7.0
 40
7.0
 40
8.0
 40
8.0
 40
8.0
 40
8.0
 10
110.1789767519691
 20
-153.6915662593202
 30
0.0
 10
110.1789767519691
 20
-153.6915662593202
 30
0.0
 10
109.8382568084779
 20
-153.6915662593202
 30
0.0
 10
109.8382568084779
 20
-153.6915662593202
 30
0.0
 10
109.7242241479162
 20
-153.6915662593202
 30
0.0
 10
109.6077799205147
 20
-153.6957003739025
 30
0.0
 10
109.4934027504044
 20
-153.7105142844891
 30
0.0
 10
109.4934027504044
 20
-153.7105142844891
 30
0.0
 10
109.4934027504044
 20
-153.5010524789859
 30
0.0
 10
109.4934027504044
 20
-153.5010524789859
 30
0.0
 10
109.611914035097
 20
-153.5158663895724
 30
0.0
 10
109.7855468475536
 20
-153.5203450137033
 30
0.0
 10
109.8382568084779
 20
-153.5203450137033
 30
0.0
 10
109.8382568084779
 20
-153.5203450137033
 30
0.0
 10
110.1789767519691
 20
-153.5203450137033
 30
0.0
 10
110.1789767519691
 20
-153.5203450137033
 30
0.0
 10
110.2954209793706
 20
-153.5203450137033
 30
0.0
 10
110.4115206972235
 20
-153.5158663895724
 30
0.0
 10
110.527964924625
 20
-153.5010524789859
 30
0.0
 10
110.527964924625
 20
-153.5010524789859
 30
0.0
 10
110.527964924625
 20
-153.7105142844891
 30
0.0
 10
110.527964924625
 20
-153.7105142844891
 30
0.0
 10
110.3777587614681
 20
-153.6915662593202
 30
0.0
 10
110.1937906625557
 20
-153.6915662593202
 30
0.0
 10
110.1789767519691
 20
-153.6915662593202
 30
0.0
  0
HATCH
  5
131
330
FC
100
AcDbEntity
  8
_U+30EC_U+30A4_U+30E4_U+30FC 1
 62
   179
420
  2234388
100
AcDbHatch
 10
0.0
 20
0.0
 30
0.0
210
0.0
220
0.0
230
1.0
  2
SOLID
 70
     1
 71
     0
 91
        2
 92
        1
 93
        1
 72
     4
 94
        3
 73
     0
 74
     1
 95
       50
 96
       46
 40
0.0
 40
0.0
 40
0.0
 40
0.0
 40
1.0
 40
1.0
 40
1.0
 40
2.0
 40
2.0
 40
2.0
 40
3.0
 40
3.0
 40
3.0
 40
4.0
 40
4.0
 40
4.0
 40
5.0
 40
5.0
 40
5.0
 40
6.0
 40
6.0
 40
6.0
 40
7.0
 40
7.0
 40
7.0
 40
8.0
 40
8.0
 40
8.0
 40
9.0
 40
9.0
 40
9.0
 40
10.0
 40
10.0
 40
10.0
 40
11.0
 40
11.0
 40
11.0
 40
12.0
 40
12.0
 40
12.0
 40
13.0
 40
13.0
 40
13.0
 40
14.0
 40
14.0
 40
14.0
 40
15.0
 40
15.0
 40
15.0
 40
15.0
 10
110.6719699159084
 20
-154.3175401089901
 10
110.5934217388447
 20
-154.4953070360289
 10
110.4580294862744
 20
-154.702701784241
 10
110.3205701764129
 20
-154.8425726609422
 10
110.1514159880872
 20
-155.0134493970105
 10
109.9884629716348
 20
-155.10233286053
 10
109.6691026201522
 20
-155.2442707945223
 10
109.6691026201522
 20
-155.2442707945223
 10
109.4999484318264
 20
-155.0561685810276
 10
109.4999484318264
 20
-155.0561685810276
 10
109.6859835880299
 20
-155.0327419317279
 10
109.8572048336468
 20
-154.9459255254996
 10
110.0098225636434
 20
-154.8401610941025
 10
110.2719943300709
 20
-154.6582600524813
 10
110.4625081104052
 20
-154.3451008728721
 10
110.5110839567472
 20
-154.1631998312509
 10
110.5110839567472
 20
-154.1631998312509
 10
109.8403238657691
 20
-154.1631998312509
 10
109.8403238657691
 20
-154.1631998312509
 10
109.6818494734476
 20
-154.1631998312509
 10
109.3897053762984
 20
-154.1714680604155
 10
109.2374321558504
 20
-154.1886935378417
 10
109.2374321558504
 20
-154.1886935378417
 10
109.2374321558504
 20
-153.9599391976211
 10
109.2374321558504
 20
-153.9599391976211
 10
109.2715386011543
 20
-153.9664848790431
 10
109.2966877981967
 20
-153.9730305604651
 10
109.3497422686695
 20
-153.9771646750474
 10
109.4510280759359
 20
-153.9833658469208
 10
109.6480875376921
 20
-153.985432904212
 10
109.7324923770808
 20
-153.985432904212
 10
109.7324923770808
 20
-153.985432904212
 10
110.2382323943154
 20
-153.985432904212
 10
110.2382323943154
 20
-153.985432904212
 10
110.3057562658263
 20
-153.985432904212
 10
110.4518283144009
 20
-153.9812987896297
 10
110.5131510140384
 20
-153.9750976177562
 10
110.5851535096801
 20
-153.9664848790431
 10
110.6127142735621
 20
-153.9516709684565
 10
110.6464762093176
 20
-153.9282443191568
 10
110.6464762093176
 20
-153.9282443191568
 10
110.811496283061
 20
-154.09567595974
 10
110.811496283061
 20
-154.09567595974
 10
110.7415608447104
 20
-154.1631998312509
 10
110.6950520556596
 20
-154.2668972053569
 10
110.6719699159084
 20
-154.3175401089901
 97
        0
 97
        0
 92
        1
 93
        1
 72
     4
 94
        3
 73
     0
 74
     1
 95
       29
 96
       25
 40
0.0
 40
0.0
 40
0.0
 40
0.0
 40
1.0
 40
1.0
 40
1.0
 40
2.0
 40
2.0
 40
2.0
 40
3.0
 40
3.0
 40
3.0
 40
4.0
 40
4.0
 40
4.0
 40
5.0
 40
5.0
 40
5.0
 40
6.0
 40
6.0
 40
6.0
 40
7.0
 40
7.0
 40
7.0
 40
8.0
 40
8.0
 40
8.0
 40
8.0
 10
110.1789767519691
 20
-153.6915662593202
 10
110.1789767519691
 20
-153.6915662593202
 10
109.8382568084779
 20
-153.6915662593202
 10
109.8382568084779
 20
-153.6915662593202
 10
109.7242241479162
 20
-153.6915662593202
 10
109.6077799205147
 20
-153.6957003739025
 10
109.4934027504044
 20
-153.7105142844891
 10
109.4934027504044
 20
-153.7105142844891
 10
109.4934027504044
 20
-153.5010524789859
 10
109.4934027504044
 20
-153.5010524789859
 10
109.611914035097
 20
-153.5158663895724
 10
109.7855468475536
 20
-153.5203450137033
 10
109.8382568084779
 20
-153.5203450137033
 10
109.8382568084779
 20
-153.5203450137033
 10
110.1789767519691
 20
-153.5203450137033
 10
110.1789767519691
 20
-153.5203450137033
 10
110.2954209793706
 20
-153.5203450137033
 10
110.4115206972235
 20
-153.5158663895724
 10
110.527964924625
 20
-153.5010524789859
 10
110.527964924625
 20
-153.5010524789859
 10
110.527964924625
 20
-153.7105142844891
 10
110.527964924625
 20
-153.7105142844891
 10
110.3777587614681
 20
-153.6915662593202
 10
110.1937906625557
 20
-153.6915662593202
 10
110.1789767519691
 20
-153.6915662593202
 97
        0
 97
        0
 75
     2
 76
     1
 98
        0
  0
SPLINE
  5
132
330
FC
100
AcDbEntity
  8
_U+30EC_U+30A4_U+30E4_U+30FC 1
370
     0
100
AcDbSpline
210
0.0
220
0.0
230
1.0
 70
    11
 71
     3
 72
    50
 73
    46
 74
     0
 42
0.0000000001
 43
0.0000000001
 12
1.0
 22
0.0
 32
0.0
 13
1.0
 23
0.0
 33
0.0
 40
0.0
 40
0.0
 40
0.0
 40
0.0
 40
1.0
 40
1.0
 40
1.0
 40
2.0
 40
2.0
 40
2.0
 40
3.0
 40
3.0
 40
3.0
 40
4.0
 40
4.0
 40
4.0
 40
5.0
 40
5.0
 40
5.0
 40
6.0
 40
6.0
 40
6.0
 40
7.0
 40
7.0
 40
7.0
 40
8.0
 40
8.0
 40
8.0
 40
9.0
 40
9.0
 40
9.0
 40
10.0
 40
10.0
 40
10.0
 40
11.0
 40
11.0
 40
11.0
 40
12.0
 40
12.0
 40
12.0
 40
13.0
 40
13.0
 40
13.0
 40
14.0
 40
14.0
 40
14.0
 40
15.0
 40
15.0
 40
15.0
 40
15.0
 10
112.3821153147864
 20
-153.6767523487336
 30
0.0
 10
112.1726535092832
 20
-153.8903482688191
 30
0.0
 10
112.10099552319
 20
-153.9623507644608
 30
0.0
 10
111.9590575891977
 20
-154.0805175396049
 30
0.0
 10
111.9590575891977
 20
-154.0805175396049
 30
0.0
 10
111.9590575891977
 20
-154.647580256477
 30
0.0
 10
111.9590575891977
 20
-154.647580256477
 30
0.0
 10
111.9590575891977
 20
-154.7977864196339
 30
0.0
 10
111.9656032706197
 20
-154.8170789543513
 30
0.0
 10
111.969737385202
 20
-154.9948458813902
 30
0.0
 10
111.9718044424932
 20
-155.1257595098297
 30
0.0
 10
111.9780056143666
 20
-155.1746798657202
 30
0.0
 10
111.9845512957886
 20
-155.2339355080665
 30
0.0
 10
111.9845512957886
 20
-155.2339355080665
 30
0.0
 10
111.7582085224077
 20
-155.2339355080665
 30
0.0
 10
111.7582085224077
 20
-155.2339355080665
 30
0.0
 10
111.76234263699
 20
-155.1891492667583
 30
0.0
 10
111.7664767515723
 20
-155.1426404777074
 30
0.0
 10
111.7664767515723
 20
-155.1340277389943
 30
0.0
 10
111.7664767515723
 20
-155.0541015237365
 30
0.0
 10
111.7709553757031
 20
-154.702701784241
 30
0.0
 10
111.7709553757031
 20
-154.6306992885993
 30
0.0
 10
111.7709553757031
 20
-154.6306992885993
 30
0.0
 10
111.7709553757031
 20
-154.2245225308883
 30
0.0
 10
111.7709553757031
 20
-154.2245225308883
 30
0.0
 10
111.5890543340819
 20
-154.3492349874544
 30
0.0
 10
111.3944064391653
 20
-154.4594780429824
 30
0.0
 10
111.1911458055356
 20
-154.5462944492106
 30
0.0
 10
111.1911458055356
 20
-154.5462944492106
 30
0.0
 10
110.9882296814543
 20
-154.3829969232098
 30
0.0
 10
110.9882296814543
 20
-154.3829969232098
 30
0.0
 10
111.1108750807292
 20
-154.3471679301632
 30
0.0
 10
111.3668456752833
 20
-154.2734428867789
 30
0.0
 10
111.7116997333568
 20
-154.0171277826763
 30
0.0
 10
111.9273627107334
 20
-153.8586533903548
 30
0.0
 10
112.1199435483589
 20
-153.6705511768602
 30
0.0
 10
112.272216768807
 20
-153.4500650658042
 30
0.0
 10
112.272216768807
 20
-153.4500650658042
 30
0.0
 10
112.4647976064324
 20
-153.5940700570876
 30
0.0
 10
112.4647976064324
 20
-153.5940700570876
 30
0.0
 10
112.4775444597278
 20
-153.6047498530919
 30
0.0
 10
112.4858126888924
 20
-153.6195637636785
 30
0.0
 10
112.4858126888924
 20
-153.6323106169739
 30
0.0
 10
112.4858126888924
 20
-153.6726182341513
 30
0.0
 10
112.4479166385547
 20
-153.6726182341513
 30
0.0
 10
112.3821153147864
 20
-153.6767523487336
 30
0.0
  0
HATCH
  5
133
330
FC
100
AcDbEntity
  8
_U+30EC_U+30A4_U+30E4_U+30FC 1
 62
   179
420
  2234388
100
AcDbHatch
 10
0.0
 20
0.0
 30
0.0
210
0.0
220
0.0
230
1.0
  2
SOLID
 70
     1
 71
     0
 91
        1
 92
        1
 93
        1
 72
     4
 94
        3
 73
     0
 74
     1
 95
       50
 96
       46
 40
0.0
 40
0.0
 40
0.0
 40
0.0
 40
1.0
 40
1.0
 40
1.0
 40
2.0
 40
2.0
 40
2.0
 40
3.0
 40
3.0
 40
3.0
 40
4.0
 40
4.0
 40
4.0
 40
5.0
 40
5.0
 40
5.0
 40
6.0
 40
6.0
 40
6.0
 40
7.0
 40
7.0
 40
7.0
 40
8.0
 40
8.0
 40
8.0
 40
9.0
 40
9.0
 40
9.0
 40
10.0
 40
10.0
 40
10.0
 40
11.0
 40
11.0
 40
11.0
 40
12.0
 40
12.0
 40
12.0
 40
13.0
 40
13.0
 40
13.0
 40
14.0
 40
14.0
 40
14.0
 40
15.0
 40
15.0
 40
15.0
 40
15.0
 10
112.3821153147864
 20
-153.6767523487336
 10
112.1726535092832
 20
-153.8903482688191
 10
112.10099552319
 20
-153.9623507644608
 10
111.9590575891977
 20
-154.0805175396049
 10
111.9590575891977
 20
-154.0805175396049
 10
111.9590575891977
 20
-154.647580256477
 10
111.9590575891977
 20
-154.647580256477
 10
111.9590575891977
 20
-154.7977864196339
 10
111.9656032706197
 20
-154.8170789543513
 10
111.969737385202
 20
-154.9948458813902
 10
111.9718044424932
 20
-155.1257595098297
 10
111.9780056143666
 20
-155.1746798657202
 10
111.9845512957886
 20
-155.2339355080665
 10
111.9845512957886
 20
-155.2339355080665
 10
111.7582085224077
 20
-155.2339355080665
 10
111.7582085224077
 20
-155.2339355080665
 10
111.76234263699
 20
-155.1891492667583
 10
111.7664767515723
 20
-155.1426404777074
 10
111.7664767515723
 20
-155.1340277389943
 10
111.7664767515723
 20
-155.0541015237365
 10
111.7709553757031
 20
-154.702701784241
 10
111.7709553757031
 20
-154.6306992885993
 10
111.7709553757031
 20
-154.6306992885993
 10
111.7709553757031
 20
-154.2245225308883
 10
111.7709553757031
 20
-154.2245225308883
 10
111.5890543340819
 20
-154.3492349874544
 10
111.3944064391653
 20
-154.4594780429824
 10
111.1911458055356
 20
-154.5462944492106
 10
111.1911458055356
 20
-154.5462944492106
 10
110.9882296814543
 20
-154.3829969232098
 10
110.9882296814543
 20
-154.3829969232098
 10
111.1108750807292
 20
-154.3471679301632
 10
111.3668456752833
 20
-154.2734428867789
 10
111.7116997333568
 20
-154.0171277826763
 10
111.9273627107334
 20
-153.8586533903548
 10
112.1199435483589
 20
-153.6705511768602
 10
112.272216768807
 20
-153.4500650658042
 10
112.272216768807
 20
-153.4500650658042
 10
112.4647976064324
 20
-153.5940700570876
 10
112.4647976064324
 20
-153.5940700570876
 10
112.4775444597278
 20
-153.6047498530919
 10
112.4858126888924
 20
-153.6195637636785
 10
112.4858126888924
 20
-153.6323106169739
 10
112.4858126888924
 20
-153.6726182341513
 10
112.4479166385547
 20
-153.6726182341513
 10
112.3821153147864
 20
-153.6767523487336
 97
        0
 97
        0
 75
     2
 76
     1
 98
        0
  0
SPLINE
  5
134
330
FC
100
AcDbEntity
  8
_U+30EC_U+30A4_U+30E4_U+30FC 1
370
     0
100
AcDbSpline
210
0.0
220
0.0
230
1.0
 70
    11
 71
     3
 72
    50
 73
    46
 74
     0
 42
0.0000000001
 43
0.0000000001
 12
1.0
 22
0.0
 32
0.0
 13
1.0
 23
0.0
 33
0.0
 40
0.0
 40
0.0
 40
0.0
 40
0.0
 40
1.0
 40
1.0
 40
1.0
 40
2.0
 40
2.0
 40
2.0
 40
3.0
 40
3.0
 40
3.0
 40
4.0
 40
4.0
 40
4.0
 40
5.0
 40
5.0
 40
5.0
 40
6.0
 40
6.0
 40
6.0
 40
7.0
 40
7.0
 40
7.0
 40
8.0
 40
8.0
 40
8.0
 40
9.0
 40
9.0
 40
9.0
 40
10.0
 40
10.0
 40
10.0
 40
11.0
 40
11.0
 40
11.0
 40
12.0
 40
12.0
 40
12.0
 40
13.0
 40
13.0
 40
13.0
 40
14.0
 40
14.0
 40
14.0
 40
15.0
 40
15.0
 40
15.0
 40
15.0
 10
114.0905381659218
 20
-154.2035074484283
 30
0.0
 10
114.0292154662844
 20
-154.27550994407
 30
0.0
 10
113.7687662475995
 20
-154.592458728713
 30
0.0
 10
113.7119221720929
 20
-154.6561929951901
 30
0.0
 10
113.7963270114815
 20
-154.7536891974227
 30
0.0
 10
113.8473144246632
 20
-154.8170789543513
 30
0.0
 10
113.9127712388829
 20
-154.9080294751619
 30
0.0
 10
113.9127712388829
 20
-154.9080294751619
 30
0.0
 10
113.7288031399706
 20
-155.0454887850234
 30
0.0
 10
113.7288031399706
 20
-155.0454887850234
 30
0.0
 10
113.5934108874003
 20
-154.8336154126805
 30
0.0
 10
113.4218451322348
 20
-154.6096842061393
 30
0.0
 10
113.127978487343
 20
-154.4105576870918
 30
0.0
 10
113.127978487343
 20
-154.4105576870918
 30
0.0
 10
113.2761175932088
 20
-154.2562174093526
 30
0.0
 10
113.2761175932088
 20
-154.2562174093526
 30
0.0
 10
113.3860161391882
 20
-154.3368326437075
 30
0.0
 10
113.4897135132942
 20
-154.4257161072269
 30
0.0
 10
113.5868652059783
 20
-154.5208007426198
 30
0.0
 10
113.6547335870377
 20
-154.4446641323958
 30
0.0
 10
113.8576497111189
 20
-154.2010958815886
 30
0.0
 10
113.9909749063981
 20
-153.9730305604651
 30
0.0
 10
113.9909749063981
 20
-153.9730305604651
 30
0.0
 10
113.3181477581288
 20
-153.9730305604651
 30
0.0
 10
113.3181477581288
 20
-153.9730305604651
 30
0.0
 10
113.1934353015628
 20
-153.9730305604651
 30
0.0
 10
112.941598821591
 20
-153.9812987896297
 30
0.0
 10
112.7321370160878
 20
-153.9916340760854
 30
0.0
 10
112.7321370160878
 20
-153.9916340760854
 30
0.0
 10
112.7321370160878
 20
-153.7718369841265
 30
0.0
 10
112.7321370160878
 20
-153.7718369841265
 30
0.0
 10
112.9164496245487
 20
-153.7911295188439
 30
0.0
 10
113.121432805921
 20
-153.7952636334262
 30
0.0
 10
113.3098795289642
 20
-153.7952636334262
 30
0.0
 10
113.3098795289642
 20
-153.7952636334262
 30
0.0
 10
113.8132079793592
 20
-153.7952636334262
 30
0.0
 10
113.8132079793592
 20
-153.7952636334262
 30
0.0
 10
114.1518608655593
 20
-153.7952636334262
 30
0.0
 10
114.196302597319
 20
-153.7801052132911
 30
0.0
 10
114.2786403794165
 20
-153.7401421056622
 30
0.0
 10
114.2786403794165
 20
-153.7401421056622
 30
0.0
 10
114.4457275104511
 20
-153.8986164979837
 30
0.0
 10
114.4457275104511
 20
-153.8986164979837
 30
0.0
 10
114.293454290003
 20
-153.9709635031739
 30
0.0
 10
114.1497938082681
 20
-154.1335720100777
 30
0.0
 10
114.0905381659218
 20
-154.2035074484283
 30
0.0
  0
HATCH
  5
135
330
FC
100
AcDbEntity
  8
_U+30EC_U+30A4_U+30E4_U+30FC 1
 62
   179
420
  2234388
100
AcDbHatch
 10
0.0
 20
0.0
 30
0.0
210
0.0
220
0.0
230
1.0
  2
SOLID
 70
     1
 71
     0
 91
        1
 92
        1
 93
        1
 72
     4
 94
        3
 73
     0
 74
     1
 95
       50
 96
       46
 40
0.0
 40
0.0
 40
0.0
 40
0.0
 40
1.0
 40
1.0
 40
1.0
 40
2.0
 40
2.0
 40
2.0
 40
3.0
 40
3.0
 40
3.0
 40
4.0
 40
4.0
 40
4.0
 40
5.0
 40
5.0
 40
5.0
 40
6.0
 40
6.0
 40
6.0
 40
7.0
 40
7.0
 40
7.0
 40
8.0
 40
8.0
 40
8.0
 40
9.0
 40
9.0
 40
9.0
 40
10.0
 40
10.0
 40
10.0
 40
11.0
 40
11.0
 40
11.0
 40
12.0
 40
12.0
 40
12.0
 40
13.0
 40
13.0
 40
13.0
 40
14.0
 40
14.0
 40
14.0
 40
15.0
 40
15.0
 40
15.0
 40
15.0
 10
114.0905381659218
 20
-154.2035074484283
 10
114.0292154662844
 20
-154.27550994407
 10
113.7687662475995
 20
-154.592458728713
 10
113.7119221720929
 20
-154.6561929951901
 10
113.7963270114815
 20
-154.7536891974227
 10
113.8473144246632
 20
-154.8170789543513
 10
113.9127712388829
 20
-154.9080294751619
 10
113.9127712388829
 20
-154.9080294751619
 10
113.7288031399706
 20
-155.0454887850234
 10
113.7288031399706
 20
-155.0454887850234
 10
113.5934108874003
 20
-154.8336154126805
 10
113.4218451322348
 20
-154.6096842061393
 10
113.127978487343
 20
-154.4105576870918
 10
113.127978487343
 20
-154.4105576870918
 10
113.2761175932088
 20
-154.2562174093526
 10
113.2761175932088
 20
-154.2562174093526
 10
113.3860161391882
 20
-154.3368326437075
 10
113.4897135132942
 20
-154.4257161072269
 10
113.5868652059783
 20
-154.5208007426198
 10
113.6547335870377
 20
-154.4446641323958
 10
113.8576497111189
 20
-154.2010958815886
 10
113.9909749063981
 20
-153.9730305604651
 10
113.9909749063981
 20
-153.9730305604651
 10
113.3181477581288
 20
-153.9730305604651
 10
113.3181477581288
 20
-153.9730305604651
 10
113.1934353015628
 20
-153.9730305604651
 10
112.941598821591
 20
-153.9812987896297
 10
112.7321370160878
 20
-153.9916340760854
 10
112.7321370160878
 20
-153.9916340760854
 10
112.7321370160878
 20
-153.7718369841265
 10
112.7321370160878
 20
-153.7718369841265
 10
112.9164496245487
 20
-153.7911295188439
 10
113.121432805921
 20
-153.7952636334262
 10
113.3098795289642
 20
-153.7952636334262
 10
113.3098795289642
 20
-153.7952636334262
 10
113.8132079793592
 20
-153.7952636334262
 10
113.8132079793592
 20
-153.7952636334262
 10
114.1518608655593
 20
-153.7952636334262
 10
114.196302597319
 20
-153.7801052132911
 10
114.2786403794165
 20
-153.7401421056622
 10
114.2786403794165
 20
-153.7401421056622
 10
114.4457275104511
 20
-153.8986164979837
 10
114.4457275104511
 20
-153.8986164979837
 10
114.293454290003
 20
-153.9709635031739
 10
114.1497938082681
 20
-154.1335720100777
 10
114.0905381659218
 20
-154.2035074484283
 97
        0
 97
        0
 75
     2
 76
     1
 98
        0
  0
SPLINE
  5
136
330
FC
100
AcDbEntity
  8
_U+30EC_U+30A4_U+30E4_U+30FC 1
370
     0
100
AcDbSpline
210
0.0
220
0.0
230
1.0
 70
    11
 71
     3
 72
    29
 73
    25
 74
     0
 42
0.0000000001
 43
0.0000000001
 12
1.0
 22
0.0
 32
0.0
 13
1.0
 23
0.0
 33
0.0
 40
0.0
 40
0.0
 40
0.0
 40
0.0
 40
1.0
 40
1.0
 40
1.0
 40
2.0
 40
2.0
 40
2.0
 40
3.0
 40
3.0
 40
3.0
 40
4.0
 40
4.0
 40
4.0
 40
5.0
 40
5.0
 40
5.0
 40
6.0
 40
6.0
 40
6.0
 40
7.0
 40
7.0
 40
7.0
 40
8.0
 40
8.0
 40
8.0
 40
8.0
 10
115.7142116681201
 20
-154.4467311896869
 30
0.0
 10
115.7142116681201
 20
-154.4467311896869
 30
0.0
 10
115.2298312428939
 20
-154.4467311896869
 30
0.0
 10
115.2298312428939
 20
-154.4467311896869
 30
0.0
 10
115.2022704790119
 20
-154.4467311896869
 30
0.0
 10
114.8849771848204
 20
-154.4467311896869
 30
0.0
 10
114.6734483220261
 20
-154.4718803867293
 30
0.0
 10
114.6734483220261
 20
-154.4718803867293
 30
0.0
 10
114.6734483220261
 20
-154.2417480083146
 30
0.0
 10
114.6734483220261
 20
-154.2417480083146
 30
0.0
 10
114.8319227143476
 20
-154.2648301480658
 30
0.0
 10
115.0224364946819
 20
-154.2668972053569
 30
0.0
 10
115.2298312428939
 20
-154.2668972053569
 30
0.0
 10
115.2298312428939
 20
-154.2668972053569
 30
0.0
 10
115.7142116681201
 20
-154.2668972053569
 30
0.0
 10
115.7142116681201
 20
-154.2668972053569
 30
0.0
 10
115.9002468243236
 20
-154.2668972053569
 30
0.0
 10
116.0866264900756
 20
-154.2648301480658
 30
0.0
 10
116.2705945889879
 20
-154.2417480083146
 30
0.0
 10
116.2705945889879
 20
-154.2417480083146
 30
0.0
 10
116.2705945889879
 20
-154.4718803867293
 30
0.0
 10
116.2705945889879
 20
-154.4718803867293
 30
0.0
 10
116.0866264900756
 20
-154.4487982469781
 30
0.0
 10
115.8389241246861
 20
-154.4467311896869
 30
0.0
 10
115.7142116681201
 20
-154.4467311896869
 30
0.0
  0
HATCH
  5
137
330
FC
100
AcDbEntity
  8
_U+30EC_U+30A4_U+30E4_U+30FC 1
 62
   179
420
  2234388
100
AcDbHatch
 10
0.0
 20
0.0
 30
0.0
210
0.0
220
0.0
230
1.0
  2
SOLID
 70
     1
 71
     0
 91
        1
 92
        1
 93
        1
 72
     4
 94
        3
 73
     0
 74
     1
 95
       29
 96
       25
 40
0.0
 40
0.0
 40
0.0
 40
0.0
 40
1.0
 40
1.0
 40
1.0
 40
2.0
 40
2.0
 40
2.0
 40
3.0
 40
3.0
 40
3.0
 40
4.0
 40
4.0
 40
4.0
 40
5.0
 40
5.0
 40
5.0
 40
6.0
 40
6.0
 40
6.0
 40
7.0
 40
7.0
 40
7.0
 40
8.0
 40
8.0
 40
8.0
 40
8.0
 10
115.7142116681201
 20
-154.4467311896869
 10
115.7142116681201
 20
-154.4467311896869
 10
115.2298312428939
 20
-154.4467311896869
 10
115.2298312428939
 20
-154.4467311896869
 10
115.2022704790119
 20
-154.4467311896869
 10
114.8849771848204
 20
-154.4467311896869
 10
114.6734483220261
 20
-154.4718803867293
 10
114.6734483220261
 20
-154.4718803867293
 10
114.6734483220261
 20
-154.2417480083146
 10
114.6734483220261
 20
-154.2417480083146
 10
114.8319227143476
 20
-154.2648301480658
 10
115.0224364946819
 20
-154.2668972053569
 10
115.2298312428939
 20
-154.2668972053569
 10
115.2298312428939
 20
-154.2668972053569
 10
115.7142116681201
 20
-154.2668972053569
 10
115.7142116681201
 20
-154.2668972053569
 10
115.9002468243236
 20
-154.2668972053569
 10
116.0866264900756
 20
-154.2648301480658
 10
116.2705945889879
 20
-154.2417480083146
 10
116.2705945889879
 20
-154.2417480083146
 10
116.2705945889879
 20
-154.4718803867293
 10
116.2705945889879
 20
-154.4718803867293
 10
116.0866264900756
 20
-154.4487982469781
 10
115.8389241246861
 20
-154.4467311896869
 10
115.7142116681201
 20
-154.4467311896869
 97
        0
 97
        0
 75
     2
 76
     1
 98
        0
  0
SPLINE
  5
138
330
FC
100
AcDbEntity
  8
_U+30EC_U+30A4_U+30E4_U+30FC 1
370
     0
100
AcDbSpline
210
0.0
220
0.0
230
1.0
 70
    11
 71
     3
 72
    53
 73
    49
 74
     0
 42
0.0000000001
 43
0.0000000001
 12
1.0
 22
0.0
 32
0.0
 13
1.0
 23
0.0
 33
0.0
 40
0.0
 40
0.0
 40
0.0
 40
0.0
 40
1.0
 40
1.0
 40
1.0
 40
2.0
 40
2.0
 40
2.0
 40
3.0
 40
3.0
 40
3.0
 40
4.0
 40
4.0
 40
4.0
 40
5.0
 40
5.0
 40
5.0
 40
6.0
 40
6.0
 40
6.0
 40
7.0
 40
7.0
 40
7.0
 40
8.0
 40
8.0
 40
8.0
 40
9.0
 40
9.0
 40
9.0
 40
10.0
 40
10.0
 40
10.0
 40
11.0
 40
11.0
 40
11.0
 40
12.0
 40
12.0
 40
12.0
 40
13.0
 40
13.0
 40
13.0
 40
14.0
 40
14.0
 40
14.0
 40
15.0
 40
15.0
 40
15.0
 40
16.0
 40
16.0
 40
16.0
 40
16.0
 10
117.1325574793974
 20
-153.5730549746276
 30
0.0
 10
117.0650336078865
 20
-153.7253281950756
 30
0.0
 10
117.022658933418
 20
-153.8035318625908
 30
0.0
 10
116.9844183735317
 20
-153.8710557341017
 30
0.0
 10
117.0267930480003
 20
-153.8924153261102
 30
0.0
 10
117.0309271625826
 20
-153.8944823834014
 30
0.0
 10
117.0309271625826
 20
-153.9096408035365
 30
0.0
 10
117.0309271625826
 20
-153.9220431472834
 30
0.0
 10
116.9971652268271
 20
-153.9558050830388
 30
0.0
 10
116.9864854308228
 20
-153.964417821752
 30
0.0
 10
116.9844183735317
 20
-154.1611327739597
 30
0.0
 10
116.9844183735317
 20
-154.1824923659683
 30
0.0
 10
116.9844183735317
 20
-154.3154730516989
 30
0.0
 10
116.9823513162405
 20
-154.3282199049943
 30
0.0
 10
116.9823513162405
 20
-154.3430338155809
 30
0.0
 10
116.9823513162405
 20
-154.3578477261675
 30
0.0
 10
116.9823513162405
 20
-154.3578477261675
 30
0.0
 10
116.9823513162405
 20
-154.8928710550268
 30
0.0
 10
116.9823513162405
 20
-154.8928710550268
 30
0.0
 10
116.9823513162405
 20
-154.965218060217
 30
0.0
 10
116.9864854308228
 20
-155.1998290627625
 30
0.0
 10
116.995098169536
 20
-155.309727608742
 30
0.0
 10
116.995098169536
 20
-155.309727608742
 30
0.0
 10
116.7518744282773
 20
-155.309727608742
 30
0.0
 10
116.7518744282773
 20
-155.309727608742
 30
0.0
 10
116.7749565680285
 20
-155.1512532164205
 30
0.0
 10
116.7815022494505
 20
-154.910096532453
 30
0.0
 10
116.7815022494505
 20
-154.8887369404445
 30
0.0
 10
116.7815022494505
 20
-154.8887369404445
 30
0.0
 10
116.7815022494505
 20
-154.1714680604155
 30
0.0
 10
116.7815022494505
 20
-154.1714680604155
 30
0.0
 10
116.6905517286399
 20
-154.2858452305258
 30
0.0
 10
116.6292290290024
 20
-154.3451008728721
 30
0.0
 10
116.5868543545338
 20
-154.3874755473406
 30
0.0
 10
116.5868543545338
 20
-154.3874755473406
 30
0.0
 10
116.3963405741995
 20
-154.2500162374792
 30
0.0
 10
116.3963405741995
 20
-154.2500162374792
 30
0.0
 10
116.6778048753444
 20
-154.0343532601025
 30
0.0
 10
116.8703857129699
 20
-153.7253281950756
 30
0.0
 10
116.9823513162405
 20
-153.3887423661667
 30
0.0
 10
116.9823513162405
 20
-153.3887423661667
 30
0.0
 10
117.202492917748
 20
-153.503119536277
 30
0.0
 10
117.202492917748
 20
-153.503119536277
 30
0.0
 10
117.2152397710434
 20
-153.5093207081505
 30
0.0
 10
117.223508000208
 20
-153.5137993322813
 30
0.0
 10
117.223508000208
 20
-153.5286132428679
 30
0.0
 10
117.223508000208
 20
-153.5541069494587
 30
0.0
 10
117.2066270323303
 20
-153.558241064041
 30
0.0
 10
117.1325574793974
 20
-153.5730549746276
 30
0.0
  0
SPLINE
  5
139
330
FC
100
AcDbEntity
  8
_U+30EC_U+30A4_U+30E4_U+30FC 1
370
     0
100
AcDbSpline
210
0.0
220
0.0
230
1.0
 70
    11
 71
     3
 72
    77
 73
    73
 74
     0
 42
0.0000000001
 43
0.0000000001
 12
1.0
 22
0.0
 32
0.0
 13
1.0
 23
0.0
 33
0.0
 40
0.0
 40
0.0
 40
0.0
 40
0.0
 40
1.0
 40
1.0
 40
1.0
 40
2.0
 40
2.0
 40
2.0
 40
3.0
 40
3.0
 40
3.0
 40
4.0
 40
4.0
 40
4.0
 40
5.0
 40
5.0
 40
5.0
 40
6.0
 40
6.0
 40
6.0
 40
7.0
 40
7.0
 40
7.0
 40
8.0
 40
8.0
 40
8.0
 40
9.0
 40
9.0
 40
9.0
 40
10.0
 40
10.0
 40
10.0
 40
11.0
 40
11.0
 40
11.0
 40
12.0
 40
12.0
 40
12.0
 40
13.0
 40
13.0
 40
13.0
 40
14.0
 40
14.0
 40
14.0
 40
15.0
 40
15.0
 40
15.0
 40
16.0
 40
16.0
 40
16.0
 40
17.0
 40
17.0
 40
17.0
 40
18.0
 40
18.0
 40
18.0
 40
19.0
 40
19.0
 40
19.0
 40
20.0
 40
20.0
 40
20.0
 40
21.0
 40
21.0
 40
21.0
 40
22.0
 40
22.0
 40
22.0
 40
23.0
 40
23.0
 40
23.0
 40
24.0
 40
24.0
 40
24.0
 40
24.0
 10
118.2835638810194
 20
-154.0722493104403
 30
0.0
 10
118.2136284426688
 20
-154.068115195858
 30
0.0
 10
118.1457600616094
 20
-154.068115195858
 30
0.0
 10
118.0782361900985
 20
-154.068115195858
 30
0.0
 10
118.0782361900985
 20
-154.068115195858
 30
0.0
 10
118.0782361900985
 20
-154.8425726609422
 30
0.0
 10
118.0782361900985
 20
-154.8425726609422
 30
0.0
 10
118.0782361900985
 20
-155.1068114846608
 30
0.0
 10
118.0761691328074
 20
-155.136439305834
 30
0.0
 10
118.0696234513854
 20
-155.1660671270071
 30
0.0
 10
118.0358615156299
 20
-155.2993923222863
 30
0.0
 10
117.9342311988151
 20
-155.3076605514509
 30
0.0
 10
117.7588758386158
 20
-155.3076605514509
 30
0.0
 10
117.7185682214384
 20
-155.3076605514509
 30
0.0
 10
117.7016872535607
 20
-155.3076605514509
 30
0.0
 10
117.6613796363833
 20
-155.3035264368686
 30
0.0
 10
117.6613796363833
 20
-155.3035264368686
 30
0.0
 10
117.5366671798172
 20
-155.0623697529011
 30
0.0
 10
117.5366671798172
 20
-155.0623697529011
 30
0.0
 10
117.6531114072187
 20
-155.0940646313654
 30
0.0
 10
117.7354491893161
 20
-155.0940646313654
 30
0.0
 10
117.7588758386158
 20
-155.0940646313654
 30
0.0
 10
117.8284667674179
 20
-155.0940646313654
 30
0.0
 10
117.8625732127219
 20
-155.0771836634877
 30
0.0
 10
117.8667073273042
 20
-155.0199950784325
 30
0.0
 10
117.8667073273042
 20
-155.0072482251371
 30
0.0
 10
117.8687743845953
 20
-154.910096532453
 30
0.0
 10
117.8687743845953
 20
-154.8529079473979
 30
0.0
 10
117.8687743845953
 20
-154.8529079473979
 30
0.0
 10
117.8687743845953
 20
-154.0660481385668
 30
0.0
 10
117.8687743845953
 20
-154.0660481385668
 30
0.0
 10
117.8687743845953
 20
-154.0660481385668
 30
0.0
 10
117.574563230155
 20
-154.0660481385668
 30
0.0
 10
117.574563230155
 20
-154.0660481385668
 30
0.0
 10
117.4288356911289
 20
-154.0660481385668
 30
0.0
 10
117.2827636425543
 20
-154.0722493104403
 30
0.0
 10
117.1391031608194
 20
-154.0849961637357
 30
0.0
 10
117.1391031608194
 20
-154.0849961637357
 30
0.0
 10
117.1391031608194
 20
-153.8776014155237
 30
0.0
 10
117.1391031608194
 20
-153.8776014155237
 30
0.0
 10
117.2889648144278
 20
-153.8903482688191
 30
0.0
 10
117.5070393586441
 20
-153.8944823834014
 30
0.0
 10
117.574563230155
 20
-153.8944823834014
 30
0.0
 10
117.574563230155
 20
-153.8944823834014
 30
0.0
 10
117.8687743845953
 20
-153.8944823834014
 30
0.0
 10
117.8687743845953
 20
-153.8944823834014
 30
0.0
 10
117.8667073273042
 20
-153.6257649355519
 30
0.0
 10
117.8667073273042
 20
-153.5499728348764
 30
0.0
 10
117.858094588591
 20
-153.4018337290107
 30
0.0
 10
117.858094588591
 20
-153.4018337290107
 30
0.0
 10
118.1161322404362
 20
-153.4397297793484
 30
0.0
 10
118.1161322404362
 20
-153.4397297793484
 30
0.0
 10
118.1309461510228
 20
-153.4417968366396
 30
0.0
 10
118.1457600616094
 20
-153.447998008513
 30
0.0
 10
118.1457600616094
 20
-153.4693576005216
 30
0.0
 10
118.1457600616094
 20
-153.4886501352389
 30
0.0
 10
118.139558889736
 20
-153.4907171925301
 30
0.0
 10
118.0823703046808
 20
-153.5244791282855
 30
0.0
 10
118.0782361900985
 20
-153.6026827958007
 30
0.0
 10
118.0782361900985
 20
-153.6174967063873
 30
0.0
 10
118.0782361900985
 20
-153.8944823834014
 30
0.0
 10
118.2560031171374
 20
-153.8903482688191
 30
0.0
 10
118.2749511423063
 20
-153.8903482688191
 30
0.0
 10
118.3087130780617
 20
-153.8862141542368
 30
0.0
 10
118.3597004912434
 20
-153.8820800396545
 30
0.0
 10
118.3638346058257
 20
-153.8800129823633
 30
0.0
 10
118.4082763375854
 20
-153.8776014155237
 30
0.0
 10
118.4082763375854
 20
-153.8776014155237
 30
0.0
 10
118.4082763375854
 20
-154.0849961637357
 30
0.0
 10
118.4082763375854
 20
-154.0849961637357
 30
0.0
 10
118.3786485164123
 20
-154.0829291064445
 30
0.0
 10
118.3235269886483
 20
-154.0743163677314
 30
0.0
 10
118.2835638810194
 20
-154.0722493104403
 30
0.0
  0
SPLINE
  5
13A
330
FC
100
AcDbEntity
  8
_U+30EC_U+30A4_U+30E4_U+30FC 1
370
     0
100
AcDbSpline
210
0.0
220
0.0
230
1.0
 70
    11
 71
     3
 72
    20
 73
    16
 74
     0
 42
0.0000000001
 43
0.0000000001
 12
1.0
 22
0.0
 32
0.0
 13
1.0
 23
0.0
 33
0.0
 40
0.0
 40
0.0
 40
0.0
 40
0.0
 40
1.0
 40
1.0
 40
1.0
 40
2.0
 40
2.0
 40
2.0
 40
3.0
 40
3.0
 40
3.0
 40
4.0
 40
4.0
 40
4.0
 40
5.0
 40
5.0
 40
5.0
 40
5.0
 10
117.5132405305175
 20
-154.7977864196339
 30
0.0
 10
117.4667317414667
 20
-154.620019492595
 30
0.0
 10
117.3695800487826
 20
-154.4784260681512
 30
0.0
 10
117.23005368163
 20
-154.3685275221718
 30
0.0
 10
117.23005368163
 20
-154.3685275221718
 30
0.0
 10
117.3905951312426
 20
-154.2541503520615
 30
0.0
 10
117.3905951312426
 20
-154.2541503520615
 30
0.0
 10
117.4519178308801
 20
-154.29652502653
 30
0.0
 10
117.4922254480575
 20
-154.3302869622855
 30
0.0
 10
117.5683620582815
 20
-154.4381184509738
 30
0.0
 10
117.6486327830878
 20
-154.5545626783752
 30
0.0
 10
117.6699923750964
 20
-154.6076171488481
 30
0.0
 10
117.6951415721387
 20
-154.6730739630678
 30
0.0
 10
117.6951415721387
 20
-154.6730739630678
 30
0.0
 10
117.5132405305175
 20
-154.7977864196339
 30
0.0
 10
117.5132405305175
 20
-154.7977864196339
 30
0.0
  0
HATCH
  5
13B
330
FC
100
AcDbEntity
  8
_U+30EC_U+30A4_U+30E4_U+30FC 1
 62
   179
420
  2234388
100
AcDbHatch
 10
0.0
 20
0.0
 30
0.0
210
0.0
220
0.0
230
1.0
  2
SOLID
 70
     1
 71
     0
 91
        3
 92
        1
 93
        1
 72
     4
 94
        3
 73
     0
 74
     1
 95
       53
 96
       49
 40
0.0
 40
0.0
 40
0.0
 40
0.0
 40
1.0
 40
1.0
 40
1.0
 40
2.0
 40
2.0
 40
2.0
 40
3.0
 40
3.0
 40
3.0
 40
4.0
 40
4.0
 40
4.0
 40
5.0
 40
5.0
 40
5.0
 40
6.0
 40
6.0
 40
6.0
 40
7.0
 40
7.0
 40
7.0
 40
8.0
 40
8.0
 40
8.0
 40
9.0
 40
9.0
 40
9.0
 40
10.0
 40
10.0
 40
10.0
 40
11.0
 40
11.0
 40
11.0
 40
12.0
 40
12.0
 40
12.0
 40
13.0
 40
13.0
 40
13.0
 40
14.0
 40
14.0
 40
14.0
 40
15.0
 40
15.0
 40
15.0
 40
16.0
 40
16.0
 40
16.0
 40
16.0
 10
117.1325574793974
 20
-153.5730549746276
 10
117.0650336078865
 20
-153.7253281950756
 10
117.022658933418
 20
-153.8035318625908
 10
116.9844183735317
 20
-153.8710557341017
 10
117.0267930480003
 20
-153.8924153261102
 10
117.0309271625826
 20
-153.8944823834014
 10
117.0309271625826
 20
-153.9096408035365
 10
117.0309271625826
 20
-153.9220431472834
 10
116.9971652268271
 20
-153.9558050830388
 10
116.9864854308228
 20
-153.964417821752
 10
116.9844183735317
 20
-154.1611327739597
 10
116.9844183735317
 20
-154.1824923659683
 10
116.9844183735317
 20
-154.3154730516989
 10
116.9823513162405
 20
-154.3282199049943
 10
116.9823513162405
 20
-154.3430338155809
 10
116.9823513162405
 20
-154.3578477261675
 10
116.9823513162405
 20
-154.3578477261675
 10
116.9823513162405
 20
-154.8928710550268
 10
116.9823513162405
 20
-154.8928710550268
 10
116.9823513162405
 20
-154.965218060217
 10
116.9864854308228
 20
-155.1998290627625
 10
116.995098169536
 20
-155.309727608742
 10
116.995098169536
 20
-155.309727608742
 10
116.7518744282773
 20
-155.309727608742
 10
116.7518744282773
 20
-155.309727608742
 10
116.7749565680285
 20
-155.1512532164205
 10
116.7815022494505
 20
-154.910096532453
 10
116.7815022494505
 20
-154.8887369404445
 10
116.7815022494505
 20
-154.8887369404445
 10
116.7815022494505
 20
-154.1714680604155
 10
116.7815022494505
 20
-154.1714680604155
 10
116.6905517286399
 20
-154.2858452305258
 10
116.6292290290024
 20
-154.3451008728721
 10
116.5868543545338
 20
-154.3874755473406
 10
116.5868543545338
 20
-154.3874755473406
 10
116.3963405741995
 20
-154.2500162374792
 10
116.3963405741995
 20
-154.2500162374792
 10
116.6778048753444
 20
-154.0343532601025
 10
116.8703857129699
 20
-153.7253281950756
 10
116.9823513162405
 20
-153.3887423661667
 10
116.9823513162405
 20
-153.3887423661667
 10
117.202492917748
 20
-153.503119536277
 10
117.202492917748
 20
-153.503119536277
 10
117.2152397710434
 20
-153.5093207081505
 10
117.223508000208
 20
-153.5137993322813
 10
117.223508000208
 20
-153.5286132428679
 10
117.223508000208
 20
-153.5541069494587
 10
117.2066270323303
 20
-153.558241064041
 10
117.1325574793974
 20
-153.5730549746276
 97
        0
 97
        0
 92
        1
 93
        1
 72
     4
 94
        3
 73
     0
 74
     1
 95
       77
 96
       73
 40
0.0
 40
0.0
 40
0.0
 40
0.0
 40
1.0
 40
1.0
 40
1.0
 40
2.0
 40
2.0
 40
2.0
 40
3.0
 40
3.0
 40
3.0
 40
4.0
 40
4.0
 40
4.0
 40
5.0
 40
5.0
 40
5.0
 40
6.0
 40
6.0
 40
6.0
 40
7.0
 40
7.0
 40
7.0
 40
8.0
 40
8.0
 40
8.0
 40
9.0
 40
9.0
 40
9.0
 40
10.0
 40
10.0
 40
10.0
 40
11.0
 40
11.0
 40
11.0
 40
12.0
 40
12.0
 40
12.0
 40
13.0
 40
13.0
 40
13.0
 40
14.0
 40
14.0
 40
14.0
 40
15.0
 40
15.0
 40
15.0
 40
16.0
 40
16.0
 40
16.0
 40
17.0
 40
17.0
 40
17.0
 40
18.0
 40
18.0
 40
18.0
 40
19.0
 40
19.0
 40
19.0
 40
20.0
 40
20.0
 40
20.0
 40
21.0
 40
21.0
 40
21.0
 40
22.0
 40
22.0
 40
22.0
 40
23.0
 40
23.0
 40
23.0
 40
24.0
 40
24.0
 40
24.0
 40
24.0
 10
118.2835638810194
 20
-154.0722493104403
 10
118.2136284426688
 20
-154.068115195858
 10
118.1457600616094
 20
-154.068115195858
 10
118.0782361900985
 20
-154.068115195858
 10
118.0782361900985
 20
-154.068115195858
 10
118.0782361900985
 20
-154.8425726609422
 10
118.0782361900985
 20
-154.8425726609422
 10
118.0782361900985
 20
-155.1068114846608
 10
118.0761691328074
 20
-155.136439305834
 10
118.0696234513854
 20
-155.1660671270071
 10
118.0358615156299
 20
-155.2993923222863
 10
117.9342311988151
 20
-155.3076605514509
 10
117.7588758386158
 20
-155.3076605514509
 10
117.7185682214384
 20
-155.3076605514509
 10
117.7016872535607
 20
-155.3076605514509
 10
117.6613796363833
 20
-155.3035264368686
 10
117.6613796363833
 20
-155.3035264368686
 10
117.5366671798172
 20
-155.0623697529011
 10
117.5366671798172
 20
-155.0623697529011
 10
117.6531114072187
 20
-155.0940646313654
 10
117.7354491893161
 20
-155.0940646313654
 10
117.7588758386158
 20
-155.0940646313654
 10
117.8284667674179
 20
-155.0940646313654
 10
117.8625732127219
 20
-155.0771836634877
 10
117.8667073273042
 20
-155.0199950784325
 10
117.8667073273042
 20
-155.0072482251371
 10
117.8687743845953
 20
-154.910096532453
 10
117.8687743845953
 20
-154.8529079473979
 10
117.8687743845953
 20
-154.8529079473979
 10
117.8687743845953
 20
-154.0660481385668
 10
117.8687743845953
 20
-154.0660481385668
 10
117.8687743845953
 20
-154.0660481385668
 10
117.574563230155
 20
-154.0660481385668
 10
117.574563230155
 20
-154.0660481385668
 10
117.4288356911289
 20
-154.0660481385668
 10
117.2827636425543
 20
-154.0722493104403
 10
117.1391031608194
 20
-154.0849961637357
 10
117.1391031608194
 20
-154.0849961637357
 10
117.1391031608194
 20
-153.8776014155237
 10
117.1391031608194
 20
-153.8776014155237
 10
117.2889648144278
 20
-153.8903482688191
 10
117.5070393586441
 20
-153.8944823834014
 10
117.574563230155
 20
-153.8944823834014
 10
117.574563230155
 20
-153.8944823834014
 10
117.8687743845953
 20
-153.8944823834014
 10
117.8687743845953
 20
-153.8944823834014
 10
117.8667073273042
 20
-153.6257649355519
 10
117.8667073273042
 20
-153.5499728348764
 10
117.858094588591
 20
-153.4018337290107
 10
117.858094588591
 20
-153.4018337290107
 10
118.1161322404362
 20
-153.4397297793484
 10
118.1161322404362
 20
-153.4397297793484
 10
118.1309461510228
 20
-153.4417968366396
 10
118.1457600616094
 20
-153.447998008513
 10
118.1457600616094
 20
-153.4693576005216
 10
118.1457600616094
 20
-153.4886501352389
 10
118.139558889736
 20
-153.4907171925301
 10
118.0823703046808
 20
-153.5244791282855
 10
118.0782361900985
 20
-153.6026827958007
 10
118.0782361900985
 20
-153.6174967063873
 10
118.0782361900985
 20
-153.8944823834014
 10
118.2560031171374
 20
-153.8903482688191
 10
118.2749511423063
 20
-153.8903482688191
 10
118.3087130780617
 20
-153.8862141542368
 10
118.3597004912434
 20
-153.8820800396545
 10
118.3638346058257
 20
-153.8800129823633
 10
118.4082763375854
 20
-153.8776014155237
 10
118.4082763375854
 20
-153.8776014155237
 10
118.4082763375854
 20
-154.0849961637357
 10
118.4082763375854
 20
-154.0849961637357
 10
118.3786485164123
 20
-154.0829291064445
 10
118.3235269886483
 20
-154.0743163677314
 10
118.2835638810194
 20
-154.0722493104403
 97
        0
 97
        0
 92
        1
 93
        1
 72
     4
 94
        3
 73
     0
 74
     1
 95
       20
 96
       16
 40
0.0
 40
0.0
 40
0.0
 40
0.0
 40
1.0
 40
1.0
 40
1.0
 40
2.0
 40
2.0
 40
2.0
 40
3.0
 40
3.0
 40
3.0
 40
4.0
 40
4.0
 40
4.0
 40
5.0
 40
5.0
 40
5.0
 40
5.0
 10
117.5132405305175
 20
-154.7977864196339
 10
117.4667317414667
 20
-154.620019492595
 10
117.3695800487826
 20
-154.4784260681512
 10
117.23005368163
 20
-154.3685275221718
 10
117.23005368163
 20
-154.3685275221718
 10
117.3905951312426
 20
-154.2541503520615
 10
117.3905951312426
 20
-154.2541503520615
 10
117.4519178308801
 20
-154.29652502653
 10
117.4922254480575
 20
-154.3302869622855
 10
117.5683620582815
 20
-154.4381184509738
 10
117.6486327830878
 20
-154.5545626783752
 10
117.6699923750964
 20
-154.6076171488481
 10
117.6951415721387
 20
-154.6730739630678
 10
117.6951415721387
 20
-154.6730739630678
 10
117.5132405305175
 20
-154.7977864196339
 10
117.5132405305175
 20
-154.7977864196339
 97
        0
 97
        0
 75
     2
 76
     1
 98
        0
  0
ENDBLK
  5
FF
330
FC
100
AcDbEntity
  8
0
100
AcDbBlockEnd
  0
ENDSEC
  0
SECTION
  2
ENTITIES
  0
INSERT
  5
42
330
1F
100
AcDbEntity
  8
_U+30EC_U+30A4_U+30E4_U+30FC 1
100
AcDbBlockReference
  2
block 2
 10
0.0
 20
0.0
 30
0.0
  0
ENDSEC
  0
SECTION
  2
OBJECTS
  0
DICTIONARY
  5
C
330
0
100
AcDbDictionary
281
     1
  3
ACAD_GROUP
350
D
  3
ACAD_LAYOUT
350
1A
  3
ACAD_MATERIAL
350
3B
  3
ACAD_MLEADERSTYLE
350
142
  3
ACAD_MLINESTYLE
350
17
  3
ACAD_PLOTSETTINGS
350
19
  3
ACAD_PLOTSTYLENAME
350
E
  3
ACAD_TABLESTYLE
350
141
  3
ACAD_VISUALSTYLE
350
2A
  0
SUN
  5
3F
330
29
100
AcDbSun
 90
        1
290
     0
 63
     7
421
 16777215
 40
1.0
291
     1
 91
  2455826
 92
 54000000
292
     0
 70
     2
 71
   256
280
     1
  0
DICTIONARY
  5
D
102
{ACAD_REACTORS
330
C
102
}
330
C
100
AcDbDictionary
281
     1
  0
DICTIONARY
  5
1A
102
{ACAD_REACTORS
330
C
102
}
330
C
100
AcDbDictionary
281
     1
  3
Layout1
350
1E
  3
Layout2
350
26
  3
Model
350
22
  0
DICTIONARY
  5
3B
102
{ACAD_REACTORS
330
C
102
}
330
C
100
AcDbDictionary
281
     1
  3
ByBlock
350
3D
  3
ByLayer
350
3C
  3
Global
350
3E
  0
DICTIONARY
  5
142
102
{ACAD_REACTORS
330
C
102
}
330
C
100
AcDbDictionary
281
     1
  0
DICTIONARY
  5
17
102
{ACAD_REACTORS
330
C
102
}
330
C
100
AcDbDictionary
281
     1
  3
Standard
350
18
  0
DICTIONARY
  5
19
102
{ACAD_REACTORS
330
C
102
}
330
C
100
AcDbDictionary
281
     1
  0
ACDBDICTIONARYWDFLT
  5
E
102
{ACAD_REACTORS
330
C
102
}
330
C
100
AcDbDictionary
281
     1
  3
Normal
350
F
100
AcDbDictionaryWithDefault
340
F
  0
DICTIONARY
  5
141
102
{ACAD_REACTORS
330
C
102
}
330
C
100
AcDbDictionary
281
     1
  0
DICTIONARY
  5
2A
102
{ACAD_REACTORS
330
C
102
}
330
C
100
AcDbDictionary
281
     1
  3
2dWireframe
350
2F
  3
3D Hidden
350
31
  3
3dWireframe
350
30
  3
Basic
350
32
  3
Brighten
350
36
  3
ColorChange
350
3A
  3
Conceptual
350
34
  3
Dim
350
35
  3
Facepattern
350
39
  3
Flat
350
2B
  3
FlatWithEdges
350
2C
  3
Gouraud
350
2D
  3
GouraudWithEdges
350
2E
  3
Linepattern
350
38
  3
Realistic
350
33
  3
Thicken
350
37
  0
LAYOUT
  5
1E
102
{ACAD_REACTORS
330
1A
102
}
330
1A
100
AcDbPlotSettings
  1

  2
none_device
  4

  6

 40
0.0
 41
0.0
 42
0.0
 43
0.0
 44
0.0
 45
0.0
 46
0.0
 47
0.0
 48
0.0
 49
0.0
140
0.0
141
0.0
142
1.0
143
1.0
 70
   688
 72
     0
 73
     0
 74
     5
  7

 75
    16
 76
     0
 77
     2
 78
   300
147
1.0
148
0.0
149
0.0
100
AcDbLayout
  1
Layout1
 70
     1
 71
     1
 10
0.0
 20
0.0
 11
12.0
 21
9.0
 12
0.0
 22
0.0
 32
0.0
 14
1.000000000000000E+20
 24
1.000000000000000E+20
 34
1.000000000000000E+20
 15
-1.000000000000000E+20
 25
-1.000000000000000E+20
 35
-1.000000000000000E+20
146
0.0
 13
0.0
 23
0.0
 33
0.0
 16
1.0
 26
0.0
 36
0.0
 17
0.0
 27
1.0
 37
0.0
 76
     0
330
1B
  0
LAYOUT
  5
26
102
{ACAD_REACTORS
330
1A
102
}
330
1A
100
AcDbPlotSettings
  1

  2
none_device
  4

  6

 40
0.0
 41
0.0
 42
0.0
 43
0.0
 44
0.0
 45
0.0
 46
0.0
 47
0.0
 48
0.0
 49
0.0
140
0.0
141
0.0
142
1.0
143
1.0
 70
   688
 72
     0
 73
     0
 74
     5
  7

 75
    16
 76
     0
 77
     2
 78
   300
147
1.0
148
0.0
149
0.0
100
AcDbLayout
  1
Layout2
 70
     1
 71
     2
 10
0.0
 20
0.0
 11
0.0
 21
0.0
 12
0.0
 22
0.0
 32
0.0
 14
0.0
 24
0.0
 34
0.0
 15
0.0
 25
0.0
 35
0.0
146
0.0
 13
0.0
 23
0.0
 33
0.0
 16
1.0
 26
0.0
 36
0.0
 17
0.0
 27
1.0
 37
0.0
 76
     0
330
23
  0
LAYOUT
  5
22
102
{ACAD_REACTORS
330
1A
102
}
330
1A
100
AcDbPlotSettings
  1

  2
none_device
  4

  6

 40
0.0
 41
0.0
 42
0.0
 43
0.0
 44
0.0
 45
0.0
 46
0.0
 47
0.0
 48
0.0
 49
0.0
140
0.0
141
0.0
142
1.0
143
1.0
 70
  1712
 72
     0
 73
     0
 74
     0
  7

 75
     0
 76
     0
 77
     2
 78
   300
147
1.0
148
0.0
149
0.0
100
AcDbLayout
  1
Model
 70
     1
 71
     0
 10
0.0
 20
0.0
 11
12.0
 21
9.0
 12
0.0
 22
0.0
 32
0.0
 14
1.000000000000000E+20
 24
1.000000000000000E+20
 34
1.000000000000000E+20
 15
-1.000000000000000E+20
 25
-1.000000000000000E+20
 35
-1.000000000000000E+20
146
0.0
 13
0.0
 23
0.0
 33
0.0
 16
1.0
 26
0.0
 36
0.0
 17
0.0
 27
1.0
 37
0.0
 76
     0
330
1F
331
29
  0
MATERIAL
  5
3D
102
{ACAD_REACTORS
330
3B
102
}
330
3B
100
AcDbMaterial
  1
ByBlock
 72
     1
 94
      127
  0
MATERIAL
  5
3C
102
{ACAD_REACTORS
330
3B
102
}
330
3B
100
AcDbMaterial
  1
ByLayer
 72
     1
 94
      127
  0
MATERIAL
  5
3E
102
{ACAD_REACTORS
330
3B
102
}
330
3B
100
AcDbMaterial
  1
Global
 72
     1
 94
      127
  0
MLINESTYLE
  5
18
102
{ACAD_REACTORS
330
17
102
}
330
17
100
AcDbMlineStyle
  2
Standard
 70
     0
  3

 62
   256
 51
90.0
 52
90.0
 71
     2
 49
0.5
 62
   256
  6
BYLAYER
 49
-0.5
 62
   256
  6
BYLAYER
  0
ACDBPLACEHOLDER
  5
F
102
{ACAD_REACTORS
330
E
102
}
330
E
  0
VISUALSTYLE
  5
2F
102
{ACAD_REACTORS
330
2A
102
}
330
2A
100
AcDbVisualStyle
  2
2dWireframe
 70
     4
177
     2
291
     0
 71
     0
176
     1
 72
     2
176
     1
 73
     0
176
     1
 90
        0
176
     1
 40
-0.6
176
     1
 41
-30.0
176
     1
 62
     5
 63
     7
421
 16777215
176
     1
 74
     1
176
     1
 91
        4
176
     1
 64
     7
176
     1
 65
   257
176
     1
 75
     1
176
     1
175
     1
176
     1
 42
1.0
176
     1
 92
        0
176
     1
 66
   257
176
     1
 43
1.0
176
     1
 76
     1
176
     1
 77
     6
176
     1
 78
     2
176
     1
 67
     7
176
     1
 79
     5
176
     1
170
     0
176
     1
171
     0
176
     1
290
     0
176
     1
 93
        1
176
     1
 44
0.0
176
     1
173
     0
176
     1
  0
VISUALSTYLE
  5
31
102
{ACAD_REACTORS
330
2A
102
}
330
2A
100
AcDbVisualStyle
  2
3D Hidden
 70
     6
177
     2
291
     0
 71
     1
176
     1
 72
     2
176
     1
 73
     2
176
     1
 90
        0
176
     1
 40
-0.6
176
     1
 41
-30.0
176
     1
 62
     5
 63
     7
421
 16777215
176
     1
 74
     2
176
     1
 91
        2
176
     1
 64
     7
176
     1
 65
   257
176
     1
 75
     2
176
     1
175
     1
176
     1
 42
40.0
176
     1
 92
        0
176
     1
 66
   257
176
     1
 43
1.0
176
     1
 76
     1
176
     1
 77
     6
176
     1
 78
     2
176
     1
 67
     7
176
     1
 79
     3
176
     1
170
     0
176
     1
171
     0
176
     1
290
     0
176
     1
 93
        1
176
     1
 44
0.0
176
     1
173
     0
176
     1
  0
VISUALSTYLE
  5
30
102
{ACAD_REACTORS
330
2A
102
}
330
2A
100
AcDbVisualStyle
  2
3dWireframe
 70
     5
177
     2
291
     0
 71
     0
176
     1
 72
     2
176
     1
 73
     0
176
     1
 90
        0
176
     1
 40
-0.6
176
     1
 41
-30.0
176
     1
 62
     5
 63
     7
421
 16777215
176
     1
 74
     1
176
     1
 91
        4
176
     1
 64
     7
176
     1
 65
   257
176
     1
 75
     1
176
     1
175
     1
176
     1
 42
1.0
176
     1
 92
        0
176
     1
 66
   257
176
     1
 43
1.0
176
     1
 76
     1
176
     1
 77
     6
176
     1
 78
     2
176
     1
 67
     7
176
     1
 79
     5
176
     1
170
     0
176
     1
171
     0
176
     1
290
     0
176
     1
 93
        1
176
     1
 44
0.0
176
     1
173
     0
176
     1
  0
VISUALSTYLE
  5
32
102
{ACAD_REACTORS
330
2A
102
}
330
2A
100
AcDbVisualStyle
  2
Basic
 70
     7
177
     2
291
     1
 71
     1
176
     1
 72
     0
176
     1
 73
     1
176
     1
 90
        0
176
     1
 40
-0.6
176
     1
 41
-30.0
176
     1
 62
     5
 63
     7
421
 16777215
176
     1
 74
     0
176
     1
 91
        4
176
     1
 64
     7
176
     1
 65
   257
176
     1
 75
     1
176
     1
175
     1
176
     1
 42
1.0
176
     1
 92
        8
176
     1
 66
     7
176
     1
 43
1.0
176
     1
 76
     1
176
     1
 77
     6
176
     1
 78
     2
176
     1
 67
     7
176
     1
 79
     5
176
     1
170
     0
176
     1
171
     0
176
     1
290
     0
176
     1
 93
        1
176
     1
 44
0.0
176
     1
173
     0
176
     1
  0
VISUALSTYLE
  5
36
102
{ACAD_REACTORS
330
2A
102
}
330
2A
100
AcDbVisualStyle
  2
Brighten
 70
    12
177
     2
291
     1
 71
     2
176
     1
 72
     2
176
     1
 73
     0
176
     1
 90
        0
176
     1
 40
-0.6
176
     1
 41
-30.0
176
     1
 62
     5
 63
     7
421
 16777215
176
     1
 74
     1
176
     1
 91
        4
176
     1
 64
     7
176
     1
 65
   257
176
     1
 75
     1
176
     1
175
     1
176
     1
 42
1.0
176
     1
 92
        8
176
     1
 66
     7
176
     1
 43
1.0
176
     1
 76
     1
176
     1
 77
     6
176
     1
 78
     2
176
     1
 67
     7
176
     1
 79
     5
176
     1
170
     0
176
     1
171
     0
176
     1
290
     0
176
     1
 93
        1
176
     1
 44
50.0
176
     1
173
     0
176
     1
  0
VISUALSTYLE
  5
3A
102
{ACAD_REACTORS
330
2A
102
}
330
2A
100
AcDbVisualStyle
  2
ColorChange
 70
    16
177
     2
291
     1
 71
     2
176
     1
 72
     2
176
     1
 73
     3
176
     1
 90
        0
176
     1
 40
-0.6
176
     1
 41
-30.0
176
     1
 62
     5
 63
     8
421
  8421504
176
     1
 74
     1
176
     1
 91
        4
176
     1
 64
     7
176
     1
 65
   257
176
     1
 75
     1
176
     1
175
     1
176
     1
 42
1.0
176
     1
 92
        8
176
     1
 66
     8
424
  8421504
176
     1
 43
1.0
176
     1
 76
     1
176
     1
 77
     6
176
     1
 78
     2
176
     1
 67
     7
176
     1
 79
     5
176
     1
170
     0
176
     1
171
     0
176
     1
290
     0
176
     1
 93
        1
176
     1
 44
0.0
176
     1
173
     0
176
     1
  0
VISUALSTYLE
  5
34
102
{ACAD_REACTORS
330
2A
102
}
330
2A
100
AcDbVisualStyle
  2
Conceptual
 70
     9
177
     2
291
     0
 71
     3
176
     1
 72
     2
176
     1
 73
     0
176
     1
 90
        0
176
     1
 40
-0.6
176
     1
 41
-30.0
176
     1
 62
     5
 63
     7
421
 16777215
176
     1
 74
     2
176
     1
 91
        2
176
     1
 64
     7
176
     1
 65
   257
176
     1
 75
     1
176
     1
175
     1
176
     1
 42
40.0
176
     1
 92
        8
176
     1
 66
     7
176
     1
 43
1.0
176
     1
 76
     1
176
     1
 77
     6
176
     1
 78
     2
176
     1
 67
     7
176
     1
 79
     3
176
     1
170
     0
176
     1
171
     0
176
     1
290
     0
176
     1
 93
        1
176
     1
 44
0.0
176
     1
173
     0
176
     1
  0
VISUALSTYLE
  5
35
102
{ACAD_REACTORS
330
2A
102
}
330
2A
100
AcDbVisualStyle
  2
Dim
 70
    11
177
     2
291
     1
 71
     2
176
     1
 72
     2
176
     1
 73
     0
176
     1
 90
        0
176
     1
 40
-0.6
176
     1
 41
-30.0
176
     1
 62
     5
 63
     7
421
 16777215
176
     1
 74
     1
176
     1
 91
        4
176
     1
 64
     7
176
     1
 65
   257
176
     1
 75
     1
176
     1
175
     1
176
     1
 42
1.0
176
     1
 92
        8
176
     1
 66
     7
176
     1
 43
1.0
176
     1
 76
     1
176
     1
 77
     6
176
     1
 78
     2
176
     1
 67
     7
176
     1
 79
     5
176
     1
170
     0
176
     1
171
     0
176
     1
290
     0
176
     1
 93
        1
176
     1
 44
-50.0
176
     1
173
     0
176
     1
  0
VISUALSTYLE
  5
39
102
{ACAD_REACTORS
330
2A
102
}
330
2A
100
AcDbVisualStyle
  2
Facepattern
 70
    15
177
     2
291
     1
 71
     2
176
     1
 72
     2
176
     1
 73
     0
176
     1
 90
        0
176
     1
 40
-0.6
176
     1
 41
-30.0
176
     1
 62
     5
 63
     7
421
 16777215
176
     1
 74
     1
176
     1
 91
        4
176
     1
 64
     7
176
     1
 65
   257
176
     1
 75
     1
176
     1
175
     1
176
     1
 42
1.0
176
     1
 92
        8
176
     1
 66
     7
176
     1
 43
1.0
176
     1
 76
     1
176
     1
 77
     6
176
     1
 78
     2
176
     1
 67
     7
176
     1
 79
     5
176
     1
170
     0
176
     1
171
     0
176
     1
290
     0
176
     1
 93
        1
176
     1
 44
0.0
176
     1
173
     0
176
     1
  0
VISUALSTYLE
  5
2B
102
{ACAD_REACTORS
330
2A
102
}
330
2A
100
AcDbVisualStyle
  2
Flat
 70
     0
177
     2
291
     1
 71
     2
176
     1
 72
     1
176
     1
 73
     1
176
     1
 90
        2
176
     1
 40
-0.6
176
     1
 41
30.0
176
     1
 62
     5
 63
     7
421
 16777215
176
     1
 74
     0
176
     1
 91
        4
176
     1
 64
     7
176
     1
 65
   257
176
     1
 75
     1
176
     1
175
     1
176
     1
 42
1.0
176
     1
 92
        8
176
     1
 66
     7
176
     1
 43
1.0
176
     1
 76
     1
176
     1
 77
     6
176
     1
 78
     2
176
     1
 67
     7
176
     1
 79
     5
176
     1
170
     0
176
     1
171
     0
176
     1
290
     0
176
     1
 93
       13
176
     1
 44
0.0
176
     1
173
     0
176
     1
  0
VISUALSTYLE
  5
2C
102
{ACAD_REACTORS
330
2A
102
}
330
2A
100
AcDbVisualStyle
  2
FlatWithEdges
 70
     1
177
     2
291
     1
 71
     2
176
     1
 72
     1
176
     1
 73
     1
176
     1
 90
        2
176
     1
 40
-0.6
176
     1
 41
30.0
176
     1
 62
     5
 63
     7
421
 16777215
176
     1
 74
     1
176
     1
 91
        4
176
     1
 64
     7
176
     1
 65
   257
176
     1
 75
     1
176
     1
175
     1
176
     1
 42
1.0
176
     1
 92
        0
176
     1
 66
   257
176
     1
 43
1.0
176
     1
 76
     1
176
     1
 77
     6
176
     1
 78
     2
176
     1
 67
     7
176
     1
 79
     5
176
     1
170
     0
176
     1
171
     0
176
     1
290
     0
176
     1
 93
       13
176
     1
 44
0.0
176
     1
173
     0
176
     1
  0
VISUALSTYLE
  5
2D
102
{ACAD_REACTORS
330
2A
102
}
330
2A
100
AcDbVisualStyle
  2
Gouraud
 70
     2
177
     2
291
     1
 71
     2
176
     1
 72
     2
176
     1
 73
     1
176
     1
 90
        2
176
     1
 40
-0.6
176
     1
 41
30.0
176
     1
 62
     5
 63
     7
421
 16777215
176
     1
 74
     0
176
     1
 91
        4
176
     1
 64
     7
176
     1
 65
   257
176
     1
 75
     1
176
     1
175
     1
176
     1
 42
1.0
176
     1
 92
        0
176
     1
 66
     7
176
     1
 43
1.0
176
     1
 76
     1
176
     1
 77
     6
176
     1
 78
     2
176
     1
 67
     7
176
     1
 79
     5
176
     1
170
     0
176
     1
171
     0
176
     1
290
     0
176
     1
 93
       13
176
     1
 44
0.0
176
     1
173
     0
176
     1
  0
VISUALSTYLE
  5
2E
102
{ACAD_REACTORS
330
2A
102
}
330
2A
100
AcDbVisualStyle
  2
GouraudWithEdges
 70
     3
177
     2
291
     1
 71
     2
176
     1
 72
     2
176
     1
 73
     1
176
     1
 90
        2
176
     1
 40
-0.6
176
     1
 41
30.0
176
     1
 62
     5
 63
     7
421
 16777215
176
     1
 74
     1
176
     1
 91
        4
176
     1
 64
     7
176
     1
 65
   257
176
     1
 75
     1
176
     1
175
     1
176
     1
 42
1.0
176
     1
 92
        0
176
     1
 66
   257
176
     1
 43
1.0
176
     1
 76
     1
176
     1
 77
     6
176
     1
 78
     2
176
     1
 67
     7
176
     1
 79
     5
176
     1
170
     0
176
     1
171
     0
176
     1
290
     0
176
     1
 93
       13
176
     1
 44
0.0
176
     1
173
     0
176
     1
  0
VISUALSTYLE
  5
38
102
{ACAD_REACTORS
330
2A
102
}
330
2A
100
AcDbVisualStyle
  2
Linepattern
 70
    14
177
     2
291
     1
 71
     2
176
     1
 72
     2
176
     1
 73
     0
176
     1
 90
        0
176
     1
 40
-0.6
176
     1
 41
-30.0
176
     1
 62
     5
 63
     7
421
 16777215
176
     1
 74
     1
176
     1
 91
        4
176
     1
 64
     7
176
     1
 65
   257
176
     1
 75
     7
176
     1
175
     7
176
     1
 42
1.0
176
     1
 92
        8
176
     1
 66
     7
176
     1
 43
1.0
176
     1
 76
     1
176
     1
 77
     6
176
     1
 78
     2
176
     1
 67
     7
176
     1
 79
     5
176
     1
170
     0
176
     1
171
     0
176
     1
290
     0
176
     1
 93
        1
176
     1
 44
0.0
176
     1
173
     0
176
     1
  0
VISUALSTYLE
  5
33
102
{ACAD_REACTORS
330
2A
102
}
330
2A
100
AcDbVisualStyle
  2
Realistic
 70
     8
177
     2
291
     0
 71
     2
176
     1
 72
     2
176
     1
 73
     0
176
     1
 90
        0
176
     1
 40
-0.6
176
     1
 41
-30.0
176
     1
 62
     5
 63
     7
421
 16777215
176
     1
 74
     1
176
     1
 91
        0
176
     1
 64
     7
176
     1
 65
   257
176
     1
 75
     1
176
     1
175
     1
176
     1
 42
1.0
176
     1
 92
        8
176
     1
 66
     8
424
  7895160
176
     1
 43
1.0
176
     1
 76
     1
176
     1
 77
     6
176
     1
 78
     2
176
     1
 67
     7
176
     1
 79
     5
176
     1
170
     0
176
     1
171
     0
176
     1
290
     0
176
     1
 93
       13
176
     1
 44
0.0
176
     1
173
     0
176
     1
  0
VISUALSTYLE
  5
37
102
{ACAD_REACTORS
330
2A
102
}
330
2A
100
AcDbVisualStyle
  2
Thicken
 70
    13
177
     2
291
     1
 71
     2
176
     1
 72
     2
176
     1
 73
     0
176
     1
 90
        0
176
     1
 40
-0.6
176
     1
 41
-30.0
176
     1
 62
     5
 63
     7
421
 16777215
176
     1
 74
     1
176
     1
 91
        4
176
     1
 64
     7
176
     1
 65
   257
176
     1
 75
     1
176
     1
175
     1
176
     1
 42
1.0
176
     1
 92
       12
176
     1
 66
     7
176
     1
 43
1.0
176
     1
 76
     1
176
     1
 77
     6
176
     1
 78
     2
176
     1
 67
     7
176
     1
 79
     5
176
     1
170
     0
176
     1
171
     0
176
     1
290
     0
176
     1
 93
        1
176
     1
 44
0.0
176
     1
173
     0
176
     1
  0
ENDSEC
  0
EOF
