  0
SECTION
  2
HEADER
  9
$ACADVER
  1
AC1024
  9
$ACADMAINTVER
 70
     6
  9
$DWGCODEPAGE
  3
UNDEFINED
  9
$INSBASE
 10
0.0
 20
0.0
 30
0.0
  9
$EXTMIN
 10
1.000000000000000E+20
 20
1.000000000000000E+20
 30
1.000000000000000E+20
  9
$EXTMAX
 10
-1.000000000000000E+20
 20
-1.000000000000000E+20
 30
-1.000000000000000E+20
  9
$LIMMIN
 10
0.0
 20
0.0
  9
$LIMMAX
 10
12.0
 20
9.0
  9
$ORTHOMODE
 70
     0
  9
$REGENMODE
 70
     1
  9
$FILLMODE
 70
     1
  9
$QTEXTMODE
 70
     0
  9
$MIRRTEXT
 70
     1
  9
$LTSCALE
 40
1.0
  9
$ATTMODE
 70
     1
  9
$TEXTSIZE
 40
0.2
  9
$TRACEWID
 40
0.05
  9
$TEXTSTYLE
  7
Standard
  9
$CLAYER
  8
0
  9
$CELTYPE
  6
ByLayer
  9
$CECOLOR
 62
   256
  9
$CELTSCALE
 40
1.0
  9
$DISPSILH
 70
     0
  9
$DIMSCALE
 40
1.0
  9
$DIMASZ
 40
0.18
  9
$DIMEXO
 40
0.0625
  9
$DIMDLI
 40
0.38
  9
$DIMRND
 40
0.0
  9
$DIMDLE
 40
0.0
  9
$DIMEXE
 40
0.18
  9
$DIMTP
 40
0.0
  9
$DIMTM
 40
0.0
  9
$DIMTXT
 40
0.18
  9
$DIMCEN
 40
0.09
  9
$DIMTSZ
 40
0.0
  9
$DIMTOL
 70
     0
  9
$DIMLIM
 70
     0
  9
$DIMTIH
 70
     1
  9
$DIMTOH
 70
     1
  9
$DIMSE1
 70
     0
  9
$DIMSE2
 70
     0
  9
$DIMTAD
 70
     0
  9
$DIMZIN
 70
     0
  9
$DIMBLK
  1

  9
$DIMASO
 70
     1
  9
$DIMSHO
 70
     1
  9
$DIMPOST
  1

  9
$DIMAPOST
  1

  9
$DIMALT
 70
     0
  9
$DIMALTD
 70
     2
  9
$DIMALTF
 40
25.4
  9
$DIMLFAC
 40
1.0
  9
$DIMTOFL
 70
     0
  9
$DIMTVP
 40
0.0
  9
$DIMTIX
 70
     0
  9
$DIMSOXD
 70
     0
  9
$DIMSAH
 70
     0
  9
$DIMBLK1
  1

  9
$DIMBLK2
  1

  9
$DIMSTYLE
  2
Standard
  9
$DIMCLRD
 70
     0
  9
$DIMCLRE
 70
     0
  9
$DIMCLRT
 70
     0
  9
$DIMTFAC
 40
1.0
  9
$DIMGAP
 40
0.09
  9
$DIMJUST
 70
     0
  9
$DIMSD1
 70
     0
  9
$DIMSD2
 70
     0
  9
$DIMTOLJ
 70
     1
  9
$DIMTZIN
 70
     0
  9
$DIMALTZ
 70
     0
  9
$DIMALTTZ
 70
     0
  9
$DIMUPT
 70
     0
  9
$DIMDEC
 70
     4
  9
$DIMTDEC
 70
     4
  9
$DIMALTU
 70
     2
  9
$DIMALTTD
 70
     2
  9
$DIMTXSTY
  7
Standard
  9
$DIMAUNIT
 70
     0
  9
$DIMADEC
 70
     0
  9
$DIMALTRND
 40
0.0
  9
$DIMAZIN
 70
     0
  9
$DIMDSEP
 70
    46
  9
$DIMATFIT
 70
     3
  9
$DIMFRAC
 70
     0
  9
$DIMLDRBLK
  1

  9
$DIMLUNIT
 70
     2
  9
$DIMLWD
 70
    -2
  9
$DIMLWE
 70
    -2
  9
$DIMTMOVE
 70
     0
  9
$DIMFXL
 40
1.0
  9
$DIMFXLON
 70
     0
  9
$DIMJOGANG
 40
0.7853981633974483
  9
$DIMTFILL
 70
     0
  9
$DIMTFILLCLR
 70
     0
  9
$DIMARCSYM
 70
     0
  9
$DIMLTYPE
  6

  9
$DIMLTEX1
  6

  9
$DIMLTEX2
  6

  9
$DIMTXTDIRECTION
 70
     0
  9
$LUNITS
 70
     2
  9
$LUPREC
 70
     4
  9
$SKETCHINC
 40
0.1
  9
$FILLETRAD
 40
0.5
  9
$AUNITS
 70
     0
  9
$AUPREC
 70
     0
  9
$MENU
  1
.
  9
$ELEVATION
 40
0.0
  9
$PELEVATION
 40
0.0
  9
$THICKNESS
 40
0.0
  9
$LIMCHECK
 70
     0
  9
$CHAMFERA
 40
0.5
  9
$CHAMFERB
 40
0.5
  9
$CHAMFERC
 40
1.0
  9
$CHAMFERD
 40
0.0
  9
$SKPOLY
 70
     0
  9
$TDCREATE
 40
2457917.585358785
  9
$TDUCREATE
 40
2457917.210358796
  9
$TDUPDATE
 40
2457917.585358785
  9
$TDUUPDATE
 40
2457917.210358796
  9
$TDINDWG
 40
0.0000000116
  9
$TDUSRTIMER
 40
0.0000000116
  9
$USRTIMER
 70
     1
  9
$ANGBASE
 50
0.0
  9
$ANGDIR
 70
     0
  9
$PDMODE
 70
     0
  9
$PDSIZE
 40
0.0
  9
$PLINEWID
 40
0.0
  9
$SPLFRAME
 70
     0
  9
$SPLINETYPE
 70
     6
  9
$SPLINESEGS
 70
     8
  9
$HANDSEED
  5
15B
  9
$SURFTAB1
 70
     6
  9
$SURFTAB2
 70
     6
  9
$SURFTYPE
 70
     6
  9
$SURFU
 70
     6
  9
$SURFV
 70
     6
  9
$UCSBASE
  2

  9
$UCSNAME
  2

  9
$UCSORG
 10
0.0
 20
0.0
 30
0.0
  9
$UCSXDIR
 10
1.0
 20
0.0
 30
0.0
  9
$UCSYDIR
 10
0.0
 20
1.0
 30
0.0
  9
$UCSORTHOREF
  2

  9
$UCSORTHOVIEW
 70
     0
  9
$UCSORGTOP
 10
0.0
 20
0.0
 30
0.0
  9
$UCSORGBOTTOM
 10
0.0
 20
0.0
 30
0.0
  9
$UCSORGLEFT
 10
0.0
 20
0.0
 30
0.0
  9
$UCSORGRIGHT
 10
0.0
 20
0.0
 30
0.0
  9
$UCSORGFRONT
 10
0.0
 20
0.0
 30
0.0
  9
$UCSORGBACK
 10
0.0
 20
0.0
 30
0.0
  9
$PUCSBASE
  2

  9
$PUCSNAME
  2

  9
$PUCSORG
 10
0.0
 20
0.0
 30
0.0
  9
$PUCSXDIR
 10
1.0
 20
0.0
 30
0.0
  9
$PUCSYDIR
 10
0.0
 20
1.0
 30
0.0
  9
$PUCSORTHOREF
  2

  9
$PUCSORTHOVIEW
 70
     0
  9
$PUCSORGTOP
 10
0.0
 20
0.0
 30
0.0
  9
$PUCSORGBOTTOM
 10
0.0
 20
0.0
 30
0.0
  9
$PUCSORGLEFT
 10
0.0
 20
0.0
 30
0.0
  9
$PUCSORGRIGHT
 10
0.0
 20
0.0
 30
0.0
  9
$PUCSORGFRONT
 10
0.0
 20
0.0
 30
0.0
  9
$PUCSORGBACK
 10
0.0
 20
0.0
 30
0.0
  9
$USERI1
 70
     0
  9
$USERI2
 70
     0
  9
$USERI3
 70
     0
  9
$USERI4
 70
     0
  9
$USERI5
 70
     0
  9
$USERR1
 40
0.0
  9
$USERR2
 40
0.0
  9
$USERR3
 40
0.0
  9
$USERR4
 40
0.0
  9
$USERR5
 40
0.0
  9
$WORLDVIEW
 70
     1
  9
$SHADEDGE
 70
     3
  9
$SHADEDIF
 70
    70
  9
$TILEMODE
 70
     1
  9
$MAXACTVP
 70
    64
  9
$PINSBASE
 10
0.0
 20
0.0
 30
0.0
  9
$PLIMCHECK
 70
     0
  9
$PEXTMIN
 10
1.000000000000000E+20
 20
1.000000000000000E+20
 30
1.000000000000000E+20
  9
$PEXTMAX
 10
-1.000000000000000E+20
 20
-1.000000000000000E+20
 30
-1.000000000000000E+20
  9
$PLIMMIN
 10
0.0
 20
0.0
  9
$PLIMMAX
 10
12.0
 20
9.0
  9
$UNITMODE
 70
     0
  9
$VISRETAIN
 70
     1
  9
$PLINEGEN
 70
     0
  9
$PSLTSCALE
 70
     1
  9
$TREEDEPTH
 70
  3020
  9
$CMLSTYLE
  2
Standard
  9
$CMLJUST
 70
     0
  9
$CMLSCALE
 40
1.0
  9
$PROXYGRAPHICS
 70
     1
  9
$MEASUREMENT
 70
     0
  9
$CELWEIGHT
370
    -1
  9
$ENDCAPS
280
     0
  9
$JOINSTYLE
280
     0
  9
$LWDISPLAY
290
     1
  9
$INSUNITS
 70
     1
  9
$HYPERLINKBASE
  1

  9
$STYLESHEET
  1

  9
$XEDIT
290
     1
  9
$CEPSNTYPE
380
     0
  9
$PSTYLEMODE
290
     1
  9
$FINGERPRINTGUID
  2
{5B3396E7-CA58-65E1-0AAE-C09A73F88360}
  9
$VERSIONGUID
  2
{FAEB1C32-E019-11D5-929B-00C0DF256EC4}
  9
$EXTNAMES
290
     1
  9
$PSVPSCALE
 40
0.0
  9
$OLESTARTUP
290
     0
  9
$SORTENTS
280
   127
  9
$INDEXCTL
280
     0
  9
$HIDETEXT
280
     1
  9
$XCLIPFRAME
280
     2
  9
$HALOGAP
280
     0
  9
$OBSCOLOR
 70
   257
  9
$OBSLTYPE
280
     0
  9
$INTERSECTIONDISPLAY
280
     0
  9
$INTERSECTIONCOLOR
 70
   257
  9
$DIMASSOC
280
     2
  9
$PROJECTNAME
  1

  9
$CAMERADISPLAY
290
     0
  9
$LENSLENGTH
 40
50.0
  9
$CAMERAHEIGHT
 40
0.0
  9
$STEPSPERSEC
 40
2.0
  9
$STEPSIZE
 40
6.0
  9
$3DDWFPREC
 40
2.0
  9
$PSOLWIDTH
 40
0.25
  9
$PSOLHEIGHT
 40
4.0
  9
$LOFTANG1
 40
1.570796326794897
  9
$LOFTANG2
 40
1.570796326794897
  9
$LOFTMAG1
 40
0.0
  9
$LOFTMAG2
 40
0.0
  9
$LOFTPARAM
 70
     7
  9
$LOFTNORMALS
280
     1
  9
$LATITUDE
 40
37.795
  9
$LONGITUDE
 40
-122.394
  9
$NORTHDIRECTION
 40
0.0
  9
$TIMEZONE
 70
 -8000
  9
$LIGHTGLYPHDISPLAY
280
     1
  9
$TILEMODELIGHTSYNCH
280
     1
  9
$CMATERIAL
347
3C
  9
$SOLIDHIST
280
     1
  9
$SHOWHIST
280
     1
  9
$DWFFRAME
280
     2
  9
$DGNFRAME
280
     2
  9
$REALWORLDSCALE
290
     1
  9
$INTERFERECOLOR
 62
   256
  9
$CSHADOW
280
     0
  9
$SHADOWPLANELOCATION
 40
0.0
  0
ENDSEC
  0
SECTION
  2
CLASSES
  0
CLASS
  1
ACDBDICTIONARYWDFLT
  2
AcDbDictionaryWithDefault
  3
ObjectDBX Classes
 90
        0
 91
        4
280
     0
281
     0
  0
CLASS
  1
VISUALSTYLE
  2
AcDbVisualStyle
  3
ObjectDBX Classes
 90
     4095
 91
        4
280
     0
281
     0
  0
CLASS
  1
MATERIAL
  2
AcDbMaterial
  3
ObjectDBX Classes
 90
     1153
 91
        4
280
     0
281
     0
  0
CLASS
  1
SUN
  2
AcDbSun
  3
SCENEOE
 90
     1024
 91
        4
280
     0
281
     0
  0
ENDSEC
  0
SECTION
  2
TABLES
  0
TABLE
  2
VPORT
  5
8
330
0
100
AcDbSymbolTable
 70
     1
  0
VPORT
  5
29
330
8
100
AcDbSymbolTableRecord
100
AcDbViewportTableRecord
  2
*Active
 70
     0
 10
0.0
 20
0.0
 11
1.0
 21
1.0
 12
0.0
 22
0.0
 13
0.0
 23
0.0
 14
0.5
 24
0.5
 15
0.5
 25
0.5
 16
0.0
 26
0.0
 36
1.0
 17
91.00082462281999
 27
-128.4993055234307
 37
0.0
 40
256.9986110468615
 41
0.7081814508812795
 42
50.0
 43
0.0
 44
0.0
 50
0.0
 51
0.0
 71
     0
 72
   100
 73
     1
 74
     3
 75
     0
 76
     0
 77
     0
 78
     0
281
     0
 65
     1
110
0.0
120
0.0
130
0.0
111
1.0
121
0.0
131
0.0
112
0.0
122
1.0
132
0.0
 79
     0
146
0.0
 60
     3
 61
     5
292
     1
282
     1
141
0.0
142
0.0
 63
   250
361
3F
  0
ENDTAB
  0
TABLE
  2
LTYPE
  5
5
330
0
100
AcDbSymbolTable
 70
     3
  0
LTYPE
  5
14
330
5
100
AcDbSymbolTableRecord
100
AcDbLinetypeTableRecord
  2
ByBlock
 70
     0
  3

 72
    65
 73
     0
 40
0.0
  0
LTYPE
  5
15
330
5
100
AcDbSymbolTableRecord
100
AcDbLinetypeTableRecord
  2
ByLayer
 70
     0
  3

 72
    65
 73
     0
 40
0.0
  0
LTYPE
  5
16
330
5
100
AcDbSymbolTableRecord
100
AcDbLinetypeTableRecord
  2
Continuous
 70
     0
  3
Solid line
 72
    65
 73
     0
 40
0.0
  0
LTYPE
  5
112
330
5
100
AcDbSymbolTableRecord
100
AcDbLinetypeTableRecord
  2
AI-Linetype-1
 70
     0
  3
Adobe Illustrator Linetype No. 1
 72
    65
 73
     2
 40
1.411111110758333
 49
0.7055555553791667
 74
     0
 49
-0.7055555553791667
 74
     0
  0
LTYPE
  5
117
330
5
100
AcDbSymbolTableRecord
100
AcDbLinetypeTableRecord
  2
AI-Linetype-2
 70
     0
  3
Adobe Illustrator Linetype No. 2
 72
    65
 73
     2
 40
1.411111110758333
 49
0.7055555553791667
 74
     0
 49
-0.7055555553791667
 74
     0
  0
ENDTAB
  0
TABLE
  2
LAYER
  5
2
330
0
100
AcDbSymbolTable
 70
     2
  0
LAYER
  5
10
330
2
100
AcDbSymbolTableRecord
100
AcDbLayerTableRecord
  2
0
 70
     0
 62
     7
  6
Continuous
370
    -3
390
F
347
3E
  0
LAYER
  5
40
330
2
100
AcDbSymbolTableRecord
100
AcDbLayerTableRecord
  2
_U+30EC_U+30A4_U+30E4_U+30FC 1
 70
     0
 62
     7
  6
Continuous
370
    -3
390
F
347
3E
  0
ENDTAB
  0
TABLE
  2
STYLE
  5
3
330
0
100
AcDbSymbolTable
 70
     1
  0
STYLE
  5
11
330
3
100
AcDbSymbolTableRecord
100
AcDbTextStyleTableRecord
  2
Standard
 70
     0
 40
0.0
 41
1.0
 50
0.0
 71
     0
 42
0.2
  3
txt
  4

  0
ENDTAB
  0
TABLE
  2
VIEW
  5
6
330
0
100
AcDbSymbolTable
 70
     0
  0
ENDTAB
  0
TABLE
  2
UCS
  5
7
330
0
100
AcDbSymbolTable
 70
     0
  0
ENDTAB
  0
TABLE
  2
APPID
  5
9
330
0
100
AcDbSymbolTable
 70
     1
  0
APPID
  5
12
330
9
100
AcDbSymbolTableRecord
100
AcDbRegAppTableRecord
  2
ACAD
 70
     0
  0
ENDTAB
  0
TABLE
  2
DIMSTYLE
  5
A
330
0
100
AcDbSymbolTable
 70
     1
100
AcDbDimStyleTable
  0
DIMSTYLE
105
27
330
A
100
AcDbSymbolTableRecord
100
AcDbDimStyleTableRecord
  2
Standard
 70
     0
178
     0
340
11
  0
ENDTAB
  0
TABLE
  2
BLOCK_RECORD
  5
1
330
0
100
AcDbSymbolTable
 70
     7
  0
BLOCK_RECORD
  5
1F
330
1
100
AcDbSymbolTableRecord
100
AcDbBlockTableRecord
  2
*Model_Space
340
22
 70
     0
280
     1
281
     0
  0
BLOCK_RECORD
  5
1B
330
1
100
AcDbSymbolTableRecord
100
AcDbBlockTableRecord
  2
*Paper_Space
340
1E
 70
     0
280
     1
281
     0
  0
BLOCK_RECORD
  5
23
330
1
100
AcDbSymbolTableRecord
100
AcDbBlockTableRecord
  2
*Paper_Space0
340
26
 70
     0
280
     1
281
     0
  0
BLOCK_RECORD
  5
73
330
1
100
AcDbSymbolTableRecord
100
AcDbBlockTableRecord
  2
block 2
340
0
102
{BLKREFS
331
74
102
}
 70
     0
280
     1
281
     0
  0
BLOCK_RECORD
  5
8F
330
1
100
AcDbSymbolTableRecord
100
AcDbBlockTableRecord
  2
block 3
340
0
102
{BLKREFS
331
90
102
}
 70
     0
280
     1
281
     0
  0
BLOCK_RECORD
  5
C3
330
1
100
AcDbSymbolTableRecord
100
AcDbBlockTableRecord
  2
block 4
340
0
102
{BLKREFS
331
C4
102
}
 70
     0
280
     1
281
     0
  0
BLOCK_RECORD
  5
F3
330
1
100
AcDbSymbolTableRecord
100
AcDbBlockTableRecord
  2
block 5
340
0
102
{BLKREFS
331
F4
102
}
 70
     0
280
     1
281
     0
  0
BLOCK_RECORD
  5
107
330
1
100
AcDbSymbolTableRecord
100
AcDbBlockTableRecord
  2
block 6
340
0
102
{BLKREFS
331
108
102
}
 70
     0
280
     1
281
     0
  0
BLOCK_RECORD
  5
131
330
1
100
AcDbSymbolTableRecord
100
AcDbBlockTableRecord
  2
block 7
340
0
102
{BLKREFS
331
132
102
}
 70
     0
280
     1
281
     0
  0
ENDTAB
  0
ENDSEC
  0
SECTION
  2
BLOCKS
  0
BLOCK
  5
20
330
1F
100
AcDbEntity
  8
0
100
AcDbBlockBegin
  2
*Model_Space
 70
     0
 10
0.0
 20
0.0
 30
0.0
  3
*Model_Space
  1

  0
ENDBLK
  5
21
330
1F
100
AcDbEntity
  8
0
100
AcDbBlockEnd
  0
BLOCK
  5
1C
330
1B
100
AcDbEntity
 67
     1
  8
0
100
AcDbBlockBegin
  2
*Paper_Space
 70
     0
 10
0.0
 20
0.0
 30
0.0
  3
*Paper_Space
  1

  0
ENDBLK
  5
1D
330
1B
100
AcDbEntity
 67
     1
  8
0
100
AcDbBlockEnd
  0
BLOCK
  5
24
330
23
100
AcDbEntity
  8
0
100
AcDbBlockBegin
  2
*Paper_Space0
 70
     0
 10
0.0
 20
0.0
 30
0.0
  3
*Paper_Space0
  1

  0
ENDBLK
  5
25
330
23
100
AcDbEntity
  8
0
100
AcDbBlockEnd
  0
BLOCK
  5
75
330
73
100
AcDbEntity
  8
0
100
AcDbBlockBegin
  2
block 2
 70
     0
 10
0.0
 20
0.0
 30
0.0
  3
block 2
  1

  0
SPLINE
  5
77
330
73
100
AcDbEntity
  8
_U+30EC_U+30A4_U+30E4_U+30FC 1
370
     0
100
AcDbSpline
210
0.0
220
0.0
230
1.0
 70
    11
 71
     3
 72
    62
 73
    58
 74
     0
 42
0.0000000001
 43
0.0000000001
 12
1.0
 22
0.0
 32
0.0
 13
1.0
 23
0.0
 33
0.0
 40
0.0
 40
0.0
 40
0.0
 40
0.0
 40
1.0
 40
1.0
 40
1.0
 40
2.0
 40
2.0
 40
2.0
 40
3.0
 40
3.0
 40
3.0
 40
4.0
 40
4.0
 40
4.0
 40
5.0
 40
5.0
 40
5.0
 40
6.0
 40
6.0
 40
6.0
 40
7.0
 40
7.0
 40
7.0
 40
8.0
 40
8.0
 40
8.0
 40
9.0
 40
9.0
 40
9.0
 40
10.0
 40
10.0
 40
10.0
 40
11.0
 40
11.0
 40
11.0
 40
12.0
 40
12.0
 40
12.0
 40
13.0
 40
13.0
 40
13.0
 40
14.0
 40
14.0
 40
14.0
 40
15.0
 40
15.0
 40
15.0
 40
16.0
 40
16.0
 40
16.0
 40
17.0
 40
17.0
 40
17.0
 40
18.0
 40
18.0
 40
18.0
 40
19.0
 40
19.0
 40
19.0
 40
19.0
 10
57.03200546534269
 20
-158.9336235496763
 30
0.0
 10
56.93674857517554
 20
-158.9336235496763
 30
0.0
 10
56.71884628573348
 20
-158.9126084672163
 30
0.0
 10
56.59413382916744
 20
-158.7265733110128
 30
0.0
 10
56.52006427623457
 20
-158.6142631981937
 30
0.0
 10
56.51575790687801
 20
-158.5150444482185
 30
0.0
 10
56.51162379229571
 20
-158.4302950992813
 30
0.0
 10
56.51162379229571
 20
-158.4302950992813
 30
0.0
 10
56.73159313902891
 20
-158.4302950992813
 30
0.0
 10
56.73159313902891
 20
-158.4302950992813
 30
0.0
 10
56.73366019632006
 20
-158.5043646522142
 30
0.0
 10
56.74433999232433
 20
-158.7389756547597
 30
0.0
 10
57.02769909598614
 20
-158.7389756547597
 30
0.0
 10
57.16533066062186
 20
-158.7389756547597
 30
0.0
 10
57.31760388106991
 20
-158.6693847259577
 30
0.0
 10
57.31760388106991
 20
-158.4409748952856
 30
0.0
 10
57.31760388106991
 20
-158.3245306678841
 30
0.0
 10
57.27953557595789
 20
-158.2759548215421
 30
0.0
 10
57.2478406974936
 20
-158.2442599430778
 30
0.0
 10
57.17377114456072
 20
-158.170190390145
 30
0.0
 10
57.05732691715928
 20
-158.1574435368495
 30
0.0
 10
57.00237764416955
 20
-158.1574435368495
 30
0.0
 10
56.98342961900067
 20
-158.1574435368495
 30
0.0
 10
56.94742837117981
 20
-158.1595105941407
 30
0.0
 10
56.91986760729781
 20
-158.163644708723
 30
0.0
 10
56.91986760729781
 20
-158.163644708723
 30
0.0
 10
56.91986760729781
 20
-157.9689968138064
 30
0.0
 10
56.91986760729781
 20
-157.9689968138064
 30
0.0
 10
56.95793591240982
 20
-157.9755424952284
 30
0.0
 10
57.0003105868784
 20
-157.9776095525195
 30
0.0
 10
57.00668401352611
 20
-157.9776095525195
 30
0.0
 10
57.07214082774586
 20
-157.9776095525195
 30
0.0
 10
57.27109509201903
 20
-157.9562499605109
 30
0.0
 10
57.27109509201903
 20
-157.7195719006743
 30
0.0
 10
57.27109509201903
 20
-157.5418049736354
 30
0.0
 10
57.13983695403102
 20
-157.4866834458714
 30
0.0
 10
57.02993840805154
 20
-157.4866834458714
 30
0.0
 10
56.76552732955862
 20
-157.4866834458714
 30
0.0
 10
56.7569145908455
 20
-157.7195719006743
 30
0.0
 10
56.7527804762632
 20
-157.7912298867675
 30
0.0
 10
56.7527804762632
 20
-157.7912298867675
 30
0.0
 10
56.54969209740772
 20
-157.7912298867675
 30
0.0
 10
56.54969209740772
 20
-157.7912298867675
 30
0.0
 10
56.55813258134658
 20
-157.6665174302014
 30
0.0
 10
56.58569334522858
 20
-157.2899684936636
 30
0.0
 10
57.0425130065727
 20
-157.2899684936636
 30
0.0
 10
57.26678872266247
 20
-157.2899684936636
 30
0.0
 10
57.50794540662996
 20
-157.4170925170693
 30
0.0
 10
57.50794540662996
 20
-157.7130262192523
 30
0.0
 10
57.50794540662996
 20
-157.8994058850043
 30
0.0
 10
57.41286077123706
 20
-157.9817436671018
 30
0.0
 10
57.31329751171334
 20
-158.0430663667393
 30
0.0
 10
57.37479246612506
 20
-158.0706271306212
 30
0.0
 10
57.55669350774625
 20
-158.1508978554276
 30
0.0
 10
57.55669350774625
 20
-158.4282280419902
 30
0.0
 10
57.55669350774625
 20
-158.7665364186417
 30
0.0
 10
57.30916339713104
 20
-158.9336235496763
 30
0.0
 10
57.03200546534269
 20
-158.9336235496763
 30
0.0
  0
HATCH
  5
78
330
73
100
AcDbEntity
  8
_U+30EC_U+30A4_U+30E4_U+30FC 1
 62
   179
420
  2234388
100
AcDbHatch
 10
0.0
 20
0.0
 30
0.0
210
0.0
220
0.0
230
1.0
  2
SOLID
 70
     1
 71
     0
 91
        1
 92
        1
 93
        1
 72
     4
 94
        3
 73
     0
 74
     1
 95
       62
 96
       58
 40
0.0
 40
0.0
 40
0.0
 40
0.0
 40
1.0
 40
1.0
 40
1.0
 40
2.0
 40
2.0
 40
2.0
 40
3.0
 40
3.0
 40
3.0
 40
4.0
 40
4.0
 40
4.0
 40
5.0
 40
5.0
 40
5.0
 40
6.0
 40
6.0
 40
6.0
 40
7.0
 40
7.0
 40
7.0
 40
8.0
 40
8.0
 40
8.0
 40
9.0
 40
9.0
 40
9.0
 40
10.0
 40
10.0
 40
10.0
 40
11.0
 40
11.0
 40
11.0
 40
12.0
 40
12.0
 40
12.0
 40
13.0
 40
13.0
 40
13.0
 40
14.0
 40
14.0
 40
14.0
 40
15.0
 40
15.0
 40
15.0
 40
16.0
 40
16.0
 40
16.0
 40
17.0
 40
17.0
 40
17.0
 40
18.0
 40
18.0
 40
18.0
 40
19.0
 40
19.0
 40
19.0
 40
19.0
 10
57.03200546534269
 20
-158.9336235496763
 10
56.93674857517554
 20
-158.9336235496763
 10
56.71884628573348
 20
-158.9126084672163
 10
56.59413382916744
 20
-158.7265733110128
 10
56.52006427623457
 20
-158.6142631981937
 10
56.51575790687801
 20
-158.5150444482185
 10
56.51162379229571
 20
-158.4302950992813
 10
56.51162379229571
 20
-158.4302950992813
 10
56.73159313902891
 20
-158.4302950992813
 10
56.73159313902891
 20
-158.4302950992813
 10
56.73366019632006
 20
-158.5043646522142
 10
56.74433999232433
 20
-158.7389756547597
 10
57.02769909598614
 20
-158.7389756547597
 10
57.16533066062186
 20
-158.7389756547597
 10
57.31760388106991
 20
-158.6693847259577
 10
57.31760388106991
 20
-158.4409748952856
 10
57.31760388106991
 20
-158.3245306678841
 10
57.27953557595789
 20
-158.2759548215421
 10
57.2478406974936
 20
-158.2442599430778
 10
57.17377114456072
 20
-158.170190390145
 10
57.05732691715928
 20
-158.1574435368495
 10
57.00237764416955
 20
-158.1574435368495
 10
56.98342961900067
 20
-158.1574435368495
 10
56.94742837117981
 20
-158.1595105941407
 10
56.91986760729781
 20
-158.163644708723
 10
56.91986760729781
 20
-158.163644708723
 10
56.91986760729781
 20
-157.9689968138064
 10
56.91986760729781
 20
-157.9689968138064
 10
56.95793591240982
 20
-157.9755424952284
 10
57.0003105868784
 20
-157.9776095525195
 10
57.00668401352611
 20
-157.9776095525195
 10
57.07214082774586
 20
-157.9776095525195
 10
57.27109509201903
 20
-157.9562499605109
 10
57.27109509201903
 20
-157.7195719006743
 10
57.27109509201903
 20
-157.5418049736354
 10
57.13983695403102
 20
-157.4866834458714
 10
57.02993840805154
 20
-157.4866834458714
 10
56.76552732955862
 20
-157.4866834458714
 10
56.7569145908455
 20
-157.7195719006743
 10
56.7527804762632
 20
-157.7912298867675
 10
56.7527804762632
 20
-157.7912298867675
 10
56.54969209740772
 20
-157.7912298867675
 10
56.54969209740772
 20
-157.7912298867675
 10
56.55813258134658
 20
-157.6665174302014
 10
56.58569334522858
 20
-157.2899684936636
 10
57.0425130065727
 20
-157.2899684936636
 10
57.26678872266247
 20
-157.2899684936636
 10
57.50794540662996
 20
-157.4170925170693
 10
57.50794540662996
 20
-157.7130262192523
 10
57.50794540662996
 20
-157.8994058850043
 10
57.41286077123706
 20
-157.9817436671018
 10
57.31329751171334
 20
-158.0430663667393
 10
57.37479246612506
 20
-158.0706271306212
 10
57.55669350774625
 20
-158.1508978554276
 10
57.55669350774625
 20
-158.4282280419902
 10
57.55669350774625
 20
-158.7665364186417
 10
57.30916339713104
 20
-158.9336235496763
 10
57.03200546534269
 20
-158.9336235496763
 97
        0
 97
        0
 75
     2
 76
     1
 98
        0
  0
SPLINE
  5
79
330
73
100
AcDbEntity
  8
_U+30EC_U+30A4_U+30E4_U+30FC 1
370
     0
100
AcDbSpline
210
0.0
220
0.0
230
1.0
 70
    11
 71
     3
 72
    29
 73
    25
 74
     0
 42
0.0000000001
 43
0.0000000001
 12
1.0
 22
0.0
 32
0.0
 13
1.0
 23
0.0
 33
0.0
 40
0.0
 40
0.0
 40
0.0
 40
0.0
 40
1.0
 40
1.0
 40
1.0
 40
2.0
 40
2.0
 40
2.0
 40
3.0
 40
3.0
 40
3.0
 40
4.0
 40
4.0
 40
4.0
 40
5.0
 40
5.0
 40
5.0
 40
6.0
 40
6.0
 40
6.0
 40
7.0
 40
7.0
 40
7.0
 40
8.0
 40
8.0
 40
8.0
 40
8.0
 10
58.615026840815
 20
-158.7052137190043
 30
0.0
 10
58.50719535212668
 20
-158.9146755245075
 30
0.0
 10
58.33373479444435
 20
-158.9336235496763
 30
0.0
 10
58.2172905670429
 20
-158.9336235496763
 30
0.0
 10
58.05657686265599
 20
-158.9336235496763
 30
0.0
 10
57.91481118343797
 20
-158.8871147606255
 30
0.0
 10
57.81955429327081
 20
-158.7052137190043
 30
0.0
 10
57.71602917393905
 20
-158.5105658240876
 30
0.0
 10
57.69690889399592
 20
-158.273887764251
 30
0.0
 10
57.69690889399592
 20
-158.1109347477987
 30
0.0
 10
57.69690889399592
 20
-157.9669297565152
 30
0.0
 10
57.71378986187364
 20
-157.7150932765435
 30
0.0
 10
57.81955429327081
 20
-157.5163112670445
 30
0.0
 10
57.92755803673339
 20
-157.3133951429633
 30
0.0
 10
58.08827174112029
 20
-157.2899684936636
 30
0.0
 10
58.2172905670429
 20
-157.2899684936636
 30
0.0
 10
58.37593721413866
 20
-157.2899684936636
 30
0.0
 10
58.51976995064784
 20
-157.3344102254233
 30
0.0
 10
58.615026840815
 20
-157.5163112670445
 30
0.0
 10
58.71441784556445
 20
-157.70889210467
 30
0.0
 10
58.73767224008989
 20
-157.9373019353421
 30
0.0
 10
58.73767224008989
 20
-158.1109347477987
 30
0.0
 10
58.73767224008989
 20
-158.2821559934156
 30
0.0
 10
58.71665715762987
 20
-158.5126328813788
 30
0.0
 10
58.615026840815
 20
-158.7052137190043
 30
0.0
  0
SPLINE
  5
7A
330
73
100
AcDbEntity
  8
_U+30EC_U+30A4_U+30E4_U+30FC 1
370
     0
100
AcDbSpline
210
0.0
220
0.0
230
1.0
 70
    11
 71
     3
 72
    17
 73
    13
 74
     0
 42
0.0000000001
 43
0.0000000001
 12
1.0
 22
0.0
 32
0.0
 13
1.0
 23
0.0
 33
0.0
 40
0.0
 40
0.0
 40
0.0
 40
0.0
 40
1.0
 40
1.0
 40
1.0
 40
2.0
 40
2.0
 40
2.0
 40
3.0
 40
3.0
 40
3.0
 40
4.0
 40
4.0
 40
4.0
 40
4.0
 10
58.2172905670429
 20
-157.4825493312891
 30
0.0
 10
57.96769339913655
 20
-157.4825493312891
 30
0.0
 10
57.92118461008568
 20
-157.7660806897252
 30
0.0
 10
57.92118461008568
 20
-158.1109347477987
 30
0.0
 10
57.92118461008568
 20
-158.4302950992813
 30
0.0
 10
57.95718585790654
 20
-158.7389756547597
 30
0.0
 10
58.2172905670429
 20
-158.7389756547597
 30
0.0
 10
58.4648206776581
 20
-158.7389756547597
 30
0.0
 10
58.51356877877438
 20
-158.4578558631633
 30
0.0
 10
58.51356877877438
 20
-158.1109347477987
 30
0.0
 10
58.51356877877438
 20
-157.7912298867675
 30
0.0
 10
58.47532821888812
 20
-157.4825493312891
 30
0.0
 10
58.2172905670429
 20
-157.4825493312891
 30
0.0
  0
HATCH
  5
7B
330
73
100
AcDbEntity
  8
_U+30EC_U+30A4_U+30E4_U+30FC 1
 62
   179
420
  2234388
100
AcDbHatch
 10
0.0
 20
0.0
 30
0.0
210
0.0
220
0.0
230
1.0
  2
SOLID
 70
     1
 71
     0
 91
        2
 92
        1
 93
        1
 72
     4
 94
        3
 73
     0
 74
     1
 95
       29
 96
       25
 40
0.0
 40
0.0
 40
0.0
 40
0.0
 40
1.0
 40
1.0
 40
1.0
 40
2.0
 40
2.0
 40
2.0
 40
3.0
 40
3.0
 40
3.0
 40
4.0
 40
4.0
 40
4.0
 40
5.0
 40
5.0
 40
5.0
 40
6.0
 40
6.0
 40
6.0
 40
7.0
 40
7.0
 40
7.0
 40
8.0
 40
8.0
 40
8.0
 40
8.0
 10
58.615026840815
 20
-158.7052137190043
 10
58.50719535212668
 20
-158.9146755245075
 10
58.33373479444435
 20
-158.9336235496763
 10
58.2172905670429
 20
-158.9336235496763
 10
58.05657686265599
 20
-158.9336235496763
 10
57.91481118343797
 20
-158.8871147606255
 10
57.81955429327081
 20
-158.7052137190043
 10
57.71602917393905
 20
-158.5105658240876
 10
57.69690889399592
 20
-158.273887764251
 10
57.69690889399592
 20
-158.1109347477987
 10
57.69690889399592
 20
-157.9669297565152
 10
57.71378986187364
 20
-157.7150932765435
 10
57.81955429327081
 20
-157.5163112670445
 10
57.92755803673339
 20
-157.3133951429633
 10
58.08827174112029
 20
-157.2899684936636
 10
58.2172905670429
 20
-157.2899684936636
 10
58.37593721413866
 20
-157.2899684936636
 10
58.51976995064784
 20
-157.3344102254233
 10
58.615026840815
 20
-157.5163112670445
 10
58.71441784556445
 20
-157.70889210467
 10
58.73767224008989
 20
-157.9373019353421
 10
58.73767224008989
 20
-158.1109347477987
 10
58.73767224008989
 20
-158.2821559934156
 10
58.71665715762987
 20
-158.5126328813788
 10
58.615026840815
 20
-158.7052137190043
 97
        0
 97
        0
 92
        1
 93
        1
 72
     4
 94
        3
 73
     0
 74
     1
 95
       17
 96
       13
 40
0.0
 40
0.0
 40
0.0
 40
0.0
 40
1.0
 40
1.0
 40
1.0
 40
2.0
 40
2.0
 40
2.0
 40
3.0
 40
3.0
 40
3.0
 40
4.0
 40
4.0
 40
4.0
 40
4.0
 10
58.2172905670429
 20
-157.4825493312891
 10
57.96769339913655
 20
-157.4825493312891
 10
57.92118461008568
 20
-157.7660806897252
 10
57.92118461008568
 20
-158.1109347477987
 10
57.92118461008568
 20
-158.4302950992813
 10
57.95718585790654
 20
-158.7389756547597
 10
58.2172905670429
 20
-158.7389756547597
 10
58.4648206776581
 20
-158.7389756547597
 10
58.51356877877438
 20
-158.4578558631633
 10
58.51356877877438
 20
-158.1109347477987
 10
58.51356877877438
 20
-157.7912298867675
 10
58.47532821888812
 20
-157.4825493312891
 10
58.2172905670429
 20
-157.4825493312891
 97
        0
 97
        0
 75
     2
 76
     1
 98
        0
  0
SPLINE
  5
7C
330
73
100
AcDbEntity
  8
_U+30EC_U+30A4_U+30E4_U+30FC 1
370
     0
100
AcDbSpline
210
0.0
220
0.0
230
1.0
 70
    11
 71
     3
 72
    44
 73
    40
 74
     0
 42
0.0000000001
 43
0.0000000001
 12
1.0
 22
0.0
 32
0.0
 13
1.0
 23
0.0
 33
0.0
 40
0.0
 40
0.0
 40
0.0
 40
0.0
 40
1.0
 40
1.0
 40
1.0
 40
2.0
 40
2.0
 40
2.0
 40
3.0
 40
3.0
 40
3.0
 40
4.0
 40
4.0
 40
4.0
 40
5.0
 40
5.0
 40
5.0
 40
6.0
 40
6.0
 40
6.0
 40
7.0
 40
7.0
 40
7.0
 40
8.0
 40
8.0
 40
8.0
 40
9.0
 40
9.0
 40
9.0
 40
10.0
 40
10.0
 40
10.0
 40
11.0
 40
11.0
 40
11.0
 40
12.0
 40
12.0
 40
12.0
 40
13.0
 40
13.0
 40
13.0
 40
13.0
 10
59.90831568597778
 20
-158.8829806460431
 30
0.0
 10
59.88488903667809
 20
-158.8385389142834
 30
0.0
 10
59.86387395421806
 20
-158.7858289533591
 30
0.0
 10
59.86163464215265
 20
-158.5550075558474
 30
0.0
 10
59.85750052757035
 20
-158.3117838145887
 30
0.0
 10
59.79824488522405
 20
-158.2418483762382
 30
0.0
 10
59.62047795818516
 20
-158.2418483762382
 30
0.0
 10
59.62047795818516
 20
-158.2418483762382
 30
0.0
 10
59.21223414318305
 20
-158.2418483762382
 30
0.0
 10
59.21223414318305
 20
-158.2418483762382
 30
0.0
 10
59.21223414318305
 20
-158.2418483762382
 30
0.0
 10
59.21223414318305
 20
-158.8829806460431
 30
0.0
 10
59.21223414318305
 20
-158.8829806460431
 30
0.0
 10
59.21223414318305
 20
-158.8829806460431
 30
0.0
 10
58.97745088586328
 20
-158.8829806460431
 30
0.0
 10
58.97745088586328
 20
-158.8829806460431
 30
0.0
 10
58.97745088586328
 20
-158.8829806460431
 30
0.0
 10
58.97745088586328
 20
-157.3385443400057
 30
0.0
 10
58.97745088586328
 20
-157.3385443400057
 30
0.0
 10
58.97745088586328
 20
-157.3385443400057
 30
0.0
 10
59.65217283664946
 20
-157.3385443400057
 30
0.0
 10
59.65217283664946
 20
-157.3385443400057
 30
0.0
 10
59.95895858961096
 20
-157.3385443400057
 30
0.0
 10
60.12621797541983
 20
-157.5101100951711
 30
0.0
 10
60.12621797541983
 20
-157.7660806897252
 30
0.0
 10
60.12621797541983
 20
-157.8167235933583
 30
0.0
 10
60.11760523670672
 20
-157.8994058850043
 30
0.0
 10
60.07316350494699
 20
-157.9796766098106
 30
0.0
 10
60.01408011737495
 20
-158.0833739839167
 30
0.0
 10
59.94845104838095
 20
-158.1023220090855
 30
0.0
 10
59.8871283487435
 20
-158.1192029769633
 30
0.0
 10
60.02458765860496
 20
-158.1615776514318
 30
0.0
 10
60.09228378489013
 20
-158.2101534977739
 30
0.0
 10
60.09659015424669
 20
-158.5253797346742
 30
0.0
 10
60.10072426882899
 20
-158.7961642398149
 30
0.0
 10
60.13672551664985
 20
-158.8278591182792
 30
0.0
 10
60.20442164293501
 20
-158.8829806460431
 30
0.0
 10
60.20442164293501
 20
-158.8829806460431
 30
0.0
 10
59.90831568597778
 20
-158.8829806460431
 30
0.0
 10
59.90831568597778
 20
-158.8829806460431
 30
0.0
  0
SPLINE
  5
7D
330
73
100
AcDbEntity
  8
_U+30EC_U+30A4_U+30E4_U+30FC 1
370
     0
100
AcDbSpline
210
0.0
220
0.0
230
1.0
 70
    11
 71
     3
 72
    20
 73
    16
 74
     0
 42
0.0000000001
 43
0.0000000001
 12
1.0
 22
0.0
 32
0.0
 13
1.0
 23
0.0
 33
0.0
 40
0.0
 40
0.0
 40
0.0
 40
0.0
 40
1.0
 40
1.0
 40
1.0
 40
2.0
 40
2.0
 40
2.0
 40
3.0
 40
3.0
 40
3.0
 40
4.0
 40
4.0
 40
4.0
 40
5.0
 40
5.0
 40
5.0
 40
5.0
 10
59.65647920600602
 20
-157.5500732028
 30
0.0
 10
59.65647920600602
 20
-157.5500732028
 30
0.0
 10
59.21223414318305
 20
-157.5500732028
 30
0.0
 10
59.21223414318305
 20
-157.5500732028
 30
0.0
 10
59.21223414318305
 20
-157.5500732028
 30
0.0
 10
59.21223414318305
 20
-158.0303195134438
 30
0.0
 10
59.21223414318305
 20
-158.0303195134438
 30
0.0
 10
59.21223414318305
 20
-158.0303195134438
 30
0.0
 10
59.65441214871487
 20
-158.0303195134438
 30
0.0
 10
59.65441214871487
 20
-158.0303195134438
 30
0.0
 10
59.75380315346433
 20
-158.0303195134438
 30
0.0
 10
59.88919540603464
 20
-157.9541829032198
 30
0.0
 10
59.88919540603464
 20
-157.7829616576029
 30
0.0
 10
59.88919540603464
 20
-157.7047579900877
 30
0.0
 10
59.8554334702792
 20
-157.5500732028
 30
0.0
 10
59.65647920600602
 20
-157.5500732028
 30
0.0
  0
HATCH
  5
7E
330
73
100
AcDbEntity
  8
_U+30EC_U+30A4_U+30E4_U+30FC 1
 62
   179
420
  2234388
100
AcDbHatch
 10
0.0
 20
0.0
 30
0.0
210
0.0
220
0.0
230
1.0
  2
SOLID
 70
     1
 71
     0
 91
        2
 92
        1
 93
        1
 72
     4
 94
        3
 73
     0
 74
     1
 95
       44
 96
       40
 40
0.0
 40
0.0
 40
0.0
 40
0.0
 40
1.0
 40
1.0
 40
1.0
 40
2.0
 40
2.0
 40
2.0
 40
3.0
 40
3.0
 40
3.0
 40
4.0
 40
4.0
 40
4.0
 40
5.0
 40
5.0
 40
5.0
 40
6.0
 40
6.0
 40
6.0
 40
7.0
 40
7.0
 40
7.0
 40
8.0
 40
8.0
 40
8.0
 40
9.0
 40
9.0
 40
9.0
 40
10.0
 40
10.0
 40
10.0
 40
11.0
 40
11.0
 40
11.0
 40
12.0
 40
12.0
 40
12.0
 40
13.0
 40
13.0
 40
13.0
 40
13.0
 10
59.90831568597778
 20
-158.8829806460431
 10
59.88488903667809
 20
-158.8385389142834
 10
59.86387395421806
 20
-158.7858289533591
 10
59.86163464215265
 20
-158.5550075558474
 10
59.85750052757035
 20
-158.3117838145887
 10
59.79824488522405
 20
-158.2418483762382
 10
59.62047795818516
 20
-158.2418483762382
 10
59.62047795818516
 20
-158.2418483762382
 10
59.21223414318305
 20
-158.2418483762382
 10
59.21223414318305
 20
-158.2418483762382
 10
59.21223414318305
 20
-158.2418483762382
 10
59.21223414318305
 20
-158.8829806460431
 10
59.21223414318305
 20
-158.8829806460431
 10
59.21223414318305
 20
-158.8829806460431
 10
58.97745088586328
 20
-158.8829806460431
 10
58.97745088586328
 20
-158.8829806460431
 10
58.97745088586328
 20
-158.8829806460431
 10
58.97745088586328
 20
-157.3385443400057
 10
58.97745088586328
 20
-157.3385443400057
 10
58.97745088586328
 20
-157.3385443400057
 10
59.65217283664946
 20
-157.3385443400057
 10
59.65217283664946
 20
-157.3385443400057
 10
59.95895858961096
 20
-157.3385443400057
 10
60.12621797541983
 20
-157.5101100951711
 10
60.12621797541983
 20
-157.7660806897252
 10
60.12621797541983
 20
-157.8167235933583
 10
60.11760523670672
 20
-157.8994058850043
 10
60.07316350494699
 20
-157.9796766098106
 10
60.01408011737495
 20
-158.0833739839167
 10
59.94845104838095
 20
-158.1023220090855
 10
59.8871283487435
 20
-158.1192029769633
 10
60.02458765860496
 20
-158.1615776514318
 10
60.09228378489013
 20
-158.2101534977739
 10
60.09659015424669
 20
-158.5253797346742
 10
60.10072426882899
 20
-158.7961642398149
 10
60.13672551664985
 20
-158.8278591182792
 10
60.20442164293501
 20
-158.8829806460431
 10
60.20442164293501
 20
-158.8829806460431
 10
59.90831568597778
 20
-158.8829806460431
 10
59.90831568597778
 20
-158.8829806460431
 97
        0
 97
        0
 92
        1
 93
        1
 72
     4
 94
        3
 73
     0
 74
     1
 95
       20
 96
       16
 40
0.0
 40
0.0
 40
0.0
 40
0.0
 40
1.0
 40
1.0
 40
1.0
 40
2.0
 40
2.0
 40
2.0
 40
3.0
 40
3.0
 40
3.0
 40
4.0
 40
4.0
 40
4.0
 40
5.0
 40
5.0
 40
5.0
 40
5.0
 10
59.65647920600602
 20
-157.5500732028
 10
59.65647920600602
 20
-157.5500732028
 10
59.21223414318305
 20
-157.5500732028
 10
59.21223414318305
 20
-157.5500732028
 10
59.21223414318305
 20
-157.5500732028
 10
59.21223414318305
 20
-158.0303195134438
 10
59.21223414318305
 20
-158.0303195134438
 10
59.21223414318305
 20
-158.0303195134438
 10
59.65441214871487
 20
-158.0303195134438
 10
59.65441214871487
 20
-158.0303195134438
 10
59.75380315346433
 20
-158.0303195134438
 10
59.88919540603464
 20
-157.9541829032198
 10
59.88919540603464
 20
-157.7829616576029
 10
59.88919540603464
 20
-157.7047579900877
 10
59.8554334702792
 20
-157.5500732028
 10
59.65647920600602
 20
-157.5500732028
 97
        0
 97
        0
 75
     2
 76
     1
 98
        0
  0
ENDBLK
  5
76
330
73
100
AcDbEntity
  8
0
100
AcDbBlockEnd
  0
BLOCK
  5
91
330
8F
100
AcDbEntity
  8
0
100
AcDbBlockBegin
  2
block 3
 70
     0
 10
0.0
 20
0.0
 30
0.0
  3
block 3
  1

  0
SPLINE
  5
93
330
8F
100
AcDbEntity
  8
_U+30EC_U+30A4_U+30E4_U+30FC 1
370
     0
100
AcDbSpline
210
0.0
220
0.0
230
1.0
 70
    11
 71
     3
 72
    29
 73
    25
 74
     0
 42
0.0000000001
 43
0.0000000001
 12
1.0
 22
0.0
 32
0.0
 13
1.0
 23
0.0
 33
0.0
 40
0.0
 40
0.0
 40
0.0
 40
0.0
 40
1.0
 40
1.0
 40
1.0
 40
2.0
 40
2.0
 40
2.0
 40
3.0
 40
3.0
 40
3.0
 40
4.0
 40
4.0
 40
4.0
 40
5.0
 40
5.0
 40
5.0
 40
6.0
 40
6.0
 40
6.0
 40
7.0
 40
7.0
 40
7.0
 40
8.0
 40
8.0
 40
8.0
 40
8.0
 10
123.8797769872592
 20
-150.4025335995522
 30
0.0
 10
124.0892387927624
 20
-150.510709597789
 30
0.0
 10
124.1081868179313
 20
-150.6839979006971
 30
0.0
 10
124.1081868179313
 20
-150.8004421280985
 30
0.0
 10
124.1081868179313
 20
-150.9613280872597
 30
0.0
 10
124.0620225384289
 20
-151.1029215117034
 30
0.0
 10
123.8797769872592
 20
-151.1980061470964
 30
0.0
 10
123.6851290923426
 20
-151.3017035212024
 30
0.0
 10
123.4481065229574
 20
-151.3209960559197
 30
0.0
 10
123.2854980160536
 20
-151.3209960559197
 30
0.0
 10
123.1414930247702
 20
-151.3209960559197
 30
0.0
 10
122.890001054347
 20
-151.3037705784935
 30
0.0
 10
122.6908745352995
 20
-151.1980061470964
 30
0.0
 10
122.4876139016698
 20
-151.090174658408
 30
0.0
 10
122.4645317619186
 20
-150.9292886992469
 30
0.0
 10
122.4645317619186
 20
-150.8004421280985
 30
0.0
 10
122.4645317619186
 20
-150.6416232262285
 30
0.0
 10
122.5089734936783
 20
-150.4979627444936
 30
0.0
 10
122.6908745352995
 20
-150.4025335995522
 30
0.0
 10
122.883455372925
 20
-150.303314849577
 30
0.0
 10
123.111865203597
 20
-150.2798882002773
 30
0.0
 10
123.2854980160536
 20
-150.2798882002773
 30
0.0
 10
123.4567192616705
 20
-150.2798882002773
 30
0.0
 10
123.6871961496338
 20
-150.3012477922858
 30
0.0
 10
123.8797769872592
 20
-150.4025335995522
 30
0.0
  0
SPLINE
  5
94
330
8F
100
AcDbEntity
  8
_U+30EC_U+30A4_U+30E4_U+30FC 1
370
     0
100
AcDbSpline
210
0.0
220
0.0
230
1.0
 70
    11
 71
     3
 72
    17
 73
    13
 74
     0
 42
0.0000000001
 43
0.0000000001
 12
1.0
 22
0.0
 32
0.0
 13
1.0
 23
0.0
 33
0.0
 40
0.0
 40
0.0
 40
0.0
 40
0.0
 40
1.0
 40
1.0
 40
1.0
 40
2.0
 40
2.0
 40
2.0
 40
3.0
 40
3.0
 40
3.0
 40
4.0
 40
4.0
 40
4.0
 40
4.0
 10
122.6571125995441
 20
-150.8004421280985
 30
0.0
 10
122.6571125995441
 20
-151.0502115507791
 30
0.0
 10
122.9406439579801
 20
-151.09672033983
 30
0.0
 10
123.2854980160536
 20
-151.09672033983
 30
0.0
 10
123.6048583675363
 20
-151.09672033983
 30
0.0
 10
123.9138834325632
 20
-151.0605468372349
 30
0.0
 10
123.9138834325632
 20
-150.8004421280985
 30
0.0
 10
123.9138834325632
 20
-150.5527397627091
 30
0.0
 10
123.6320746218698
 20
-150.504163916367
 30
0.0
 10
123.2854980160536
 20
-150.504163916367
 30
0.0
 10
122.9657931550225
 20
-150.504163916367
 30
0.0
 10
122.6571125995441
 20
-150.5424044762533
 30
0.0
 10
122.6571125995441
 20
-150.8004421280985
 30
0.0
  0
HATCH
  5
95
330
8F
100
AcDbEntity
  8
_U+30EC_U+30A4_U+30E4_U+30FC 1
 62
   179
420
  2234388
100
AcDbHatch
 10
0.0
 20
0.0
 30
0.0
210
0.0
220
0.0
230
1.0
  2
SOLID
 70
     1
 71
     0
 91
        2
 92
        1
 93
        1
 72
     4
 94
        3
 73
     0
 74
     1
 95
       29
 96
       25
 40
0.0
 40
0.0
 40
0.0
 40
0.0
 40
1.0
 40
1.0
 40
1.0
 40
2.0
 40
2.0
 40
2.0
 40
3.0
 40
3.0
 40
3.0
 40
4.0
 40
4.0
 40
4.0
 40
5.0
 40
5.0
 40
5.0
 40
6.0
 40
6.0
 40
6.0
 40
7.0
 40
7.0
 40
7.0
 40
8.0
 40
8.0
 40
8.0
 40
8.0
 10
123.8797769872592
 20
-150.4025335995522
 10
124.0892387927624
 20
-150.510709597789
 10
124.1081868179313
 20
-150.6839979006971
 10
124.1081868179313
 20
-150.8004421280985
 10
124.1081868179313
 20
-150.9613280872597
 10
124.0620225384289
 20
-151.1029215117034
 10
123.8797769872592
 20
-151.1980061470964
 10
123.6851290923426
 20
-151.3017035212024
 10
123.4481065229574
 20
-151.3209960559197
 10
123.2854980160536
 20
-151.3209960559197
 10
123.1414930247702
 20
-151.3209960559197
 10
122.890001054347
 20
-151.3037705784935
 10
122.6908745352995
 20
-151.1980061470964
 10
122.4876139016698
 20
-151.090174658408
 10
122.4645317619186
 20
-150.9292886992469
 10
122.4645317619186
 20
-150.8004421280985
 10
122.4645317619186
 20
-150.6416232262285
 10
122.5089734936783
 20
-150.4979627444936
 10
122.6908745352995
 20
-150.4025335995522
 10
122.883455372925
 20
-150.303314849577
 10
123.111865203597
 20
-150.2798882002773
 10
123.2854980160536
 20
-150.2798882002773
 10
123.4567192616705
 20
-150.2798882002773
 10
123.6871961496338
 20
-150.3012477922858
 10
123.8797769872592
 20
-150.4025335995522
 97
        0
 97
        0
 92
        1
 93
        1
 72
     4
 94
        3
 73
     0
 74
     1
 95
       17
 96
       13
 40
0.0
 40
0.0
 40
0.0
 40
0.0
 40
1.0
 40
1.0
 40
1.0
 40
2.0
 40
2.0
 40
2.0
 40
3.0
 40
3.0
 40
3.0
 40
4.0
 40
4.0
 40
4.0
 40
4.0
 10
122.6571125995441
 20
-150.8004421280985
 10
122.6571125995441
 20
-151.0502115507791
 10
122.9406439579801
 20
-151.09672033983
 10
123.2854980160536
 20
-151.09672033983
 10
123.6048583675363
 20
-151.09672033983
 10
123.9138834325632
 20
-151.0605468372349
 10
123.9138834325632
 20
-150.8004421280985
 10
123.9138834325632
 20
-150.5527397627091
 10
123.6320746218698
 20
-150.504163916367
 10
123.2854980160536
 20
-150.504163916367
 10
122.9657931550225
 20
-150.504163916367
 10
122.6571125995441
 20
-150.5424044762533
 10
122.6571125995441
 20
-150.8004421280985
 97
        0
 97
        0
 75
     2
 76
     1
 98
        0
  0
POLYLINE
  5
96
330
8F
100
AcDbEntity
  8
_U+30EC_U+30A4_U+30E4_U+30FC 1
370
     0
100
AcDb2dPolyline
 66
     1
 10
0.0
 20
0.0
 30
0.0
  0
VERTEX
  5
97
330
96
100
AcDbEntity
  8
_U+30EC_U+30A4_U+30E4_U+30FC 1
370
     0
100
AcDbVertex
100
AcDb2dVertex
 10
124.0575439142981
 20
-150.0635362038036
 30
0.0
  0
VERTEX
  5
98
330
96
100
AcDbEntity
  8
_U+30EC_U+30A4_U+30E4_U+30FC 1
370
     0
100
AcDbVertex
100
AcDb2dVertex
 10
123.8057074343264
 20
-150.0635362038036
 30
0.0
  0
VERTEX
  5
99
330
96
100
AcDbEntity
  8
_U+30EC_U+30A4_U+30E4_U+30FC 1
370
     0
100
AcDbVertex
100
AcDb2dVertex
 10
123.8057074343264
 20
-149.8116997238318
 30
0.0
  0
VERTEX
  5
9A
330
96
100
AcDbEntity
  8
_U+30EC_U+30A4_U+30E4_U+30FC 1
370
     0
100
AcDbVertex
100
AcDb2dVertex
 10
124.0575439142981
 20
-149.8116997238318
 30
0.0
  0
VERTEX
  5
9B
330
96
100
AcDbEntity
  8
_U+30EC_U+30A4_U+30E4_U+30FC 1
370
     0
100
AcDbVertex
100
AcDb2dVertex
 10
124.0575439142981
 20
-150.0635362038036
 30
0.0
  0
SEQEND
  5
9C
330
96
100
AcDbEntity
  8
_U+30EC_U+30A4_U+30E4_U+30FC 1
370
     0
  0
HATCH
  5
9D
330
8F
100
AcDbEntity
  8
_U+30EC_U+30A4_U+30E4_U+30FC 1
 62
   179
420
  2234388
100
AcDbHatch
 10
0.0
 20
0.0
 30
0.0
210
0.0
220
0.0
230
1.0
  2
SOLID
 70
     1
 71
     0
 91
        1
 92
        1
 93
        4
 72
     1
 10
124.0575439142981
 20
-150.0635362038036
 11
123.8057074343264
 21
-150.0635362038036
 72
     1
 10
123.8057074343264
 20
-150.0635362038036
 11
123.8057074343264
 21
-149.8116997238318
 72
     1
 10
123.8057074343264
 20
-149.8116997238318
 11
124.0575439142981
 21
-149.8116997238318
 72
     1
 10
124.0575439142981
 20
-149.8116997238318
 11
124.0575439142981
 21
-150.0635362038036
 97
        0
 75
     2
 76
     1
 98
        0
  0
POLYLINE
  5
9E
330
8F
100
AcDbEntity
  8
_U+30EC_U+30A4_U+30E4_U+30FC 1
370
     0
100
AcDb2dPolyline
 66
     1
 10
0.0
 20
0.0
 30
0.0
  0
VERTEX
  5
9F
330
9E
100
AcDbEntity
  8
_U+30EC_U+30A4_U+30E4_U+30FC 1
370
     0
100
AcDbVertex
100
AcDb2dVertex
 10
123.7106227989335
 20
-148.7433756138558
 30
0.0
  0
VERTEX
  5
A0
330
9E
100
AcDbEntity
  8
_U+30EC_U+30A4_U+30E4_U+30FC 1
370
     0
100
AcDbVertex
100
AcDb2dVertex
 10
124.0575439142981
 20
-148.7433756138558
 30
0.0
  0
VERTEX
  5
A1
330
9E
100
AcDbEntity
  8
_U+30EC_U+30A4_U+30E4_U+30FC 1
370
     0
100
AcDbVertex
100
AcDb2dVertex
 10
124.0575439142981
 20
-148.9611056485236
 30
0.0
  0
VERTEX
  5
A2
330
9E
100
AcDbEntity
  8
_U+30EC_U+30A4_U+30E4_U+30FC 1
370
     0
100
AcDbVertex
100
AcDb2dVertex
 10
123.7106227989335
 20
-148.9611056485236
 30
0.0
  0
VERTEX
  5
A3
330
9E
100
AcDbEntity
  8
_U+30EC_U+30A4_U+30E4_U+30FC 1
370
     0
100
AcDbVertex
100
AcDb2dVertex
 10
123.7106227989335
 20
-149.6170518289152
 30
0.0
  0
VERTEX
  5
A4
330
9E
100
AcDbEntity
  8
_U+30EC_U+30A4_U+30E4_U+30FC 1
370
     0
100
AcDbVertex
100
AcDb2dVertex
 10
123.4863470828437
 20
-149.6170518289152
 30
0.0
  0
VERTEX
  5
A5
330
9E
100
AcDbEntity
  8
_U+30EC_U+30A4_U+30E4_U+30FC 1
370
     0
100
AcDbVertex
100
AcDb2dVertex
 10
122.5131076082606
 20
-148.9380235087724
 30
0.0
  0
VERTEX
  5
A6
330
9E
100
AcDbEntity
  8
_U+30EC_U+30A4_U+30E4_U+30FC 1
370
     0
100
AcDbVertex
100
AcDb2dVertex
 10
122.5131076082606
 20
-148.7433756138558
 30
0.0
  0
VERTEX
  5
A7
330
9E
100
AcDbEntity
  8
_U+30EC_U+30A4_U+30E4_U+30FC 1
370
     0
100
AcDbVertex
100
AcDb2dVertex
 10
123.511496279886
 20
-148.7433756138558
 30
0.0
  0
VERTEX
  5
A8
330
9E
100
AcDbEntity
  8
_U+30EC_U+30A4_U+30E4_U+30FC 1
370
     0
100
AcDbVertex
100
AcDb2dVertex
 10
123.511496279886
 20
-148.5359808656438
 30
0.0
  0
VERTEX
  5
A9
330
9E
100
AcDbEntity
  8
_U+30EC_U+30A4_U+30E4_U+30FC 1
370
     0
100
AcDbVertex
100
AcDb2dVertex
 10
123.7106227989335
 20
-148.5359808656438
 30
0.0
  0
VERTEX
  5
AA
330
9E
100
AcDbEntity
  8
_U+30EC_U+30A4_U+30E4_U+30FC 1
370
     0
100
AcDbVertex
100
AcDb2dVertex
 10
123.7106227989335
 20
-148.7433756138558
 30
0.0
  0
SEQEND
  5
AB
330
9E
100
AcDbEntity
  8
_U+30EC_U+30A4_U+30E4_U+30FC 1
370
     0
  0
POLYLINE
  5
AC
330
8F
100
AcDbEntity
  8
_U+30EC_U+30A4_U+30E4_U+30FC 1
370
     0
100
AcDb2dPolyline
 66
     1
 10
0.0
 20
0.0
 30
0.0
  0
VERTEX
  5
AD
330
AC
100
AcDbEntity
  8
_U+30EC_U+30A4_U+30E4_U+30FC 1
370
     0
100
AcDbVertex
100
AcDb2dVertex
 10
122.855894609043
 20
-148.9611056485236
 30
0.0
  0
VERTEX
  5
AE
330
AC
100
AcDbEntity
  8
_U+30EC_U+30A4_U+30E4_U+30FC 1
370
     0
100
AcDbVertex
100
AcDb2dVertex
 10
123.511496279886
 20
-149.4182698194163
 30
0.0
  0
VERTEX
  5
AF
330
AC
100
AcDbEntity
  8
_U+30EC_U+30A4_U+30E4_U+30FC 1
370
     0
100
AcDbVertex
100
AcDb2dVertex
 10
123.511496279886
 20
-148.9611056485236
 30
0.0
  0
VERTEX
  5
B0
330
AC
100
AcDbEntity
  8
_U+30EC_U+30A4_U+30E4_U+30FC 1
370
     0
100
AcDbVertex
100
AcDb2dVertex
 10
122.855894609043
 20
-148.9611056485236
 30
0.0
  0
SEQEND
  5
B1
330
AC
100
AcDbEntity
  8
_U+30EC_U+30A4_U+30E4_U+30FC 1
370
     0
  0
HATCH
  5
B2
330
8F
100
AcDbEntity
  8
_U+30EC_U+30A4_U+30E4_U+30FC 1
 62
   179
420
  2234388
100
AcDbHatch
 10
0.0
 20
0.0
 30
0.0
210
0.0
220
0.0
230
1.0
  2
SOLID
 70
     1
 71
     0
 91
        2
 92
        1
 93
       11
 72
     1
 10
123.7106227989335
 20
-148.7433756138558
 11
124.0575439142981
 21
-148.7433756138558
 72
     1
 10
124.0575439142981
 20
-148.7433756138558
 11
124.0575439142981
 21
-148.9611056485236
 72
     1
 10
124.0575439142981
 20
-148.9611056485236
 11
123.7106227989335
 21
-148.9611056485236
 72
     1
 10
123.7106227989335
 20
-148.9611056485236
 11
123.7106227989335
 21
-149.6170518289152
 72
     1
 10
123.7106227989335
 20
-149.6170518289152
 11
123.4863470828437
 21
-149.6170518289152
 72
     1
 10
123.4863470828437
 20
-149.6170518289152
 11
122.5131076082606
 21
-148.9380235087724
 72
     1
 10
122.5131076082606
 20
-148.9380235087724
 11
122.5131076082606
 21
-148.7433756138558
 72
     1
 10
122.5131076082606
 20
-148.7433756138558
 11
123.511496279886
 21
-148.7433756138558
 72
     1
 10
123.511496279886
 20
-148.7433756138558
 11
123.511496279886
 21
-148.5359808656438
 72
     1
 10
123.511496279886
 20
-148.5359808656438
 11
123.7106227989335
 21
-148.5359808656438
 72
     1
 10
123.7106227989335
 20
-148.5359808656438
 11
123.7106227989335
 21
-148.7433756138558
 97
        0
 92
        1
 93
        3
 72
     1
 10
122.855894609043
 20
-148.9611056485236
 11
123.511496279886
 21
-149.4182698194163
 72
     1
 10
123.511496279886
 20
-149.4182698194163
 11
123.511496279886
 21
-148.9611056485236
 72
     1
 10
123.511496279886
 20
-148.9611056485236
 11
122.855894609043
 21
-148.9611056485236
 97
        0
 75
     2
 76
     1
 98
        0
  0
ENDBLK
  5
92
330
8F
100
AcDbEntity
  8
0
100
AcDbBlockEnd
  0
BLOCK
  5
C5
330
C3
100
AcDbEntity
  8
0
100
AcDbBlockBegin
  2
block 4
 70
     0
 10
0.0
 20
0.0
 30
0.0
  3
block 4
  1

  0
SPLINE
  5
C7
330
C3
100
AcDbEntity
  8
_U+30EC_U+30A4_U+30E4_U+30FC 1
370
     0
100
AcDbSpline
210
0.0
220
0.0
230
1.0
 70
    11
 71
     3
 72
    29
 73
    25
 74
     0
 42
0.0000000001
 43
0.0000000001
 12
1.0
 22
0.0
 32
0.0
 13
1.0
 23
0.0
 33
0.0
 40
0.0
 40
0.0
 40
0.0
 40
0.0
 40
1.0
 40
1.0
 40
1.0
 40
2.0
 40
2.0
 40
2.0
 40
3.0
 40
3.0
 40
3.0
 40
4.0
 40
4.0
 40
4.0
 40
5.0
 40
5.0
 40
5.0
 40
6.0
 40
6.0
 40
6.0
 40
7.0
 40
7.0
 40
7.0
 40
8.0
 40
8.0
 40
8.0
 40
8.0
 10
72.70822345187503
 20
-97.82675914438012
 30
0.0
 10
72.60039196318671
 20
-98.03622094988332
 30
0.0
 10
72.42693140550438
 20
-98.05534122982645
 30
0.0
 10
72.31048717810293
 20
-98.05534122982645
 30
0.0
 10
72.14977347371604
 20
-98.05534122982645
 30
0.0
 10
72.008007794498
 20
-98.00883244077558
 30
0.0
 10
71.91275090433085
 20
-97.82675914438012
 30
0.0
 10
71.80922578499909
 20
-97.63228350423776
 30
0.0
 10
71.79010550505595
 20
-97.39526093485257
 30
0.0
 10
71.79010550505595
 20
-97.23230791840027
 30
0.0
 10
71.79010550505595
 20
-97.08847518189108
 30
0.0
 10
71.80698647293367
 20
-96.83681095669358
 30
0.0
 10
71.91275090433085
 20
-96.6378566924204
 30
0.0
 10
72.02075464779342
 20
-96.43476831356493
 30
0.0
 10
72.18146835218033
 20
-96.41151391903949
 30
0.0
 10
72.31048717810293
 20
-96.41151391903949
 30
0.0
 10
72.4691338251987
 20
-96.41151391903949
 30
0.0
 10
72.61296656170788
 20
-96.45595565079921
 30
0.0
 10
72.70822345187503
 20
-96.6378566924204
 30
0.0
 10
72.80761445662449
 20
-96.83043753004587
 30
0.0
 10
72.83086885114993
 20
-97.05884736071793
 30
0.0
 10
72.83086885114993
 20
-97.23230791840027
 30
0.0
 10
72.83086885114993
 20
-97.40370141879144
 30
0.0
 10
72.8098537686899
 20
-97.63435056152892
 30
0.0
 10
72.70822345187503
 20
-97.82675914438012
 30
0.0
  0
SPLINE
  5
C8
330
C3
100
AcDbEntity
  8
_U+30EC_U+30A4_U+30E4_U+30FC 1
370
     0
100
AcDbSpline
210
0.0
220
0.0
230
1.0
 70
    11
 71
     3
 72
    17
 73
    13
 74
     0
 42
0.0000000001
 43
0.0000000001
 12
1.0
 22
0.0
 32
0.0
 13
1.0
 23
0.0
 33
0.0
 40
0.0
 40
0.0
 40
0.0
 40
0.0
 40
1.0
 40
1.0
 40
1.0
 40
2.0
 40
2.0
 40
2.0
 40
3.0
 40
3.0
 40
3.0
 40
4.0
 40
4.0
 40
4.0
 40
4.0
 10
72.31048717810293
 20
-96.60409475666495
 30
0.0
 10
72.06089001019659
 20
-96.60409475666495
 30
0.0
 10
72.01438122114571
 20
-96.88745386032676
 30
0.0
 10
72.01438122114571
 20
-97.23230791840027
 30
0.0
 10
72.01438122114571
 20
-97.55184052465718
 30
0.0
 10
72.05038246896657
 20
-97.86069333490983
 30
0.0
 10
72.31048717810293
 20
-97.86069333490983
 30
0.0
 10
72.55801728871813
 20
-97.86069333490983
 30
0.0
 10
72.60676538983442
 20
-97.57922903376492
 30
0.0
 10
72.60676538983442
 20
-97.23230791840027
 30
0.0
 10
72.60676538983442
 20
-96.9129475669176
 30
0.0
 10
72.56852482994815
 20
-96.60409475666495
 30
0.0
 10
72.31048717810293
 20
-96.60409475666495
 30
0.0
  0
HATCH
  5
C9
330
C3
100
AcDbEntity
  8
_U+30EC_U+30A4_U+30E4_U+30FC 1
 62
   179
420
  2234388
100
AcDbHatch
 10
0.0
 20
0.0
 30
0.0
210
0.0
220
0.0
230
1.0
  2
SOLID
 70
     1
 71
     0
 91
        2
 92
        1
 93
        1
 72
     4
 94
        3
 73
     0
 74
     1
 95
       29
 96
       25
 40
0.0
 40
0.0
 40
0.0
 40
0.0
 40
1.0
 40
1.0
 40
1.0
 40
2.0
 40
2.0
 40
2.0
 40
3.0
 40
3.0
 40
3.0
 40
4.0
 40
4.0
 40
4.0
 40
5.0
 40
5.0
 40
5.0
 40
6.0
 40
6.0
 40
6.0
 40
7.0
 40
7.0
 40
7.0
 40
8.0
 40
8.0
 40
8.0
 40
8.0
 10
72.70822345187503
 20
-97.82675914438012
 10
72.60039196318671
 20
-98.03622094988332
 10
72.42693140550438
 20
-98.05534122982645
 10
72.31048717810293
 20
-98.05534122982645
 10
72.14977347371604
 20
-98.05534122982645
 10
72.008007794498
 20
-98.00883244077558
 10
71.91275090433085
 20
-97.82675914438012
 10
71.80922578499909
 20
-97.63228350423776
 10
71.79010550505595
 20
-97.39526093485257
 10
71.79010550505595
 20
-97.23230791840027
 10
71.79010550505595
 20
-97.08847518189108
 10
71.80698647293367
 20
-96.83681095669358
 10
71.91275090433085
 20
-96.6378566924204
 10
72.02075464779342
 20
-96.43476831356493
 10
72.18146835218033
 20
-96.41151391903949
 10
72.31048717810293
 20
-96.41151391903949
 10
72.4691338251987
 20
-96.41151391903949
 10
72.61296656170788
 20
-96.45595565079921
 10
72.70822345187503
 20
-96.6378566924204
 10
72.80761445662449
 20
-96.83043753004587
 10
72.83086885114993
 20
-97.05884736071793
 10
72.83086885114993
 20
-97.23230791840027
 10
72.83086885114993
 20
-97.40370141879144
 10
72.8098537686899
 20
-97.63435056152892
 10
72.70822345187503
 20
-97.82675914438012
 97
        0
 97
        0
 92
        1
 93
        1
 72
     4
 94
        3
 73
     0
 74
     1
 95
       17
 96
       13
 40
0.0
 40
0.0
 40
0.0
 40
0.0
 40
1.0
 40
1.0
 40
1.0
 40
2.0
 40
2.0
 40
2.0
 40
3.0
 40
3.0
 40
3.0
 40
4.0
 40
4.0
 40
4.0
 40
4.0
 10
72.31048717810293
 20
-96.60409475666495
 10
72.06089001019659
 20
-96.60409475666495
 10
72.01438122114571
 20
-96.88745386032676
 10
72.01438122114571
 20
-97.23230791840027
 10
72.01438122114571
 20
-97.55184052465718
 10
72.05038246896657
 20
-97.86069333490983
 10
72.31048717810293
 20
-97.86069333490983
 10
72.55801728871813
 20
-97.86069333490983
 10
72.60676538983442
 20
-97.57922903376492
 10
72.60676538983442
 20
-97.23230791840027
 10
72.60676538983442
 20
-96.9129475669176
 10
72.56852482994815
 20
-96.60409475666495
 10
72.31048717810293
 20
-96.60409475666495
 97
        0
 97
        0
 75
     2
 76
     1
 98
        0
  0
POLYLINE
  5
CA
330
C3
100
AcDbEntity
  8
_U+30EC_U+30A4_U+30E4_U+30FC 1
370
     0
100
AcDb2dPolyline
 66
     1
 10
0.0
 20
0.0
 30
0.0
  0
VERTEX
  5
CB
330
CA
100
AcDbEntity
  8
_U+30EC_U+30A4_U+30E4_U+30FC 1
370
     0
100
AcDbVertex
100
AcDb2dVertex
 10
73.04739310239788
 20
-98.00452607141901
 30
0.0
  0
VERTEX
  5
CC
330
CA
100
AcDbEntity
  8
_U+30EC_U+30A4_U+30E4_U+30FC 1
370
     0
100
AcDbVertex
100
AcDb2dVertex
 10
73.04739310239788
 20
-97.7528618462215
 30
0.0
  0
VERTEX
  5
CD
330
CA
100
AcDbEntity
  8
_U+30EC_U+30A4_U+30E4_U+30FC 1
370
     0
100
AcDbVertex
100
AcDb2dVertex
 10
73.29905732759538
 20
-97.7528618462215
 30
0.0
  0
VERTEX
  5
CE
330
CA
100
AcDbEntity
  8
_U+30EC_U+30A4_U+30E4_U+30FC 1
370
     0
100
AcDbVertex
100
AcDb2dVertex
 10
73.29905732759538
 20
-98.00452607141901
 30
0.0
  0
VERTEX
  5
CF
330
CA
100
AcDbEntity
  8
_U+30EC_U+30A4_U+30E4_U+30FC 1
370
     0
100
AcDbVertex
100
AcDb2dVertex
 10
73.04739310239788
 20
-98.00452607141901
 30
0.0
  0
SEQEND
  5
D0
330
CA
100
AcDbEntity
  8
_U+30EC_U+30A4_U+30E4_U+30FC 1
370
     0
  0
HATCH
  5
D1
330
C3
100
AcDbEntity
  8
_U+30EC_U+30A4_U+30E4_U+30FC 1
 62
   179
420
  2234388
100
AcDbHatch
 10
0.0
 20
0.0
 30
0.0
210
0.0
220
0.0
230
1.0
  2
SOLID
 70
     1
 71
     0
 91
        1
 92
        1
 93
        4
 72
     1
 10
73.04739310239788
 20
-98.00452607141901
 11
73.04739310239788
 21
-97.7528618462215
 72
     1
 10
73.04739310239788
 20
-97.7528618462215
 11
73.29905732759538
 21
-97.7528618462215
 72
     1
 10
73.29905732759538
 20
-97.7528618462215
 11
73.29905732759538
 21
-98.00452607141901
 72
     1
 10
73.29905732759538
 20
-98.00452607141901
 11
73.04739310239788
 21
-98.00452607141901
 97
        0
 75
     2
 76
     1
 98
        0
  0
POLYLINE
  5
D2
330
C3
100
AcDbEntity
  8
_U+30EC_U+30A4_U+30E4_U+30FC 1
370
     0
100
AcDb2dPolyline
 66
     1
 10
0.0
 20
0.0
 30
0.0
  0
VERTEX
  5
D3
330
D2
100
AcDbEntity
  8
_U+30EC_U+30A4_U+30E4_U+30FC 1
370
     0
100
AcDbVertex
100
AcDb2dVertex
 10
74.36772594711988
 20
-97.65760495605436
 30
0.0
  0
VERTEX
  5
D4
330
D2
100
AcDbEntity
  8
_U+30EC_U+30A4_U+30E4_U+30FC 1
370
     0
100
AcDbVertex
100
AcDb2dVertex
 10
74.36772594711988
 20
-98.00452607141901
 30
0.0
  0
VERTEX
  5
D5
330
D2
100
AcDbEntity
  8
_U+30EC_U+30A4_U+30E4_U+30FC 1
370
     0
100
AcDbVertex
100
AcDb2dVertex
 10
74.14982365767783
 20
-98.00452607141901
 30
0.0
  0
VERTEX
  5
D6
330
D2
100
AcDbEntity
  8
_U+30EC_U+30A4_U+30E4_U+30FC 1
370
     0
100
AcDbVertex
100
AcDb2dVertex
 10
74.14982365767783
 20
-97.65760495605436
 30
0.0
  0
VERTEX
  5
D7
330
D2
100
AcDbEntity
  8
_U+30EC_U+30A4_U+30E4_U+30FC 1
370
     0
100
AcDbVertex
100
AcDb2dVertex
 10
73.49404973206052
 20
-97.65760495605436
 30
0.0
  0
VERTEX
  5
D8
330
D2
100
AcDbEntity
  8
_U+30EC_U+30A4_U+30E4_U+30FC 1
370
     0
100
AcDbVertex
100
AcDb2dVertex
 10
73.49404973206052
 20
-97.43332923996459
 30
0.0
  0
VERTEX
  5
D9
330
D2
100
AcDbEntity
  8
_U+30EC_U+30A4_U+30E4_U+30FC 1
370
     0
100
AcDbVertex
100
AcDb2dVertex
 10
74.17307805220327
 20
-96.46026202015577
 30
0.0
  0
VERTEX
  5
DA
330
D2
100
AcDbEntity
  8
_U+30EC_U+30A4_U+30E4_U+30FC 1
370
     0
100
AcDbVertex
100
AcDb2dVertex
 10
74.36772594711988
 20
-96.46026202015577
 30
0.0
  0
VERTEX
  5
DB
330
D2
100
AcDbEntity
  8
_U+30EC_U+30A4_U+30E4_U+30FC 1
370
     0
100
AcDbVertex
100
AcDb2dVertex
 10
74.36772594711988
 20
-97.45865069178117
 30
0.0
  0
VERTEX
  5
DC
330
D2
100
AcDbEntity
  8
_U+30EC_U+30A4_U+30E4_U+30FC 1
370
     0
100
AcDbVertex
100
AcDb2dVertex
 10
74.57512069533192
 20
-97.45865069178117
 30
0.0
  0
VERTEX
  5
DD
330
D2
100
AcDbEntity
  8
_U+30EC_U+30A4_U+30E4_U+30FC 1
370
     0
100
AcDbVertex
100
AcDb2dVertex
 10
74.57512069533192
 20
-97.65760495605436
 30
0.0
  0
VERTEX
  5
DE
330
D2
100
AcDbEntity
  8
_U+30EC_U+30A4_U+30E4_U+30FC 1
370
     0
100
AcDbVertex
100
AcDb2dVertex
 10
74.36772594711988
 20
-97.65760495605436
 30
0.0
  0
SEQEND
  5
DF
330
D2
100
AcDbEntity
  8
_U+30EC_U+30A4_U+30E4_U+30FC 1
370
     0
  0
POLYLINE
  5
E0
330
C3
100
AcDbEntity
  8
_U+30EC_U+30A4_U+30E4_U+30FC 1
370
     0
100
AcDb2dPolyline
 66
     1
 10
0.0
 20
0.0
 30
0.0
  0
VERTEX
  5
E1
330
E0
100
AcDbEntity
  8
_U+30EC_U+30A4_U+30E4_U+30FC 1
370
     0
100
AcDbVertex
100
AcDb2dVertex
 10
74.14982365767783
 20
-96.80287676616386
 30
0.0
  0
VERTEX
  5
E2
330
E0
100
AcDbEntity
  8
_U+30EC_U+30A4_U+30E4_U+30FC 1
370
     0
100
AcDbVertex
100
AcDb2dVertex
 10
73.6930039963337
 20
-97.45865069178117
 30
0.0
  0
VERTEX
  5
E3
330
E0
100
AcDbEntity
  8
_U+30EC_U+30A4_U+30E4_U+30FC 1
370
     0
100
AcDbVertex
100
AcDb2dVertex
 10
74.14982365767783
 20
-97.45865069178117
 30
0.0
  0
VERTEX
  5
E4
330
E0
100
AcDbEntity
  8
_U+30EC_U+30A4_U+30E4_U+30FC 1
370
     0
100
AcDbVertex
100
AcDb2dVertex
 10
74.14982365767783
 20
-96.80287676616386
 30
0.0
  0
SEQEND
  5
E5
330
E0
100
AcDbEntity
  8
_U+30EC_U+30A4_U+30E4_U+30FC 1
370
     0
  0
HATCH
  5
E6
330
C3
100
AcDbEntity
  8
_U+30EC_U+30A4_U+30E4_U+30FC 1
 62
   179
420
  2234388
100
AcDbHatch
 10
0.0
 20
0.0
 30
0.0
210
0.0
220
0.0
230
1.0
  2
SOLID
 70
     1
 71
     0
 91
        2
 92
        1
 93
       11
 72
     1
 10
74.36772594711988
 20
-97.65760495605436
 11
74.36772594711988
 21
-98.00452607141901
 72
     1
 10
74.36772594711988
 20
-98.00452607141901
 11
74.14982365767783
 21
-98.00452607141901
 72
     1
 10
74.14982365767783
 20
-98.00452607141901
 11
74.14982365767783
 21
-97.65760495605436
 72
     1
 10
74.14982365767783
 20
-97.65760495605436
 11
73.49404973206052
 21
-97.65760495605436
 72
     1
 10
73.49404973206052
 20
-97.65760495605436
 11
73.49404973206052
 21
-97.43332923996459
 72
     1
 10
73.49404973206052
 20
-97.43332923996459
 11
74.17307805220327
 21
-96.46026202015577
 72
     1
 10
74.17307805220327
 20
-96.46026202015577
 11
74.36772594711988
 21
-96.46026202015577
 72
     1
 10
74.36772594711988
 20
-96.46026202015577
 11
74.36772594711988
 21
-97.45865069178117
 72
     1
 10
74.36772594711988
 20
-97.45865069178117
 11
74.57512069533192
 21
-97.45865069178117
 72
     1
 10
74.57512069533192
 20
-97.45865069178117
 11
74.57512069533192
 21
-97.65760495605436
 72
     1
 10
74.57512069533192
 20
-97.65760495605436
 11
74.36772594711988
 21
-97.65760495605436
 97
        0
 92
        1
 93
        3
 72
     1
 10
74.14982365767783
 20
-96.80287676616386
 11
73.6930039963337
 21
-97.45865069178117
 72
     1
 10
73.6930039963337
 20
-97.45865069178117
 11
74.14982365767783
 21
-97.45865069178117
 72
     1
 10
74.14982365767783
 20
-97.45865069178117
 11
74.14982365767783
 21
-96.80287676616386
 97
        0
 75
     2
 76
     1
 98
        0
  0
ENDBLK
  5
C6
330
C3
100
AcDbEntity
  8
0
100
AcDbBlockEnd
  0
BLOCK
  5
F5
330
F3
100
AcDbEntity
  8
0
100
AcDbBlockBegin
  2
block 5
 70
     0
 10
0.0
 20
0.0
 30
0.0
  3
block 5
  1

  0
SPLINE
  5
F7
330
F3
100
AcDbEntity
  8
_U+30EC_U+30A4_U+30E4_U+30FC 1
370
     0
100
AcDbSpline
210
0.0
220
0.0
230
1.0
 70
    11
 71
     3
 72
    53
 73
    49
 74
     0
 42
0.0000000001
 43
0.0000000001
 12
1.0
 22
0.0
 32
0.0
 13
1.0
 23
0.0
 33
0.0
 40
0.0
 40
0.0
 40
0.0
 40
0.0
 40
1.0
 40
1.0
 40
1.0
 40
2.0
 40
2.0
 40
2.0
 40
3.0
 40
3.0
 40
3.0
 40
4.0
 40
4.0
 40
4.0
 40
5.0
 40
5.0
 40
5.0
 40
6.0
 40
6.0
 40
6.0
 40
7.0
 40
7.0
 40
7.0
 40
8.0
 40
8.0
 40
8.0
 40
9.0
 40
9.0
 40
9.0
 40
10.0
 40
10.0
 40
10.0
 40
11.0
 40
11.0
 40
11.0
 40
12.0
 40
12.0
 40
12.0
 40
13.0
 40
13.0
 40
13.0
 40
14.0
 40
14.0
 40
14.0
 40
15.0
 40
15.0
 40
15.0
 40
16.0
 40
16.0
 40
16.0
 40
16.0
 10
61.29031573988576
 20
-129.3247504016966
 30
0.0
 10
61.29031573988576
 20
-129.4029540692118
 30
0.0
 10
61.27343477200803
 20
-129.5045843860266
 30
0.0
 10
61.20987276030517
 20
-129.6062147028415
 30
0.0
 10
61.09980195955144
 20
-129.7795030057496
 30
0.0
 10
60.96871607633769
 20
-129.8008625977581
 30
0.0
 10
60.86088458764937
 20
-129.819810622927
 30
0.0
 10
60.86088458764937
 20
-129.819810622927
 30
0.0
 10
60.86088458764937
 20
-129.5976019641284
 30
0.0
 10
60.86088458764937
 20
-129.5976019641284
 30
0.0
 10
61.05966659714828
 20
-129.5428249459129
 30
0.0
 10
61.08929441832143
 20
-129.4157009225072
 30
0.0
 10
61.08929441832143
 20
-129.3226833444054
 30
0.0
 10
61.08929441832143
 20
-129.1831569772528
 30
0.0
 10
60.98990341357197
 20
-129.0308837568048
 30
0.0
 10
60.75718721354335
 20
-129.0308837568048
 30
0.0
 10
60.50121661898928
 20
-129.0308837568048
 30
0.0
 10
60.43145343541298
 20
-129.2107177411348
 30
0.0
 10
60.43145343541298
 20
-129.3312960831186
 30
0.0
 10
60.43145343541298
 20
-129.3629909615829
 30
0.0
 10
60.43145343541298
 20
-129.5045843860266
 30
0.0
 10
60.56047226133558
 20
-129.5934678495461
 30
0.0
 10
60.56047226133558
 20
-129.5934678495461
 30
0.0
 10
60.54135198139245
 20
-129.7691677192938
 30
0.0
 10
60.54135198139245
 20
-129.7691677192938
 30
0.0
 10
60.54135198139245
 20
-129.7691677192938
 30
0.0
 10
59.69523653021508
 20
-129.6485893773101
 30
0.0
 10
59.69523653021508
 20
-129.6485893773101
 30
0.0
 10
59.69523653021508
 20
-129.6485893773101
 30
0.0
 10
59.69523653021508
 20
-128.8699977976436
 30
0.0
 10
59.69523653021508
 20
-128.8699977976436
 30
0.0
 10
59.69523653021508
 20
-128.8699977976436
 30
0.0
 10
59.8898844251317
 20
-128.8699977976436
 30
0.0
 10
59.8898844251317
 20
-128.8699977976436
 30
0.0
 10
59.8898844251317
 20
-128.8699977976436
 30
0.0
 10
59.8898844251317
 20
-129.4856363608578
 30
0.0
 10
59.8898844251317
 20
-129.4856363608578
 30
0.0
 10
59.8898844251317
 20
-129.4856363608578
 30
0.0
 10
60.31294215072038
 20
-129.5510931750775
 30
0.0
 10
60.31294215072038
 20
-129.5510931750775
 30
0.0
 10
60.27900796019067
 20
-129.4897704754401
 30
0.0
 10
60.23887259778751
 20
-129.4074326933426
 30
0.0
 10
60.23887259778751
 20
-129.28892140865
 30
0.0
 10
60.23887259778751
 20
-129.0350178713871
 30
0.0
 10
60.42508000876526
 20
-128.7979953020019
 30
0.0
 10
60.73806693360021
 20
-128.7979953020019
 30
0.0
 10
61.05553248256598
 20
-128.7979953020019
 30
0.0
 10
61.29031573988576
 20
-129.0222710180917
 30
0.0
 10
61.29031573988576
 20
-129.3247504016966
 30
0.0
  0
HATCH
  5
F8
330
F3
100
AcDbEntity
  8
_U+30EC_U+30A4_U+30E4_U+30FC 1
 62
   179
420
  2234388
100
AcDbHatch
 10
0.0
 20
0.0
 30
0.0
210
0.0
220
0.0
230
1.0
  2
SOLID
 70
     1
 71
     0
 91
        1
 92
        1
 93
        1
 72
     4
 94
        3
 73
     0
 74
     1
 95
       53
 96
       49
 40
0.0
 40
0.0
 40
0.0
 40
0.0
 40
1.0
 40
1.0
 40
1.0
 40
2.0
 40
2.0
 40
2.0
 40
3.0
 40
3.0
 40
3.0
 40
4.0
 40
4.0
 40
4.0
 40
5.0
 40
5.0
 40
5.0
 40
6.0
 40
6.0
 40
6.0
 40
7.0
 40
7.0
 40
7.0
 40
8.0
 40
8.0
 40
8.0
 40
9.0
 40
9.0
 40
9.0
 40
10.0
 40
10.0
 40
10.0
 40
11.0
 40
11.0
 40
11.0
 40
12.0
 40
12.0
 40
12.0
 40
13.0
 40
13.0
 40
13.0
 40
14.0
 40
14.0
 40
14.0
 40
15.0
 40
15.0
 40
15.0
 40
16.0
 40
16.0
 40
16.0
 40
16.0
 10
61.29031573988576
 20
-129.3247504016966
 10
61.29031573988576
 20
-129.4029540692118
 10
61.27343477200803
 20
-129.5045843860266
 10
61.20987276030517
 20
-129.6062147028415
 10
61.09980195955144
 20
-129.7795030057496
 10
60.96871607633769
 20
-129.8008625977581
 10
60.86088458764937
 20
-129.819810622927
 10
60.86088458764937
 20
-129.819810622927
 10
60.86088458764937
 20
-129.5976019641284
 10
60.86088458764937
 20
-129.5976019641284
 10
61.05966659714828
 20
-129.5428249459129
 10
61.08929441832143
 20
-129.4157009225072
 10
61.08929441832143
 20
-129.3226833444054
 10
61.08929441832143
 20
-129.1831569772528
 10
60.98990341357197
 20
-129.0308837568048
 10
60.75718721354335
 20
-129.0308837568048
 10
60.50121661898928
 20
-129.0308837568048
 10
60.43145343541298
 20
-129.2107177411348
 10
60.43145343541298
 20
-129.3312960831186
 10
60.43145343541298
 20
-129.3629909615829
 10
60.43145343541298
 20
-129.5045843860266
 10
60.56047226133558
 20
-129.5934678495461
 10
60.56047226133558
 20
-129.5934678495461
 10
60.54135198139245
 20
-129.7691677192938
 10
60.54135198139245
 20
-129.7691677192938
 10
60.54135198139245
 20
-129.7691677192938
 10
59.69523653021508
 20
-129.6485893773101
 10
59.69523653021508
 20
-129.6485893773101
 10
59.69523653021508
 20
-129.6485893773101
 10
59.69523653021508
 20
-128.8699977976436
 10
59.69523653021508
 20
-128.8699977976436
 10
59.69523653021508
 20
-128.8699977976436
 10
59.8898844251317
 20
-128.8699977976436
 10
59.8898844251317
 20
-128.8699977976436
 10
59.8898844251317
 20
-128.8699977976436
 10
59.8898844251317
 20
-129.4856363608578
 10
59.8898844251317
 20
-129.4856363608578
 10
59.8898844251317
 20
-129.4856363608578
 10
60.31294215072038
 20
-129.5510931750775
 10
60.31294215072038
 20
-129.5510931750775
 10
60.27900796019067
 20
-129.4897704754401
 10
60.23887259778751
 20
-129.4074326933426
 10
60.23887259778751
 20
-129.28892140865
 10
60.23887259778751
 20
-129.0350178713871
 10
60.42508000876526
 20
-128.7979953020019
 10
60.73806693360021
 20
-128.7979953020019
 10
61.05553248256598
 20
-128.7979953020019
 10
61.29031573988576
 20
-129.0222710180917
 10
61.29031573988576
 20
-129.3247504016966
 97
        0
 97
        0
 75
     2
 76
     1
 98
        0
  0
SPLINE
  5
F9
330
F3
100
AcDbEntity
  8
_U+30EC_U+30A4_U+30E4_U+30FC 1
370
     0
100
AcDbSpline
210
0.0
220
0.0
230
1.0
 70
    11
 71
     3
 72
    62
 73
    58
 74
     0
 42
0.0000000001
 43
0.0000000001
 12
1.0
 22
0.0
 32
0.0
 13
1.0
 23
0.0
 33
0.0
 40
0.0
 40
0.0
 40
0.0
 40
0.0
 40
1.0
 40
1.0
 40
1.0
 40
2.0
 40
2.0
 40
2.0
 40
3.0
 40
3.0
 40
3.0
 40
4.0
 40
4.0
 40
4.0
 40
5.0
 40
5.0
 40
5.0
 40
6.0
 40
6.0
 40
6.0
 40
7.0
 40
7.0
 40
7.0
 40
8.0
 40
8.0
 40
8.0
 40
9.0
 40
9.0
 40
9.0
 40
10.0
 40
10.0
 40
10.0
 40
11.0
 40
11.0
 40
11.0
 40
12.0
 40
12.0
 40
12.0
 40
13.0
 40
13.0
 40
13.0
 40
14.0
 40
14.0
 40
14.0
 40
15.0
 40
15.0
 40
15.0
 40
16.0
 40
16.0
 40
16.0
 40
17.0
 40
17.0
 40
17.0
 40
18.0
 40
18.0
 40
18.0
 40
19.0
 40
19.0
 40
19.0
 40
19.0
 10
61.29031573988576
 20
-128.137225987931
 30
0.0
 10
61.29031573988576
 20
-128.2326551328724
 30
0.0
 10
61.26912840265147
 20
-128.4503851675402
 30
0.0
 10
61.08292099167372
 20
-128.5754421336547
 30
0.0
 10
60.97078313362884
 20
-128.6495116865876
 30
0.0
 10
60.87139212887938
 20
-128.6536458011699
 30
0.0
 10
60.78681503471649
 20
-128.6577799157522
 30
0.0
 10
60.78681503471649
 20
-128.6577799157522
 30
0.0
 10
60.78681503471649
 20
-128.4376383142448
 30
0.0
 10
60.78681503471649
 20
-128.4376383142448
 30
0.0
 10
60.86088458764937
 20
-128.4355712569536
 30
0.0
 10
61.09566784496914
 20
-128.4252359704979
 30
0.0
 10
61.09566784496914
 20
-128.1417046120618
 30
0.0
 10
61.09566784496914
 20
-128.0042453022003
 30
0.0
 10
61.02590466139283
 20
-127.8516275722038
 30
0.0
 10
60.7973225759465
 20
-127.8516275722038
 30
0.0
 10
60.68105060331932
 20
-127.8516275722038
 30
0.0
 10
60.63230250220304
 20
-127.88986813209
 30
0.0
 10
60.60060762373874
 20
-127.9215630105543
 30
0.0
 10
60.52653807080587
 20
-127.9956325634872
 30
0.0
 10
60.51396347228471
 20
-128.1120767908887
 30
0.0
 10
60.51396347228471
 20
-128.1668538091041
 30
0.0
 10
60.51396347228471
 20
-128.1861463438215
 30
0.0
 10
60.51603052957586
 20
-128.2219753368681
 30
0.0
 10
60.52016464415816
 20
-128.2495361007501
 30
0.0
 10
60.52016464415816
 20
-128.2495361007501
 30
0.0
 10
60.3256890040158
 20
-128.2495361007501
 30
0.0
 10
60.3256890040158
 20
-128.2495361007501
 30
0.0
 10
60.33189017588925
 20
-128.2112955408639
 30
0.0
 10
60.33412948795466
 20
-128.1692653759438
 30
0.0
 10
60.33412948795466
 20
-128.1627196945218
 30
0.0
 10
60.33412948795466
 20
-128.0972628803021
 30
0.0
 10
60.31294215072038
 20
-127.8984808708032
 30
0.0
 10
60.07591958133519
 20
-127.8984808708032
 30
0.0
 10
59.89832490907056
 20
-127.8984808708032
 30
0.0
 10
59.84320338130657
 20
-128.0293944992427
 30
0.0
 10
59.84320338130657
 20
-128.1396375547706
 30
0.0
 10
59.84320338130657
 20
-128.4038763784893
 30
0.0
 10
60.07591958133519
 20
-128.4124891172024
 30
0.0
 10
60.14792207697691
 20
-128.4166232317847
 30
0.0
 10
60.14792207697691
 20
-128.4166232317847
 30
0.0
 10
60.14792207697691
 20
-128.6198838654145
 30
0.0
 10
60.14792207697691
 20
-128.6198838654145
 30
0.0
 10
60.0230373656366
 20
-128.6112711267014
 30
0.0
 10
59.6464884290988
 20
-128.5837103628193
 30
0.0
 10
59.6464884290988
 20
-128.1268907014752
 30
0.0
 10
59.6464884290988
 20
-127.9026149853855
 30
0.0
 10
59.77344019773025
 20
-127.661458301418
 30
0.0
 10
60.06954615468748
 20
-127.661458301418
 30
0.0
 10
60.25575356566523
 20
-127.661458301418
 30
0.0
 10
60.33826360253696
 20
-127.7565429368109
 30
0.0
 10
60.39958630217441
 20
-127.8561061963346
 30
0.0
 10
60.42714706605641
 20
-127.7947834966971
 30
0.0
 10
60.507590045637
 20
-127.6128824550759
 30
0.0
 10
60.78474797742534
 20
-127.6128824550759
 30
0.0
 10
61.12322860885114
 20
-127.6128824550759
 30
0.0
 10
61.29031573988576
 20
-127.8602403109169
 30
0.0
 10
61.29031573988576
 20
-128.137225987931
 30
0.0
  0
HATCH
  5
FA
330
F3
100
AcDbEntity
  8
_U+30EC_U+30A4_U+30E4_U+30FC 1
 62
   179
420
  2234388
100
AcDbHatch
 10
0.0
 20
0.0
 30
0.0
210
0.0
220
0.0
230
1.0
  2
SOLID
 70
     1
 71
     0
 91
        1
 92
        1
 93
        1
 72
     4
 94
        3
 73
     0
 74
     1
 95
       62
 96
       58
 40
0.0
 40
0.0
 40
0.0
 40
0.0
 40
1.0
 40
1.0
 40
1.0
 40
2.0
 40
2.0
 40
2.0
 40
3.0
 40
3.0
 40
3.0
 40
4.0
 40
4.0
 40
4.0
 40
5.0
 40
5.0
 40
5.0
 40
6.0
 40
6.0
 40
6.0
 40
7.0
 40
7.0
 40
7.0
 40
8.0
 40
8.0
 40
8.0
 40
9.0
 40
9.0
 40
9.0
 40
10.0
 40
10.0
 40
10.0
 40
11.0
 40
11.0
 40
11.0
 40
12.0
 40
12.0
 40
12.0
 40
13.0
 40
13.0
 40
13.0
 40
14.0
 40
14.0
 40
14.0
 40
15.0
 40
15.0
 40
15.0
 40
16.0
 40
16.0
 40
16.0
 40
17.0
 40
17.0
 40
17.0
 40
18.0
 40
18.0
 40
18.0
 40
19.0
 40
19.0
 40
19.0
 40
19.0
 10
61.29031573988576
 20
-128.137225987931
 10
61.29031573988576
 20
-128.2326551328724
 10
61.26912840265147
 20
-128.4503851675402
 10
61.08292099167372
 20
-128.5754421336547
 10
60.97078313362884
 20
-128.6495116865876
 10
60.87139212887938
 20
-128.6536458011699
 10
60.78681503471649
 20
-128.6577799157522
 10
60.78681503471649
 20
-128.6577799157522
 10
60.78681503471649
 20
-128.4376383142448
 10
60.78681503471649
 20
-128.4376383142448
 10
60.86088458764937
 20
-128.4355712569536
 10
61.09566784496914
 20
-128.4252359704979
 10
61.09566784496914
 20
-128.1417046120618
 10
61.09566784496914
 20
-128.0042453022003
 10
61.02590466139283
 20
-127.8516275722038
 10
60.7973225759465
 20
-127.8516275722038
 10
60.68105060331932
 20
-127.8516275722038
 10
60.63230250220304
 20
-127.88986813209
 10
60.60060762373874
 20
-127.9215630105543
 10
60.52653807080587
 20
-127.9956325634872
 10
60.51396347228471
 20
-128.1120767908887
 10
60.51396347228471
 20
-128.1668538091041
 10
60.51396347228471
 20
-128.1861463438215
 10
60.51603052957586
 20
-128.2219753368681
 10
60.52016464415816
 20
-128.2495361007501
 10
60.52016464415816
 20
-128.2495361007501
 10
60.3256890040158
 20
-128.2495361007501
 10
60.3256890040158
 20
-128.2495361007501
 10
60.33189017588925
 20
-128.2112955408639
 10
60.33412948795466
 20
-128.1692653759438
 10
60.33412948795466
 20
-128.1627196945218
 10
60.33412948795466
 20
-128.0972628803021
 10
60.31294215072038
 20
-127.8984808708032
 10
60.07591958133519
 20
-127.8984808708032
 10
59.89832490907056
 20
-127.8984808708032
 10
59.84320338130657
 20
-128.0293944992427
 10
59.84320338130657
 20
-128.1396375547706
 10
59.84320338130657
 20
-128.4038763784893
 10
60.07591958133519
 20
-128.4124891172024
 10
60.14792207697691
 20
-128.4166232317847
 10
60.14792207697691
 20
-128.4166232317847
 10
60.14792207697691
 20
-128.6198838654145
 10
60.14792207697691
 20
-128.6198838654145
 10
60.0230373656366
 20
-128.6112711267014
 10
59.6464884290988
 20
-128.5837103628193
 10
59.6464884290988
 20
-128.1268907014752
 10
59.6464884290988
 20
-127.9026149853855
 10
59.77344019773025
 20
-127.661458301418
 10
60.06954615468748
 20
-127.661458301418
 10
60.25575356566523
 20
-127.661458301418
 10
60.33826360253696
 20
-127.7565429368109
 10
60.39958630217441
 20
-127.8561061963346
 10
60.42714706605641
 20
-127.7947834966971
 10
60.507590045637
 20
-127.6128824550759
 10
60.78474797742534
 20
-127.6128824550759
 10
61.12322860885114
 20
-127.6128824550759
 10
61.29031573988576
 20
-127.8602403109169
 10
61.29031573988576
 20
-128.137225987931
 97
        0
 97
        0
 75
     2
 76
     1
 98
        0
  0
ENDBLK
  5
F6
330
F3
100
AcDbEntity
  8
0
100
AcDbBlockEnd
  0
BLOCK
  5
109
330
107
100
AcDbEntity
  8
0
100
AcDbBlockBegin
  2
block 6
 70
     0
 10
0.0
 20
0.0
 30
0.0
  3
block 6
  1

  0
SPLINE
  5
10B
330
107
100
AcDbEntity
  8
_U+30EC_U+30A4_U+30E4_U+30FC 1
370
     0
100
AcDbSpline
210
0.0
220
0.0
230
1.0
 70
    11
 71
     3
 72
    53
 73
    49
 74
     0
 42
0.0000000001
 43
0.0000000001
 12
1.0
 22
0.0
 32
0.0
 13
1.0
 23
0.0
 33
0.0
 40
0.0
 40
0.0
 40
0.0
 40
0.0
 40
1.0
 40
1.0
 40
1.0
 40
2.0
 40
2.0
 40
2.0
 40
3.0
 40
3.0
 40
3.0
 40
4.0
 40
4.0
 40
4.0
 40
5.0
 40
5.0
 40
5.0
 40
6.0
 40
6.0
 40
6.0
 40
7.0
 40
7.0
 40
7.0
 40
8.0
 40
8.0
 40
8.0
 40
9.0
 40
9.0
 40
9.0
 40
10.0
 40
10.0
 40
10.0
 40
11.0
 40
11.0
 40
11.0
 40
12.0
 40
12.0
 40
12.0
 40
13.0
 40
13.0
 40
13.0
 40
14.0
 40
14.0
 40
14.0
 40
15.0
 40
15.0
 40
15.0
 40
16.0
 40
16.0
 40
16.0
 40
16.0
 10
92.55386824943098
 20
-158.9332790401278
 30
0.0
 10
92.47532007236728
 20
-158.9332790401278
 30
0.0
 10
92.37403426510095
 20
-158.9163980722501
 30
0.0
 10
92.27205943873754
 20
-158.8530083153215
 30
0.0
 10
92.09877113582948
 20
-158.743109769342
 30
0.0
 10
92.07775605336946
 20
-158.611851631354
 30
0.0
 10
92.05846351865206
 20
-158.5040201426657
 30
0.0
 10
92.05846351865206
 20
-158.5040201426657
 30
0.0
 10
92.28067217745067
 20
-158.5040201426657
 30
0.0
 10
92.28067217745067
 20
-158.5040201426657
 30
0.0
 10
92.33579370521467
 20
-158.7028021521646
 30
0.0
 10
92.46291772862038
 20
-158.7324299733377
 30
0.0
 10
92.55593530672213
 20
-158.7324299733377
 30
0.0
 10
92.69546167387475
 20
-158.7324299733377
 30
0.0
 10
92.8477348943228
 20
-158.632866713814
 30
0.0
 10
92.8477348943228
 20
-158.4003227685596
 30
0.0
 10
92.8477348943228
 20
-158.1443521740056
 30
0.0
 10
92.66790090999275
 20
-158.074416735655
 30
0.0
 10
92.54732256800901
 20
-158.074416735655
 30
0.0
 10
92.51562768954471
 20
-158.074416735655
 30
0.0
 10
92.37403426510095
 20
-158.074416735655
 30
0.0
 10
92.2851508015815
 20
-158.2036078163519
 30
0.0
 10
92.2851508015815
 20
-158.2036078163519
 30
0.0
 10
92.10945093183375
 20
-158.184659791183
 30
0.0
 10
92.10945093183375
 20
-158.184659791183
 30
0.0
 10
92.10945093183375
 20
-158.184659791183
 30
0.0
 10
92.2300292738175
 20
-157.3381998304571
 30
0.0
 10
92.2300292738175
 20
-157.3381998304571
 30
0.0
 10
92.2300292738175
 20
-157.3381998304571
 30
0.0
 10
93.00862085348396
 20
-157.3381998304571
 30
0.0
 10
93.00862085348396
 20
-157.3381998304571
 30
0.0
 10
93.00862085348396
 20
-157.3381998304571
 30
0.0
 10
93.00862085348396
 20
-157.5328477253737
 30
0.0
 10
93.00862085348396
 20
-157.5328477253737
 30
0.0
 10
93.00862085348396
 20
-157.5328477253737
 30
0.0
 10
92.39263778072129
 20
-157.5328477253737
 30
0.0
 10
92.39263778072129
 20
-157.5328477253737
 30
0.0
 10
92.39263778072129
 20
-157.5328477253737
 30
0.0
 10
92.32718096650154
 20
-157.9559054509624
 30
0.0
 10
92.32718096650154
 20
-157.9559054509624
 30
0.0
 10
92.38850366613899
 20
-157.922143515207
 30
0.0
 10
92.47118595778498
 20
-157.8818358980295
 30
0.0
 10
92.58969724247758
 20
-157.8818358980295
 30
0.0
 10
92.84325627019197
 20
-157.8818358980295
 30
0.0
 10
93.08027883957716
 20
-158.0682155637816
 30
0.0
 10
93.08027883957716
 20
-158.3813747433908
 30
0.0
 10
93.08027883957716
 20
-158.6986680375823
 30
0.0
 10
92.85634763303592
 20
-158.9332790401278
 30
0.0
 10
92.55386824943098
 20
-158.9332790401278
 30
0.0
  0
HATCH
  5
10C
330
107
100
AcDbEntity
  8
_U+30EC_U+30A4_U+30E4_U+30FC 1
 62
   179
420
  2234388
100
AcDbHatch
 10
0.0
 20
0.0
 30
0.0
210
0.0
220
0.0
230
1.0
  2
SOLID
 70
     1
 71
     0
 91
        1
 92
        1
 93
        1
 72
     4
 94
        3
 73
     0
 74
     1
 95
       53
 96
       49
 40
0.0
 40
0.0
 40
0.0
 40
0.0
 40
1.0
 40
1.0
 40
1.0
 40
2.0
 40
2.0
 40
2.0
 40
3.0
 40
3.0
 40
3.0
 40
4.0
 40
4.0
 40
4.0
 40
5.0
 40
5.0
 40
5.0
 40
6.0
 40
6.0
 40
6.0
 40
7.0
 40
7.0
 40
7.0
 40
8.0
 40
8.0
 40
8.0
 40
9.0
 40
9.0
 40
9.0
 40
10.0
 40
10.0
 40
10.0
 40
11.0
 40
11.0
 40
11.0
 40
12.0
 40
12.0
 40
12.0
 40
13.0
 40
13.0
 40
13.0
 40
14.0
 40
14.0
 40
14.0
 40
15.0
 40
15.0
 40
15.0
 40
16.0
 40
16.0
 40
16.0
 40
16.0
 10
92.55386824943098
 20
-158.9332790401278
 10
92.47532007236728
 20
-158.9332790401278
 10
92.37403426510095
 20
-158.9163980722501
 10
92.27205943873754
 20
-158.8530083153215
 10
92.09877113582948
 20
-158.743109769342
 10
92.07775605336946
 20
-158.611851631354
 10
92.05846351865206
 20
-158.5040201426657
 10
92.05846351865206
 20
-158.5040201426657
 10
92.28067217745067
 20
-158.5040201426657
 10
92.28067217745067
 20
-158.5040201426657
 10
92.33579370521467
 20
-158.7028021521646
 10
92.46291772862038
 20
-158.7324299733377
 10
92.55593530672213
 20
-158.7324299733377
 10
92.69546167387475
 20
-158.7324299733377
 10
92.8477348943228
 20
-158.632866713814
 10
92.8477348943228
 20
-158.4003227685596
 10
92.8477348943228
 20
-158.1443521740056
 10
92.66790090999275
 20
-158.074416735655
 10
92.54732256800901
 20
-158.074416735655
 10
92.51562768954471
 20
-158.074416735655
 10
92.37403426510095
 20
-158.074416735655
 10
92.2851508015815
 20
-158.2036078163519
 10
92.2851508015815
 20
-158.2036078163519
 10
92.10945093183375
 20
-158.184659791183
 10
92.10945093183375
 20
-158.184659791183
 10
92.10945093183375
 20
-158.184659791183
 10
92.2300292738175
 20
-157.3381998304571
 10
92.2300292738175
 20
-157.3381998304571
 10
92.2300292738175
 20
-157.3381998304571
 10
93.00862085348396
 20
-157.3381998304571
 10
93.00862085348396
 20
-157.3381998304571
 10
93.00862085348396
 20
-157.3381998304571
 10
93.00862085348396
 20
-157.5328477253737
 10
93.00862085348396
 20
-157.5328477253737
 10
93.00862085348396
 20
-157.5328477253737
 10
92.39263778072129
 20
-157.5328477253737
 10
92.39263778072129
 20
-157.5328477253737
 10
92.39263778072129
 20
-157.5328477253737
 10
92.32718096650154
 20
-157.9559054509624
 10
92.32718096650154
 20
-157.9559054509624
 10
92.38850366613899
 20
-157.922143515207
 10
92.47118595778498
 20
-157.8818358980295
 10
92.58969724247758
 20
-157.8818358980295
 10
92.84325627019197
 20
-157.8818358980295
 10
93.08027883957716
 20
-158.0682155637816
 10
93.08027883957716
 20
-158.3813747433908
 10
93.08027883957716
 20
-158.6986680375823
 10
92.85634763303592
 20
-158.9332790401278
 10
92.55386824943098
 20
-158.9332790401278
 97
        0
 97
        0
 75
     2
 76
     1
 98
        0
  0
SPLINE
  5
10D
330
107
100
AcDbEntity
  8
_U+30EC_U+30A4_U+30E4_U+30FC 1
370
     0
100
AcDbSpline
210
0.0
220
0.0
230
1.0
 70
    11
 71
     3
 72
    62
 73
    58
 74
     0
 42
0.0000000001
 43
0.0000000001
 12
1.0
 22
0.0
 32
0.0
 13
1.0
 23
0.0
 33
0.0
 40
0.0
 40
0.0
 40
0.0
 40
0.0
 40
1.0
 40
1.0
 40
1.0
 40
2.0
 40
2.0
 40
2.0
 40
3.0
 40
3.0
 40
3.0
 40
4.0
 40
4.0
 40
4.0
 40
5.0
 40
5.0
 40
5.0
 40
6.0
 40
6.0
 40
6.0
 40
7.0
 40
7.0
 40
7.0
 40
8.0
 40
8.0
 40
8.0
 40
9.0
 40
9.0
 40
9.0
 40
10.0
 40
10.0
 40
10.0
 40
11.0
 40
11.0
 40
11.0
 40
12.0
 40
12.0
 40
12.0
 40
13.0
 40
13.0
 40
13.0
 40
14.0
 40
14.0
 40
14.0
 40
15.0
 40
15.0
 40
15.0
 40
16.0
 40
16.0
 40
16.0
 40
17.0
 40
17.0
 40
17.0
 40
18.0
 40
18.0
 40
18.0
 40
19.0
 40
19.0
 40
19.0
 40
19.0
 10
93.74104815364808
 20
-158.9332790401278
 30
0.0
 10
93.64596351825519
 20
-158.9332790401278
 30
0.0
 10
93.42788897403886
 20
-158.9122639576678
 30
0.0
 10
93.30317651747282
 20
-158.7262288014643
 30
0.0
 10
93.22910696453995
 20
-158.6139186886451
 30
0.0
 10
93.22497284995765
 20
-158.5146999386699
 30
0.0
 10
93.22083873537535
 20
-158.4299505897328
 30
0.0
 10
93.22083873537535
 20
-158.4299505897328
 30
0.0
 10
93.44063582733429
 20
-158.4299505897328
 30
0.0
 10
93.44063582733429
 20
-158.4299505897328
 30
0.0
 10
93.44270288462543
 20
-158.5040201426657
 30
0.0
 10
93.45338268062972
 20
-158.7386311452112
 30
0.0
 10
93.73691403906578
 20
-158.7386311452112
 30
0.0
 10
93.87437334892725
 20
-158.7386311452112
 30
0.0
 10
94.02664656937529
 20
-158.6690402164091
 30
0.0
 10
94.02664656937529
 20
-158.4406303857371
 30
0.0
 10
94.02664656937529
 20
-158.3241861583356
 30
0.0
 10
93.98840600948901
 20
-158.2756103119936
 30
0.0
 10
93.95671113102472
 20
-158.2439154335293
 30
0.0
 10
93.88298608764038
 20
-158.1698458805964
 30
0.0
 10
93.76654186023893
 20
-158.157099027301
 30
0.0
 10
93.71142033247493
 20
-158.157099027301
 30
0.0
 10
93.69247230730605
 20
-158.157099027301
 30
0.0
 10
93.65629880471093
 20
-158.1591660845922
 30
0.0
 10
93.62873804082894
 20
-158.1633001991745
 30
0.0
 10
93.62873804082894
 20
-158.1633001991745
 30
0.0
 10
93.62873804082894
 20
-157.9686523042578
 30
0.0
 10
93.62873804082894
 20
-157.9686523042578
 30
0.0
 10
93.6669786007152
 20
-157.9751979856798
 30
0.0
 10
93.70935327518377
 20
-157.977265042971
 30
0.0
 10
93.71555444705723
 20
-157.977265042971
 30
0.0
 10
93.78101126127697
 20
-157.977265042971
 30
0.0
 10
93.98013778032441
 20
-157.9559054509624
 30
0.0
 10
93.98013778032441
 20
-157.7192273911258
 30
0.0
 10
93.98013778032441
 20
-157.5414604640869
 30
0.0
 10
93.8488796423364
 20
-157.4863389363229
 30
0.0
 10
93.73898109635692
 20
-157.4863389363229
 30
0.0
 10
93.47439776308974
 20
-157.4863389363229
 30
0.0
 10
93.46612953392514
 20
-157.7192273911258
 30
0.0
 10
93.46199541934284
 20
-157.790885377219
 30
0.0
 10
93.46199541934284
 20
-157.790885377219
 30
0.0
 10
93.2587347857131
 20
-157.790885377219
 30
0.0
 10
93.2587347857131
 20
-157.790885377219
 30
0.0
 10
93.2670030148777
 20
-157.6661729206529
 30
0.0
 10
93.2945637787597
 20
-157.2896239841151
 30
0.0
 10
93.75138344010382
 20
-157.2896239841151
 30
0.0
 10
93.97600366574211
 20
-157.2896239841151
 30
0.0
 10
94.2171603497096
 20
-157.4167480075208
 30
0.0
 10
94.2171603497096
 20
-157.7126817097038
 30
0.0
 10
94.2171603497096
 20
-157.8990613754558
 30
0.0
 10
94.12207571431671
 20
-157.9813991575533
 30
0.0
 10
94.02216794524446
 20
-158.0427218571907
 30
0.0
 10
94.08383515443043
 20
-158.0702826210727
 30
0.0
 10
94.26573619605162
 20
-158.150553345879
 30
0.0
 10
94.26573619605162
 20
-158.4278835324417
 30
0.0
 10
94.26573619605162
 20
-158.7661919090932
 30
0.0
 10
94.01803383066216
 20
-158.9332790401278
 30
0.0
 10
93.74104815364808
 20
-158.9332790401278
 30
0.0
  0
HATCH
  5
10E
330
107
100
AcDbEntity
  8
_U+30EC_U+30A4_U+30E4_U+30FC 1
 62
   179
420
  2234388
100
AcDbHatch
 10
0.0
 20
0.0
 30
0.0
210
0.0
220
0.0
230
1.0
  2
SOLID
 70
     1
 71
     0
 91
        1
 92
        1
 93
        1
 72
     4
 94
        3
 73
     0
 74
     1
 95
       62
 96
       58
 40
0.0
 40
0.0
 40
0.0
 40
0.0
 40
1.0
 40
1.0
 40
1.0
 40
2.0
 40
2.0
 40
2.0
 40
3.0
 40
3.0
 40
3.0
 40
4.0
 40
4.0
 40
4.0
 40
5.0
 40
5.0
 40
5.0
 40
6.0
 40
6.0
 40
6.0
 40
7.0
 40
7.0
 40
7.0
 40
8.0
 40
8.0
 40
8.0
 40
9.0
 40
9.0
 40
9.0
 40
10.0
 40
10.0
 40
10.0
 40
11.0
 40
11.0
 40
11.0
 40
12.0
 40
12.0
 40
12.0
 40
13.0
 40
13.0
 40
13.0
 40
14.0
 40
14.0
 40
14.0
 40
15.0
 40
15.0
 40
15.0
 40
16.0
 40
16.0
 40
16.0
 40
17.0
 40
17.0
 40
17.0
 40
18.0
 40
18.0
 40
18.0
 40
19.0
 40
19.0
 40
19.0
 40
19.0
 10
93.74104815364808
 20
-158.9332790401278
 10
93.64596351825519
 20
-158.9332790401278
 10
93.42788897403886
 20
-158.9122639576678
 10
93.30317651747282
 20
-158.7262288014643
 10
93.22910696453995
 20
-158.6139186886451
 10
93.22497284995765
 20
-158.5146999386699
 10
93.22083873537535
 20
-158.4299505897328
 10
93.22083873537535
 20
-158.4299505897328
 10
93.44063582733429
 20
-158.4299505897328
 10
93.44063582733429
 20
-158.4299505897328
 10
93.44270288462543
 20
-158.5040201426657
 10
93.45338268062972
 20
-158.7386311452112
 10
93.73691403906578
 20
-158.7386311452112
 10
93.87437334892725
 20
-158.7386311452112
 10
94.02664656937529
 20
-158.6690402164091
 10
94.02664656937529
 20
-158.4406303857371
 10
94.02664656937529
 20
-158.3241861583356
 10
93.98840600948901
 20
-158.2756103119936
 10
93.95671113102472
 20
-158.2439154335293
 10
93.88298608764038
 20
-158.1698458805964
 10
93.76654186023893
 20
-158.157099027301
 10
93.71142033247493
 20
-158.157099027301
 10
93.69247230730605
 20
-158.157099027301
 10
93.65629880471093
 20
-158.1591660845922
 10
93.62873804082894
 20
-158.1633001991745
 10
93.62873804082894
 20
-158.1633001991745
 10
93.62873804082894
 20
-157.9686523042578
 10
93.62873804082894
 20
-157.9686523042578
 10
93.6669786007152
 20
-157.9751979856798
 10
93.70935327518377
 20
-157.977265042971
 10
93.71555444705723
 20
-157.977265042971
 10
93.78101126127697
 20
-157.977265042971
 10
93.98013778032441
 20
-157.9559054509624
 10
93.98013778032441
 20
-157.7192273911258
 10
93.98013778032441
 20
-157.5414604640869
 10
93.8488796423364
 20
-157.4863389363229
 10
93.73898109635692
 20
-157.4863389363229
 10
93.47439776308974
 20
-157.4863389363229
 10
93.46612953392514
 20
-157.7192273911258
 10
93.46199541934284
 20
-157.790885377219
 10
93.46199541934284
 20
-157.790885377219
 10
93.2587347857131
 20
-157.790885377219
 10
93.2587347857131
 20
-157.790885377219
 10
93.2670030148777
 20
-157.6661729206529
 10
93.2945637787597
 20
-157.2896239841151
 10
93.75138344010382
 20
-157.2896239841151
 10
93.97600366574211
 20
-157.2896239841151
 10
94.2171603497096
 20
-157.4167480075208
 10
94.2171603497096
 20
-157.7126817097038
 10
94.2171603497096
 20
-157.8990613754558
 10
94.12207571431671
 20
-157.9813991575533
 10
94.02216794524446
 20
-158.0427218571907
 10
94.08383515443043
 20
-158.0702826210727
 10
94.26573619605162
 20
-158.150553345879
 10
94.26573619605162
 20
-158.4278835324417
 10
94.26573619605162
 20
-158.7661919090932
 10
94.01803383066216
 20
-158.9332790401278
 10
93.74104815364808
 20
-158.9332790401278
 97
        0
 97
        0
 75
     2
 76
     1
 98
        0
  0
ENDBLK
  5
10A
330
107
100
AcDbEntity
  8
0
100
AcDbBlockEnd
  0
BLOCK
  5
133
330
131
100
AcDbEntity
  8
0
100
AcDbBlockBegin
  2
block 7
 70
     0
 10
0.0
 20
0.0
 30
0.0
  3
block 7
  1

  0
SPLINE
  5
135
330
131
100
AcDbEntity
  8
_U+30EC_U+30A4_U+30E4_U+30FC 1
370
     0
100
AcDbSpline
210
0.0
220
0.0
230
1.0
 70
    11
 71
     3
 72
   242
 73
   238
 74
     0
 42
0.0000000001
 43
0.0000000001
 12
1.0
 22
0.0
 32
0.0
 13
1.0
 23
0.0
 33
0.0
 40
0.0
 40
0.0
 40
0.0
 40
0.0
 40
1.0
 40
1.0
 40
1.0
 40
2.0
 40
2.0
 40
2.0
 40
3.0
 40
3.0
 40
3.0
 40
4.0
 40
4.0
 40
4.0
 40
5.0
 40
5.0
 40
5.0
 40
6.0
 40
6.0
 40
6.0
 40
7.0
 40
7.0
 40
7.0
 40
8.0
 40
8.0
 40
8.0
 40
9.0
 40
9.0
 40
9.0
 40
10.0
 40
10.0
 40
10.0
 40
11.0
 40
11.0
 40
11.0
 40
12.0
 40
12.0
 40
12.0
 40
13.0
 40
13.0
 40
13.0
 40
14.0
 40
14.0
 40
14.0
 40
15.0
 40
15.0
 40
15.0
 40
16.0
 40
16.0
 40
16.0
 40
17.0
 40
17.0
 40
17.0
 40
18.0
 40
18.0
 40
18.0
 40
19.0
 40
19.0
 40
19.0
 40
20.0
 40
20.0
 40
20.0
 40
21.0
 40
21.0
 40
21.0
 40
22.0
 40
22.0
 40
22.0
 40
23.0
 40
23.0
 40
23.0
 40
24.0
 40
24.0
 40
24.0
 40
25.0
 40
25.0
 40
25.0
 40
26.0
 40
26.0
 40
26.0
 40
27.0
 40
27.0
 40
27.0
 40
28.0
 40
28.0
 40
28.0
 40
29.0
 40
29.0
 40
29.0
 40
30.0
 40
30.0
 40
30.0
 40
31.0
 40
31.0
 40
31.0
 40
32.0
 40
32.0
 40
32.0
 40
33.0
 40
33.0
 40
33.0
 40
34.0
 40
34.0
 40
34.0
 40
35.0
 40
35.0
 40
35.0
 40
36.0
 40
36.0
 40
36.0
 40
37.0
 40
37.0
 40
37.0
 40
38.0
 40
38.0
 40
38.0
 40
39.0
 40
39.0
 40
39.0
 40
40.0
 40
40.0
 40
40.0
 40
41.0
 40
41.0
 40
41.0
 40
42.0
 40
42.0
 40
42.0
 40
43.0
 40
43.0
 40
43.0
 40
44.0
 40
44.0
 40
44.0
 40
45.0
 40
45.0
 40
45.0
 40
46.0
 40
46.0
 40
46.0
 40
47.0
 40
47.0
 40
47.0
 40
48.0
 40
48.0
 40
48.0
 40
49.0
 40
49.0
 40
49.0
 40
50.0
 40
50.0
 40
50.0
 40
51.0
 40
51.0
 40
51.0
 40
52.0
 40
52.0
 40
52.0
 40
53.0
 40
53.0
 40
53.0
 40
54.0
 40
54.0
 40
54.0
 40
55.0
 40
55.0
 40
55.0
 40
56.0
 40
56.0
 40
56.0
 40
57.0
 40
57.0
 40
57.0
 40
58.0
 40
58.0
 40
58.0
 40
59.0
 40
59.0
 40
59.0
 40
60.0
 40
60.0
 40
60.0
 40
61.0
 40
61.0
 40
61.0
 40
62.0
 40
62.0
 40
62.0
 40
63.0
 40
63.0
 40
63.0
 40
64.0
 40
64.0
 40
64.0
 40
65.0
 40
65.0
 40
65.0
 40
66.0
 40
66.0
 40
66.0
 40
67.0
 40
67.0
 40
67.0
 40
68.0
 40
68.0
 40
68.0
 40
69.0
 40
69.0
 40
69.0
 40
70.0
 40
70.0
 40
70.0
 40
71.0
 40
71.0
 40
71.0
 40
72.0
 40
72.0
 40
72.0
 40
73.0
 40
73.0
 40
73.0
 40
74.0
 40
74.0
 40
74.0
 40
75.0
 40
75.0
 40
75.0
 40
76.0
 40
76.0
 40
76.0
 40
77.0
 40
77.0
 40
77.0
 40
78.0
 40
78.0
 40
78.0
 40
79.0
 40
79.0
 40
79.0
 40
79.0
 10
106.1092854552435
 20
-109.4418985728999
 30
0.0
 10
106.1092854552435
 20
-109.4418985728999
 30
0.0
 10
105.8867322868964
 20
-109.4418985728999
 30
0.0
 10
105.8867322868964
 20
-109.4418985728999
 30
0.0
 10
105.8867322868964
 20
-109.4418985728999
 30
0.0
 10
105.6441975647348
 20
-109.4418985728999
 30
0.0
 10
105.6441975647348
 20
-109.4418985728999
 30
0.0
 10
105.6441975647348
 20
-109.4418985728999
 30
0.0
 10
105.7554741489084
 20
-109.4842732473685
 30
0.0
 10
105.7554741489084
 20
-109.4842732473685
 30
0.0
 10
105.7647759067185
 20
-109.4885796167251
 30
0.0
 10
105.7758002122713
 20
-109.4947807885985
 30
0.0
 10
105.7758002122713
 20
-109.507527641894
 30
0.0
 10
105.7758002122713
 20
-109.5287149791282
 30
0.0
 10
105.7478949388408
 20
-109.535088405776
 30
0.0
 10
105.729635932769
 20
-109.5392225203583
 30
0.0
 10
105.7203341749588
 20
-109.5624769148837
 30
0.0
 10
105.6944959588194
 20
-109.6281059838777
 30
0.0
 10
105.6776149909417
 20
-109.6725477156374
 30
0.0
 10
105.6776149909417
 20
-109.6725477156374
 30
0.0
 10
105.9146375603269
 20
-109.6725477156374
 30
0.0
 10
105.9146375603269
 20
-109.6725477156374
 30
0.0
 10
105.9942192660362
 20
-109.6725477156374
 30
0.0
 10
106.1664740402987
 20
-109.6682413462809
 30
0.0
 10
106.2904974777677
 20
-109.659800862342
 30
0.0
 10
106.2904974777677
 20
-109.659800862342
 30
0.0
 10
106.2904974777677
 20
-109.8375677893809
 30
0.0
 10
106.2904974777677
 20
-109.8375677893809
 30
0.0
 10
106.2184949821259
 20
-109.8332614200243
 30
0.0
 10
106.1998914665056
 20
-109.8332614200243
 30
0.0
 10
106.0424506028297
 20
-109.829127305442
 30
0.0
 10
106.0145453293991
 20
-109.9834675831812
 30
0.0
 10
105.9756157504158
 20
-110.0639105627618
 30
0.0
 10
105.937030680981
 20
-110.1336737463381
 30
0.0
 10
106.0424506028297
 20
-110.1929293886844
 30
0.0
 10
106.1351236713829
 20
-110.2606255149696
 30
0.0
 10
106.225729682645
 20
-110.3431355518413
 30
0.0
 10
106.225729682645
 20
-110.3431355518413
 30
0.0
 10
106.1220323085389
 20
-110.5102226828759
 30
0.0
 10
106.1220323085389
 20
-110.5102226828759
 30
0.0
 10
106.101706245176
 20
-110.4912746577071
 30
0.0
 10
106.0906819396232
 20
-110.4828341737682
 30
0.0
 10
105.9924967182936
 20
-110.398084824831
 30
0.0
 10
105.9497775342764
 20
-110.360016519719
 30
0.0
 10
105.8981011019977
 20
-110.3241875266724
 30
0.0
 10
105.8274766445501
 20
-110.2797457949127
 30
0.0
 10
105.6424750169922
 20
-110.4659532058905
 30
0.0
 10
105.4629855422106
 20
-110.4892076004159
 30
0.0
 10
105.2090820049477
 20
-110.518835421589
 30
0.0
 10
105.2090820049477
 20
-110.518835421589
 30
0.0
 10
105.1184759936857
 20
-110.339001437259
 30
0.0
 10
105.1184759936857
 20
-110.339001437259
 30
0.0
 10
105.3961506897968
 20
-110.3346950679024
 30
0.0
 10
105.5498019484389
 20
-110.3093736160858
 30
0.0
 10
105.6831271437181
 20
-110.1993028153321
 30
0.0
 10
105.5794297696121
 20
-110.1484876569247
 30
0.0
 10
105.5015706116454
 20
-110.1210991478169
 30
0.0
 10
105.4702202427297
 20
-110.1083522945215
 30
0.0
 10
105.4536837844005
 20
-110.1359130584035
 30
0.0
 10
105.4405924215565
 20
-110.1548610835724
 30
0.0
 10
105.4164767531598
 20
-110.1887952741021
 30
0.0
 10
105.4164767531598
 20
-110.1887952741021
 30
0.0
 10
105.2442219788973
 20
-110.1062852372304
 30
0.0
 10
105.2442219788973
 20
-110.1062852372304
 30
0.0
 10
105.3165689840875
 20
-110.0258422576498
 30
0.0
 10
105.3703124736574
 20
-109.9305853674826
 30
0.0
 10
105.4202663581935
 20
-109.829127305442
 30
0.0
 10
105.2535237367075
 20
-109.8332614200243
 30
0.0
 10
105.2349202210871
 20
-109.8332614200243
 30
0.0
 10
105.1629177254454
 20
-109.8375677893809
 30
0.0
 10
105.1629177254454
 20
-109.8375677893809
 30
0.0
 10
105.1629177254454
 20
-109.659800862342
 30
0.0
 10
105.1629177254454
 20
-109.659800862342
 30
0.0
 10
105.2852186151718
 20
-109.6661742889897
 30
0.0
 10
105.4684976949871
 20
-109.6704806583463
 30
0.0
 10
105.4905463060926
 20
-109.6704806583463
 30
0.0
 10
105.5053602166792
 20
-109.6365464678166
 30
0.0
 10
105.5535915534727
 20
-109.5159681258328
 30
0.0
 10
105.5701280118019
 20
-109.4418985728999
 30
0.0
 10
105.5535915534727
 20
-109.4418985728999
 30
0.0
 10
105.398217747088
 20
-109.4482719995477
 30
0.0
 10
105.2276855205681
 20
-109.4610188528431
 30
0.0
 10
105.2276855205681
 20
-109.4610188528431
 30
0.0
 10
105.2276855205681
 20
-109.5943440481223
 30
0.0
 10
105.2276855205681
 20
-109.5943440481223
 30
0.0
 10
105.184966336551
 20
-109.6196654999388
 30
0.0
 10
105.1332899042722
 20
-109.6513603784031
 30
0.0
 10
105.0165011673223
 20
-109.7169894473971
 30
0.0
 10
105.0165011673223
 20
-109.7169894473971
 30
0.0
 10
105.0165011673223
 20
-109.8628892411975
 30
0.0
 10
105.0165011673223
 20
-109.8628892411975
 30
0.0
 10
105.0165011673223
 20
-109.8628892411975
 30
0.0
 10
105.0165011673223
 20
-110.3305609533201
 30
0.0
 10
105.0165011673223
 20
-110.3305609533201
 30
0.0
 10
105.0165011673223
 20
-110.4573404671773
 30
0.0
 10
104.9851507984065
 20
-110.5165961095236
 30
0.0
 10
104.7371039234685
 20
-110.5081556255848
 30
0.0
 10
104.7371039234685
 20
-110.5081556255848
 30
0.0
 10
104.6461534026579
 20
-110.300933132147
 30
0.0
 10
104.6461534026579
 20
-110.300933132147
 30
0.0
 10
104.7016194399704
 20
-110.3135077306681
 30
0.0
 10
104.7443386239875
 20
-110.3178141000247
 30
0.0
 10
104.7794785979371
 20
-110.3178141000247
 30
0.0
 10
104.8463134503509
 20
-110.3178141000247
 30
0.0
 10
104.8556152081611
 20
-110.2945597054993
 30
0.0
 10
104.8556152081611
 20
-110.2289306365053
 30
0.0
 10
104.8556152081611
 20
-110.2289306365053
 30
0.0
 10
104.8556152081611
 20
-109.7994994842689
 30
0.0
 10
104.8556152081611
 20
-109.7994994842689
 30
0.0
 10
104.7701768401269
 20
-109.839634846672
 30
0.0
 10
104.7553629295403
 20
-109.8460082733198
 30
0.0
 10
104.7147108028144
 20
-109.8651285532629
 30
0.0
 10
104.7109211977806
 20
-109.8861436357229
 30
0.0
 10
104.7074761022954
 20
-109.9157714568961
 30
0.0
 10
104.6905951344176
 20
-109.9157714568961
 30
0.0
 10
104.6833604338986
 20
-109.9157714568961
 30
0.0
 10
104.6740586760884
 20
-109.9116373423138
 30
0.0
 10
104.668546523312
 20
-109.8883829477883
 30
0.0
 10
104.668546523312
 20
-109.8883829477883
 30
0.0
 10
104.6220377342612
 20
-109.6958021101629
 30
0.0
 10
104.6220377342612
 20
-109.6958021101629
 30
0.0
 10
104.7498507767639
 20
-109.649293321112
 30
0.0
 10
104.8073838713676
 20
-109.6260389265865
 30
0.0
 10
104.8556152081611
 20
-109.6048515893523
 30
0.0
 10
104.8556152081611
 20
-109.6048515893523
 30
0.0
 10
104.8556152081611
 20
-109.1923014049936
 30
0.0
 10
104.8556152081611
 20
-109.1923014049936
 30
0.0
 10
104.8556152081611
 20
-109.1923014049936
 30
0.0
 10
104.8091064191102
 20
-109.1923014049936
 30
0.0
 10
104.8091064191102
 20
-109.1923014049936
 30
0.0
 10
104.8091064191102
 20
-109.1923014049936
 30
0.0
 10
104.7405490189538
 20
-109.1923014049936
 30
0.0
 10
104.7405490189538
 20
-109.1923014049936
 30
0.0
 10
104.6812933766075
 20
-109.1923014049936
 30
0.0
 10
104.6740586760884
 20
-109.1923014049936
 30
0.0
 10
104.6423637976241
 20
-109.1986748316413
 30
0.0
 10
104.6423637976241
 20
-109.1986748316413
 30
0.0
 10
104.6423637976241
 20
-109.0040269367247
 30
0.0
 10
104.6423637976241
 20
-109.0040269367247
 30
0.0
 10
104.6664794660209
 20
-109.0104003633724
 30
0.0
 10
104.6740586760884
 20
-109.0104003633724
 30
0.0
 10
104.7350368661774
 20
-109.0104003633724
 30
0.0
 10
104.7350368661774
 20
-109.0104003633724
 30
0.0
 10
104.8518256031273
 20
-109.0104003633724
 30
0.0
 10
104.8518256031273
 20
-109.0104003633724
 30
0.0
 10
104.8518256031273
 20
-108.9406371797961
 30
0.0
 10
104.8518256031273
 20
-108.8581271429244
 30
0.0
 10
104.8497585458362
 20
-108.8538207735678
 30
0.0
 10
104.8425238453171
 20
-108.6739867892378
 30
0.0
 10
104.8425238453171
 20
-108.6550387640689
 30
0.0
 10
104.8408012975745
 20
-108.608529975018
 30
0.0
 10
104.8408012975745
 20
-108.608529975018
 30
0.0
 10
105.0295925301662
 20
-108.6169704589569
 30
0.0
 10
105.0295925301662
 20
-108.6169704589569
 30
0.0
 10
105.0388942879764
 20
-108.6169704589569
 30
0.0
 10
105.0571532940482
 20
-108.619037516248
 30
0.0
 10
105.0571532940482
 20
-108.6359184841258
 30
0.0
 10
105.0571532940482
 20
-108.6550387640689
 30
0.0
 10
105.0444064407528
 20
-108.6655463052989
 30
0.0
 10
105.0220133200987
 20
-108.684666585242
 30
0.0
 10
105.0220133200987
 20
-108.7353094888752
 30
0.0
 10
105.0165011673223
 20
-108.9638915743215
 30
0.0
 10
105.0185682246134
 20
-109.0104003633724
 30
0.0
 10
105.1315673565296
 20
-109.0104003633724
 30
0.0
 10
105.1425916620824
 20
-109.0104003633724
 30
0.0
 10
105.2276855205681
 20
-109.0019598794335
 30
0.0
 10
105.2276855205681
 20
-109.0019598794335
 30
0.0
 10
105.2276855205681
 20
-109.1966077743502
 30
0.0
 10
105.2276855205681
 20
-109.1966077743502
 30
0.0
 10
105.1942680943612
 20
-109.1943684622847
 30
0.0
 10
105.1350124520149
 20
-109.1902343477024
 30
0.0
 10
105.0165011673223
 20
-109.1923014049936
 30
0.0
 10
105.0165011673223
 20
-109.1923014049936
 30
0.0
 10
105.0165011673223
 20
-109.5307820364194
 30
0.0
 10
105.0165011673223
 20
-109.5307820364194
 30
0.0
 10
105.0647325041158
 20
-109.507527641894
 30
0.0
 10
105.1222655987194
 20
-109.479966878012
 30
0.0
 10
105.164640273188
 20
-109.4567124834865
 30
0.0
 10
105.164640273188
 20
-109.4567124834865
 30
0.0
 10
105.164640273188
 20
-109.2791178112219
 30
0.0
 10
105.164640273188
 20
-109.2791178112219
 30
0.0
 10
105.2645480422603
 20
-109.291692409743
 30
0.0
 10
105.3685899259148
 20
-109.291692409743
 30
0.0
 10
105.4702202427297
 20
-109.291692409743
 30
0.0
 10
105.4498941793667
 20
-109.1966077743502
 30
0.0
 10
105.4257785109699
 20
-109.1140977374784
 30
0.0
 10
105.3703124736574
 20
-108.9807725421993
 30
0.0
 10
105.3313828946741
 20
-108.9828395994904
 30
0.0
 10
105.2590358894839
 20
-108.987145968847
 30
0.0
 10
105.2259629728255
 20
-108.9892130261381
 30
0.0
 10
105.2259629728255
 20
-108.9892130261381
 30
0.0
 10
105.2259629728255
 20
-108.8093790418081
 30
0.0
 10
105.2259629728255
 20
-108.8093790418081
 30
0.0
 10
105.3351724997079
 20
-108.8178195257469
 30
0.0
 10
105.4871012106074
 20
-108.8221258951035
 30
0.0
 10
105.5591037062491
 20
-108.8221258951035
 30
0.0
 10
105.5591037062491
 20
-108.8221258951035
 30
0.0
 10
105.6314507114394
 20
-108.8221258951035
 30
0.0
 10
105.6314507114394
 20
-108.8221258951035
 30
0.0
 10
105.6314507114394
 20
-108.6591728786512
 30
0.0
 10
105.6314507114394
 20
-108.6486653374212
 30
0.0
 10
105.6293836541482
 20
-108.5937160644314
 30
0.0
 10
105.6293836541482
 20
-108.5937160644314
 30
0.0
 10
105.8257540968075
 20
-108.619037516248
 30
0.0
 10
105.8257540968075
 20
-108.619037516248
 30
0.0
 10
105.8295437018412
 20
-108.619037516248
 30
0.0
 10
105.8481472174616
 20
-108.6211045735392
 30
0.0
 10
105.8481472174616
 20
-108.6379855414169
 30
0.0
 10
105.8481472174616
 20
-108.6527994520035
 30
0.0
 10
105.8388454596514
 20
-108.6614121907166
 30
0.0
 10
105.8147297912546
 20
-108.6762261013032
 30
0.0
 10
105.8092176384783
 20
-108.7416829155229
 30
0.0
 10
105.8071505811871
 20
-108.7628702527572
 30
0.0
 10
105.8071505811871
 20
-108.8221258951035
 30
0.0
 10
105.8071505811871
 20
-108.8221258951035
 30
0.0
 10
105.8905218919301
 20
-108.8221258951035
 30
0.0
 10
105.8905218919301
 20
-108.8221258951035
 30
0.0
 10
105.9628688971204
 20
-108.8221258951035
 30
0.0
 10
106.1147976080199
 20
-108.8178195257469
 30
0.0
 10
106.2240071349023
 20
-108.8093790418081
 30
0.0
 10
106.2240071349023
 20
-108.8093790418081
 30
0.0
 10
106.2240071349023
 20
-108.9892130261381
 30
0.0
 10
106.2240071349023
 20
-108.9892130261381
 30
0.0
 10
106.198168918763
 20
-108.987145968847
 30
0.0
 10
106.0941270351084
 20
-108.9828395994904
 30
0.0
 10
106.0589870611589
 20
-108.9807725421993
 30
0.0
 10
106.0462402078634
 20
-109.0315877006067
 30
0.0
 10
106.0166123866903
 20
-109.1437255586516
 30
0.0
 10
105.9590792920866
 20
-109.2832519258042
 30
0.0
 10
105.9962863233273
 20
-109.2832519258042
 30
0.0
 10
106.2388210454889
 20
-109.2643039006353
 30
0.0
 10
106.2925645350588
 20
-109.2620645885699
 30
0.0
 10
106.2925645350588
 20
-109.2620645885699
 30
0.0
 10
106.2925645350588
 20
-109.4462049422565
 30
0.0
 10
106.2925645350588
 20
-109.4462049422565
 30
0.0
 10
106.2663818093709
 20
-109.4462049422565
 30
0.0
 10
106.2515678987843
 20
-109.4418985728999
 30
0.0
 10
106.1092854552435
 20
-109.4418985728999
 30
0.0
  0
SPLINE
  5
136
330
131
100
AcDbEntity
  8
_U+30EC_U+30A4_U+30E4_U+30FC 1
370
     0
100
AcDbSpline
210
0.0
220
0.0
230
1.0
 70
    11
 71
     3
 72
    20
 73
    16
 74
     0
 42
0.0000000001
 43
0.0000000001
 12
1.0
 22
0.0
 32
0.0
 13
1.0
 23
0.0
 33
0.0
 40
0.0
 40
0.0
 40
0.0
 40
0.0
 40
1.0
 40
1.0
 40
1.0
 40
2.0
 40
2.0
 40
2.0
 40
3.0
 40
3.0
 40
3.0
 40
4.0
 40
4.0
 40
4.0
 40
5.0
 40
5.0
 40
5.0
 40
5.0
 10
105.5591037062491
 20
-108.976638427617
 30
0.0
 10
105.5591037062491
 20
-108.976638427617
 30
0.0
 10
105.5311984328186
 20
-108.976638427617
 30
0.0
 10
105.5311984328186
 20
-108.976638427617
 30
0.0
 10
105.5721950690931
 20
-109.0760294323664
 30
0.0
 10
105.5997558329751
 20
-109.1563001571727
 30
0.0
 10
105.6293836541482
 20
-109.2832519258042
 30
0.0
 10
105.6293836541482
 20
-109.2832519258042
 30
0.0
 10
105.8109401862209
 20
-109.2832519258042
 30
0.0
 10
105.8109401862209
 20
-109.2832519258042
 30
0.0
 10
105.8388454596514
 20
-109.1902343477024
 30
0.0
 10
105.8591715230144
 20
-109.1056572535396
 30
0.0
 10
105.8794975863774
 20
-108.976638427617
 30
0.0
 10
105.8794975863774
 20
-108.976638427617
 30
0.0
 10
105.5591037062491
 20
-108.976638427617
 30
0.0
 10
105.5591037062491
 20
-108.976638427617
 30
0.0
  0
SPLINE
  5
137
330
131
100
AcDbEntity
  8
_U+30EC_U+30A4_U+30E4_U+30FC 1
370
     0
100
AcDbSpline
210
0.0
220
0.0
230
1.0
 70
    11
 71
     3
 72
    17
 73
    13
 74
     0
 42
0.0000000001
 43
0.0000000001
 12
1.0
 22
0.0
 32
0.0
 13
1.0
 23
0.0
 33
0.0
 40
0.0
 40
0.0
 40
0.0
 40
0.0
 40
1.0
 40
1.0
 40
1.0
 40
2.0
 40
2.0
 40
2.0
 40
3.0
 40
3.0
 40
3.0
 40
4.0
 40
4.0
 40
4.0
 40
4.0
 10
105.6145697435616
 20
-109.8270602481509
 30
0.0
 10
105.5997558329751
 20
-109.8565158145498
 30
0.0
 10
105.5553141012153
 20
-109.9497056474258
 30
0.0
 10
105.5463568529537
 20
-109.9686536725946
 30
0.0
 10
105.7127549648913
 20
-110.0279093149409
 30
0.0
 10
105.7313584805116
 20
-110.0342827415887
 30
0.0
 10
105.7944037278917
 20
-110.0618435054707
 30
0.0
 10
105.8426350646852
 20
-109.9750270992424
 30
0.0
 10
105.8629611280482
 20
-109.9009575463095
 30
0.0
 10
105.8757079813436
 20
-109.8270602481509
 30
0.0
 10
105.8757079813436
 20
-109.8270602481509
 30
0.0
 10
105.6145697435616
 20
-109.8270602481509
 30
0.0
 10
105.6145697435616
 20
-109.8270602481509
 30
0.0
  0
HATCH
  5
138
330
131
100
AcDbEntity
  8
_U+30EC_U+30A4_U+30E4_U+30FC 1
 62
   179
420
  2234388
100
AcDbHatch
 10
0.0
 20
0.0
 30
0.0
210
0.0
220
0.0
230
1.0
  2
SOLID
 70
     1
 71
     0
 91
        3
 92
        1
 93
        1
 72
     4
 94
        3
 73
     0
 74
     1
 95
      242
 96
      238
 40
0.0
 40
0.0
 40
0.0
 40
0.0
 40
1.0
 40
1.0
 40
1.0
 40
2.0
 40
2.0
 40
2.0
 40
3.0
 40
3.0
 40
3.0
 40
4.0
 40
4.0
 40
4.0
 40
5.0
 40
5.0
 40
5.0
 40
6.0
 40
6.0
 40
6.0
 40
7.0
 40
7.0
 40
7.0
 40
8.0
 40
8.0
 40
8.0
 40
9.0
 40
9.0
 40
9.0
 40
10.0
 40
10.0
 40
10.0
 40
11.0
 40
11.0
 40
11.0
 40
12.0
 40
12.0
 40
12.0
 40
13.0
 40
13.0
 40
13.0
 40
14.0
 40
14.0
 40
14.0
 40
15.0
 40
15.0
 40
15.0
 40
16.0
 40
16.0
 40
16.0
 40
17.0
 40
17.0
 40
17.0
 40
18.0
 40
18.0
 40
18.0
 40
19.0
 40
19.0
 40
19.0
 40
20.0
 40
20.0
 40
20.0
 40
21.0
 40
21.0
 40
21.0
 40
22.0
 40
22.0
 40
22.0
 40
23.0
 40
23.0
 40
23.0
 40
24.0
 40
24.0
 40
24.0
 40
25.0
 40
25.0
 40
25.0
 40
26.0
 40
26.0
 40
26.0
 40
27.0
 40
27.0
 40
27.0
 40
28.0
 40
28.0
 40
28.0
 40
29.0
 40
29.0
 40
29.0
 40
30.0
 40
30.0
 40
30.0
 40
31.0
 40
31.0
 40
31.0
 40
32.0
 40
32.0
 40
32.0
 40
33.0
 40
33.0
 40
33.0
 40
34.0
 40
34.0
 40
34.0
 40
35.0
 40
35.0
 40
35.0
 40
36.0
 40
36.0
 40
36.0
 40
37.0
 40
37.0
 40
37.0
 40
38.0
 40
38.0
 40
38.0
 40
39.0
 40
39.0
 40
39.0
 40
40.0
 40
40.0
 40
40.0
 40
41.0
 40
41.0
 40
41.0
 40
42.0
 40
42.0
 40
42.0
 40
43.0
 40
43.0
 40
43.0
 40
44.0
 40
44.0
 40
44.0
 40
45.0
 40
45.0
 40
45.0
 40
46.0
 40
46.0
 40
46.0
 40
47.0
 40
47.0
 40
47.0
 40
48.0
 40
48.0
 40
48.0
 40
49.0
 40
49.0
 40
49.0
 40
50.0
 40
50.0
 40
50.0
 40
51.0
 40
51.0
 40
51.0
 40
52.0
 40
52.0
 40
52.0
 40
53.0
 40
53.0
 40
53.0
 40
54.0
 40
54.0
 40
54.0
 40
55.0
 40
55.0
 40
55.0
 40
56.0
 40
56.0
 40
56.0
 40
57.0
 40
57.0
 40
57.0
 40
58.0
 40
58.0
 40
58.0
 40
59.0
 40
59.0
 40
59.0
 40
60.0
 40
60.0
 40
60.0
 40
61.0
 40
61.0
 40
61.0
 40
62.0
 40
62.0
 40
62.0
 40
63.0
 40
63.0
 40
63.0
 40
64.0
 40
64.0
 40
64.0
 40
65.0
 40
65.0
 40
65.0
 40
66.0
 40
66.0
 40
66.0
 40
67.0
 40
67.0
 40
67.0
 40
68.0
 40
68.0
 40
68.0
 40
69.0
 40
69.0
 40
69.0
 40
70.0
 40
70.0
 40
70.0
 40
71.0
 40
71.0
 40
71.0
 40
72.0
 40
72.0
 40
72.0
 40
73.0
 40
73.0
 40
73.0
 40
74.0
 40
74.0
 40
74.0
 40
75.0
 40
75.0
 40
75.0
 40
76.0
 40
76.0
 40
76.0
 40
77.0
 40
77.0
 40
77.0
 40
78.0
 40
78.0
 40
78.0
 40
79.0
 40
79.0
 40
79.0
 40
79.0
 10
106.1092854552435
 20
-109.4418985728999
 10
106.1092854552435
 20
-109.4418985728999
 10
105.8867322868964
 20
-109.4418985728999
 10
105.8867322868964
 20
-109.4418985728999
 10
105.8867322868964
 20
-109.4418985728999
 10
105.6441975647348
 20
-109.4418985728999
 10
105.6441975647348
 20
-109.4418985728999
 10
105.6441975647348
 20
-109.4418985728999
 10
105.7554741489084
 20
-109.4842732473685
 10
105.7554741489084
 20
-109.4842732473685
 10
105.7647759067185
 20
-109.4885796167251
 10
105.7758002122713
 20
-109.4947807885985
 10
105.7758002122713
 20
-109.507527641894
 10
105.7758002122713
 20
-109.5287149791282
 10
105.7478949388408
 20
-109.535088405776
 10
105.729635932769
 20
-109.5392225203583
 10
105.7203341749588
 20
-109.5624769148837
 10
105.6944959588194
 20
-109.6281059838777
 10
105.6776149909417
 20
-109.6725477156374
 10
105.6776149909417
 20
-109.6725477156374
 10
105.9146375603269
 20
-109.6725477156374
 10
105.9146375603269
 20
-109.6725477156374
 10
105.9942192660362
 20
-109.6725477156374
 10
106.1664740402987
 20
-109.6682413462809
 10
106.2904974777677
 20
-109.659800862342
 10
106.2904974777677
 20
-109.659800862342
 10
106.2904974777677
 20
-109.8375677893809
 10
106.2904974777677
 20
-109.8375677893809
 10
106.2184949821259
 20
-109.8332614200243
 10
106.1998914665056
 20
-109.8332614200243
 10
106.0424506028297
 20
-109.829127305442
 10
106.0145453293991
 20
-109.9834675831812
 10
105.9756157504158
 20
-110.0639105627618
 10
105.937030680981
 20
-110.1336737463381
 10
106.0424506028297
 20
-110.1929293886844
 10
106.1351236713829
 20
-110.2606255149696
 10
106.225729682645
 20
-110.3431355518413
 10
106.225729682645
 20
-110.3431355518413
 10
106.1220323085389
 20
-110.5102226828759
 10
106.1220323085389
 20
-110.5102226828759
 10
106.101706245176
 20
-110.4912746577071
 10
106.0906819396232
 20
-110.4828341737682
 10
105.9924967182936
 20
-110.398084824831
 10
105.9497775342764
 20
-110.360016519719
 10
105.8981011019977
 20
-110.3241875266724
 10
105.8274766445501
 20
-110.2797457949127
 10
105.6424750169922
 20
-110.4659532058905
 10
105.4629855422106
 20
-110.4892076004159
 10
105.2090820049477
 20
-110.518835421589
 10
105.2090820049477
 20
-110.518835421589
 10
105.1184759936857
 20
-110.339001437259
 10
105.1184759936857
 20
-110.339001437259
 10
105.3961506897968
 20
-110.3346950679024
 10
105.5498019484389
 20
-110.3093736160858
 10
105.6831271437181
 20
-110.1993028153321
 10
105.5794297696121
 20
-110.1484876569247
 10
105.5015706116454
 20
-110.1210991478169
 10
105.4702202427297
 20
-110.1083522945215
 10
105.4536837844005
 20
-110.1359130584035
 10
105.4405924215565
 20
-110.1548610835724
 10
105.4164767531598
 20
-110.1887952741021
 10
105.4164767531598
 20
-110.1887952741021
 10
105.2442219788973
 20
-110.1062852372304
 10
105.2442219788973
 20
-110.1062852372304
 10
105.3165689840875
 20
-110.0258422576498
 10
105.3703124736574
 20
-109.9305853674826
 10
105.4202663581935
 20
-109.829127305442
 10
105.2535237367075
 20
-109.8332614200243
 10
105.2349202210871
 20
-109.8332614200243
 10
105.1629177254454
 20
-109.8375677893809
 10
105.1629177254454
 20
-109.8375677893809
 10
105.1629177254454
 20
-109.659800862342
 10
105.1629177254454
 20
-109.659800862342
 10
105.2852186151718
 20
-109.6661742889897
 10
105.4684976949871
 20
-109.6704806583463
 10
105.4905463060926
 20
-109.6704806583463
 10
105.5053602166792
 20
-109.6365464678166
 10
105.5535915534727
 20
-109.5159681258328
 10
105.5701280118019
 20
-109.4418985728999
 10
105.5535915534727
 20
-109.4418985728999
 10
105.398217747088
 20
-109.4482719995477
 10
105.2276855205681
 20
-109.4610188528431
 10
105.2276855205681
 20
-109.4610188528431
 10
105.2276855205681
 20
-109.5943440481223
 10
105.2276855205681
 20
-109.5943440481223
 10
105.184966336551
 20
-109.6196654999388
 10
105.1332899042722
 20
-109.6513603784031
 10
105.0165011673223
 20
-109.7169894473971
 10
105.0165011673223
 20
-109.7169894473971
 10
105.0165011673223
 20
-109.8628892411975
 10
105.0165011673223
 20
-109.8628892411975
 10
105.0165011673223
 20
-109.8628892411975
 10
105.0165011673223
 20
-110.3305609533201
 10
105.0165011673223
 20
-110.3305609533201
 10
105.0165011673223
 20
-110.4573404671773
 10
104.9851507984065
 20
-110.5165961095236
 10
104.7371039234685
 20
-110.5081556255848
 10
104.7371039234685
 20
-110.5081556255848
 10
104.6461534026579
 20
-110.300933132147
 10
104.6461534026579
 20
-110.300933132147
 10
104.7016194399704
 20
-110.3135077306681
 10
104.7443386239875
 20
-110.3178141000247
 10
104.7794785979371
 20
-110.3178141000247
 10
104.8463134503509
 20
-110.3178141000247
 10
104.8556152081611
 20
-110.2945597054993
 10
104.8556152081611
 20
-110.2289306365053
 10
104.8556152081611
 20
-110.2289306365053
 10
104.8556152081611
 20
-109.7994994842689
 10
104.8556152081611
 20
-109.7994994842689
 10
104.7701768401269
 20
-109.839634846672
 10
104.7553629295403
 20
-109.8460082733198
 10
104.7147108028144
 20
-109.8651285532629
 10
104.7109211977806
 20
-109.8861436357229
 10
104.7074761022954
 20
-109.9157714568961
 10
104.6905951344176
 20
-109.9157714568961
 10
104.6833604338986
 20
-109.9157714568961
 10
104.6740586760884
 20
-109.9116373423138
 10
104.668546523312
 20
-109.8883829477883
 10
104.668546523312
 20
-109.8883829477883
 10
104.6220377342612
 20
-109.6958021101629
 10
104.6220377342612
 20
-109.6958021101629
 10
104.7498507767639
 20
-109.649293321112
 10
104.8073838713676
 20
-109.6260389265865
 10
104.8556152081611
 20
-109.6048515893523
 10
104.8556152081611
 20
-109.6048515893523
 10
104.8556152081611
 20
-109.1923014049936
 10
104.8556152081611
 20
-109.1923014049936
 10
104.8556152081611
 20
-109.1923014049936
 10
104.8091064191102
 20
-109.1923014049936
 10
104.8091064191102
 20
-109.1923014049936
 10
104.8091064191102
 20
-109.1923014049936
 10
104.7405490189538
 20
-109.1923014049936
 10
104.7405490189538
 20
-109.1923014049936
 10
104.6812933766075
 20
-109.1923014049936
 10
104.6740586760884
 20
-109.1923014049936
 10
104.6423637976241
 20
-109.1986748316413
 10
104.6423637976241
 20
-109.1986748316413
 10
104.6423637976241
 20
-109.0040269367247
 10
104.6423637976241
 20
-109.0040269367247
 10
104.6664794660209
 20
-109.0104003633724
 10
104.6740586760884
 20
-109.0104003633724
 10
104.7350368661774
 20
-109.0104003633724
 10
104.7350368661774
 20
-109.0104003633724
 10
104.8518256031273
 20
-109.0104003633724
 10
104.8518256031273
 20
-109.0104003633724
 10
104.8518256031273
 20
-108.9406371797961
 10
104.8518256031273
 20
-108.8581271429244
 10
104.8497585458362
 20
-108.8538207735678
 10
104.8425238453171
 20
-108.6739867892378
 10
104.8425238453171
 20
-108.6550387640689
 10
104.8408012975745
 20
-108.608529975018
 10
104.8408012975745
 20
-108.608529975018
 10
105.0295925301662
 20
-108.6169704589569
 10
105.0295925301662
 20
-108.6169704589569
 10
105.0388942879764
 20
-108.6169704589569
 10
105.0571532940482
 20
-108.619037516248
 10
105.0571532940482
 20
-108.6359184841258
 10
105.0571532940482
 20
-108.6550387640689
 10
105.0444064407528
 20
-108.6655463052989
 10
105.0220133200987
 20
-108.684666585242
 10
105.0220133200987
 20
-108.7353094888752
 10
105.0165011673223
 20
-108.9638915743215
 10
105.0185682246134
 20
-109.0104003633724
 10
105.1315673565296
 20
-109.0104003633724
 10
105.1425916620824
 20
-109.0104003633724
 10
105.2276855205681
 20
-109.0019598794335
 10
105.2276855205681
 20
-109.0019598794335
 10
105.2276855205681
 20
-109.1966077743502
 10
105.2276855205681
 20
-109.1966077743502
 10
105.1942680943612
 20
-109.1943684622847
 10
105.1350124520149
 20
-109.1902343477024
 10
105.0165011673223
 20
-109.1923014049936
 10
105.0165011673223
 20
-109.1923014049936
 10
105.0165011673223
 20
-109.5307820364194
 10
105.0165011673223
 20
-109.5307820364194
 10
105.0647325041158
 20
-109.507527641894
 10
105.1222655987194
 20
-109.479966878012
 10
105.164640273188
 20
-109.4567124834865
 10
105.164640273188
 20
-109.4567124834865
 10
105.164640273188
 20
-109.2791178112219
 10
105.164640273188
 20
-109.2791178112219
 10
105.2645480422603
 20
-109.291692409743
 10
105.3685899259148
 20
-109.291692409743
 10
105.4702202427297
 20
-109.291692409743
 10
105.4498941793667
 20
-109.1966077743502
 10
105.4257785109699
 20
-109.1140977374784
 10
105.3703124736574
 20
-108.9807725421993
 10
105.3313828946741
 20
-108.9828395994904
 10
105.2590358894839
 20
-108.987145968847
 10
105.2259629728255
 20
-108.9892130261381
 10
105.2259629728255
 20
-108.9892130261381
 10
105.2259629728255
 20
-108.8093790418081
 10
105.2259629728255
 20
-108.8093790418081
 10
105.3351724997079
 20
-108.8178195257469
 10
105.4871012106074
 20
-108.8221258951035
 10
105.5591037062491
 20
-108.8221258951035
 10
105.5591037062491
 20
-108.8221258951035
 10
105.6314507114394
 20
-108.8221258951035
 10
105.6314507114394
 20
-108.8221258951035
 10
105.6314507114394
 20
-108.6591728786512
 10
105.6314507114394
 20
-108.6486653374212
 10
105.6293836541482
 20
-108.5937160644314
 10
105.6293836541482
 20
-108.5937160644314
 10
105.8257540968075
 20
-108.619037516248
 10
105.8257540968075
 20
-108.619037516248
 10
105.8295437018412
 20
-108.619037516248
 10
105.8481472174616
 20
-108.6211045735392
 10
105.8481472174616
 20
-108.6379855414169
 10
105.8481472174616
 20
-108.6527994520035
 10
105.8388454596514
 20
-108.6614121907166
 10
105.8147297912546
 20
-108.6762261013032
 10
105.8092176384783
 20
-108.7416829155229
 10
105.8071505811871
 20
-108.7628702527572
 10
105.8071505811871
 20
-108.8221258951035
 10
105.8071505811871
 20
-108.8221258951035
 10
105.8905218919301
 20
-108.8221258951035
 10
105.8905218919301
 20
-108.8221258951035
 10
105.9628688971204
 20
-108.8221258951035
 10
106.1147976080199
 20
-108.8178195257469
 10
106.2240071349023
 20
-108.8093790418081
 10
106.2240071349023
 20
-108.8093790418081
 10
106.2240071349023
 20
-108.9892130261381
 10
106.2240071349023
 20
-108.9892130261381
 10
106.198168918763
 20
-108.987145968847
 10
106.0941270351084
 20
-108.9828395994904
 10
106.0589870611589
 20
-108.9807725421993
 10
106.0462402078634
 20
-109.0315877006067
 10
106.0166123866903
 20
-109.1437255586516
 10
105.9590792920866
 20
-109.2832519258042
 10
105.9962863233273
 20
-109.2832519258042
 10
106.2388210454889
 20
-109.2643039006353
 10
106.2925645350588
 20
-109.2620645885699
 10
106.2925645350588
 20
-109.2620645885699
 10
106.2925645350588
 20
-109.4462049422565
 10
106.2925645350588
 20
-109.4462049422565
 10
106.2663818093709
 20
-109.4462049422565
 10
106.2515678987843
 20
-109.4418985728999
 10
106.1092854552435
 20
-109.4418985728999
 97
        0
 97
        0
 92
        1
 93
        1
 72
     4
 94
        3
 73
     0
 74
     1
 95
       20
 96
       16
 40
0.0
 40
0.0
 40
0.0
 40
0.0
 40
1.0
 40
1.0
 40
1.0
 40
2.0
 40
2.0
 40
2.0
 40
3.0
 40
3.0
 40
3.0
 40
4.0
 40
4.0
 40
4.0
 40
5.0
 40
5.0
 40
5.0
 40
5.0
 10
105.5591037062491
 20
-108.976638427617
 10
105.5591037062491
 20
-108.976638427617
 10
105.5311984328186
 20
-108.976638427617
 10
105.5311984328186
 20
-108.976638427617
 10
105.5721950690931
 20
-109.0760294323664
 10
105.5997558329751
 20
-109.1563001571727
 10
105.6293836541482
 20
-109.2832519258042
 10
105.6293836541482
 20
-109.2832519258042
 10
105.8109401862209
 20
-109.2832519258042
 10
105.8109401862209
 20
-109.2832519258042
 10
105.8388454596514
 20
-109.1902343477024
 10
105.8591715230144
 20
-109.1056572535396
 10
105.8794975863774
 20
-108.976638427617
 10
105.8794975863774
 20
-108.976638427617
 10
105.5591037062491
 20
-108.976638427617
 10
105.5591037062491
 20
-108.976638427617
 97
        0
 97
        0
 92
        1
 93
        1
 72
     4
 94
        3
 73
     0
 74
     1
 95
       17
 96
       13
 40
0.0
 40
0.0
 40
0.0
 40
0.0
 40
1.0
 40
1.0
 40
1.0
 40
2.0
 40
2.0
 40
2.0
 40
3.0
 40
3.0
 40
3.0
 40
4.0
 40
4.0
 40
4.0
 40
4.0
 10
105.6145697435616
 20
-109.8270602481509
 10
105.5997558329751
 20
-109.8565158145498
 10
105.5553141012153
 20
-109.9497056474258
 10
105.5463568529537
 20
-109.9686536725946
 10
105.7127549648913
 20
-110.0279093149409
 10
105.7313584805116
 20
-110.0342827415887
 10
105.7944037278917
 20
-110.0618435054707
 10
105.8426350646852
 20
-109.9750270992424
 10
105.8629611280482
 20
-109.9009575463095
 10
105.8757079813436
 20
-109.8270602481509
 10
105.8757079813436
 20
-109.8270602481509
 10
105.6145697435616
 20
-109.8270602481509
 10
105.6145697435616
 20
-109.8270602481509
 97
        0
 97
        0
 75
     2
 76
     1
 98
        0
  0
SPLINE
  5
139
330
131
100
AcDbEntity
  8
_U+30EC_U+30A4_U+30E4_U+30FC 1
370
     0
100
AcDbSpline
210
0.0
220
0.0
230
1.0
 70
    11
 71
     3
 72
   203
 73
   199
 74
     0
 42
0.0000000001
 43
0.0000000001
 12
1.0
 22
0.0
 32
0.0
 13
1.0
 23
0.0
 33
0.0
 40
0.0
 40
0.0
 40
0.0
 40
0.0
 40
1.0
 40
1.0
 40
1.0
 40
2.0
 40
2.0
 40
2.0
 40
3.0
 40
3.0
 40
3.0
 40
4.0
 40
4.0
 40
4.0
 40
5.0
 40
5.0
 40
5.0
 40
6.0
 40
6.0
 40
6.0
 40
7.0
 40
7.0
 40
7.0
 40
8.0
 40
8.0
 40
8.0
 40
9.0
 40
9.0
 40
9.0
 40
10.0
 40
10.0
 40
10.0
 40
11.0
 40
11.0
 40
11.0
 40
12.0
 40
12.0
 40
12.0
 40
13.0
 40
13.0
 40
13.0
 40
14.0
 40
14.0
 40
14.0
 40
15.0
 40
15.0
 40
15.0
 40
16.0
 40
16.0
 40
16.0
 40
17.0
 40
17.0
 40
17.0
 40
18.0
 40
18.0
 40
18.0
 40
19.0
 40
19.0
 40
19.0
 40
20.0
 40
20.0
 40
20.0
 40
21.0
 40
21.0
 40
21.0
 40
22.0
 40
22.0
 40
22.0
 40
23.0
 40
23.0
 40
23.0
 40
24.0
 40
24.0
 40
24.0
 40
25.0
 40
25.0
 40
25.0
 40
26.0
 40
26.0
 40
26.0
 40
27.0
 40
27.0
 40
27.0
 40
28.0
 40
28.0
 40
28.0
 40
29.0
 40
29.0
 40
29.0
 40
30.0
 40
30.0
 40
30.0
 40
31.0
 40
31.0
 40
31.0
 40
32.0
 40
32.0
 40
32.0
 40
33.0
 40
33.0
 40
33.0
 40
34.0
 40
34.0
 40
34.0
 40
35.0
 40
35.0
 40
35.0
 40
36.0
 40
36.0
 40
36.0
 40
37.0
 40
37.0
 40
37.0
 40
38.0
 40
38.0
 40
38.0
 40
39.0
 40
39.0
 40
39.0
 40
40.0
 40
40.0
 40
40.0
 40
41.0
 40
41.0
 40
41.0
 40
42.0
 40
42.0
 40
42.0
 40
43.0
 40
43.0
 40
43.0
 40
44.0
 40
44.0
 40
44.0
 40
45.0
 40
45.0
 40
45.0
 40
46.0
 40
46.0
 40
46.0
 40
47.0
 40
47.0
 40
47.0
 40
48.0
 40
48.0
 40
48.0
 40
49.0
 40
49.0
 40
49.0
 40
50.0
 40
50.0
 40
50.0
 40
51.0
 40
51.0
 40
51.0
 40
52.0
 40
52.0
 40
52.0
 40
53.0
 40
53.0
 40
53.0
 40
54.0
 40
54.0
 40
54.0
 40
55.0
 40
55.0
 40
55.0
 40
56.0
 40
56.0
 40
56.0
 40
57.0
 40
57.0
 40
57.0
 40
58.0
 40
58.0
 40
58.0
 40
59.0
 40
59.0
 40
59.0
 40
60.0
 40
60.0
 40
60.0
 40
61.0
 40
61.0
 40
61.0
 40
62.0
 40
62.0
 40
62.0
 40
63.0
 40
63.0
 40
63.0
 40
64.0
 40
64.0
 40
64.0
 40
65.0
 40
65.0
 40
65.0
 40
66.0
 40
66.0
 40
66.0
 40
66.0
 10
107.5910210234495
 20
-109.5095946991851
 30
0.0
 10
107.5910210234495
 20
-109.5095946991851
 30
0.0
 10
107.1021619740925
 20
-109.5095946991851
 30
0.0
 10
107.1021619740925
 20
-109.5095946991851
 30
0.0
 10
107.0928602162823
 20
-109.5540364309448
 30
0.0
 10
107.0856255157633
 20
-109.5857313094091
 30
0.0
 10
107.0746012102105
 20
-109.6239718692954
 30
0.0
 10
107.0966498213161
 20
-109.6239718692954
 30
0.0
 10
107.1097411841601
 20
-109.6260389265865
 30
0.0
 10
107.1152533369365
 20
-109.6260389265865
 30
0.0
 10
107.1152533369365
 20
-109.6260389265865
 30
0.0
 10
107.2799289011314
 20
-109.6260389265865
 30
0.0
 10
107.2799289011314
 20
-109.6260389265865
 30
0.0
 10
107.2799289011314
 20
-109.6260389265865
 30
0.0
 10
107.6079019913272
 20
-109.6260389265865
 30
0.0
 10
107.6079019913272
 20
-109.6260389265865
 30
0.0
 10
107.6519992135384
 20
-109.6260389265865
 30
0.0
 10
107.9003905980249
 20
-109.6132920732911
 30
0.0
 10
107.9279513619069
 20
-109.6132920732911
 30
0.0
 10
107.9262288141643
 20
-109.6408528371731
 30
0.0
 10
107.9245062664217
 20
-109.659800862342
 30
0.0
 10
107.9245062664217
 20
-109.6894286835151
 30
0.0
 10
107.9224392091305
 20
-109.7211235619794
 30
0.0
 10
107.9224392091305
 20
-109.8565158145498
 30
0.0
 10
107.9224392091305
 20
-109.8840765784318
 30
0.0
 10
107.9224392091305
 20
-109.8840765784318
 30
0.0
 10
107.9224392091305
 20
-110.1295396317558
 30
0.0
 10
107.9224392091305
 20
-110.1295396317558
 30
0.0
 10
107.9224392091305
 20
-110.1739813635155
 30
0.0
 10
107.9262288141643
 20
-110.3706963157233
 30
0.0
 10
107.930018419198
 20
-110.5229695361713
 30
0.0
 10
107.930018419198
 20
-110.5229695361713
 30
0.0
 10
107.7319254287962
 20
-110.5229695361713
 30
0.0
 10
107.7319254287962
 20
-110.5229695361713
 30
0.0
 10
107.7319254287962
 20
-110.5229695361713
 30
0.0
 10
107.7336479765388
 20
-110.4892076004159
 30
0.0
 10
107.7336479765388
 20
-110.4892076004159
 30
0.0
 10
107.7336479765388
 20
-110.4892076004159
 30
0.0
 10
107.1186984324217
 20
-110.4892076004159
 30
0.0
 10
107.1186984324217
 20
-110.4892076004159
 30
0.0
 10
107.1186984324217
 20
-110.4892076004159
 30
0.0
 10
107.1207654897129
 20
-110.5229695361713
 30
0.0
 10
107.1207654897129
 20
-110.5229695361713
 30
0.0
 10
107.1207654897129
 20
-110.5229695361713
 30
0.0
 10
106.92990719983
 20
-110.5229695361713
 30
0.0
 10
106.92990719983
 20
-110.5229695361713
 30
0.0
 10
106.9336968048638
 20
-110.4680202631816
 30
0.0
 10
106.9336968048638
 20
-110.4552734098862
 30
0.0
 10
106.9392089576402
 20
-110.3410684945502
 30
0.0
 10
106.9409315053828
 20
-110.3135077306681
 30
0.0
 10
106.942998562674
 20
-110.1803547901632
 30
0.0
 10
106.942998562674
 20
-110.1612345102201
 30
0.0
 10
106.942998562674
 20
-110.1612345102201
 30
0.0
 10
106.942998562674
 20
-109.9581461313646
 30
0.0
 10
106.942998562674
 20
-109.9581461313646
 30
0.0
 10
106.8206976729476
 20
-110.207743299271
 30
0.0
 10
106.6725585670819
 20
-110.339001437259
 30
0.0
 10
106.5798854985286
 20
-110.4044582514788
 30
0.0
 10
106.5798854985286
 20
-110.4044582514788
 30
0.0
 10
106.4283012971777
 20
-110.2649318843261
 30
0.0
 10
106.4283012971777
 20
-110.2649318843261
 30
0.0
 10
106.5058159455958
 20
-110.2141167259187
 30
0.0
 10
106.6319064403559
 20
-110.1273003196904
 30
0.0
 10
106.7521402727911
 20
-109.932824679548
 30
0.0
 10
106.8317219785004
 20
-109.8058729109166
 30
0.0
 10
106.8892550731041
 20
-109.6620401744074
 30
0.0
 10
106.9188828942772
 20
-109.5095946991851
 30
0.0
 10
106.7190673561327
 20
-109.5118340112505
 30
0.0
 10
106.5616264924568
 20
-109.5182074378982
 30
0.0
 10
106.4782551817138
 20
-109.5202744951894
 30
0.0
 10
106.4782551817138
 20
-109.5202744951894
 30
0.0
 10
106.4782551817138
 20
-109.3425075681505
 30
0.0
 10
106.4782551817138
 20
-109.3425075681505
 30
0.0
 10
106.6505099559763
 20
-109.3488809947982
 30
0.0
 10
106.8985568309143
 20
-109.3531873641548
 30
0.0
 10
107.0298149689023
 20
-109.3531873641548
 30
0.0
 10
107.0298149689023
 20
-109.3531873641548
 30
0.0
 10
107.2168836537513
 20
-109.3531873641548
 30
0.0
 10
107.2168836537513
 20
-109.3531873641548
 30
0.0
 10
107.2168836537513
 20
-109.3531873641548
 30
0.0
 10
107.2168836537513
 20
-109.2451836206922
 30
0.0
 10
107.2168836537513
 20
-109.2451836206922
 30
0.0
 10
107.2168836537513
 20
-109.2451836206922
 30
0.0
 10
107.0890706112486
 20
-109.2451836206922
 30
0.0
 10
107.0890706112486
 20
-109.2451836206922
 30
0.0
 10
106.9409315053828
 20
-109.2451836206922
 30
0.0
 10
106.7927923995171
 20
-109.2494899900487
 30
0.0
 10
106.6467203509425
 20
-109.2558634166965
 30
0.0
 10
106.6467203509425
 20
-109.2558634166965
 30
0.0
 10
106.6467203509425
 20
-109.0844699163053
 30
0.0
 10
106.6467203509425
 20
-109.0844699163053
 30
0.0
 10
106.7817680939643
 20
-109.0949774575353
 30
0.0
 10
106.9447211104166
 20
-109.0949774575353
 30
0.0
 10
107.0890706112486
 20
-109.0949774575353
 30
0.0
 10
107.0890706112486
 20
-109.0949774575353
 30
0.0
 10
107.2168836537513
 20
-109.0949774575353
 30
0.0
 10
107.2168836537513
 20
-109.0949774575353
 30
0.0
 10
107.2168836537513
 20
-109.0949774575353
 30
0.0
 10
107.2168836537513
 20
-108.976638427617
 30
0.0
 10
107.2168836537513
 20
-108.976638427617
 30
0.0
 10
107.2168836537513
 20
-108.976638427617
 30
0.0
 10
107.1021619740925
 20
-108.976638427617
 30
0.0
 10
107.1021619740925
 20
-108.976638427617
 30
0.0
 10
107.0615098473666
 20
-108.976638427617
 30
0.0
 10
106.8837429203277
 20
-108.9850789115558
 30
0.0
 10
106.846535889087
 20
-108.9850789115558
 30
0.0
 10
106.6687689620481
 20
-108.9892130261381
 30
0.0
 10
106.6022786191828
 20
-108.9912800834293
 30
0.0
 10
106.5337212190263
 20
-108.9935193954947
 30
0.0
 10
106.5337212190263
 20
-108.9935193954947
 30
0.0
 10
106.5337212190263
 20
-108.8093790418081
 30
0.0
 10
106.5337212190263
 20
-108.8093790418081
 30
0.0
 10
106.6336289880985
 20
-108.8178195257469
 30
0.0
 10
106.6725585670819
 20
-108.8178195257469
 30
0.0
 10
107.0077663577967
 20
-108.8264322644601
 30
0.0
 10
106.9523003204842
 20
-108.7311753742929
 30
0.0
 10
106.9281846520874
 20
-108.7036146104109
 30
0.0
 10
106.8968342831716
 20
-108.66761336259
 30
0.0
 10
106.8968342831716
 20
-108.66761336259
 30
0.0
 10
107.0504855418138
 20
-108.5851033257183
 30
0.0
 10
107.0504855418138
 20
-108.5851033257183
 30
0.0
 10
107.0856255157633
 20
-108.6211045735392
 30
0.0
 10
107.1245550947466
 20
-108.6634792480077
 30
0.0
 10
107.1893228898693
 20
-108.7733777939872
 30
0.0
 10
107.1893228898693
 20
-108.7733777939872
 30
0.0
 10
107.0890706112486
 20
-108.8284993217512
 30
0.0
 10
107.0890706112486
 20
-108.8284993217512
 30
0.0
 10
107.0890706112486
 20
-108.8284993217512
 30
0.0
 10
107.0983723690588
 20
-108.8284993217512
 30
0.0
 10
107.0983723690588
 20
-108.8284993217512
 30
0.0
 10
107.0983723690588
 20
-108.8284993217512
 30
0.0
 10
107.5558810494999
 20
-108.8284993217512
 30
0.0
 10
107.5558810494999
 20
-108.8284993217512
 30
0.0
 10
107.5558810494999
 20
-108.8284993217512
 30
0.0
 10
107.4725097387569
 20
-108.7840575899915
 30
0.0
 10
107.4725097387569
 20
-108.7840575899915
 30
0.0
 10
107.4966254071536
 20
-108.7459892848795
 30
0.0
 10
107.5465792916898
 20
-108.6655463052989
 30
0.0
 10
107.5596706545337
 20
-108.591476752366
 30
0.0
 10
107.5596706545337
 20
-108.591476752366
 30
0.0
 10
107.7467393393828
 20
-108.6550387640689
 30
0.0
 10
107.7467393393828
 20
-108.6550387640689
 30
0.0
 10
107.7539740399018
 20
-108.65710582136
 30
0.0
 10
107.7725775555221
 20
-108.66761336259
 30
0.0
 10
107.7725775555221
 20
-108.6888006998243
 30
0.0
 10
107.7725775555221
 20
-108.7268690049363
 30
0.0
 10
107.7150444609185
 20
-108.7268690049363
 30
0.0
 10
107.6985080025893
 20
-108.7268690049363
 30
0.0
 10
107.6892062447791
 20
-108.7459892848795
 30
0.0
 10
107.6688801814161
 20
-108.7861246472826
 30
0.0
 10
107.6430419652768
 20
-108.8264322644601
 30
0.0
 10
107.9930636665781
 20
-108.8200588378124
 30
0.0
 10
108.0189018827175
 20
-108.8178195257469
 30
0.0
 10
108.0853922255828
 20
-108.8116183538735
 30
0.0
 10
108.0853922255828
 20
-108.8116183538735
 30
0.0
 10
108.0853922255828
 20
-108.9935193954947
 30
0.0
 10
108.0853922255828
 20
-108.9935193954947
 30
0.0
 10
108.0688557672536
 20
-108.9935193954947
 30
0.0
 10
108.0464626465995
 20
-108.9912800834293
 30
0.0
 10
107.853881808974
 20
-108.9828395994904
 30
0.0
 10
107.8094400772143
 20
-108.9807725421993
 30
0.0
 10
107.6168592395888
 20
-108.976638427617
 30
0.0
 10
107.578274170154
 20
-108.976638427617
 30
0.0
 10
107.578274170154
 20
-108.976638427617
 30
0.0
 10
107.3891384280138
 20
-108.976638427617
 30
0.0
 10
107.3891384280138
 20
-108.976638427617
 30
0.0
 10
107.3891384280138
 20
-108.976638427617
 30
0.0
 10
107.3891384280138
 20
-109.0949774575353
 30
0.0
 10
107.3891384280138
 20
-109.0949774575353
 30
0.0
 10
107.3891384280138
 20
-109.0949774575353
 30
0.0
 10
107.5410671389133
 20
-109.0949774575353
 30
0.0
 10
107.5410671389133
 20
-109.0949774575353
 30
0.0
 10
107.6836940920027
 20
-109.0949774575353
 30
0.0
 10
107.8504367134888
 20
-109.0949774575353
 30
0.0
 10
107.9872070042532
 20
-109.0844699163053
 30
0.0
 10
107.9872070042532
 20
-109.0844699163053
 30
0.0
 10
107.9872070042532
 20
-109.2558634166965
 30
0.0
 10
107.9872070042532
 20
-109.2558634166965
 30
0.0
 10
107.8039279244379
 20
-109.2474229327576
 30
0.0
 10
107.6316731501754
 20
-109.2451836206922
 30
0.0
 10
107.5410671389133
 20
-109.2451836206922
 30
0.0
 10
107.5410671389133
 20
-109.2451836206922
 30
0.0
 10
107.3891384280138
 20
-109.2451836206922
 30
0.0
 10
107.3891384280138
 20
-109.2451836206922
 30
0.0
 10
107.3891384280138
 20
-109.2451836206922
 30
0.0
 10
107.3891384280138
 20
-109.3531873641548
 30
0.0
 10
107.3891384280138
 20
-109.3531873641548
 30
0.0
 10
107.3891384280138
 20
-109.3531873641548
 30
0.0
 10
107.5910210234495
 20
-109.3531873641548
 30
0.0
 10
107.5910210234495
 20
-109.3531873641548
 30
0.0
 10
107.7078097603994
 20
-109.3531873641548
 30
0.0
 10
107.9596462403712
 20
-109.3488809947982
 30
0.0
 10
108.1429253201865
 20
-109.3425075681505
 30
0.0
 10
108.1429253201865
 20
-109.3425075681505
 30
0.0
 10
108.1429253201865
 20
-109.5202744951894
 30
0.0
 10
108.1429253201865
 20
-109.5202744951894
 30
0.0
 10
107.9744601509578
 20
-109.5139010685417
 30
0.0
 10
107.7002305503319
 20
-109.5095946991851
 30
0.0
 10
107.5910210234495
 20
-109.5095946991851
 30
0.0
  0
POLYLINE
  5
13A
330
131
100
AcDbEntity
  8
_U+30EC_U+30A4_U+30E4_U+30FC 1
370
     0
100
AcDb2dPolyline
 66
     1
 10
0.0
 20
0.0
 30
0.0
  0
VERTEX
  5
13B
330
13A
100
AcDbEntity
  8
_U+30EC_U+30A4_U+30E4_U+30FC 1
370
     0
100
AcDbVertex
100
AcDb2dVertex
 10
107.7353705242814
 20
-109.7655652937392
 30
0.0
  0
VERTEX
  5
13C
330
13A
100
AcDbEntity
  8
_U+30EC_U+30A4_U+30E4_U+30FC 1
370
     0
100
AcDbVertex
100
AcDb2dVertex
 10
107.1169758846791
 20
-109.7655652937392
 30
0.0
  0
VERTEX
  5
13D
330
13A
100
AcDbEntity
  8
_U+30EC_U+30A4_U+30E4_U+30FC 1
370
     0
100
AcDbVertex
100
AcDb2dVertex
 10
107.1169758846791
 20
-109.8735690372017
 30
0.0
  0
VERTEX
  5
13E
330
13A
100
AcDbEntity
  8
_U+30EC_U+30A4_U+30E4_U+30FC 1
370
     0
100
AcDbVertex
100
AcDb2dVertex
 10
107.7353705242814
 20
-109.8735690372017
 30
0.0
  0
VERTEX
  5
13F
330
13A
100
AcDbEntity
  8
_U+30EC_U+30A4_U+30E4_U+30FC 1
370
     0
100
AcDbVertex
100
AcDb2dVertex
 10
107.7353705242814
 20
-109.7655652937392
 30
0.0
  0
SEQEND
  5
140
330
13A
100
AcDbEntity
  8
_U+30EC_U+30A4_U+30E4_U+30FC 1
370
     0
  0
POLYLINE
  5
141
330
131
100
AcDbEntity
  8
_U+30EC_U+30A4_U+30E4_U+30FC 1
370
     0
100
AcDb2dPolyline
 66
     1
 10
0.0
 20
0.0
 30
0.0
  0
VERTEX
  5
142
330
141
100
AcDbEntity
  8
_U+30EC_U+30A4_U+30E4_U+30FC 1
370
     0
100
AcDbVertex
100
AcDb2dVertex
 10
107.7353705242814
 20
-109.9982814937678
 30
0.0
  0
VERTEX
  5
143
330
141
100
AcDbEntity
  8
_U+30EC_U+30A4_U+30E4_U+30FC 1
370
     0
100
AcDbVertex
100
AcDb2dVertex
 10
107.1169758846791
 20
-109.9982814937678
 30
0.0
  0
VERTEX
  5
144
330
141
100
AcDbEntity
  8
_U+30EC_U+30A4_U+30E4_U+30FC 1
370
     0
100
AcDbVertex
100
AcDb2dVertex
 10
107.1169758846791
 20
-110.1126586638781
 30
0.0
  0
VERTEX
  5
145
330
141
100
AcDbEntity
  8
_U+30EC_U+30A4_U+30E4_U+30FC 1
370
     0
100
AcDbVertex
100
AcDb2dVertex
 10
107.7353705242814
 20
-110.1126586638781
 30
0.0
  0
VERTEX
  5
146
330
141
100
AcDbEntity
  8
_U+30EC_U+30A4_U+30E4_U+30FC 1
370
     0
100
AcDbVertex
100
AcDb2dVertex
 10
107.7353705242814
 20
-109.9982814937678
 30
0.0
  0
SEQEND
  5
147
330
141
100
AcDbEntity
  8
_U+30EC_U+30A4_U+30E4_U+30FC 1
370
     0
  0
POLYLINE
  5
148
330
131
100
AcDbEntity
  8
_U+30EC_U+30A4_U+30E4_U+30FC 1
370
     0
100
AcDb2dPolyline
 66
     1
 10
0.0
 20
0.0
 30
0.0
  0
VERTEX
  5
149
330
148
100
AcDbEntity
  8
_U+30EC_U+30A4_U+30E4_U+30FC 1
370
     0
100
AcDbVertex
100
AcDb2dVertex
 10
107.7353705242814
 20
-110.2416774898007
 30
0.0
  0
VERTEX
  5
14A
330
148
100
AcDbEntity
  8
_U+30EC_U+30A4_U+30E4_U+30FC 1
370
     0
100
AcDbVertex
100
AcDb2dVertex
 10
107.1169758846791
 20
-110.2416774898007
 30
0.0
  0
VERTEX
  5
14B
330
148
100
AcDbEntity
  8
_U+30EC_U+30A4_U+30E4_U+30FC 1
370
     0
100
AcDbVertex
100
AcDb2dVertex
 10
107.1169758846791
 20
-110.3558824051367
 30
0.0
  0
VERTEX
  5
14C
330
148
100
AcDbEntity
  8
_U+30EC_U+30A4_U+30E4_U+30FC 1
370
     0
100
AcDbVertex
100
AcDb2dVertex
 10
107.7353705242814
 20
-110.3558824051367
 30
0.0
  0
VERTEX
  5
14D
330
148
100
AcDbEntity
  8
_U+30EC_U+30A4_U+30E4_U+30FC 1
370
     0
100
AcDbVertex
100
AcDb2dVertex
 10
107.7353705242814
 20
-110.2416774898007
 30
0.0
  0
SEQEND
  5
14E
330
148
100
AcDbEntity
  8
_U+30EC_U+30A4_U+30E4_U+30FC 1
370
     0
  0
HATCH
  5
14F
330
131
100
AcDbEntity
  8
_U+30EC_U+30A4_U+30E4_U+30FC 1
 62
   179
420
  2234388
100
AcDbHatch
 10
0.0
 20
0.0
 30
0.0
210
0.0
220
0.0
230
1.0
  2
SOLID
 70
     1
 71
     0
 91
        4
 92
        1
 93
        1
 72
     4
 94
        3
 73
     0
 74
     1
 95
      203
 96
      199
 40
0.0
 40
0.0
 40
0.0
 40
0.0
 40
1.0
 40
1.0
 40
1.0
 40
2.0
 40
2.0
 40
2.0
 40
3.0
 40
3.0
 40
3.0
 40
4.0
 40
4.0
 40
4.0
 40
5.0
 40
5.0
 40
5.0
 40
6.0
 40
6.0
 40
6.0
 40
7.0
 40
7.0
 40
7.0
 40
8.0
 40
8.0
 40
8.0
 40
9.0
 40
9.0
 40
9.0
 40
10.0
 40
10.0
 40
10.0
 40
11.0
 40
11.0
 40
11.0
 40
12.0
 40
12.0
 40
12.0
 40
13.0
 40
13.0
 40
13.0
 40
14.0
 40
14.0
 40
14.0
 40
15.0
 40
15.0
 40
15.0
 40
16.0
 40
16.0
 40
16.0
 40
17.0
 40
17.0
 40
17.0
 40
18.0
 40
18.0
 40
18.0
 40
19.0
 40
19.0
 40
19.0
 40
20.0
 40
20.0
 40
20.0
 40
21.0
 40
21.0
 40
21.0
 40
22.0
 40
22.0
 40
22.0
 40
23.0
 40
23.0
 40
23.0
 40
24.0
 40
24.0
 40
24.0
 40
25.0
 40
25.0
 40
25.0
 40
26.0
 40
26.0
 40
26.0
 40
27.0
 40
27.0
 40
27.0
 40
28.0
 40
28.0
 40
28.0
 40
29.0
 40
29.0
 40
29.0
 40
30.0
 40
30.0
 40
30.0
 40
31.0
 40
31.0
 40
31.0
 40
32.0
 40
32.0
 40
32.0
 40
33.0
 40
33.0
 40
33.0
 40
34.0
 40
34.0
 40
34.0
 40
35.0
 40
35.0
 40
35.0
 40
36.0
 40
36.0
 40
36.0
 40
37.0
 40
37.0
 40
37.0
 40
38.0
 40
38.0
 40
38.0
 40
39.0
 40
39.0
 40
39.0
 40
40.0
 40
40.0
 40
40.0
 40
41.0
 40
41.0
 40
41.0
 40
42.0
 40
42.0
 40
42.0
 40
43.0
 40
43.0
 40
43.0
 40
44.0
 40
44.0
 40
44.0
 40
45.0
 40
45.0
 40
45.0
 40
46.0
 40
46.0
 40
46.0
 40
47.0
 40
47.0
 40
47.0
 40
48.0
 40
48.0
 40
48.0
 40
49.0
 40
49.0
 40
49.0
 40
50.0
 40
50.0
 40
50.0
 40
51.0
 40
51.0
 40
51.0
 40
52.0
 40
52.0
 40
52.0
 40
53.0
 40
53.0
 40
53.0
 40
54.0
 40
54.0
 40
54.0
 40
55.0
 40
55.0
 40
55.0
 40
56.0
 40
56.0
 40
56.0
 40
57.0
 40
57.0
 40
57.0
 40
58.0
 40
58.0
 40
58.0
 40
59.0
 40
59.0
 40
59.0
 40
60.0
 40
60.0
 40
60.0
 40
61.0
 40
61.0
 40
61.0
 40
62.0
 40
62.0
 40
62.0
 40
63.0
 40
63.0
 40
63.0
 40
64.0
 40
64.0
 40
64.0
 40
65.0
 40
65.0
 40
65.0
 40
66.0
 40
66.0
 40
66.0
 40
66.0
 10
107.5910210234495
 20
-109.5095946991851
 10
107.5910210234495
 20
-109.5095946991851
 10
107.1021619740925
 20
-109.5095946991851
 10
107.1021619740925
 20
-109.5095946991851
 10
107.0928602162823
 20
-109.5540364309448
 10
107.0856255157633
 20
-109.5857313094091
 10
107.0746012102105
 20
-109.6239718692954
 10
107.0966498213161
 20
-109.6239718692954
 10
107.1097411841601
 20
-109.6260389265865
 10
107.1152533369365
 20
-109.6260389265865
 10
107.1152533369365
 20
-109.6260389265865
 10
107.2799289011314
 20
-109.6260389265865
 10
107.2799289011314
 20
-109.6260389265865
 10
107.2799289011314
 20
-109.6260389265865
 10
107.6079019913272
 20
-109.6260389265865
 10
107.6079019913272
 20
-109.6260389265865
 10
107.6519992135384
 20
-109.6260389265865
 10
107.9003905980249
 20
-109.6132920732911
 10
107.9279513619069
 20
-109.6132920732911
 10
107.9262288141643
 20
-109.6408528371731
 10
107.9245062664217
 20
-109.659800862342
 10
107.9245062664217
 20
-109.6894286835151
 10
107.9224392091305
 20
-109.7211235619794
 10
107.9224392091305
 20
-109.8565158145498
 10
107.9224392091305
 20
-109.8840765784318
 10
107.9224392091305
 20
-109.8840765784318
 10
107.9224392091305
 20
-110.1295396317558
 10
107.9224392091305
 20
-110.1295396317558
 10
107.9224392091305
 20
-110.1739813635155
 10
107.9262288141643
 20
-110.3706963157233
 10
107.930018419198
 20
-110.5229695361713
 10
107.930018419198
 20
-110.5229695361713
 10
107.7319254287962
 20
-110.5229695361713
 10
107.7319254287962
 20
-110.5229695361713
 10
107.7319254287962
 20
-110.5229695361713
 10
107.7336479765388
 20
-110.4892076004159
 10
107.7336479765388
 20
-110.4892076004159
 10
107.7336479765388
 20
-110.4892076004159
 10
107.1186984324217
 20
-110.4892076004159
 10
107.1186984324217
 20
-110.4892076004159
 10
107.1186984324217
 20
-110.4892076004159
 10
107.1207654897129
 20
-110.5229695361713
 10
107.1207654897129
 20
-110.5229695361713
 10
107.1207654897129
 20
-110.5229695361713
 10
106.92990719983
 20
-110.5229695361713
 10
106.92990719983
 20
-110.5229695361713
 10
106.9336968048638
 20
-110.4680202631816
 10
106.9336968048638
 20
-110.4552734098862
 10
106.9392089576402
 20
-110.3410684945502
 10
106.9409315053828
 20
-110.3135077306681
 10
106.942998562674
 20
-110.1803547901632
 10
106.942998562674
 20
-110.1612345102201
 10
106.942998562674
 20
-110.1612345102201
 10
106.942998562674
 20
-109.9581461313646
 10
106.942998562674
 20
-109.9581461313646
 10
106.8206976729476
 20
-110.207743299271
 10
106.6725585670819
 20
-110.339001437259
 10
106.5798854985286
 20
-110.4044582514788
 10
106.5798854985286
 20
-110.4044582514788
 10
106.4283012971777
 20
-110.2649318843261
 10
106.4283012971777
 20
-110.2649318843261
 10
106.5058159455958
 20
-110.2141167259187
 10
106.6319064403559
 20
-110.1273003196904
 10
106.7521402727911
 20
-109.932824679548
 10
106.8317219785004
 20
-109.8058729109166
 10
106.8892550731041
 20
-109.6620401744074
 10
106.9188828942772
 20
-109.5095946991851
 10
106.7190673561327
 20
-109.5118340112505
 10
106.5616264924568
 20
-109.5182074378982
 10
106.4782551817138
 20
-109.5202744951894
 10
106.4782551817138
 20
-109.5202744951894
 10
106.4782551817138
 20
-109.3425075681505
 10
106.4782551817138
 20
-109.3425075681505
 10
106.6505099559763
 20
-109.3488809947982
 10
106.8985568309143
 20
-109.3531873641548
 10
107.0298149689023
 20
-109.3531873641548
 10
107.0298149689023
 20
-109.3531873641548
 10
107.2168836537513
 20
-109.3531873641548
 10
107.2168836537513
 20
-109.3531873641548
 10
107.2168836537513
 20
-109.3531873641548
 10
107.2168836537513
 20
-109.2451836206922
 10
107.2168836537513
 20
-109.2451836206922
 10
107.2168836537513
 20
-109.2451836206922
 10
107.0890706112486
 20
-109.2451836206922
 10
107.0890706112486
 20
-109.2451836206922
 10
106.9409315053828
 20
-109.2451836206922
 10
106.7927923995171
 20
-109.2494899900487
 10
106.6467203509425
 20
-109.2558634166965
 10
106.6467203509425
 20
-109.2558634166965
 10
106.6467203509425
 20
-109.0844699163053
 10
106.6467203509425
 20
-109.0844699163053
 10
106.7817680939643
 20
-109.0949774575353
 10
106.9447211104166
 20
-109.0949774575353
 10
107.0890706112486
 20
-109.0949774575353
 10
107.0890706112486
 20
-109.0949774575353
 10
107.2168836537513
 20
-109.0949774575353
 10
107.2168836537513
 20
-109.0949774575353
 10
107.2168836537513
 20
-109.0949774575353
 10
107.2168836537513
 20
-108.976638427617
 10
107.2168836537513
 20
-108.976638427617
 10
107.2168836537513
 20
-108.976638427617
 10
107.1021619740925
 20
-108.976638427617
 10
107.1021619740925
 20
-108.976638427617
 10
107.0615098473666
 20
-108.976638427617
 10
106.8837429203277
 20
-108.9850789115558
 10
106.846535889087
 20
-108.9850789115558
 10
106.6687689620481
 20
-108.9892130261381
 10
106.6022786191828
 20
-108.9912800834293
 10
106.5337212190263
 20
-108.9935193954947
 10
106.5337212190263
 20
-108.9935193954947
 10
106.5337212190263
 20
-108.8093790418081
 10
106.5337212190263
 20
-108.8093790418081
 10
106.6336289880985
 20
-108.8178195257469
 10
106.6725585670819
 20
-108.8178195257469
 10
107.0077663577967
 20
-108.8264322644601
 10
106.9523003204842
 20
-108.7311753742929
 10
106.9281846520874
 20
-108.7036146104109
 10
106.8968342831716
 20
-108.66761336259
 10
106.8968342831716
 20
-108.66761336259
 10
107.0504855418138
 20
-108.5851033257183
 10
107.0504855418138
 20
-108.5851033257183
 10
107.0856255157633
 20
-108.6211045735392
 10
107.1245550947466
 20
-108.6634792480077
 10
107.1893228898693
 20
-108.7733777939872
 10
107.1893228898693
 20
-108.7733777939872
 10
107.0890706112486
 20
-108.8284993217512
 10
107.0890706112486
 20
-108.8284993217512
 10
107.0890706112486
 20
-108.8284993217512
 10
107.0983723690588
 20
-108.8284993217512
 10
107.0983723690588
 20
-108.8284993217512
 10
107.0983723690588
 20
-108.8284993217512
 10
107.5558810494999
 20
-108.8284993217512
 10
107.5558810494999
 20
-108.8284993217512
 10
107.5558810494999
 20
-108.8284993217512
 10
107.4725097387569
 20
-108.7840575899915
 10
107.4725097387569
 20
-108.7840575899915
 10
107.4966254071536
 20
-108.7459892848795
 10
107.5465792916898
 20
-108.6655463052989
 10
107.5596706545337
 20
-108.591476752366
 10
107.5596706545337
 20
-108.591476752366
 10
107.7467393393828
 20
-108.6550387640689
 10
107.7467393393828
 20
-108.6550387640689
 10
107.7539740399018
 20
-108.65710582136
 10
107.7725775555221
 20
-108.66761336259
 10
107.7725775555221
 20
-108.6888006998243
 10
107.7725775555221
 20
-108.7268690049363
 10
107.7150444609185
 20
-108.7268690049363
 10
107.6985080025893
 20
-108.7268690049363
 10
107.6892062447791
 20
-108.7459892848795
 10
107.6688801814161
 20
-108.7861246472826
 10
107.6430419652768
 20
-108.8264322644601
 10
107.9930636665781
 20
-108.8200588378124
 10
108.0189018827175
 20
-108.8178195257469
 10
108.0853922255828
 20
-108.8116183538735
 10
108.0853922255828
 20
-108.8116183538735
 10
108.0853922255828
 20
-108.9935193954947
 10
108.0853922255828
 20
-108.9935193954947
 10
108.0688557672536
 20
-108.9935193954947
 10
108.0464626465995
 20
-108.9912800834293
 10
107.853881808974
 20
-108.9828395994904
 10
107.8094400772143
 20
-108.9807725421993
 10
107.6168592395888
 20
-108.976638427617
 10
107.578274170154
 20
-108.976638427617
 10
107.578274170154
 20
-108.976638427617
 10
107.3891384280138
 20
-108.976638427617
 10
107.3891384280138
 20
-108.976638427617
 10
107.3891384280138
 20
-108.976638427617
 10
107.3891384280138
 20
-109.0949774575353
 10
107.3891384280138
 20
-109.0949774575353
 10
107.3891384280138
 20
-109.0949774575353
 10
107.5410671389133
 20
-109.0949774575353
 10
107.5410671389133
 20
-109.0949774575353
 10
107.6836940920027
 20
-109.0949774575353
 10
107.8504367134888
 20
-109.0949774575353
 10
107.9872070042532
 20
-109.0844699163053
 10
107.9872070042532
 20
-109.0844699163053
 10
107.9872070042532
 20
-109.2558634166965
 10
107.9872070042532
 20
-109.2558634166965
 10
107.8039279244379
 20
-109.2474229327576
 10
107.6316731501754
 20
-109.2451836206922
 10
107.5410671389133
 20
-109.2451836206922
 10
107.5410671389133
 20
-109.2451836206922
 10
107.3891384280138
 20
-109.2451836206922
 10
107.3891384280138
 20
-109.2451836206922
 10
107.3891384280138
 20
-109.2451836206922
 10
107.3891384280138
 20
-109.3531873641548
 10
107.3891384280138
 20
-109.3531873641548
 10
107.3891384280138
 20
-109.3531873641548
 10
107.5910210234495
 20
-109.3531873641548
 10
107.5910210234495
 20
-109.3531873641548
 10
107.7078097603994
 20
-109.3531873641548
 10
107.9596462403712
 20
-109.3488809947982
 10
108.1429253201865
 20
-109.3425075681505
 10
108.1429253201865
 20
-109.3425075681505
 10
108.1429253201865
 20
-109.5202744951894
 10
108.1429253201865
 20
-109.5202744951894
 10
107.9744601509578
 20
-109.5139010685417
 10
107.7002305503319
 20
-109.5095946991851
 10
107.5910210234495
 20
-109.5095946991851
 97
        0
 97
        0
 92
        1
 93
        4
 72
     1
 10
107.7353705242814
 20
-109.7655652937392
 11
107.1169758846791
 21
-109.7655652937392
 72
     1
 10
107.1169758846791
 20
-109.7655652937392
 11
107.1169758846791
 21
-109.8735690372017
 72
     1
 10
107.1169758846791
 20
-109.8735690372017
 11
107.7353705242814
 21
-109.8735690372017
 72
     1
 10
107.7353705242814
 20
-109.8735690372017
 11
107.7353705242814
 21
-109.7655652937392
 97
        0
 92
        1
 93
        4
 72
     1
 10
107.7353705242814
 20
-109.9982814937678
 11
107.1169758846791
 21
-109.9982814937678
 72
     1
 10
107.1169758846791
 20
-109.9982814937678
 11
107.1169758846791
 21
-110.1126586638781
 72
     1
 10
107.1169758846791
 20
-110.1126586638781
 11
107.7353705242814
 21
-110.1126586638781
 72
     1
 10
107.7353705242814
 20
-110.1126586638781
 11
107.7353705242814
 21
-109.9982814937678
 97
        0
 92
        1
 93
        4
 72
     1
 10
107.7353705242814
 20
-110.2416774898007
 11
107.1169758846791
 21
-110.2416774898007
 72
     1
 10
107.1169758846791
 20
-110.2416774898007
 11
107.1169758846791
 21
-110.3558824051367
 72
     1
 10
107.1169758846791
 20
-110.3558824051367
 11
107.7353705242814
 21
-110.3558824051367
 72
     1
 10
107.7353705242814
 20
-110.3558824051367
 11
107.7353705242814
 21
-110.2416774898007
 97
        0
 75
     2
 76
     1
 98
        0
  0
SPLINE
  5
150
330
131
100
AcDbEntity
  8
_U+30EC_U+30A4_U+30E4_U+30FC 1
370
     0
100
AcDbSpline
210
0.0
220
0.0
230
1.0
 70
    11
 71
     3
 72
    47
 73
    43
 74
     0
 42
0.0000000001
 43
0.0000000001
 12
1.0
 22
0.0
 32
0.0
 13
1.0
 23
0.0
 33
0.0
 40
0.0
 40
0.0
 40
0.0
 40
0.0
 40
1.0
 40
1.0
 40
1.0
 40
2.0
 40
2.0
 40
2.0
 40
3.0
 40
3.0
 40
3.0
 40
4.0
 40
4.0
 40
4.0
 40
5.0
 40
5.0
 40
5.0
 40
6.0
 40
6.0
 40
6.0
 40
7.0
 40
7.0
 40
7.0
 40
8.0
 40
8.0
 40
8.0
 40
9.0
 40
9.0
 40
9.0
 40
10.0
 40
10.0
 40
10.0
 40
11.0
 40
11.0
 40
11.0
 40
12.0
 40
12.0
 40
12.0
 40
13.0
 40
13.0
 40
13.0
 40
14.0
 40
14.0
 40
14.0
 40
14.0
 10
109.3228705238846
 20
-109.4863403046597
 30
0.0
 10
109.3228705238846
 20
-109.4863403046597
 30
0.0
 10
109.2339870603651
 20
-109.4863403046597
 30
0.0
 10
109.2339870603651
 20
-109.4863403046597
 30
0.0
 10
109.2339870603651
 20
-109.573156710888
 30
0.0
 10
109.2153835447448
 20
-109.9624525007212
 30
0.0
 10
109.0431287704823
 20
-110.1824218474544
 30
0.0
 10
108.9098035752031
 20
-110.3515760357802
 30
0.0
 10
108.7282470431304
 20
-110.4215114741307
 30
0.0
 10
108.6541774901976
 20
-110.4488999832385
 30
0.0
 10
108.6541774901976
 20
-110.4488999832385
 30
0.0
 10
108.4839897732262
 20
-110.2818128522039
 30
0.0
 10
108.4839897732262
 20
-110.2818128522039
 30
0.0
 10
108.5690836317119
 20
-110.2690659989084
 30
0.0
 10
108.722734890354
 20
-110.245811604383
 30
0.0
 10
108.887410454549
 20
-110.0575371361141
 30
0.0
 10
108.9525227592202
 20
-109.9857068952466
 30
0.0
 10
109.0431287704823
 20
-109.8460082733198
 30
0.0
 10
109.0431287704823
 20
-109.4863403046597
 30
0.0
 10
109.0431287704823
 20
-109.4863403046597
 30
0.0
 10
108.8412461750466
 20
-109.4863403046597
 30
0.0
 10
108.8412461750466
 20
-109.4863403046597
 30
0.0
 10
108.6782931585943
 20
-109.4863403046597
 30
0.0
 10
108.515340142142
 20
-109.4906466740162
 30
0.0
 10
108.3523871256897
 20
-109.5054605846028
 30
0.0
 10
108.3523871256897
 20
-109.5054605846028
 30
0.0
 10
108.3523871256897
 20
-109.2854912378696
 30
0.0
 10
108.3523871256897
 20
-109.2854912378696
 30
0.0
 10
108.5174071994332
 20
-109.3003051484562
 30
0.0
 10
108.7671766221138
 20
-109.3044392630385
 30
0.0
 10
108.8412461750466
 20
-109.3044392630385
 30
0.0
 10
108.8412461750466
 20
-109.3044392630385
 30
0.0
 10
109.3228705238846
 20
-109.3044392630385
 30
0.0
 10
109.3228705238846
 20
-109.3044392630385
 30
0.0
 10
109.3394069822138
 20
-109.3044392630385
 30
0.0
 10
109.6170816783249
 20
-109.3044392630385
 30
0.0
 10
109.8172417260179
 20
-109.2854912378696
 30
0.0
 10
109.8172417260179
 20
-109.2854912378696
 30
0.0
 10
109.8172417260179
 20
-109.5054605846028
 30
0.0
 10
109.8172417260179
 20
-109.5054605846028
 30
0.0
 10
109.6522216522744
 20
-109.4906466740162
 30
0.0
 10
109.4875460880795
 20
-109.4863403046597
 30
0.0
 10
109.3228705238846
 20
-109.4863403046597
 30
0.0
  0
SPLINE
  5
151
330
131
100
AcDbEntity
  8
_U+30EC_U+30A4_U+30E4_U+30FC 1
370
     0
100
AcDbSpline
210
0.0
220
0.0
230
1.0
 70
    11
 71
     3
 72
    29
 73
    25
 74
     0
 42
0.0000000001
 43
0.0000000001
 12
1.0
 22
0.0
 32
0.0
 13
1.0
 23
0.0
 33
0.0
 40
0.0
 40
0.0
 40
0.0
 40
0.0
 40
1.0
 40
1.0
 40
1.0
 40
2.0
 40
2.0
 40
2.0
 40
3.0
 40
3.0
 40
3.0
 40
4.0
 40
4.0
 40
4.0
 40
5.0
 40
5.0
 40
5.0
 40
6.0
 40
6.0
 40
6.0
 40
7.0
 40
7.0
 40
7.0
 40
8.0
 40
8.0
 40
8.0
 40
8.0
 10
109.2339870603651
 20
-108.9575181476738
 30
0.0
 10
109.2339870603651
 20
-108.9575181476738
 30
0.0
 10
108.9246174857897
 20
-108.9575181476738
 30
0.0
 10
108.9246174857897
 20
-108.9575181476738
 30
0.0
 10
108.8264322644601
 20
-108.9575181476738
 30
0.0
 10
108.7041313747337
 20
-108.9638915743215
 30
0.0
 10
108.6097357584378
 20
-108.976638427617
 30
0.0
 10
108.6097357584378
 20
-108.976638427617
 30
0.0
 10
108.6097357584378
 20
-108.7416829155229
 30
0.0
 10
108.6097357584378
 20
-108.7416829155229
 30
0.0
 10
108.7134331325439
 20
-108.7564968261095
 30
0.0
 10
108.8746636012536
 20
-108.7608031954661
 30
0.0
 10
108.9246174857897
 20
-108.7608031954661
 30
0.0
 10
108.9246174857897
 20
-108.7608031954661
 30
0.0
 10
109.2339870603651
 20
-108.7608031954661
 30
0.0
 10
109.2339870603651
 20
-108.7608031954661
 30
0.0
 10
109.2505235186943
 20
-108.7608031954661
 30
0.0
 10
109.4282904457332
 20
-108.7608031954661
 30
0.0
 10
109.5523138832022
 20
-108.7416829155229
 30
0.0
 10
109.5523138832022
 20
-108.7416829155229
 30
0.0
 10
109.5523138832022
 20
-108.976638427617
 30
0.0
 10
109.5523138832022
 20
-108.976638427617
 30
0.0
 10
109.4151990828893
 20
-108.9575181476738
 30
0.0
 10
109.2488009709517
 20
-108.9575181476738
 30
0.0
 10
109.2339870603651
 20
-108.9575181476738
 30
0.0
  0
HATCH
  5
152
330
131
100
AcDbEntity
  8
_U+30EC_U+30A4_U+30E4_U+30FC 1
 62
   179
420
  2234388
100
AcDbHatch
 10
0.0
 20
0.0
 30
0.0
210
0.0
220
0.0
230
1.0
  2
SOLID
 70
     1
 71
     0
 91
        2
 92
        1
 93
        1
 72
     4
 94
        3
 73
     0
 74
     1
 95
       47
 96
       43
 40
0.0
 40
0.0
 40
0.0
 40
0.0
 40
1.0
 40
1.0
 40
1.0
 40
2.0
 40
2.0
 40
2.0
 40
3.0
 40
3.0
 40
3.0
 40
4.0
 40
4.0
 40
4.0
 40
5.0
 40
5.0
 40
5.0
 40
6.0
 40
6.0
 40
6.0
 40
7.0
 40
7.0
 40
7.0
 40
8.0
 40
8.0
 40
8.0
 40
9.0
 40
9.0
 40
9.0
 40
10.0
 40
10.0
 40
10.0
 40
11.0
 40
11.0
 40
11.0
 40
12.0
 40
12.0
 40
12.0
 40
13.0
 40
13.0
 40
13.0
 40
14.0
 40
14.0
 40
14.0
 40
14.0
 10
109.3228705238846
 20
-109.4863403046597
 10
109.3228705238846
 20
-109.4863403046597
 10
109.2339870603651
 20
-109.4863403046597
 10
109.2339870603651
 20
-109.4863403046597
 10
109.2339870603651
 20
-109.573156710888
 10
109.2153835447448
 20
-109.9624525007212
 10
109.0431287704823
 20
-110.1824218474544
 10
108.9098035752031
 20
-110.3515760357802
 10
108.7282470431304
 20
-110.4215114741307
 10
108.6541774901976
 20
-110.4488999832385
 10
108.6541774901976
 20
-110.4488999832385
 10
108.4839897732262
 20
-110.2818128522039
 10
108.4839897732262
 20
-110.2818128522039
 10
108.5690836317119
 20
-110.2690659989084
 10
108.722734890354
 20
-110.245811604383
 10
108.887410454549
 20
-110.0575371361141
 10
108.9525227592202
 20
-109.9857068952466
 10
109.0431287704823
 20
-109.8460082733198
 10
109.0431287704823
 20
-109.4863403046597
 10
109.0431287704823
 20
-109.4863403046597
 10
108.8412461750466
 20
-109.4863403046597
 10
108.8412461750466
 20
-109.4863403046597
 10
108.6782931585943
 20
-109.4863403046597
 10
108.515340142142
 20
-109.4906466740162
 10
108.3523871256897
 20
-109.5054605846028
 10
108.3523871256897
 20
-109.5054605846028
 10
108.3523871256897
 20
-109.2854912378696
 10
108.3523871256897
 20
-109.2854912378696
 10
108.5174071994332
 20
-109.3003051484562
 10
108.7671766221138
 20
-109.3044392630385
 10
108.8412461750466
 20
-109.3044392630385
 10
108.8412461750466
 20
-109.3044392630385
 10
109.3228705238846
 20
-109.3044392630385
 10
109.3228705238846
 20
-109.3044392630385
 10
109.3394069822138
 20
-109.3044392630385
 10
109.6170816783249
 20
-109.3044392630385
 10
109.8172417260179
 20
-109.2854912378696
 10
109.8172417260179
 20
-109.2854912378696
 10
109.8172417260179
 20
-109.5054605846028
 10
109.8172417260179
 20
-109.5054605846028
 10
109.6522216522744
 20
-109.4906466740162
 10
109.4875460880795
 20
-109.4863403046597
 10
109.3228705238846
 20
-109.4863403046597
 97
        0
 97
        0
 92
        1
 93
        1
 72
     4
 94
        3
 73
     0
 74
     1
 95
       29
 96
       25
 40
0.0
 40
0.0
 40
0.0
 40
0.0
 40
1.0
 40
1.0
 40
1.0
 40
2.0
 40
2.0
 40
2.0
 40
3.0
 40
3.0
 40
3.0
 40
4.0
 40
4.0
 40
4.0
 40
5.0
 40
5.0
 40
5.0
 40
6.0
 40
6.0
 40
6.0
 40
7.0
 40
7.0
 40
7.0
 40
8.0
 40
8.0
 40
8.0
 40
8.0
 10
109.2339870603651
 20
-108.9575181476738
 10
109.2339870603651
 20
-108.9575181476738
 10
108.9246174857897
 20
-108.9575181476738
 10
108.9246174857897
 20
-108.9575181476738
 10
108.8264322644601
 20
-108.9575181476738
 10
108.7041313747337
 20
-108.9638915743215
 10
108.6097357584378
 20
-108.976638427617
 10
108.6097357584378
 20
-108.976638427617
 10
108.6097357584378
 20
-108.7416829155229
 10
108.6097357584378
 20
-108.7416829155229
 10
108.7134331325439
 20
-108.7564968261095
 10
108.8746636012536
 20
-108.7608031954661
 10
108.9246174857897
 20
-108.7608031954661
 10
108.9246174857897
 20
-108.7608031954661
 10
109.2339870603651
 20
-108.7608031954661
 10
109.2339870603651
 20
-108.7608031954661
 10
109.2505235186943
 20
-108.7608031954661
 10
109.4282904457332
 20
-108.7608031954661
 10
109.5523138832022
 20
-108.7416829155229
 10
109.5523138832022
 20
-108.7416829155229
 10
109.5523138832022
 20
-108.976638427617
 10
109.5523138832022
 20
-108.976638427617
 10
109.4151990828893
 20
-108.9575181476738
 10
109.2488009709517
 20
-108.9575181476738
 10
109.2339870603651
 20
-108.9575181476738
 97
        0
 97
        0
 75
     2
 76
     1
 98
        0
  0
SPLINE
  5
153
330
131
100
AcDbEntity
  8
_U+30EC_U+30A4_U+30E4_U+30FC 1
370
     0
100
AcDbSpline
210
0.0
220
0.0
230
1.0
 70
    11
 71
     3
 72
    29
 73
    25
 74
     0
 42
0.0000000001
 43
0.0000000001
 12
1.0
 22
0.0
 32
0.0
 13
1.0
 23
0.0
 33
0.0
 40
0.0
 40
0.0
 40
0.0
 40
0.0
 40
1.0
 40
1.0
 40
1.0
 40
2.0
 40
2.0
 40
2.0
 40
3.0
 40
3.0
 40
3.0
 40
4.0
 40
4.0
 40
4.0
 40
5.0
 40
5.0
 40
5.0
 40
6.0
 40
6.0
 40
6.0
 40
7.0
 40
7.0
 40
7.0
 40
8.0
 40
8.0
 40
8.0
 40
8.0
 10
110.9393093255638
 20
-109.649293321112
 30
0.0
 10
110.9393093255638
 20
-109.649293321112
 30
0.0
 10
110.5155625808781
 20
-109.649293321112
 30
0.0
 10
110.5155625808781
 20
-109.649293321112
 30
0.0
 10
110.4914469124813
 20
-109.649293321112
 30
0.0
 10
110.2137722163702
 20
-109.649293321112
 30
0.0
 10
110.0284260792637
 20
-109.6746147729286
 30
0.0
 10
110.0284260792637
 20
-109.6746147729286
 30
0.0
 10
110.0284260792637
 20
-109.4441378849654
 30
0.0
 10
110.0284260792637
 20
-109.4441378849654
 30
0.0
 10
110.1672634273193
 20
-109.4673922794908
 30
0.0
 10
110.3340060488054
 20
-109.469459336782
 30
0.0
 10
110.5155625808781
 20
-109.469459336782
 30
0.0
 10
110.5155625808781
 20
-109.469459336782
 30
0.0
 10
110.9393093255638
 20
-109.469459336782
 30
0.0
 10
110.9393093255638
 20
-109.469459336782
 30
0.0
 10
111.1026068515646
 20
-109.469459336782
 30
0.0
 10
111.2652153584684
 20
-109.4673922794908
 30
0.0
 10
111.4264458271781
 20
-109.4441378849654
 30
0.0
 10
111.4264458271781
 20
-109.4441378849654
 30
0.0
 10
111.4264458271781
 20
-109.6746147729286
 30
0.0
 10
111.4264458271781
 20
-109.6746147729286
 30
0.0
 10
111.2652153584684
 20
-109.6513603784031
 30
0.0
 10
111.0488633619947
 20
-109.649293321112
 30
0.0
 10
110.9393093255638
 20
-109.649293321112
 30
0.0
  0
HATCH
  5
154
330
131
100
AcDbEntity
  8
_U+30EC_U+30A4_U+30E4_U+30FC 1
 62
   179
420
  2234388
100
AcDbHatch
 10
0.0
 20
0.0
 30
0.0
210
0.0
220
0.0
230
1.0
  2
SOLID
 70
     1
 71
     0
 91
        1
 92
        1
 93
        1
 72
     4
 94
        3
 73
     0
 74
     1
 95
       29
 96
       25
 40
0.0
 40
0.0
 40
0.0
 40
0.0
 40
1.0
 40
1.0
 40
1.0
 40
2.0
 40
2.0
 40
2.0
 40
3.0
 40
3.0
 40
3.0
 40
4.0
 40
4.0
 40
4.0
 40
5.0
 40
5.0
 40
5.0
 40
6.0
 40
6.0
 40
6.0
 40
7.0
 40
7.0
 40
7.0
 40
8.0
 40
8.0
 40
8.0
 40
8.0
 10
110.9393093255638
 20
-109.649293321112
 10
110.9393093255638
 20
-109.649293321112
 10
110.5155625808781
 20
-109.649293321112
 10
110.5155625808781
 20
-109.649293321112
 10
110.4914469124813
 20
-109.649293321112
 10
110.2137722163702
 20
-109.649293321112
 10
110.0284260792637
 20
-109.6746147729286
 10
110.0284260792637
 20
-109.6746147729286
 10
110.0284260792637
 20
-109.4441378849654
 10
110.0284260792637
 20
-109.4441378849654
 10
110.1672634273193
 20
-109.4673922794908
 10
110.3340060488054
 20
-109.469459336782
 10
110.5155625808781
 20
-109.469459336782
 10
110.5155625808781
 20
-109.469459336782
 10
110.9393093255638
 20
-109.469459336782
 10
110.9393093255638
 20
-109.469459336782
 10
111.1026068515646
 20
-109.469459336782
 10
111.2652153584684
 20
-109.4673922794908
 10
111.4264458271781
 20
-109.4441378849654
 10
111.4264458271781
 20
-109.4441378849654
 10
111.4264458271781
 20
-109.6746147729286
 10
111.4264458271781
 20
-109.6746147729286
 10
111.2652153584684
 20
-109.6513603784031
 10
111.0488633619947
 20
-109.649293321112
 10
110.9393093255638
 20
-109.649293321112
 97
        0
 97
        0
 75
     2
 76
     1
 98
        0
  0
SPLINE
  5
155
330
131
100
AcDbEntity
  8
_U+30EC_U+30A4_U+30E4_U+30FC 1
370
     0
100
AcDbSpline
210
0.0
220
0.0
230
1.0
 70
    11
 71
     3
 72
    44
 73
    40
 74
     0
 42
0.0000000001
 43
0.0000000001
 12
1.0
 22
0.0
 32
0.0
 13
1.0
 23
0.0
 33
0.0
 40
0.0
 40
0.0
 40
0.0
 40
0.0
 40
1.0
 40
1.0
 40
1.0
 40
2.0
 40
2.0
 40
2.0
 40
3.0
 40
3.0
 40
3.0
 40
4.0
 40
4.0
 40
4.0
 40
5.0
 40
5.0
 40
5.0
 40
6.0
 40
6.0
 40
6.0
 40
7.0
 40
7.0
 40
7.0
 40
8.0
 40
8.0
 40
8.0
 40
9.0
 40
9.0
 40
9.0
 40
10.0
 40
10.0
 40
10.0
 40
11.0
 40
11.0
 40
11.0
 40
12.0
 40
12.0
 40
12.0
 40
13.0
 40
13.0
 40
13.0
 40
13.0
 10
112.8764865169198
 20
-109.2114216849367
 30
0.0
 10
112.7783012955902
 20
-109.5795301375357
 30
0.0
 10
112.7338595638304
 20
-109.7381767846314
 30
0.0
 10
112.5616047895679
 20
-109.9877739525378
 30
0.0
 10
112.4007188304068
 20
-110.2184230952753
 30
0.0
 10
112.1933240821947
 20
-110.4044582514788
 30
0.0
 10
111.948722302742
 20
-110.4976480843548
 30
0.0
 10
111.948722302742
 20
-110.4976480843548
 30
0.0
 10
111.7802571335133
 20
-110.3178141000247
 30
0.0
 10
111.7802571335133
 20
-110.3178141000247
 30
0.0
 10
112.3414631880605
 20
-110.1655408795767
 30
0.0
 10
112.6301621897244
 20
-109.6091579587088
 30
0.0
 10
112.6859727365855
 20
-109.1690470104682
 30
0.0
 10
112.6859727365855
 20
-109.1690470104682
 30
0.0
 10
112.0155571551558
 20
-109.1690470104682
 30
0.0
 10
112.0155571551558
 20
-109.1690470104682
 30
0.0
 10
111.9339083921554
 20
-109.1690470104682
 30
0.0
 10
111.7730224329943
 20
-109.1733533798247
 30
0.0
 10
111.6359076326813
 20
-109.1923014049936
 30
0.0
 10
111.6359076326813
 20
-109.1923014049936
 30
0.0
 10
111.6359076326813
 20
-108.9723320582604
 30
0.0
 10
111.6359076326813
 20
-108.9723320582604
 30
0.0
 10
111.7116997333568
 20
-108.9935193954947
 30
0.0
 10
111.9321858444128
 20
-108.9935193954947
 30
0.0
 10
112.0190022506411
 20
-108.9935193954947
 30
0.0
 10
112.0190022506411
 20
-108.9935193954947
 30
0.0
 10
112.396929225373
 20
-108.9935193954947
 30
0.0
 10
112.396929225373
 20
-108.9935193954947
 30
0.0
 10
112.4337917470652
 20
-108.9935193954947
 30
0.0
 10
112.6394639475346
 20
-108.9912800834293
 30
0.0
 10
112.6728813737415
 20
-108.9850789115558
 30
0.0
 10
112.7097438954337
 20
-108.9787054849081
 30
0.0
 10
112.7118109527248
 20
-108.976638427617
 30
0.0
 10
112.7655544422947
 20
-108.9363308104395
 30
0.0
 10
112.7655544422947
 20
-108.9363308104395
 30
0.0
 10
112.9302300064897
 20
-109.090843342953
 30
0.0
 10
112.9302300064897
 20
-109.090843342953
 30
0.0
 10
112.9043917903503
 20
-109.1204711641261
 30
0.0
 10
112.8913004275064
 20
-109.1521660425904
 30
0.0
 10
112.8764865169198
 20
-109.2114216849367
 30
0.0
  0
SPLINE
  5
156
330
131
100
AcDbEntity
  8
_U+30EC_U+30A4_U+30E4_U+30FC 1
370
     0
100
AcDbSpline
210
0.0
220
0.0
230
1.0
 70
    11
 71
     3
 72
    17
 73
    13
 74
     0
 42
0.0000000001
 43
0.0000000001
 12
1.0
 22
0.0
 32
0.0
 13
1.0
 23
0.0
 33
0.0
 40
0.0
 40
0.0
 40
0.0
 40
0.0
 40
1.0
 40
1.0
 40
1.0
 40
2.0
 40
2.0
 40
2.0
 40
3.0
 40
3.0
 40
3.0
 40
4.0
 40
4.0
 40
4.0
 40
4.0
 10
113.0597655967351
 20
-109.0124674206636
 30
0.0
 10
112.94883352211
 20
-109.0124674206636
 30
0.0
 10
112.8599500585906
 20
-108.9110093586229
 30
0.0
 10
112.8599500585906
 20
-108.7840575899915
 30
0.0
 10
112.8599500585906
 20
-108.65710582136
 30
0.0
 10
112.94883352211
 20
-108.553408447254
 30
0.0
 10
113.0597655967351
 20
-108.553408447254
 30
0.0
 10
113.1710421809086
 20
-108.553408447254
 30
0.0
 10
113.2616481921707
 20
-108.65710582136
 30
0.0
 10
113.2616481921707
 20
-108.7840575899915
 30
0.0
 10
113.2616481921707
 20
-108.9110093586229
 30
0.0
 10
113.1710421809086
 20
-109.0124674206636
 30
0.0
 10
113.0597655967351
 20
-109.0124674206636
 30
0.0
  0
SPLINE
  5
157
330
131
100
AcDbEntity
  8
_U+30EC_U+30A4_U+30E4_U+30FC 1
370
     0
100
AcDbSpline
210
0.0
220
0.0
230
1.0
 70
    11
 71
     3
 72
    17
 73
    13
 74
     0
 42
0.0000000001
 43
0.0000000001
 12
1.0
 22
0.0
 32
0.0
 13
1.0
 23
0.0
 33
0.0
 40
0.0
 40
0.0
 40
0.0
 40
0.0
 40
1.0
 40
1.0
 40
1.0
 40
2.0
 40
2.0
 40
2.0
 40
3.0
 40
3.0
 40
3.0
 40
4.0
 40
4.0
 40
4.0
 40
4.0
 10
113.0580430489924
 20
-108.6824272731766
 30
0.0
 10
113.0098117121989
 20
-108.6824272731766
 30
0.0
 10
112.9708821332156
 20
-108.7268690049363
 30
0.0
 10
112.9708821332156
 20
-108.7819905327003
 30
0.0
 10
112.9708821332156
 20
-108.8390068629812
 30
0.0
 10
113.0098117121989
 20
-108.8877549640975
 30
0.0
 10
113.0618326540262
 20
-108.8877549640975
 30
0.0
 10
113.113509086305
 20
-108.8877549640975
 30
0.0
 10
113.1486490602545
 20
-108.8369398056901
 30
0.0
 10
113.1486490602545
 20
-108.7840575899915
 30
0.0
 10
113.1486490602545
 20
-108.7268690049363
 30
0.0
 10
113.1079969335286
 20
-108.6824272731766
 30
0.0
 10
113.0580430489924
 20
-108.6824272731766
 30
0.0
  0
HATCH
  5
158
330
131
100
AcDbEntity
  8
_U+30EC_U+30A4_U+30E4_U+30FC 1
 62
   179
420
  2234388
100
AcDbHatch
 10
0.0
 20
0.0
 30
0.0
210
0.0
220
0.0
230
1.0
  2
SOLID
 70
     1
 71
     0
 91
        3
 92
        1
 93
        1
 72
     4
 94
        3
 73
     0
 74
     1
 95
       44
 96
       40
 40
0.0
 40
0.0
 40
0.0
 40
0.0
 40
1.0
 40
1.0
 40
1.0
 40
2.0
 40
2.0
 40
2.0
 40
3.0
 40
3.0
 40
3.0
 40
4.0
 40
4.0
 40
4.0
 40
5.0
 40
5.0
 40
5.0
 40
6.0
 40
6.0
 40
6.0
 40
7.0
 40
7.0
 40
7.0
 40
8.0
 40
8.0
 40
8.0
 40
9.0
 40
9.0
 40
9.0
 40
10.0
 40
10.0
 40
10.0
 40
11.0
 40
11.0
 40
11.0
 40
12.0
 40
12.0
 40
12.0
 40
13.0
 40
13.0
 40
13.0
 40
13.0
 10
112.8764865169198
 20
-109.2114216849367
 10
112.7783012955902
 20
-109.5795301375357
 10
112.7338595638304
 20
-109.7381767846314
 10
112.5616047895679
 20
-109.9877739525378
 10
112.4007188304068
 20
-110.2184230952753
 10
112.1933240821947
 20
-110.4044582514788
 10
111.948722302742
 20
-110.4976480843548
 10
111.948722302742
 20
-110.4976480843548
 10
111.7802571335133
 20
-110.3178141000247
 10
111.7802571335133
 20
-110.3178141000247
 10
112.3414631880605
 20
-110.1655408795767
 10
112.6301621897244
 20
-109.6091579587088
 10
112.6859727365855
 20
-109.1690470104682
 10
112.6859727365855
 20
-109.1690470104682
 10
112.0155571551558
 20
-109.1690470104682
 10
112.0155571551558
 20
-109.1690470104682
 10
111.9339083921554
 20
-109.1690470104682
 10
111.7730224329943
 20
-109.1733533798247
 10
111.6359076326813
 20
-109.1923014049936
 10
111.6359076326813
 20
-109.1923014049936
 10
111.6359076326813
 20
-108.9723320582604
 10
111.6359076326813
 20
-108.9723320582604
 10
111.7116997333568
 20
-108.9935193954947
 10
111.9321858444128
 20
-108.9935193954947
 10
112.0190022506411
 20
-108.9935193954947
 10
112.0190022506411
 20
-108.9935193954947
 10
112.396929225373
 20
-108.9935193954947
 10
112.396929225373
 20
-108.9935193954947
 10
112.4337917470652
 20
-108.9935193954947
 10
112.6394639475346
 20
-108.9912800834293
 10
112.6728813737415
 20
-108.9850789115558
 10
112.7097438954337
 20
-108.9787054849081
 10
112.7118109527248
 20
-108.976638427617
 10
112.7655544422947
 20
-108.9363308104395
 10
112.7655544422947
 20
-108.9363308104395
 10
112.9302300064897
 20
-109.090843342953
 10
112.9302300064897
 20
-109.090843342953
 10
112.9043917903503
 20
-109.1204711641261
 10
112.8913004275064
 20
-109.1521660425904
 10
112.8764865169198
 20
-109.2114216849367
 97
        0
 97
        0
 92
        1
 93
        1
 72
     4
 94
        3
 73
     0
 74
     1
 95
       17
 96
       13
 40
0.0
 40
0.0
 40
0.0
 40
0.0
 40
1.0
 40
1.0
 40
1.0
 40
2.0
 40
2.0
 40
2.0
 40
3.0
 40
3.0
 40
3.0
 40
4.0
 40
4.0
 40
4.0
 40
4.0
 10
113.0597655967351
 20
-109.0124674206636
 10
112.94883352211
 20
-109.0124674206636
 10
112.8599500585906
 20
-108.9110093586229
 10
112.8599500585906
 20
-108.7840575899915
 10
112.8599500585906
 20
-108.65710582136
 10
112.94883352211
 20
-108.553408447254
 10
113.0597655967351
 20
-108.553408447254
 10
113.1710421809086
 20
-108.553408447254
 10
113.2616481921707
 20
-108.65710582136
 10
113.2616481921707
 20
-108.7840575899915
 10
113.2616481921707
 20
-108.9110093586229
 10
113.1710421809086
 20
-109.0124674206636
 10
113.0597655967351
 20
-109.0124674206636
 97
        0
 97
        0
 92
        1
 93
        1
 72
     4
 94
        3
 73
     0
 74
     1
 95
       17
 96
       13
 40
0.0
 40
0.0
 40
0.0
 40
0.0
 40
1.0
 40
1.0
 40
1.0
 40
2.0
 40
2.0
 40
2.0
 40
3.0
 40
3.0
 40
3.0
 40
4.0
 40
4.0
 40
4.0
 40
4.0
 10
113.0580430489924
 20
-108.6824272731766
 10
113.0098117121989
 20
-108.6824272731766
 10
112.9708821332156
 20
-108.7268690049363
 10
112.9708821332156
 20
-108.7819905327003
 10
112.9708821332156
 20
-108.8390068629812
 10
113.0098117121989
 20
-108.8877549640975
 10
113.0618326540262
 20
-108.8877549640975
 10
113.113509086305
 20
-108.8877549640975
 10
113.1486490602545
 20
-108.8369398056901
 10
113.1486490602545
 20
-108.7840575899915
 10
113.1486490602545
 20
-108.7268690049363
 10
113.1079969335286
 20
-108.6824272731766
 10
113.0580430489924
 20
-108.6824272731766
 97
        0
 97
        0
 75
     2
 76
     1
 98
        0
  0
ENDBLK
  5
134
330
131
100
AcDbEntity
  8
0
100
AcDbBlockEnd
  0
ENDSEC
  0
SECTION
  2
ENTITIES
  0
POLYLINE
  5
41
330
1F
100
AcDbEntity
  8
_U+30EC_U+30A4_U+30E4_U+30FC 1
 62
   179
420
  2234388
370
    25
100
AcDb2dPolyline
 66
     1
 10
0.0
 20
0.0
 30
0.0
  0
VERTEX
  5
42
330
41
100
AcDbEntity
  8
_U+30EC_U+30A4_U+30E4_U+30FC 1
 62
   179
420
  2234388
370
    25
100
AcDbVertex
100
AcDb2dVertex
 10
97.8369194199854
 20
-153.3553221838836
 30
0.0
  0
VERTEX
  5
43
330
41
100
AcDbEntity
  8
_U+30EC_U+30A4_U+30E4_U+30FC 1
 62
   179
420
  2234388
370
    25
100
AcDbVertex
100
AcDb2dVertex
 10
120.0081883272249
 20
-153.3553221838836
 30
0.0
  0
SEQEND
  5
44
330
41
100
AcDbEntity
  8
_U+30EC_U+30A4_U+30E4_U+30FC 1
 62
   179
420
  2234388
370
    25
  0
POLYLINE
  5
45
330
1F
100
AcDbEntity
  8
_U+30EC_U+30A4_U+30E4_U+30FC 1
 62
   179
420
  2234388
370
    25
100
AcDb2dPolyline
 66
     1
 10
0.0
 20
0.0
 30
0.0
  0
VERTEX
  5
46
330
45
100
AcDbEntity
  8
_U+30EC_U+30A4_U+30E4_U+30FC 1
 62
   179
420
  2234388
370
    25
100
AcDbVertex
100
AcDb2dVertex
 10
120.0081883272249
 20
-153.3553221838836
 30
0.0
  0
VERTEX
  5
47
330
45
100
AcDbEntity
  8
_U+30EC_U+30A4_U+30E4_U+30FC 1
 62
   179
420
  2234388
370
    25
100
AcDbVertex
100
AcDb2dVertex
 10
120.0081883272249
 20
-153.8486466282047
 30
0.0
  0
SEQEND
  5
48
330
45
100
AcDbEntity
  8
_U+30EC_U+30A4_U+30E4_U+30FC 1
 62
   179
420
  2234388
370
    25
  0
POLYLINE
  5
49
330
1F
100
AcDbEntity
  8
_U+30EC_U+30A4_U+30E4_U+30FC 1
 62
   179
420
  2234388
370
    25
100
AcDb2dPolyline
 66
     1
 10
0.0
 20
0.0
 30
0.0
  0
VERTEX
  5
4A
330
49
100
AcDbEntity
  8
_U+30EC_U+30A4_U+30E4_U+30FC 1
 62
   179
420
  2234388
370
    25
100
AcDbVertex
100
AcDb2dVertex
 10
68.52193102963768
 20
-101.8685344189773
 30
0.0
  0
VERTEX
  5
4B
330
49
100
AcDbEntity
  8
_U+30EC_U+30A4_U+30E4_U+30FC 1
 62
   179
420
  2234388
370
    25
100
AcDbVertex
100
AcDb2dVertex
 10
68.02959437553156
 20
-101.8685344189773
 30
0.0
  0
SEQEND
  5
4C
330
49
100
AcDbEntity
  8
_U+30EC_U+30A4_U+30E4_U+30FC 1
 62
   179
420
  2234388
370
    25
  0
POLYLINE
  5
4D
330
1F
100
AcDbEntity
  8
_U+30EC_U+30A4_U+30E4_U+30FC 1
 62
   179
420
  2234388
370
    25
100
AcDb2dPolyline
 66
     1
 10
0.0
 20
0.0
 30
0.0
  0
VERTEX
  5
4E
330
4D
100
AcDbEntity
  8
_U+30EC_U+30A4_U+30E4_U+30FC 1
 62
   179
420
  2234388
370
    25
100
AcDbVertex
100
AcDb2dVertex
 10
68.52193102963768
 20
-124.0399827467679
 30
0.0
  0
VERTEX
  5
4F
330
4D
100
AcDbEntity
  8
_U+30EC_U+30A4_U+30E4_U+30FC 1
 62
   179
420
  2234388
370
    25
100
AcDbVertex
100
AcDb2dVertex
 10
68.52193102963768
 20
-101.8685344189773
 30
0.0
  0
SEQEND
  5
50
330
4D
100
AcDbEntity
  8
_U+30EC_U+30A4_U+30E4_U+30FC 1
 62
   179
420
  2234388
370
    25
  0
POLYLINE
  5
51
330
1F
100
AcDbEntity
  8
_U+30EC_U+30A4_U+30E4_U+30FC 1
 62
   179
420
  2234388
370
     9
100
AcDb2dPolyline
 66
     1
 10
0.0
 20
0.0
 30
0.0
  0
VERTEX
  5
52
330
51
100
AcDbEntity
  8
_U+30EC_U+30A4_U+30E4_U+30FC 1
 62
   179
420
  2234388
370
     9
100
AcDbVertex
100
AcDb2dVertex
 10
75.4472408529583
 20
-146.8819910743903
 30
0.0
  0
VERTEX
  5
53
330
51
100
AcDbEntity
  8
_U+30EC_U+30A4_U+30E4_U+30FC 1
 62
   179
420
  2234388
370
     9
100
AcDbVertex
100
AcDb2dVertex
 10
76.063226115021
 20
-145.8154027413236
 30
0.0
  0
SEQEND
  5
54
330
51
100
AcDbEntity
  8
_U+30EC_U+30A4_U+30E4_U+30FC 1
 62
   179
420
  2234388
370
     9
  0
POLYLINE
  5
55
330
1F
100
AcDbEntity
  8
_U+30EC_U+30A4_U+30E4_U+30FC 1
 62
   179
420
  2234388
370
     9
100
AcDb2dPolyline
 66
     1
 10
0.0
 20
0.0
 30
0.0
  0
VERTEX
  5
56
330
55
100
AcDbEntity
  8
_U+30EC_U+30A4_U+30E4_U+30FC 1
 62
   179
420
  2234388
370
     9
100
AcDbVertex
100
AcDb2dVertex
 10
74.9966378088986
 20
-146.4306824633926
 30
0.0
  0
VERTEX
  5
57
330
55
100
AcDbEntity
  8
_U+30EC_U+30A4_U+30E4_U+30FC 1
 62
   179
420
  2234388
370
     9
100
AcDbVertex
100
AcDb2dVertex
 10
76.063226115021
 20
-145.8154027413236
 30
0.0
  0
SEQEND
  5
58
330
55
100
AcDbEntity
  8
_U+30EC_U+30A4_U+30E4_U+30FC 1
 62
   179
420
  2234388
370
     9
  0
POLYLINE
  5
59
330
1F
100
AcDbEntity
  8
_U+30EC_U+30A4_U+30E4_U+30FC 1
 62
   179
420
  2234388
370
     9
100
AcDb2dPolyline
 66
     1
 10
0.0
 20
0.0
 30
0.0
  0
VERTEX
  5
5A
330
59
100
AcDbEntity
  8
_U+30EC_U+30A4_U+30E4_U+30FC 1
 62
   179
420
  2234388
370
     9
100
AcDbVertex
100
AcDb2dVertex
 10
62.1171448041485
 20
-159.7604613489485
 30
0.0
  0
VERTEX
  5
5B
330
59
100
AcDbEntity
  8
_U+30EC_U+30A4_U+30E4_U+30FC 1
 62
   179
420
  2234388
370
     9
100
AcDbVertex
100
AcDb2dVertex
 10
76.063226115021
 20
-145.8154027413236
 30
0.0
  0
SEQEND
  5
5C
330
59
100
AcDbEntity
  8
_U+30EC_U+30A4_U+30E4_U+30FC 1
 62
   179
420
  2234388
370
     9
  0
POLYLINE
  5
5D
330
1F
100
AcDbEntity
  8
_U+30EC_U+30A4_U+30E4_U+30FC 1
 62
   179
420
  2234388
370
     9
100
AcDb2dPolyline
 66
     1
 10
0.0
 20
0.0
 30
0.0
  0
VERTEX
  5
5E
330
5D
100
AcDbEntity
  8
_U+30EC_U+30A4_U+30E4_U+30FC 1
 62
   179
420
  2234388
370
     9
100
AcDbVertex
100
AcDb2dVertex
 10
55.7540583193947
 20
-159.7604613489485
 30
0.0
  0
VERTEX
  5
5F
330
5D
100
AcDbEntity
  8
_U+30EC_U+30A4_U+30E4_U+30FC 1
 62
   179
420
  2234388
370
     9
100
AcDbVertex
100
AcDb2dVertex
 10
62.1171448041485
 20
-159.7604613489485
 30
0.0
  0
SEQEND
  5
60
330
5D
100
AcDbEntity
  8
_U+30EC_U+30A4_U+30E4_U+30FC 1
 62
   179
420
  2234388
370
     9
  0
POLYLINE
  5
61
330
1F
100
AcDbEntity
  8
_U+30EC_U+30A4_U+30E4_U+30FC 1
 62
   179
420
  2234388
370
    25
100
AcDb2dPolyline
 66
     1
 10
0.0
 20
0.0
 30
0.0
  0
VERTEX
  5
62
330
61
100
AcDbEntity
  8
_U+30EC_U+30A4_U+30E4_U+30FC 1
 62
   179
420
  2234388
370
    25
100
AcDbVertex
100
AcDb2dVertex
 10
120.0081883272249
 20
-153.8486466282047
 30
0.0
  0
VERTEX
  5
63
330
61
100
AcDbEntity
  8
_U+30EC_U+30A4_U+30E4_U+30FC 1
 62
   179
420
  2234388
370
    25
100
AcDbVertex
100
AcDb2dVertex
 10
99.24940385682565
 20
-154.8022755168552
 30
0.0
  0
SEQEND
  5
64
330
61
100
AcDbEntity
  8
_U+30EC_U+30A4_U+30E4_U+30FC 1
 62
   179
420
  2234388
370
    25
  0
POLYLINE
  5
65
330
1F
100
AcDbEntity
  8
_U+30EC_U+30A4_U+30E4_U+30FC 1
 62
   179
420
  2234388
370
    25
100
AcDb2dPolyline
 66
     1
 10
0.0
 20
0.0
 30
0.0
  0
VERTEX
  5
66
330
65
100
AcDbEntity
  8
_U+30EC_U+30A4_U+30E4_U+30FC 1
 62
   179
420
  2234388
370
    25
100
AcDbVertex
100
AcDb2dVertex
 10
68.02959437553156
 20
-101.8685344189773
 30
0.0
  0
VERTEX
  5
67
330
65
100
AcDbEntity
  8
_U+30EC_U+30A4_U+30E4_U+30FC 1
 62
   179
420
  2234388
370
    25
100
AcDbVertex
100
AcDb2dVertex
 10
67.07635356651743
 20
-122.6274958026763
 30
0.0
  0
SEQEND
  5
68
330
65
100
AcDbEntity
  8
_U+30EC_U+30A4_U+30E4_U+30FC 1
 62
   179
420
  2234388
370
    25
  0
SPLINE
  5
69
330
1F
100
AcDbEntity
  8
_U+30EC_U+30A4_U+30E4_U+30FC 1
 62
   179
420
  2234388
370
     9
100
AcDbSpline
210
0.0
220
0.0
230
1.0
 70
    11
 71
     3
 72
    17
 73
    13
 74
     0
 42
0.0000000001
 43
0.0000000001
 12
1.0
 22
0.0
 32
0.0
 13
1.0
 23
0.0
 33
0.0
 40
0.0
 40
0.0
 40
0.0
 40
0.0
 40
1.0
 40
1.0
 40
1.0
 40
2.0
 40
2.0
 40
2.0
 40
3.0
 40
3.0
 40
3.0
 40
4.0
 40
4.0
 40
4.0
 40
4.0
 10
125.0586959761535
 20
-153.3553221838836
 30
0.0
 10
125.0586959761535
 20
-153.2878005172339
 30
0.0
 10
125.0035568108936
 20
-153.2326966283584
 30
0.0
 10
124.9353648681889
 20
-153.2326966283584
 30
0.0
 10
124.8678432032448
 20
-153.2326966283584
 30
0.0
 10
124.8120337602242
 20
-153.2878005172339
 30
0.0
 10
124.8120337602242
 20
-153.3553221838836
 30
0.0
 10
124.8120337602242
 20
-153.4235494060888
 30
0.0
 10
124.8678432032448
 20
-153.4786532949637
 30
0.0
 10
124.9353648681889
 20
-153.4786532949637
 30
0.0
 10
125.0035568108936
 20
-153.4786532949637
 30
0.0
 10
125.0586959761535
 20
-153.4235494060888
 30
0.0
 10
125.0586959761535
 20
-153.3553221838836
 30
0.0
  0
SPLINE
  5
6A
330
1F
100
AcDbEntity
  8
_U+30EC_U+30A4_U+30E4_U+30FC 1
 62
   179
420
  2234388
370
     9
100
AcDbSpline
210
0.0
220
0.0
230
1.0
 70
    11
 71
     3
 72
    17
 73
    13
 74
     0
 42
0.0000000001
 43
0.0000000001
 12
1.0
 22
0.0
 32
0.0
 13
1.0
 23
0.0
 33
0.0
 40
0.0
 40
0.0
 40
0.0
 40
0.0
 40
1.0
 40
1.0
 40
1.0
 40
2.0
 40
2.0
 40
2.0
 40
3.0
 40
3.0
 40
3.0
 40
4.0
 40
4.0
 40
4.0
 40
4.0
 10
125.0586959761535
 20
-153.8486466282047
 30
0.0
 10
125.0586959761535
 20
-153.781124961555
 30
0.0
 10
125.0035568108936
 20
-153.7260210726795
 30
0.0
 10
124.9353648681889
 20
-153.7260210726795
 30
0.0
 10
124.8678432032448
 20
-153.7260210726795
 30
0.0
 10
124.8120337602242
 20
-153.781124961555
 30
0.0
 10
124.8120337602242
 20
-153.8486466282047
 30
0.0
 10
124.8120337602242
 20
-153.9168738504099
 30
0.0
 10
124.8678432032448
 20
-153.9720130170624
 30
0.0
 10
124.9353648681889
 20
-153.9720130170624
 30
0.0
 10
125.0035568108936
 20
-153.9720130170624
 30
0.0
 10
125.0586959761535
 20
-153.9168738504099
 30
0.0
 10
125.0586959761535
 20
-153.8486466282047
 30
0.0
  0
SPLINE
  5
6B
330
1F
100
AcDbEntity
  8
_U+30EC_U+30A4_U+30E4_U+30FC 1
 62
   179
420
  2234388
370
     9
100
AcDbSpline
210
0.0
220
0.0
230
1.0
 70
    11
 71
     3
 72
    17
 73
    13
 74
     0
 42
0.0000000001
 43
0.0000000001
 12
1.0
 22
0.0
 32
0.0
 13
1.0
 23
0.0
 33
0.0
 40
0.0
 40
0.0
 40
0.0
 40
0.0
 40
1.0
 40
1.0
 40
1.0
 40
2.0
 40
2.0
 40
2.0
 40
3.0
 40
3.0
 40
3.0
 40
4.0
 40
4.0
 40
4.0
 40
4.0
 10
120.1315194351896
 20
-159.7604613489485
 30
0.0
 10
120.1315194351896
 20
-159.6929396822989
 30
0.0
 10
120.0770888588697
 20
-159.6378005156464
 30
0.0
 10
120.0081883272249
 20
-159.6378005156464
 30
0.0
 10
119.9399611067433
 20
-159.6378005156464
 30
0.0
 10
119.8848572192603
 20
-159.6929396822989
 30
0.0
 10
119.8848572192603
 20
-159.7604613489485
 30
0.0
 10
119.8848572192603
 20
-159.8286532933762
 30
0.0
 10
119.9399611067433
 20
-159.8837924600293
 30
0.0
 10
120.0081883272249
 20
-159.8837924600293
 30
0.0
 10
120.0770888588697
 20
-159.8837924600293
 30
0.0
 10
120.1315194351896
 20
-159.8286532933762
 30
0.0
 10
120.1315194351896
 20
-159.7604613489485
 30
0.0
  0
SPLINE
  5
6C
330
1F
100
AcDbEntity
  8
_U+30EC_U+30A4_U+30E4_U+30FC 1
 62
   179
420
  2234388
370
     9
100
AcDbSpline
210
0.0
220
0.0
230
1.0
 70
    11
 71
     3
 72
    17
 73
    13
 74
     0
 42
0.0000000001
 43
0.0000000001
 12
1.0
 22
0.0
 32
0.0
 13
1.0
 23
0.0
 33
0.0
 40
0.0
 40
0.0
 40
0.0
 40
0.0
 40
1.0
 40
1.0
 40
1.0
 40
2.0
 40
2.0
 40
2.0
 40
3.0
 40
3.0
 40
3.0
 40
4.0
 40
4.0
 40
4.0
 40
4.0
 10
67.16729967530831
 20
-159.7604613489485
 30
0.0
 10
67.16729967530831
 20
-159.6929396822989
 30
0.0
 10
67.11219578782524
 20
-159.6378005156464
 30
0.0
 10
67.04396856734364
 20
-159.6378005156464
 30
0.0
 10
66.97609412463082
 20
-159.6378005156464
 30
0.0
 10
66.92099023714775
 20
-159.6929396822989
 30
0.0
 10
66.92099023714775
 20
-159.7604613489485
 30
0.0
 10
66.92099023714775
 20
-159.8286532933762
 30
0.0
 10
66.97609412463082
 20
-159.8837924600293
 30
0.0
 10
67.04396856734364
 20
-159.8837924600293
 30
0.0
 10
67.11219578782524
 20
-159.8837924600293
 30
0.0
 10
67.16729967530831
 20
-159.8286532933762
 30
0.0
 10
67.16729967530831
 20
-159.7604613489485
 30
0.0
  0
SPLINE
  5
6D
330
1F
100
AcDbEntity
  8
_U+30EC_U+30A4_U+30E4_U+30FC 1
 62
   179
420
  2234388
370
     9
100
AcDbSpline
210
0.0
220
0.0
230
1.0
 70
    11
 71
     3
 72
    17
 73
    13
 74
     0
 42
0.0000000001
 43
0.0000000001
 12
1.0
 22
0.0
 32
0.0
 13
1.0
 23
0.0
 33
0.0
 40
0.0
 40
0.0
 40
0.0
 40
0.0
 40
1.0
 40
1.0
 40
1.0
 40
2.0
 40
2.0
 40
2.0
 40
3.0
 40
3.0
 40
3.0
 40
4.0
 40
4.0
 40
4.0
 40
4.0
 10
68.15260798350434
 20
-98.8823410863906
 30
0.0
 10
68.15260798350434
 20
-98.81411386418539
 30
0.0
 10
68.0974688182444
 20
-98.75900997531015
 30
0.0
 10
68.02959437553156
 20
-98.75900997531015
 30
0.0
 10
67.96140243282684
 20
-98.75900997531015
 30
0.0
 10
67.9062632675669
 20
-98.81411386418539
 30
0.0
 10
67.9062632675669
 20
-98.8823410863906
 30
0.0
 10
67.9062632675669
 20
-98.94986275304028
 30
0.0
 10
67.96140243282684
 20
-99.00567219747072
 30
0.0
 10
68.02959437553156
 20
-99.00567219747072
 30
0.0
 10
68.0974688182444
 20
-99.00567219747072
 30
0.0
 10
68.15260798350434
 20
-98.94986275304028
 30
0.0
 10
68.15260798350434
 20
-98.8823410863906
 30
0.0
  0
SPLINE
  5
6E
330
1F
100
AcDbEntity
  8
_U+30EC_U+30A4_U+30E4_U+30FC 1
 62
   179
420
  2234388
370
     9
100
AcDbSpline
210
0.0
220
0.0
230
1.0
 70
    11
 71
     3
 72
    17
 73
    13
 74
     0
 42
0.0000000001
 43
0.0000000001
 12
1.0
 22
0.0
 32
0.0
 13
1.0
 23
0.0
 33
0.0
 40
0.0
 40
0.0
 40
0.0
 40
0.0
 40
1.0
 40
1.0
 40
1.0
 40
2.0
 40
2.0
 40
2.0
 40
3.0
 40
3.0
 40
3.0
 40
4.0
 40
4.0
 40
4.0
 40
4.0
 10
68.6452638717276
 20
-98.8823410863906
 30
0.0
 10
68.6452638717276
 20
-98.81411386418539
 30
0.0
 10
68.5901229723424
 20
-98.75900997531015
 30
0.0
 10
68.52193102963768
 20
-98.75900997531015
 30
0.0
 10
68.45437408691676
 20
-98.75900997531015
 30
0.0
 10
68.3989174216649
 20
-98.81411386418539
 30
0.0
 10
68.3989174216649
 20
-98.8823410863906
 30
0.0
 10
68.3989174216649
 20
-98.94986275304028
 30
0.0
 10
68.45437408691676
 20
-99.00567219747072
 30
0.0
 10
68.52193102963768
 20
-99.00567219747072
 30
0.0
 10
68.5901229723424
 20
-99.00567219747072
 30
0.0
 10
68.6452638717276
 20
-98.94986275304028
 30
0.0
 10
68.6452638717276
 20
-98.8823410863906
 30
0.0
  0
SPLINE
  5
6F
330
1F
100
AcDbEntity
  8
_U+30EC_U+30A4_U+30E4_U+30FC 1
 62
   179
420
  2234388
370
     9
100
AcDbSpline
210
0.0
220
0.0
230
1.0
 70
    11
 71
     3
 72
    17
 73
    13
 74
     0
 42
0.0000000001
 43
0.0000000001
 12
1.0
 22
0.0
 32
0.0
 13
1.0
 23
0.0
 33
0.0
 40
0.0
 40
0.0
 40
0.0
 40
0.0
 40
1.0
 40
1.0
 40
1.0
 40
2.0
 40
2.0
 40
2.0
 40
3.0
 40
3.0
 40
3.0
 40
4.0
 40
4.0
 40
4.0
 40
4.0
 10
62.24012313434439
 20
-101.8685344189773
 30
0.0
 10
62.24012313434439
 20
-101.8003424745499
 30
0.0
 10
62.18533674685322
 20
-101.7459088634524
 30
0.0
 10
62.1171448041485
 20
-101.7459088634524
 30
0.0
 10
62.04927036143567
 20
-101.7459088634524
 30
0.0
 10
61.99413119617573
 20
-101.8003424745499
 30
0.0
 10
61.99413119617573
 20
-101.8685344189773
 30
0.0
 10
61.99413119617573
 20
-101.9367616411825
 30
0.0
 10
62.04927036143567
 20
-101.9918655300577
 30
0.0
 10
62.1171448041485
 20
-101.9918655300577
 30
0.0
 10
62.18533674685322
 20
-101.9918655300577
 30
0.0
 10
62.24012313434439
 20
-101.9367616411825
 30
0.0
 10
62.24012313434439
 20
-101.8685344189773
 30
0.0
  0
SPLINE
  5
70
330
1F
100
AcDbEntity
  8
_U+30EC_U+30A4_U+30E4_U+30FC 1
 62
   179
420
  2234388
370
     9
100
AcDbSpline
210
0.0
220
0.0
230
1.0
 70
    11
 71
     3
 72
    17
 73
    13
 74
     0
 42
0.0000000001
 43
0.0000000001
 12
1.0
 22
0.0
 32
0.0
 13
1.0
 23
0.0
 33
0.0
 40
0.0
 40
0.0
 40
0.0
 40
0.0
 40
1.0
 40
1.0
 40
1.0
 40
2.0
 40
2.0
 40
2.0
 40
3.0
 40
3.0
 40
3.0
 40
4.0
 40
4.0
 40
4.0
 40
4.0
 10
62.24012313434439
 20
-154.8339549612916
 30
0.0
 10
62.24012313434439
 20
-154.7664332946419
 30
0.0
 10
62.18533674685322
 20
-154.7113294057663
 30
0.0
 10
62.1171448041485
 20
-154.7113294057663
 30
0.0
 10
62.04927036143567
 20
-154.7113294057663
 30
0.0
 10
61.99413119617573
 20
-154.7664332946419
 30
0.0
 10
61.99413119617573
 20
-154.8339549612916
 30
0.0
 10
61.99413119617573
 20
-154.9021821834968
 30
0.0
 10
62.04927036143567
 20
-154.9572860723717
 30
0.0
 10
62.1171448041485
 20
-154.9572860723717
 30
0.0
 10
62.18533674685322
 20
-154.9572860723717
 30
0.0
 10
62.24012313434439
 20
-154.9021821834968
 30
0.0
 10
62.24012313434439
 20
-154.8339549612916
 30
0.0
  0
SPLINE
  5
71
330
1F
100
AcDbEntity
  8
_U+30EC_U+30A4_U+30E4_U+30FC 1
 62
   179
420
  2234388
370
    25
100
AcDbSpline
210
0.0
220
0.0
230
1.0
 70
     8
 71
     3
 72
    11
 73
     7
 74
     0
 42
0.0000000001
 43
0.0000000001
 12
1.0
 22
0.0
 32
0.0
 13
1.0
 23
0.0
 33
0.0
 40
0.0
 40
0.0
 40
0.0
 40
0.0
 40
1.0
 40
1.0
 40
1.0
 40
2.0
 40
2.0
 40
2.0
 40
2.0
 10
67.07635356651743
 20
-122.6274958026763
 30
0.0
 10
66.2965383086344
 20
-139.616956076207
 30
0.0
 10
79.43666352895742
 20
-154.0222838503831
 30
0.0
 10
96.4251355955454
 20
-154.8022755168552
 30
0.0
 10
97.36631386454724
 20
-154.844291350178
 30
0.0
 10
98.3088983252644
 20
-154.844291350178
 30
0.0
 10
99.24940385682565
 20
-154.8022755168552
 30
0.0
  0
SPLINE
  5
72
330
1F
100
AcDbEntity
  8
_U+30EC_U+30A4_U+30E4_U+30FC 1
 62
   179
420
  2234388
370
    25
100
AcDbSpline
210
0.0
220
0.0
230
1.0
 70
     8
 71
     3
 72
     8
 73
     4
 74
     0
 42
0.0000000001
 43
0.0000000001
 12
1.0
 22
0.0
 32
0.0
 13
1.0
 23
0.0
 33
0.0
 40
0.0
 40
0.0
 40
0.0
 40
0.0
 40
1.0
 40
1.0
 40
1.0
 40
1.0
 10
68.52193102963768
 20
-124.0399827467679
 30
0.0
 10
68.52193102963768
 20
-140.23089524272
 30
0.0
 10
81.64702791701079
 20
-153.3553221838836
 30
0.0
 10
97.8369194199854
 20
-153.3553221838836
 30
0.0
  0
INSERT
  5
74
330
1F
100
AcDbEntity
  8
_U+30EC_U+30A4_U+30E4_U+30FC 1
100
AcDbBlockReference
  2
block 2
 10
0.0
 20
0.0
 30
0.0
  0
POLYLINE
  5
7F
330
1F
100
AcDbEntity
  8
_U+30EC_U+30A4_U+30E4_U+30FC 1
 62
   179
420
  2234388
370
     9
100
AcDb2dPolyline
 66
     1
 10
0.0
 20
0.0
 30
0.0
  0
VERTEX
  5
80
330
7F
100
AcDbEntity
  8
_U+30EC_U+30A4_U+30E4_U+30FC 1
 62
   179
420
  2234388
370
     9
100
AcDbVertex
100
AcDb2dVertex
 10
124.9353648681889
 20
-153.3553221838836
 30
0.0
  0
VERTEX
  5
81
330
7F
100
AcDbEntity
  8
_U+30EC_U+30A4_U+30E4_U+30FC 1
 62
   179
420
  2234388
370
     9
100
AcDbVertex
100
AcDb2dVertex
 10
124.9353648681889
 20
-146.8792394077246
 30
0.0
  0
SEQEND
  5
82
330
7F
100
AcDbEntity
  8
_U+30EC_U+30A4_U+30E4_U+30FC 1
 62
   179
420
  2234388
370
     9
  0
POLYLINE
  5
83
330
1F
100
AcDbEntity
  8
_U+30EC_U+30A4_U+30E4_U+30FC 1
 62
   179
420
  2234388
370
     9
100
AcDb2dPolyline
 66
     1
 10
0.0
 20
0.0
 30
0.0
  0
VERTEX
  5
84
330
83
100
AcDbEntity
  8
_U+30EC_U+30A4_U+30E4_U+30FC 1
 62
   179
420
  2234388
370
     9
100
AcDbVertex
100
AcDb2dVertex
 10
124.9353648681889
 20
-153.3553221838836
 30
0.0
  0
VERTEX
  5
85
330
83
100
AcDbEntity
  8
_U+30EC_U+30A4_U+30E4_U+30FC 1
 62
   179
420
  2234388
370
     9
100
AcDbVertex
100
AcDb2dVertex
 10
124.9353648681889
 20
-155.0806171834518
 30
0.0
  0
SEQEND
  5
86
330
83
100
AcDbEntity
  8
_U+30EC_U+30A4_U+30E4_U+30FC 1
 62
   179
420
  2234388
370
     9
  0
POLYLINE
  5
87
330
1F
100
AcDbEntity
  8
_U+30EC_U+30A4_U+30E4_U+30FC 1
 62
   179
420
  2234388
370
     9
100
AcDb2dPolyline
 66
     1
 10
0.0
 20
0.0
 30
0.0
  0
VERTEX
  5
88
330
87
100
AcDbEntity
  8
_U+30EC_U+30A4_U+30E4_U+30FC 1
 62
   179
420
  2234388
370
     9
100
AcDbVertex
100
AcDb2dVertex
 10
123.1370096362909
 20
-153.3553221838836
 30
0.0
  0
VERTEX
  5
89
330
87
100
AcDbEntity
  8
_U+30EC_U+30A4_U+30E4_U+30FC 1
 62
   179
420
  2234388
370
     9
100
AcDbVertex
100
AcDb2dVertex
 10
126.1666298367767
 20
-153.3553221838836
 30
0.0
  0
SEQEND
  5
8A
330
87
100
AcDbEntity
  8
_U+30EC_U+30A4_U+30E4_U+30FC 1
 62
   179
420
  2234388
370
     9
  0
POLYLINE
  5
8B
330
1F
100
AcDbEntity
  8
_U+30EC_U+30A4_U+30E4_U+30FC 1
 62
   179
420
  2234388
370
     9
100
AcDb2dPolyline
 66
     1
 10
0.0
 20
0.0
 30
0.0
  0
VERTEX
  5
8C
330
8B
100
AcDbEntity
  8
_U+30EC_U+30A4_U+30E4_U+30FC 1
 62
   179
420
  2234388
370
     9
100
AcDbVertex
100
AcDb2dVertex
 10
123.1370096362909
 20
-153.8486466282047
 30
0.0
  0
VERTEX
  5
8D
330
8B
100
AcDbEntity
  8
_U+30EC_U+30A4_U+30E4_U+30FC 1
 62
   179
420
  2234388
370
     9
100
AcDbVertex
100
AcDb2dVertex
 10
126.1666298367767
 20
-153.8486466282047
 30
0.0
  0
SEQEND
  5
8E
330
8B
100
AcDbEntity
  8
_U+30EC_U+30A4_U+30E4_U+30FC 1
 62
   179
420
  2234388
370
     9
  0
INSERT
  5
90
330
1F
100
AcDbEntity
  8
_U+30EC_U+30A4_U+30E4_U+30FC 1
100
AcDbBlockReference
  2
block 3
 10
0.0
 20
0.0
 30
0.0
  0
POLYLINE
  5
B3
330
1F
100
AcDbEntity
  8
_U+30EC_U+30A4_U+30E4_U+30FC 1
 62
   179
420
  2234388
370
     9
100
AcDb2dPolyline
 66
     1
 10
0.0
 20
0.0
 30
0.0
  0
VERTEX
  5
B4
330
B3
100
AcDbEntity
  8
_U+30EC_U+30A4_U+30E4_U+30FC 1
 62
   179
420
  2234388
370
     9
100
AcDbVertex
100
AcDb2dVertex
 10
68.52193102963768
 20
-98.8823410863906
 30
0.0
  0
VERTEX
  5
B5
330
B3
100
AcDbEntity
  8
_U+30EC_U+30A4_U+30E4_U+30FC 1
 62
   179
420
  2234388
370
     9
100
AcDbVertex
100
AcDb2dVertex
 10
76.23030166631409
 20
-98.8823410863906
 30
0.0
  0
SEQEND
  5
B6
330
B3
100
AcDbEntity
  8
_U+30EC_U+30A4_U+30E4_U+30FC 1
 62
   179
420
  2234388
370
     9
  0
POLYLINE
  5
B7
330
1F
100
AcDbEntity
  8
_U+30EC_U+30A4_U+30E4_U+30FC 1
 62
   179
420
  2234388
370
     9
100
AcDb2dPolyline
 66
     1
 10
0.0
 20
0.0
 30
0.0
  0
VERTEX
  5
B8
330
B7
100
AcDbEntity
  8
_U+30EC_U+30A4_U+30E4_U+30FC 1
 62
   179
420
  2234388
370
     9
100
AcDbVertex
100
AcDb2dVertex
 10
68.52193102963768
 20
-98.8823410863906
 30
0.0
  0
VERTEX
  5
B9
330
B7
100
AcDbEntity
  8
_U+30EC_U+30A4_U+30E4_U+30FC 1
 62
   179
420
  2234388
370
     9
100
AcDbVertex
100
AcDb2dVertex
 10
66.79780024029058
 20
-98.8823410863906
 30
0.0
  0
SEQEND
  5
BA
330
B7
100
AcDbEntity
  8
_U+30EC_U+30A4_U+30E4_U+30FC 1
 62
   179
420
  2234388
370
     9
  0
POLYLINE
  5
BB
330
1F
100
AcDbEntity
  8
_U+30EC_U+30A4_U+30E4_U+30FC 1
 62
   179
420
  2234388
370
     9
100
AcDb2dPolyline
 66
     1
 10
0.0
 20
0.0
 30
0.0
  0
VERTEX
  5
BC
330
BB
100
AcDbEntity
  8
_U+30EC_U+30A4_U+30E4_U+30FC 1
 62
   179
420
  2234388
370
     9
100
AcDbVertex
100
AcDb2dVertex
 10
68.52193102963768
 20
-100.680661085941
 30
0.0
  0
VERTEX
  5
BD
330
BB
100
AcDbEntity
  8
_U+30EC_U+30A4_U+30E4_U+30FC 1
 62
   179
420
  2234388
370
     9
100
AcDbVertex
100
AcDb2dVertex
 10
68.52193102963768
 20
-97.64966497558761
 30
0.0
  0
SEQEND
  5
BE
330
BB
100
AcDbEntity
  8
_U+30EC_U+30A4_U+30E4_U+30FC 1
 62
   179
420
  2234388
370
     9
  0
POLYLINE
  5
BF
330
1F
100
AcDbEntity
  8
_U+30EC_U+30A4_U+30E4_U+30FC 1
 62
   179
420
  2234388
370
     9
100
AcDb2dPolyline
 66
     1
 10
0.0
 20
0.0
 30
0.0
  0
VERTEX
  5
C0
330
BF
100
AcDbEntity
  8
_U+30EC_U+30A4_U+30E4_U+30FC 1
 62
   179
420
  2234388
370
     9
100
AcDbVertex
100
AcDb2dVertex
 10
68.02959437553156
 20
-100.680661085941
 30
0.0
  0
VERTEX
  5
C1
330
BF
100
AcDbEntity
  8
_U+30EC_U+30A4_U+30E4_U+30FC 1
 62
   179
420
  2234388
370
     9
100
AcDbVertex
100
AcDb2dVertex
 10
68.02959437553156
 20
-97.64966497558761
 30
0.0
  0
SEQEND
  5
C2
330
BF
100
AcDbEntity
  8
_U+30EC_U+30A4_U+30E4_U+30FC 1
 62
   179
420
  2234388
370
     9
  0
INSERT
  5
C4
330
1F
100
AcDbEntity
  8
_U+30EC_U+30A4_U+30E4_U+30FC 1
100
AcDbBlockReference
  2
block 4
 10
0.0
 20
0.0
 30
0.0
  0
POLYLINE
  5
E7
330
1F
100
AcDbEntity
  8
_U+30EC_U+30A4_U+30E4_U+30FC 1
 62
   179
420
  2234388
370
     9
100
AcDb2dPolyline
 66
     1
 10
0.0
 20
0.0
 30
0.0
  0
VERTEX
  5
E8
330
E7
100
AcDbEntity
  8
_U+30EC_U+30A4_U+30E4_U+30FC 1
 62
   179
420
  2234388
370
     9
100
AcDbVertex
100
AcDb2dVertex
 10
62.1171448041485
 20
-101.8685344189773
 30
0.0
  0
VERTEX
  5
E9
330
E7
100
AcDbEntity
  8
_U+30EC_U+30A4_U+30E4_U+30FC 1
 62
   179
420
  2234388
370
     9
100
AcDbVertex
100
AcDb2dVertex
 10
62.1171448041485
 20
-154.8339549612916
 30
0.0
  0
SEQEND
  5
EA
330
E7
100
AcDbEntity
  8
_U+30EC_U+30A4_U+30E4_U+30FC 1
 62
   179
420
  2234388
370
     9
  0
POLYLINE
  5
EB
330
1F
100
AcDbEntity
  8
_U+30EC_U+30A4_U+30E4_U+30FC 1
 62
   179
420
  2234388
370
     9
100
AcDb2dPolyline
 66
     1
 10
0.0
 20
0.0
 30
0.0
  0
VERTEX
  5
EC
330
EB
100
AcDbEntity
  8
_U+30EC_U+30A4_U+30E4_U+30FC 1
 62
   179
420
  2234388
370
     9
100
AcDbVertex
100
AcDb2dVertex
 10
64.90130223311873
 20
-101.8685344189773
 30
0.0
  0
VERTEX
  5
ED
330
EB
100
AcDbEntity
  8
_U+30EC_U+30A4_U+30E4_U+30FC 1
 62
   179
420
  2234388
370
     9
100
AcDbVertex
100
AcDb2dVertex
 10
60.8855270577919
 20
-101.8685344189773
 30
0.0
  0
SEQEND
  5
EE
330
EB
100
AcDbEntity
  8
_U+30EC_U+30A4_U+30E4_U+30FC 1
 62
   179
420
  2234388
370
     9
  0
POLYLINE
  5
EF
330
1F
100
AcDbEntity
  8
_U+30EC_U+30A4_U+30E4_U+30FC 1
 62
   179
420
  2234388
370
     9
100
AcDb2dPolyline
 66
     1
 10
0.0
 20
0.0
 30
0.0
  0
VERTEX
  5
F0
330
EF
100
AcDbEntity
  8
_U+30EC_U+30A4_U+30E4_U+30FC 1
 62
   179
420
  2234388
370
     9
100
AcDbVertex
100
AcDb2dVertex
 10
94.70876591711142
 20
-154.8339549612916
 30
0.0
  0
VERTEX
  5
F1
330
EF
100
AcDbEntity
  8
_U+30EC_U+30A4_U+30E4_U+30FC 1
 62
   179
420
  2234388
370
     9
100
AcDbVertex
100
AcDb2dVertex
 10
60.8855270577919
 20
-154.8339549612916
 30
0.0
  0
SEQEND
  5
F2
330
EF
100
AcDbEntity
  8
_U+30EC_U+30A4_U+30E4_U+30FC 1
 62
   179
420
  2234388
370
     9
  0
INSERT
  5
F4
330
1F
100
AcDbEntity
  8
_U+30EC_U+30A4_U+30E4_U+30FC 1
100
AcDbBlockReference
  2
block 5
 10
0.0
 20
0.0
 30
0.0
  0
POLYLINE
  5
FB
330
1F
100
AcDbEntity
  8
_U+30EC_U+30A4_U+30E4_U+30FC 1
 62
   179
420
  2234388
370
     9
100
AcDb2dPolyline
 66
     1
 10
0.0
 20
0.0
 30
0.0
  0
VERTEX
  5
FC
330
FB
100
AcDbEntity
  8
_U+30EC_U+30A4_U+30E4_U+30FC 1
 62
   179
420
  2234388
370
     9
100
AcDbVertex
100
AcDb2dVertex
 10
120.0081883272249
 20
-159.7604613489485
 30
0.0
  0
VERTEX
  5
FD
330
FB
100
AcDbEntity
  8
_U+30EC_U+30A4_U+30E4_U+30FC 1
 62
   179
420
  2234388
370
     9
100
AcDbVertex
100
AcDb2dVertex
 10
67.04396856734364
 20
-159.7604613489485
 30
0.0
  0
SEQEND
  5
FE
330
FB
100
AcDbEntity
  8
_U+30EC_U+30A4_U+30E4_U+30FC 1
 62
   179
420
  2234388
370
     9
  0
POLYLINE
  5
FF
330
1F
100
AcDbEntity
  8
_U+30EC_U+30A4_U+30E4_U+30FC 1
 62
   179
420
  2234388
370
     9
100
AcDb2dPolyline
 66
     1
 10
0.0
 20
0.0
 30
0.0
  0
VERTEX
  5
100
330
FF
100
AcDbEntity
  8
_U+30EC_U+30A4_U+30E4_U+30FC 1
 62
   179
420
  2234388
370
     9
100
AcDbVertex
100
AcDb2dVertex
 10
120.0081883272249
 20
-156.9767977385333
 30
0.0
  0
VERTEX
  5
101
330
FF
100
AcDbEntity
  8
_U+30EC_U+30A4_U+30E4_U+30FC 1
 62
   179
420
  2234388
370
     9
100
AcDbVertex
100
AcDb2dVertex
 10
120.0081883272249
 20
-160.9923966264188
 30
0.0
  0
SEQEND
  5
102
330
FF
100
AcDbEntity
  8
_U+30EC_U+30A4_U+30E4_U+30FC 1
 62
   179
420
  2234388
370
     9
  0
POLYLINE
  5
103
330
1F
100
AcDbEntity
  8
_U+30EC_U+30A4_U+30E4_U+30FC 1
 62
   179
420
  2234388
370
     9
100
AcDb2dPolyline
 66
     1
 10
0.0
 20
0.0
 30
0.0
  0
VERTEX
  5
104
330
103
100
AcDbEntity
  8
_U+30EC_U+30A4_U+30E4_U+30FC 1
 62
   179
420
  2234388
370
     9
100
AcDbVertex
100
AcDb2dVertex
 10
67.04396856734364
 20
-127.1695096904297
 30
0.0
  0
VERTEX
  5
105
330
103
100
AcDbEntity
  8
_U+30EC_U+30A4_U+30E4_U+30FC 1
 62
   179
420
  2234388
370
     9
100
AcDbVertex
100
AcDb2dVertex
 10
67.04396856734364
 20
-160.9923966264188
 30
0.0
  0
SEQEND
  5
106
330
103
100
AcDbEntity
  8
_U+30EC_U+30A4_U+30E4_U+30FC 1
 62
   179
420
  2234388
370
     9
  0
INSERT
  5
108
330
1F
100
AcDbEntity
  8
_U+30EC_U+30A4_U+30E4_U+30FC 1
100
AcDbBlockReference
  2
block 6
 10
0.0
 20
0.0
 30
0.0
  0
POLYLINE
  5
10F
330
1F
100
AcDbEntity
  8
_U+30EC_U+30A4_U+30E4_U+30FC 1
  6
AI-Linetype-1
 62
   154
420
    23468
370
    25
100
AcDb2dPolyline
 66
     1
 10
0.0
 20
0.0
 30
0.0
  0
VERTEX
  5
110
330
10F
100
AcDbEntity
  8
_U+30EC_U+30A4_U+30E4_U+30FC 1
  6
AI-Linetype-1
 62
   154
420
    23468
370
    25
100
AcDbVertex
100
AcDb2dVertex
 10
69.11583240337488
 20
-101.8237669189884
 30
0.0
  0
VERTEX
  5
111
330
10F
100
AcDbEntity
  8
_U+30EC_U+30A4_U+30E4_U+30FC 1
  6
AI-Linetype-1
 62
   154
420
    23468
370
    25
100
AcDbVertex
100
AcDb2dVertex
 10
69.11583240337488
 20
-116.8237016374608
 30
0.0
  0
SEQEND
  5
113
330
10F
100
AcDbEntity
  8
_U+30EC_U+30A4_U+30E4_U+30FC 1
  6
AI-Linetype-1
 62
   154
420
    23468
370
    25
  0
POLYLINE
  5
114
330
1F
100
AcDbEntity
  8
_U+30EC_U+30A4_U+30E4_U+30FC 1
  6
AI-Linetype-2
 62
   154
420
    23468
370
    25
100
AcDb2dPolyline
 66
     1
 10
0.0
 20
0.0
 30
0.0
  0
VERTEX
  5
115
330
114
100
AcDbEntity
  8
_U+30EC_U+30A4_U+30E4_U+30FC 1
  6
AI-Linetype-2
 62
   154
420
    23468
370
    25
100
AcDbVertex
100
AcDb2dVertex
 10
105.0165089874723
 20
-152.7772252395832
 30
0.0
  0
VERTEX
  5
116
330
114
100
AcDbEntity
  8
_U+30EC_U+30A4_U+30E4_U+30FC 1
  6
AI-Linetype-2
 62
   154
420
    23468
370
    25
100
AcDbVertex
100
AcDb2dVertex
 10
120.0164433270143
 20
-152.7772252395832
 30
0.0
  0
SEQEND
  5
118
330
114
100
AcDbEntity
  8
_U+30EC_U+30A4_U+30E4_U+30FC 1
  6
AI-Linetype-2
 62
   154
420
    23468
370
    25
  0
POLYLINE
  5
119
330
1F
100
AcDbEntity
  8
_U+30EC_U+30A4_U+30E4_U+30FC 1
 62
   179
420
  2234388
370
     9
100
AcDb2dPolyline
 66
     1
 10
0.0
 20
0.0
 30
0.0
  0
VERTEX
  5
11A
330
119
100
AcDbEntity
  8
_U+30EC_U+30A4_U+30E4_U+30FC 1
 62
   179
420
  2234388
370
     9
100
AcDbVertex
100
AcDb2dVertex
 10
69.61607127950161
 20
-109.8239555280995
 30
0.0
  0
VERTEX
  5
11B
330
119
100
AcDbEntity
  8
_U+30EC_U+30A4_U+30E4_U+30FC 1
 62
   179
420
  2234388
370
     9
100
AcDbVertex
100
AcDb2dVertex
 10
102.8192326546406
 20
-109.8239555280995
 30
0.0
  0
SEQEND
  5
11C
330
119
100
AcDbEntity
  8
_U+30EC_U+30A4_U+30E4_U+30FC 1
 62
   179
420
  2234388
370
     9
  0
POLYLINE
  5
11D
330
1F
100
AcDbEntity
  8
_U+30EC_U+30A4_U+30E4_U+30FC 1
 62
   179
420
  2234388
370
     9
100
AcDb2dPolyline
 66
     1
 10
0.0
 20
0.0
 30
0.0
  0
VERTEX
  5
11E
330
11D
100
AcDbEntity
  8
_U+30EC_U+30A4_U+30E4_U+30FC 1
 62
   179
420
  2234388
370
     9
100
AcDbVertex
100
AcDb2dVertex
 10
69.61607127950161
 20
-109.8239555280995
 30
0.0
  0
VERTEX
  5
11F
330
11D
100
AcDbEntity
  8
_U+30EC_U+30A4_U+30E4_U+30FC 1
 62
   179
420
  2234388
370
     9
100
AcDbVertex
100
AcDb2dVertex
 10
70.5820826437455
 20
-109.5648755281642
 30
0.0
  0
SEQEND
  5
120
330
11D
100
AcDbEntity
  8
_U+30EC_U+30A4_U+30E4_U+30FC 1
 62
   179
420
  2234388
370
     9
  0
POLYLINE
  5
121
330
1F
100
AcDbEntity
  8
_U+30EC_U+30A4_U+30E4_U+30FC 1
 62
   179
420
  2234388
370
     9
100
AcDb2dPolyline
 66
     1
 10
0.0
 20
0.0
 30
0.0
  0
VERTEX
  5
122
330
121
100
AcDbEntity
  8
_U+30EC_U+30A4_U+30E4_U+30FC 1
 62
   179
420
  2234388
370
     9
100
AcDbVertex
100
AcDb2dVertex
 10
69.61607127950161
 20
-109.8239555280995
 30
0.0
  0
VERTEX
  5
123
330
121
100
AcDbEntity
  8
_U+30EC_U+30A4_U+30E4_U+30FC 1
 62
   179
420
  2234388
370
     9
100
AcDbVertex
100
AcDb2dVertex
 10
70.5820826437455
 20
-110.0823299724793
 30
0.0
  0
SEQEND
  5
124
330
121
100
AcDbEntity
  8
_U+30EC_U+30A4_U+30E4_U+30FC 1
 62
   179
420
  2234388
370
     9
  0
POLYLINE
  5
125
330
1F
100
AcDbEntity
  8
_U+30EC_U+30A4_U+30E4_U+30FC 1
 62
   179
420
  2234388
370
     9
100
AcDb2dPolyline
 66
     1
 10
0.0
 20
0.0
 30
0.0
  0
VERTEX
  5
126
330
125
100
AcDbEntity
  8
_U+30EC_U+30A4_U+30E4_U+30FC 1
 62
   179
420
  2234388
370
     9
100
AcDbVertex
100
AcDb2dVertex
 10
112.016254920005
 20
-152.2770216285977
 30
0.0
  0
VERTEX
  5
127
330
125
100
AcDbEntity
  8
_U+30EC_U+30A4_U+30E4_U+30FC 1
 62
   179
420
  2234388
370
     9
100
AcDbVertex
100
AcDb2dVertex
 10
112.2752996356185
 20
-151.31101023995
 30
0.0
  0
SEQEND
  5
128
330
125
100
AcDbEntity
  8
_U+30EC_U+30A4_U+30E4_U+30FC 1
 62
   179
420
  2234388
370
     9
  0
POLYLINE
  5
129
330
1F
100
AcDbEntity
  8
_U+30EC_U+30A4_U+30E4_U+30FC 1
 62
   179
420
  2234388
370
     9
100
AcDb2dPolyline
 66
     1
 10
0.0
 20
0.0
 30
0.0
  0
VERTEX
  5
12A
330
129
100
AcDbEntity
  8
_U+30EC_U+30A4_U+30E4_U+30FC 1
 62
   179
420
  2234388
370
     9
100
AcDbVertex
100
AcDb2dVertex
 10
112.016254920005
 20
-152.2770216285977
 30
0.0
  0
VERTEX
  5
12B
330
129
100
AcDbEntity
  8
_U+30EC_U+30A4_U+30E4_U+30FC 1
 62
   179
420
  2234388
370
     9
100
AcDbVertex
100
AcDb2dVertex
 10
112.016254920005
 20
-112.4319005274476
 30
0.0
  0
SEQEND
  5
12C
330
129
100
AcDbEntity
  8
_U+30EC_U+30A4_U+30E4_U+30FC 1
 62
   179
420
  2234388
370
     9
  0
POLYLINE
  5
12D
330
1F
100
AcDbEntity
  8
_U+30EC_U+30A4_U+30E4_U+30FC 1
 62
   179
420
  2234388
370
     9
100
AcDb2dPolyline
 66
     1
 10
0.0
 20
0.0
 30
0.0
  0
VERTEX
  5
12E
330
12D
100
AcDbEntity
  8
_U+30EC_U+30A4_U+30E4_U+30FC 1
 62
   179
420
  2234388
370
     9
100
AcDbVertex
100
AcDb2dVertex
 10
112.016254920005
 20
-152.2770216285977
 30
0.0
  0
VERTEX
  5
12F
330
12D
100
AcDbEntity
  8
_U+30EC_U+30A4_U+30E4_U+30FC 1
 62
   179
420
  2234388
370
     9
100
AcDbVertex
100
AcDb2dVertex
 10
111.7578452043754
 20
-151.31101023995
 30
0.0
  0
SEQEND
  5
130
330
12D
100
AcDbEntity
  8
_U+30EC_U+30A4_U+30E4_U+30FC 1
 62
   179
420
  2234388
370
     9
  0
INSERT
  5
132
330
1F
100
AcDbEntity
  8
_U+30EC_U+30A4_U+30E4_U+30FC 1
100
AcDbBlockReference
  2
block 7
 10
0.0
 20
0.0
 30
0.0
  0
ENDSEC
  0
SECTION
  2
OBJECTS
  0
DICTIONARY
  5
C
330
0
100
AcDbDictionary
281
     1
  3
ACAD_GROUP
350
D
  3
ACAD_LAYOUT
350
1A
  3
ACAD_MATERIAL
350
3B
  3
ACAD_MLEADERSTYLE
350
15A
  3
ACAD_MLINESTYLE
350
17
  3
ACAD_PLOTSETTINGS
350
19
  3
ACAD_PLOTSTYLENAME
350
E
  3
ACAD_TABLESTYLE
350
159
  3
ACAD_VISUALSTYLE
350
2A
  0
SUN
  5
3F
330
29
100
AcDbSun
 90
        1
290
     0
 63
     7
421
 16777215
 40
1.0
291
     1
 91
  2455826
 92
 54000000
292
     0
 70
     2
 71
   256
280
     1
  0
DICTIONARY
  5
D
102
{ACAD_REACTORS
330
C
102
}
330
C
100
AcDbDictionary
281
     1
  0
DICTIONARY
  5
1A
102
{ACAD_REACTORS
330
C
102
}
330
C
100
AcDbDictionary
281
     1
  3
Layout1
350
1E
  3
Layout2
350
26
  3
Model
350
22
  0
DICTIONARY
  5
3B
102
{ACAD_REACTORS
330
C
102
}
330
C
100
AcDbDictionary
281
     1
  3
ByBlock
350
3D
  3
ByLayer
350
3C
  3
Global
350
3E
  0
DICTIONARY
  5
15A
102
{ACAD_REACTORS
330
C
102
}
330
C
100
AcDbDictionary
281
     1
  0
DICTIONARY
  5
17
102
{ACAD_REACTORS
330
C
102
}
330
C
100
AcDbDictionary
281
     1
  3
Standard
350
18
  0
DICTIONARY
  5
19
102
{ACAD_REACTORS
330
C
102
}
330
C
100
AcDbDictionary
281
     1
  0
ACDBDICTIONARYWDFLT
  5
E
102
{ACAD_REACTORS
330
C
102
}
330
C
100
AcDbDictionary
281
     1
  3
Normal
350
F
100
AcDbDictionaryWithDefault
340
F
  0
DICTIONARY
  5
159
102
{ACAD_REACTORS
330
C
102
}
330
C
100
AcDbDictionary
281
     1
  0
DICTIONARY
  5
2A
102
{ACAD_REACTORS
330
C
102
}
330
C
100
AcDbDictionary
281
     1
  3
2dWireframe
350
2F
  3
3D Hidden
350
31
  3
3dWireframe
350
30
  3
Basic
350
32
  3
Brighten
350
36
  3
ColorChange
350
3A
  3
Conceptual
350
34
  3
Dim
350
35
  3
Facepattern
350
39
  3
Flat
350
2B
  3
FlatWithEdges
350
2C
  3
Gouraud
350
2D
  3
GouraudWithEdges
350
2E
  3
Linepattern
350
38
  3
Realistic
350
33
  3
Thicken
350
37
  0
LAYOUT
  5
1E
102
{ACAD_REACTORS
330
1A
102
}
330
1A
100
AcDbPlotSettings
  1

  2
none_device
  4

  6

 40
0.0
 41
0.0
 42
0.0
 43
0.0
 44
0.0
 45
0.0
 46
0.0
 47
0.0
 48
0.0
 49
0.0
140
0.0
141
0.0
142
1.0
143
1.0
 70
   688
 72
     0
 73
     0
 74
     5
  7

 75
    16
 76
     0
 77
     2
 78
   300
147
1.0
148
0.0
149
0.0
100
AcDbLayout
  1
Layout1
 70
     1
 71
     1
 10
0.0
 20
0.0
 11
12.0
 21
9.0
 12
0.0
 22
0.0
 32
0.0
 14
1.000000000000000E+20
 24
1.000000000000000E+20
 34
1.000000000000000E+20
 15
-1.000000000000000E+20
 25
-1.000000000000000E+20
 35
-1.000000000000000E+20
146
0.0
 13
0.0
 23
0.0
 33
0.0
 16
1.0
 26
0.0
 36
0.0
 17
0.0
 27
1.0
 37
0.0
 76
     0
330
1B
  0
LAYOUT
  5
26
102
{ACAD_REACTORS
330
1A
102
}
330
1A
100
AcDbPlotSettings
  1

  2
none_device
  4

  6

 40
0.0
 41
0.0
 42
0.0
 43
0.0
 44
0.0
 45
0.0
 46
0.0
 47
0.0
 48
0.0
 49
0.0
140
0.0
141
0.0
142
1.0
143
1.0
 70
   688
 72
     0
 73
     0
 74
     5
  7

 75
    16
 76
     0
 77
     2
 78
   300
147
1.0
148
0.0
149
0.0
100
AcDbLayout
  1
Layout2
 70
     1
 71
     2
 10
0.0
 20
0.0
 11
0.0
 21
0.0
 12
0.0
 22
0.0
 32
0.0
 14
0.0
 24
0.0
 34
0.0
 15
0.0
 25
0.0
 35
0.0
146
0.0
 13
0.0
 23
0.0
 33
0.0
 16
1.0
 26
0.0
 36
0.0
 17
0.0
 27
1.0
 37
0.0
 76
     0
330
23
  0
LAYOUT
  5
22
102
{ACAD_REACTORS
330
1A
102
}
330
1A
100
AcDbPlotSettings
  1

  2
none_device
  4

  6

 40
0.0
 41
0.0
 42
0.0
 43
0.0
 44
0.0
 45
0.0
 46
0.0
 47
0.0
 48
0.0
 49
0.0
140
0.0
141
0.0
142
1.0
143
1.0
 70
  1712
 72
     0
 73
     0
 74
     0
  7

 75
     0
 76
     0
 77
     2
 78
   300
147
1.0
148
0.0
149
0.0
100
AcDbLayout
  1
Model
 70
     1
 71
     0
 10
0.0
 20
0.0
 11
12.0
 21
9.0
 12
0.0
 22
0.0
 32
0.0
 14
1.000000000000000E+20
 24
1.000000000000000E+20
 34
1.000000000000000E+20
 15
-1.000000000000000E+20
 25
-1.000000000000000E+20
 35
-1.000000000000000E+20
146
0.0
 13
0.0
 23
0.0
 33
0.0
 16
1.0
 26
0.0
 36
0.0
 17
0.0
 27
1.0
 37
0.0
 76
     0
330
1F
331
29
  0
MATERIAL
  5
3D
102
{ACAD_REACTORS
330
3B
102
}
330
3B
100
AcDbMaterial
  1
ByBlock
 72
     1
 94
      127
  0
MATERIAL
  5
3C
102
{ACAD_REACTORS
330
3B
102
}
330
3B
100
AcDbMaterial
  1
ByLayer
 72
     1
 94
      127
  0
MATERIAL
  5
3E
102
{ACAD_REACTORS
330
3B
102
}
330
3B
100
AcDbMaterial
  1
Global
 72
     1
 94
      127
  0
MLINESTYLE
  5
18
102
{ACAD_REACTORS
330
17
102
}
330
17
100
AcDbMlineStyle
  2
Standard
 70
     0
  3

 62
   256
 51
90.0
 52
90.0
 71
     2
 49
0.5
 62
   256
  6
BYLAYER
 49
-0.5
 62
   256
  6
BYLAYER
  0
ACDBPLACEHOLDER
  5
F
102
{ACAD_REACTORS
330
E
102
}
330
E
  0
VISUALSTYLE
  5
2F
102
{ACAD_REACTORS
330
2A
102
}
330
2A
100
AcDbVisualStyle
  2
2dWireframe
 70
     4
177
     2
291
     0
 71
     0
176
     1
 72
     2
176
     1
 73
     0
176
     1
 90
        0
176
     1
 40
-0.6
176
     1
 41
-30.0
176
     1
 62
     5
 63
     7
421
 16777215
176
     1
 74
     1
176
     1
 91
        4
176
     1
 64
     7
176
     1
 65
   257
176
     1
 75
     1
176
     1
175
     1
176
     1
 42
1.0
176
     1
 92
        0
176
     1
 66
   257
176
     1
 43
1.0
176
     1
 76
     1
176
     1
 77
     6
176
     1
 78
     2
176
     1
 67
     7
176
     1
 79
     5
176
     1
170
     0
176
     1
171
     0
176
     1
290
     0
176
     1
 93
        1
176
     1
 44
0.0
176
     1
173
     0
176
     1
  0
VISUALSTYLE
  5
31
102
{ACAD_REACTORS
330
2A
102
}
330
2A
100
AcDbVisualStyle
  2
3D Hidden
 70
     6
177
     2
291
     0
 71
     1
176
     1
 72
     2
176
     1
 73
     2
176
     1
 90
        0
176
     1
 40
-0.6
176
     1
 41
-30.0
176
     1
 62
     5
 63
     7
421
 16777215
176
     1
 74
     2
176
     1
 91
        2
176
     1
 64
     7
176
     1
 65
   257
176
     1
 75
     2
176
     1
175
     1
176
     1
 42
40.0
176
     1
 92
        0
176
     1
 66
   257
176
     1
 43
1.0
176
     1
 76
     1
176
     1
 77
     6
176
     1
 78
     2
176
     1
 67
     7
176
     1
 79
     3
176
     1
170
     0
176
     1
171
     0
176
     1
290
     0
176
     1
 93
        1
176
     1
 44
0.0
176
     1
173
     0
176
     1
  0
VISUALSTYLE
  5
30
102
{ACAD_REACTORS
330
2A
102
}
330
2A
100
AcDbVisualStyle
  2
3dWireframe
 70
     5
177
     2
291
     0
 71
     0
176
     1
 72
     2
176
     1
 73
     0
176
     1
 90
        0
176
     1
 40
-0.6
176
     1
 41
-30.0
176
     1
 62
     5
 63
     7
421
 16777215
176
     1
 74
     1
176
     1
 91
        4
176
     1
 64
     7
176
     1
 65
   257
176
     1
 75
     1
176
     1
175
     1
176
     1
 42
1.0
176
     1
 92
        0
176
     1
 66
   257
176
     1
 43
1.0
176
     1
 76
     1
176
     1
 77
     6
176
     1
 78
     2
176
     1
 67
     7
176
     1
 79
     5
176
     1
170
     0
176
     1
171
     0
176
     1
290
     0
176
     1
 93
        1
176
     1
 44
0.0
176
     1
173
     0
176
     1
  0
VISUALSTYLE
  5
32
102
{ACAD_REACTORS
330
2A
102
}
330
2A
100
AcDbVisualStyle
  2
Basic
 70
     7
177
     2
291
     1
 71
     1
176
     1
 72
     0
176
     1
 73
     1
176
     1
 90
        0
176
     1
 40
-0.6
176
     1
 41
-30.0
176
     1
 62
     5
 63
     7
421
 16777215
176
     1
 74
     0
176
     1
 91
        4
176
     1
 64
     7
176
     1
 65
   257
176
     1
 75
     1
176
     1
175
     1
176
     1
 42
1.0
176
     1
 92
        8
176
     1
 66
     7
176
     1
 43
1.0
176
     1
 76
     1
176
     1
 77
     6
176
     1
 78
     2
176
     1
 67
     7
176
     1
 79
     5
176
     1
170
     0
176
     1
171
     0
176
     1
290
     0
176
     1
 93
        1
176
     1
 44
0.0
176
     1
173
     0
176
     1
  0
VISUALSTYLE
  5
36
102
{ACAD_REACTORS
330
2A
102
}
330
2A
100
AcDbVisualStyle
  2
Brighten
 70
    12
177
     2
291
     1
 71
     2
176
     1
 72
     2
176
     1
 73
     0
176
     1
 90
        0
176
     1
 40
-0.6
176
     1
 41
-30.0
176
     1
 62
     5
 63
     7
421
 16777215
176
     1
 74
     1
176
     1
 91
        4
176
     1
 64
     7
176
     1
 65
   257
176
     1
 75
     1
176
     1
175
     1
176
     1
 42
1.0
176
     1
 92
        8
176
     1
 66
     7
176
     1
 43
1.0
176
     1
 76
     1
176
     1
 77
     6
176
     1
 78
     2
176
     1
 67
     7
176
     1
 79
     5
176
     1
170
     0
176
     1
171
     0
176
     1
290
     0
176
     1
 93
        1
176
     1
 44
50.0
176
     1
173
     0
176
     1
  0
VISUALSTYLE
  5
3A
102
{ACAD_REACTORS
330
2A
102
}
330
2A
100
AcDbVisualStyle
  2
ColorChange
 70
    16
177
     2
291
     1
 71
     2
176
     1
 72
     2
176
     1
 73
     3
176
     1
 90
        0
176
     1
 40
-0.6
176
     1
 41
-30.0
176
     1
 62
     5
 63
     8
421
  8421504
176
     1
 74
     1
176
     1
 91
        4
176
     1
 64
     7
176
     1
 65
   257
176
     1
 75
     1
176
     1
175
     1
176
     1
 42
1.0
176
     1
 92
        8
176
     1
 66
     8
424
  8421504
176
     1
 43
1.0
176
     1
 76
     1
176
     1
 77
     6
176
     1
 78
     2
176
     1
 67
     7
176
     1
 79
     5
176
     1
170
     0
176
     1
171
     0
176
     1
290
     0
176
     1
 93
        1
176
     1
 44
0.0
176
     1
173
     0
176
     1
  0
VISUALSTYLE
  5
34
102
{ACAD_REACTORS
330
2A
102
}
330
2A
100
AcDbVisualStyle
  2
Conceptual
 70
     9
177
     2
291
     0
 71
     3
176
     1
 72
     2
176
     1
 73
     0
176
     1
 90
        0
176
     1
 40
-0.6
176
     1
 41
-30.0
176
     1
 62
     5
 63
     7
421
 16777215
176
     1
 74
     2
176
     1
 91
        2
176
     1
 64
     7
176
     1
 65
   257
176
     1
 75
     1
176
     1
175
     1
176
     1
 42
40.0
176
     1
 92
        8
176
     1
 66
     7
176
     1
 43
1.0
176
     1
 76
     1
176
     1
 77
     6
176
     1
 78
     2
176
     1
 67
     7
176
     1
 79
     3
176
     1
170
     0
176
     1
171
     0
176
     1
290
     0
176
     1
 93
        1
176
     1
 44
0.0
176
     1
173
     0
176
     1
  0
VISUALSTYLE
  5
35
102
{ACAD_REACTORS
330
2A
102
}
330
2A
100
AcDbVisualStyle
  2
Dim
 70
    11
177
     2
291
     1
 71
     2
176
     1
 72
     2
176
     1
 73
     0
176
     1
 90
        0
176
     1
 40
-0.6
176
     1
 41
-30.0
176
     1
 62
     5
 63
     7
421
 16777215
176
     1
 74
     1
176
     1
 91
        4
176
     1
 64
     7
176
     1
 65
   257
176
     1
 75
     1
176
     1
175
     1
176
     1
 42
1.0
176
     1
 92
        8
176
     1
 66
     7
176
     1
 43
1.0
176
     1
 76
     1
176
     1
 77
     6
176
     1
 78
     2
176
     1
 67
     7
176
     1
 79
     5
176
     1
170
     0
176
     1
171
     0
176
     1
290
     0
176
     1
 93
        1
176
     1
 44
-50.0
176
     1
173
     0
176
     1
  0
VISUALSTYLE
  5
39
102
{ACAD_REACTORS
330
2A
102
}
330
2A
100
AcDbVisualStyle
  2
Facepattern
 70
    15
177
     2
291
     1
 71
     2
176
     1
 72
     2
176
     1
 73
     0
176
     1
 90
        0
176
     1
 40
-0.6
176
     1
 41
-30.0
176
     1
 62
     5
 63
     7
421
 16777215
176
     1
 74
     1
176
     1
 91
        4
176
     1
 64
     7
176
     1
 65
   257
176
     1
 75
     1
176
     1
175
     1
176
     1
 42
1.0
176
     1
 92
        8
176
     1
 66
     7
176
     1
 43
1.0
176
     1
 76
     1
176
     1
 77
     6
176
     1
 78
     2
176
     1
 67
     7
176
     1
 79
     5
176
     1
170
     0
176
     1
171
     0
176
     1
290
     0
176
     1
 93
        1
176
     1
 44
0.0
176
     1
173
     0
176
     1
  0
VISUALSTYLE
  5
2B
102
{ACAD_REACTORS
330
2A
102
}
330
2A
100
AcDbVisualStyle
  2
Flat
 70
     0
177
     2
291
     1
 71
     2
176
     1
 72
     1
176
     1
 73
     1
176
     1
 90
        2
176
     1
 40
-0.6
176
     1
 41
30.0
176
     1
 62
     5
 63
     7
421
 16777215
176
     1
 74
     0
176
     1
 91
        4
176
     1
 64
     7
176
     1
 65
   257
176
     1
 75
     1
176
     1
175
     1
176
     1
 42
1.0
176
     1
 92
        8
176
     1
 66
     7
176
     1
 43
1.0
176
     1
 76
     1
176
     1
 77
     6
176
     1
 78
     2
176
     1
 67
     7
176
     1
 79
     5
176
     1
170
     0
176
     1
171
     0
176
     1
290
     0
176
     1
 93
       13
176
     1
 44
0.0
176
     1
173
     0
176
     1
  0
VISUALSTYLE
  5
2C
102
{ACAD_REACTORS
330
2A
102
}
330
2A
100
AcDbVisualStyle
  2
FlatWithEdges
 70
     1
177
     2
291
     1
 71
     2
176
     1
 72
     1
176
     1
 73
     1
176
     1
 90
        2
176
     1
 40
-0.6
176
     1
 41
30.0
176
     1
 62
     5
 63
     7
421
 16777215
176
     1
 74
     1
176
     1
 91
        4
176
     1
 64
     7
176
     1
 65
   257
176
     1
 75
     1
176
     1
175
     1
176
     1
 42
1.0
176
     1
 92
        0
176
     1
 66
   257
176
     1
 43
1.0
176
     1
 76
     1
176
     1
 77
     6
176
     1
 78
     2
176
     1
 67
     7
176
     1
 79
     5
176
     1
170
     0
176
     1
171
     0
176
     1
290
     0
176
     1
 93
       13
176
     1
 44
0.0
176
     1
173
     0
176
     1
  0
VISUALSTYLE
  5
2D
102
{ACAD_REACTORS
330
2A
102
}
330
2A
100
AcDbVisualStyle
  2
Gouraud
 70
     2
177
     2
291
     1
 71
     2
176
     1
 72
     2
176
     1
 73
     1
176
     1
 90
        2
176
     1
 40
-0.6
176
     1
 41
30.0
176
     1
 62
     5
 63
     7
421
 16777215
176
     1
 74
     0
176
     1
 91
        4
176
     1
 64
     7
176
     1
 65
   257
176
     1
 75
     1
176
     1
175
     1
176
     1
 42
1.0
176
     1
 92
        0
176
     1
 66
     7
176
     1
 43
1.0
176
     1
 76
     1
176
     1
 77
     6
176
     1
 78
     2
176
     1
 67
     7
176
     1
 79
     5
176
     1
170
     0
176
     1
171
     0
176
     1
290
     0
176
     1
 93
       13
176
     1
 44
0.0
176
     1
173
     0
176
     1
  0
VISUALSTYLE
  5
2E
102
{ACAD_REACTORS
330
2A
102
}
330
2A
100
AcDbVisualStyle
  2
GouraudWithEdges
 70
     3
177
     2
291
     1
 71
     2
176
     1
 72
     2
176
     1
 73
     1
176
     1
 90
        2
176
     1
 40
-0.6
176
     1
 41
30.0
176
     1
 62
     5
 63
     7
421
 16777215
176
     1
 74
     1
176
     1
 91
        4
176
     1
 64
     7
176
     1
 65
   257
176
     1
 75
     1
176
     1
175
     1
176
     1
 42
1.0
176
     1
 92
        0
176
     1
 66
   257
176
     1
 43
1.0
176
     1
 76
     1
176
     1
 77
     6
176
     1
 78
     2
176
     1
 67
     7
176
     1
 79
     5
176
     1
170
     0
176
     1
171
     0
176
     1
290
     0
176
     1
 93
       13
176
     1
 44
0.0
176
     1
173
     0
176
     1
  0
VISUALSTYLE
  5
38
102
{ACAD_REACTORS
330
2A
102
}
330
2A
100
AcDbVisualStyle
  2
Linepattern
 70
    14
177
     2
291
     1
 71
     2
176
     1
 72
     2
176
     1
 73
     0
176
     1
 90
        0
176
     1
 40
-0.6
176
     1
 41
-30.0
176
     1
 62
     5
 63
     7
421
 16777215
176
     1
 74
     1
176
     1
 91
        4
176
     1
 64
     7
176
     1
 65
   257
176
     1
 75
     7
176
     1
175
     7
176
     1
 42
1.0
176
     1
 92
        8
176
     1
 66
     7
176
     1
 43
1.0
176
     1
 76
     1
176
     1
 77
     6
176
     1
 78
     2
176
     1
 67
     7
176
     1
 79
     5
176
     1
170
     0
176
     1
171
     0
176
     1
290
     0
176
     1
 93
        1
176
     1
 44
0.0
176
     1
173
     0
176
     1
  0
VISUALSTYLE
  5
33
102
{ACAD_REACTORS
330
2A
102
}
330
2A
100
AcDbVisualStyle
  2
Realistic
 70
     8
177
     2
291
     0
 71
     2
176
     1
 72
     2
176
     1
 73
     0
176
     1
 90
        0
176
     1
 40
-0.6
176
     1
 41
-30.0
176
     1
 62
     5
 63
     7
421
 16777215
176
     1
 74
     1
176
     1
 91
        0
176
     1
 64
     7
176
     1
 65
   257
176
     1
 75
     1
176
     1
175
     1
176
     1
 42
1.0
176
     1
 92
        8
176
     1
 66
     8
424
  7895160
176
     1
 43
1.0
176
     1
 76
     1
176
     1
 77
     6
176
     1
 78
     2
176
     1
 67
     7
176
     1
 79
     5
176
     1
170
     0
176
     1
171
     0
176
     1
290
     0
176
     1
 93
       13
176
     1
 44
0.0
176
     1
173
     0
176
     1
  0
VISUALSTYLE
  5
37
102
{ACAD_REACTORS
330
2A
102
}
330
2A
100
AcDbVisualStyle
  2
Thicken
 70
    13
177
     2
291
     1
 71
     2
176
     1
 72
     2
176
     1
 73
     0
176
     1
 90
        0
176
     1
 40
-0.6
176
     1
 41
-30.0
176
     1
 62
     5
 63
     7
421
 16777215
176
     1
 74
     1
176
     1
 91
        4
176
     1
 64
     7
176
     1
 65
   257
176
     1
 75
     1
176
     1
175
     1
176
     1
 42
1.0
176
     1
 92
       12
176
     1
 66
     7
176
     1
 43
1.0
176
     1
 76
     1
176
     1
 77
     6
176
     1
 78
     2
176
     1
 67
     7
176
     1
 79
     5
176
     1
170
     0
176
     1
171
     0
176
     1
290
     0
176
     1
 93
        1
176
     1
 44
0.0
176
     1
173
     0
176
     1
  0
ENDSEC
  0
EOF
